  0
SECTION
  2
HEADER
  9
$ACADVER
  1
AC1015
  9
$ACADMAINTVER
 70
     6
  9
$DWGCODEPAGE
  3
DOS932
  9
$INSBASE
 10
0.0
 20
0.0
 30
0.0
  9
$EXTMIN
 10
0.0
 20
0.0
 30
0.0
  9
$EXTMAX
 10
215.9
 20
139.7
 30
0.0
  9
$LIMMIN
 10
0.0
 20
0.0
  9
$LIMMAX
 10
215.9
 20
139.7
  9
$ORTHOMODE
 70
     0
  9
$REGENMODE
 70
     1
  9
$FILLMODE
 70
     1
  9
$QTEXTMODE
 70
     0
  9
$MIRRTEXT
 70
     1
  9
$LTSCALE
 40
0.5
  9
$ATTMODE
 70
     1
  9
$TEXTSIZE
 40
1.75
  9
$TRACEWID
 40
1.0
  9
$TEXTSTYLE
  7
Standard
  9
$CLAYER
  8
0
  9
$CELTYPE
  6
ByLayer
  9
$CECOLOR
 62
   256
  9
$CELTSCALE
 40
1.0
  9
$DISPSILH
 70
     0
  9
$DIMSCALE
 40
1.0
  9
$DIMASZ
 40
1.651
  9
$DIMEXO
 40
0.5
  9
$DIMDLI
 40
3.75
  9
$DIMRND
 40
0.0
  9
$DIMDLE
 40
0.0
  9
$DIMEXE
 40
0.5
  9
$DIMTP
 40
0.0
  9
$DIMTM
 40
0.0
  9
$DIMTXT
 40
1.75
  9
$DIMCEN
 40
2.5
  9
$DIMTSZ
 40
0.0
  9
$DIMTOL
 70
     0
  9
$DIMLIM
 70
     0
  9
$DIMTIH
 70
     1
  9
$DIMTOH
 70
     1
  9
$DIMSE1
 70
     0
  9
$DIMSE2
 70
     0
  9
$DIMTAD
 70
     1
  9
$DIMZIN
 70
     1
  9
$DIMBLK
  1

  9
$DIMASO
 70
     1
  9
$DIMSHO
 70
     1
  9
$DIMPOST
  1

  9
$DIMAPOST
  1

  9
$DIMALT
 70
     0
  9
$DIMALTD
 70
     3
  9
$DIMALTF
 40
0.0393700787
  9
$DIMLFAC
 40
1.0
  9
$DIMTOFL
 70
     1
  9
$DIMTVP
 40
0.0
  9
$DIMTIX
 70
     0
  9
$DIMSOXD
 70
     0
  9
$DIMSAH
 70
     0
  9
$DIMBLK1
  1

  9
$DIMBLK2
  1

  9
$DIMSTYLE
  2
ISO-25
  9
$DIMCLRD
 70
     0
  9
$DIMCLRE
 70
     0
  9
$DIMCLRT
 70
     0
  9
$DIMTFAC
 40
1.0
  9
$DIMGAP
 40
0.762
  9
$DIMJUST
 70
     0
  9
$DIMSD1
 70
     0
  9
$DIMSD2
 70
     0
  9
$DIMTOLJ
 70
     0
  9
$DIMTZIN
 70
     1
  9
$DIMALTZ
 70
     0
  9
$DIMALTTZ
 70
     0
  9
$DIMUPT
 70
     0
  9
$DIMDEC
 70
     2
  9
$DIMTDEC
 70
     2
  9
$DIMALTU
 70
     2
  9
$DIMALTTD
 70
     3
  9
$DIMTXSTY
  7
Standard
  9
$DIMAUNIT
 70
     0
  9
$DIMADEC
 70
     2
  9
$DIMALTRND
 40
0.0
  9
$DIMAZIN
 70
     0
  9
$DIMDSEP
 70
    44
  9
$DIMATFIT
 70
     3
  9
$DIMFRAC
 70
     0
  9
$DIMLDRBLK
  1

  9
$DIMLUNIT
 70
     2
  9
$DIMLWD
 70
    -2
  9
$DIMLWE
 70
    -2
  9
$DIMTMOVE
 70
     0
  9
$LUNITS
 70
     2
  9
$LUPREC
 70
     2
  9
$SKETCHINC
 40
1.0
  9
$FILLETRAD
 40
10.0
  9
$AUNITS
 70
     0
  9
$AUPREC
 70
     2
  9
$MENU
  1
.
  9
$ELEVATION
 40
0.0
  9
$PELEVATION
 40
0.0
  9
$THICKNESS
 40
0.0
  9
$LIMCHECK
 70
     0
  9
$CHAMFERA
 40
0.0
  9
$CHAMFERB
 40
0.0
  9
$CHAMFERC
 40
0.0
  9
$CHAMFERD
 40
0.0
  9
$SKPOLY
 70
     0
  9
$TDCREATE
 40
2459235.591699155
  9
$TDUCREATE
 40
2459235.216699155
  9
$TDUPDATE
 40
2459235.591699908
  9
$TDUUPDATE
 40
2459235.216699908
  9
$TDINDWG
 40
0.0000000116
  9
$TDUSRTIMER
 40
0.0000000116
  9
$USRTIMER
 70
     1
  9
$ANGBASE
 50
0.0
  9
$ANGDIR
 70
     0
  9
$PDMODE
 70
     0
  9
$PDSIZE
 40
-1.0
  9
$PLINEWID
 40
0.0
  9
$SPLFRAME
 70
     0
  9
$SPLINETYPE
 70
     6
  9
$SPLINESEGS
 70
     8
  9
$HANDSEED
  5
20F
  9
$SURFTAB1
 70
     6
  9
$SURFTAB2
 70
     6
  9
$SURFTYPE
 70
     6
  9
$SURFU
 70
     6
  9
$SURFV
 70
     6
  9
$UCSBASE
  2

  9
$UCSNAME
  2

  9
$UCSORG
 10
0.0
 20
0.0
 30
0.0
  9
$UCSXDIR
 10
1.0
 20
0.0
 30
0.0
  9
$UCSYDIR
 10
0.0
 20
1.0
 30
0.0
  9
$UCSORTHOREF
  2

  9
$UCSORTHOVIEW
 70
     0
  9
$UCSORGTOP
 10
0.0
 20
0.0
 30
0.0
  9
$UCSORGBOTTOM
 10
0.0
 20
0.0
 30
0.0
  9
$UCSORGLEFT
 10
0.0
 20
0.0
 30
0.0
  9
$UCSORGRIGHT
 10
0.0
 20
0.0
 30
0.0
  9
$UCSORGFRONT
 10
0.0
 20
0.0
 30
0.0
  9
$UCSORGBACK
 10
0.0
 20
0.0
 30
0.0
  9
$PUCSBASE
  2

  9
$PUCSNAME
  2

  9
$PUCSORG
 10
0.0
 20
0.0
 30
0.0
  9
$PUCSXDIR
 10
1.0
 20
0.0
 30
0.0
  9
$PUCSYDIR
 10
0.0
 20
1.0
 30
0.0
  9
$PUCSORTHOREF
  2

  9
$PUCSORTHOVIEW
 70
     0
  9
$PUCSORGTOP
 10
0.0
 20
0.0
 30
0.0
  9
$PUCSORGBOTTOM
 10
0.0
 20
0.0
 30
0.0
  9
$PUCSORGLEFT
 10
0.0
 20
0.0
 30
0.0
  9
$PUCSORGRIGHT
 10
0.0
 20
0.0
 30
0.0
  9
$PUCSORGFRONT
 10
0.0
 20
0.0
 30
0.0
  9
$PUCSORGBACK
 10
0.0
 20
0.0
 30
0.0
  9
$USERI1
 70
     0
  9
$USERI2
 70
     0
  9
$USERI3
 70
     0
  9
$USERI4
 70
     0
  9
$USERI5
 70
     0
  9
$USERR1
 40
0.0
  9
$USERR2
 40
0.0
  9
$USERR3
 40
0.0
  9
$USERR4
 40
0.0
  9
$USERR5
 40
0.0
  9
$WORLDVIEW
 70
     1
  9
$SHADEDGE
 70
     3
  9
$SHADEDIF
 70
    70
  9
$TILEMODE
 70
     1
  9
$MAXACTVP
 70
    64
  9
$PINSBASE
 10
0.0
 20
0.0
 30
0.0
  9
$PLIMCHECK
 70
     0
  9
$PEXTMIN
 10
1.0000000000E+20
 20
1.0000000000E+20
 30
1.0000000000E+20
  9
$PEXTMAX
 10
-1.0000000000E+20
 20
-1.0000000000E+20
 30
-1.0000000000E+20
  9
$PLIMMIN
 10
0.0
 20
0.0
  9
$PLIMMAX
 10
420.0
 20
297.0
  9
$UNITMODE
 70
     0
  9
$VISRETAIN
 70
     1
  9
$PLINEGEN
 70
     0
  9
$PSLTSCALE
 70
     1
  9
$TREEDEPTH
 70
  3020
  9
$CMLSTYLE
  2
Standard
  9
$CMLJUST
 70
     0
  9
$CMLSCALE
 40
20.0
  9
$PROXYGRAPHICS
 70
     1
  9
$MEASUREMENT
 70
     1
  9
$CELWEIGHT
370
    -1
  9
$ENDCAPS
280
     0
  9
$JOINSTYLE
280
     0
  9
$LWDISPLAY
290
     1
  9
$INSUNITS
 70
     4
  9
$HYPERLINKBASE
  1

  9
$STYLESHEET
  1

  9
$XEDIT
290
     1
  9
$CEPSNTYPE
380
     0
  9
$PSTYLEMODE
290
     1
  9
$FINGERPRINTGUID
  2
{CCAF8DC1-3D98-42F0-8773-DFDA4A5532CB}
  9
$VERSIONGUID
  2
{FAEB1C32-E019-11D5-929B-00C0DF256EC4}
  9
$EXTNAMES
290
     1
  9
$PSVPSCALE
 40
0.0
  9
$OLESTARTUP
290
     0
  0
ENDSEC
  0
SECTION
  2
CLASSES
  0
CLASS
  1
ACDBDICTIONARYWDFLT
  2
AcDbDictionaryWithDefault
  3
ObjectDBX Classes
 90
        0
280
     0
281
     0
  0
CLASS
  1
VISUALSTYLE
  2
AcDbVisualStyle
  3
ObjectDBX Classes
 90
     4095
280
     0
281
     0
  0
CLASS
  1
MATERIAL
  2
AcDbMaterial
  3
ObjectDBX Classes
 90
     1153
280
     0
281
     0
  0
CLASS
  1
SCALE
  2
AcDbScale
  3
ObjectDBX Classes
 90
     1153
280
     0
281
     0
  0
CLASS
  1
TABLESTYLE
  2
AcDbTableStyle
  3
ObjectDBX Classes
 90
     4095
280
     0
281
     0
  0
CLASS
  1
MLEADERSTYLE
  2
AcDbMLeaderStyle
  3
ACDB_MLEADERSTYLE_CLASS
 90
     4095
280
     0
281
     0
  0
CLASS
  1
SUN
  2
AcDbSun
  3
SCENEOE
 90
     1153
280
     0
281
     0
  0
CLASS
  1
ACDBPLACEHOLDER
  2
AcDbPlaceHolder
  3
ObjectDBX Classes
 90
        0
280
     0
281
     0
  0
CLASS
  1
LAYOUT
  2
AcDbLayout
  3
ObjectDBX Classes
 90
        0
280
     0
281
     0
  0
ENDSEC
  0
SECTION
  2
TABLES
  0
TABLE
  2
VPORT
  5
8
330
0
100
AcDbSymbolTable
 70
     1
  0
VPORT
  5
29
330
8
100
AcDbSymbolTableRecord
100
AcDbViewportTableRecord
  2
*Active
 70
     0
 10
0.0
 20
0.0
 11
1.0
 21
1.0
 12
107.95
 22
69.85
 13
0.0
 23
0.0
 14
10.0
 24
10.0
 15
10.0
 25
10.0
 16
0.0
 26
0.0
 36
1.0
 17
0.0
 27
0.0
 37
0.0
 40
139.7
 41
1.5454545455
 42
50.0
 43
0.0
 44
0.0
 50
0.0
 51
0.0
 71
     0
 72
  2000
 73
     1
 74
     3
 75
     0
 76
     0
 77
     0
 78
     0
281
     0
 65
     1
110
0.0
120
0.0
130
0.0
111
1.0
121
0.0
131
0.0
112
0.0
122
1.0
132
0.0
 79
     0
146
0.0
  0
ENDTAB
  0
TABLE
  2
LTYPE
  5
5
330
0
100
AcDbSymbolTable
 70
     6
  0
LTYPE
  5
14
330
5
100
AcDbSymbolTableRecord
100
AcDbLinetypeTableRecord
  2
ByBlock
 70
     0
  3

 72
    65
 73
     0
 40
0.0
  0
LTYPE
  5
15
330
5
100
AcDbSymbolTableRecord
100
AcDbLinetypeTableRecord
  2
ByLayer
 70
     0
  3

 72
    65
 73
     0
 40
0.0
  0
LTYPE
  5
16
330
5
100
AcDbSymbolTableRecord
100
AcDbLinetypeTableRecord
  2
Continuous
 70
     0
  3
Solid line
 72
    65
 73
     0
 40
0.0
  0
LTYPE
  5
6E
330
5
100
AcDbSymbolTableRecord
100
AcDbLinetypeTableRecord
  2
HIDDEN
 70
     0
  3
Hidden __ __ __ __ __ __ __ __ __ __ __ __ __ __
 72
    65
 73
     2
 40
1.905
 49
1.27
 74
     0
 49
-0.635
 74
     0
  0
LTYPE
  5
6F
330
5
100
AcDbSymbolTableRecord
100
AcDbLinetypeTableRecord
  2
PHANTOM
 70
     0
  3
Phantom ______  __  __  ______  __  __  ______
 72
    65
 73
     6
 40
12.7
 49
6.35
 74
     0
 49
-1.27
 74
     0
 49
1.27
 74
     0
 49
-1.27
 74
     0
 49
1.27
 74
     0
 49
-1.27
 74
     0
  0
LTYPE
  5
70
330
5
100
AcDbSymbolTableRecord
100
AcDbLinetypeTableRecord
  2
CENTER
 70
     0
  3
Center ____ _ ____ _ ____ _ ____ _ ____ _ ____
 72
    65
 73
     4
 40
10.16
 49
6.35
 74
     0
 49
-1.27
 74
     0
 49
1.27
 74
     0
 49
-1.27
 74
     0
  0
LTYPE
  5
71
330
5
100
AcDbSymbolTableRecord
100
AcDbLinetypeTableRecord
  2
CENTERX2
 70
     0
  3
Center (2x) ________  __  ________  __  _____
 72
    65
 73
     4
 40
20.32
 49
12.7
 74
     0
 49
-2.54
 74
     0
 49
2.54
 74
     0
 49
-2.54
 74
     0
  0
LTYPE
  5
72
330
5
100
AcDbSymbolTableRecord
100
AcDbLinetypeTableRecord
  2
DOT2
 70
     0
  3
Dot (.5x) ........................................
 72
    65
 73
     2
 40
0.635
 49
0.0
 74
     0
 49
-0.635
 74
     0
  0
ENDTAB
  0
TABLE
  2
LAYER
  5
2
330
0
100
AcDbSymbolTable
 70
     1
  0
LAYER
  5
10
330
2
100
AcDbSymbolTableRecord
100
AcDbLayerTableRecord
  2
0
 70
     0
 62
     7
  6
Continuous
370
    -3
390
F
  0
ENDTAB
  0
TABLE
  2
STYLE
  5
3
330
0
100
AcDbSymbolTable
 70
     2
  0
STYLE
  5
11
330
3
100
AcDbSymbolTableRecord
100
AcDbTextStyleTableRecord
  2
Standard
 70
     0
 40
0.0
 41
1.0
 50
0.0
 71
     0
 42
1.75
  3
txt
  4
bigfont
  0
STYLE
  5
73
330
3
100
AcDbSymbolTableRecord
100
AcDbTextStyleTableRecord
  2
SLDTEXTSTYLE0
 70
     0
 40
0.0
 41
0.7
 50
0.0
 71
     0
 42
1.75
  3
TXT
  4
bigfont
  0
ENDTAB
  0
TABLE
  2
VIEW
  5
6
330
0
100
AcDbSymbolTable
 70
     0
  0
ENDTAB
  0
TABLE
  2
UCS
  5
7
330
0
100
AcDbSymbolTable
 70
     0
  0
ENDTAB
  0
TABLE
  2
APPID
  5
9
330
0
100
AcDbSymbolTable
 70
     1
  0
APPID
  5
12
330
9
100
AcDbSymbolTableRecord
100
AcDbRegAppTableRecord
  2
ACAD
 70
     0
  0
ENDTAB
  0
TABLE
  2
DIMSTYLE
  5
A
330
0
100
AcDbSymbolTable
 70
     1
100
AcDbDimStyleTable
  0
DIMSTYLE
105
27
330
A
100
AcDbSymbolTableRecord
100
AcDbDimStyleTableRecord
  2
ISO-25
 70
     0
 41
2.5
 42
0.625
 43
3.75
 44
1.25
 73
     0
 74
     0
 77
     1
 78
     8
140
2.5
141
2.5
143
0.0393700787
147
0.625
171
     3
172
     1
178
     0
271
     2
272
     2
274
     3
278
    44
283
     0
284
     8
340
11
  0
ENDTAB
  0
TABLE
  2
BLOCK_RECORD
  5
1
330
0
100
AcDbSymbolTable
 70
     3
  0
BLOCK_RECORD
  5
1F
330
1
100
AcDbSymbolTableRecord
100
AcDbBlockTableRecord
  2
*Model_Space
340
22
  0
BLOCK_RECORD
  5
1B
330
1
100
AcDbSymbolTableRecord
100
AcDbBlockTableRecord
  2
*Paper_Space
340
1E
  0
BLOCK_RECORD
  5
23
330
1
100
AcDbSymbolTableRecord
100
AcDbBlockTableRecord
  2
*Paper_Space0
340
26
  0
BLOCK_RECORD
  5
19B
330
1
100
AcDbSymbolTableRecord
100
AcDbBlockTableRecord
  2
SW_CENTERMARKSYMBOL_0
340
0
102
{BLKREFS
331
1A6
102
}
  0
BLOCK_RECORD
  5
1FF
330
1
100
AcDbSymbolTableRecord
100
AcDbBlockTableRecord
  2
SW_CENTERMARKSYMBOL_1
340
0
102
{BLKREFS
331
20A
102
}
  0
ENDTAB
  0
ENDSEC
  0
SECTION
  2
BLOCKS
  0
BLOCK
  5
20
330
1F
100
AcDbEntity
  8
0
100
AcDbBlockBegin
  2
*Model_Space
 70
     0
 10
0.0
 20
0.0
 30
0.0
  3
*Model_Space
  1

  0
ENDBLK
  5
21
330
1F
100
AcDbEntity
  8
0
100
AcDbBlockEnd
  0
BLOCK
  5
1C
330
1B
100
AcDbEntity
 67
     1
  8
0
100
AcDbBlockBegin
  2
*Paper_Space
 70
     0
 10
0.0
 20
0.0
 30
0.0
  3
*Paper_Space
  1

  0
ENDBLK
  5
1D
330
1B
100
AcDbEntity
 67
     1
  8
0
100
AcDbBlockEnd
  0
BLOCK
  5
24
330
23
100
AcDbEntity
  8
0
100
AcDbBlockBegin
  2
*Paper_Space0
 70
     0
 10
0.0
 20
0.0
 30
0.0
  3
*Paper_Space0
  1

  0
ENDBLK
  5
25
330
23
100
AcDbEntity
  8
0
100
AcDbBlockEnd
  0
BLOCK
  5
19C
330
19B
100
AcDbEntity
  8
0
100
AcDbBlockBegin
  2
SW_CENTERMARKSYMBOL_0
 70
     0
 10
0.0
 20
0.0
 30
0.0
  3
SW_CENTERMARKSYMBOL_0
  1

  0
LINE
  5
19E
330
19B
100
AcDbEntity
  8
0
  6
Continuous
 62
     0
370
    18
100
AcDbLine
 10
0.0
 20
0.0
 30
0.0
 11
0.0
 21
2.5
 31
0.0
  0
LINE
  5
19F
330
19B
100
AcDbEntity
  8
0
  6
Continuous
 62
     0
370
    18
100
AcDbLine
 10
0.0
 20
0.0
 30
0.0
 11
-2.5
 21
0.0
 31
0.0
  0
LINE
  5
1A0
330
19B
100
AcDbEntity
  8
0
  6
Continuous
 62
     0
370
    18
100
AcDbLine
 10
0.0
 20
0.0
 30
0.0
 11
0.0
 21
-2.5
 31
0.0
  0
LINE
  5
1A1
330
19B
100
AcDbEntity
  8
0
  6
Continuous
 62
     0
370
    18
100
AcDbLine
 10
0.0
 20
0.0
 30
0.0
 11
2.5
 21
0.0
 31
0.0
  0
LINE
  5
1A2
330
19B
100
AcDbEntity
  8
0
  6
Continuous
 62
     0
370
    18
100
AcDbLine
 10
0.0
 20
5.0
 30
0.0
 11
0.0
 21
27.5399488953
 31
0.0
  0
LINE
  5
1A3
330
19B
100
AcDbEntity
  8
0
  6
Continuous
 62
     0
370
    18
100
AcDbLine
 10
-5.0
 20
0.0
 30
0.0
 11
-9.9806314144
 21
0.0
 31
0.0
  0
LINE
  5
1A4
330
19B
100
AcDbEntity
  8
0
  6
Continuous
 62
     0
370
    18
100
AcDbLine
 10
0.0
 20
-5.0
 30
0.0
 11
0.0
 21
-11.4633080795
 31
0.0
  0
LINE
  5
1A5
330
19B
100
AcDbEntity
  8
0
  6
Continuous
 62
     0
370
    18
100
AcDbLine
 10
5.0
 20
0.0
 30
0.0
 11
10.2432796095
 21
0.0
 31
0.0
  0
ENDBLK
  5
19D
330
19B
100
AcDbEntity
  8
0
100
AcDbBlockEnd
  0
BLOCK
  5
200
330
1FF
100
AcDbEntity
  8
0
100
AcDbBlockBegin
  2
SW_CENTERMARKSYMBOL_1
 70
     0
 10
0.0
 20
0.0
 30
0.0
  3
SW_CENTERMARKSYMBOL_1
  1

  0
LINE
  5
202
330
1FF
100
AcDbEntity
  8
0
  6
Continuous
 62
     0
370
    18
100
AcDbLine
 10
0.0
 20
0.0
 30
0.0
 11
0.0
 21
2.5
 31
0.0
  0
LINE
  5
203
330
1FF
100
AcDbEntity
  8
0
  6
Continuous
 62
     0
370
    18
100
AcDbLine
 10
0.0
 20
0.0
 30
0.0
 11
-2.5
 21
0.0
 31
0.0
  0
LINE
  5
204
330
1FF
100
AcDbEntity
  8
0
  6
Continuous
 62
     0
370
    18
100
AcDbLine
 10
0.0
 20
0.0
 30
0.0
 11
0.0
 21
-2.5
 31
0.0
  0
LINE
  5
205
330
1FF
100
AcDbEntity
  8
0
  6
Continuous
 62
     0
370
    18
100
AcDbLine
 10
0.0
 20
0.0
 30
0.0
 11
2.5
 21
0.0
 31
0.0
  0
LINE
  5
206
330
1FF
100
AcDbEntity
  8
0
  6
Continuous
 62
     0
370
    18
100
AcDbLine
 10
0.0
 20
5.0
 30
0.0
 11
0.0
 21
11.5
 31
0.0
  0
LINE
  5
207
330
1FF
100
AcDbEntity
  8
0
  6
Continuous
 62
     0
370
    18
100
AcDbLine
 10
-5.0
 20
0.0
 30
0.0
 11
-11.5
 21
0.0
 31
0.0
  0
LINE
  5
208
330
1FF
100
AcDbEntity
  8
0
  6
Continuous
 62
     0
370
    18
100
AcDbLine
 10
0.0
 20
-5.0
 30
0.0
 11
0.0
 21
-11.5
 31
0.0
  0
LINE
  5
209
330
1FF
100
AcDbEntity
  8
0
  6
Continuous
 62
     0
370
    18
100
AcDbLine
 10
5.0
 20
0.0
 30
0.0
 11
26.122725463
 21
0.0
 31
0.0
  0
ENDBLK
  5
201
330
1FF
100
AcDbEntity
  8
0
100
AcDbBlockEnd
  0
ENDSEC
  0
SECTION
  2
ENTITIES
  0
MTEXT
  5
74
330
1F
100
AcDbEntity
  8
0
  6
Continuous
 62
     7
370
     0
100
AcDbMText
 10
92.9977695325
 20
70.3470521086
 30
0.0
 40
2.6458333333
 41
0.0
 71
     1
 72
     1
  1
5R-LK1032
  7
SLDTEXTSTYLE0
 73
     1
 44
1.0
  0
LINE
  5
75
330
1F
100
AcDbEntity
  8
0
  6
Continuous
 62
     7
370
    25
100
AcDbLine
 10
79.6279292324
 20
61.5969834632
 30
0.0
 11
79.1279292324
 21
62.0969834632
 31
0.0
  0
LINE
  5
76
330
1F
100
AcDbEntity
  8
0
  6
Continuous
 62
     7
370
    25
100
AcDbLine
 10
62.1279292324
 20
62.0969834632
 30
0.0
 11
61.6279292324
 21
61.5969834632
 31
0.0
  0
LINE
  5
77
330
1F
100
AcDbEntity
  8
0
  6
Continuous
 62
     7
370
    25
100
AcDbLine
 10
61.6279292324
 20
61.5969834632
 30
0.0
 11
61.6279292324
 21
50.0969834632
 31
0.0
  0
LINE
  5
78
330
1F
100
AcDbEntity
  8
0
  6
Continuous
 62
     7
370
    25
100
AcDbLine
 10
79.6279292324
 20
50.0969834632
 30
0.0
 11
79.6279292324
 21
61.5969834632
 31
0.0
  0
ARC
  5
79
330
1F
100
AcDbEntity
  8
0
  6
Continuous
 62
     7
370
    25
100
AcDbCircle
 10
62.6279292324
 20
50.0969834632
 30
0.0
 40
1.0
100
AcDbArc
 50
180.0
 51
270.0
  0
ARC
  5
7A
330
1F
100
AcDbEntity
  8
0
  6
Continuous
 62
     7
370
    25
100
AcDbCircle
 10
78.6279292324
 20
50.0969834632
 30
0.0
 40
1.0
100
AcDbArc
 50
270.0
 51
0.0
  0
ARC
  5
7B
330
1F
100
AcDbEntity
  8
0
  6
Continuous
 62
     7
370
    25
100
AcDbCircle
 10
83.6279292324
 20
45.0969834632
 30
0.0
 40
1.000000000000002
100
AcDbArc
 50
148.0359610897
 51
180.0
  0
ARC
  5
7C
330
1F
100
AcDbEntity
  8
0
  6
Continuous
 62
     7
370
    25
100
AcDbCircle
 10
83.6279292324
 20
29.0969834632
 30
0.0
 40
1.0
100
AcDbArc
 50
180.0
 51
211.9640389103
  0
LINE
  5
7D
330
1F
100
AcDbEntity
  8
0
  6
Continuous
 62
     7
370
    25
100
AcDbLine
 10
82.7795487051
 20
28.5675965717
 30
0.0
 11
93.5626033873
 21
28.9045670306
 31
0.0
  0
LINE
  5
7E
330
1F
100
AcDbEntity
  8
0
  6
Continuous
 62
     7
370
    25
100
AcDbLine
 10
93.5626033873
 20
45.2893998959
 30
0.0
 11
82.7795487051
 21
45.6263703547
 31
0.0
  0
LINE
  5
7F
330
1F
100
AcDbEntity
  8
0
  6
Continuous
 62
     7
370
    25
100
AcDbLine
 10
93.5626033873
 20
28.9045670306
 30
0.0
 11
95.6279292324
 21
30.0969834632
 31
0.0
  0
LINE
  5
80
330
1F
100
AcDbEntity
  8
0
  6
Continuous
 62
     7
370
    25
100
AcDbLine
 10
95.6279292324
 20
44.0969834632
 30
0.0
 11
93.5626033873
 21
45.2893998959
 31
0.0
  0
ARC
  5
81
330
1F
100
AcDbEntity
  8
0
  6
Continuous
 62
     7
370
    25
100
AcDbCircle
 10
62.6279292324
 20
48.0969834632
 30
0.0
 40
1.000000000000007
100
AcDbArc
 50
0.0
 51
90.0
  0
ARC
  5
82
330
1F
100
AcDbEntity
  8
0
  6
Continuous
 62
     7
370
    25
100
AcDbCircle
 10
78.6279292324
 20
48.0969834632
 30
0.0
 40
1.000000000000007
100
AcDbArc
 50
90.0
 51
180.0
  0
ARC
  5
83
330
1F
100
AcDbEntity
  8
0
  6
Continuous
 62
     7
370
    25
100
AcDbCircle
 10
81.6279292324
 20
45.0969834632
 30
0.0
 40
1.0
100
AcDbArc
 50
270.0
 51
0.0
  0
ARC
  5
84
330
1F
100
AcDbEntity
  8
0
  6
Continuous
 62
     7
370
    25
100
AcDbCircle
 10
81.6279292324
 20
29.0969834632
 30
0.0
 40
1.0
100
AcDbArc
 50
0.0
 51
90.0
  0
LINE
  5
85
330
1F
100
AcDbEntity
  8
0
  6
Continuous
 62
     7
370
    25
100
AcDbLine
 10
77.6279292324
 20
44.0969834632
 30
0.0
 11
77.6279292324
 21
48.0969834632
 31
0.0
  0
LINE
  5
86
330
1F
100
AcDbEntity
  8
0
  6
Continuous
 62
     7
370
    25
100
AcDbLine
 10
63.6279292324
 20
48.0969834632
 30
0.0
 11
63.6279292324
 21
32.0969834632
 31
0.0
  0
LINE
  5
87
330
1F
100
AcDbEntity
  8
0
  6
Continuous
 62
     7
370
    25
100
AcDbLine
 10
65.6279292324
 20
30.0969834632
 30
0.0
 11
81.6279292324
 21
30.0969834632
 31
0.0
  0
LINE
  5
88
330
1F
100
AcDbEntity
  8
0
  6
Continuous
 62
     7
370
    25
100
AcDbLine
 10
81.6279292324
 20
44.0969834632
 30
0.0
 11
77.6279292324
 21
44.0969834632
 31
0.0
  0
ARC
  5
89
330
1F
100
AcDbEntity
  8
0
  6
Continuous
 62
     7
370
    25
100
AcDbCircle
 10
65.6279292324
 20
32.0969834632
 30
0.0
 40
2.000000000000004
100
AcDbArc
 50
179.8287396958
 51
270.2286513101
  0
LINE
  5
8A
330
1F
100
AcDbEntity
  8
0
  6
Continuous
 62
     7
370
    25
100
AcDbLine
 10
79.6279292324
 20
61.5969834632
 30
0.0
 11
61.6279292324
 21
61.5969834632
 31
0.0
  0
LINE
  5
8B
330
1F
100
AcDbEntity
  8
0
  6
Continuous
 62
     7
370
    25
100
AcDbLine
 10
62.1279292324
 20
62.0969834632
 30
0.0
 11
79.1279292324
 21
62.0969834632
 31
0.0
  0
LINE
  5
8C
330
1F
100
AcDbEntity
  8
0
  6
Continuous
 62
     7
370
    25
100
AcDbLine
 10
62.6279292338
 20
49.0969834632
 30
0.0
 11
78.6279292324
 21
49.0969834632
 31
0.0
  0
LINE
  5
8D
330
1F
100
AcDbEntity
  8
0
  6
Continuous
 62
     7
370
    25
100
AcDbLine
 10
82.7795487051
 20
28.5675965717
 30
0.0
 11
82.7795487051
 21
45.6263703547
 31
0.0
  0
LINE
  5
8E
330
1F
100
AcDbEntity
  8
0
  6
Continuous
 62
     7
370
    25
100
AcDbLine
 10
82.6279292324
 20
29.0969834632
 30
0.0
 11
82.6279292324
 21
45.0969834632
 31
0.0
  0
LINE
  5
8F
330
1F
100
AcDbEntity
  8
0
  6
Continuous
 62
     7
370
    25
100
AcDbLine
 10
93.5626033873
 20
37.0969834632
 30
0.0
 11
93.5626033873
 21
45.2893998959
 31
0.0
  0
LINE
  5
90
330
1F
100
AcDbEntity
  8
0
  6
Continuous
 62
     7
370
    25
100
AcDbLine
 10
93.5626033873
 20
28.9045670306
 30
0.0
 11
93.5626033873
 21
37.0969834632
 31
0.0
  0
LINE
  5
91
330
1F
100
AcDbEntity
  8
0
  6
Continuous
 62
     7
370
    25
100
AcDbLine
 10
95.6279292324
 20
44.0969834632
 30
0.0
 11
95.6279292324
 21
30.0969834632
 31
0.0
  0
LINE
  5
92
330
1F
100
AcDbEntity
  8
0
  6
Continuous
 62
     7
370
    25
100
AcDbLine
 10
76.3779292324
 20
44.3469834632
 30
0.0
 11
73.2736805435
 21
44.3469834632
 31
0.0
  0
LINE
  5
93
330
1F
100
AcDbEntity
  8
0
  6
Continuous
 62
     7
370
    25
100
AcDbLine
 10
76.3779292324
 20
44.0969834632
 30
0.0
 11
76.3779292324
 21
44.3469834632
 31
0.0
  0
ARC
  5
94
330
1F
100
AcDbEntity
  8
0
  6
Continuous
 62
     7
370
    25
100
AcDbCircle
 10
77.6279292324
 20
44.0969834632
 30
0.0
 40
1.25
100
AcDbArc
 50
180.0
 51
270.0
  0
LINE
  5
95
330
1F
100
AcDbEntity
  8
0
  6
Continuous
 62
     7
370
    25
100
AcDbLine
 10
77.8779292324
 20
42.8469834632
 30
0.0
 11
77.6279292324
 21
42.8469834632
 31
0.0
  0
LINE
  5
96
330
1F
100
AcDbEntity
  8
0
  6
Continuous
 62
     7
370
    25
100
AcDbLine
 10
77.8779292324
 20
39.7427347743
 30
0.0
 11
77.8779292324
 21
42.8469834632
 31
0.0
  0
LINE
  5
97
330
1F
100
AcDbEntity
  8
0
  6
Continuous
 62
     7
370
    25
100
AcDbLine
 10
77.8779292324
 20
39.7427347743
 30
0.0
 11
77.8779292324
 21
37.0969834632
 31
0.0
  0
LINE
  5
98
330
1F
100
AcDbEntity
  8
0
  6
Continuous
 62
     7
370
    25
100
AcDbLine
 10
77.8779292324
 20
37.0969834632
 30
0.0
 11
77.8779292324
 21
34.4512321521
 31
0.0
  0
LINE
  5
99
330
1F
100
AcDbEntity
  8
0
  6
Continuous
 62
     7
370
    25
100
AcDbLine
 10
77.8779292324
 20
31.3469834632
 30
0.0
 11
77.8779292324
 21
34.4512321521
 31
0.0
  0
LINE
  5
9A
330
1F
100
AcDbEntity
  8
0
  6
Continuous
 62
     7
370
    25
100
AcDbLine
 10
66.6279292324
 20
31.3469834632
 30
0.0
 11
77.8779292324
 21
31.3469834632
 31
0.0
  0
ARC
  5
9B
330
1F
100
AcDbEntity
  8
0
  6
Continuous
 62
     7
370
    25
100
AcDbCircle
 10
66.6279292324
 20
33.0969834632
 30
0.0
 40
1.750000000000004
100
AcDbArc
 50
180.0
 51
270.0
  0
LINE
  5
9C
330
1F
100
AcDbEntity
  8
0
  6
Continuous
 62
     7
370
    25
100
AcDbLine
 10
64.8779292324
 20
44.3469834632
 30
0.0
 11
64.8779292324
 21
33.0969834632
 31
0.0
  0
LINE
  5
9D
330
1F
100
AcDbEntity
  8
0
  6
Continuous
 62
     7
370
    25
100
AcDbLine
 10
67.9821779213
 20
44.3469834632
 30
0.0
 11
64.8779292324
 21
44.3469834632
 31
0.0
  0
LINE
  5
9E
330
1F
100
AcDbEntity
  8
0
  6
Continuous
 62
     7
370
    25
100
AcDbLine
 10
67.9821779213
 20
44.3469834632
 30
0.0
 11
70.6279292324
 21
44.3469834632
 31
0.0
  0
LINE
  5
9F
330
1F
100
AcDbEntity
  8
0
  6
Continuous
 62
     7
370
    25
100
AcDbLine
 10
70.6279292324
 20
44.3469834632
 30
0.0
 11
73.2736805435
 21
44.3469834632
 31
0.0
  0
LINE
  5
A0
330
1F
100
AcDbEntity
  8
0
  6
Continuous
 62
     7
370
    25
100
AcDbLine
 10
75.4798310001
 20
36.9160289679
 30
0.0
 11
76.455106519
 21
34.1892015883
 31
0.0
  0
SPLINE
  5
A1
330
1F
100
AcDbEntity
  8
0
  6
Continuous
 62
     7
370
    25
100
AcDbSpline
210
0.0
220
0.0
230
1.0
 70
     8
 71
     3
 72
    14
 73
    10
 74
     0
 42
0.000000001
 43
0.00000001
 40
0.0
 40
0.0
 40
0.0
 40
0.0
 40
0.25
 40
0.25
 40
0.5
 40
0.5
 40
0.75
 40
0.75
 40
1.0
 40
1.0
 40
1.0
 40
1.0
 10
74.1061834620545
 20
36.91602896785587
 30
0.0
 10
74.16657988525331
 20
37.04666634816072
 30
0.0
 10
74.26610944691073
 20
37.15673071332624
 30
0.0
 10
74.5071951376571
 20
37.30650799679942
 30
0.0
 10
74.64851217095051
 20
37.34685393393384
 30
0.0
 10
74.93610538506316
 20
37.34711236486339
 30
0.0
 10
75.07756304095206
 20
37.30729132776564
 30
0.0
 10
75.3211829780504
 20
37.15593391361057
 30
0.0
 10
75.41943997701745
 20
37.0466546677109
 30
0.0
 10
75.47983100009716
 20
36.91602896785643
 30
0.0
  0
LINE
  5
A2
330
1F
100
AcDbEntity
  8
0
  6
Continuous
 62
     7
370
    25
100
AcDbLine
 10
73.1311342449
 20
34.189834318
 30
0.0
 11
74.1061834621
 21
36.9160289679
 31
0.0
  0
SPLINE
  5
A3
330
1F
100
AcDbEntity
  8
0
  6
Continuous
 62
     7
370
    25
100
AcDbSpline
210
0.0
220
0.0
230
1.0
 70
     8
 71
     3
 72
    10
 73
     6
 74
     0
 42
0.000000001
 43
0.00000001
 40
0.0
 40
0.0
 40
0.0
 40
0.0
 40
0.5
 40
0.5
 40
1.0
 40
1.0
 40
1.0
 40
1.0
 10
72.73053028659145
 20
34.05380059492816
 30
0.0
 10
72.80098218484845
 20
34.01503013279802
 30
0.0
 10
72.88631417994324
 20
34.00770779274444
 30
0.0
 10
73.0383000931049
 20
34.05667310778683
 30
0.0
 10
73.10400465836994
 20
34.11398118931151
 30
0.0
 10
73.131134244919
 20
34.18983431795873
 30
0.0
  0
LINE
  5
A4
330
1F
100
AcDbEntity
  8
0
  6
Continuous
 62
     7
370
    25
100
AcDbLine
 10
71.9629207829
 20
34.4762246308
 30
0.0
 11
72.7305302866
 21
34.0538005949
 31
0.0
  0
LINE
  5
A5
330
1F
100
AcDbEntity
  8
0
  6
Continuous
 62
     7
370
    25
100
AcDbLine
 10
72.9627081332
 20
32.5702964169
 30
0.0
 11
71.9629207829
 21
34.4762246308
 31
0.0
  0
SPLINE
  5
A6
330
1F
100
AcDbEntity
  8
0
  6
Continuous
 62
     7
370
    25
100
AcDbSpline
210
0.0
220
0.0
230
1.0
 70
     8
 71
     3
 72
    10
 73
     6
 74
     0
 42
0.000000001
 43
0.00000001
 40
0.0
 40
0.0
 40
0.0
 40
0.0
 40
0.5
 40
0.5
 40
1.0
 40
1.0
 40
1.0
 40
1.0
 10
73.4530799767939
 20
32.4817223757079
 30
0.0
 10
73.38096898247184
 20
32.41771660590391
 30
0.0
 10
73.27986485563204
 20
32.39013126765033
 30
0.0
 10
73.09230699759208
 20
32.42393202761408
 30
0.0
 10
73.00750377199971
 20
32.48490098578448
 30
0.0
 10
72.96270813321613
 20
32.57029641691054
 30
0.0
  0
SPLINE
  5
A7
330
1F
100
AcDbEntity
  8
0
  6
Continuous
 62
     7
370
    25
100
AcDbSpline
210
0.0
220
0.0
230
1.0
 70
     8
 71
     3
 72
    14
 73
    10
 74
     0
 42
0.000000001
 43
0.00000001
 40
0.0
 40
0.0
 40
0.0
 40
0.0
 40
0.4999999999999987
 40
0.4999999999999987
 40
0.6249999999999988
 40
0.6249999999999988
 40
0.7499999999999993
 40
0.7499999999999993
 40
1.0
 40
1.0
 40
1.0
 40
1.0
 10
76.13293448535788
 20
32.4817223757078
 30
0.0
 10
75.76491399678798
 20
32.80837762288598
 30
0.0
 10
75.28086621306664
 20
32.98350046627807
 30
0.0
 10
74.67114042699505
 20
32.98352356476724
 30
0.0
 10
74.54803356835437
 20
32.9725566823773
 30
0.0
 10
74.30896547589747
 20
32.92967619844713
 30
0.0
 10
74.19177854378536
 20
32.89783034172066
 30
0.0
 10
73.84754148146276
 20
32.76982398179187
 30
0.0
 10
73.63711069489568
 20
32.64506817187135
 30
0.0
 10
73.4530799767939
 20
32.4817223757079
 30
0.0
  0
SPLINE
  5
A8
330
1F
100
AcDbEntity
  8
0
  6
Continuous
 62
     7
370
    25
100
AcDbSpline
210
0.0
220
0.0
230
1.0
 70
     8
 71
     3
 72
    10
 73
     6
 74
     0
 42
0.000000001
 43
0.00000001
 40
0.0
 40
0.0
 40
0.0
 40
0.0
 40
0.5
 40
0.5
 40
1.0
 40
1.0
 40
1.0
 40
1.0
 10
76.62330632893575
 20
32.57029641691089
 30
0.0
 10
76.5785073395485
 20
32.48489459841615
 30
0.0
 10
76.49322349389095
 20
32.42370614864042
 30
0.0
 10
76.30573363429016
 20
32.39019563056732
 30
0.0
 10
76.20505456897087
 20
32.41770853824269
 30
0.0
 10
76.13293448535786
 20
32.4817223757078
 30
0.0
  0
LINE
  5
A9
330
1F
100
AcDbEntity
  8
0
  6
Continuous
 62
     7
370
    25
100
AcDbLine
 10
77.6346532889
 20
34.4982611029
 30
0.0
 11
76.6233063289
 21
32.5702964169
 31
0.0
  0
LINE
  5
AA
330
1F
100
AcDbEntity
  8
0
  6
Continuous
 62
     7
370
    25
100
AcDbLine
 10
76.8596317233
 20
34.0553670226
 30
0.0
 11
77.6346532889
 21
34.4982611029
 31
0.0
  0
SPLINE
  5
AB
330
1F
100
AcDbEntity
  8
0
  6
Continuous
 62
     7
370
    25
100
AcDbSpline
210
0.0
220
0.0
230
1.0
 70
     8
 71
     3
 72
    10
 73
     6
 74
     0
 42
0.000000001
 43
0.00000001
 40
0.0
 40
0.0
 40
0.0
 40
0.0
 40
0.5
 40
0.5
 40
1.0
 40
1.0
 40
1.0
 40
1.0
 10
76.45510651896554
 20
34.18920158828284
 30
0.0
 10
76.48254869415568
 20
34.11247447556858
 30
0.0
 10
76.54963132482808
 20
34.05486729020352
 30
0.0
 10
76.70243917928822
 20
34.00691154132007
 30
0.0
 10
76.78903166445312
 20
34.01502188956682
 30
0.0
 10
76.85963172330379
 20
34.05536702256367
 30
0.0
  0
SPLINE
  5
AC
330
1F
100
AcDbEntity
  8
0
  6
Continuous
 62
     7
370
    25
100
AcDbSpline
210
0.0
220
0.0
230
1.0
 70
     8
 71
     3
 72
     8
 73
     4
 74
     0
 42
0.000000001
 43
0.00000001
 40
0.0
 40
0.0
 40
0.0
 40
0.0
 40
1.0
 40
1.0
 40
1.0
 40
1.0
 10
64.61242825889023
 20
32.80019705355736
 30
0.0
 10
64.59991240120564
 20
32.89761247266872
 30
0.0
 10
64.59344647378757
 20
32.99649321019597
 30
0.0
 10
64.59344647378757
 20
33.09698346321311
 30
0.0
  0
LINE
  5
AD
330
1F
100
AcDbEntity
  8
0
  6
Continuous
 62
     7
370
    25
100
AcDbLine
 10
76.9962157211
 20
43.4652699519
 30
0.0
 11
77.6279292324
 21
44.0969834632
 31
0.0
  0
SPLINE
  5
AE
330
1F
100
AcDbEntity
  8
0
  6
Continuous
 62
     7
370
    25
100
AcDbSpline
210
0.0
220
0.0
230
1.0
 70
     8
 71
     3
 72
    12
 73
     8
 74
     0
 42
0.000000001
 43
0.00000001
 40
0.0
 40
0.0
 40
0.0
 40
0.0
 40
0.2500000000000002
 40
0.2500000000000002
 40
0.5000000000000004
 40
0.5000000000000004
 40
1.0
 40
1.0
 40
1.0
 40
1.0
 10
76.66241199102895
 20
44.09698346321311
 30
0.0
 10
76.66241199102895
 20
44.01017768609648
 30
0.0
 10
76.67751084396716
 20
43.9266924875596
 30
0.0
 10
76.72496270215365
 20
43.78271229882133
 30
0.0
 10
76.7558677140699
 20
43.7234761658981
 30
0.0
 10
76.85520146581905
 20
43.5731625977411
 30
0.0
 10
76.92753373755458
 20
43.51079382481234
 30
0.0
 10
76.99621572110554
 20
43.46526995191039
 30
0.0
  0
LINE
  5
AF
330
1F
100
AcDbEntity
  8
0
  6
Continuous
 62
     7
370
    25
100
AcDbLine
 10
76.662411991
 20
44.3469834632
 30
0.0
 11
76.662411991
 21
44.0969834632
 31
0.0
  0
SPLINE
  5
B0
330
1F
100
AcDbEntity
  8
0
  6
Continuous
 62
     7
370
    25
100
AcDbSpline
210
0.0
220
0.0
230
1.0
 70
     8
 71
     3
 72
    14
 73
    10
 74
     0
 42
0.000000001
 43
0.00000001
 40
0.0
 40
0.0
 40
0.0
 40
0.0
 40
0.25
 40
0.25
 40
0.5
 40
0.5
 40
0.75
 40
0.75
 40
1.0
 40
1.0
 40
1.0
 40
1.0
 10
76.66241199102895
 20
44.3469834632131
 30
0.0
 10
76.66241199102895
 20
44.43878585782603
 30
0.0
 10
76.63690179708982
 20
44.52294979674146
 30
0.0
 10
76.56993542930036
 20
44.65004547731284
 30
0.0
 10
76.52812079669889
 20
44.69816794656399
 30
0.0
 10
76.43816027901735
 20
44.77348572634274
 30
0.0
 10
76.38915328691766
 20
44.80086193943607
 30
0.0
 10
76.28783943637838
 20
44.83742379005821
 30
0.0
 10
76.23497081972778
 20
44.84698346321311
 30
0.0
 10
76.17965337033928
 20
44.8469834632131
 30
0.0
  0
LINE
  5
B1
330
1F
100
AcDbEntity
  8
0
  6
Continuous
 62
     7
370
    25
100
AcDbLine
 10
73.1824477396
 20
44.8469834632
 30
0.0
 11
76.1796533703
 21
44.8469834632
 31
0.0
  0
SPLINE
  5
B2
330
1F
100
AcDbEntity
  8
0
  6
Continuous
 62
     7
370
    25
100
AcDbSpline
210
0.0
220
0.0
230
1.0
 70
    24
 71
     3
 72
    14
 73
    10
 74
     0
 42
0.000000001
 43
0.00000001
 40
0.0
 40
0.0
 40
0.0
 40
0.0
 40
0.25
 40
0.25
 40
0.5
 40
0.5
 40
0.75
 40
0.75
 40
1.0
 40
1.0
 40
1.0
 40
1.0
 10
70.62792923240826
 20
44.84698346321311
 30
0.0
 10
70.84322546293086
 20
44.84698346321311
 30
0.0
 10
71.05852282407409
 20
44.84698346321311
 30
0.0
 10
71.48825658867011
 20
44.84698346321311
 30
0.0
 10
71.70269525806657
 20
44.84698346321311
 30
0.0
 10
72.12978506177667
 20
44.84698346321311
 30
0.0
 10
72.34243847321125
 20
44.84698346321311
 30
0.0
 10
72.76489517572362
 20
44.84698346321311
 30
0.0
 10
72.97470075260888
 20
44.84698346321311
 30
0.0
 10
73.18244773964304
 20
44.84698346321311
 30
0.0
  0
SPLINE
  5
B3
330
1F
100
AcDbEntity
  8
0
  6
Continuous
 62
     7
370
    25
100
AcDbSpline
210
0.0
220
0.0
230
1.0
 70
    24
 71
     3
 72
    14
 73
    10
 74
     0
 42
0.000000001
 43
0.00000001
 40
0.0
 40
0.0
 40
0.0
 40
0.0
 40
0.25
 40
0.25
 40
0.5
 40
0.5
 40
0.75
 40
0.75
 40
1.0
 40
1.0
 40
1.0
 40
1.0
 10
70.62792923240826
 20
44.84698346321311
 30
0.0
 10
70.41263300188567
 20
44.84698346321311
 30
0.0
 10
70.19733564074245
 20
44.84698346321311
 30
0.0
 10
69.76760187614641
 20
44.84698346321311
 30
0.0
 10
69.55316320674996
 20
44.84698346321311
 30
0.0
 10
69.12607340303985
 20
44.84698346321311
 30
0.0
 10
68.91341999160528
 20
44.84698346321311
 30
0.0
 10
68.49096328909289
 20
44.84698346321311
 30
0.0
 10
68.28115771220763
 20
44.84698346321311
 30
0.0
 10
68.07341072517347
 20
44.84698346321311
 30
0.0
  0
LINE
  5
B4
330
1F
100
AcDbEntity
  8
0
  6
Continuous
 62
     7
370
    25
100
AcDbLine
 10
65.0762050945
 20
44.8469834632
 30
0.0
 11
68.0734107252
 21
44.8469834632
 31
0.0
  0
SPLINE
  5
B5
330
1F
100
AcDbEntity
  8
0
  6
Continuous
 62
     7
370
    25
100
AcDbSpline
210
0.0
220
0.0
230
1.0
 70
     8
 71
     3
 72
    14
 73
    10
 74
     0
 42
0.000000001
 43
0.00000001
 40
0.0
 40
0.0
 40
0.0
 40
0.0
 40
0.25
 40
0.25
 40
0.5
 40
0.5
 40
0.75
 40
0.75
 40
1.0
 40
1.0
 40
1.0
 40
1.0
 10
65.07620509447723
 20
44.8469834632131
 30
0.0
 10
65.02092631785165
 20
44.84698346321311
 30
0.0
 10
64.96794763968539
 20
44.83743489897697
 30
0.0
 10
64.86620617195923
 20
44.80064478085215
 30
0.0
 10
64.81716189823682
 20
44.77309373356398
 30
0.0
 10
64.7277138532686
 20
44.69809064599382
 30
0.0
 10
64.68583928494401
 20
44.64991026580184
 30
0.0
 10
64.61896765674032
 20
44.52294688802502
 30
0.0
 10
64.59344647378757
 20
44.43892440793623
 30
0.0
 10
64.59344647378757
 20
44.34698346321311
 30
0.0
  0
LINE
  5
B6
330
1F
100
AcDbEntity
  8
0
  6
Continuous
 62
     7
370
    25
100
AcDbLine
 10
64.5934464738
 20
33.0969834632
 30
0.0
 11
64.5934464738
 21
44.3469834632
 31
0.0
  0
LINE
  5
B7
330
1F
100
AcDbEntity
  8
0
  6
Continuous
 62
     7
370
    25
100
AcDbLine
 10
64.8779292324
 20
44.5969834632
 30
0.0
 11
67.9821779213
 21
44.5969834632
 31
0.0
  0
SPLINE
  5
B8
330
1F
100
AcDbEntity
  8
0
  6
Continuous
 62
     7
370
    25
100
AcDbSpline
210
0.0
220
0.0
230
1.0
 70
     8
 71
     3
 72
    12
 73
     8
 74
     0
 42
0.000000001
 43
0.00000001
 40
0.0
 40
0.0
 40
0.0
 40
0.0
 40
0.25
 40
0.25
 40
0.5
 40
0.5
 40
1.0
 40
1.0
 40
1.0
 40
1.0
 10
67.99554386941128
 20
44.52376015850823
 30
0.0
 10
67.99723801423717
 20
44.53803746026293
 30
0.0
 10
67.99916422379329
 20
44.54975256768434
 30
0.0
 10
68.00207968508379
 20
44.56883592547451
 30
0.0
 10
68.00306893681818
 20
44.57620417584328
 30
0.0
 10
68.00252962436556
 20
44.59295493879159
 30
0.0
 10
67.99749399252276
 20
44.5969834632131
 30
0.0
 10
67.98217792134366
 20
44.5969834632131
 30
0.0
  0
SPLINE
  5
B9
330
1F
100
AcDbEntity
  8
0
  6
Continuous
 62
     7
370
    25
100
AcDbSpline
210
0.0
220
0.0
230
1.0
 70
     8
 71
     3
 72
    10
 73
     6
 74
     0
 42
0.000000001
 43
0.00000001
 40
0.0
 40
0.0
 40
0.0
 40
0.0
 40
0.5
 40
0.5
 40
1.0
 40
1.0
 40
1.0
 40
1.0
 10
67.99554386941128
 20
44.52376015850823
 30
0.0
 10
67.99215557975948
 20
44.49520555499883
 30
0.0
 10
67.98881409274259
 20
44.46218401992199
 30
0.0
 10
67.98382526353468
 20
44.39924561277606
 30
0.0
 10
67.98217792134366
 20
44.36932874070697
 30
0.0
 10
67.98217792134366
 20
44.3469834632131
 30
0.0
  0
LINE
  5
BA
330
1F
100
AcDbEntity
  8
0
  6
Continuous
 62
     7
370
    25
100
AcDbLine
 10
64.8779292324
 20
44.5969834632
 30
0.0
 11
64.8779292324
 21
44.3469834632
 31
0.0
  0
LINE
  5
BB
330
1F
100
AcDbEntity
  8
0
  6
Continuous
 62
     7
370
    25
100
AcDbLine
 10
78.1279292324
 20
42.8469834632
 30
0.0
 11
78.1279292324
 21
39.7427347743
 31
0.0
  0
SPLINE
  5
BC
330
1F
100
AcDbEntity
  8
0
  6
Continuous
 62
     7
370
    25
100
AcDbSpline
210
0.0
220
0.0
230
1.0
 70
     8
 71
     3
 72
    12
 73
     8
 74
     0
 42
0.000000001
 43
0.00000001
 40
0.0
 40
0.0
 40
0.0
 40
0.0
 40
0.25
 40
0.25
 40
0.5
 40
0.5
 40
1.0
 40
1.0
 40
1.0
 40
1.0
 10
78.0547059277034
 20
39.72936882621008
 30
0.0
 10
78.06898322945808
 20
39.72767468138418
 30
0.0
 10
78.0806983368795
 20
39.72574847182808
 30
0.0
 10
78.09978169466966
 20
39.72283301053758
 30
0.0
 10
78.10714994503844
 20
39.72184375880318
 30
0.0
 10
78.12390070798673
 20
39.7223830712558
 30
0.0
 10
78.12792923240826
 20
39.72741870309859
 30
0.0
 10
78.12792923240826
 20
39.74273477427769
 30
0.0
  0
SPLINE
  5
BD
330
1F
100
AcDbEntity
  8
0
  6
Continuous
 62
     7
370
    25
100
AcDbSpline
210
0.0
220
0.0
230
1.0
 70
     8
 71
     3
 72
    10
 73
     6
 74
     0
 42
0.000000001
 43
0.00000001
 40
0.0
 40
0.0
 40
0.0
 40
0.0
 40
0.5
 40
0.5
 40
1.0
 40
1.0
 40
1.0
 40
1.0
 10
78.0547059277034
 20
39.72936882621008
 30
0.0
 10
78.02615132419399
 20
39.73275711586187
 30
0.0
 10
77.99312978911713
 20
39.73609860287877
 30
0.0
 10
77.93019138197121
 20
39.74108743208669
 30
0.0
 10
77.90027450990213
 20
39.74273477427769
 30
0.0
 10
77.87792923240826
 20
39.74273477427769
 30
0.0
  0
LINE
  5
BE
330
1F
100
AcDbEntity
  8
0
  6
Continuous
 62
     7
370
    25
100
AcDbLine
 10
77.8779292324
 20
42.8469834632
 30
0.0
 11
78.1279292324
 21
42.8469834632
 31
0.0
  0
SPLINE
  5
BF
330
1F
100
AcDbEntity
  8
0
  6
Continuous
 62
     7
370
    25
100
AcDbSpline
210
0.0
220
0.0
230
1.0
 70
     8
 71
     3
 72
    10
 73
     6
 74
     0
 42
0.000000001
 43
0.00000001
 40
0.0
 40
0.0
 40
0.0
 40
0.0
 40
0.5
 40
0.5
 40
1.0
 40
1.0
 40
1.0
 40
1.0
 10
78.0547059277034
 20
34.46459810021613
 30
0.0
 10
78.02615132419399
 20
34.46120981056434
 30
0.0
 10
77.99312978911713
 20
34.45786832354744
 30
0.0
 10
77.93019138197121
 20
34.45287949433952
 30
0.0
 10
77.90027450990213
 20
34.45123215214851
 30
0.0
 10
77.87792923240826
 20
34.45123215214851
 30
0.0
  0
SPLINE
  5
C0
330
1F
100
AcDbEntity
  8
0
  6
Continuous
 62
     7
370
    25
100
AcDbSpline
210
0.0
220
0.0
230
1.0
 70
     8
 71
     3
 72
    12
 73
     8
 74
     0
 42
0.000000001
 43
0.00000001
 40
0.0
 40
0.0
 40
0.0
 40
0.0
 40
0.25
 40
0.25
 40
0.5
 40
0.5
 40
1.0
 40
1.0
 40
1.0
 40
1.0
 10
78.0547059277034
 20
34.46459810021613
 30
0.0
 10
78.06898322945808
 20
34.46629224504203
 30
0.0
 10
78.0806983368795
 20
34.46821845459813
 30
0.0
 10
78.09978169466966
 20
34.47113391588863
 30
0.0
 10
78.10714994503844
 20
34.47212316762302
 30
0.0
 10
78.12390070798673
 20
34.47158385517041
 30
0.0
 10
78.12792923240826
 20
34.46654822332761
 30
0.0
 10
78.12792923240826
 20
34.45123215214851
 30
0.0
  0
LINE
  5
C1
330
1F
100
AcDbEntity
  8
0
  6
Continuous
 62
     7
370
    25
100
AcDbLine
 10
78.1279292324
 20
34.4512321521
 30
0.0
 11
78.1279292324
 21
31.3469834632
 31
0.0
  0
LINE
  5
C2
330
1F
100
AcDbEntity
  8
0
  6
Continuous
 62
     7
370
    25
100
AcDbLine
 10
77.8779292324
 20
31.3469834632
 30
0.0
 11
78.1279292324
 21
31.3469834632
 31
0.0
  0
SPLINE
  5
C3
330
1F
100
AcDbEntity
  8
0
  6
Continuous
 62
     7
370
    25
100
AcDbSpline
210
0.0
220
0.0
230
1.0
 70
     8
 71
     3
 72
    12
 73
     8
 74
     0
 42
0.000000001
 43
0.00000001
 40
0.0
 40
0.0
 40
0.0
 40
0.0
 40
0.25
 40
0.25
 40
0.5
 40
0.5
 40
1.0
 40
1.0
 40
1.0
 40
1.0
 10
73.26031459540523
 20
44.52376015850824
 30
0.0
 10
73.25862045057934
 20
44.53803746026293
 30
0.0
 10
73.25669424102324
 20
44.54975256768434
 30
0.0
 10
73.25377877973273
 20
44.56883592547451
 30
0.0
 10
73.25278952799833
 20
44.57620417584329
 30
0.0
 10
73.25332884045095
 20
44.59295493879159
 30
0.0
 10
73.25836447229375
 20
44.5969834632131
 30
0.0
 10
73.27368054347286
 20
44.5969834632131
 30
0.0
  0
LINE
  5
C4
330
1F
100
AcDbEntity
  8
0
  6
Continuous
 62
     7
370
    25
100
AcDbLine
 10
73.2736805435
 20
44.5969834632
 30
0.0
 11
76.3779292324
 21
44.5969834632
 31
0.0
  0
LINE
  5
C5
330
1F
100
AcDbEntity
  8
0
  6
Continuous
 62
     7
370
    25
100
AcDbLine
 10
76.3779292324
 20
44.5969834632
 30
0.0
 11
76.3779292324
 21
44.3469834632
 31
0.0
  0
SPLINE
  5
C6
330
1F
100
AcDbEntity
  8
0
  6
Continuous
 62
     7
370
    25
100
AcDbSpline
210
0.0
220
0.0
230
1.0
 70
     8
 71
     3
 72
    10
 73
     6
 74
     0
 42
0.000000001
 43
0.00000001
 40
0.0
 40
0.0
 40
0.0
 40
0.0
 40
0.5
 40
0.5
 40
1.0
 40
1.0
 40
1.0
 40
1.0
 10
73.26031459540523
 20
44.52376015850824
 30
0.0
 10
73.26370288505703
 20
44.49520555499883
 30
0.0
 10
73.26704437207393
 20
44.46218401992199
 30
0.0
 10
73.27203320128184
 20
44.39924561277606
 30
0.0
 10
73.27368054347286
 20
44.36932874070697
 30
0.0
 10
73.27368054347286
 20
44.3469834632131
 30
0.0
  0
SPLINE
  5
C7
330
1F
100
AcDbEntity
  8
0
  6
Continuous
 62
     7
370
    25
100
AcDbSpline
210
0.0
220
0.0
230
1.0
 70
     8
 71
     3
 72
     8
 73
     4
 74
     0
 42
0.000000001
 43
0.00000001
 40
0.0
 40
0.0
 40
0.0
 40
0.0
 40
1.0
 40
1.0
 40
1.0
 40
1.0
 10
66.62792923240826
 20
31.06250070459241
 30
0.0
 10
66.52743897939114
 20
31.06250070459241
 30
0.0
 10
66.42855824186387
 20
31.0689666320105
 30
0.0
 10
66.33114282275253
 20
31.08148248969507
 30
0.0
  0
LINE
  5
C8
330
1F
100
AcDbEntity
  8
0
  6
Continuous
 62
     7
370
    25
100
AcDbLine
 10
77.8779292324
 20
31.0625007046
 30
0.0
 11
66.6279292324
 21
31.0625007046
 31
0.0
  0
SPLINE
  5
C9
330
1F
100
AcDbEntity
  8
0
  6
Continuous
 62
     7
370
    25
100
AcDbSpline
210
0.0
220
0.0
230
1.0
 70
     8
 71
     3
 72
    14
 73
    10
 74
     0
 42
0.000000001
 43
0.00000001
 40
0.0
 40
0.0
 40
0.0
 40
0.0
 40
0.25
 40
0.25
 40
0.5
 40
0.5
 40
0.75
 40
0.75
 40
1.0
 40
1.0
 40
1.0
 40
1.0
 10
77.87792923240826
 20
31.06250070459241
 30
0.0
 10
77.9697316270212
 20
31.06250070459241
 30
0.0
 10
78.05389556593661
 20
31.08801089853154
 30
0.0
 10
78.18099124650799
 20
31.15497726632102
 30
0.0
 10
78.22911371575915
 20
31.19679189892247
 30
0.0
 10
78.3044314955379
 20
31.286752416604
 30
0.0
 10
78.33180770863123
 20
31.3357594087037
 30
0.0
 10
78.36836955925335
 20
31.43707325924298
 30
0.0
 10
78.37792923240826
 20
31.4899418758936
 30
0.0
 10
78.37792923240826
 20
31.54525932528207
 30
0.0
  0
LINE
  5
CA
330
1F
100
AcDbEntity
  8
0
  6
Continuous
 62
     7
370
    25
100
AcDbLine
 10
78.3779292324
 20
34.542464956
 30
0.0
 11
78.3779292324
 21
31.5452593253
 31
0.0
  0
SPLINE
  5
CB
330
1F
100
AcDbEntity
  8
0
  6
Continuous
 62
     7
370
    25
100
AcDbSpline
210
0.0
220
0.0
230
1.0
 70
    24
 71
     3
 72
    14
 73
    10
 74
     0
 42
0.000000001
 43
0.00000001
 40
0.0
 40
0.0
 40
0.0
 40
0.0
 40
0.25
 40
0.25
 40
0.5
 40
0.5
 40
0.75
 40
0.75
 40
1.0
 40
1.0
 40
1.0
 40
1.0
 10
78.37792923240828
 20
37.09698346321311
 30
0.0
 10
78.37792923240828
 20
36.88168723269051
 30
0.0
 10
78.37792923240828
 20
36.66638987154729
 30
0.0
 10
78.37792923240826
 20
36.23665610695127
 30
0.0
 10
78.37792923240826
 20
36.0222174375548
 30
0.0
 10
78.37792923240826
 20
35.5951276338447
 30
0.0
 10
78.37792923240826
 20
35.38247422241013
 30
0.0
 10
78.37792923240826
 20
34.96001751989774
 30
0.0
 10
78.37792923240826
 20
34.75021194301248
 30
0.0
 10
78.37792923240826
 20
34.54246495597833
 30
0.0
  0
SPLINE
  5
CC
330
1F
100
AcDbEntity
  8
0
  6
Continuous
 62
     7
370
    25
100
AcDbSpline
210
0.0
220
0.0
230
1.0
 70
    24
 71
     3
 72
    14
 73
    10
 74
     0
 42
0.000000001
 43
0.00000001
 40
0.0
 40
0.0
 40
0.0
 40
0.0
 40
0.25
 40
0.25
 40
0.5
 40
0.5
 40
0.75
 40
0.75
 40
1.0
 40
1.0
 40
1.0
 40
1.0
 10
78.37792923240828
 20
37.09698346321311
 30
0.0
 10
78.37792923240828
 20
37.3122796937357
 30
0.0
 10
78.37792923240828
 20
37.52757705487892
 30
0.0
 10
78.37792923240828
 20
37.95731081947495
 30
0.0
 10
78.37792923240828
 20
38.17174948887141
 30
0.0
 10
78.37792923240826
 20
38.59883929258151
 30
0.0
 10
78.37792923240826
 20
38.81149270401608
 30
0.0
 10
78.37792923240826
 20
39.23394940652847
 30
0.0
 10
78.37792923240826
 20
39.44375498341373
 30
0.0
 10
78.37792923240826
 20
39.65150197044788
 30
0.0
  0
LINE
  5
CD
330
1F
100
AcDbEntity
  8
0
  6
Continuous
 62
     7
370
    25
100
AcDbLine
 10
78.3779292324
 20
42.6487076011
 30
0.0
 11
78.3779292324
 21
39.6515019704
 31
0.0
  0
SPLINE
  5
CE
330
1F
100
AcDbEntity
  8
0
  6
Continuous
 62
     7
370
    25
100
AcDbSpline
210
0.0
220
0.0
230
1.0
 70
     8
 71
     3
 72
    14
 73
    10
 74
     0
 42
0.000000001
 43
0.00000001
 40
0.0
 40
0.0
 40
0.0
 40
0.0
 40
0.25
 40
0.25
 40
0.5
 40
0.5
 40
0.75
 40
0.75
 40
1.0
 40
1.0
 40
1.0
 40
1.0
 10
78.37792923240826
 20
42.64870760114414
 30
0.0
 10
78.37792923240826
 20
42.70398637776972
 30
0.0
 10
78.36838066817214
 20
42.75696505593596
 30
0.0
 10
78.33159055004731
 20
42.85870652366213
 30
0.0
 10
78.30403950275914
 20
42.90775079738455
 30
0.0
 10
78.22903641518897
 20
42.99719884235277
 30
0.0
 10
78.18085603499698
 20
43.03907341067735
 30
0.0
 10
78.05389265722016
 20
43.10594503888104
 30
0.0
 10
77.96987017713138
 20
43.1314662218338
 30
0.0
 10
77.87792923240826
 20
43.1314662218338
 30
0.0
  0
LINE
  5
CF
330
1F
100
AcDbEntity
  8
0
  6
Continuous
 62
     7
370
    25
100
AcDbLine
 10
77.6279292324
 20
43.1314662218
 30
0.0
 11
77.8779292324
 21
43.1314662218
 31
0.0
  0
SPLINE
  5
D0
330
1F
100
AcDbEntity
  8
0
  6
Continuous
 62
     7
370
    25
100
AcDbSpline
210
0.0
220
0.0
230
1.0
 70
     8
 71
     3
 72
    12
 73
     8
 74
     0
 42
0.000000001
 43
0.00000001
 40
0.0
 40
0.0
 40
0.0
 40
0.0
 40
0.4999999999999991
 40
0.4999999999999991
 40
0.7499999999999996
 40
0.7499999999999996
 40
1.0
 40
1.0
 40
1.0
 40
1.0
 10
76.99621572110554
 20
43.46526995191039
 30
0.0
 10
77.0417395940075
 20
43.39658796835942
 30
0.0
 10
77.10410836693626
 20
43.32425569662389
 30
0.0
 10
77.25442193509326
 20
43.22492194487474
 30
0.0
 10
77.3136580680165
 20
43.1940169329585
 30
0.0
 10
77.45763825675476
 20
43.146565074772
 30
0.0
 10
77.54112345529164
 20
43.1314662218338
 30
0.0
 10
77.62792923240828
 20
43.1314662218338
 30
0.0
  0
SPLINE
  5
D1
330
1F
100
AcDbEntity
  8
0
  6
Continuous
 62
     7
370
    25
100
AcDbSpline
210
0.0
220
0.0
230
1.0
 70
    24
 71
     3
 72
    10
 73
     6
 74
     0
 42
0.000000001
 43
0.00000001
 40
0.0
 40
0.0
 40
0.0
 40
0.0
 40
0.5
 40
0.5
 40
1.0
 40
1.0
 40
1.0
 40
1.0
 10
78.12964899006256
 20
37.09698346321311
 30
0.0
 10
78.08868059626631
 20
37.09698346321311
 30
0.0
 10
78.0447160865218
 20
37.09698346321311
 30
0.0
 10
77.95366944677798
 20
37.09698346321311
 30
0.0
 10
77.92072100619713
 20
37.09698346321311
 30
0.0
 10
77.87792923240826
 20
37.09698346321311
 30
0.0
  0
SPLINE
  5
D2
330
1F
100
AcDbEntity
  8
0
  6
Continuous
 62
     7
370
    25
100
AcDbSpline
210
0.0
220
0.0
230
1.0
 70
     8
 71
     3
 72
    12
 73
     8
 74
     0
 42
0.000000001
 43
0.00000001
 40
0.0
 40
0.0
 40
0.0
 40
0.0
 40
0.25
 40
0.25
 40
0.5
 40
0.5
 40
1.0
 40
1.0
 40
1.0
 40
1.0
 10
78.12964899006256
 20
37.09698346321311
 30
0.0
 10
78.11940689161351
 20
37.31567254941946
 30
0.0
 10
78.11186768006017
 20
37.5340553508328
 30
0.0
 10
78.09753816443582
 20
37.97232550286053
 30
0.0
 10
78.09074786036481
 20
38.19221285347491
 30
0.0
 10
78.06451500991155
 20
38.85730740730017
 30
0.0
 10
78.05483229322323
 20
39.29049511237222
 30
0.0
 10
78.0547059277034
 20
39.72936882621008
 30
0.0
  0
SPLINE
  5
D3
330
1F
100
AcDbEntity
  8
0
  6
Continuous
 62
     7
370
    25
100
AcDbSpline
210
0.0
220
0.0
230
1.0
 70
     8
 71
     3
 72
    12
 73
     8
 74
     0
 42
0.000000001
 43
0.00000001
 40
0.0
 40
0.0
 40
0.0
 40
0.0
 40
0.25
 40
0.25
 40
0.5
 40
0.5
 40
1.0
 40
1.0
 40
1.0
 40
1.0
 10
78.12964899006256
 20
37.09698346321311
 30
0.0
 10
78.11940689161351
 20
36.87829437700675
 30
0.0
 10
78.11186768006017
 20
36.65991157559341
 30
0.0
 10
78.09753816443582
 20
36.22164142356568
 30
0.0
 10
78.09074786036481
 20
36.0017540729513
 30
0.0
 10
78.06451500991153
 20
35.33665951912604
 30
0.0
 10
78.05483229322323
 20
34.90347181405399
 30
0.0
 10
78.0547059277034
 20
34.46459810021613
 30
0.0
  0
SPLINE
  5
D4
330
1F
100
AcDbEntity
  8
0
  6
Continuous
 62
     7
370
    25
100
AcDbSpline
210
0.0
220
0.0
230
1.0
 70
    24
 71
     3
 72
    10
 73
     6
 74
     0
 42
0.000000001
 43
0.00000001
 40
0.0
 40
0.0
 40
0.0
 40
0.0
 40
0.5
 40
0.5
 40
1.0
 40
1.0
 40
1.0
 40
1.0
 10
70.62792923240826
 20
44.59870322086742
 30
0.0
 10
70.62792923240826
 20
44.55773482707116
 30
0.0
 10
70.62792923240826
 20
44.51377031732665
 30
0.0
 10
70.62792923240826
 20
44.42272367758282
 30
0.0
 10
70.62792923240826
 20
44.38977523700196
 30
0.0
 10
70.62792923240826
 20
44.3469834632131
 30
0.0
  0
SPLINE
  5
D5
330
1F
100
AcDbEntity
  8
0
  6
Continuous
 62
     7
370
    25
100
AcDbSpline
210
0.0
220
0.0
230
1.0
 70
     8
 71
     3
 72
    12
 73
     8
 74
     0
 42
0.000000001
 43
0.00000001
 40
0.0
 40
0.0
 40
0.0
 40
0.0
 40
0.25
 40
0.25
 40
0.5
 40
0.5
 40
1.0
 40
1.0
 40
1.0
 40
1.0
 10
70.62792923240826
 20
44.59870322086742
 30
0.0
 10
70.40924014620191
 20
44.58846112241836
 30
0.0
 10
70.19085734478855
 20
44.58092191086502
 30
0.0
 10
69.75258719276084
 20
44.56659239524068
 30
0.0
 10
69.53269984214646
 20
44.55980209116966
 30
0.0
 10
68.86760528832119
 20
44.53356924071639
 30
0.0
 10
68.43441758324914
 20
44.52388652402807
 30
0.0
 10
67.99554386941128
 20
44.52376015850823
 30
0.0
  0
SPLINE
  5
D6
330
1F
100
AcDbEntity
  8
0
  6
Continuous
 62
     7
370
    25
100
AcDbSpline
210
0.0
220
0.0
230
1.0
 70
     8
 71
     3
 72
    12
 73
     8
 74
     0
 42
0.000000001
 43
0.00000001
 40
0.0
 40
0.0
 40
0.0
 40
0.0
 40
0.25
 40
0.25
 40
0.5
 40
0.5
 40
1.0
 40
1.0
 40
1.0
 40
1.0
 10
70.62792923240826
 20
44.59870322086742
 30
0.0
 10
70.8466183186146
 20
44.58846112241835
 30
0.0
 10
71.06500112002796
 20
44.58092191086502
 30
0.0
 10
71.50327127205568
 20
44.56659239524067
 30
0.0
 10
71.72315862267007
 20
44.55980209116965
 30
0.0
 10
72.38825317649533
 20
44.53356924071639
 30
0.0
 10
72.82144088156737
 20
44.52388652402807
 30
0.0
 10
73.26031459540523
 20
44.52376015850824
 30
0.0
  0
SPLINE
  5
D7
330
1F
100
AcDbEntity
  8
0
  6
Continuous
 62
     7
370
    25
100
AcDbSpline
210
0.0
220
0.0
230
1.0
 70
     8
 71
     3
 72
    10
 73
     6
 74
     0
 42
0.000000001
 43
0.00000001
 40
0.0
 40
0.0
 40
0.0
 40
0.0
 40
0.5
 40
0.5
 40
1.0
 40
1.0
 40
1.0
 40
1.0
 10
74.33740427043794
 20
36.8201607604628
 30
0.0
 10
74.33740427043794
 20
36.8201607604628
 30
0.0
 10
74.31238676300387
 20
36.83074169099287
 30
0.0
 10
74.22716988849294
 20
36.8662764820572
 30
0.0
 10
74.16648030200702
 20
36.89135400025092
 30
0.0
 10
74.1061834620545
 20
36.91602896785587
 30
0.0
  0
LINE
  5
D8
330
1F
100
AcDbEntity
  8
0
  6
Continuous
 62
     7
370
    25
100
AcDbLine
 10
74.3374042704
 20
36.8201607605
 30
0.0
 11
73.3665311826
 21
34.105642384
 31
0.0
  0
LINE
  5
D9
330
1F
100
AcDbEntity
  8
0
  6
Continuous
 62
     7
370
    25
100
AcDbLine
 10
73.1311342449
 20
34.189834318
 30
0.0
 11
73.3665311826
 21
34.105642384
 31
0.0
  0
SPLINE
  5
DA
330
1F
100
AcDbEntity
  8
0
  6
Continuous
 62
     7
370
    25
100
AcDbSpline
210
0.0
220
0.0
230
1.0
 70
     8
 71
     3
 72
    10
 73
     6
 74
     0
 42
0.000000001
 43
0.00000001
 40
0.0
 40
0.0
 40
0.0
 40
0.0
 40
0.5
 40
0.5
 40
1.0
 40
1.0
 40
1.0
 40
1.0
 10
75.2486101917139
 20
36.82016076046291
 30
0.0
 10
75.2486101917139
 20
36.82016076046291
 30
0.0
 10
75.27362769914771
 20
36.83074169099332
 30
0.0
 10
75.35884457365835
 20
36.86627648205756
 30
0.0
 10
75.41953416014506
 20
36.89135400025189
 30
0.0
 10
75.47983100009722
 20
36.91602896785643
 30
0.0
  0
SPLINE
  5
DB
330
1F
100
AcDbEntity
  8
0
  6
Continuous
 62
     7
370
    25
100
AcDbSpline
210
0.0
220
0.0
230
1.0
 70
     8
 71
     3
 72
    14
 73
    10
 74
     0
 42
0.000000001
 43
0.00000001
 40
0.0
 40
0.0
 40
0.0
 40
0.0
 40
0.25
 40
0.25
 40
0.5
 40
0.5
 40
0.75
 40
0.75
 40
1.0
 40
1.0
 40
1.0
 40
1.0
 10
75.24861019171392
 20
36.82016076046292
 30
0.0
 10
75.20716217241205
 20
36.90500320494398
 30
0.0
 10
75.14123611718483
 20
36.97516059424004
 30
0.0
 10
74.97939377772524
 20
37.07205053406273
 30
0.0
 10
74.88678951200929
 20
37.09707993424762
 30
0.0
 10
74.69814329705483
 20
37.09688643744614
 30
0.0
 10
74.60530643897721
 20
37.07131329115189
 30
0.0
 10
74.44569463019023
 20
36.97565946713644
 30
0.0
 10
74.37885947002181
 20
36.90501790269507
 30
0.0
 10
74.33740427043794
 20
36.8201607604628
 30
0.0
  0
LINE
  5
DC
330
1F
100
AcDbEntity
  8
0
  6
Continuous
 62
     7
370
    25
100
AcDbLine
 10
76.455106519
 20
34.1892015883
 30
0.0
 11
76.2197095813
 21
34.1050096544
 31
0.0
  0
LINE
  5
DD
330
1F
100
AcDbEntity
  8
0
  6
Continuous
 62
     7
370
    25
100
AcDbLine
 10
76.2197095813
 20
34.1050096544
 30
0.0
 11
75.2486101917
 21
36.8201607605
 31
0.0
  0
SPLINE
  5
DE
330
1F
100
AcDbEntity
  8
0
  6
Continuous
 62
     7
370
    25
100
AcDbSpline
210
0.0
220
0.0
230
1.0
 70
     8
 71
     3
 72
     8
 73
     4
 74
     0
 42
0.000000001
 43
0.00000001
 40
0.0
 40
0.0
 40
0.0
 40
0.0
 40
1.0
 40
1.0
 40
1.0
 40
1.0
 10
73.18244773964304
 20
44.8469834632131
 30
0.0
 10
73.17844250938607
 20
44.78153078277695
 30
0.0
 10
73.18426482231153
 20
44.71648121776872
 30
0.0
 10
73.1970256317421
 20
44.67020075728639
 30
0.0
  0
SPLINE
  5
DF
330
1F
100
AcDbEntity
  8
0
  6
Continuous
 62
     7
370
    25
100
AcDbSpline
210
0.0
220
0.0
230
1.0
 70
     8
 71
     3
 72
    12
 73
     8
 74
     0
 42
0.000000001
 43
0.00000001
 40
0.0
 40
0.0
 40
0.0
 40
0.0
 40
0.25
 40
0.25
 40
0.5
 40
0.5
 40
1.0
 40
1.0
 40
1.0
 40
1.0
 10
70.62792923240826
 20
44.59870322086742
 30
0.0
 10
70.8466183186146
 20
44.60894531931649
 30
0.0
 10
71.06379722362308
 20
44.62362803377989
 30
0.0
 10
71.49514625820352
 20
44.65545042443775
 30
0.0
 10
71.70931638777546
 20
44.67259010063221
 30
0.0
 10
72.34733099377529
 20
44.71805816636576
 30
0.0
 10
72.77685761711145
 20
44.71122531530162
 30
0.0
 10
73.1970256317421
 20
44.67020075728639
 30
0.0
  0
SPLINE
  5
E0
330
1F
100
AcDbEntity
  8
0
  6
Continuous
 62
     7
370
    25
100
AcDbSpline
210
0.0
220
0.0
230
1.0
 70
    24
 71
     3
 72
    10
 73
     6
 74
     0
 42
0.000000001
 43
0.00000001
 40
0.0
 40
0.0
 40
0.0
 40
0.0
 40
0.5
 40
0.5
 40
1.0
 40
1.0
 40
1.0
 40
1.0
 10
70.62792923240826
 20
44.59870322086742
 30
0.0
 10
70.62792923240826
 20
44.63967161466368
 30
0.0
 10
70.62792923240826
 20
44.68312706173562
 30
0.0
 10
70.62792923240826
 20
44.77221290695285
 30
0.0
 10
70.62792923240826
 20
44.80460013556817
 30
0.0
 10
70.62792923240826
 20
44.84698346321311
 30
0.0
  0
SPLINE
  5
E1
330
1F
100
AcDbEntity
  8
0
  6
Continuous
 62
     7
370
    25
100
AcDbSpline
210
0.0
220
0.0
230
1.0
 70
     8
 71
     3
 72
    12
 73
     8
 74
     0
 42
0.000000001
 43
0.00000001
 40
0.0
 40
0.0
 40
0.0
 40
0.0
 40
0.25
 40
0.25
 40
0.5
 40
0.5
 40
1.0
 40
1.0
 40
1.0
 40
1.0
 10
70.62792923240826
 20
44.59870322086742
 30
0.0
 10
70.40924014620191
 20
44.60894531931649
 30
0.0
 10
70.19206124119343
 20
44.62362803377989
 30
0.0
 10
69.760712206613
 20
44.65545042443776
 30
0.0
 10
69.54654207704105
 20
44.67259010063221
 30
0.0
 10
68.90852747104122
 20
44.71805816636576
 30
0.0
 10
68.47900084770505
 20
44.71122531530162
 30
0.0
 10
68.05883283307443
 20
44.67020075728639
 30
0.0
  0
SPLINE
  5
E2
330
1F
100
AcDbEntity
  8
0
  6
Continuous
 62
     7
370
    25
100
AcDbSpline
210
0.0
220
0.0
230
1.0
 70
     8
 71
     3
 72
    10
 73
     6
 74
     0
 42
0.000000001
 43
0.00000001
 40
0.0
 40
0.0
 40
0.0
 40
0.0
 40
0.5
 40
0.5
 40
1.0
 40
1.0
 40
1.0
 40
1.0
 10
68.05883283307443
 20
44.67020075728639
 30
0.0
 10
68.06612481353208
 20
44.69875457924996
 30
0.0
 10
68.07002197615688
 20
44.7331146109824
 30
0.0
 10
68.07355818013862
 20
44.79615743551152
 30
0.0
 10
68.07341072517347
 20
44.82463634548977
 30
0.0
 10
68.07341072517347
 20
44.84698346321311
 30
0.0
  0
SPLINE
  5
E3
330
1F
100
AcDbEntity
  8
0
  6
Continuous
 62
     7
370
    25
100
AcDbSpline
210
0.0
220
0.0
230
1.0
 70
     8
 71
     3
 72
    14
 73
    10
 74
     0
 42
0.000000001
 43
0.00000001
 40
0.0
 40
0.0
 40
0.0
 40
0.0
 40
0.25
 40
0.25
 40
0.5
 40
0.5
 40
0.75
 40
0.75
 40
1.0
 40
1.0
 40
1.0
 40
1.0
 10
78.12964899006256
 20
37.09698346321311
 30
0.0
 10
78.13989108851165
 20
37.31567254941946
 30
0.0
 10
78.15457380297505
 20
37.53285145442794
 30
0.0
 10
78.1863961936329
 20
37.96420048900836
 30
0.0
 10
78.20353586982736
 20
38.1783706185803
 30
0.0
 10
78.23384791364974
 20
38.60371368924685
 30
0.0
 10
78.23971771183928
 20
38.81743111274753
 30
0.0
 10
78.233623157759
 20
39.24357219573991
 30
0.0
 10
78.22165880548916
 20
39.45599585523161
 30
0.0
 10
78.20114652648154
 20
39.66607986254692
 30
0.0
  0
SPLINE
  5
E4
330
1F
100
AcDbEntity
  8
0
  6
Continuous
 62
     7
370
    25
100
AcDbSpline
210
0.0
220
0.0
230
1.0
 70
     8
 71
     3
 72
     8
 73
     4
 74
     0
 42
0.000000001
 43
0.00000001
 40
0.0
 40
0.0
 40
0.0
 40
0.0
 40
1.0
 40
1.0
 40
1.0
 40
1.0
 10
78.20114652648154
 20
39.66607986254692
 30
0.0
 10
78.24742698696387
 20
39.65331905311638
 30
0.0
 10
78.3124765519721
 20
39.6474967401909
 30
0.0
 10
78.37792923240826
 20
39.65150197044788
 30
0.0
  0
SPLINE
  5
E5
330
1F
100
AcDbEntity
  8
0
  6
Continuous
 62
     7
370
    25
100
AcDbSpline
210
0.0
220
0.0
230
1.0
 70
    24
 71
     3
 72
    10
 73
     6
 74
     0
 42
0.000000001
 43
0.00000001
 40
0.0
 40
0.0
 40
0.0
 40
0.0
 40
0.5
 40
0.5
 40
1.0
 40
1.0
 40
1.0
 40
1.0
 10
78.12964899006256
 20
37.09698346321311
 30
0.0
 10
78.17061738385884
 20
37.09698346321311
 30
0.0
 10
78.21407283093076
 20
37.09698346321311
 30
0.0
 10
78.30315867614802
 20
37.09698346321311
 30
0.0
 10
78.33554590476332
 20
37.09698346321311
 30
0.0
 10
78.37792923240828
 20
37.09698346321311
 30
0.0
  0
SPLINE
  5
E6
330
1F
100
AcDbEntity
  8
0
  6
Continuous
 62
     7
370
    25
100
AcDbSpline
210
0.0
220
0.0
230
1.0
 70
     8
 71
     3
 72
    10
 73
     6
 74
     0
 42
0.000000001
 43
0.00000001
 40
0.0
 40
0.0
 40
0.0
 40
0.0
 40
0.5
 40
0.5
 40
1.0
 40
1.0
 40
1.0
 40
1.0
 10
78.20114652648154
 20
34.52788706387928
 30
0.0
 10
78.22970034844512
 20
34.53517904433692
 30
0.0
 10
78.26406038017755
 20
34.53907620696174
 30
0.0
 10
78.32710320470667
 20
34.54261241094346
 30
0.0
 10
78.35558211468492
 20
34.54246495597833
 30
0.0
 10
78.37792923240826
 20
34.54246495597833
 30
0.0
  0
SPLINE
  5
E7
330
1F
100
AcDbEntity
  8
0
  6
Continuous
 62
     7
370
    25
100
AcDbSpline
210
0.0
220
0.0
230
1.0
 70
     8
 71
     3
 72
    14
 73
    10
 74
     0
 42
0.000000001
 43
0.00000001
 40
0.0
 40
0.0
 40
0.0
 40
0.0
 40
0.25
 40
0.25
 40
0.5
 40
0.5
 40
0.75
 40
0.75
 40
1.0
 40
1.0
 40
1.0
 40
1.0
 10
78.12964899006256
 20
37.09698346321311
 30
0.0
 10
78.13989108851163
 20
36.87829437700675
 30
0.0
 10
78.15457380297504
 20
36.66111547199827
 30
0.0
 10
78.1863961936329
 20
36.22976643741785
 30
0.0
 10
78.20353586982736
 20
36.0155963078459
 30
0.0
 10
78.23384791364974
 20
35.59025323717935
 30
0.0
 10
78.23971771183928
 20
35.37653581367868
 30
0.0
 10
78.233623157759
 20
34.9503947306863
 30
0.0
 10
78.22165880548916
 20
34.7379710711946
 30
0.0
 10
78.20114652648154
 20
34.52788706387928
 30
0.0
  0
SPLINE
  5
E8
330
1F
100
AcDbEntity
  8
0
  6
Continuous
 62
     7
370
    25
100
AcDbSpline
210
0.0
220
0.0
230
1.0
 70
     8
 71
     3
 72
    15
 73
    11
 74
     0
 42
0.000000001
 43
0.00000001
 40
0.0
 40
0.0
 40
0.0
 40
0.0
 40
0.0425877399909041
 40
0.1028282325346875
 40
0.1864706729280299
 40
0.2956205441869006
 40
0.4311891005861807
 40
0.5936297641565581
 40
0.7831876993469636
 40
1.0
 40
1.0
 40
1.0
 40
1.0
 10
78.12792923240826
 20
39.74273477427769
 30
0.0
 10
78.12793502551041
 20
39.73991545079719
 30
0.0
 10
78.1279490129738
 20
39.73310818536104
 30
0.0
 10
78.12844071380553
 20
39.72456798902016
 30
0.0
 10
78.13006806776413
 20
39.71527030648977
 30
0.0
 10
78.13389321614821
 20
39.70546257086276
 30
0.0
 10
78.14126552618903
 20
39.69513692481366
 30
0.0
 10
78.15388351516583
 20
39.68467021336169
 30
0.0
 10
78.17312771737002
 20
39.67433697812102
 30
0.0
 10
78.19139846374027
 20
39.66895260707928
 30
0.0
 10
78.20114652648154
 20
39.66607986254692
 30
0.0
  0
SPLINE
  5
E9
330
1F
100
AcDbEntity
  8
0
  6
Continuous
 62
     7
370
    25
100
AcDbSpline
210
0.0
220
0.0
230
1.0
 70
     8
 71
     3
 72
    12
 73
     8
 74
     0
 42
0.000000001
 43
0.00000001
 40
0.0
 40
0.0
 40
0.0
 40
0.0
 40
0.25
 40
0.25
 40
0.5
 40
0.5
 40
1.0
 40
1.0
 40
1.0
 40
1.0
 10
68.05883283307443
 20
44.67020075728639
 30
0.0
 10
68.05518684284561
 20
44.6559238463046
 30
0.0
 10
68.05063030991317
 20
44.64316131005506
 30
0.0
 10
68.04001169592922
 20
44.62201455717619
 30
0.0
 10
68.0339496148777
 20
44.61363034054684
 30
0.0
 10
68.01397835547674
 20
44.59706952532262
 30
0.0
 10
67.99862756250752
 20
44.5969834632131
 30
0.0
 10
67.98217792134366
 20
44.5969834632131
 30
0.0
  0
SPLINE
  5
EA
330
1F
100
AcDbEntity
  8
0
  6
Continuous
 62
     7
370
    25
100
AcDbSpline
210
0.0
220
0.0
230
1.0
 70
     8
 71
     3
 72
    12
 73
     8
 74
     0
 42
0.000000001
 43
0.00000001
 40
0.0
 40
0.0
 40
0.0
 40
0.0
 40
0.25
 40
0.25
 40
0.5
 40
0.5
 40
1.0
 40
1.0
 40
1.0
 40
1.0
 10
78.20114652648154
 20
34.52788706387928
 30
0.0
 10
78.18686961549976
 20
34.52424107365046
 30
0.0
 10
78.1741070792502
 20
34.51968454071802
 30
0.0
 10
78.15296032637134
 20
34.50906592673407
 30
0.0
 10
78.144576109742
 20
34.50300384568256
 30
0.0
 10
78.12801529451777
 20
34.48303258628159
 30
0.0
 10
78.12792923240826
 20
34.46768179331237
 30
0.0
 10
78.12792923240826
 20
34.45123215214851
 30
0.0
  0
SPLINE
  5
EB
330
1F
100
AcDbEntity
  8
0
  6
Continuous
 62
     7
370
    25
100
AcDbSpline
210
0.0
220
0.0
230
1.0
 70
     8
 71
     3
 72
    14
 73
    10
 74
     0
 42
0.000000001
 43
0.00000001
 40
0.0
 40
0.0
 40
0.0
 40
0.0
 40
0.2455893235675696
 40
0.4556181963142487
 40
0.6303106213393677
 40
0.7701164303669036
 40
0.8759901151610805
 40
0.9502659312389182
 40
1.0
 40
1.0
 40
1.0
 40
1.0
 10
73.1970256317421
 20
44.67020075728639
 30
0.0
 10
73.20031720921533
 20
44.65923571797109
 30
0.0
 10
73.20642375558143
 20
44.63889333759894
 30
0.0
 10
73.21834674584063
 20
44.61874132512246
 30
0.0
 10
73.23027582835516
 20
44.60662176565161
 30
0.0
 10
73.24172303571929
 20
44.60041594241921
 30
0.0
 10
73.25260856076608
 20
44.59779624344537
 30
0.0
 10
73.26229582255715
 20
44.59701604910033
 30
0.0
 10
73.27042167615048
 20
44.59699279089745
 30
0.0
 10
73.27368054347286
 20
44.5969834632131
 30
0.0
  0
LINE
  5
EC
330
1F
100
AcDbEntity
  8
0
  6
Continuous
 62
     7
370
    25
100
AcDbLine
 10
64.6279292324
 20
44.3469834632
 30
0.0
 11
64.8779292324
 21
44.3469834632
 31
0.0
  0
ARC
  5
ED
330
1F
100
AcDbEntity
  8
0
  6
Continuous
 62
     7
370
    25
100
AcDbCircle
 10
64.8779292324
 20
44.3469834632
 30
0.0
 40
0.25
100
AcDbArc
 50
90.0
 51
180.0
  0
ARC
  5
EE
330
1F
100
AcDbEntity
  8
0
  6
Continuous
 62
     7
370
    25
100
AcDbCircle
 10
77.8779292324
 20
42.8469834632
 30
0.0
 40
0.25
100
AcDbArc
 50
0.0
 51
90.0
  0
LINE
  5
EF
330
1F
100
AcDbEntity
  8
0
  6
Continuous
 62
     7
370
    25
100
AcDbLine
 10
77.8779292324
 20
43.0969834632
 30
0.0
 11
77.8779292324
 21
42.8469834632
 31
0.0
  0
LINE
  5
F0
330
1F
100
AcDbEntity
  8
0
  6
Continuous
 62
     7
370
    25
100
AcDbLine
 10
72.5702335306
 20
33.8566583847
 30
0.0
 11
73.1840970346
 21
32.6864297642
 31
0.0
  0
LINE
  5
F1
330
1F
100
AcDbEntity
  8
0
  6
Continuous
 62
     7
370
    25
100
AcDbLine
 10
73.1840970346
 20
32.6864297642
 30
0.0
 11
72.9627081332
 21
32.5702964169
 31
0.0
  0
LINE
  5
F2
330
1F
100
AcDbEntity
  8
0
  6
Continuous
 62
     7
370
    25
100
AcDbLine
 10
72.5702335306
 20
33.8566583847
 30
0.0
 11
71.9629207829
 21
34.4762246308
 31
0.0
  0
LINE
  5
F3
330
1F
100
AcDbEntity
  8
0
  6
Continuous
 62
     7
370
    25
100
AcDbLine
 10
66.6279292324
 20
31.3469834632
 30
0.0
 11
66.6279292324
 21
31.0969834632
 31
0.0
  0
ARC
  5
F4
330
1F
100
AcDbEntity
  8
0
  6
Continuous
 62
     7
370
    25
100
AcDbCircle
 10
66.6279292324
 20
33.0969834632
 30
0.0
 40
2.000000000000004
100
AcDbArc
 50
180.0
 51
270.0
  0
LINE
  5
F5
330
1F
100
AcDbEntity
  8
0
  6
Continuous
 62
     7
370
    25
100
AcDbLine
 10
64.8779292324
 20
33.0969834632
 30
0.0
 11
64.6279292324
 21
33.0969834632
 31
0.0
  0
ARC
  5
F6
330
1F
100
AcDbEntity
  8
0
  6
Continuous
 62
     7
370
    25
100
AcDbCircle
 10
76.3779292324
 20
44.3469834632
 30
0.0
 40
0.25
100
AcDbArc
 50
0.0
 51
90.0
  0
LINE
  5
F7
330
1F
100
AcDbEntity
  8
0
  6
Continuous
 62
     7
370
    25
100
AcDbLine
 10
76.3779292324
 20
44.3469834632
 30
0.0
 11
76.6279292324
 21
44.3469834632
 31
0.0
  0
ARC
  5
F8
330
1F
100
AcDbEntity
  8
0
  6
Continuous
 62
     7
370
    25
100
AcDbCircle
 10
77.8779292324
 20
31.3469834632
 30
0.0
 40
0.2500000000000036
100
AcDbArc
 50
270.0
 51
0.0
  0
LINE
  5
F9
330
1F
100
AcDbEntity
  8
0
  6
Continuous
 62
     7
370
    25
100
AcDbLine
 10
77.8779292324
 20
31.3469834632
 30
0.0
 11
77.8779292324
 21
31.0969834632
 31
0.0
  0
SPLINE
  5
FA
330
1F
100
AcDbEntity
  8
0
  6
Continuous
 62
     7
370
    25
100
AcDbSpline
210
0.0
220
0.0
230
1.0
 70
     8
 71
     3
 72
    23
 73
    19
 74
     0
 42
0.000000001
 43
0.00000001
 40
0.0
 40
0.0
 40
0.0
 40
0.0
 40
0.0000221251499261
 40
0.0000221251499261
 40
0.0000221251499261
 40
0.0000448428854419
 40
0.0000448428854419
 40
0.0000448428854419
 40
0.000067774629955
 40
0.000067774629955
 40
0.000067774629955
 40
0.0000902663208602
 40
0.0000902663208602
 40
0.0000902663208602
 40
0.000111841557339
 40
0.000111841557339
 40
0.000111841557339
 40
0.0001193253350659
 40
0.0001193253350659
 40
0.0001193253350659
 40
0.0001193253350659
 10
76.29889085647726
 20
32.66869425296446
 30
0.0
 10
76.30440656423227
 20
32.66379850684152
 30
0.0
 10
76.31086019852751
 20
32.65981263265049
 30
0.0
 10
76.3176874107859
 20
32.65702327162725
 30
0.0
 10
76.32469677974638
 20
32.65415948772312
 30
0.0
 10
76.3322964119304
 20
32.65247317109354
 30
0.0
 10
76.3398578780259
 20
32.65207726458891
 30
0.0
 10
76.34748930911354
 20
32.65167769482704
 30
0.0
 10
76.35529551231832
 20
32.65258122440992
 30
0.0
 10
76.36262984518682
 20
32.65472737394208
 30
0.0
 10
76.36982375899859
 20
32.65683243448929
 30
0.0
 10
76.37676328385403
 20
32.66019398577192
 30
0.0
 10
76.38284636401187
 20
32.66457346195433
 30
0.0
 10
76.38868339549506
 20
32.66877579690527
 30
0.0
 10
76.39389067208054
 20
32.67403442050752
 30
0.0
 10
76.3979882394633
 20
32.67994546924016
 30
0.0
 10
76.39942805559102
 20
32.68202251215418
 30
0.0
 10
76.40074341852664
 20
32.68419171131753
 30
0.0
 10
76.40191742755343
 20
32.68642976416621
 30
0.0
  0
LINE
  5
FB
330
1F
100
AcDbEntity
  8
0
  6
Continuous
 62
     7
370
    25
100
AcDbLine
 10
76.4019174276
 20
32.6864297642
 30
0.0
 11
76.6233063289
 21
32.5702964169
 31
0.0
  0
LINE
  5
FC
330
1F
100
AcDbEntity
  8
0
  6
Continuous
 62
     7
370
    25
100
AcDbLine
 10
76.2988908565
 20
32.668694253
 30
0.0
 11
76.1329344854
 21
32.4817223757
 31
0.0
  0
SPLINE
  5
FD
330
1F
100
AcDbEntity
  8
0
  6
Continuous
 62
     7
370
    25
100
AcDbSpline
210
0.0
220
0.0
230
1.0
 70
     8
 71
     3
 72
    23
 73
    19
 74
     0
 42
0.000000001
 43
0.00000001
 40
0.0
 40
0.0
 40
0.0
 40
0.0
 40
0.0000210594021204
 40
0.0000210594021204
 40
0.0000210594021204
 40
0.0000429122282046
 40
0.0000429122282046
 40
0.0000429122282046
 40
0.0000655452306719
 40
0.0000655452306719
 40
0.0000655452306719
 40
0.000088492665435
 40
0.000088492665435
 40
0.000088492665435
 40
0.0001110534468608
 40
0.0001110534468608
 40
0.0001110534468608
 40
0.000119364715226
 40
0.000119364715226
 40
0.000119364715226
 40
0.000119364715226
 10
73.18409703459827
 20
32.68642976416621
 30
0.0
 10
73.18735796641086
 20
32.6802133403006
 30
0.0
 10
73.19176189770056
 20
32.67449183636581
 30
0.0
 10
73.19690081297466
 20
32.66970966617132
 30
0.0
 10
73.20223254586556
 20
32.66474806381833
 30
0.0
 10
73.20850180456948
 20
32.66065524778371
 30
0.0
 10
73.21516809571341
 20
32.65772174545479
 30
0.0
 10
73.22207024361536
 20
32.65468445432727
 30
0.0
 10
73.22958997650584
 20
32.65280241076376
 30
0.0
 10
73.23710686886895
 20
32.65220148459909
 30
0.0
 10
73.24472636976073
 20
32.6515923555566
 30
0.0
 10
73.25255607616445
 20
32.6522823162953
 30
0.0
 10
73.25994881814137
 20
32.65422530319516
 30
0.0
 10
73.26721715263356
 20
32.65613559287472
 30
0.0
 10
73.27426499069371
 20
32.65931254625458
 30
0.0
 10
73.28048378664074
 20
32.66353208057952
 30
0.0
 10
73.2828036567282
 20
32.66510614275278
 30
0.0
 10
73.28502692215724
 20
32.66683323518468
 30
0.0
 10
73.28712360567442
 20
32.66869425296449
 30
0.0
  0
LINE
  5
FE
330
1F
100
AcDbEntity
  8
0
  6
Continuous
 62
     7
370
    25
100
AcDbLine
 10
73.2871236057
 20
32.668694253
 30
0.0
 11
73.4530799768
 21
32.4817223757
 31
0.0
  0
LINE
  5
FF
330
1F
100
AcDbEntity
  8
0
  6
Continuous
 62
     7
370
    25
100
AcDbLine
 10
76.6279292324
 20
44.3469834632
 30
0.0
 11
76.6279292324
 21
44.0969834632
 31
0.0
  0
LINE
  5
100
330
1F
100
AcDbEntity
  8
0
  6
Continuous
 62
     7
370
    25
100
AcDbLine
 10
76.6279292324
 20
44.0969834632
 30
0.0
 11
76.3779292324
 21
44.0969834632
 31
0.0
  0
LINE
  5
101
330
1F
100
AcDbEntity
  8
0
  6
Continuous
 62
     7
370
    25
100
AcDbLine
 10
64.6279292324
 20
33.0969834632
 30
0.0
 11
64.6279292324
 21
44.3469834632
 31
0.0
  0
LINE
  5
102
330
1F
100
AcDbEntity
  8
0
  6
Continuous
 62
     7
370
    25
100
AcDbLine
 10
76.8596317233
 20
34.0553670226
 30
0.0
 11
76.9836716546
 21
33.8383092067
 31
0.0
  0
SPLINE
  5
103
330
1F
100
AcDbEntity
  8
0
  6
Continuous
 62
     7
370
    25
100
AcDbSpline
210
0.0
220
0.0
230
1.0
 70
     8
 71
     3
 72
    10
 73
     6
 74
     0
 42
0.000000001
 43
0.00000001
 40
0.0
 40
0.0
 40
0.0
 40
0.0
 40
0.5
 40
0.5
 40
1.0
 40
1.0
 40
1.0
 40
1.0
 10
76.98367165461326
 20
33.83830920666951
 30
0.0
 10
76.84923710702134
 20
33.76148519560959
 30
0.0
 10
76.68357173985979
 20
33.74723570512413
 30
0.0
 10
76.39479229814977
 20
33.84532176016839
 30
0.0
 10
76.271909509709
 20
33.95906095448603
 30
0.0
 10
76.21970958129548
 20
34.10500965437252
 30
0.0
  0
ELLIPSE
  5
104
330
1F
100
AcDbEntity
  8
0
  6
Continuous
 62
     7
370
    25
100
AcDbEllipse
 10
74.7930072326
 20
34.7930366989
 30
0.0
 11
0.06537569707427338
 21
-7.105427357601002E-15
 31
0.0
210
0.0
220
0.0
230
1.0
 40
0.9531667975
 41
0.3430239404202546
 42
2.79856871316973
  0
LINE
  5
105
330
1F
100
AcDbEntity
  8
0
  6
Continuous
 62
     7
370
    25
100
AcDbLine
 10
75.0271172815
 20
34.10591416
 30
0.0
 11
74.5588971811
 21
34.10591416
 31
0.0
  0
ELLIPSE
  5
106
330
1F
100
AcDbEntity
  8
0
  6
Continuous
 62
     7
370
    25
100
AcDbEllipse
 10
75.0271172815
 20
34.1682281038
 30
0.0
 11
0.06537569707427338
 21
1.421085471520200E-14
 31
0.0
210
0.0
220
0.0
230
1.0
 40
0.9531667975
 41
4.712388980384278
 42
6.626209245739219
  0
LINE
  5
107
330
1F
100
AcDbEntity
  8
0
  6
Continuous
 62
     7
370
    25
100
AcDbLine
 10
74.4973301472
 20
34.1891865513
 30
0.0
 11
74.7314401987
 21
34.8139951462
 31
0.0
  0
LINE
  5
108
330
1F
100
AcDbEntity
  8
0
  6
Continuous
 62
     7
370
    25
100
AcDbLine
 10
74.8545742666
 20
34.8139951462
 30
0.0
 11
75.0886843154
 21
34.189186551
 31
0.0
  0
ELLIPSE
  5
109
330
1F
100
AcDbEntity
  8
0
  6
Continuous
 62
     7
370
    25
100
AcDbEllipse
 10
74.5588971811
 20
34.1682281038
 30
0.0
 11
-0.0653756970743018
 21
0.0
 31
0.0
210
0.0
220
0.0
230
1.0
 40
0.9531667975
 41
5.940161364895682
 42
7.853981633974483
  0
ARC
  5
10A
330
1F
100
AcDbEntity
  8
0
  6
Continuous
 62
     7
370
    25
100
AcDbCircle
 10
77.6279292324
 20
44.0969834632
 30
0.0
 40
1.0
100
AcDbArc
 50
180.0
 51
270.0
  0
LINE
  5
10B
330
1F
100
AcDbEntity
  8
0
  6
Continuous
 62
     7
370
    25
100
AcDbLine
 10
77.6279292324
 20
43.0969834632
 30
0.0
 11
77.6279292324
 21
42.8469834632
 31
0.0
  0
SPLINE
  5
10C
330
1F
100
AcDbEntity
  8
0
  6
Continuous
 62
     7
370
    25
100
AcDbSpline
210
0.0
220
0.0
230
1.0
 70
     8
 71
     3
 72
    20
 73
    16
 74
     0
 42
0.000000001
 43
0.00000001
 40
0.0
 40
0.0
 40
0.0
 40
0.0
 40
0.2500000000000003
 40
0.2500000000000003
 40
0.3750000000000002
 40
0.3750000000000002
 40
0.5000000000000002
 40
0.5000000000000002
 40
0.6250000000000002
 40
0.6250000000000002
 40
0.7500000000000001
 40
0.7500000000000001
 40
0.8750000000000001
 40
0.8750000000000001
 40
1.0
 40
1.0
 40
1.0
 40
1.0
 10
73.28712360567442
 20
32.66869425296449
 30
0.0
 10
73.49397882205228
 20
32.8522990900174
 30
0.0
 10
73.73032854870031
 20
32.99273518984196
 30
0.0
 10
74.11721087196007
 20
33.13693977385031
 30
0.0
 10
74.24891966049347
 20
33.17282896177036
 30
0.0
 10
74.51762804301816
 20
33.22115885710068
 30
0.0
 10
74.65600974401025
 20
33.2335238136837
 30
0.0
 10
74.9301693917467
 20
33.23351407649908
 30
0.0
 10
75.06593905926233
 20
33.22145514624657
 30
0.0
 10
75.3348733808428
 20
33.17336992283863
 30
0.0
 10
75.4692061839211
 20
33.13676138421818
 30
0.0
 10
75.72549579384444
 20
33.04128984210968
 30
0.0
 10
75.84831736139748
 20
32.9825022629196
 30
0.0
 10
76.08309867619656
 20
32.84237639999176
 30
0.0
 10
76.19547342582817
 20
32.76048763789934
 30
0.0
 10
76.29889085647726
 20
32.66869425296447
 30
0.0
  0
SPLINE
  5
10D
330
1F
100
AcDbEntity
  8
0
  6
Continuous
 62
     7
370
    25
100
AcDbSpline
210
0.0
220
0.0
230
1.0
 70
     8
 71
     3
 72
    10
 73
     6
 74
     0
 42
0.000000001
 43
0.00000001
 40
0.0
 40
0.0
 40
0.0
 40
0.0
 40
0.5
 40
0.5
 40
1.0
 40
1.0
 40
1.0
 40
1.0
 10
73.366531182589
 20
34.10564238404826
 30
0.0
 10
73.31491426458865
 20
33.96132375558877
 30
0.0
 10
73.1943340405187
 20
33.84820449391704
 30
0.0
 10
72.90776641704353
 20
33.74836474369913
 30
0.0
 10
72.74415879224946
 20
33.76094538139881
 30
0.0
 10
72.60999828757195
 20
33.83477539726277
 30
0.0
  0
LINE
  5
10E
330
1F
100
AcDbEntity
  8
0
  6
Continuous
 62
     7
370
    25
100
AcDbLine
 10
72.7305302866
 20
34.0538005949
 30
0.0
 11
72.6099982876
 21
33.8347753973
 31
0.0
  0
LINE
  5
10F
330
1F
100
AcDbEntity
  8
0
  6
Continuous
 62
     7
370
    25
100
AcDbLine
 10
77.6279292324
 20
43.0969834632
 30
0.0
 11
77.8779292324
 21
43.0969834632
 31
0.0
  0
LINE
  5
110
330
1F
100
AcDbEntity
  8
0
  6
Continuous
 62
     7
370
    25
100
AcDbLine
 10
77.0157809316
 20
33.8566583847
 30
0.0
 11
77.6346532889
 21
34.4982611029
 31
0.0
  0
LINE
  5
111
330
1F
100
AcDbEntity
  8
0
  6
Continuous
 62
     7
370
    25
100
AcDbLine
 10
77.0157809316
 20
33.8566583847
 30
0.0
 11
76.9836716546
 21
33.8383092067
 31
0.0
  0
LINE
  5
112
330
1F
100
AcDbEntity
  8
0
  6
Continuous
 62
     7
370
    25
100
AcDbLine
 10
76.4019174276
 20
32.6864297642
 30
0.0
 11
77.0157809316
 21
33.8566583847
 31
0.0
  0
LINE
  5
113
330
1F
100
AcDbEntity
  8
0
  6
Continuous
 62
     7
370
    25
100
AcDbLine
 10
72.6099982876
 20
33.8347753973
 30
0.0
 11
72.5702335306
 21
33.8566583847
 31
0.0
  0
LINE
  5
114
330
1F
100
AcDbEntity
  8
0
  6
Continuous
 62
     7
370
    25
100
AcDbLine
 10
77.8779292324
 20
31.0969834632
 30
0.0
 11
66.6279292324
 21
31.0969834632
 31
0.0
  0
ARC
  5
115
330
1F
100
AcDbEntity
  8
0
  6
Continuous
 62
     7
370
    25
100
AcDbCircle
 10
76.4071646147
 20
44.8237967807
 30
0.0
 40
0.2286897211609366
100
AcDbArc
 50
174.1808239121
 51
262.6552867776
  0
ARC
  5
116
330
1F
100
AcDbEntity
  8
0
  6
Continuous
 62
     7
370
    25
100
AcDbCircle
 10
78.3547425499
 20
31.3177480809
 30
0.0
 40
0.2286897211609087
100
AcDbArc
 50
84.180823912
 51
172.6552867776
  0
ARC
  5
117
330
1F
100
AcDbEntity
  8
0
  6
Continuous
 62
     7
370
    25
100
AcDbCircle
 10
64.8486938501
 20
44.8237967807
 30
0.0
 40
0.2286897211609482
100
AcDbArc
 50
277.3447132224
 51
5.8191760879
  0
ARC
  5
118
330
1F
100
AcDbEntity
  8
0
  6
Continuous
 62
     7
370
    25
100
AcDbCircle
 10
78.3547425499
 20
42.8762188455
 30
0.0
 40
0.2286897211608978
100
AcDbArc
 50
187.3447132224
 51
275.819176088
  0
LINE
  5
119
330
1F
100
AcDbEntity
  8
0
  6
Continuous
 62
     7
370
    25
100
AcDbLine
 10
76.662411991
 20
44.3469834632
 30
0.0
 11
76.6279292324
 21
44.3469834632
 31
0.0
  0
LINE
  5
11A
330
1F
100
AcDbEntity
  8
0
  6
Continuous
 62
     7
370
    25
100
AcDbLine
 10
77.8779292324
 20
31.0969834632
 30
0.0
 11
77.8779292324
 21
31.0625007046
 31
0.0
  0
LINE
  5
11B
330
1F
100
AcDbEntity
  8
0
  6
Continuous
 62
     7
370
    25
100
AcDbLine
 10
64.5934464738
 20
44.3469834632
 30
0.0
 11
64.6279292324
 21
44.3469834632
 31
0.0
  0
LINE
  5
11C
330
1F
100
AcDbEntity
  8
0
  6
Continuous
 62
     7
370
    25
100
AcDbLine
 10
77.8779292324
 20
43.0969834632
 30
0.0
 11
77.8779292324
 21
43.1314662218
 31
0.0
  0
LWPOLYLINE
  5
11D
330
1F
100
AcDbEntity
  8
0
  6
Continuous
 62
     7
370
    25
100
AcDbPolyline
 90
        9
 70
   128
 43
0.0
 10
66.3641190905
 20
31.1144587574
 10
66.3603480206
 20
31.1143619706
 10
66.3564383161
 20
31.1130892836
 10
66.3524085361
 20
31.1106467379
 10
66.3482778095
 20
31.1070459279
 10
66.3440657446
 20
31.1023039464
 10
66.3397923357
 20
31.0964433032
 10
66.3354778683
 20
31.0894918183
 10
66.3311428228
 20
31.0814824897
  0
SPLINE
  5
11E
330
1F
100
AcDbEntity
  8
0
  6
Continuous
 62
     7
370
    25
100
AcDbSpline
210
0.0
220
0.0
230
1.0
 70
     8
 71
     3
 72
    14
 73
    10
 74
     0
 42
0.000000001
 43
0.00000001
 40
0.0
 40
0.0
 40
0.0
 40
0.0
 40
0.25
 40
0.25
 40
0.5
 40
0.5
 40
0.75
 40
0.75
 40
1.0
 40
1.0
 40
1.0
 40
1.0
 10
66.33114282275253
 20
31.08148248969507
 30
0.0
 10
66.1152835506548
 20
31.10793342661146
 30
0.0
 10
65.90745205626261
 20
31.16831927246684
 30
0.0
 10
65.51004866535192
 20
31.36059983774743
 30
0.0
 10
65.33156585747155
 20
31.48716762965792
 30
0.0
 10
65.01775004463632
 20
31.80107607412952
 30
0.0
 10
64.89081862054475
 20
31.98035838489447
 30
0.0
 10
64.6991517580339
 20
32.376988544176
 30
0.0
 10
64.6388780081283
 20
32.58434747379592
 30
0.0
 10
64.61242825889023
 20
32.80019705355736
 30
0.0
  0
LWPOLYLINE
  5
11F
330
1F
100
AcDbEntity
  8
0
  6
Continuous
 62
     7
370
    25
100
AcDbPolyline
 90
        9
 70
   128
 43
0.0
 10
64.6454045266
 20
32.8331733213
 10
64.6453077398
 20
32.8294022514
 10
64.6440350528
 20
32.8254925469
 10
64.6415925071
 20
32.8214627669
 10
64.6379916971
 20
32.8173320403
 10
64.6332497156
 20
32.8131199754
 10
64.6273890724
 20
32.8088465665
 10
64.6204375874
 20
32.8045320991
 10
64.6124282589
 20
32.8001970536
  0
LINE
  5
120
330
1F
100
AcDbEntity
  8
0
  6
Continuous
 62
     7
370
    25
100
AcDbLine
 10
66.6279292324
 20
31.0969834632
 30
0.0
 11
66.6279292324
 21
31.0625007046
 31
0.0
  0
LINE
  5
121
330
1F
100
AcDbEntity
  8
0
  6
Continuous
 62
     7
370
    25
100
AcDbLine
 10
64.5934464738
 20
33.0969834632
 30
0.0
 11
64.6279292324
 21
33.0969834632
 31
0.0
  0
SPLINE
  5
122
330
1F
100
AcDbEntity
  8
0
  6
Continuous
 62
     7
370
    25
100
AcDbSpline
210
0.0
220
0.0
230
1.0
 70
    24
 71
     3
 72
    10
 73
     6
 74
     0
 42
0.000000001
 43
0.00000001
 40
0.0
 40
0.0
 40
0.0
 40
0.0
 40
0.5
 40
0.5
 40
1.0
 40
1.0
 40
1.0
 40
1.0
 10
76.99621572110554
 20
43.46526995191039
 30
0.0
 10
76.97132435059373
 20
43.44037858139858
 30
0.0
 10
76.95337765342283
 20
43.42243188422768
 30
0.0
 10
76.92786071535635
 20
43.3969149461612
 30
0.0
 10
76.92082245122208
 20
43.38987668202725
 30
0.0
 10
76.92082245122137
 20
43.3898766820262
 30
0.0
  0
LINE
  5
123
330
1F
100
AcDbEntity
  8
0
  6
Continuous
 62
     7
370
    25
100
AcDbLine
 10
76.662411991
 20
44.0969834632
 30
0.0
 11
76.6279292324
 21
44.0969834632
 31
0.0
  0
LINE
  5
124
330
1F
100
AcDbEntity
  8
0
  6
Continuous
 62
     7
370
    25
100
AcDbLine
 10
77.6279292324
 20
43.0969834632
 30
0.0
 11
77.6279292324
 21
43.1314662218
 31
0.0
  0
LINE
  5
125
330
1F
100
AcDbEntity
  8
0
  6
Continuous
 62
     8
370
    25
100
AcDbLine
 10
61.6279292324
 20
50.0969834632
 30
0.0
 11
79.6279292324
 21
50.0969834632
 31
0.0
  0
LINE
  5
126
330
1F
100
AcDbEntity
  8
0
  6
Continuous
 62
     8
370
    25
100
AcDbLine
 10
77.6279292324
 20
48.0969834632
 30
0.0
 11
63.6279292324
 21
48.0969834632
 31
0.0
  0
LINE
  5
127
330
1F
100
AcDbEntity
  8
0
  6
Continuous
 62
     8
370
    25
100
AcDbLine
 10
81.6279292324
 20
30.0969834632
 30
0.0
 11
81.6279292324
 21
44.0969834632
 31
0.0
  0
LINE
  5
128
330
1F
100
AcDbEntity
  8
0
  6
Continuous
 62
     8
370
    25
100
AcDbLine
 10
63.6279292324
 20
32.0969834632
 30
0.0
 11
64.6124282589
 21
32.8001970536
 31
0.0
  0
LINE
  5
129
330
1F
100
AcDbEntity
  8
0
  6
Continuous
 62
     8
370
    25
100
AcDbLine
 10
66.3311428228
 20
31.0814824897
 30
0.0
 11
65.6279292324
 21
30.0969834632
 31
0.0
  0
LINE
  5
12A
330
1F
100
AcDbEntity
  8
0
  6
Continuous
 62
     7
370
    18
100
AcDbLine
 10
94.758125596
 20
29.5948020996
 30
0.0
 11
82.7879292324
 21
29.2207334632
 31
0.0
  0
LINE
  5
12B
330
1F
100
AcDbEntity
  8
0
  6
Continuous
 62
     7
370
    18
100
AcDbLine
 10
94.758125596
 20
44.5991648269
 30
0.0
 11
82.7879292324
 21
44.9732334632
 31
0.0
  0
LINE
  5
12C
330
1F
100
AcDbEntity
  8
0
  6
Continuous
 62
     7
370
    18
100
AcDbLine
 10
82.7879292324
 20
45.6261084632
 30
0.0
 11
82.7879292324
 21
28.5678584632
 31
0.0
  0
LINE
  5
12D
330
1F
100
AcDbEntity
  8
0
  6
CENTERX2
 62
     7
370
    18
100
AcDbLine
 10
93.5626033873
 20
37.0969834632
 30
0.0
 11
61.6138735219
 21
37.0969834632
 31
0.0
  0
LINE
  5
12E
330
1F
100
AcDbEntity
  8
0
  6
CENTERX2
 62
     7
370
    18
100
AcDbLine
 10
70.6279292324
 20
49.0969834632
 30
0.0
 11
70.6279292324
 21
62.5969834632
 31
0.0
  0
LINE
  5
12F
330
1F
100
AcDbEntity
  8
0
  6
CENTERX2
 62
     7
370
    18
100
AcDbLine
 10
70.6279292324
 20
49.0969834632
 30
0.0
 11
70.6279292324
 21
28.2375181191
 31
0.0
  0
LINE
  5
130
330
1F
100
AcDbEntity
  8
0
  6
CENTERX2
 62
     7
370
    18
100
AcDbLine
 10
93.5626033873
 20
37.0969834632
 30
0.0
 11
96.6279292324
 21
37.0969834632
 31
0.0
  0
LINE
  5
131
330
1F
100
AcDbEntity
  8
0
  6
Continuous
 62
     7
370
    25
100
AcDbLine
 10
104.4288150853
 20
61.5969834632
 30
0.0
 11
104.4288150853
 21
50.0969834632
 31
0.0
  0
LINE
  5
132
330
1F
100
AcDbEntity
  8
0
  6
Continuous
 62
     7
370
    25
100
AcDbLine
 10
122.4288150853
 20
50.0969834632
 30
0.0
 11
122.4288150853
 21
61.5969834632
 31
0.0
  0
LINE
  5
133
330
1F
100
AcDbEntity
  8
0
  6
Continuous
 62
     7
370
    25
100
AcDbLine
 10
122.4288150853
 20
61.5969834632
 30
0.0
 11
121.9288150853
 21
62.0969834632
 31
0.0
  0
LINE
  5
134
330
1F
100
AcDbEntity
  8
0
  6
Continuous
 62
     7
370
    25
100
AcDbLine
 10
104.9288150853
 20
62.0969834632
 30
0.0
 11
104.4288150853
 21
61.5969834632
 31
0.0
  0
ARC
  5
135
330
1F
100
AcDbEntity
  8
0
  6
Continuous
 62
     7
370
    25
100
AcDbCircle
 10
105.4288150853
 20
50.0969834632
 30
0.0
 40
1.0
100
AcDbArc
 50
180.0
 51
270.0
  0
ARC
  5
136
330
1F
100
AcDbEntity
  8
0
  6
Continuous
 62
     7
370
    25
100
AcDbCircle
 10
121.4288150853
 20
50.0969834632
 30
0.0
 40
1.0
100
AcDbArc
 50
270.0
 51
0.0
  0
ARC
  5
137
330
1F
100
AcDbEntity
  8
0
  6
Continuous
 62
     7
370
    25
100
AcDbCircle
 10
105.4288150853
 20
48.0969834632
 30
0.0
 40
1.000000000000014
100
AcDbArc
 50
0.0
 51
90.0
  0
ARC
  5
138
330
1F
100
AcDbEntity
  8
0
  6
Continuous
 62
     7
370
    25
100
AcDbCircle
 10
121.4288150853
 20
48.0969834632
 30
0.0
 40
1.000000000000007
100
AcDbArc
 50
90.0
 51
180.0
  0
LINE
  5
139
330
1F
100
AcDbEntity
  8
0
  6
Continuous
 62
     7
370
    25
100
AcDbLine
 10
120.4288150853
 20
44.8469834632
 30
0.0
 11
120.4288150853
 21
48.0969834632
 31
0.0
  0
LINE
  5
13A
330
1F
100
AcDbEntity
  8
0
  6
Continuous
 62
     7
370
    25
100
AcDbLine
 10
106.4288150853
 20
48.0969834632
 30
0.0
 11
106.4288150853
 21
44.8469834632
 31
0.0
  0
SPLINE
  5
13B
330
1F
100
AcDbEntity
  8
0
  6
Continuous
 62
     7
370
    25
100
AcDbSpline
210
0.0
220
0.0
230
1.0
 70
     8
 71
     3
 72
    11
 73
     7
 74
     0
 42
0.000000001
 43
0.00000001
 40
0.0
 40
0.0
 40
0.0
 40
0.0
 40
0.730571230983845
 40
0.9500135288461644
 40
0.9986319607411891
 40
1.0
 40
1.0
 40
1.0
 40
1.0
 10
106.4311218376715
 20
44.72175018986258
 30
0.0
 10
106.4308986308701
 20
44.71506408481726
 30
0.0
 10
106.4306083792532
 20
44.70636966875085
 30
0.0
 10
106.4304116483138
 20
44.69759096526903
 30
0.0
 10
106.4303574446892
 20
44.69498438003428
 30
0.0
 10
106.4303493669603
 20
44.69458794169947
 30
0.0
 10
106.4303491458875
 20
44.69457709189965
 30
0.0
  0
CIRCLE
  5
13C
330
1F
100
AcDbEntity
  8
0
  6
Continuous
 62
     7
370
    25
100
AcDbCircle
 10
113.4288150853
 20
37.0969834632
 30
0.0
 40
7.0
  0
CIRCLE
  5
13D
330
1F
100
AcDbEntity
  8
0
  6
Continuous
 62
     7
370
    25
100
AcDbCircle
 10
113.4288150853
 20
37.0969834632
 30
0.0
 40
8.192416432660906
  0
CIRCLE
  5
13E
330
1F
100
AcDbEntity
  8
0
  6
Continuous
 62
     7
370
    25
100
AcDbCircle
 10
113.4288150853
 20
37.0969834632
 30
0.0
 40
5.5
  0
CIRCLE
  5
13F
330
1F
100
AcDbEntity
  8
0
  6
Continuous
 62
     7
370
    25
100
AcDbCircle
 10
113.4288150853
 20
37.0969834632
 30
0.0
 40
4.999999999999986
  0
CIRCLE
  5
140
330
1F
100
AcDbEntity
  8
0
  6
Continuous
 62
     7
370
    25
100
AcDbCircle
 10
113.4288150853
 20
37.0969834632
 30
0.0
 40
8.529386891478595
  0
LINE
  5
141
330
1F
100
AcDbEntity
  8
0
  6
Continuous
 62
     7
370
    25
100
AcDbLine
 10
113.4288150853
 20
61.5969834632
 30
0.0
 11
104.4288150853
 21
61.5969834632
 31
0.0
  0
LINE
  5
142
330
1F
100
AcDbEntity
  8
0
  6
Continuous
 62
     7
370
    25
100
AcDbLine
 10
122.4288150853
 20
61.5969834632
 30
0.0
 11
113.4288150853
 21
61.5969834632
 31
0.0
  0
LINE
  5
143
330
1F
100
AcDbEntity
  8
0
  6
Continuous
 62
     7
370
    25
100
AcDbLine
 10
113.4288150853
 20
62.0969834632
 30
0.0
 11
121.9288150853
 21
62.0969834632
 31
0.0
  0
LINE
  5
144
330
1F
100
AcDbEntity
  8
0
  6
Continuous
 62
     7
370
    25
100
AcDbLine
 10
104.9288150853
 20
62.0969834632
 30
0.0
 11
113.4288150853
 21
62.0969834632
 31
0.0
  0
LINE
  5
145
330
1F
100
AcDbEntity
  8
0
  6
Continuous
 62
     7
370
    25
100
AcDbLine
 10
113.4288150853
 20
49.0969834632
 30
0.0
 11
121.4288150853
 21
49.0969834632
 31
0.0
  0
LINE
  5
146
330
1F
100
AcDbEntity
  8
0
  6
Continuous
 62
     7
370
    25
100
AcDbLine
 10
105.4288150853
 20
49.0969834632
 30
0.0
 11
113.4288150853
 21
49.0969834632
 31
0.0
  0
LINE
  5
147
330
1F
100
AcDbEntity
  8
0
  6
Continuous
 62
     7
370
    25
100
AcDbLine
 10
106.4288150853
 20
31.3469834632
 30
0.0
 11
106.4288150853
 21
32.2235410716
 31
0.0
  0
LINE
  5
148
330
1F
100
AcDbEntity
  8
0
  6
Continuous
 62
     7
370
    25
100
AcDbLine
 10
106.4288150853
 20
31.3469834632
 30
0.0
 11
106.6788150853
 21
31.3469834632
 31
0.0
  0
LINE
  5
149
330
1F
100
AcDbEntity
  8
0
  6
Continuous
 62
     7
370
    25
100
AcDbLine
 10
120.1788150853
 20
42.8469834632
 30
0.0
 11
120.4288150853
 21
42.8469834632
 31
0.0
  0
LINE
  5
14A
330
1F
100
AcDbEntity
  8
0
  6
Continuous
 62
     7
370
    25
100
AcDbLine
 10
120.4288150853
 20
42.8469834632
 30
0.0
 11
120.4288150853
 21
41.9704258548
 31
0.0
  0
LINE
  5
14B
330
1F
100
AcDbEntity
  8
0
  6
Continuous
 62
     7
370
    25
100
AcDbLine
 10
120.4288150853
 20
32.2235410716
 30
0.0
 11
120.4288150853
 21
31.3469834632
 31
0.0
  0
LINE
  5
14C
330
1F
100
AcDbEntity
  8
0
  6
Continuous
 62
     7
370
    25
100
AcDbLine
 10
120.1788150853
 20
31.3469834632
 30
0.0
 11
120.4288150853
 21
31.3469834632
 31
0.0
  0
LINE
  5
14D
330
1F
100
AcDbEntity
  8
0
  6
Continuous
 62
     7
370
    25
100
AcDbLine
 10
106.4288150853
 20
41.9704258548
 30
0.0
 11
106.4288150853
 21
42.8469834632
 31
0.0
  0
LINE
  5
14E
330
1F
100
AcDbEntity
  8
0
  6
Continuous
 62
     7
370
    25
100
AcDbLine
 10
106.4288150853
 20
42.8469834632
 30
0.0
 11
106.6788150853
 21
42.8469834632
 31
0.0
  0
LINE
  5
14F
330
1F
100
AcDbEntity
  8
0
  6
Continuous
 62
     7
370
    25
100
AcDbLine
 10
120.1788150853
 20
42.8469834632
 30
0.0
 11
120.1788150853
 21
43.0969834632
 31
0.0
  0
ARC
  5
150
330
1F
100
AcDbEntity
  8
0
  6
Continuous
 62
     7
370
    25
100
AcDbCircle
 10
120.1788150853
 20
42.8469834632
 30
0.0
 40
0.25
100
AcDbArc
 50
0.0
 51
90.0
  0
LINE
  5
151
330
1F
100
AcDbEntity
  8
0
  6
Continuous
 62
     7
370
    25
100
AcDbLine
 10
106.6788150853
 20
43.0969834632
 30
0.0
 11
107.3666009069
 21
43.0969834632
 31
0.0
  0
LINE
  5
152
330
1F
100
AcDbEntity
  8
0
  6
Continuous
 62
     7
370
    25
100
AcDbLine
 10
106.6788150853
 20
43.0969834632
 30
0.0
 11
106.6788150853
 21
42.8469834632
 31
0.0
  0
LINE
  5
153
330
1F
100
AcDbEntity
  8
0
  6
Continuous
 62
     7
370
    25
100
AcDbLine
 10
119.4910292637
 20
43.0969834632
 30
0.0
 11
120.1788150853
 21
43.0969834632
 31
0.0
  0
LINE
  5
154
330
1F
100
AcDbEntity
  8
0
  6
Continuous
 62
     7
370
    25
100
AcDbLine
 10
107.3666009069
 20
31.0969834632
 30
0.0
 11
106.6788150853
 21
31.0969834632
 31
0.0
  0
LINE
  5
155
330
1F
100
AcDbEntity
  8
0
  6
Continuous
 62
     7
370
    25
100
AcDbLine
 10
106.6788150853
 20
31.0969834632
 30
0.0
 11
106.6788150853
 21
31.3469834632
 31
0.0
  0
ARC
  5
156
330
1F
100
AcDbEntity
  8
0
  6
Continuous
 62
     7
370
    25
100
AcDbCircle
 10
106.6788150853
 20
31.3469834632
 30
0.0
 40
0.2500000000000036
100
AcDbArc
 50
180.0
 51
270.0
  0
ARC
  5
157
330
1F
100
AcDbEntity
  8
0
  6
Continuous
 62
     7
370
    25
100
AcDbCircle
 10
120.1788150853
 20
31.3469834632
 30
0.0
 40
0.2500000000000036
100
AcDbArc
 50
270.0
 51
0.0
  0
LINE
  5
158
330
1F
100
AcDbEntity
  8
0
  6
Continuous
 62
     7
370
    25
100
AcDbLine
 10
120.1788150853
 20
31.3469834632
 30
0.0
 11
120.1788150853
 21
31.0969834632
 31
0.0
  0
LINE
  5
159
330
1F
100
AcDbEntity
  8
0
  6
Continuous
 62
     7
370
    25
100
AcDbLine
 10
120.1788150853
 20
31.0969834632
 30
0.0
 11
119.4910292637
 21
31.0969834632
 31
0.0
  0
ARC
  5
15A
330
1F
100
AcDbEntity
  8
0
  6
Continuous
 62
     7
370
    25
100
AcDbCircle
 10
106.6788150853
 20
42.8469834632
 30
0.0
 40
0.25
100
AcDbArc
 50
90.0
 51
180.0
  0
LINE
  5
15B
330
1F
100
AcDbEntity
  8
0
  6
Continuous
 62
     7
370
    25
100
AcDbLine
 10
106.6788150853
 20
44.0969834632
 30
0.0
 11
106.6788150853
 21
43.0969834632
 31
0.0
  0
LINE
  5
15C
330
1F
100
AcDbEntity
  8
0
  6
Continuous
 62
     7
370
    25
100
AcDbLine
 10
106.6788150853
 20
44.0969834632
 30
0.0
 11
106.4288150853
 21
44.0969834632
 31
0.0
  0
LINE
  5
15D
330
1F
100
AcDbEntity
  8
0
  6
Continuous
 62
     7
370
    25
100
AcDbLine
 10
106.4288150853
 20
42.8469834632
 30
0.0
 11
106.4288150853
 21
44.0969834632
 31
0.0
  0
LINE
  5
15E
330
1F
100
AcDbEntity
  8
0
  6
Continuous
 62
     7
370
    25
100
AcDbLine
 10
120.1788150853
 20
43.0969834632
 30
0.0
 11
120.1788150853
 21
44.0969834632
 31
0.0
  0
LINE
  5
15F
330
1F
100
AcDbEntity
  8
0
  6
Continuous
 62
     7
370
    25
100
AcDbLine
 10
120.1788150853
 20
44.0969834632
 30
0.0
 11
120.4288150853
 21
44.0969834632
 31
0.0
  0
LINE
  5
160
330
1F
100
AcDbEntity
  8
0
  6
Continuous
 62
     7
370
    25
100
AcDbLine
 10
120.4288150853
 20
44.0969834632
 30
0.0
 11
120.4288150853
 21
42.8469834632
 31
0.0
  0
SPLINE
  5
161
330
1F
100
AcDbEntity
  8
0
  6
Continuous
 62
     7
370
    25
100
AcDbSpline
210
0.0
220
0.0
230
1.0
 70
    24
 71
     3
 72
    14
 73
    10
 74
     0
 42
0.000000001
 43
0.00000001
 40
0.0
 40
0.0
 40
0.0
 40
0.0
 40
0.25
 40
0.25
 40
0.5
 40
0.5
 40
0.75
 40
0.75
 40
1.0
 40
1.0
 40
1.0
 40
1.0
 10
120.4288150853043
 20
44.84698346321311
 30
0.0
 10
120.4288150853043
 20
44.84698346321311
 30
0.0
 10
120.418890395379
 20
44.84698346321311
 30
0.0
 10
120.3790956927162
 20
44.84698346321311
 30
0.0
 10
120.3492253474946
 20
44.84698346321311
 30
0.0
 10
120.2692558075626
 20
44.84698346321311
 30
0.0
 10
120.2191559271268
 20
44.84698346321311
 30
0.0
 10
120.0982713781389
 20
44.84698346321311
 30
0.0
 10
120.0274856295503
 20
44.84698346321311
 30
0.0
 10
119.9460564646147
 20
44.84698346321311
 30
0.0
  0
LINE
  5
162
330
1F
100
AcDbEntity
  8
0
  6
Continuous
 62
     7
370
    25
100
AcDbLine
 10
117.6924237794
 20
44.8469834632
 30
0.0
 11
119.9460564646
 21
44.8469834632
 31
0.0
  0
LINE
  5
163
330
1F
100
AcDbEntity
  8
0
  6
Continuous
 62
     7
370
    25
100
AcDbLine
 10
106.911573706
 20
44.8469834632
 30
0.0
 11
109.1652063912
 21
44.8469834632
 31
0.0
  0
SPLINE
  5
164
330
1F
100
AcDbEntity
  8
0
  6
Continuous
 62
     7
370
    25
100
AcDbSpline
210
0.0
220
0.0
230
1.0
 70
    24
 71
     3
 72
    14
 73
    10
 74
     0
 42
0.000000001
 43
0.00000001
 40
0.0
 40
0.0
 40
0.0
 40
0.0
 40
0.25
 40
0.25
 40
0.5
 40
0.5
 40
0.75
 40
0.75
 40
1.0
 40
1.0
 40
1.0
 40
1.0
 10
106.4288150853043
 20
44.84698346321311
 30
0.0
 10
106.4288150853043
 20
44.84698346321311
 30
0.0
 10
106.4387397752297
 20
44.84698346321311
 30
0.0
 10
106.4785344778924
 20
44.84698346321311
 30
0.0
 10
106.5084048231141
 20
44.84698346321311
 30
0.0
 10
106.588374363046
 20
44.84698346321311
 30
0.0
 10
106.6384742434819
 20
44.84698346321311
 30
0.0
 10
106.7593587924698
 20
44.84698346321311
 30
0.0
 10
106.8301445410584
 20
44.84698346321311
 30
0.0
 10
106.911573705994
 20
44.84698346321311
 30
0.0
  0
LWPOLYLINE
  5
165
330
1F
100
AcDbEntity
  8
0
  6
Continuous
 62
     7
370
    25
100
AcDbPolyline
 90
        9
 70
   128
 43
0.0
 10
109.1652063912
 20
44.8469834632
 10
109.1622805324
 20
44.7982108827
 10
109.1536153953
 20
44.7513126051
 10
109.139543976
 20
44.708090905
 10
109.1206070314
 20
44.6702067679
 10
109.0975322977
 20
44.6391160601
 10
109.0712065239
 20
44.6160135801
 10
109.0426413948
 20
44.6017871431
 10
109.0129346521
 20
44.5969834632
  0
LWPOLYLINE
  5
166
330
1F
100
AcDbEntity
  8
0
  6
Continuous
 62
     7
370
    25
100
AcDbPolyline
 90
        9
 70
   128
 43
0.0
 10
117.8446955185
 20
44.5969834632
 10
117.8149887759
 20
44.6017871431
 10
117.7864236467
 20
44.6160135801
 10
117.7600978729
 20
44.6391160601
 10
117.7370231392
 20
44.6702067679
 10
117.7180861946
 20
44.708090905
 10
117.7040147754
 20
44.7513126051
 10
117.6953496382
 20
44.7982108827
 10
117.6924237794
 20
44.8469834632
  0
LINE
  5
167
330
1F
100
AcDbEntity
  8
0
  6
Continuous
 62
     7
370
    25
100
AcDbLine
 10
106.6788150853
 20
44.3469834632
 30
0.0
 11
106.6788150853
 21
44.0969834632
 31
0.0
  0
LINE
  5
168
330
1F
100
AcDbEntity
  8
0
  6
Continuous
 62
     7
370
    25
100
AcDbLine
 10
106.4288150853
 20
44.3469834632
 30
0.0
 11
106.6788150853
 21
44.3469834632
 31
0.0
  0
LINE
  5
169
330
1F
100
AcDbEntity
  8
0
  6
Continuous
 62
     7
370
    25
100
AcDbLine
 10
106.4288150853
 20
44.0969834632
 30
0.0
 11
106.4288150853
 21
44.3469834632
 31
0.0
  0
LINE
  5
16A
330
1F
100
AcDbEntity
  8
0
  6
Continuous
 62
     7
370
    25
100
AcDbLine
 10
120.1788150853
 20
44.0969834632
 30
0.0
 11
120.1788150853
 21
44.3469834632
 31
0.0
  0
LINE
  5
16B
330
1F
100
AcDbEntity
  8
0
  6
Continuous
 62
     7
370
    25
100
AcDbLine
 10
120.1788150853
 20
44.3469834632
 30
0.0
 11
120.4288150853
 21
44.3469834632
 31
0.0
  0
LINE
  5
16C
330
1F
100
AcDbEntity
  8
0
  6
Continuous
 62
     7
370
    25
100
AcDbLine
 10
120.4288150853
 20
44.3469834632
 30
0.0
 11
120.4288150853
 21
44.0969834632
 31
0.0
  0
LINE
  5
16D
330
1F
100
AcDbEntity
  8
0
  6
Continuous
 62
     7
370
    25
100
AcDbLine
 10
106.6788150853
 20
44.5969834632
 30
0.0
 11
109.0129346521
 21
44.5969834632
 31
0.0
  0
LINE
  5
16E
330
1F
100
AcDbEntity
  8
0
  6
Continuous
 62
     7
370
    25
100
AcDbLine
 10
106.6788150853
 20
44.5969834632
 30
0.0
 11
106.6788150853
 21
44.3469834632
 31
0.0
  0
LINE
  5
16F
330
1F
100
AcDbEntity
  8
0
  6
Continuous
 62
     7
370
    25
100
AcDbLine
 10
117.8446955185
 20
44.5969834632
 30
0.0
 11
120.1788150853
 21
44.5969834632
 31
0.0
  0
LINE
  5
170
330
1F
100
AcDbEntity
  8
0
  6
Continuous
 62
     7
370
    25
100
AcDbLine
 10
120.1788150853
 20
44.3469834632
 30
0.0
 11
120.1788150853
 21
44.5969834632
 31
0.0
  0
ARC
  5
171
330
1F
100
AcDbEntity
  8
0
  6
Continuous
 62
     7
370
    25
100
AcDbCircle
 10
106.6788150853
 20
44.3469834632
 30
0.0
 40
0.25
100
AcDbArc
 50
90.0
 51
180.0
  0
ARC
  5
172
330
1F
100
AcDbEntity
  8
0
  6
Continuous
 62
     7
370
    25
100
AcDbCircle
 10
120.1788150853
 20
44.3469834632
 30
0.0
 40
0.25
100
AcDbArc
 50
0.0
 51
90.0
  0
SPLINE
  5
173
330
1F
100
AcDbEntity
  8
0
  6
Continuous
 62
     7
370
    25
100
AcDbSpline
210
0.0
220
0.0
230
1.0
 70
     8
 71
     3
 72
     8
 73
     4
 74
     0
 42
0.000000001
 43
0.00000001
 40
0.0
 40
0.0
 40
0.0
 40
0.0
 40
1.0
 40
1.0
 40
1.0
 40
1.0
 10
106.911573705994
 20
44.8469834632131
 30
0.0
 10
106.9100038032972
 20
44.78153078277695
 30
0.0
 10
106.8833484688932
 20
44.71648121776872
 30
0.0
 10
106.8386469052718
 20
44.67020075728639
 30
0.0
  0
SPLINE
  5
174
330
1F
100
AcDbEntity
  8
0
  6
Continuous
 62
     7
370
    25
100
AcDbSpline
210
0.0
220
0.0
230
1.0
 70
     8
 71
     3
 72
    14
 73
    10
 74
     0
 42
0.000000001
 43
0.00000001
 40
0.0
 40
0.0
 40
0.0
 40
0.0
 40
0.2455893235675696
 40
0.4556181963142487
 40
0.6303106213393677
 40
0.7701164303669036
 40
0.8759901151610805
 40
0.9502659312389182
 40
1.0
 40
1.0
 40
1.0
 40
1.0
 10
106.8386469052718
 20
44.67020075728639
 30
0.0
 10
106.8267559647326
 20
44.65923571797109
 30
0.0
 10
106.80469584908
 20
44.63889333759894
 30
0.0
 10
106.7691321507599
 20
44.61874132512246
 30
0.0
 10
106.7383398421566
 20
44.60662176565161
 30
0.0
 10
106.7131002595838
 20
44.60041594241921
 30
0.0
 10
106.695117966649
 20
44.59779624344537
 30
0.0
 10
106.682195803233
 20
44.59701604910033
 30
0.0
 10
106.679782813127
 20
44.59699279089745
 30
0.0
 10
106.6788150853043
 20
44.5969834632131
 30
0.0
  0
SPLINE
  5
175
330
1F
100
AcDbEntity
  8
0
  6
Continuous
 62
     7
370
    25
100
AcDbSpline
210
0.0
220
0.0
230
1.0
 70
     8
 71
     3
 72
    15
 73
    11
 74
     0
 42
0.000000001
 43
0.00000001
 40
0.0
 40
0.0
 40
0.0
 40
0.0
 40
0.0425877399909108
 40
0.1028282325346858
 40
0.1864706729280343
 40
0.2956205441869044
 40
0.4311891005861843
 40
0.5936297641565587
 40
0.7831876993469675
 40
1.0
 40
1.0
 40
1.0
 40
1.0
 10
120.1788150853043
 20
44.59698346321311
 30
0.0
 10
120.1780995837075
 20
44.59698925631525
 30
0.0
 10
120.1763720028452
 20
44.59700324377864
 30
0.0
 10
120.1664978237503
 20
44.59749494461038
 30
0.0
 10
120.152604143928
 20
44.59912229856898
 30
0.0
 10
120.1331068861063
 20
44.60294744695306
 30
0.0
 10
120.1089020332571
 20
44.61031975699387
 30
0.0
 10
120.0805333765929
 20
44.62293774597069
 30
0.0
 10
120.0489942058494
 20
44.64218194817485
 30
0.0
 10
120.029424413277
 20
44.66045269454512
 30
0.0
 10
120.0189832653369
 20
44.67020075728638
 30
0.0
  0
SPLINE
  5
176
330
1F
100
AcDbEntity
  8
0
  6
Continuous
 62
     7
370
    25
100
AcDbSpline
210
0.0
220
0.0
230
1.0
 70
     8
 71
     3
 72
     8
 73
     4
 74
     0
 42
0.000000001
 43
0.00000001
 40
0.0
 40
0.0
 40
0.0
 40
0.0
 40
1.0
 40
1.0
 40
1.0
 40
1.0
 10
120.0189832653369
 20
44.67020075728638
 30
0.0
 10
119.9742817017154
 20
44.71648121776872
 30
0.0
 10
119.9476263673115
 20
44.78153078277695
 30
0.0
 10
119.9460564646147
 20
44.8469834632131
 30
0.0
  0
SPLINE
  5
177
330
1F
100
AcDbEntity
  8
0
  6
Continuous
 62
     7
370
    25
100
AcDbSpline
210
0.0
220
0.0
230
1.0
 70
     8
 71
     3
 72
    16
 73
    12
 74
     0
 42
0.000000001
 43
0.00000001
 40
0.0
 40
0.0
 40
0.0
 40
0.0
 40
0.1250000000000001
 40
0.1250000000000001
 40
0.2500000000000001
 40
0.2500000000000001
 40
0.5
 40
0.5
 40
0.7500000000000001
 40
0.7500000000000001
 40
1.0
 40
1.0
 40
1.0
 40
1.0
 10
117.0181048493558
 20
36.0969834632131
 30
0.0
 10
116.9987220345755
 20
36.27177003004275
 30
0.0
 10
116.9824474120955
 20
36.44831521002487
 30
0.0
 10
116.9609001692145
 20
36.80645255270714
 30
0.0
 10
116.955795613263
 20
36.98985144157865
 30
0.0
 10
116.9612189331196
 20
37.5345638831816
 30
0.0
 10
116.9923886728415
 20
37.88776097091989
 30
0.0
 10
117.0758614378564
 20
38.5833909964076
 30
0.0
 10
117.1267255921607
 20
38.92535900145621
 30
0.0
 10
117.220912424345
 20
39.59721869505408
 30
0.0
 10
117.2649559252592
 20
39.92890011977117
 30
0.0
 10
117.3017984315119
 20
40.25926112338242
 30
0.0
  0
LINE
  5
178
330
1F
100
AcDbEntity
  8
0
  6
Continuous
 62
     7
370
    25
100
AcDbLine
 10
117.0181048494
 20
36.0969834632
 30
0.0
 11
109.8395253213
 21
36.0969834632
 31
0.0
  0
SPLINE
  5
179
330
1F
100
AcDbEntity
  8
0
  6
Continuous
 62
     7
370
    25
100
AcDbSpline
210
0.0
220
0.0
230
1.0
 70
     8
 71
     3
 72
    16
 73
    12
 74
     0
 42
0.000000001
 43
0.00000001
 40
0.0
 40
0.0
 40
0.0
 40
0.0
 40
0.2499999999999998
 40
0.2499999999999998
 40
0.4999999999999999
 40
0.4999999999999999
 40
0.7499999999999999
 40
0.7499999999999999
 40
0.875
 40
0.875
 40
1.0
 40
1.0
 40
1.0
 40
1.0
 10
109.5558317390969
 20
40.25926112338148
 30
0.0
 10
109.5926893139274
 20
39.92876500218473
 30
0.0
 10
109.6367547621271
 20
39.59694239988075
 30
0.0
 10
109.7309889555839
 20
38.92476938391558
 30
0.0
 10
109.7818674103872
 20
38.58271036455569
 30
0.0
 10
109.8653405707156
 20
37.88679328924151
 30
0.0
 10
109.8965538145124
 20
37.53311545021352
 30
0.0
 10
109.901802071895
 20
36.98660797974923
 30
0.0
 10
109.8966377111456
 20
36.80441912756206
 30
0.0
 10
109.8751008907596
 20
36.44745801163481
 30
0.0
 10
109.8588649160183
 20
36.27138028902201
 30
0.0
 10
109.8395253212528
 20
36.0969834632131
 30
0.0
  0
SPLINE
  5
17A
330
1F
100
AcDbEntity
  8
0
  6
Continuous
 62
     7
370
    25
100
AcDbSpline
210
0.0
220
0.0
230
1.0
 70
    11
 71
     3
 72
    62
 73
    58
 74
     0
 42
0.000000001
 43
0.00000001
 40
0.0
 40
0.0
 40
0.0
 40
0.0
 40
0.0000024107129476
 40
0.0000024107129476
 40
0.0000024107129476
 40
0.0000048213208733
 40
0.0000048213208733
 40
0.0000048213208733
 40
0.0000072289117199
 40
0.0000072289117199
 40
0.0000072289117199
 40
0.0000096329532492
 40
0.0000096329532492
 40
0.0000096329532492
 40
0.000012034475829
 40
0.000012034475829
 40
0.000012034475829
 40
0.0000144356196282
 40
0.0000144356196282
 40
0.0000144356196282
 40
0.0000168386867935
 40
0.0000168386867935
 40
0.0000168386867935
 40
0.0000192451289648
 40
0.0000192451289648
 40
0.0000192451289648
 40
0.0000216549192339
 40
0.0000216549192339
 40
0.0000216549192339
 40
0.0000240665711542
 40
0.0000240665711542
 40
0.0000240665711542
 40
0.0000264777852911
 40
0.0000264777852911
 40
0.0000264777852911
 40
0.0000288864474385
 40
0.0000288864474385
 40
0.0000288864474385
 40
0.0000312915559576
 40
0.0000312915559576
 40
0.0000312915559576
 40
0.0000336936707393
 40
0.0000336936707393
 40
0.0000336936707393
 40
0.000036094671282
 40
0.000036094671282
 40
0.000036094671282
 40
0.0000384969245406
 40
0.0000384969245406
 40
0.0000384969245406
 40
0.0000409022405632
 40
0.0000409022405632
 40
0.0000409022405632
 40
0.0000433110844364
 40
0.0000433110844364
 40
0.0000433110844364
 40
0.0000448080154553
 40
0.0000448080154553
 40
0.0000448080154553
 40
0.0000448080154553
 10
113.4275091117288
 20
37.08994166723785
 30
0.0
 10
113.426718935647
 20
37.09008777684434
 30
0.0
 10
113.4259430555543
 20
37.09037224978282
 30
0.0
 10
113.4252457996091
 20
37.09077169950911
 30
0.0
 10
113.4245485883522
 20
37.09117112363406
 30
0.0
 10
113.4239107295475
 20
37.09169653131421
 30
0.0
 10
113.4233852995823
 20
37.09230445104443
 30
0.0
 10
113.4228605231974
 20
37.09291161458563
 30
0.0
 10
113.4224334038835
 20
37.09361787473179
 30
0.0
 10
113.4221395624878
 20
37.09436466474315
 30
0.0
 10
113.4218461476561
 20
37.09511037065346
 30
0.0
 10
113.4216775254189
 20
37.09591708631485
 30
0.0
 10
113.4216477640371
 20
37.09671788845346
 30
0.0
 10
113.4216180330216
 20
37.09751787351411
 30
0.0
 10
113.4217260534915
 20
37.09833402366723
 30
0.0
 10
113.4219628280446
 20
37.099098744322
 30
0.0
 10
113.4221995700403
 20
37.0998633598245
 30
0.0
 10
113.4225715383579
 20
37.10059762811757
 30
0.0
 10
113.4230478417251
 20
37.1012409153275
 30
0.0
 10
113.4235245285636
 20
37.10188472044737
 30
0.0
 10
113.4241188266371
 20
37.10245513005916
 30
0.0
 10
113.4247815259828
 20
37.10290518003129
 30
0.0
 10
113.4254451469727
 20
37.10335585590706
 30
0.0
 10
113.4261956222361
 20
37.1036982537329
 30
0.0
 10
113.4269709131004
 20
37.10390422935987
 30
0.0
 10
113.4277472629356
 20
37.10411048632925
 30
0.0
 10
113.4285698878586
 20
37.10418563289057
 30
0.0
 10
113.4293707620036
 20
37.10412349012206
 30
0.0
 10
113.4301722339895
 20
37.10406130096487
 30
0.0
 10
113.4309740356739
 20
37.10385989212038
 30
0.0
 10
113.4317097178176
 20
37.10353586072097
 30
0.0
 10
113.4324452550764
 20
37.10321189313615
 30
0.0
 10
113.4331350106111
 20
37.10275638709766
 30
0.0
 10
113.4337216436245
 20
37.1022069951353
 30
0.0
 10
113.4343076569404
 20
37.10165818353035
 30
0.0
 10
113.4348069505397
 20
37.10100050452714
 30
0.0
 10
113.4351779067454
 20
37.10028846699577
 30
0.0
 10
113.4355483226037
 20
37.09957746664265
 30
0.0
 10
113.4358010002684
 20
37.09879261927089
 30
0.0
 10
113.4359148564248
 20
37.09799904098732
 30
0.0
 10
113.4360285739619
 20
37.09720642888141
 30
0.0
 10
113.4360069484177
 20
37.09638323474063
 30
0.0
 10
113.4358517823283
 20
37.09559768456425
 30
0.0
 10
113.435696684537
 20
37.09481248015611
 30
0.0
 10
113.4354039019117
 20
37.09404324511964
 30
0.0
 10
113.4349977735169
 20
37.0933535635302
 30
0.0
 10
113.4345914292955
 20
37.09266351542692
 30
0.0
 10
113.4340604463816
 20
37.09203409872743
 30
0.0
 10
113.4334488287834
 20
37.09151717918128
 30
0.0
 10
113.4328364365892
 20
37.09099960497147
 30
0.0
 10
113.4321263576609
 20
37.09058055551596
 30
0.0
 10
113.4313773101896
 20
37.09029448660651
 30
0.0
 10
113.4306271811723
 20
37.09000800464355
 30
0.0
 10
113.4298173105484
 20
37.08984699179609
 30
0.0
 10
113.4290146474785
 20
37.08982468298247
 30
0.0
 10
113.428511483802
 20
37.08981069830435
 30
0.0
 10
113.4280040791256
 20
37.08985014397711
 30
0.0
 10
113.4275091117288
 20
37.08994166723785
 30
0.0
  0
LINE
  5
17B
330
1F
100
AcDbEntity
  8
0
  6
Continuous
 62
     7
370
    25
100
AcDbLine
 10
120.4291701484
 20
44.4051173341
 30
0.0
 11
120.4295557578
 21
44.4682525001
 31
0.0
  0
SPLINE
  5
17C
330
1F
100
AcDbEntity
  8
0
  6
Continuous
 62
     7
370
    25
100
AcDbSpline
210
0.0
220
0.0
230
1.0
 70
     8
 71
     3
 72
    12
 73
     8
 74
     0
 42
0.000000001
 43
0.00000001
 40
0.0
 40
0.0
 40
0.0
 40
0.0
 40
0.25
 40
0.25
 40
0.5
 40
0.5
 40
1.0
 40
1.0
 40
1.0
 40
1.0
 10
120.4277055460223
 20
44.59870322086742
 30
0.0
 10
120.4276969386371
 20
44.58846112241835
 30
0.0
 10
120.4190871283069
 20
44.58092191086502
 30
0.0
 10
120.3976060180367
 20
44.56659239524068
 30
0.0
 10
120.3847347180966
 20
44.55980209116966
 30
0.0
 10
120.3591399582813
 20
44.53356924071639
 30
0.0
 10
120.3554654150826
 20
44.52388652402807
 30
0.0
 10
120.3555917806025
 20
44.52376015850824
 30
0.0
  0
SPLINE
  5
17D
330
1F
100
AcDbEntity
  8
0
  6
Continuous
 62
     7
370
    25
100
AcDbSpline
210
0.0
220
0.0
230
1.0
 70
     8
 71
     3
 72
    14
 73
    10
 74
     0
 42
0.000000001
 43
0.00000001
 40
0.0
 40
0.0
 40
0.0
 40
0.0
 40
0.25
 40
0.25
 40
0.5
 40
0.5
 40
0.75
 40
0.75
 40
1.0
 40
1.0
 40
1.0
 40
1.0
 10
120.4277055460223
 20
44.59870322086742
 30
0.0
 10
120.4277141534075
 20
44.60894531931649
 30
0.0
 10
120.4191230182227
 20
44.62362803377989
 30
0.0
 10
120.3828134187124
 20
44.65545042443775
 30
0.0
 10
120.3550949543869
 20
44.67259010063221
 30
0.0
 10
120.2786028525948
 20
44.70290214445458
 30
0.0
 10
120.234077116489
 20
44.70877194264413
 30
0.0
 10
120.1342079962928
 20
44.70267738856384
 30
0.0
 10
120.0788646122024
 20
44.690713036294
 30
0.0
 10
120.0189832653369
 20
44.67020075728638
 30
0.0
  0
SPLINE
  5
17E
330
1F
100
AcDbEntity
  8
0
  6
Continuous
 62
     7
370
    25
100
AcDbSpline
210
0.0
220
0.0
230
1.0
 70
     8
 71
     3
 72
    12
 73
     8
 74
     0
 42
0.000000001
 43
0.00000001
 40
0.0
 40
0.0
 40
0.0
 40
0.0
 40
0.25
 40
0.25
 40
0.5
 40
0.5
 40
1.0
 40
1.0
 40
1.0
 40
1.0
 10
106.4299246245864
 20
44.59870322086742
 30
0.0
 10
106.4299332319716
 20
44.58846112241835
 30
0.0
 10
106.4385430423017
 20
44.58092191086502
 30
0.0
 10
106.460024152572
 20
44.56659239524067
 30
0.0
 10
106.4728954525121
 20
44.55980209116965
 30
0.0
 10
106.4984902123273
 20
44.53356924071639
 30
0.0
 10
106.502164755526
 20
44.52388652402807
 30
0.0
 10
106.5020383900062
 20
44.52376015850824
 30
0.0
  0
LINE
  5
17F
330
1F
100
AcDbEntity
  8
0
  6
Continuous
 62
     7
370
    25
100
AcDbLine
 10
106.4284600222
 20
44.4051173341
 30
0.0
 11
106.4280744128
 21
44.4682525001
 31
0.0
  0
SPLINE
  5
180
330
1F
100
AcDbEntity
  8
0
  6
Continuous
 62
     7
370
    25
100
AcDbSpline
210
0.0
220
0.0
230
1.0
 70
     8
 71
     3
 72
    12
 73
     8
 74
     0
 42
0.000000001
 43
0.00000001
 40
0.0
 40
0.0
 40
0.0
 40
0.0
 40
0.25
 40
0.25
 40
0.5
 40
0.5
 40
1.0
 40
1.0
 40
1.0
 40
1.0
 10
106.4299246245864
 20
44.59870322086742
 30
0.0
 10
106.4299160172012
 20
44.60894531931649
 30
0.0
 10
106.438507152386
 20
44.62362803377989
 30
0.0
 10
106.4748167518963
 20
44.65545042443775
 30
0.0
 10
106.5025352162217
 20
44.67259010063221
 30
0.0
 10
106.61727336891
 20
44.71805816636576
 30
0.0
 10
106.7188842115409
 20
44.71122531530162
 30
0.0
 10
106.8386469052718
 20
44.67020075728639
 30
0.0
  0
SPLINE
  5
181
330
1F
100
AcDbEntity
  8
0
  6
Continuous
 62
     7
370
    25
100
AcDbSpline
210
0.0
220
0.0
230
1.0
 70
     8
 71
     3
 72
    10
 73
     6
 74
     0
 42
0.000000001
 43
0.00000001
 40
0.0
 40
0.0
 40
0.0
 40
0.0
 40
0.5
 40
0.5
 40
1.0
 40
1.0
 40
1.0
 40
1.0
 10
106.4299246245864
 20
44.59870322086742
 30
0.0
 10
106.4298901950456
 20
44.63967161466368
 30
0.0
 10
106.4295085176114
 20
44.68312706173562
 30
0.0
 10
106.4332005317376
 20
44.77221290695285
 30
0.0
 10
106.4288150853043
 20
44.80460013556817
 30
0.0
 10
106.4288150853043
 20
44.84698346321311
 30
0.0
  0
SPLINE
  5
182
330
1F
100
AcDbEntity
  8
0
  6
Continuous
 62
     7
370
    25
100
AcDbSpline
210
0.0
220
0.0
230
1.0
 70
     8
 71
     3
 72
     9
 73
     5
 74
     0
 42
0.000000001
 43
0.00000001
 40
0.0
 40
0.0
 40
0.0
 40
0.0
 40
0.1238836936197441
 40
1.0
 40
1.0
 40
1.0
 40
1.0
 10
120.4270806192101
 20
44.72765828342717
 30
0.0
 10
120.4269959234823
 20
44.72233352417404
 30
0.0
 10
120.426312252167
 20
44.67935160219913
 30
0.0
 10
120.4270549000777
 20
44.63636472496906
 30
0.0
 10
120.4277055460223
 20
44.59870322086742
 30
0.0
  0
SPLINE
  5
183
330
1F
100
AcDbEntity
  8
0
  6
Continuous
 62
     7
370
    25
100
AcDbSpline
210
0.0
220
0.0
230
1.0
 70
     8
 71
     3
 72
    20
 73
    16
 74
     0
 42
0.000000001
 43
0.00000001
 40
0.0
 40
0.0
 40
0.0
 40
0.0
 40
0.25
 40
0.25
 40
0.375
 40
0.375
 40
0.5
 40
0.5
 40
0.5625
 40
0.5625
 40
0.625
 40
0.625
 40
0.75
 40
0.75
 40
1.0
 40
1.0
 40
1.0
 40
1.0
 10
109.8395253212528
 20
36.0969834632131
 30
0.0
 10
110.3860170760666
 20
35.87680667062952
 30
0.0
 10
110.9472527769687
 20
35.69766792476447
 30
0.0
 10
111.8311665522858
 20
35.55795118356201
 30
0.0
 10
112.1325546709004
 20
35.53425121374066
 30
0.0
 10
112.7599880342948
 20
35.52388687617071
 30
0.0
 10
113.0808345109697
 20
35.53565859295631
 30
0.0
 10
113.5752359531758
 20
35.53616075011152
 30
0.0
 10
113.7408855106021
 20
35.53361804306934
 30
0.0
 10
114.0633510411734
 20
35.5286188507735
 30
0.0
 10
114.2220950126866
 20
35.52655040620732
 30
0.0
 10
114.6944873290737
 20
35.53269888593375
 30
0.0
 10
115.0006190124876
 20
35.55505254711615
 30
0.0
 10
115.895404262332
 20
35.69305596563461
 30
0.0
 10
116.4676899169269
 20
35.87522605636327
 30
0.0
 10
117.0181048493558
 20
36.0969834632131
 30
0.0
  0
LINE
  5
184
330
1F
100
AcDbEntity
  8
0
  6
Continuous
 62
     8
370
    25
100
AcDbLine
 10
113.4288150853
 20
50.0969834632
 30
0.0
 11
122.4288150853
 21
50.0969834632
 31
0.0
  0
LINE
  5
185
330
1F
100
AcDbEntity
  8
0
  6
Continuous
 62
     8
370
    25
100
AcDbLine
 10
104.4288150853
 20
50.0969834632
 30
0.0
 11
113.4288150853
 21
50.0969834632
 31
0.0
  0
LINE
  5
186
330
1F
100
AcDbEntity
  8
0
  6
Continuous
 62
     8
370
    25
100
AcDbLine
 10
113.4288150853
 20
48.0969834632
 30
0.0
 11
106.4288150853
 21
48.0969834632
 31
0.0
  0
LINE
  5
187
330
1F
100
AcDbEntity
  8
0
  6
Continuous
 62
     8
370
    25
100
AcDbLine
 10
120.4288150853
 20
48.0969834632
 30
0.0
 11
113.4288150853
 21
48.0969834632
 31
0.0
  0
LINE
  5
188
330
1F
100
AcDbEntity
  8
0
  6
Continuous
 62
     8
370
    25
100
AcDbLine
 10
119.7286516502
 20
31.3469834632
 30
0.0
 11
120.1788150853
 21
31.3469834632
 31
0.0
  0
LINE
  5
189
330
1F
100
AcDbEntity
  8
0
  6
Continuous
 62
     8
370
    25
100
AcDbLine
 10
120.1788150853
 20
31.3469834632
 30
0.0
 11
120.1788150853
 21
31.8827777956
 31
0.0
  0
LINE
  5
18A
330
1F
100
AcDbEntity
  8
0
  6
Continuous
 62
     8
370
    25
100
AcDbLine
 10
106.6788150853
 20
31.8827777956
 30
0.0
 11
106.6788150853
 21
31.3469834632
 31
0.0
  0
LINE
  5
18B
330
1F
100
AcDbEntity
  8
0
  6
Continuous
 62
     8
370
    25
100
AcDbLine
 10
106.6788150853
 20
42.8469834632
 30
0.0
 11
106.6788150853
 21
42.3111891309
 31
0.0
  0
LINE
  5
18C
330
1F
100
AcDbEntity
  8
0
  6
Continuous
 62
     8
370
    25
100
AcDbLine
 10
107.1289785204
 20
42.8469834632
 30
0.0
 11
106.6788150853
 21
42.8469834632
 31
0.0
  0
LINE
  5
18D
330
1F
100
AcDbEntity
  8
0
  6
Continuous
 62
     8
370
    25
100
AcDbLine
 10
120.1788150853
 20
42.3111891309
 30
0.0
 11
120.1788150853
 21
42.8469834632
 31
0.0
  0
LINE
  5
18E
330
1F
100
AcDbEntity
  8
0
  6
Continuous
 62
     8
370
    25
100
AcDbLine
 10
106.6788150853
 20
31.3469834632
 30
0.0
 11
107.1289785204
 21
31.3469834632
 31
0.0
  0
LINE
  5
18F
330
1F
100
AcDbEntity
  8
0
  6
Continuous
 62
     8
370
    25
100
AcDbLine
 10
120.1788150853
 20
42.8469834632
 30
0.0
 11
119.7286516502
 21
42.8469834632
 31
0.0
  0
LINE
  5
190
330
1F
100
AcDbEntity
  8
0
  6
Continuous
 62
     8
370
    25
100
AcDbLine
 10
106.6788150853
 20
44.0969834632
 30
0.0
 11
108.5553726937
 21
44.0969834632
 31
0.0
  0
LINE
  5
191
330
1F
100
AcDbEntity
  8
0
  6
Continuous
 62
     8
370
    25
100
AcDbLine
 10
118.3022574769
 20
44.0969834632
 30
0.0
 11
120.1788150853
 21
44.0969834632
 31
0.0
  0
SPLINE
  5
192
330
1F
100
AcDbEntity
  8
0
  6
Continuous
 62
     8
370
    25
100
AcDbSpline
210
0.0
220
0.0
230
1.0
 70
     8
 71
     3
 72
     9
 73
     5
 74
     0
 42
0.000000001
 43
0.00000001
 40
0.0
 40
0.0
 40
0.0
 40
0.0
 40
0.3295453991064201
 40
1.0
 40
1.0
 40
1.0
 40
1.0
 10
117.2392191376778
 20
44.70845542042758
 30
0.0
 10
117.2866643896108
 20
44.73842075301845
 30
0.0
 10
117.4306362128001
 20
44.82935005341871
 30
0.0
 10
117.5873525739951
 20
44.83990610791128
 30
0.0
 10
117.6924237793936
 20
44.8469834632131
 30
0.0
  0
SPLINE
  5
193
330
1F
100
AcDbEntity
  8
0
  6
Continuous
 62
     8
370
    25
100
AcDbSpline
210
0.0
220
0.0
230
1.0
 70
     8
 71
     3
 72
    10
 73
     6
 74
     0
 42
0.000000001
 43
0.00000001
 40
0.0
 40
0.0
 40
0.0
 40
0.0
 40
0.3899534513436677
 40
0.7797978191503644
 40
1.0
 40
1.0
 40
1.0
 40
1.0
 10
109.165206391215
 20
44.8469834632131
 30
0.0
 10
109.2248599115825
 20
44.84276247362278
 30
0.0
 10
109.3441502651538
 20
44.83432167519963
 30
0.0
 10
109.4995523757678
 20
44.78949680765237
 30
0.0
 10
109.5862321723028
 20
44.73359918610623
 30
0.0
 10
109.6175200802086
 20
44.7134224009152
 30
0.0
  0
LINE
  5
194
330
1F
100
AcDbEntity
  8
0
  6
Continuous
 62
     8
370
    25
100
AcDbLine
 10
109.0129346521
 20
44.5969834632
 30
0.0
 11
109.3182723436
 21
44.5653279582
 31
0.0
  0
SPLINE
  5
195
330
1F
100
AcDbEntity
  8
0
  6
Continuous
 62
     8
370
    25
100
AcDbSpline
210
0.0
220
0.0
230
1.0
 70
     8
 71
     3
 72
     9
 73
     5
 74
     0
 42
0.000000001
 43
0.00000001
 40
0.0
 40
0.0
 40
0.0
 40
0.0
 40
0.0106786207561338
 40
1.0
 40
1.0
 40
1.0
 40
1.0
 10
117.5207600281241
 20
44.56737682352399
 30
0.0
 10
117.521892462026
 20
44.56768670226685
 30
0.0
 10
117.6279392940758
 20
44.59670531337152
 30
0.0
 10
117.7368991769052
 20
44.59684513484255
 30
0.0
 10
117.8446955184683
 20
44.5969834632131
 30
0.0
  0
LINE
  5
196
330
1F
100
AcDbEntity
  8
0
  6
Continuous
 62
     8
370
    25
100
AcDbLine
 10
120.1788150853
 20
44.3469834632
 30
0.0
 11
117.9219143213
 21
44.3469834632
 31
0.0
  0
LINE
  5
197
330
1F
100
AcDbEntity
  8
0
  6
Continuous
 62
     8
370
    25
100
AcDbLine
 10
108.9357158493
 20
44.3469834632
 30
0.0
 11
106.6788150853
 21
44.3469834632
 31
0.0
  0
SPLINE
  5
198
330
1F
100
AcDbEntity
  8
0
  6
Continuous
 62
     8
370
    25
100
AcDbSpline
210
0.0
220
0.0
230
1.0
 70
     8
 71
     3
 72
     9
 73
     5
 74
     0
 42
0.000000001
 43
0.00000001
 40
0.0
 40
0.0
 40
0.0
 40
0.0
 40
0.1250376543823382
 40
1.0
 40
1.0
 40
1.0
 40
1.0
 10
120.4295557578266
 20
44.46825250009241
 30
0.0
 10
120.4295968527125
 20
44.47369023276624
 30
0.0
 10
120.4299255127961
 20
44.51717899381737
 30
0.0
 10
120.4287415067391
 20
44.56065945476667
 30
0.0
 10
120.4277055460223
 20
44.59870322086742
 30
0.0
  0
SPLINE
  5
199
330
1F
100
AcDbEntity
  8
0
  6
Continuous
 62
     8
370
    25
100
AcDbSpline
210
0.0
220
0.0
230
1.0
 70
     8
 71
     3
 72
     9
 73
     5
 74
     0
 42
0.000000001
 43
0.00000001
 40
0.0
 40
0.0
 40
0.0
 40
0.0
 40
0.1250376544250829
 40
1.0
 40
1.0
 40
1.0
 40
1.0
 10
106.4280744127821
 20
44.46825250008605
 30
0.0
 10
106.4280333178962
 20
44.473690232762
 30
0.0
 10
106.4277046578126
 20
44.51717899381524
 30
0.0
 10
106.4288886638696
 20
44.56065945476668
 30
0.0
 10
106.4299246245864
 20
44.59870322086742
 30
0.0
  0
LINE
  5
19A
330
1F
100
AcDbEntity
  8
0
  6
Continuous
 62
     8
370
    25
100
AcDbLine
 10
120.4288150853
 20
44.8469834632
 30
0.0
 11
120.4270806192
 21
44.7276582834
 31
0.0
  0
INSERT
  5
1A6
330
1F
100
AcDbEntity
  8
0
  6
Continuous
 62
     7
370
    18
100
AcDbBlockReference
  2
SW_CENTERMARKSYMBOL_0
 10
113.4288150853
 20
37.0969834632
 30
0.0
  0
ARC
  5
1A7
330
1F
100
AcDbEntity
  8
0
  6
Continuous
 62
     7
370
    18
100
AcDbCircle
 10
113.4288150853
 20
37.0969834632
 30
0.0
 40
7.475000000000004
100
AcDbArc
 50
75.0
 51
345.0
  0
ARC
  5
1A8
330
1F
100
AcDbEntity
  8
0
  6
Continuous
 62
     7
370
    25
100
AcDbCircle
 10
83.6279292324
 20
93.5174638703
 30
0.0
 40
1.0
100
AcDbArc
 50
148.0359610897
 51
180.0
  0
ARC
  5
1A9
330
1F
100
AcDbEntity
  8
0
  6
Continuous
 62
     7
370
    25
100
AcDbCircle
 10
83.6279292324
 20
77.5174638703
 30
0.0
 40
1.0
100
AcDbArc
 50
180.0
 51
211.9640389103
  0
LINE
  5
1AA
330
1F
100
AcDbEntity
  8
0
  6
Continuous
 62
     7
370
    25
100
AcDbLine
 10
82.7795487051
 20
76.9880769788
 30
0.0
 11
93.5626033873
 21
77.3250474376
 31
0.0
  0
LINE
  5
1AB
330
1F
100
AcDbEntity
  8
0
  6
Continuous
 62
     7
370
    25
100
AcDbLine
 10
93.5626033873
 20
93.7098803029
 30
0.0
 11
82.7795487051
 21
94.0468507617
 31
0.0
  0
LINE
  5
1AC
330
1F
100
AcDbEntity
  8
0
  6
Continuous
 62
     7
370
    25
100
AcDbLine
 10
93.5626033873
 20
77.3250474376
 30
0.0
 11
95.6279292324
 21
78.5174638703
 31
0.0
  0
LINE
  5
1AD
330
1F
100
AcDbEntity
  8
0
  6
Continuous
 62
     7
370
    25
100
AcDbLine
 10
95.6279292324
 20
92.5174638703
 30
0.0
 11
93.5626033873
 21
93.7098803029
 31
0.0
  0
ARC
  5
1AE
330
1F
100
AcDbEntity
  8
0
  6
Continuous
 62
     7
370
    25
100
AcDbCircle
 10
81.6279292324
 20
93.5174638703
 30
0.0
 40
1.0
100
AcDbArc
 50
270.0
 51
0.0
  0
ARC
  5
1AF
330
1F
100
AcDbEntity
  8
0
  6
Continuous
 62
     7
370
    25
100
AcDbCircle
 10
81.6279292324
 20
77.5174638703
 30
0.0
 40
1.0
100
AcDbArc
 50
0.0
 51
90.0
  0
LINE
  5
1B0
330
1F
100
AcDbEntity
  8
0
  6
Continuous
 62
     7
370
    25
100
AcDbLine
 10
78.3779292324
 20
78.5174638703
 30
0.0
 11
81.6279292324
 21
78.5174638703
 31
0.0
  0
LINE
  5
1B1
330
1F
100
AcDbEntity
  8
0
  6
Continuous
 62
     7
370
    25
100
AcDbLine
 10
81.6279292324
 20
92.5174638703
 30
0.0
 11
79.8779292324
 21
92.5174638703
 31
0.0
  0
ARC
  5
1B2
330
1F
100
AcDbEntity
  8
0
  6
Continuous
 62
     7
370
    25
100
AcDbCircle
 10
79.4196716629
 20
92.3174638703
 30
0.0
 40
0.5000000000000033
100
AcDbArc
 50
23.5781784782
 51
90.0
  0
ARC
  5
1B3
330
1F
100
AcDbEntity
  8
0
  6
Continuous
 62
     7
370
    25
100
AcDbCircle
 10
78.8361868019
 20
92.3174638703
 30
0.0
 40
0.5
100
AcDbArc
 50
90.0
 51
156.4218215218
  0
CIRCLE
  5
1B4
330
1F
100
AcDbEntity
  8
0
  6
Continuous
 62
     7
370
    25
100
AcDbCircle
 10
70.6279292324
 20
85.5174638703
 30
0.0
 40
6.75
  0
CIRCLE
  5
1B5
330
1F
100
AcDbEntity
  8
0
  6
Continuous
 62
     7
370
    25
100
AcDbCircle
 10
70.6279292324
 20
85.5174638703
 30
0.0
 40
8.5
  0
CIRCLE
  5
1B6
330
1F
100
AcDbEntity
  8
0
  6
Continuous
 62
     7
370
    25
100
AcDbCircle
 10
70.6279292324
 20
85.5174638703
 30
0.0
 40
9.0
  0
CIRCLE
  5
1B7
330
1F
100
AcDbEntity
  8
0
  6
Continuous
 62
     7
370
    25
100
AcDbCircle
 10
70.6279292324
 20
85.5174638703
 30
0.0
 40
6.172649730810363
  0
CIRCLE
  5
1B8
330
1F
100
AcDbEntity
  8
0
  6
Continuous
 62
     7
370
    25
100
AcDbCircle
 10
70.6279292324
 20
85.5174638703
 30
0.0
 40
6.107174878934686
  0
CIRCLE
  5
1B9
330
1F
100
AcDbEntity
  8
0
  6
Continuous
 62
     7
370
    25
100
AcDbCircle
 10
70.6279292324
 20
85.5174638703
 30
0.0
 40
5.81061697881421
  0
CIRCLE
  5
1BA
330
1F
100
AcDbEntity
  8
0
  6
Continuous
 62
     7
370
    25
100
AcDbCircle
 10
70.6279292324
 20
85.5174638703
 30
0.0
 40
5.722499999999997
  0
CIRCLE
  5
1BB
330
1F
100
AcDbEntity
  8
0
  6
Continuous
 62
     7
370
    25
100
AcDbCircle
 10
70.6279292324
 20
85.5174638703
 30
0.0
 40
4.0
  0
LINE
  5
1BC
330
1F
100
AcDbEntity
  8
0
  6
Continuous
 62
     7
370
    25
100
AcDbLine
 10
82.7795487051
 20
76.9880769788
 30
0.0
 11
82.7795487051
 21
94.0468507617
 31
0.0
  0
LINE
  5
1BD
330
1F
100
AcDbEntity
  8
0
  6
Continuous
 62
     7
370
    25
100
AcDbLine
 10
82.6279292324
 20
77.5174638716
 30
0.0
 11
82.6279292324
 21
93.5174638703
 31
0.0
  0
LINE
  5
1BE
330
1F
100
AcDbEntity
  8
0
  6
Continuous
 62
     7
370
    25
100
AcDbLine
 10
93.5626033873
 20
77.3250474376
 30
0.0
 11
93.5626033873
 21
93.7098803029
 31
0.0
  0
LINE
  5
1BF
330
1F
100
AcDbEntity
  8
0
  6
Continuous
 62
     7
370
    25
100
AcDbLine
 10
95.6279292324
 20
92.5174638703
 30
0.0
 11
95.6279292324
 21
78.5174638703
 31
0.0
  0
LINE
  5
1C0
330
1F
100
AcDbEntity
  8
0
  6
Continuous
 62
     7
370
    25
100
AcDbLine
 10
64.8779292324
 20
92.5174638703
 30
0.0
 11
64.9710749829
 21
92.5174638703
 31
0.0
  0
LINE
  5
1C1
330
1F
100
AcDbEntity
  8
0
  6
Continuous
 62
     7
370
    25
100
AcDbLine
 10
76.2847834819
 20
92.5174638703
 30
0.0
 11
76.3779292324
 21
92.5174638703
 31
0.0
  0
LINE
  5
1C2
330
1F
100
AcDbEntity
  8
0
  6
Continuous
 62
     7
370
    25
100
AcDbLine
 10
64.9710749829
 20
78.5174638703
 30
0.0
 11
64.8779292324
 21
78.5174638703
 31
0.0
  0
LINE
  5
1C3
330
1F
100
AcDbEntity
  8
0
  6
Continuous
 62
     7
370
    25
100
AcDbLine
 10
76.3779292324
 20
78.5174638703
 30
0.0
 11
76.2847834819
 21
78.5174638703
 31
0.0
  0
ARC
  5
1C4
330
1F
100
AcDbEntity
  8
0
  6
Continuous
 62
     7
370
    25
100
AcDbCircle
 10
76.3779292324
 20
92.2674638703
 30
0.0
 40
0.25
100
AcDbArc
 50
0.0
 51
90.0
  0
ARC
  5
1C5
330
1F
100
AcDbEntity
  8
0
  6
Continuous
 62
     7
370
    25
100
AcDbCircle
 10
64.8779292324
 20
92.2674638703
 30
0.0
 40
0.25
100
AcDbArc
 50
90.0
 51
180.0
  0
LINE
  5
1C6
330
1F
100
AcDbEntity
  8
0
  6
Continuous
 62
     7
370
    25
100
AcDbLine
 10
76.6279292324
 20
92.2674638703
 30
0.0
 11
76.6279292324
 21
92.2256678028
 31
0.0
  0
LINE
  5
1C7
330
1F
100
AcDbEntity
  8
0
  6
Continuous
 62
     7
370
    25
100
AcDbLine
 10
64.6279292324
 20
92.2256678028
 30
0.0
 11
64.6279292324
 21
92.2674638703
 31
0.0
  0
LINE
  5
1C8
330
1F
100
AcDbEntity
  8
0
  6
Continuous
 62
     7
370
    25
100
AcDbLine
 10
64.6279292324
 20
78.7674638703
 30
0.0
 11
64.6279292324
 21
78.8092599378
 31
0.0
  0
LINE
  5
1C9
330
1F
100
AcDbEntity
  8
0
  6
Continuous
 62
     7
370
    25
100
AcDbLine
 10
76.6279292324
 20
78.8092599378
 30
0.0
 11
76.6279292324
 21
78.7674638703
 31
0.0
  0
ARC
  5
1CA
330
1F
100
AcDbEntity
  8
0
  6
Continuous
 62
     7
370
    25
100
AcDbCircle
 10
64.8779292324
 20
78.7674638703
 30
0.0
 40
0.25
100
AcDbArc
 50
180.0
 51
270.0
  0
ARC
  5
1CB
330
1F
100
AcDbEntity
  8
0
  6
Continuous
 62
     7
370
    25
100
AcDbCircle
 10
76.3779292324
 20
78.7674638703
 30
0.0
 40
0.25
100
AcDbArc
 50
270.0
 51
0.0
  0
LINE
  5
1CC
330
1F
100
AcDbEntity
  8
0
  6
Continuous
 62
     7
370
    25
100
AcDbLine
 10
77.6279292324
 20
92.2674638703
 30
0.0
 11
76.6279292324
 21
92.2674638703
 31
0.0
  0
LINE
  5
1CD
330
1F
100
AcDbEntity
  8
0
  6
Continuous
 62
     7
370
    25
100
AcDbLine
 10
77.6279292324
 20
92.5174638703
 30
0.0
 11
77.6279292324
 21
92.2674638703
 31
0.0
  0
LINE
  5
1CE
330
1F
100
AcDbEntity
  8
0
  6
Continuous
 62
     7
370
    25
100
AcDbLine
 10
76.3779292324
 20
92.5174638703
 30
0.0
 11
77.6279292324
 21
92.5174638703
 31
0.0
  0
SPLINE
  5
1CF
330
1F
100
AcDbEntity
  8
0
  6
Continuous
 62
     7
370
    25
100
AcDbSpline
210
0.0
220
0.0
230
1.0
 70
    24
 71
     3
 72
    14
 73
    10
 74
     0
 42
0.000000001
 43
0.00000001
 40
0.0
 40
0.0
 40
0.0
 40
0.0
 40
0.25
 40
0.25
 40
0.5
 40
0.5
 40
0.75
 40
0.75
 40
1.0
 40
1.0
 40
1.0
 40
1.0
 10
78.37792923240828
 20
78.51746387025189
 30
0.0
 10
78.37792923240828
 20
78.51746387025189
 30
0.0
 10
78.37792923240828
 20
78.52738856017727
 30
0.0
 10
78.37792923240828
 20
78.56718326283999
 30
0.0
 10
78.37792923240828
 20
78.59705360806163
 30
0.0
 10
78.37792923240826
 20
78.6770231479936
 30
0.0
 10
78.37792923240826
 20
78.72712302842946
 30
0.0
 10
78.37792923240826
 20
78.84800757741732
 30
0.0
 10
78.37792923240826
 20
78.91879332600594
 30
0.0
 10
78.37792923240826
 20
79.00022249094155
 30
0.0
  0
SPLINE
  5
1D0
330
1F
100
AcDbEntity
  8
0
  6
Continuous
 62
     7
370
    25
100
AcDbSpline
210
0.0
220
0.0
230
1.0
 70
    24
 71
     3
 72
    14
 73
    10
 74
     0
 42
0.000000001
 43
0.00000001
 40
0.0
 40
0.0
 40
0.0
 40
0.0
 40
0.25
 40
0.25
 40
0.5
 40
0.5
 40
0.75
 40
0.75
 40
1.0
 40
1.0
 40
1.0
 40
1.0
 10
78.37792923240828
 20
92.51746387025189
 30
0.0
 10
78.37792923240828
 20
92.51746387025189
 30
0.0
 10
78.37792923240828
 20
92.5075391803265
 30
0.0
 10
78.37792923240826
 20
92.46774447766379
 30
0.0
 10
78.37792923240826
 20
92.43787413244215
 30
0.0
 10
78.37792923240826
 20
92.35790459251018
 30
0.0
 10
78.37792923240826
 20
92.30780471207432
 30
0.0
 10
78.37792923240826
 20
92.18692016308646
 30
0.0
 10
78.37792923240826
 20
92.11613441449784
 30
0.0
 10
78.37792923240826
 20
92.03470524956222
 30
0.0
  0
LINE
  5
1D1
330
1F
100
AcDbEntity
  8
0
  6
Continuous
 62
     7
370
    25
100
AcDbLine
 10
76.6279292324
 20
78.7674638703
 30
0.0
 11
77.6279292324
 21
78.7674638703
 31
0.0
  0
LINE
  5
1D2
330
1F
100
AcDbEntity
  8
0
  6
Continuous
 62
     7
370
    25
100
AcDbLine
 10
77.6279292324
 20
78.7674638703
 30
0.0
 11
77.6279292324
 21
78.5174638703
 31
0.0
  0
LINE
  5
1D3
330
1F
100
AcDbEntity
  8
0
  6
Continuous
 62
     7
370
    25
100
AcDbLine
 10
77.6279292324
 20
78.5174638703
 30
0.0
 11
76.3779292324
 21
78.5174638703
 31
0.0
  0
LINE
  5
1D4
330
1F
100
AcDbEntity
  8
0
  6
Continuous
 62
     7
370
    25
100
AcDbLine
 10
77.8779292324
 20
92.5174638703
 30
0.0
 11
77.8779292324
 21
92.2674638703
 31
0.0
  0
LINE
  5
1D5
330
1F
100
AcDbEntity
  8
0
  6
Continuous
 62
     7
370
    25
100
AcDbLine
 10
77.8779292324
 20
92.2674638703
 30
0.0
 11
77.6279292324
 21
92.2674638703
 31
0.0
  0
LINE
  5
1D6
330
1F
100
AcDbEntity
  8
0
  6
Continuous
 62
     7
370
    25
100
AcDbLine
 10
77.6279292324
 20
92.5174638703
 30
0.0
 11
77.8779292324
 21
92.5174638703
 31
0.0
  0
LINE
  5
1D7
330
1F
100
AcDbEntity
  8
0
  6
Continuous
 62
     7
370
    25
100
AcDbLine
 10
78.1279292324
 20
92.2674638703
 30
0.0
 11
77.8779292324
 21
92.2674638703
 31
0.0
  0
ARC
  5
1D8
330
1F
100
AcDbEntity
  8
0
  6
Continuous
 62
     7
370
    25
100
AcDbCircle
 10
77.8779292324
 20
92.2674638703
 30
0.0
 40
0.25
100
AcDbArc
 50
0.0
 51
90.0
  0
LINE
  5
1D9
330
1F
100
AcDbEntity
  8
0
  6
Continuous
 62
     7
370
    25
100
AcDbLine
 10
78.1279292324
 20
92.2674638703
 30
0.0
 11
78.1279292324
 21
90.4924010558
 31
0.0
  0
LINE
  5
1DA
330
1F
100
AcDbEntity
  8
0
  6
Continuous
 62
     7
370
    25
100
AcDbLine
 10
77.6279292324
 20
78.7674638703
 30
0.0
 11
77.8779292324
 21
78.7674638703
 31
0.0
  0
LINE
  5
1DB
330
1F
100
AcDbEntity
  8
0
  6
Continuous
 62
     7
370
    25
100
AcDbLine
 10
78.1279292324
 20
80.5425266847
 30
0.0
 11
78.1279292324
 21
78.7674638703
 31
0.0
  0
LINE
  5
1DC
330
1F
100
AcDbEntity
  8
0
  6
Continuous
 62
     7
370
    25
100
AcDbLine
 10
77.8779292324
 20
78.7674638703
 30
0.0
 11
78.1279292324
 21
78.7674638703
 31
0.0
  0
LINE
  5
1DD
330
1F
100
AcDbEntity
  8
0
  6
Continuous
 62
     7
370
    25
100
AcDbLine
 10
77.8779292324
 20
78.7674638703
 30
0.0
 11
77.8779292324
 21
78.5174638703
 31
0.0
  0
LINE
  5
1DE
330
1F
100
AcDbEntity
  8
0
  6
Continuous
 62
     7
370
    25
100
AcDbLine
 10
77.8779292324
 20
78.5174638703
 30
0.0
 11
77.6279292324
 21
78.5174638703
 31
0.0
  0
ARC
  5
1DF
330
1F
100
AcDbEntity
  8
0
  6
Continuous
 62
     7
370
    25
100
AcDbCircle
 10
77.8779292324
 20
78.7674638703
 30
0.0
 40
0.25
100
AcDbArc
 50
270.0
 51
0.0
  0
SPLINE
  5
1E0
330
1F
100
AcDbEntity
  8
0
  6
Continuous
 62
     7
370
    25
100
AcDbSpline
210
0.0
220
0.0
230
1.0
 70
     8
 71
     3
 72
     8
 73
     4
 74
     0
 42
0.000000001
 43
0.00000001
 40
0.0
 40
0.0
 40
0.0
 40
0.0
 40
1.0
 40
1.0
 40
1.0
 40
1.0
 10
78.37792923240826
 20
92.03470524956222
 30
0.0
 10
78.3124765519721
 20
92.03627515225904
 30
0.0
 10
78.24742698696387
 20
92.06293048666298
 30
0.0
 10
78.20114652648154
 20
92.10763205028444
 30
0.0
  0
SPLINE
  5
1E1
330
1F
100
AcDbEntity
  8
0
  6
Continuous
 62
     7
370
    25
100
AcDbSpline
210
0.0
220
0.0
230
1.0
 70
     8
 71
     3
 72
    14
 73
    10
 74
     0
 42
0.000000001
 43
0.00000001
 40
0.0
 40
0.0
 40
0.0
 40
0.0
 40
0.245589323567575
 40
0.455618196314265
 40
0.6303106213393797
 40
0.77011643036692
 40
0.8759901151610914
 40
0.9502659312389357
 40
1.0
 40
1.0
 40
1.0
 40
1.0
 10
78.20114652648154
 20
92.10763205028444
 30
0.0
 10
78.19018148716624
 20
92.11952299082363
 30
0.0
 10
78.16983910679409
 20
92.1415831064762
 30
0.0
 10
78.14968709431761
 20
92.17714680479637
 30
0.0
 10
78.13756753484677
 20
92.20793911339959
 30
0.0
 10
78.13136171161436
 20
92.23317869597243
 30
0.0
 10
78.12874201264053
 20
92.25116098890726
 30
0.0
 10
78.12796181829549
 20
92.26408315232318
 30
0.0
 10
78.1279385600926
 20
92.26649614242918
 30
0.0
 10
78.12792923240826
 20
92.26746387025189
 30
0.0
  0
SPLINE
  5
1E2
330
1F
100
AcDbEntity
  8
0
  6
Continuous
 62
     7
370
    25
100
AcDbSpline
210
0.0
220
0.0
230
1.0
 70
     8
 71
     3
 72
    15
 73
    11
 74
     0
 42
0.000000001
 43
0.00000001
 40
0.0
 40
0.0
 40
0.0
 40
0.0
 40
0.0425877399909041
 40
0.1028282325346875
 40
0.1864706729280299
 40
0.2956205441869006
 40
0.4311891005861807
 40
0.5936297641565581
 40
0.7831876993469636
 40
1.0
 40
1.0
 40
1.0
 40
1.0
 10
78.12792923240826
 20
78.76746387025189
 30
0.0
 10
78.12793502551041
 20
78.76817937184872
 30
0.0
 10
78.1279490129738
 20
78.76990695271101
 30
0.0
 10
78.12844071380553
 20
78.77978113180589
 30
0.0
 10
78.13006806776413
 20
78.79367481162822
 30
0.0
 10
78.13389321614821
 20
78.81317206944988
 30
0.0
 10
78.14126552618903
 20
78.83737692229916
 30
0.0
 10
78.15388351516583
 20
78.8657455789633
 30
0.0
 10
78.17312771737002
 20
78.89728474970687
 30
0.0
 10
78.19139846374027
 20
78.91685454227918
 30
0.0
 10
78.20114652648154
 20
78.92729569021934
 30
0.0
  0
SPLINE
  5
1E3
330
1F
100
AcDbEntity
  8
0
  6
Continuous
 62
     7
370
    25
100
AcDbSpline
210
0.0
220
0.0
230
1.0
 70
     8
 71
     3
 72
     8
 73
     4
 74
     0
 42
0.000000001
 43
0.00000001
 40
0.0
 40
0.0
 40
0.0
 40
0.0
 40
1.0
 40
1.0
 40
1.0
 40
1.0
 10
78.20114652648154
 20
78.92729569021934
 30
0.0
 10
78.24742698696387
 20
78.97199725384081
 30
0.0
 10
78.3124765519721
 20
78.99865258824474
 30
0.0
 10
78.37792923240826
 20
79.00022249094155
 30
0.0
  0
LINE
  5
1E4
330
1F
100
AcDbEntity
  8
0
  6
Continuous
 62
     7
370
    25
100
AcDbLine
 10
69.6279292324
 20
81.644480524
 30
0.0
 11
69.6279292324
 21
89.3904472165
 31
0.0
  0
SPLINE
  5
1E5
330
1F
100
AcDbEntity
  8
0
  6
Continuous
 62
     7
370
    25
100
AcDbSpline
210
0.0
220
0.0
230
1.0
 70
     8
 71
     3
 72
    20
 73
    16
 74
     0
 42
0.000000001
 43
0.00000001
 40
0.0
 40
0.0
 40
0.0
 40
0.0
 40
0.25
 40
0.25
 40
0.375
 40
0.375
 40
0.5
 40
0.5
 40
0.5625
 40
0.5625
 40
0.625
 40
0.625
 40
0.75
 40
0.75
 40
1.0
 40
1.0
 40
1.0
 40
1.0
 10
68.86242675728252
 20
81.92817410620039
 30
0.0
 10
68.58161469661988
 20
82.47466586101412
 30
0.0
 10
68.31506115347416
 20
83.03590156191625
 30
0.0
 10
67.95003565887181
 20
83.91981533723339
 30
0.0
 10
67.8328773981845
 20
84.22120345584797
 30
0.0
 10
67.63796440533076
 20
84.84863681924232
 30
0.0
 10
67.56416144116191
 20
85.16948329591726
 30
0.0
 10
67.5603622206715
 20
85.66388473812333
 30
0.0
 10
67.57706572828303
 20
85.8295342955496
 30
0.0
 10
67.63600164102625
 20
86.15199982612097
 30
0.0
 10
67.67764147689239
 20
86.31074379763417
 30
0.0
 10
67.82162160571164
 20
86.78313611402126
 30
0.0
 10
67.93987163396001
 20
87.0892677974352
 30
0.0
 10
68.30791470367512
 20
87.98405304727959
 30
0.0
 10
68.57959879138295
 20
88.55633870187448
 30
0.0
 10
68.86242675728252
 20
89.10675363430339
 30
0.0
  0
SPLINE
  5
1E6
330
1F
100
AcDbEntity
  8
0
  6
Continuous
 62
     7
370
    25
100
AcDbSpline
210
0.0
220
0.0
230
1.0
 70
     8
 71
     3
 72
    12
 73
     8
 74
     0
 42
0.000000001
 43
0.00000001
 40
0.0
 40
0.0
 40
0.0
 40
0.0
 40
0.25
 40
0.25
 40
0.5
 40
0.5
 40
1.0
 40
1.0
 40
1.0
 40
1.0
 10
78.12964899006256
 20
92.51635433096983
 30
0.0
 10
78.11940689161351
 20
92.51634572358464
 30
0.0
 10
78.11186768006017
 20
92.50773591325446
 30
0.0
 10
78.09753816443582
 20
92.4862548029842
 30
0.0
 10
78.09074786036481
 20
92.47338350304412
 30
0.0
 10
78.06451500991155
 20
92.44778874322888
 30
0.0
 10
78.05483229322323
 20
92.4441142000302
 30
0.0
 10
78.0547059277034
 20
92.44424056555003
 30
0.0
  0
SPLINE
  5
1E7
330
1F
100
AcDbEntity
  8
0
  6
Continuous
 62
     7
370
    25
100
AcDbSpline
210
0.0
220
0.0
230
1.0
 70
     8
 71
     3
 72
    10
 73
     6
 74
     0
 42
0.000000001
 43
0.00000001
 40
0.0
 40
0.0
 40
0.0
 40
0.0
 40
0.5
 40
0.5
 40
1.0
 40
1.0
 40
1.0
 40
1.0
 10
78.12964899006256
 20
92.51635433096983
 30
0.0
 10
78.08868059626631
 20
92.51631990142904
 30
0.0
 10
78.0447160865218
 20
92.516628111766
 30
0.0
 10
77.95366944677798
 20
92.52158284514641
 30
0.0
 10
77.92072100619713
 20
92.51746387025189
 30
0.0
 10
77.87792923240826
 20
92.51746387025189
 30
0.0
  0
SPLINE
  5
1E8
330
1F
100
AcDbEntity
  8
0
  6
Continuous
 62
     7
370
    25
100
AcDbSpline
210
0.0
220
0.0
230
1.0
 70
     8
 71
     3
 72
    12
 73
     8
 74
     0
 42
0.000000001
 43
0.00000001
 40
0.0
 40
0.0
 40
0.0
 40
0.0
 40
0.25
 40
0.25
 40
0.5
 40
0.5
 40
1.0
 40
1.0
 40
1.0
 40
1.0
 10
78.12964899006256
 20
92.51635433096983
 30
0.0
 10
78.13989108851165
 20
92.51636293835504
 30
0.0
 10
78.15457380297504
 20
92.50777180317021
 30
0.0
 10
78.1863961936329
 20
92.47146220365993
 30
0.0
 10
78.20353586982736
 20
92.44374373933447
 30
0.0
 10
78.24900393556092
 20
92.32900558664626
 30
0.0
 10
78.24217108449677
 20
92.22739474401537
 30
0.0
 10
78.20114652648154
 20
92.10763205028444
 30
0.0
  0
SPLINE
  5
1E9
330
1F
100
AcDbEntity
  8
0
  6
Continuous
 62
     7
370
    25
100
AcDbSpline
210
0.0
220
0.0
230
1.0
 70
     8
 71
     3
 72
    14
 73
    10
 74
     0
 42
0.000000001
 43
0.00000001
 40
0.0
 40
0.0
 40
0.0
 40
0.0
 40
0.25
 40
0.25
 40
0.5
 40
0.5
 40
0.75
 40
0.75
 40
1.0
 40
1.0
 40
1.0
 40
1.0
 10
78.12964899006256
 20
78.51857340953394
 30
0.0
 10
78.13989108851165
 20
78.51856480214873
 30
0.0
 10
78.15457380297505
 20
78.52715593733356
 30
0.0
 10
78.1863961936329
 20
78.56346553684384
 30
0.0
 10
78.20353586982736
 20
78.5911840011693
 30
0.0
 10
78.23384791364974
 20
78.66767610296144
 30
0.0
 10
78.23971771183928
 20
78.7122018390672
 30
0.0
 10
78.233623157759
 20
78.81207095926342
 30
0.0
 10
78.22165880548916
 20
78.86741434335387
 30
0.0
 10
78.20114652648154
 20
78.92729569021934
 30
0.0
  0
SPLINE
  5
1EA
330
1F
100
AcDbEntity
  8
0
  6
Continuous
 62
     7
370
    25
100
AcDbSpline
210
0.0
220
0.0
230
1.0
 70
     8
 71
     3
 72
    12
 73
     8
 74
     0
 42
0.000000001
 43
0.00000001
 40
0.0
 40
0.0
 40
0.0
 40
0.0
 40
0.25
 40
0.25
 40
0.5
 40
0.5
 40
1.0
 40
1.0
 40
1.0
 40
1.0
 10
78.12964899006256
 20
78.51857340953394
 30
0.0
 10
78.11940689161351
 20
78.51858201691914
 30
0.0
 10
78.11186768006017
 20
78.5271918272493
 30
0.0
 10
78.09753816443582
 20
78.54867293751954
 30
0.0
 10
78.09074786036481
 20
78.56154423745964
 30
0.0
 10
78.06451500991155
 20
78.58713899727489
 30
0.0
 10
78.05483229322323
 20
78.59081354047358
 30
0.0
 10
78.0547059277034
 20
78.59068717495374
 30
0.0
  0
SPLINE
  5
1EB
330
1F
100
AcDbEntity
  8
0
  6
Continuous
 62
     7
370
    25
100
AcDbSpline
210
0.0
220
0.0
230
1.0
 70
     8
 71
     3
 72
    10
 73
     6
 74
     0
 42
0.000000001
 43
0.00000001
 40
0.0
 40
0.0
 40
0.0
 40
0.0
 40
0.5
 40
0.5
 40
1.0
 40
1.0
 40
1.0
 40
1.0
 10
78.12964899006256
 20
78.51857340953394
 30
0.0
 10
78.08868059626631
 20
78.51860783907473
 30
0.0
 10
78.0447160865218
 20
78.51829962873776
 30
0.0
 10
77.95366944677798
 20
78.51334489535736
 30
0.0
 10
77.92072100619713
 20
78.51746387025187
 30
0.0
 10
77.87792923240826
 20
78.51746387025187
 30
0.0
  0
SPLINE
  5
1EC
330
1F
100
AcDbEntity
  8
0
  6
Continuous
 62
     7
370
    25
100
AcDbSpline
210
0.0
220
0.0
230
1.0
 70
     8
 71
     3
 72
    10
 73
     6
 74
     0
 42
0.000000001
 43
0.00000001
 40
0.0
 40
0.0
 40
0.0
 40
0.0
 40
0.5
 40
0.5
 40
1.0
 40
1.0
 40
1.0
 40
1.0
 10
78.12964899006256
 20
92.51635433096983
 30
0.0
 10
78.17061738385884
 20
92.51638876051064
 30
0.0
 10
78.21407283093076
 20
92.5167704379448
 30
0.0
 10
78.30315867614802
 20
92.51307842381861
 30
0.0
 10
78.33554590476332
 20
92.51746387025189
 30
0.0
 10
78.37792923240828
 20
92.51746387025189
 30
0.0
  0
SPLINE
  5
1ED
330
1F
100
AcDbEntity
  8
0
  6
Continuous
 62
     7
370
    25
100
AcDbSpline
210
0.0
220
0.0
230
1.0
 70
     8
 71
     3
 72
    10
 73
     6
 74
     0
 42
0.000000001
 43
0.00000001
 40
0.0
 40
0.0
 40
0.0
 40
0.0
 40
0.5
 40
0.5
 40
1.0
 40
1.0
 40
1.0
 40
1.0
 10
78.12964899006256
 20
78.51857340953394
 30
0.0
 10
78.17061738385884
 20
78.51853897999314
 30
0.0
 10
78.21407283093076
 20
78.51815730255898
 30
0.0
 10
78.30315867614802
 20
78.52184931668515
 30
0.0
 10
78.33554590476332
 20
78.51746387025189
 30
0.0
 10
78.37792923240828
 20
78.51746387025189
 30
0.0
  0
LINE
  5
1EE
330
1F
100
AcDbEntity
  8
0
  6
Continuous
 62
     7
370
    25
100
AcDbLine
 10
78.8361868019
 20
92.8174638703
 30
0.0
 11
79.4196716629
 21
92.8174638703
 31
0.0
  0
LINE
  5
1EF
330
1F
100
AcDbEntity
  8
0
  6
Continuous
 62
     7
370
    25
100
AcDbLine
 10
78.3779292324
 20
92.5174638703
 30
0.0
 11
79.8779292324
 21
92.5174638703
 31
0.0
  0
LINE
  5
1F0
330
1F
100
AcDbEntity
  8
0
  6
Continuous
 62
     8
370
    25
100
AcDbLine
 10
81.6279292324
 20
78.5174638703
 30
0.0
 11
81.6279292324
 21
92.5174638703
 31
0.0
  0
LINE
  5
1F1
330
1F
100
AcDbEntity
  8
0
  6
Continuous
 62
     8
370
    25
100
AcDbLine
 10
64.8779292324
 20
92.5174638703
 30
0.0
 11
64.8779292324
 21
92.4411550823
 31
0.0
  0
LINE
  5
1F2
330
1F
100
AcDbEntity
  8
0
  6
Continuous
 62
     8
370
    25
100
AcDbLine
 10
76.3779292324
 20
92.5174638703
 30
0.0
 11
76.3779292324
 21
92.4411550823
 31
0.0
  0
LINE
  5
1F3
330
1F
100
AcDbEntity
  8
0
  6
Continuous
 62
     8
370
    25
100
AcDbLine
 10
64.8779292324
 20
78.5937726582
 30
0.0
 11
64.8779292324
 21
78.5174638703
 31
0.0
  0
LINE
  5
1F4
330
1F
100
AcDbEntity
  8
0
  6
Continuous
 62
     8
370
    25
100
AcDbLine
 10
76.3779292324
 20
78.5937726582
 30
0.0
 11
76.3779292324
 21
78.5174638703
 31
0.0
  0
LINE
  5
1F5
330
1F
100
AcDbEntity
  8
0
  6
Continuous
 62
     8
370
    25
100
AcDbLine
 10
76.6279292324
 20
92.2674638703
 30
0.0
 11
76.5808696823
 21
92.2674638703
 31
0.0
  0
LINE
  5
1F6
330
1F
100
AcDbEntity
  8
0
  6
Continuous
 62
     8
370
    25
100
AcDbLine
 10
64.6279292324
 20
92.2674638703
 30
0.0
 11
64.6749887825
 21
92.2674638703
 31
0.0
  0
LINE
  5
1F7
330
1F
100
AcDbEntity
  8
0
  6
Continuous
 62
     8
370
    25
100
AcDbLine
 10
64.6749887825
 20
78.7674638703
 30
0.0
 11
64.6279292324
 21
78.7674638703
 31
0.0
  0
LINE
  5
1F8
330
1F
100
AcDbEntity
  8
0
  6
Continuous
 62
     8
370
    25
100
AcDbLine
 10
76.5808696823
 20
78.7674638703
 30
0.0
 11
76.6279292324
 21
78.7674638703
 31
0.0
  0
LINE
  5
1F9
330
1F
100
AcDbEntity
  8
0
  6
Continuous
 62
     8
370
    25
100
AcDbLine
 10
77.6279292324
 20
91.1743181197
 30
0.0
 11
77.6279292324
 21
92.2674638703
 31
0.0
  0
LINE
  5
1FA
330
1F
100
AcDbEntity
  8
0
  6
Continuous
 62
     8
370
    25
100
AcDbLine
 10
78.3779292324
 20
80.9417125658
 30
0.0
 11
78.3779292324
 21
79.0002224909
 31
0.0
  0
LINE
  5
1FB
330
1F
100
AcDbEntity
  8
0
  6
Continuous
 62
     8
370
    25
100
AcDbLine
 10
78.3779292324
 20
92.0347052496
 30
0.0
 11
78.3779292324
 21
90.0932151747
 31
0.0
  0
LINE
  5
1FC
330
1F
100
AcDbEntity
  8
0
  6
Continuous
 62
     8
370
    25
100
AcDbLine
 10
77.6279292324
 20
78.7674638703
 30
0.0
 11
77.6279292324
 21
79.8606096208
 31
0.0
  0
LINE
  5
1FD
330
1F
100
AcDbEntity
  8
0
  6
Continuous
 62
     8
370
    25
100
AcDbLine
 10
77.8779292324
 20
90.8501461222
 30
0.0
 11
77.8779292324
 21
92.2674638703
 31
0.0
  0
LINE
  5
1FE
330
1F
100
AcDbEntity
  8
0
  6
Continuous
 62
     8
370
    25
100
AcDbLine
 10
77.8779292324
 20
78.7674638703
 30
0.0
 11
77.8779292324
 21
80.1847816183
 31
0.0
  0
INSERT
  5
20A
330
1F
100
AcDbEntity
  8
0
  6
Continuous
 62
     7
370
    18
100
AcDbBlockReference
  2
SW_CENTERMARKSYMBOL_1
 10
70.6279292324
 20
85.5174638703
 30
0.0
  0
LINE
  5
20B
330
1F
100
AcDbEntity
  8
0
  6
Continuous
 62
     7
370
    18
100
AcDbLine
 10
94.758125596
 20
78.0152825066
 30
0.0
 11
82.7879292324
 21
77.6412138703
 31
0.0
  0
LINE
  5
20C
330
1F
100
AcDbEntity
  8
0
  6
Continuous
 62
     7
370
    18
100
AcDbLine
 10
94.758125596
 20
93.0196452339
 30
0.0
 11
82.7879292324
 21
93.3937138703
 31
0.0
  0
LINE
  5
20D
330
1F
100
AcDbEntity
  8
0
  6
Continuous
 62
     7
370
    18
100
AcDbLine
 10
82.7879292324
 20
94.0465888703
 30
0.0
 11
82.7879292324
 21
76.9883388703
 31
0.0
  0
ARC
  5
20E
330
1F
100
AcDbEntity
  8
0
  6
Continuous
 62
     7
370
    18
100
AcDbCircle
 10
70.6279292324
 20
85.5174638703
 30
0.0
 40
6.562891499999999
100
AcDbArc
 50
75.0
 51
345.0
  0
ENDSEC
  0
SECTION
  2
OBJECTS
  0
DICTIONARY
  5
C
330
0
100
AcDbDictionary
281
     1
  3
ACAD_GROUP
350
D
  3
ACAD_LAYOUT
350
1A
  3
ACAD_MLINESTYLE
350
17
  3
ACAD_PLOTSETTINGS
350
19
  3
ACAD_PLOTSTYLENAME
350
E
  3
ACAD_SCALELIST
350
47
  0
DICTIONARY
  5
D
102
{ACAD_REACTORS
330
C
102
}
330
C
100
AcDbDictionary
281
     1
  0
DICTIONARY
  5
1A
102
{ACAD_REACTORS
330
C
102
}
330
C
100
AcDbDictionary
281
     1
  3
Layout1
350
1E
  3
Layout2
350
26
  3
Model
350
22
  0
DICTIONARY
  5
17
102
{ACAD_REACTORS
330
C
102
}
330
C
100
AcDbDictionary
281
     1
  3
Standard
350
18
  0
DICTIONARY
  5
19
102
{ACAD_REACTORS
330
C
102
}
330
C
100
AcDbDictionary
281
     1
  0
ACDBDICTIONARYWDFLT
  5
E
102
{ACAD_REACTORS
330
C
102
}
330
C
100
AcDbDictionary
281
     1
  3
Normal
350
F
100
AcDbDictionaryWithDefault
340
F
  0
DICTIONARY
  5
47
102
{ACAD_REACTORS
330
C
102
}
330
C
100
AcDbDictionary
281
     1
  3
A0
350
48
  3
A1
350
49
  3
A2
350
4A
  3
A3
350
4B
  3
A4
350
4C
  3
A5
350
4D
  3
A6
350
4E
  3
A7
350
4F
  3
A8
350
50
  3
A9
350
51
  3
B0
350
52
  3
B1
350
53
  3
B2
350
54
  3
B3
350
55
  3
B4
350
56
  3
B5
350
57
  3
B6
350
58
  3
B7
350
59
  3
B8
350
5A
  3
B9
350
5B
  3
C0
350
5C
  3
C1
350
5D
  3
C2
350
5E
  3
C3
350
5F
  3
C4
350
60
  3
C5
350
61
  3
C6
350
62
  3
C7
350
63
  3
C8
350
64
  3
C9
350
65
  3
D0
350
66
  3
D1
350
67
  3
D2
350
68
  0
LAYOUT
  5
1E
102
{ACAD_REACTORS
330
1A
102
}
330
1A
100
AcDbPlotSettings
  1

  2
none_device
  4

  6

 40
0.0
 41
0.0
 42
0.0
 43
0.0
 44
0.0
 45
0.0
 46
0.0
 47
0.0
 48
0.0
 49
0.0
140
0.0
141
0.0
142
1.0
143
1.0
 70
   688
 72
     1
 73
     0
 74
     5
  7

 75
    16
147
1.0
148
0.0
149
0.0
100
AcDbLayout
  1
Layout1
 70
     1
 71
     1
 10
0.0
 20
0.0
 11
420.0
 21
297.0
 12
0.0
 22
0.0
 32
0.0
 14
1.0000000000E+20
 24
1.0000000000E+20
 34
1.0000000000E+20
 15
-1.0000000000E+20
 25
-1.0000000000E+20
 35
-1.0000000000E+20
146
0.0
 13
0.0
 23
0.0
 33
0.0
 16
1.0
 26
0.0
 36
0.0
 17
0.0
 27
1.0
 37
0.0
 76
     0
330
1B
  0
LAYOUT
  5
26
102
{ACAD_REACTORS
330
1A
102
}
330
1A
100
AcDbPlotSettings
  1

  2
none_device
  4

  6

 40
0.0
 41
0.0
 42
0.0
 43
0.0
 44
0.0
 45
0.0
 46
0.0
 47
0.0
 48
0.0
 49
0.0
140
0.0
141
0.0
142
1.0
143
1.0
 70
   688
 72
     1
 73
     0
 74
     5
  7

 75
    16
147
1.0
148
0.0
149
0.0
100
AcDbLayout
  1
Layout2
 70
     1
 71
     2
 10
0.0
 20
0.0
 11
0.0
 21
0.0
 12
0.0
 22
0.0
 32
0.0
 14
0.0
 24
0.0
 34
0.0
 15
0.0
 25
0.0
 35
0.0
146
0.0
 13
0.0
 23
0.0
 33
0.0
 16
1.0
 26
0.0
 36
0.0
 17
0.0
 27
1.0
 37
0.0
 76
     0
330
23
  0
LAYOUT
  5
22
102
{ACAD_REACTORS
330
1A
102
}
330
1A
100
AcDbPlotSettings
  1

  2
none_device
  4
Letter_(8.50_x_11.00_Inches)
  6

 40
6.35
 41
6.35
 42
6.35000508
 43
6.35000508
 44
215.9
 45
279.4
 46
0.0
 47
0.0
 48
0.0
 49
0.0
140
0.0
141
0.0
142
1.0
143
1.0
 70
  1712
 72
     1
 73
     0
 74
     0
  7

 75
     0
147
1.0
148
0.0
149
0.0
100
AcDbLayout
  1
Model
 70
     1
 71
     0
 10
0.0
 20
0.0
 11
215.9
 21
139.7
 12
0.0
 22
0.0
 32
0.0
 14
0.0
 24
0.0
 34
0.0
 15
215.9
 25
139.7
 35
0.0
146
0.0
 13
0.0
 23
0.0
 33
0.0
 16
1.0
 26
0.0
 36
0.0
 17
0.0
 27
1.0
 37
0.0
 76
     0
330
1F
331
29
  0
MLINESTYLE
  5
18
102
{ACAD_REACTORS
330
17
102
}
330
17
100
AcDbMlineStyle
  2
Standard
 70
     0
  3

 62
   256
 51
90.0
 52
90.0
 71
     2
 49
0.5
 62
   256
  6
BYLAYER
 49
-0.5
 62
   256
  6
BYLAYER
  0
ACDBPLACEHOLDER
  5
F
102
{ACAD_REACTORS
330
E
102
}
330
E
  0
SCALE
  5
48
102
{ACAD_REACTORS
330
47
102
}
330
47
100
AcDbScale
 70
     0
300
1:1
140
1.0
141
1.0
290
     1
  0
SCALE
  5
49
102
{ACAD_REACTORS
330
47
102
}
330
47
100
AcDbScale
 70
     0
300
1:2
140
1.0
141
2.0
290
     0
  0
SCALE
  5
4A
102
{ACAD_REACTORS
330
47
102
}
330
47
100
AcDbScale
 70
     0
300
1:4
140
1.0
141
4.0
290
     0
  0
SCALE
  5
4B
102
{ACAD_REACTORS
330
47
102
}
330
47
100
AcDbScale
 70
     0
300
1:5
140
1.0
141
5.0
290
     0
  0
SCALE
  5
4C
102
{ACAD_REACTORS
330
47
102
}
330
47
100
AcDbScale
 70
     0
300
1:8
140
1.0
141
8.0
290
     0
  0
SCALE
  5
4D
102
{ACAD_REACTORS
330
47
102
}
330
47
100
AcDbScale
 70
     0
300
1:10
140
1.0
141
10.0
290
     0
  0
SCALE
  5
4E
102
{ACAD_REACTORS
330
47
102
}
330
47
100
AcDbScale
 70
     0
300
1:16
140
1.0
141
16.0
290
     0
  0
SCALE
  5
4F
102
{ACAD_REACTORS
330
47
102
}
330
47
100
AcDbScale
 70
     0
300
1:20
140
1.0
141
20.0
290
     0
  0
SCALE
  5
50
102
{ACAD_REACTORS
330
47
102
}
330
47
100
AcDbScale
 70
     0
300
1:30
140
1.0
141
30.0
290
     0
  0
SCALE
  5
51
102
{ACAD_REACTORS
330
47
102
}
330
47
100
AcDbScale
 70
     0
300
1:40
140
1.0
141
40.0
290
     0
  0
SCALE
  5
52
102
{ACAD_REACTORS
330
47
102
}
330
47
100
AcDbScale
 70
     0
300
1:50
140
1.0
141
50.0
290
     0
  0
SCALE
  5
53
102
{ACAD_REACTORS
330
47
102
}
330
47
100
AcDbScale
 70
     0
300
1:100
140
1.0
141
100.0
290
     0
  0
SCALE
  5
54
102
{ACAD_REACTORS
330
47
102
}
330
47
100
AcDbScale
 70
     0
300
2:1
140
2.0
141
1.0
290
     0
  0
SCALE
  5
55
102
{ACAD_REACTORS
330
47
102
}
330
47
100
AcDbScale
 70
     0
300
4:1
140
4.0
141
1.0
290
     0
  0
SCALE
  5
56
102
{ACAD_REACTORS
330
47
102
}
330
47
100
AcDbScale
 70
     0
300
8:1
140
8.0
141
1.0
290
     0
  0
SCALE
  5
57
102
{ACAD_REACTORS
330
47
102
}
330
47
100
AcDbScale
 70
     0
300
10:1
140
10.0
141
1.0
290
     0
  0
SCALE
  5
58
102
{ACAD_REACTORS
330
47
102
}
330
47
100
AcDbScale
 70
     0
300
100:1
140
100.0
141
1.0
290
     0
  0
SCALE
  5
59
102
{ACAD_REACTORS
330
47
102
}
330
47
100
AcDbScale
 70
     0
300
1/128" = 1'-0"
140
0.0078125
141
12.0
290
     0
  0
SCALE
  5
5A
102
{ACAD_REACTORS
330
47
102
}
330
47
100
AcDbScale
 70
     0
300
1/64" = 1'-0"
140
0.015625
141
12.0
290
     0
  0
SCALE
  5
5B
102
{ACAD_REACTORS
330
47
102
}
330
47
100
AcDbScale
 70
     0
300
1/32" = 1'-0"
140
0.03125
141
12.0
290
     0
  0
SCALE
  5
5C
102
{ACAD_REACTORS
330
47
102
}
330
47
100
AcDbScale
 70
     0
300
1/16" = 1'-0"
140
0.0625
141
12.0
290
     0
  0
SCALE
  5
5D
102
{ACAD_REACTORS
330
47
102
}
330
47
100
AcDbScale
 70
     0
300
3/32" = 1'-0"
140
0.09375
141
12.0
290
     0
  0
SCALE
  5
5E
102
{ACAD_REACTORS
330
47
102
}
330
47
100
AcDbScale
 70
     0
300
1/8" = 1'-0"
140
0.125
141
12.0
290
     0
  0
SCALE
  5
5F
102
{ACAD_REACTORS
330
47
102
}
330
47
100
AcDbScale
 70
     0
300
3/16" = 1'-0"
140
0.1875
141
12.0
290
     0
  0
SCALE
  5
60
102
{ACAD_REACTORS
330
47
102
}
330
47
100
AcDbScale
 70
     0
300
1/4" = 1'-0"
140
0.25
141
12.0
290
     0
  0
SCALE
  5
61
102
{ACAD_REACTORS
330
47
102
}
330
47
100
AcDbScale
 70
     0
300
3/8" = 1'-0"
140
0.375
141
12.0
290
     0
  0
SCALE
  5
62
102
{ACAD_REACTORS
330
47
102
}
330
47
100
AcDbScale
 70
     0
300
1/2" = 1'-0"
140
0.5
141
12.0
290
     0
  0
SCALE
  5
63
102
{ACAD_REACTORS
330
47
102
}
330
47
100
AcDbScale
 70
     0
300
3/4" = 1'-0"
140
0.75
141
12.0
290
     0
  0
SCALE
  5
64
102
{ACAD_REACTORS
330
47
102
}
330
47
100
AcDbScale
 70
     0
300
1" = 1'-0"
140
1.0
141
12.0
290
     0
  0
SCALE
  5
65
102
{ACAD_REACTORS
330
47
102
}
330
47
100
AcDbScale
 70
     0
300
1-1/2" = 1'-0"
140
1.5
141
12.0
290
     0
  0
SCALE
  5
66
102
{ACAD_REACTORS
330
47
102
}
330
47
100
AcDbScale
 70
     0
300
3" = 1'-0"
140
3.0
141
12.0
290
     0
  0
SCALE
  5
67
102
{ACAD_REACTORS
330
47
102
}
330
47
100
AcDbScale
 70
     0
300
6" = 1'-0"
140
6.0
141
12.0
290
     0
  0
SCALE
  5
68
102
{ACAD_REACTORS
330
47
102
}
330
47
100
AcDbScale
 70
     0
300
1'-0" = 1'-0"
140
12.0
141
12.0
290
     0
  0
ENDSEC
  0
EOF
