  0
SECTION
  2
HEADER
  9
$ACADVER
  1
AC1015
  9
$ACADMAINTVER
 70
     6
  9
$DWGCODEPAGE
  3
DOS932
  9
$INSBASE
 10
0.0
 20
0.0
 30
0.0
  9
$EXTMIN
 10
0.0
 20
0.0
 30
0.0
  9
$EXTMAX
 10
431.8
 20
279.4
 30
0.0
  9
$LIMMIN
 10
0.0
 20
0.0
  9
$LIMMAX
 10
431.8
 20
279.4
  9
$ORTHOMODE
 70
     0
  9
$REGENMODE
 70
     1
  9
$FILLMODE
 70
     1
  9
$QTEXTMODE
 70
     0
  9
$MIRRTEXT
 70
     1
  9
$LTSCALE
 40
1.0
  9
$ATTMODE
 70
     1
  9
$TEXTSIZE
 40
3.5
  9
$TRACEWID
 40
1.0
  9
$TEXTSTYLE
  7
Standard
  9
$CLAYER
  8
0
  9
$CELTYPE
  6
ByLayer
  9
$CECOLOR
 62
   256
  9
$CELTSCALE
 40
1.0
  9
$DISPSILH
 70
     0
  9
$DIMSCALE
 40
1.0
  9
$DIMASZ
 40
3.302
  9
$DIMEXO
 40
1.0
  9
$DIMDLI
 40
3.75
  9
$DIMRND
 40
0.0
  9
$DIMDLE
 40
0.0
  9
$DIMEXE
 40
1.0
  9
$DIMTP
 40
0.0
  9
$DIMTM
 40
0.0
  9
$DIMTXT
 40
3.5
  9
$DIMCEN
 40
2.5
  9
$DIMTSZ
 40
0.0
  9
$DIMTOL
 70
     0
  9
$DIMLIM
 70
     0
  9
$DIMTIH
 70
     1
  9
$DIMTOH
 70
     1
  9
$DIMSE1
 70
     0
  9
$DIMSE2
 70
     0
  9
$DIMTAD
 70
     1
  9
$DIMZIN
 70
     1
  9
$DIMBLK
  1

  9
$DIMASO
 70
     1
  9
$DIMSHO
 70
     1
  9
$DIMPOST
  1

  9
$DIMAPOST
  1

  9
$DIMALT
 70
     0
  9
$DIMALTD
 70
     3
  9
$DIMALTF
 40
0.0393700787
  9
$DIMLFAC
 40
1.0
  9
$DIMTOFL
 70
     1
  9
$DIMTVP
 40
0.0
  9
$DIMTIX
 70
     0
  9
$DIMSOXD
 70
     0
  9
$DIMSAH
 70
     0
  9
$DIMBLK1
  1

  9
$DIMBLK2
  1

  9
$DIMSTYLE
  2
ISO-25
  9
$DIMCLRD
 70
     0
  9
$DIMCLRE
 70
     0
  9
$DIMCLRT
 70
     0
  9
$DIMTFAC
 40
1.0
  9
$DIMGAP
 40
1.524
  9
$DIMJUST
 70
     0
  9
$DIMSD1
 70
     0
  9
$DIMSD2
 70
     0
  9
$DIMTOLJ
 70
     0
  9
$DIMTZIN
 70
     1
  9
$DIMALTZ
 70
     0
  9
$DIMALTTZ
 70
     0
  9
$DIMUPT
 70
     0
  9
$DIMDEC
 70
     2
  9
$DIMTDEC
 70
     2
  9
$DIMALTU
 70
     2
  9
$DIMALTTD
 70
     3
  9
$DIMTXSTY
  7
Standard
  9
$DIMAUNIT
 70
     0
  9
$DIMADEC
 70
     2
  9
$DIMALTRND
 40
0.0
  9
$DIMAZIN
 70
     0
  9
$DIMDSEP
 70
    44
  9
$DIMATFIT
 70
     3
  9
$DIMFRAC
 70
     0
  9
$DIMLDRBLK
  1

  9
$DIMLUNIT
 70
     2
  9
$DIMLWD
 70
    -2
  9
$DIMLWE
 70
    -2
  9
$DIMTMOVE
 70
     0
  9
$LUNITS
 70
     2
  9
$LUPREC
 70
     2
  9
$SKETCHINC
 40
1.0
  9
$FILLETRAD
 40
10.0
  9
$AUNITS
 70
     0
  9
$AUPREC
 70
     2
  9
$MENU
  1
.
  9
$ELEVATION
 40
0.0
  9
$PELEVATION
 40
0.0
  9
$THICKNESS
 40
0.0
  9
$LIMCHECK
 70
     0
  9
$CHAMFERA
 40
0.0
  9
$CHAMFERB
 40
0.0
  9
$CHAMFERC
 40
0.0
  9
$CHAMFERD
 40
0.0
  9
$SKPOLY
 70
     0
  9
$TDCREATE
 40
2459247.395337292
  9
$TDUCREATE
 40
2459247.020337292
  9
$TDUPDATE
 40
2459247.395337835
  9
$TDUUPDATE
 40
2459247.020337835
  9
$TDINDWG
 40
0.0000000116
  9
$TDUSRTIMER
 40
0.0000000116
  9
$USRTIMER
 70
     1
  9
$ANGBASE
 50
0.0
  9
$ANGDIR
 70
     0
  9
$PDMODE
 70
     0
  9
$PDSIZE
 40
-1.0
  9
$PLINEWID
 40
0.0
  9
$SPLFRAME
 70
     0
  9
$SPLINETYPE
 70
     6
  9
$SPLINESEGS
 70
     8
  9
$HANDSEED
  5
1BF
  9
$SURFTAB1
 70
     6
  9
$SURFTAB2
 70
     6
  9
$SURFTYPE
 70
     6
  9
$SURFU
 70
     6
  9
$SURFV
 70
     6
  9
$UCSBASE
  2

  9
$UCSNAME
  2

  9
$UCSORG
 10
0.0
 20
0.0
 30
0.0
  9
$UCSXDIR
 10
1.0
 20
0.0
 30
0.0
  9
$UCSYDIR
 10
0.0
 20
1.0
 30
0.0
  9
$UCSORTHOREF
  2

  9
$UCSORTHOVIEW
 70
     0
  9
$UCSORGTOP
 10
0.0
 20
0.0
 30
0.0
  9
$UCSORGBOTTOM
 10
0.0
 20
0.0
 30
0.0
  9
$UCSORGLEFT
 10
0.0
 20
0.0
 30
0.0
  9
$UCSORGRIGHT
 10
0.0
 20
0.0
 30
0.0
  9
$UCSORGFRONT
 10
0.0
 20
0.0
 30
0.0
  9
$UCSORGBACK
 10
0.0
 20
0.0
 30
0.0
  9
$PUCSBASE
  2

  9
$PUCSNAME
  2

  9
$PUCSORG
 10
0.0
 20
0.0
 30
0.0
  9
$PUCSXDIR
 10
1.0
 20
0.0
 30
0.0
  9
$PUCSYDIR
 10
0.0
 20
1.0
 30
0.0
  9
$PUCSORTHOREF
  2

  9
$PUCSORTHOVIEW
 70
     0
  9
$PUCSORGTOP
 10
0.0
 20
0.0
 30
0.0
  9
$PUCSORGBOTTOM
 10
0.0
 20
0.0
 30
0.0
  9
$PUCSORGLEFT
 10
0.0
 20
0.0
 30
0.0
  9
$PUCSORGRIGHT
 10
0.0
 20
0.0
 30
0.0
  9
$PUCSORGFRONT
 10
0.0
 20
0.0
 30
0.0
  9
$PUCSORGBACK
 10
0.0
 20
0.0
 30
0.0
  9
$USERI1
 70
     0
  9
$USERI2
 70
     0
  9
$USERI3
 70
     0
  9
$USERI4
 70
     0
  9
$USERI5
 70
     0
  9
$USERR1
 40
0.0
  9
$USERR2
 40
0.0
  9
$USERR3
 40
0.0
  9
$USERR4
 40
0.0
  9
$USERR5
 40
0.0
  9
$WORLDVIEW
 70
     1
  9
$SHADEDGE
 70
     3
  9
$SHADEDIF
 70
    70
  9
$TILEMODE
 70
     1
  9
$MAXACTVP
 70
    64
  9
$PINSBASE
 10
0.0
 20
0.0
 30
0.0
  9
$PLIMCHECK
 70
     0
  9
$PEXTMIN
 10
1.0000000000E+20
 20
1.0000000000E+20
 30
1.0000000000E+20
  9
$PEXTMAX
 10
-1.0000000000E+20
 20
-1.0000000000E+20
 30
-1.0000000000E+20
  9
$PLIMMIN
 10
0.0
 20
0.0
  9
$PLIMMAX
 10
420.0
 20
297.0
  9
$UNITMODE
 70
     0
  9
$VISRETAIN
 70
     1
  9
$PLINEGEN
 70
     0
  9
$PSLTSCALE
 70
     1
  9
$TREEDEPTH
 70
  3020
  9
$CMLSTYLE
  2
Standard
  9
$CMLJUST
 70
     0
  9
$CMLSCALE
 40
20.0
  9
$PROXYGRAPHICS
 70
     1
  9
$MEASUREMENT
 70
     1
  9
$CELWEIGHT
370
    -1
  9
$ENDCAPS
280
     0
  9
$JOINSTYLE
280
     0
  9
$LWDISPLAY
290
     1
  9
$INSUNITS
 70
     4
  9
$HYPERLINKBASE
  1

  9
$STYLESHEET
  1

  9
$XEDIT
290
     1
  9
$CEPSNTYPE
380
     0
  9
$PSTYLEMODE
290
     1
  9
$FINGERPRINTGUID
  2
{3EC7F335-01D5-4AFC-B25E-D99FD3C10CB3}
  9
$VERSIONGUID
  2
{FAEB1C32-E019-11D5-929B-00C0DF256EC4}
  9
$EXTNAMES
290
     1
  9
$PSVPSCALE
 40
0.0
  9
$OLESTARTUP
290
     0
  0
ENDSEC
  0
SECTION
  2
CLASSES
  0
CLASS
  1
ACDBDICTIONARYWDFLT
  2
AcDbDictionaryWithDefault
  3
ObjectDBX Classes
 90
        0
280
     0
281
     0
  0
CLASS
  1
VISUALSTYLE
  2
AcDbVisualStyle
  3
ObjectDBX Classes
 90
     4095
280
     0
281
     0
  0
CLASS
  1
MATERIAL
  2
AcDbMaterial
  3
ObjectDBX Classes
 90
     1153
280
     0
281
     0
  0
CLASS
  1
SCALE
  2
AcDbScale
  3
ObjectDBX Classes
 90
     1153
280
     0
281
     0
  0
CLASS
  1
TABLESTYLE
  2
AcDbTableStyle
  3
ObjectDBX Classes
 90
     4095
280
     0
281
     0
  0
CLASS
  1
MLEADERSTYLE
  2
AcDbMLeaderStyle
  3
ACDB_MLEADERSTYLE_CLASS
 90
     4095
280
     0
281
     0
  0
CLASS
  1
SUN
  2
AcDbSun
  3
SCENEOE
 90
     1153
280
     0
281
     0
  0
CLASS
  1
ACDBPLACEHOLDER
  2
AcDbPlaceHolder
  3
ObjectDBX Classes
 90
        0
280
     0
281
     0
  0
CLASS
  1
LAYOUT
  2
AcDbLayout
  3
ObjectDBX Classes
 90
        0
280
     0
281
     0
  0
ENDSEC
  0
SECTION
  2
TABLES
  0
TABLE
  2
VPORT
  5
8
330
0
100
AcDbSymbolTable
 70
     1
  0
VPORT
  5
29
330
8
100
AcDbSymbolTableRecord
100
AcDbViewportTableRecord
  2
*Active
 70
     0
 10
0.0
 20
0.0
 11
1.0
 21
1.0
 12
215.9
 22
139.7
 13
0.0
 23
0.0
 14
10.0
 24
10.0
 15
10.0
 25
10.0
 16
0.0
 26
0.0
 36
1.0
 17
0.0
 27
0.0
 37
0.0
 40
279.4
 41
1.5454545455
 42
50.0
 43
0.0
 44
0.0
 50
0.0
 51
0.0
 71
     0
 72
  2000
 73
     1
 74
     3
 75
     0
 76
     0
 77
     0
 78
     0
281
     0
 65
     1
110
0.0
120
0.0
130
0.0
111
1.0
121
0.0
131
0.0
112
0.0
122
1.0
132
0.0
 79
     0
146
0.0
  0
ENDTAB
  0
TABLE
  2
LTYPE
  5
5
330
0
100
AcDbSymbolTable
 70
     6
  0
LTYPE
  5
14
330
5
100
AcDbSymbolTableRecord
100
AcDbLinetypeTableRecord
  2
ByBlock
 70
     0
  3

 72
    65
 73
     0
 40
0.0
  0
LTYPE
  5
15
330
5
100
AcDbSymbolTableRecord
100
AcDbLinetypeTableRecord
  2
ByLayer
 70
     0
  3

 72
    65
 73
     0
 40
0.0
  0
LTYPE
  5
16
330
5
100
AcDbSymbolTableRecord
100
AcDbLinetypeTableRecord
  2
Continuous
 70
     0
  3
Solid line
 72
    65
 73
     0
 40
0.0
  0
LTYPE
  5
6E
330
5
100
AcDbSymbolTableRecord
100
AcDbLinetypeTableRecord
  2
HIDDEN
 70
     0
  3
Hidden __ __ __ __ __ __ __ __ __ __ __ __ __ __
 72
    65
 73
     2
 40
1.905
 49
1.27
 74
     0
 49
-0.635
 74
     0
  0
LTYPE
  5
6F
330
5
100
AcDbSymbolTableRecord
100
AcDbLinetypeTableRecord
  2
PHANTOM
 70
     0
  3
Phantom ______  __  __  ______  __  __  ______
 72
    65
 73
     6
 40
12.7
 49
6.35
 74
     0
 49
-1.27
 74
     0
 49
1.27
 74
     0
 49
-1.27
 74
     0
 49
1.27
 74
     0
 49
-1.27
 74
     0
  0
LTYPE
  5
70
330
5
100
AcDbSymbolTableRecord
100
AcDbLinetypeTableRecord
  2
CENTER
 70
     0
  3
Center ____ _ ____ _ ____ _ ____ _ ____ _ ____
 72
    65
 73
     4
 40
10.16
 49
6.35
 74
     0
 49
-1.27
 74
     0
 49
1.27
 74
     0
 49
-1.27
 74
     0
  0
LTYPE
  5
71
330
5
100
AcDbSymbolTableRecord
100
AcDbLinetypeTableRecord
  2
CENTERX2
 70
     0
  3
Center (2x) ________  __  ________  __  _____
 72
    65
 73
     4
 40
20.32
 49
12.7
 74
     0
 49
-2.54
 74
     0
 49
2.54
 74
     0
 49
-2.54
 74
     0
  0
LTYPE
  5
72
330
5
100
AcDbSymbolTableRecord
100
AcDbLinetypeTableRecord
  2
DOT2
 70
     0
  3
Dot (.5x) ........................................
 72
    65
 73
     2
 40
0.635
 49
0.0
 74
     0
 49
-0.635
 74
     0
  0
ENDTAB
  0
TABLE
  2
LAYER
  5
2
330
0
100
AcDbSymbolTable
 70
     1
  0
LAYER
  5
10
330
2
100
AcDbSymbolTableRecord
100
AcDbLayerTableRecord
  2
0
 70
     0
 62
     7
  6
Continuous
370
    -3
390
F
  0
ENDTAB
  0
TABLE
  2
STYLE
  5
3
330
0
100
AcDbSymbolTable
 70
     2
  0
STYLE
  5
11
330
3
100
AcDbSymbolTableRecord
100
AcDbTextStyleTableRecord
  2
Standard
 70
     0
 40
0.0
 41
1.0
 50
0.0
 71
     0
 42
3.5
  3
txt
  4
bigfont
  0
STYLE
  5
73
330
3
100
AcDbSymbolTableRecord
100
AcDbTextStyleTableRecord
  2
SLDTEXTSTYLE0
 70
     0
 40
0.0
 41
0.7
 50
0.0
 71
     0
 42
3.5
  3
TXT
  4
bigfont
  0
ENDTAB
  0
TABLE
  2
VIEW
  5
6
330
0
100
AcDbSymbolTable
 70
     0
  0
ENDTAB
  0
TABLE
  2
UCS
  5
7
330
0
100
AcDbSymbolTable
 70
     0
  0
ENDTAB
  0
TABLE
  2
APPID
  5
9
330
0
100
AcDbSymbolTable
 70
     1
  0
APPID
  5
12
330
9
100
AcDbSymbolTableRecord
100
AcDbRegAppTableRecord
  2
ACAD
 70
     0
  0
ENDTAB
  0
TABLE
  2
DIMSTYLE
  5
A
330
0
100
AcDbSymbolTable
 70
     1
100
AcDbDimStyleTable
  0
DIMSTYLE
105
27
330
A
100
AcDbSymbolTableRecord
100
AcDbDimStyleTableRecord
  2
ISO-25
 70
     0
 41
2.5
 42
0.625
 43
3.75
 44
1.25
 73
     0
 74
     0
 77
     1
 78
     8
140
2.5
141
2.5
143
0.0393700787
147
0.625
171
     3
172
     1
178
     0
271
     2
272
     2
274
     3
278
    44
283
     0
284
     8
340
11
  0
ENDTAB
  0
TABLE
  2
BLOCK_RECORD
  5
1
330
0
100
AcDbSymbolTable
 70
     3
  0
BLOCK_RECORD
  5
1F
330
1
100
AcDbSymbolTableRecord
100
AcDbBlockTableRecord
  2
*Model_Space
340
22
  0
BLOCK_RECORD
  5
1B
330
1
100
AcDbSymbolTableRecord
100
AcDbBlockTableRecord
  2
*Paper_Space
340
1E
  0
BLOCK_RECORD
  5
23
330
1
100
AcDbSymbolTableRecord
100
AcDbBlockTableRecord
  2
*Paper_Space0
340
26
  0
BLOCK_RECORD
  5
155
330
1
100
AcDbSymbolTableRecord
100
AcDbBlockTableRecord
  2
SW_CENTERMARKSYMBOL_0
340
0
102
{BLKREFS
331
160
102
}
  0
BLOCK_RECORD
  5
1B2
330
1
100
AcDbSymbolTableRecord
100
AcDbBlockTableRecord
  2
SW_CENTERMARKSYMBOL_1
340
0
102
{BLKREFS
331
1BD
102
}
  0
ENDTAB
  0
ENDSEC
  0
SECTION
  2
BLOCKS
  0
BLOCK
  5
20
330
1F
100
AcDbEntity
  8
0
100
AcDbBlockBegin
  2
*Model_Space
 70
     0
 10
0.0
 20
0.0
 30
0.0
  3
*Model_Space
  1

  0
ENDBLK
  5
21
330
1F
100
AcDbEntity
  8
0
100
AcDbBlockEnd
  0
BLOCK
  5
1C
330
1B
100
AcDbEntity
 67
     1
  8
0
100
AcDbBlockBegin
  2
*Paper_Space
 70
     0
 10
0.0
 20
0.0
 30
0.0
  3
*Paper_Space
  1

  0
ENDBLK
  5
1D
330
1B
100
AcDbEntity
 67
     1
  8
0
100
AcDbBlockEnd
  0
BLOCK
  5
24
330
23
100
AcDbEntity
  8
0
100
AcDbBlockBegin
  2
*Paper_Space0
 70
     0
 10
0.0
 20
0.0
 30
0.0
  3
*Paper_Space0
  1

  0
ENDBLK
  5
25
330
23
100
AcDbEntity
  8
0
100
AcDbBlockEnd
  0
BLOCK
  5
156
330
155
100
AcDbEntity
  8
0
100
AcDbBlockBegin
  2
SW_CENTERMARKSYMBOL_0
 70
     0
 10
0.0
 20
0.0
 30
0.0
  3
SW_CENTERMARKSYMBOL_0
  1

  0
LINE
  5
158
330
155
100
AcDbEntity
  8
0
  6
Continuous
 62
     0
370
    18
100
AcDbLine
 10
0.0
 20
0.0
 30
0.0
 11
0.0
 21
2.5
 31
0.0
  0
LINE
  5
159
330
155
100
AcDbEntity
  8
0
  6
Continuous
 62
     0
370
    18
100
AcDbLine
 10
0.0
 20
0.0
 30
0.0
 11
-2.5
 21
0.0
 31
0.0
  0
LINE
  5
15A
330
155
100
AcDbEntity
  8
0
  6
Continuous
 62
     0
370
    18
100
AcDbLine
 10
0.0
 20
0.0
 30
0.0
 11
0.0
 21
-2.5
 31
0.0
  0
LINE
  5
15B
330
155
100
AcDbEntity
  8
0
  6
Continuous
 62
     0
370
    18
100
AcDbLine
 10
0.0
 20
0.0
 30
0.0
 11
2.5
 21
0.0
 31
0.0
  0
LINE
  5
15C
330
155
100
AcDbEntity
  8
0
  6
Continuous
 62
     0
370
    18
100
AcDbLine
 10
0.0
 20
5.0
 30
0.0
 11
0.0
 21
36.9424766852
 31
0.0
  0
LINE
  5
15D
330
155
100
AcDbEntity
  8
0
  6
Continuous
 62
     0
370
    18
100
AcDbLine
 10
-5.0
 20
0.0
 30
0.0
 11
-16.5
 21
0.0
 31
0.0
  0
LINE
  5
15E
330
155
100
AcDbEntity
  8
0
  6
Continuous
 62
     0
370
    18
100
AcDbLine
 10
0.0
 20
-5.0
 30
0.0
 11
0.0
 21
-16.5
 31
0.0
  0
LINE
  5
15F
330
155
100
AcDbEntity
  8
0
  6
Continuous
 62
     0
370
    18
100
AcDbLine
 10
5.0
 20
0.0
 30
0.0
 11
16.5
 21
0.0
 31
0.0
  0
ENDBLK
  5
157
330
155
100
AcDbEntity
  8
0
100
AcDbBlockEnd
  0
BLOCK
  5
1B3
330
1B2
100
AcDbEntity
  8
0
100
AcDbBlockBegin
  2
SW_CENTERMARKSYMBOL_1
 70
     0
 10
0.0
 20
0.0
 30
0.0
  3
SW_CENTERMARKSYMBOL_1
  1

  0
LINE
  5
1B5
330
1B2
100
AcDbEntity
  8
0
  6
Continuous
 62
     0
370
    18
100
AcDbLine
 10
0.0
 20
0.0
 30
0.0
 11
0.0
 21
2.5
 31
0.0
  0
LINE
  5
1B6
330
1B2
100
AcDbEntity
  8
0
  6
Continuous
 62
     0
370
    18
100
AcDbLine
 10
0.0
 20
0.0
 30
0.0
 11
-2.5
 21
0.0
 31
0.0
  0
LINE
  5
1B7
330
1B2
100
AcDbEntity
  8
0
  6
Continuous
 62
     0
370
    18
100
AcDbLine
 10
0.0
 20
0.0
 30
0.0
 11
0.0
 21
-2.5
 31
0.0
  0
LINE
  5
1B8
330
1B2
100
AcDbEntity
  8
0
  6
Continuous
 62
     0
370
    18
100
AcDbLine
 10
0.0
 20
0.0
 30
0.0
 11
2.5
 21
0.0
 31
0.0
  0
LINE
  5
1B9
330
1B2
100
AcDbEntity
  8
0
  6
Continuous
 62
     0
370
    18
100
AcDbLine
 10
0.0
 20
5.0
 30
0.0
 11
0.0
 21
16.5
 31
0.0
  0
LINE
  5
1BA
330
1B2
100
AcDbEntity
  8
0
  6
Continuous
 62
     0
370
    18
100
AcDbLine
 10
-5.0
 20
0.0
 30
0.0
 11
-16.5
 21
0.0
 31
0.0
  0
LINE
  5
1BB
330
1B2
100
AcDbEntity
  8
0
  6
Continuous
 62
     0
370
    18
100
AcDbLine
 10
0.0
 20
-5.0
 30
0.0
 11
0.0
 21
-16.5
 31
0.0
  0
LINE
  5
1BC
330
1B2
100
AcDbEntity
  8
0
  6
Continuous
 62
     0
370
    18
100
AcDbLine
 10
5.0
 20
0.0
 30
0.0
 11
36.3266486467
 21
0.0
 31
0.0
  0
ENDBLK
  5
1B4
330
1B2
100
AcDbEntity
  8
0
100
AcDbBlockEnd
  0
ENDSEC
  0
SECTION
  2
ENTITIES
  0
MTEXT
  5
74
330
1F
100
AcDbEntity
  8
0
  6
Continuous
 62
     7
370
     0
100
AcDbMText
 10
152.6673706182
 20
112.0588842986
 30
0.0
 40
4.2333333333
 41
0.0
 71
     1
 72
     1
  1
5R-LF1044
  7
SLDTEXTSTYLE0
 73
     1
 44
1.0
  0
LINE
  5
75
330
1F
100
AcDbEntity
  8
0
  6
Continuous
 62
     7
370
    25
100
AcDbLine
 10
152.1254233329
 20
81.1616652578
 30
0.0
 11
138.1254233329
 21
81.1616652578
 31
0.0
  0
LINE
  5
76
330
1F
100
AcDbEntity
  8
0
  6
Continuous
 62
     7
370
    25
100
AcDbLine
 10
138.1254233329
 20
53.1616652578
 30
0.0
 11
152.1254233329
 21
53.1616652578
 31
0.0
  0
ARC
  5
77
330
1F
100
AcDbEntity
  8
0
  6
Continuous
 62
     7
370
    25
100
AcDbCircle
 10
106.1254233329
 20
86.1616652578
 30
0.0
 40
1.0
100
AcDbArc
 50
180.0
 51
255.5224878141
  0
ARC
  5
78
330
1F
100
AcDbEntity
  8
0
  6
Continuous
 62
     7
370
    25
100
AcDbCircle
 10
132.1254233329
 20
86.1616652578
 30
0.0
 40
1.000000000000004
100
AcDbArc
 50
284.4775121859
 51
0.0
  0
ARC
  5
79
330
1F
100
AcDbEntity
  8
0
  6
Continuous
 62
     7
370
    25
100
AcDbCircle
 10
138.1254233329
 20
54.1616652578
 30
0.0
 40
1.000000000000004
100
AcDbArc
 50
194.4775121859
 51
270.0
  0
ARC
  5
7A
330
1F
100
AcDbEntity
  8
0
  6
Continuous
 62
     7
370
    25
100
AcDbCircle
 10
138.1254233329
 20
80.1616652578
 30
0.0
 40
1.000000000000004
100
AcDbArc
 50
90.0
 51
165.5224878141
  0
LINE
  5
7B
330
1F
100
AcDbEntity
  8
0
  6
Continuous
 62
     7
370
    25
100
AcDbLine
 10
133.1254233329
 20
100.1616652578
 30
0.0
 11
132.1254233329
 21
101.1616652578
 31
0.0
  0
LINE
  5
7C
330
1F
100
AcDbEntity
  8
0
  6
Continuous
 62
     7
370
    25
100
AcDbLine
 10
106.1254233329
 20
101.1616652578
 30
0.0
 11
105.1254233329
 21
100.1616652578
 31
0.0
  0
LINE
  5
7D
330
1F
100
AcDbEntity
  8
0
  6
Continuous
 62
     7
370
    25
100
AcDbLine
 10
133.1254233329
 20
86.1616652578
 30
0.0
 11
133.1254233329
 21
100.1616652578
 31
0.0
  0
LINE
  5
7E
330
1F
100
AcDbEntity
  8
0
  6
Continuous
 62
     7
370
    25
100
AcDbLine
 10
105.1254233329
 20
100.1616652578
 30
0.0
 11
105.1254233329
 21
86.1616652578
 31
0.0
  0
LINE
  5
7F
330
1F
100
AcDbEntity
  8
0
  6
Continuous
 62
     7
370
    25
100
AcDbLine
 10
152.1254233329
 20
53.1616652578
 30
0.0
 11
153.1254233329
 21
54.1616652578
 31
0.0
  0
LINE
  5
80
330
1F
100
AcDbEntity
  8
0
  6
Continuous
 62
     7
370
    25
100
AcDbLine
 10
153.1254233329
 20
80.1616652578
 30
0.0
 11
152.1254233329
 21
81.1616652578
 31
0.0
  0
ARC
  5
81
330
1F
100
AcDbEntity
  8
0
  6
Continuous
 62
     7
370
    25
100
AcDbCircle
 10
134.2524399867
 20
53.1616652578
 30
0.0
 40
3.0
100
AcDbArc
 50
14.4775121859
 51
90.0
  0
ARC
  5
82
330
1F
100
AcDbEntity
  8
0
  6
Continuous
 62
     7
370
    25
100
AcDbCircle
 10
134.2524399867
 20
81.1616652578
 30
0.0
 40
3.0
100
AcDbArc
 50
270.0
 51
345.5224878141
  0
ARC
  5
83
330
1F
100
AcDbEntity
  8
0
  6
Continuous
 62
     7
370
    25
100
AcDbCircle
 10
105.1254233329
 20
82.2886819116
 30
0.0
 40
3.000000000000012
100
AcDbArc
 50
0.0
 51
75.5224878141
  0
ARC
  5
84
330
1F
100
AcDbEntity
  8
0
  6
Continuous
 62
     7
370
    25
100
AcDbCircle
 10
133.1254233329
 20
82.2886819116
 30
0.0
 40
3.0
100
AcDbArc
 50
104.4775121859
 51
180.0
  0
LINE
  5
85
330
1F
100
AcDbEntity
  8
0
  6
Continuous
 62
     7
370
    25
100
AcDbLine
 10
134.2524399867
 20
78.1616652578
 30
0.0
 11
131.1254233329
 21
78.1616652578
 31
0.0
  0
LINE
  5
86
330
1F
100
AcDbEntity
  8
0
  6
Continuous
 62
     7
370
    25
100
AcDbLine
 10
112.1206614236
 20
56.1616652578
 30
0.0
 11
134.2524399867
 21
56.1616652578
 31
0.0
  0
LINE
  5
87
330
1F
100
AcDbEntity
  8
0
  6
Continuous
 62
     7
370
    25
100
AcDbLine
 10
130.1254233329
 20
79.1616652578
 30
0.0
 11
130.1254233329
 21
82.2886819116
 31
0.0
  0
LINE
  5
88
330
1F
100
AcDbEntity
  8
0
  6
Continuous
 62
     7
370
    25
100
AcDbLine
 10
108.1254233329
 20
82.2886819116
 30
0.0
 11
108.1254233329
 21
60.1569033485
 31
0.0
  0
SPLINE
  5
89
330
1F
100
AcDbEntity
  8
0
  6
Continuous
 62
     7
370
    25
100
AcDbSpline
210
0.0
220
0.0
230
1.0
 70
     8
 71
     3
 72
    21
 73
    17
 74
     0
 42
0.000000001
 43
0.00000001
 40
0.0
 40
0.0
 40
0.0
 40
0.0
 40
0.082675685630924
 40
0.1577159325188836
 40
0.225107159227423
 40
0.2848508973562325
 40
0.3526128230463965
 40
0.4067896959711119
 40
0.4520101709879598
 40
0.5086862178782585
 40
0.5792250734246939
 40
0.6636252331326754
 40
0.7360319020681837
 40
0.8162246501067455
 40
0.904219872834077
 40
1.0
 40
1.0
 40
1.0
 40
1.0
 10
108.1254233358583
 20
60.16151324275171
 30
0.0
 10
108.1319575422901
 20
59.98834936196911
 30
0.0
 10
108.1444224943834
 20
59.65801399519473
 30
0.0
 10
108.2364902783196
 20
59.19420482668318
 30
0.0
 10
108.3610100597959
 20
58.78918434569565
 30
0.0
 10
108.520515814218
 20
58.41303410388733
 30
0.0
 10
108.7035737779667
 20
58.07889894292926
 30
0.0
 10
108.9003050513317
 20
57.78908694082305
 30
0.0
 10
109.1043136468664
 20
57.53363213397041
 30
0.0
 10
109.3517177446996
 20
57.27019514396675
 30
0.0
 10
109.6866181931218
 20
56.97895790727036
 30
0.0
 10
110.0819548661995
 20
56.7116336956883
 30
0.0
 10
110.5245827854039
 20
56.48520182899288
 30
0.0
 10
110.9986940869974
 20
56.31254920982471
 30
0.0
 10
111.5396096105934
 20
56.18730271392972
 30
0.0
 10
111.9246143556356
 20
56.17044905763101
 30
0.0
 10
112.1252713178508
 20
56.16166526075924
 30
0.0
  0
SPLINE
  5
8A
330
1F
100
AcDbEntity
  8
0
  6
Continuous
 62
     7
370
    25
100
AcDbSpline
210
0.0
220
0.0
230
1.0
 70
     8
 71
     3
 72
    11
 73
     7
 74
     0
 42
0.000000001
 43
0.00000001
 40
0.0
 40
0.0
 40
0.0
 40
0.0
 40
0.250045322115713
 40
0.5
 40
0.7499546778842864
 40
1.0
 40
1.0
 40
1.0
 40
1.0
 10
131.1254233328964
 20
78.16166525780032
 30
0.0
 10
130.9943759347908
 20
78.17673072121652
 30
0.0
 10
130.7323286447299
 20
78.2068561866496
 30
0.0
 10
130.4019783711808
 20
78.43822029608172
 30
0.0
 10
130.1706142617487
 20
78.76857056963087
 30
0.0
 10
130.1404887963156
 20
79.0306178596917
 30
0.0
 10
130.1254233328994
 20
79.16166525779732
 30
0.0
  0
LINE
  5
8B
330
1F
100
AcDbEntity
  8
0
  6
Continuous
 62
     7
370
    25
100
AcDbLine
 10
152.1254233329
 20
53.1616652578
 30
0.0
 11
152.1254233329
 21
81.1616652578
 31
0.0
  0
LINE
  5
8C
330
1F
100
AcDbEntity
  8
0
  6
Continuous
 62
     7
370
    25
100
AcDbLine
 10
133.1254233329
 20
100.1616652578
 30
0.0
 11
105.1254233329
 21
100.1616652578
 31
0.0
  0
LINE
  5
8D
330
1F
100
AcDbEntity
  8
0
  6
Continuous
 62
     7
370
    25
100
AcDbLine
 10
106.1254233329
 20
101.1616652578
 30
0.0
 11
132.1254233329
 21
101.1616652578
 31
0.0
  0
LINE
  5
8E
330
1F
100
AcDbEntity
  8
0
  6
Continuous
 62
     7
370
    25
100
AcDbLine
 10
153.1254233329
 20
80.1616652578
 30
0.0
 11
153.1254233329
 21
54.1616652578
 31
0.0
  0
SPLINE
  5
8F
330
1F
100
AcDbEntity
  8
0
  6
Continuous
 62
     7
370
    25
100
AcDbSpline
210
0.0
220
0.0
230
1.0
 70
     8
 71
     3
 72
    12
 73
     8
 74
     0
 42
0.000000001
 43
0.00000001
 40
0.0
 40
0.0
 40
0.0
 40
0.0
 40
0.2500000000000001
 40
0.2500000000000001
 40
0.5000000000000001
 40
0.5000000000000001
 40
1.0
 40
1.0
 40
1.0
 40
1.0
 10
129.6254233329324
 20
63.88294599568233
 30
0.0
 10
129.6254233329324
 20
64.16046800159212
 30
0.0
 10
129.6451462783403
 20
64.4366043285249
 30
0.0
 10
129.7057827431016
 20
64.98738819193747
 30
0.0
 10
129.7470392887899
 20
65.26159658846285
 30
0.0
 10
129.888812598462
 20
66.07975286611165
 30
0.0
 10
130.0073796436224
 20
66.62071578121666
 30
0.0
 10
130.1254233329324
 20
67.16166525783332
 30
0.0
  0
SPLINE
  5
90
330
1F
100
AcDbEntity
  8
0
  6
Continuous
 62
     7
370
    25
100
AcDbSpline
210
0.0
220
0.0
230
1.0
 70
     8
 71
     3
 72
    12
 73
     8
 74
     0
 42
0.000000001
 43
0.00000001
 40
0.0
 40
0.0
 40
0.0
 40
0.0
 40
0.2500000000000001
 40
0.2500000000000001
 40
0.5000000000000001
 40
0.5000000000000001
 40
1.0
 40
1.0
 40
1.0
 40
1.0
 10
130.0516805009104
 20
63.88294599568233
 30
0.0
 10
130.0289679992023
 20
64.15425043405479
 30
0.0
 10
130.0214554793728
 20
64.42636263261512
 30
0.0
 10
130.0198994046723
 20
64.97207231708693
 30
0.0
 10
130.0263262465133
 20
65.24546827124938
 30
0.0
 10
130.0565512468141
 20
66.06569014831867
 30
0.0
 10
130.0912467679311
 20
66.6140255456344
 30
0.0
 10
130.1254233329324
 20
67.16166525783332
 30
0.0
  0
LINE
  5
91
330
1F
100
AcDbEntity
  8
0
  6
Continuous
 62
     7
370
    25
100
AcDbLine
 10
129.6254233329
 20
63.8829459957
 30
0.0
 11
130.0516805009
 21
63.8829459957
 31
0.0
  0
ARC
  5
92
330
1F
100
AcDbEntity
  8
0
  6
Continuous
 62
     7
370
    25
100
AcDbCircle
 10
130.636461108
 20
62.8429212579
 30
0.0
 40
1.193155402138589
100
AcDbArc
 50
97.6349315662
 51
119.347988814
  0
SPLINE
  5
93
330
1F
100
AcDbEntity
  8
0
  6
Continuous
 62
     7
370
    25
100
AcDbSpline
210
0.0
220
0.0
230
1.0
 70
     8
 71
     3
 72
    12
 73
     8
 74
     0
 42
0.000000001
 43
0.00000001
 40
0.0
 40
0.0
 40
0.0
 40
0.0
 40
0.2500000000000001
 40
0.2500000000000001
 40
0.5000000000000001
 40
0.5000000000000001
 40
1.0
 40
1.0
 40
1.0
 40
1.0
 10
130.4779376688883
 20
64.0254990070802
 30
0.0
 10
130.4298956982584
 20
64.27746710826626
 30
0.0
 10
130.3932020556148
 20
64.53306562692384
 30
0.0
 10
130.32721137419
 20
65.04959199178468
 30
0.0
 10
130.2984378860131
 20
65.31101215110512
 30
0.0
 10
130.2179621790024
 20
66.09869590544353
 30
0.0
 10
130.1718324757591
 20
66.63070747807882
 30
0.0
 10
130.1254233329324
 20
67.16166525783332
 30
0.0
  0
LINE
  5
94
330
1F
100
AcDbEntity
  8
0
  6
Continuous
 62
     7
370
    25
100
AcDbLine
 10
129.6254233329
 20
70.44038452
 30
0.0
 11
130.0516805009
 21
70.44038452
 31
0.0
  0
SPLINE
  5
95
330
1F
100
AcDbEntity
  8
0
  6
Continuous
 62
     7
370
    25
100
AcDbSpline
210
0.0
220
0.0
230
1.0
 70
     8
 71
     3
 72
    12
 73
     8
 74
     0
 42
0.000000001
 43
0.00000001
 40
0.0
 40
0.0
 40
0.0
 40
0.0
 40
0.25
 40
0.25
 40
0.5
 40
0.5
 40
1.0
 40
1.0
 40
1.0
 40
1.0
 10
130.0516805009104
 20
70.4403845199843
 30
0.0
 10
130.0289679992013
 20
70.16908008159925
 30
0.0
 10
130.021455479372
 20
69.89696788302624
 30
0.0
 10
130.0198994046729
 20
69.35125819852898
 30
0.0
 10
130.0263262465149
 20
69.07786224435385
 30
0.0
 10
130.0565512468193
 20
68.25764036724641
 30
0.0
 10
130.0912467679435
 20
67.70930497005989
 30
0.0
 10
130.1254233329324
 20
67.16166525783332
 30
0.0
  0
SPLINE
  5
96
330
1F
100
AcDbEntity
  8
0
  6
Continuous
 62
     7
370
    25
100
AcDbSpline
210
0.0
220
0.0
230
1.0
 70
     8
 71
     3
 72
    12
 73
     8
 74
     0
 42
0.000000001
 43
0.00000001
 40
0.0
 40
0.0
 40
0.0
 40
0.0
 40
0.2499999999999999
 40
0.2499999999999999
 40
0.4999999999999999
 40
0.4999999999999999
 40
1.0
 40
1.0
 40
1.0
 40
1.0
 10
129.6254233329324
 20
70.44038451998433
 30
0.0
 10
129.6254233329324
 20
70.16286251407452
 30
0.0
 10
129.6451462783403
 20
69.88672618714176
 30
0.0
 10
129.7057827431016
 20
69.33594232372918
 30
0.0
 10
129.7470392887899
 20
69.0617339272038
 30
0.0
 10
129.888812598462
 20
68.24357764955501
 30
0.0
 10
130.0073796436224
 20
67.70261473445
 30
0.0
 10
130.1254233329324
 20
67.16166525783332
 30
0.0
  0
ARC
  5
97
330
1F
100
AcDbEntity
  8
0
  6
Continuous
 62
     7
370
    25
100
AcDbCircle
 10
130.636461108
 20
71.4804092578
 30
0.0
 40
1.193155402138408
100
AcDbArc
 50
240.652011186
 51
262.3650684338
  0
SPLINE
  5
98
330
1F
100
AcDbEntity
  8
0
  6
Continuous
 62
     7
370
    25
100
AcDbSpline
210
0.0
220
0.0
230
1.0
 70
     8
 71
     3
 72
    12
 73
     8
 74
     0
 42
0.000000001
 43
0.00000001
 40
0.0
 40
0.0
 40
0.0
 40
0.0
 40
0.25
 40
0.25
 40
0.5
 40
0.5
 40
1.0
 40
1.0
 40
1.0
 40
1.0
 10
130.4779376688883
 20
70.29783150858636
 30
0.0
 10
130.4299124512456
 20
70.04595127262145
 30
0.0
 10
130.3932281809707
 20
69.79044308213778
 30
0.0
 10
130.3272542880413
 20
69.2741006909579
 30
0.0
 10
130.298502655473
 20
69.01293163938563
 30
0.0
 10
130.2179477546831
 20
68.22453474051223
 30
0.0
 10
130.1718162780632
 20
67.69243788553679
 30
0.0
 10
130.1254233329324
 20
67.16166525783332
 30
0.0
  0
SPLINE
  5
99
330
1F
100
AcDbEntity
  8
0
  6
Continuous
 62
     7
370
    25
100
AcDbSpline
210
0.0
220
0.0
230
1.0
 70
     8
 71
     3
 72
    12
 73
     8
 74
     0
 42
0.000000001
 43
0.00000001
 40
0.0
 40
0.0
 40
0.0
 40
0.0
 40
0.2500000000000001
 40
0.2500000000000001
 40
0.5000000000000001
 40
0.5000000000000001
 40
1.0
 40
1.0
 40
1.0
 40
1.0
 10
122.4041425950834
 20
77.66166525783333
 30
0.0
 10
122.1266205891736
 20
77.66166525783333
 30
0.0
 10
121.8504842622408
 20
77.68138820324124
 30
0.0
 10
121.2997003988283
 20
77.7420246680025
 30
0.0
 10
121.0254920023029
 20
77.78328121369087
 30
0.0
 10
120.2073357246541
 20
77.92505452336295
 30
0.0
 10
119.6663728095491
 20
78.04362156852328
 30
0.0
 10
119.1254233329324
 20
78.16166525783333
 30
0.0
  0
SPLINE
  5
9A
330
1F
100
AcDbEntity
  8
0
  6
Continuous
 62
     7
370
    25
100
AcDbSpline
210
0.0
220
0.0
230
1.0
 70
     8
 71
     3
 72
    12
 73
     8
 74
     0
 42
0.000000001
 43
0.00000001
 40
0.0
 40
0.0
 40
0.0
 40
0.0
 40
0.2500000000000001
 40
0.2500000000000001
 40
0.5000000000000001
 40
0.5000000000000001
 40
1.0
 40
1.0
 40
1.0
 40
1.0
 10
122.4041425950834
 20
78.08792242581129
 30
0.0
 10
122.1328381567109
 20
78.06520992410321
 30
0.0
 10
121.8607259581506
 20
78.05769740427372
 30
0.0
 10
121.3150162736788
 20
78.05614132957324
 30
0.0
 10
121.0416203195163
 20
78.06256817141421
 30
0.0
 10
120.2213984424471
 20
78.09279317171504
 30
0.0
 10
119.6730630451313
 20
78.12748869283213
 30
0.0
 10
119.1254233329324
 20
78.16166525783333
 30
0.0
  0
LINE
  5
9B
330
1F
100
AcDbEntity
  8
0
  6
Continuous
 62
     7
370
    25
100
AcDbLine
 10
122.4041425951
 20
77.6616652578
 30
0.0
 11
122.4041425951
 21
78.0879224258
 31
0.0
  0
LINE
  5
9C
330
1F
100
AcDbEntity
  8
0
  6
Continuous
 62
     7
370
    25
100
AcDbLine
 10
115.8467040708
 20
77.6616652578
 30
0.0
 11
115.8467040708
 21
78.0879224258
 31
0.0
  0
SPLINE
  5
9D
330
1F
100
AcDbEntity
  8
0
  6
Continuous
 62
     7
370
    25
100
AcDbSpline
210
0.0
220
0.0
230
1.0
 70
     8
 71
     3
 72
    12
 73
     8
 74
     0
 42
0.000000001
 43
0.00000001
 40
0.0
 40
0.0
 40
0.0
 40
0.0
 40
0.2499999999999999
 40
0.2499999999999999
 40
0.4999999999999999
 40
0.4999999999999999
 40
1.0
 40
1.0
 40
1.0
 40
1.0
 10
115.8467040707814
 20
78.08792242581127
 30
0.0
 10
116.1180085091665
 20
78.06520992410216
 30
0.0
 10
116.3901207077395
 20
78.05769740427296
 30
0.0
 10
116.9358303922367
 20
78.05614132957378
 30
0.0
 10
117.2092263464119
 20
78.06256817141583
 30
0.0
 10
118.0294482235193
 20
78.0927931717202
 30
0.0
 10
118.5777836207058
 20
78.1274886928444
 30
0.0
 10
119.1254233329324
 20
78.16166525783333
 30
0.0
  0
SPLINE
  5
9E
330
1F
100
AcDbEntity
  8
0
  6
Continuous
 62
     7
370
    25
100
AcDbSpline
210
0.0
220
0.0
230
1.0
 70
     8
 71
     3
 72
    12
 73
     8
 74
     0
 42
0.000000001
 43
0.00000001
 40
0.0
 40
0.0
 40
0.0
 40
0.0
 40
0.2500000000000001
 40
0.2500000000000001
 40
0.5000000000000002
 40
0.5000000000000002
 40
1.0
 40
1.0
 40
1.0
 40
1.0
 10
115.8467040707814
 20
77.66166525783333
 30
0.0
 10
116.1242260766912
 20
77.66166525783333
 30
0.0
 10
116.400362403624
 20
77.68138820324126
 30
0.0
 10
116.9511462670365
 20
77.7420246680025
 30
0.0
 10
117.2253546635619
 20
77.78328121369087
 30
0.0
 10
118.0435109412107
 20
77.92505452336295
 30
0.0
 10
118.5844738563157
 20
78.04362156852328
 30
0.0
 10
119.1254233329324
 20
78.16166525783333
 30
0.0
  0
ARC
  5
9F
330
1F
100
AcDbEntity
  8
0
  6
Continuous
 62
     7
370
    25
100
AcDbCircle
 10
123.4441673329
 20
78.6727030329
 30
0.0
 40
1.193155402138065
100
AcDbArc
 50
187.6349315662
 51
209.347988814
  0
SPLINE
  5
A0
330
1F
100
AcDbEntity
  8
0
  6
Continuous
 62
     7
370
    25
100
AcDbSpline
210
0.0
220
0.0
230
1.0
 70
     8
 71
     3
 72
    12
 73
     8
 74
     0
 42
0.000000001
 43
0.00000001
 40
0.0
 40
0.0
 40
0.0
 40
0.0
 40
0.25
 40
0.25
 40
0.5
 40
0.5
 40
1.0
 40
1.0
 40
1.0
 40
1.0
 10
122.2615895836855
 20
78.51417959378922
 30
0.0
 10
122.0096214824995
 20
78.46613762315933
 30
0.0
 10
121.7540229638419
 20
78.42944398051571
 30
0.0
 10
121.237496598981
 20
78.36345329909098
 30
0.0
 10
120.9760764396606
 20
78.33467981091405
 30
0.0
 10
120.1883926853222
 20
78.25420410390332
 30
0.0
 10
119.6563811126869
 20
78.20807440066007
 30
0.0
 10
119.1254233329324
 20
78.16166525783333
 30
0.0
  0
ARC
  5
A1
330
1F
100
AcDbEntity
  8
0
  6
Continuous
 62
     7
370
    25
100
AcDbCircle
 10
114.806679333
 20
78.6727030329
 30
0.0
 40
1.193155402138524
100
AcDbArc
 50
330.652011186
 51
352.3650684338
  0
SPLINE
  5
A2
330
1F
100
AcDbEntity
  8
0
  6
Continuous
 62
     7
370
    25
100
AcDbSpline
210
0.0
220
0.0
230
1.0
 70
     8
 71
     3
 72
    12
 73
     8
 74
     0
 42
0.000000001
 43
0.00000001
 40
0.0
 40
0.0
 40
0.0
 40
0.0
 40
0.2499999999999999
 40
0.2499999999999999
 40
0.4999999999999999
 40
0.4999999999999999
 40
1.0
 40
1.0
 40
1.0
 40
1.0
 10
115.9892570821794
 20
78.51417959378921
 30
0.0
 10
116.2411373181443
 20
78.46615437614652
 30
0.0
 10
116.4966455086279
 20
78.4294701058716
 30
0.0
 10
117.0129878998078
 20
78.36349621294222
 30
0.0
 10
117.2741569513801
 20
78.33474458037395
 30
0.0
 10
118.0625538502535
 20
78.25418967958399
 30
0.0
 10
118.5946507052289
 20
78.20805820296417
 30
0.0
 10
119.1254233329324
 20
78.16166525783333
 30
0.0
  0
ARC
  5
A3
330
1F
100
AcDbEntity
  8
0
  6
Continuous
 62
     7
370
    25
100
AcDbCircle
 10
113.1254233329
 20
61.1616652578
 30
0.0
 40
3.5
100
AcDbArc
 50
180.0
 51
270.0
  0
LINE
  5
A4
330
1F
100
AcDbEntity
  8
0
  6
Continuous
 62
     7
370
    25
100
AcDbLine
 10
113.1254233329
 20
57.6616652578
 30
0.0
 11
113.1254233329
 21
57.1616652578
 31
0.0
  0
ARC
  5
A5
330
1F
100
AcDbEntity
  8
0
  6
Continuous
 62
     7
370
    25
100
AcDbCircle
 10
113.1254233329
 20
61.1616652578
 30
0.0
 40
4.0
100
AcDbArc
 50
180.0
 51
270.0
  0
LINE
  5
A6
330
1F
100
AcDbEntity
  8
0
  6
Continuous
 62
     7
370
    25
100
AcDbLine
 10
109.6254233329
 20
61.1616652578
 30
0.0
 11
109.1254233329
 21
61.1616652578
 31
0.0
  0
ARC
  5
A7
330
1F
100
AcDbEntity
  8
0
  6
Continuous
 62
     7
370
    25
100
AcDbCircle
 10
109.6254233329
 20
77.6616652578
 30
0.0
 40
0.5
100
AcDbArc
 50
90.0
 51
180.0
  0
LINE
  5
A8
330
1F
100
AcDbEntity
  8
0
  6
Continuous
 62
     7
370
    25
100
AcDbLine
 10
109.6254233329
 20
78.1616652578
 30
0.0
 11
109.6254233329
 21
77.6616652578
 31
0.0
  0
LINE
  5
A9
330
1F
100
AcDbEntity
  8
0
  6
Continuous
 62
     7
370
    25
100
AcDbLine
 10
109.6254233329
 20
77.6616652578
 30
0.0
 11
109.1254233329
 21
77.6616652578
 31
0.0
  0
LINE
  5
AA
330
1F
100
AcDbEntity
  8
0
  6
Continuous
 62
     7
370
    25
100
AcDbLine
 10
129.6254233329
 20
70.44038452
 30
0.0
 11
129.6254233329
 21
76.7474516955
 31
0.0
  0
SPLINE
  5
AB
330
1F
100
AcDbEntity
  8
0
  6
Continuous
 62
     7
370
    25
100
AcDbSpline
210
0.0
220
0.0
230
1.0
 70
     8
 71
     3
 72
    12
 73
     8
 74
     0
 42
0.000000001
 43
0.00000001
 40
0.0
 40
0.0
 40
0.0
 40
0.0
 40
0.2499999999999993
 40
0.2499999999999993
 40
0.4999999999999987
 40
0.4999999999999987
 40
1.0
 40
1.0
 40
1.0
 40
1.0
 10
130.1254233329324
 20
77.16166525783333
 30
0.0
 10
130.1254233329324
 20
77.16166525783333
 30
0.0
 10
130.1075960372361
 20
77.14359982994235
 30
0.0
 10
130.0483059379817
 20
77.08693858840715
 30
0.0
 10
130.0077084266186
 20
77.04941622888502
 30
0.0
 10
129.8664238829296
 20
76.92688946479203
 30
0.0
 10
129.7475853937435
 20
76.83391465629552
 30
0.0
 10
129.6254233329324
 20
76.74745169546023
 30
0.0
  0
LINE
  5
AC
330
1F
100
AcDbEntity
  8
0
  6
Continuous
 62
     7
370
    25
100
AcDbLine
 10
130.1254233329
 20
77.1616652578
 30
0.0
 11
130.1254233329
 21
71.8520810177
 31
0.0
  0
SPLINE
  5
AD
330
1F
100
AcDbEntity
  8
0
  6
Continuous
 62
     7
370
    25
100
AcDbSpline
210
0.0
220
0.0
230
1.0
 70
     8
 71
     3
 72
     8
 73
     4
 74
     0
 42
0.000000001
 43
0.00000001
 40
0.0
 40
0.0
 40
0.0
 40
0.0
 40
1.0
 40
1.0
 40
1.0
 40
1.0
 10
130.0516805009104
 20
70.4403845199843
 30
0.0
 10
130.0947616857488
 20
70.91282547593809
 30
0.0
 10
130.1254233329324
 20
71.38395065429752
 30
0.0
 10
130.1254233329324
 20
71.85208101765676
 30
0.0
  0
SPLINE
  5
AE
330
1F
100
AcDbEntity
  8
0
  6
Continuous
 62
     7
370
    25
100
AcDbSpline
210
0.0
220
0.0
230
1.0
 70
     8
 71
     3
 72
     8
 73
     4
 74
     0
 42
0.000000001
 43
0.00000001
 40
0.0
 40
0.0
 40
0.0
 40
0.0
 40
1.0
 40
1.0
 40
1.0
 40
1.0
 10
130.1254233329324
 20
62.4712494980099
 30
0.0
 10
130.1254233329324
 20
62.93947392178345
 30
0.0
 10
130.0947663029488
 20
63.41045440615306
 30
0.0
 10
130.0516805009104
 20
63.88294599568233
 30
0.0
  0
LINE
  5
AF
330
1F
100
AcDbEntity
  8
0
  6
Continuous
 62
     7
370
    25
100
AcDbLine
 10
130.1254233329
 20
62.471249498
 30
0.0
 11
130.1254233329
 21
57.6616652578
 31
0.0
  0
LINE
  5
B0
330
1F
100
AcDbEntity
  8
0
  6
Continuous
 62
     7
370
    25
100
AcDbLine
 10
129.6254233329
 20
57.6616652578
 30
0.0
 11
130.1254233329
 21
57.6616652578
 31
0.0
  0
LINE
  5
B1
330
1F
100
AcDbEntity
  8
0
  6
Continuous
 62
     7
370
    25
100
AcDbLine
 10
129.6254233329
 20
57.6616652578
 30
0.0
 11
129.6254233329
 21
63.8829459957
 31
0.0
  0
SPLINE
  5
B2
330
1F
100
AcDbEntity
  8
0
  6
Continuous
 62
     7
370
    25
100
AcDbSpline
210
0.0
220
0.0
230
1.0
 70
     8
 71
     3
 72
     8
 73
     4
 74
     0
 42
0.000000001
 43
0.00000001
 40
0.0
 40
0.0
 40
0.0
 40
0.0
 40
1.0
 40
1.0
 40
1.0
 40
1.0
 10
113.1254233329324
 20
57.11818699696376
 30
0.0
 10
112.9970252276021
 20
57.11818699696376
 30
0.0
 10
112.8699071999765
 20
57.12343157040718
 30
0.0
 10
112.7439821038267
 20
57.13367836670739
 30
0.0
  0
LINE
  5
B3
330
1F
100
AcDbEntity
  8
0
  6
Continuous
 62
     7
370
    25
100
AcDbLine
 10
129.6254233329
 20
57.118186997
 30
0.0
 11
113.1254233329
 21
57.118186997
 31
0.0
  0
SPLINE
  5
B4
330
1F
100
AcDbEntity
  8
0
  6
Continuous
 62
     7
370
    25
100
AcDbSpline
210
0.0
220
0.0
230
1.0
 70
     8
 71
     3
 72
    16
 73
    12
 74
     0
 42
0.000000001
 43
0.00000001
 40
0.0
 40
0.0
 40
0.0
 40
0.0
 40
0.1249999999999998
 40
0.1249999999999998
 40
0.2499999999999995
 40
0.2499999999999995
 40
0.4999999999999997
 40
0.4999999999999997
 40
0.7499999999999998
 40
0.7499999999999998
 40
1.0
 40
1.0
 40
1.0
 40
1.0
 10
129.6254233329324
 20
57.11818699696376
 30
0.0
 10
129.7255916794721
 20
57.11818699696376
 30
0.0
 10
129.8219402220311
 20
57.13324809734421
 30
0.0
 10
129.9868809992203
 20
57.17908367450229
 30
0.0
 10
130.0573420509344
 20
57.20937229330144
 30
0.0
 10
130.2415227629621
 20
57.30928377997054
 30
0.0
 10
130.3328348393117
 20
57.3895336232483
 30
0.0
 10
130.4784317869099
 20
57.56324130187358
 30
0.0
 10
130.5323607438604
 20
57.65812168668322
 30
0.0
 10
130.6055803768055
 20
57.85762304070198
 30
0.0
 10
130.6254233329324
 20
57.96301376140303
 30
0.0
 10
130.6254233329324
 20
58.07470873609419
 30
0.0
  0
LINE
  5
B5
330
1F
100
AcDbEntity
  8
0
  6
Continuous
 62
     7
370
    25
100
AcDbLine
 10
130.6254233329
 20
62.675180618
 30
0.0
 11
130.6254233329
 21
58.0747087361
 31
0.0
  0
SPLINE
  5
B6
330
1F
100
AcDbEntity
  8
0
  6
Continuous
 62
     7
370
    25
100
AcDbSpline
210
0.0
220
0.0
230
1.0
 70
     8
 71
     3
 72
     8
 73
     4
 74
     0
 42
0.000000001
 43
0.00000001
 40
0.0
 40
0.0
 40
0.0
 40
0.0
 40
1.0
 40
1.0
 40
1.0
 40
1.0
 10
130.4779376688883
 20
64.0254990070802
 30
0.0
 10
130.5651288484468
 20
63.5682031121475
 30
0.0
 10
130.6254233329324
 20
63.11896291591361
 30
0.0
 10
130.6254233329324
 20
62.67518061800222
 30
0.0
  0
SPLINE
  5
B7
330
1F
100
AcDbEntity
  8
0
  6
Continuous
 62
     7
370
    25
100
AcDbSpline
210
0.0
220
0.0
230
1.0
 70
     8
 71
     3
 72
     8
 73
     4
 74
     0
 42
0.000000001
 43
0.00000001
 40
0.0
 40
0.0
 40
0.0
 40
0.0
 40
1.0
 40
1.0
 40
1.0
 40
1.0
 10
130.6254233329324
 20
71.64814989766444
 30
0.0
 10
130.6254233329324
 20
71.20436759975301
 30
0.0
 10
130.5651288484468
 20
70.75512740351908
 30
0.0
 10
130.4779376688883
 20
70.29783150858636
 30
0.0
  0
LINE
  5
B8
330
1F
100
AcDbEntity
  8
0
  6
Continuous
 62
     7
370
    25
100
AcDbLine
 10
130.6254233329
 20
77.6834036557
 30
0.0
 11
130.6254233329
 21
71.6481498977
 31
0.0
  0
SPLINE
  5
B9
330
1F
100
AcDbEntity
  8
0
  6
Continuous
 62
     7
370
    25
100
AcDbSpline
210
0.0
220
0.0
230
1.0
 70
     8
 71
     3
 72
    14
 73
    10
 74
     0
 42
0.000000001
 43
0.00000001
 40
0.0
 40
0.0
 40
0.0
 40
0.0
 40
0.1250000000000012
 40
0.1250000000000012
 40
0.2500000000000024
 40
0.2500000000000024
 40
0.500000000000002
 40
0.500000000000002
 40
1.0
 40
1.0
 40
1.0
 40
1.0
 10
130.083757781876
 20
77.20680695057652
 30
0.0
 10
130.1504418585619
 20
77.20147314404586
 30
0.0
 10
130.2196149044397
 20
77.21060905737032
 30
0.0
 10
130.3275154925613
 20
77.24262583582542
 30
0.0
 10
130.3695462064769
 20
77.2640916524363
 30
0.0
 10
130.4741757016872
 20
77.33138728701964
 30
0.0
 10
130.5157103712932
 20
77.37937268598064
 30
0.0
 10
130.6091892974797
 20
77.51943903903044
 30
0.0
 10
130.6254232086188
 20
77.60577356888041
 30
0.0
 10
130.6254233329318
 20
77.68340365570283
 30
0.0
  0
SPLINE
  5
BA
330
1F
100
AcDbEntity
  8
0
  6
Continuous
 62
     7
370
    25
100
AcDbSpline
210
0.0
220
0.0
230
1.0
 70
     8
 71
     3
 72
    12
 73
     8
 74
     0
 42
0.000000001
 43
0.00000001
 40
0.0
 40
0.0
 40
0.0
 40
0.0
 40
0.2499999999999999
 40
0.2499999999999999
 40
0.4999999999999999
 40
0.4999999999999999
 40
1.0
 40
1.0
 40
1.0
 40
1.0
 10
129.1254233329324
 20
78.16166525783333
 30
0.0
 10
129.1254233329324
 20
78.16166525783333
 30
0.0
 10
129.1073579050414
 20
78.14383796213698
 30
0.0
 10
129.0506966635062
 20
78.08454786288259
 30
0.0
 10
129.0131743039841
 20
78.04395035151948
 30
0.0
 10
128.8906475398911
 20
77.90266580783052
 30
0.0
 10
128.7976727313948
 20
77.78382731864433
 30
0.0
 10
128.7112097705593
 20
77.66166525783333
 30
0.0
  0
LINE
  5
BB
330
1F
100
AcDbEntity
  8
0
  6
Continuous
 62
     7
370
    25
100
AcDbLine
 10
128.7112097706
 20
77.6616652578
 30
0.0
 11
122.4041425951
 21
77.6616652578
 31
0.0
  0
SPLINE
  5
BC
330
1F
100
AcDbEntity
  8
0
  6
Continuous
 62
     7
370
    25
100
AcDbSpline
210
0.0
220
0.0
230
1.0
 70
     8
 71
     3
 72
     8
 73
     4
 74
     0
 42
0.000000001
 43
0.00000001
 40
0.0
 40
0.0
 40
0.0
 40
0.0
 40
1.0
 40
1.0
 40
1.0
 40
1.0
 10
123.8158390927558
 20
78.16166525783333
 30
0.0
 10
123.3476146689823
 20
78.16166525783333
 30
0.0
 10
122.8766341846127
 20
78.13100822784976
 30
0.0
 10
122.4041425950834
 20
78.08792242581129
 30
0.0
  0
LINE
  5
BD
330
1F
100
AcDbEntity
  8
0
  6
Continuous
 62
     7
370
    25
100
AcDbLine
 10
123.8158390928
 20
78.1616652578
 30
0.0
 11
129.1254233329
 21
78.1616652578
 31
0.0
  0
LINE
  5
BE
330
1F
100
AcDbEntity
  8
0
  6
Continuous
 62
     7
370
    25
100
AcDbLine
 10
113.1254233329
 20
57.6616652578
 30
0.0
 11
129.6254233329
 21
57.6616652578
 31
0.0
  0
LINE
  5
BF
330
1F
100
AcDbEntity
  8
0
  6
Continuous
 62
     7
370
    25
100
AcDbLine
 10
129.6254233329
 20
57.1616652578
 30
0.0
 11
129.6254233329
 21
57.6616652578
 31
0.0
  0
LINE
  5
C0
330
1F
100
AcDbEntity
  8
0
  6
Continuous
 62
     7
370
    25
100
AcDbLine
 10
129.6254233329
 20
57.1616652578
 30
0.0
 11
113.1254233329
 21
57.1616652578
 31
0.0
  0
ELLIPSE
  5
C1
330
1F
100
AcDbEntity
  8
0
  6
Continuous
 62
     7
370
    25
100
AcDbEllipse
 10
126.1257927825
 20
63.5149363067
 30
0.0
 11
0.6783923571545216
 21
9.308109838457312E-13
 31
0.0
210
0.0
220
0.0
230
1.0
 40
0.9531667975
 41
0.4357918987543228
 42
2.705800754832867
  0
LINE
  5
C2
330
1F
100
AcDbEntity
  8
0
  6
Continuous
 62
     7
370
    25
100
AcDbLine
 10
124.2002908048
 20
60.1237516461
 30
0.0
 11
125.510805659
 21
63.7878934366
 31
0.0
  0
ELLIPSE
  5
C3
330
1F
100
AcDbEntity
  8
0
  6
Continuous
 62
     7
370
    25
100
AcDbEllipse
 10
123.5320836866
 20
60.340881023
 30
0.0
 11
-0.7059692822418667
 21
9.947598300641401E-14
 31
0.0
210
0.0
220
0.0
230
1.0
 40
0.9531667975
 41
1.047197551197141
 42
2.813039483038467
  0
LINE
  5
C4
330
1F
100
AcDbEntity
  8
0
  6
Continuous
 62
     7
370
    25
100
AcDbLine
 10
123.1254233329
 20
59.7876652578
 30
0.0
 11
123.1790990454
 21
59.7581269171
 31
0.0
  0
LINE
  5
C5
330
1F
100
AcDbEntity
  8
0
  6
Continuous
 62
     7
370
    25
100
AcDbLine
 10
123.9540354869
 20
58.2080540715
 30
0.0
 11
123.1254233329
 21
59.7876652578
 31
0.0
  0
ELLIPSE
  5
C6
330
1F
100
AcDbEntity
  8
0
  6
Continuous
 62
     7
370
    25
100
AcDbEllipse
 10
124.0329652521
 20
58.2456706873
 30
0.0
 11
0.08824616028026354
 21
0.0
 31
0.0
210
0.0
220
0.0
230
1.0
 40
0.9531667975
 41
3.605240262590493
 42
5.462183310215178
  0
ELLIPSE
  5
C7
330
1F
100
AcDbEntity
  8
0
  6
Continuous
 62
     7
370
    25
100
AcDbEllipse
 10
126.1257927825
 20
56.1035022803
 30
0.0
 11
2.982720217472917
 21
-4.973799150320701E-13
 31
0.0
210
0.0
220
0.0
230
1.0
 40
0.9531667975
 41
0.8210019969646101
 42
2.320590656625475
  0
ELLIPSE
  5
C8
330
1F
100
AcDbEntity
  8
0
  6
Continuous
 62
     7
370
    25
100
AcDbEllipse
 10
128.2186203128
 20
58.2456706873
 30
0.0
 11
0.08824616028022091
 21
2.842170943040400E-14
 31
0.0
210
0.0
220
0.0
230
1.0
 40
0.9531667975
 41
3.962594650553672
 42
5.819537698178522
  0
LINE
  5
C9
330
1F
100
AcDbEntity
  8
0
  6
Continuous
 62
     7
370
    25
100
AcDbLine
 10
129.126162232
 20
59.7876652578
 30
0.0
 11
128.297550078
 21
58.2080540715
 31
0.0
  0
LINE
  5
CA
330
1F
100
AcDbEntity
  8
0
  6
Continuous
 62
     7
370
    25
100
AcDbLine
 10
129.0828201258
 20
59.7628969635
 30
0.0
 11
129.126162232
 21
59.7876652578
 31
0.0
  0
ELLIPSE
  5
CB
330
1F
100
AcDbEntity
  8
0
  6
Continuous
 62
     7
370
    25
100
AcDbEllipse
 10
128.7198073475
 20
60.3400269447
 30
0.0
 11
-0.7059692822421083
 21
-1.847411112976260E-13
 31
0.0
210
0.0
220
0.0
230
1.0
 40
0.9531667975
 41
0.3285531705511873
 42
2.110876526947638
  0
LINE
  5
CC
330
1F
100
AcDbEntity
  8
0
  6
Continuous
 62
     7
370
    25
100
AcDbLine
 10
126.7407799059
 20
63.7878934366
 30
0.0
 11
128.0516002293
 21
60.1228975678
 31
0.0
  0
LINE
  5
CD
330
1F
100
AcDbEntity
  8
0
  6
Continuous
 62
     7
370
    25
100
AcDbLine
 10
109.6254233329
 20
77.6616652578
 30
0.0
 11
109.6254233329
 21
61.1616652578
 31
0.0
  0
LINE
  5
CE
330
1F
100
AcDbEntity
  8
0
  6
Continuous
 62
     7
370
    25
100
AcDbLine
 10
115.8467040708
 20
77.6616652578
 30
0.0
 11
109.6254233329
 21
77.6616652578
 31
0.0
  0
ARC
  5
CF
330
1F
100
AcDbEntity
  8
0
  6
Continuous
 62
     7
370
    25
100
AcDbCircle
 10
130.1254233329
 20
78.1616652578
 30
0.0
 40
1.500000000000011
100
AcDbArc
 50
199.4712206345
 51
250.5287793655
  0
ARC
  5
D0
330
1F
100
AcDbEntity
  8
0
  6
Continuous
 62
     7
370
    25
100
AcDbCircle
 10
129.6254233329
 20
57.6616652578
 30
0.0
 40
0.5
100
AcDbArc
 50
270.0
 51
0.0
  0
LINE
  5
D1
330
1F
100
AcDbEntity
  8
0
  6
Continuous
 62
     7
370
    25
100
AcDbLine
 10
109.1254233329
 20
61.1616652578
 30
0.0
 11
109.1254233329
 21
77.6616652578
 31
0.0
  0
SPLINE
  5
D2
330
1F
100
AcDbEntity
  8
0
  6
Continuous
 62
     7
370
    25
100
AcDbSpline
210
0.0
220
0.0
230
1.0
 70
     8
 71
     3
 72
     8
 73
     4
 74
     0
 42
0.000000001
 43
0.00000001
 40
0.0
 40
0.0
 40
0.0
 40
0.0
 40
1.0
 40
1.0
 40
1.0
 40
1.0
 10
115.8467040707814
 20
78.08792242581129
 30
0.0
 10
115.3742631148276
 20
78.13100361064966
 30
0.0
 10
114.9031379364682
 20
78.16166525783333
 30
0.0
 10
114.4350075731089
 20
78.16166525783333
 30
0.0
  0
LINE
  5
D3
330
1F
100
AcDbEntity
  8
0
  6
Continuous
 62
     7
370
    25
100
AcDbLine
 10
109.6254233329
 20
78.1616652578
 30
0.0
 11
114.4350075731
 21
78.1616652578
 31
0.0
  0
SPLINE
  5
D4
330
1F
100
AcDbEntity
  8
0
  6
Continuous
 62
     7
370
    25
100
AcDbSpline
210
0.0
220
0.0
230
1.0
 70
     8
 71
     3
 72
    14
 73
    10
 74
     0
 42
0.000000001
 43
0.00000001
 40
0.0
 40
0.0
 40
0.0
 40
0.0
 40
0.4999999999999986
 40
0.4999999999999986
 40
0.7499999999999978
 40
0.7499999999999978
 40
0.8749999999999989
 40
0.8749999999999989
 40
1.0
 40
1.0
 40
1.0
 40
1.0
 10
129.6471617286505
 20
78.66166525783274
 30
0.0
 10
129.5695316405673
 20
78.66166513315461
 30
0.0
 10
129.4831971094006
 20
78.64543122107078
 30
0.0
 10
129.3431307553197
 20
78.55195229142687
 30
0.0
 10
129.2951453550223
 20
78.51041761995853
 30
0.0
 10
129.227849719381
 20
78.40578811649767
 30
0.0
 10
129.2063839030143
 20
78.3637573996266
 30
0.0
 10
129.1743671272644
 20
78.2558568029762
 30
0.0
 10
129.165231217707
 20
78.18668375233456
 30
0.0
 10
129.1705650281127
 20
78.11999967630777
 30
0.0
  0
LINE
  5
D5
330
1F
100
AcDbEntity
  8
0
  6
Continuous
 62
     7
370
    25
100
AcDbLine
 10
123.6119079728
 20
78.6616652578
 30
0.0
 11
129.6471617287
 21
78.6616652578
 31
0.0
  0
SPLINE
  5
D6
330
1F
100
AcDbEntity
  8
0
  6
Continuous
 62
     7
370
    25
100
AcDbSpline
210
0.0
220
0.0
230
1.0
 70
     8
 71
     3
 72
     8
 73
     4
 74
     0
 42
0.000000001
 43
0.00000001
 40
0.0
 40
0.0
 40
0.0
 40
0.0
 40
1.0
 40
1.0
 40
1.0
 40
1.0
 10
122.2615895836855
 20
78.51417959378922
 30
0.0
 10
122.7188854786182
 20
78.60137077334772
 30
0.0
 10
123.1681256748521
 20
78.66166525783333
 30
0.0
 10
123.6119079727635
 20
78.66166525783333
 30
0.0
  0
SPLINE
  5
D7
330
1F
100
AcDbEntity
  8
0
  6
Continuous
 62
     7
370
    25
100
AcDbSpline
210
0.0
220
0.0
230
1.0
 70
     8
 71
     3
 72
     8
 73
     4
 74
     0
 42
0.000000001
 43
0.00000001
 40
0.0
 40
0.0
 40
0.0
 40
0.0
 40
1.0
 40
1.0
 40
1.0
 40
1.0
 10
114.6389386931013
 20
78.66166525783333
 30
0.0
 10
115.0827209910127
 20
78.66166525783333
 30
0.0
 10
115.5319611872466
 20
78.60137077334772
 30
0.0
 10
115.9892570821794
 20
78.51417959378921
 30
0.0
  0
LINE
  5
D8
330
1F
100
AcDbEntity
  8
0
  6
Continuous
 62
     7
370
    25
100
AcDbLine
 10
110.0384668112
 20
78.6616652578
 30
0.0
 11
114.6389386931
 21
78.6616652578
 31
0.0
  0
SPLINE
  5
D9
330
1F
100
AcDbEntity
  8
0
  6
Continuous
 62
     7
370
    25
100
AcDbSpline
210
0.0
220
0.0
230
1.0
 70
     8
 71
     3
 72
    18
 73
    14
 74
     0
 42
0.000000001
 43
0.00000001
 40
0.0
 40
0.0
 40
0.0
 40
0.0
 40
0.25
 40
0.25
 40
0.5
 40
0.5
 40
0.625
 40
0.625
 40
0.75
 40
0.75
 40
0.875
 40
0.875
 40
1.0
 40
1.0
 40
1.0
 40
1.0
 10
110.0384668111933
 20
78.66166525783333
 30
0.0
 10
109.9266750386176
 20
78.66166525783333
 30
0.0
 10
109.8212990436454
 20
78.64179228830753
 30
0.0
 10
109.6219601657565
 20
78.56863206991473
 30
0.0
 10
109.5271291203104
 20
78.51475533607952
 30
0.0
 10
109.3968571924254
 20
78.40560568009147
 30
0.0
 10
109.3555289807825
 20
78.36459693676875
 30
0.0
 10
109.2773588362189
 20
78.27054662275265
 30
0.0
 10
109.2401556747939
 20
78.21707608065556
 30
0.0
 10
109.1731376515359
 20
78.09366193739035
 30
0.0
 10
109.1429585851544
 20
78.02347287266682
 30
0.0
 10
109.0970112338188
 20
77.85827066152106
 30
0.0
 10
109.0819450720628
 20
77.76231108006532
 30
0.0
 10
109.0819450720628
 20
77.66166525783333
 30
0.0
  0
LINE
  5
DA
330
1F
100
AcDbEntity
  8
0
  6
Continuous
 62
     7
370
    25
100
AcDbLine
 10
109.0819450721
 20
61.1616652578
 30
0.0
 11
109.0819450721
 21
77.6616652578
 31
0.0
  0
SPLINE
  5
DB
330
1F
100
AcDbEntity
  8
0
  6
Continuous
 62
     7
370
    25
100
AcDbSpline
210
0.0
220
0.0
230
1.0
 70
     8
 71
     3
 72
     8
 73
     4
 74
     0
 42
0.000000001
 43
0.00000001
 40
0.0
 40
0.0
 40
0.0
 40
0.0
 40
1.0
 40
1.0
 40
1.0
 40
1.0
 10
109.0974364425985
 20
60.78022401899378
 30
0.0
 10
109.0871896457784
 20
60.90614911829631
 30
0.0
 10
109.0819450720628
 20
61.03326714916292
 30
0.0
 10
109.0819450720628
 20
61.16166525783333
 30
0.0
  0
ARC
  5
DC
330
1F
100
AcDbEntity
  8
0
  6
Continuous
 62
     7
370
    25
100
AcDbCircle
 10
130.1254233329
 20
78.1616652578
 30
0.0
 40
1.0
100
AcDbArc
 50
180.0
 51
270.0
  0
ELLIPSE
  5
DD
330
1F
100
AcDbEntity
  8
0
  6
Continuous
 62
     7
370
    25
100
AcDbEllipse
 10
126.1257927846
 20
61.0516179879
 30
0.0
 11
0.08824616028024934
 21
0.0
 31
0.0
210
0.0
220
0.0
230
1.0
 40
0.9531667975
 41
0.3430239394902371
 42
2.798568712238779
  0
ELLIPSE
  5
DE
330
1F
100
AcDbEntity
  8
0
  6
Continuous
 62
     7
370
    25
100
AcDbEllipse
 10
125.8097837161
 20
60.2082318078
 30
0.0
 11
-0.08824616028026354
 21
0.0
 31
0.0
210
0.0
220
0.0
230
1.0
 40
0.9531667975
 41
5.940161364898066
 42
7.853981633974483
  0
LINE
  5
DF
330
1F
100
AcDbEntity
  8
0
  6
Continuous
 62
     7
370
    25
100
AcDbLine
 10
126.5249069571
 20
60.2365221753
 30
0.0
 11
126.2088978923
 21
61.0799083554
 31
0.0
  0
LINE
  5
E0
330
1F
100
AcDbEntity
  8
0
  6
Continuous
 62
     7
370
    25
100
AcDbLine
 10
125.8097837161
 20
60.1241184978
 30
0.0
 11
126.4418018493
 21
60.1241184978
 31
0.0
  0
LINE
  5
E1
330
1F
100
AcDbEntity
  8
0
  6
Continuous
 62
     7
370
    25
100
AcDbLine
 10
126.0426876769
 20
61.0799083556
 30
0.0
 11
125.7266786085
 21
60.2365221755
 31
0.0
  0
ELLIPSE
  5
E2
330
1F
100
AcDbEntity
  8
0
  6
Continuous
 62
     7
370
    25
100
AcDbEllipse
 10
126.4418018493
 20
60.2082318078
 30
0.0
 11
0.08824616028027776
 21
1.421085471520200E-14
 31
0.0
210
0.0
220
0.0
230
1.0
 40
0.9531667975
 41
4.712388980384549
 42
6.626209245739421
  0
LWPOLYLINE
  5
E3
330
1F
100
AcDbEntity
  8
0
  6
Continuous
 62
     7
370
    25
100
AcDbPolyline
 90
        9
 70
   128
 43
0.0
 10
130.1254233329
 20
71.8520810177
 10
130.1350306927
 20
71.8122960298
 10
130.1634835667
 20
71.7740399567
 10
130.2096885268
 20
71.7387829578
 10
130.2718699423
 20
71.7078799398
 10
130.3476382164
 20
71.6825184884
 10
130.4340816167
 20
71.6636732299
 10
130.5278781719
 20
71.652068377
 10
130.6254233329
 20
71.6481498977
  0
LWPOLYLINE
  5
E4
330
1F
100
AcDbEntity
  8
0
  6
Continuous
 62
     7
370
    25
100
AcDbPolyline
 90
        9
 70
   128
 43
0.0
 10
123.8158390928
 20
78.1616652578
 10
123.7760541049
 20
78.1712726176
 10
123.7377980318
 20
78.1997254916
 10
123.7025410329
 20
78.2459304517
 10
123.6716380149
 20
78.3081118672
 10
123.6462765635
 20
78.3838801413
 10
123.627431305
 20
78.4703235417
 10
123.6158264521
 20
78.5641200968
 10
123.6119079728
 20
78.6616652578
  0
LWPOLYLINE
  5
E5
330
1F
100
AcDbEntity
  8
0
  6
Continuous
 62
     7
370
    25
100
AcDbPolyline
 90
        9
 70
   128
 43
0.0
 10
114.4350075731
 20
78.1616652578
 10
114.474792561
 20
78.1712726176
 10
114.5130486341
 20
78.1997254916
 10
114.548305633
 20
78.2459304517
 10
114.579208651
 20
78.3081118672
 10
114.6045701024
 20
78.3838801413
 10
114.6234153609
 20
78.4703235417
 10
114.6350202138
 20
78.5641200968
 10
114.6389386931
 20
78.6616652578
  0
LWPOLYLINE
  5
E6
330
1F
100
AcDbEntity
  8
0
  6
Continuous
 62
     7
370
    25
100
AcDbPolyline
 90
        9
 70
   128
 43
0.0
 10
130.6254233329
 20
62.675180618
 10
130.5278781719
 20
62.6712621387
 10
130.4340816167
 20
62.6596572858
 10
130.3476382164
 20
62.6408120273
 10
130.2718699423
 20
62.6154505759
 10
130.2096885268
 20
62.5845475579
 10
130.1634835667
 20
62.549290559
 10
130.1350306927
 20
62.5110344859
 10
130.1254233329
 20
62.471249498
  0
SPLINE
  5
E7
330
1F
100
AcDbEntity
  8
0
  6
Continuous
 62
     7
370
    25
100
AcDbSpline
210
0.0
220
0.0
230
1.0
 70
     8
 71
     3
 72
    10
 73
     6
 74
     0
 42
0.000000001
 43
0.00000001
 40
0.0
 40
0.0
 40
0.0
 40
0.0
 40
0.5
 40
0.5
 40
1.0
 40
1.0
 40
1.0
 40
1.0
 10
130.1254233329324
 20
77.16166525783333
 30
0.0
 10
130.1254233329324
 20
77.16166525783333
 30
0.0
 10
130.1482357855485
 20
77.16095203117028
 30
0.0
 10
130.2362964293846
 20
77.16685144284288
 30
0.0
 10
130.3030914915689
 20
77.17372219809174
 30
0.0
 10
130.3872150462283
 20
77.19654086230204
 30
0.0
  0
SPLINE
  5
E8
330
1F
100
AcDbEntity
  8
0
  6
Continuous
 62
     7
370
    25
100
AcDbSpline
210
0.0
220
0.0
230
1.0
 70
     8
 71
     3
 72
    12
 73
     8
 74
     0
 42
0.000000001
 43
0.00000001
 40
0.0
 40
0.0
 40
0.0
 40
0.0
 40
0.2499999999999999
 40
0.2499999999999999
 40
0.4999999999999998
 40
0.4999999999999998
 40
1.0
 40
1.0
 40
1.0
 40
1.0
 10
130.3872150462283
 20
77.19654086230204
 30
0.0
 10
130.4483211971581
 20
77.21311601470612
 30
0.0
 10
130.4914175657312
 20
77.25356505246664
 30
0.0
 10
130.5535710493098
 20
77.34001275133343
 30
0.0
 10
130.573498609847
 20
77.38665281633871
 30
0.0
 10
130.6173353036337
 20
77.52237022749162
 30
0.0
 10
130.6241578063887
 20
77.6081825091591
 30
0.0
 10
130.6254233329319
 20
77.6834040213341
 30
0.0
  0
ARC
  5
E9
330
1F
100
AcDbEntity
  8
0
  6
Continuous
 62
     7
370
    25
100
AcDbCircle
 10
109.577368413
 20
78.6219677153
 30
0.0
 40
0.4628040921140234
100
AcDbArc
 50
275.9600073901
 51
4.9206566719
  0
ARC
  5
EA
330
1F
100
AcDbEntity
  8
0
  6
Continuous
 62
     7
370
    25
100
AcDbCircle
 10
130.5857257904
 20
57.6136103379
 30
0.0
 40
0.4628040921140362
100
AcDbArc
 50
85.0793433281
 51
174.0399926099
  0
SPLINE
  5
EB
330
1F
100
AcDbEntity
  8
0
  6
Continuous
 62
     7
370
    25
100
AcDbSpline
210
0.0
220
0.0
230
1.0
 70
     8
 71
     3
 72
    10
 73
     6
 74
     0
 42
0.000000001
 43
0.00000001
 40
0.0
 40
0.0
 40
0.0
 40
0.0
 40
0.5
 40
0.5
 40
1.0
 40
1.0
 40
1.0
 40
1.0
 10
129.1602989374011
 20
78.4234569711292
 30
0.0
 10
129.1374798798352
 20
78.33933196632064
 30
0.0
 10
129.1307338327783
 20
78.27378929074226
 30
0.0
 10
129.1247068520864
 20
78.18502174377932
 30
0.0
 10
129.1254233329324
 20
78.16166525783333
 30
0.0
 10
129.1254233329324
 20
78.16166525783333
 30
0.0
  0
SPLINE
  5
EC
330
1F
100
AcDbEntity
  8
0
  6
Continuous
 62
     7
370
    25
100
AcDbSpline
210
0.0
220
0.0
230
1.0
 70
     8
 71
     3
 72
    12
 73
     8
 74
     0
 42
0.000000001
 43
0.00000001
 40
0.0
 40
0.0
 40
0.0
 40
0.0
 40
0.5
 40
0.5
 40
0.75
 40
0.75
 40
1.0
 40
1.0
 40
1.0
 40
1.0
 10
129.6471620893994
 20
78.66166525845541
 30
0.0
 10
129.5714249868441
 20
78.66039105574949
 30
0.0
 10
129.4858741901905
 20
78.65349265415477
 30
0.0
 10
129.3505611919469
 20
78.60979032953115
 30
0.0
 10
129.3041468044931
 20
78.59000494433468
 30
0.0
 10
129.2176370872981
 20
78.52796294369972
 30
0.0
 10
129.1768964769015
 20
78.48464565459032
 30
0.0
 10
129.1602989374011
 20
78.42345697112921
 30
0.0
  0
LINE
  5
ED
330
1F
100
AcDbEntity
  8
0
  6
Continuous
 62
     7
370
    25
100
AcDbLine
 10
129.6254233329
 20
57.118186997
 30
0.0
 11
129.6254233329
 21
57.1616652578
 31
0.0
  0
LINE
  5
EE
330
1F
100
AcDbEntity
  8
0
  6
Continuous
 62
     7
370
    25
100
AcDbLine
 10
109.1254233329
 20
77.6616652578
 30
0.0
 11
109.0819450721
 21
77.6616652578
 31
0.0
  0
SPLINE
  5
EF
330
1F
100
AcDbEntity
  8
0
  6
Continuous
 62
     7
370
    25
100
AcDbSpline
210
0.0
220
0.0
230
1.0
 70
     8
 71
     3
 72
    18
 73
    14
 74
     0
 42
0.000000001
 43
0.00000001
 40
0.0
 40
0.0
 40
0.0
 40
0.0
 40
0.2500000000000008
 40
0.2500000000000008
 40
0.3750000000000006
 40
0.3750000000000006
 40
0.5000000000000003
 40
0.5000000000000003
 40
0.7499999999999999
 40
0.7499999999999999
 40
0.8749999999999999
 40
0.8749999999999999
 40
1.0
 40
1.0
 40
1.0
 40
1.0
 10
112.743872929507
 20
57.13373289337135
 30
0.0
 10
112.2774578490022
 20
57.17051775512419
 30
0.0
 10
111.830088080904
 20
57.28579199886966
 30
0.0
 10
111.1885755992278
 20
57.57887980782856
 30
0.0
 10
110.9824477395161
 20
57.69634848262653
 30
0.0
 10
110.598156212944
 20
57.96291649921655
 30
0.0
 10
110.4179517516489
 20
58.11289065428994
 30
0.0
 10
109.9146554041181
 20
58.61508344002746
 30
0.0
 10
109.6451301134469
 20
59.00265819861573
 30
0.0
 10
109.3495517180728
 20
59.64638342357315
 30
0.0
 10
109.2716268929974
 20
59.86619511082679
 30
0.0
 10
109.1548161245466
 20
60.31585133220766
 30
0.0
 10
109.115887137193
 20
60.54685991998952
 30
0.0
 10
109.0974909684704
 20
60.78011485440791
 30
0.0
  0
SPLINE
  5
F0
330
1F
100
AcDbEntity
  8
0
  6
Continuous
 62
     7
370
    25
100
AcDbSpline
210
0.0
220
0.0
230
1.0
 70
     8
 71
     3
 72
     8
 73
     4
 74
     0
 42
0.000000001
 43
0.00000001
 40
0.0
 40
0.0
 40
0.0
 40
0.0
 40
1.0
 40
1.0
 40
1.0
 40
1.0
 10
109.0974364425985
 20
60.78022401899378
 30
0.0
 10
109.1263783272964
 20
60.79479951481888
 30
0.0
 10
109.1409456681862
 20
60.80936666613084
 30
0.0
 10
109.1398193540363
 20
60.82260637886484
 30
0.0
  0
SPLINE
  5
F1
330
1F
100
AcDbEntity
  8
0
  6
Continuous
 62
     7
370
    25
100
AcDbSpline
210
0.0
220
0.0
230
1.0
 70
     8
 71
     3
 72
     8
 73
     4
 74
     0
 42
0.000000001
 43
0.00000001
 40
0.0
 40
0.0
 40
0.0
 40
0.0
 40
1.0
 40
1.0
 40
1.0
 40
1.0
 10
112.743872929507
 20
57.13373289337135
 30
0.0
 10
112.7584104871589
 20
57.16264954802376
 30
0.0
 10
112.7729349548249
 20
57.17720451942441
 30
0.0
 10
112.7861323183076
 20
57.17608103373332
 30
0.0
  0
LINE
  5
F2
330
1F
100
AcDbEntity
  8
0
  6
Continuous
 62
     7
370
    25
100
AcDbLine
 10
113.1254233329
 20
57.118186997
 30
0.0
 11
113.1254233329
 21
57.1616652578
 31
0.0
  0
LINE
  5
F3
330
1F
100
AcDbEntity
  8
0
  6
Continuous
 62
     7
370
    25
100
AcDbLine
 10
109.0819450721
 20
61.1616652578
 30
0.0
 11
109.1254233329
 21
61.1616652578
 31
0.0
  0
SPLINE
  5
F4
330
1F
100
AcDbEntity
  8
0
  6
Continuous
 62
     7
370
    25
100
AcDbSpline
210
0.0
220
0.0
230
1.0
 70
     8
 71
     3
 72
    10
 73
     6
 74
     0
 42
0.000000001
 43
0.00000001
 40
0.0
 40
0.0
 40
0.0
 40
0.0
 40
0.5
 40
0.5
 40
1.0
 40
1.0
 40
1.0
 40
1.0
 10
129.1705292495557
 20
78.11996262142235
 30
0.0
 10
129.1988792981115
 20
77.89440467365934
 30
0.0
 10
129.3075627990067
 20
77.67553524406595
 30
0.0
 10
129.639848022186
 20
77.34344699514142
 30
0.0
 10
129.8581627492871
 20
77.23512122371348
 30
0.0
 10
130.0837206965214
 20
77.20677117445659
 30
0.0
  0
SPLINE
  5
F5
330
1F
100
AcDbEntity
  8
0
  6
Continuous
 62
     7
370
    25
100
AcDbSpline
210
0.0
220
0.0
230
1.0
 70
     8
 71
     3
 72
     8
 73
     4
 74
     0
 42
0.000000001
 43
0.00000001
 40
0.0
 40
0.0
 40
0.0
 40
0.0
 40
1.0
 40
1.0
 40
1.0
 40
1.0
 10
129.1254233329324
 20
78.16166525783333
 30
0.0
 10
129.1254233329324
 20
78.13377914931948
 30
0.0
 10
129.1265877345257
 20
78.10600252909322
 30
0.0
 10
129.1289014177591
 20
78.07833415572058
 30
0.0
  0
LINE
  5
F6
330
1F
100
AcDbEntity
  8
0
  6
Continuous
 62
     8
370
    25
100
AcDbLine
 10
138.1254233329
 20
53.1616652578
 30
0.0
 11
138.1254233329
 21
81.1616652578
 31
0.0
  0
LINE
  5
F7
330
1F
100
AcDbEntity
  8
0
  6
Continuous
 62
     8
370
    25
100
AcDbLine
 10
119.1254233329
 20
86.1616652578
 30
0.0
 11
105.1254233329
 21
86.1616652578
 31
0.0
  0
LINE
  5
F8
330
1F
100
AcDbEntity
  8
0
  6
Continuous
 62
     8
370
    25
100
AcDbLine
 10
133.1254233329
 20
86.1616652578
 30
0.0
 11
119.1254233329
 21
86.1616652578
 31
0.0
  0
LINE
  5
F9
330
1F
100
AcDbEntity
  8
0
  6
Continuous
 62
     8
370
    25
100
AcDbLine
 10
105.8754233329
 20
85.1934194213
 30
0.0
 11
132.3754233329
 21
85.1934194213
 31
0.0
  0
LINE
  5
FA
330
1F
100
AcDbEntity
  8
0
  6
Continuous
 62
     8
370
    25
100
AcDbLine
 10
137.1571774964
 20
80.4116652578
 30
0.0
 11
137.1571774964
 21
53.9116652578
 31
0.0
  0
LINE
  5
FB
330
1F
100
AcDbEntity
  8
0
  6
Continuous
 62
     8
370
    25
100
AcDbLine
 10
134.2524399867
 20
67.1616652578
 30
0.0
 11
134.2524399867
 21
78.1616652578
 31
0.0
  0
LINE
  5
FC
330
1F
100
AcDbEntity
  8
0
  6
Continuous
 62
     8
370
    25
100
AcDbLine
 10
134.2524399867
 20
56.1616652578
 30
0.0
 11
134.2524399867
 21
67.1616652578
 31
0.0
  0
LINE
  5
FD
330
1F
100
AcDbEntity
  8
0
  6
Continuous
 62
     8
370
    25
100
AcDbLine
 10
130.1254233329
 20
82.2886819116
 30
0.0
 11
108.1254233329
 21
82.2886819116
 31
0.0
  0
SPLINE
  5
FE
330
1F
100
AcDbEntity
  8
0
  6
Continuous
 62
     8
370
    25
100
AcDbSpline
210
0.0
220
0.0
230
1.0
 70
     8
 71
     3
 72
    10
 73
     6
 74
     0
 42
0.000000001
 43
0.00000001
 40
-0.4235250761411895
 40
-0.4235250761411895
 40
-0.4235250761411895
 40
-0.4235250761411895
 40
-0.2113930417852252
 40
-0.2113930417852252
 40
0.0
 40
0.0
 40
0.0
 40
0.0
 10
112.1252713178508
 20
56.16166526075924
 30
0.0
 10
112.1252713178508
 20
56.16166526075924
 30
0.0
 10
112.1779699949401
 20
56.24447565723009
 30
0.0
 10
112.3860450203719
 20
56.5714436979698
 30
0.0
 10
112.5412994889367
 20
56.8154098555735
 30
0.0
 10
112.743931240807
 20
57.1338245234987
 30
0.0
  0
SPLINE
  5
FF
330
1F
100
AcDbEntity
  8
0
  6
Continuous
 62
     8
370
    25
100
AcDbSpline
210
0.0
220
0.0
230
1.0
 70
    24
 71
     3
 72
    10
 73
     6
 74
     0
 42
0.000000001
 43
0.00000001
 40
0.0
 40
0.0
 40
0.0
 40
0.0
 40
0.2169967701183235
 40
0.2169967701183235
 40
0.4197141586735273
 40
0.4197141586735273
 40
0.4197141586735273
 40
0.4197141586735273
 10
130.0836368948979
 20
77.20669435630168
 30
0.0
 10
130.4371681322184
 20
77.53076465717882
 30
0.0
 10
130.7049470968615
 20
77.7762287081017
 30
0.0
 10
131.0429543514452
 20
78.0860686914701
 30
0.0
 10
131.125423332932
 20
78.16166525783294
 30
0.0
 10
131.1254233329324
 20
78.16166525783333
 30
0.0
  0
SPLINE
  5
100
330
1F
100
AcDbEntity
  8
0
  6
Continuous
 62
     8
370
    25
100
AcDbSpline
210
0.0
220
0.0
230
1.0
 70
    24
 71
     3
 72
    10
 73
     6
 74
     0
 42
0.000000001
 43
0.00000001
 40
0.0
 40
0.0
 40
0.0
 40
0.0
 40
0.2027173885552038
 40
0.2027173885552038
 40
0.4197141589608902
 40
0.4197141589608902
 40
0.4197141589608902
 40
0.4197141589608902
 10
130.1254233329324
 20
79.16166525783333
 30
0.0
 10
130.125423332932
 20
79.16166525783291
 30
0.0
 10
130.0498267665692
 20
79.07919627634617
 30
0.0
 10
129.7399867829886
 20
78.74118902153104
 30
0.0
 10
129.4945227316278
 20
78.4734100564101
 30
0.0
 10
129.1704524301133
 20
78.11987881839427
 30
0.0
  0
SPLINE
  5
101
330
1F
100
AcDbEntity
  8
0
  6
Continuous
 62
     8
370
    25
100
AcDbSpline
210
0.0
220
0.0
230
1.0
 70
     8
 71
     3
 72
    10
 73
     6
 74
     0
 42
0.000000001
 43
0.00000001
 40
-0.4235250761148888
 40
-0.4235250761148888
 40
-0.4235250761148888
 40
-0.4235250761148888
 40
-0.2121320343559643
 40
-0.2121320343559643
 40
0.0
 40
0.0
 40
0.0
 40
0.0
 10
109.0975825984789
 20
60.7801731656323
 30
0.0
 10
108.7791679306119
 20
60.57754141379898
 30
0.0
 10
108.5352017730486
 20
60.42228694525992
 30
0.0
 10
108.2082337323292
 20
60.21421191984106
 30
0.0
 10
108.1254233358583
 20
60.1615132427517
 30
0.0
 10
108.1254233358583
 20
60.1615132427517
 30
0.0
  0
LINE
  5
102
330
1F
100
AcDbEntity
  8
0
  6
CENTERX2
 62
     7
370
    18
100
AcDbLine
 10
119.1254233329
 20
102.1616652578
 30
0.0
 11
119.1254233329
 21
53.4305038509
 31
0.0
  0
LINE
  5
103
330
1F
100
AcDbEntity
  8
0
  6
CENTERX2
 62
     7
370
    18
100
AcDbLine
 10
105.5326349639
 20
67.1616652578
 30
0.0
 11
154.1254233329
 21
67.1616652578
 31
0.0
  0
ARC
  5
104
330
1F
100
AcDbEntity
  8
0
  6
Continuous
 62
     7
370
    25
100
AcDbCircle
 10
171.5499467996
 20
86.1616652578
 30
0.0
 40
1.0
100
AcDbArc
 50
180.0
 51
255.5224878141
  0
ARC
  5
105
330
1F
100
AcDbEntity
  8
0
  6
Continuous
 62
     7
370
    25
100
AcDbCircle
 10
197.5499467996
 20
86.1616652578
 30
0.0
 40
1.0
100
AcDbArc
 50
284.4775121859
 51
0.0
  0
LINE
  5
106
330
1F
100
AcDbEntity
  8
0
  6
Continuous
 62
     7
370
    25
100
AcDbLine
 10
198.5499467996
 20
86.1616652578
 30
0.0
 11
198.5499467996
 21
100.1616652578
 31
0.0
  0
LINE
  5
107
330
1F
100
AcDbEntity
  8
0
  6
Continuous
 62
     7
370
    25
100
AcDbLine
 10
170.5499467996
 20
100.1616652578
 30
0.0
 11
170.5499467996
 21
86.1616652578
 31
0.0
  0
LINE
  5
108
330
1F
100
AcDbEntity
  8
0
  6
Continuous
 62
     7
370
    25
100
AcDbLine
 10
198.5499467996
 20
100.1616652578
 30
0.0
 11
197.5499467996
 21
101.1616652578
 31
0.0
  0
LINE
  5
109
330
1F
100
AcDbEntity
  8
0
  6
Continuous
 62
     7
370
    25
100
AcDbLine
 10
171.5499467996
 20
101.1616652578
 30
0.0
 11
170.5499467996
 21
100.1616652578
 31
0.0
  0
ARC
  5
10A
330
1F
100
AcDbEntity
  8
0
  6
Continuous
 62
     7
370
    25
100
AcDbCircle
 10
170.5499467996
 20
82.2886819116
 30
0.0
 40
3.0
100
AcDbArc
 50
0.0
 51
75.5224878141
  0
ARC
  5
10B
330
1F
100
AcDbEntity
  8
0
  6
Continuous
 62
     7
370
    25
100
AcDbCircle
 10
198.5499467996
 20
82.2886819116
 30
0.0
 40
3.0
100
AcDbArc
 50
104.4775121859
 51
180.0
  0
LINE
  5
10C
330
1F
100
AcDbEntity
  8
0
  6
Continuous
 62
     7
370
    25
100
AcDbLine
 10
195.5499467996
 20
78.1616652578
 30
0.0
 11
195.5499467996
 21
82.2886819116
 31
0.0
  0
LINE
  5
10D
330
1F
100
AcDbEntity
  8
0
  6
Continuous
 62
     7
370
    25
100
AcDbLine
 10
173.5499467996
 20
82.2886819116
 30
0.0
 11
173.5499467996
 21
78.1616652578
 31
0.0
  0
CIRCLE
  5
10E
330
1F
100
AcDbEntity
  8
0
  6
Continuous
 62
     7
370
    25
100
AcDbCircle
 10
184.5499467996
 20
67.1616652578
 30
0.0
 40
10.75
  0
CIRCLE
  5
10F
330
1F
100
AcDbEntity
  8
0
  6
Continuous
 62
     7
370
    25
100
AcDbCircle
 10
184.5499467996
 20
67.1616652578
 30
0.0
 40
11.77499999999999
  0
CIRCLE
  5
110
330
1F
100
AcDbEntity
  8
0
  6
Continuous
 62
     7
370
    25
100
AcDbCircle
 10
184.5499467996
 20
67.1616652578
 30
0.0
 40
11.89999999999999
  0
CIRCLE
  5
111
330
1F
100
AcDbEntity
  8
0
  6
Continuous
 62
     7
370
    25
100
AcDbCircle
 10
184.5499467996
 20
67.1616652578
 30
0.0
 40
12.99999999999997
  0
CIRCLE
  5
112
330
1F
100
AcDbEntity
  8
0
  6
Continuous
 62
     7
370
    25
100
AcDbCircle
 10
184.5499467996
 20
67.1616652578
 30
0.0
 40
12.02499999999999
  0
CIRCLE
  5
113
330
1F
100
AcDbEntity
  8
0
  6
Continuous
 62
     7
370
    25
100
AcDbCircle
 10
184.5499467996
 20
67.1616652578
 30
0.0
 40
9.798213046580429
  0
CIRCLE
  5
114
330
1F
100
AcDbEntity
  8
0
  6
Continuous
 62
     7
370
    25
100
AcDbCircle
 10
184.5499467996
 20
67.1616652578
 30
0.0
 40
14.0
  0
CIRCLE
  5
115
330
1F
100
AcDbEntity
  8
0
  6
Continuous
 62
     7
370
    25
100
AcDbCircle
 10
184.5499467996
 20
67.1616652578
 30
0.0
 40
9.428250615618282
  0
CIRCLE
  5
116
330
1F
100
AcDbEntity
  8
0
  6
Continuous
 62
     7
370
    25
100
AcDbCircle
 10
184.5499467996
 20
67.1616652578
 30
0.0
 40
9.315500000000014
  0
CIRCLE
  5
117
330
1F
100
AcDbEntity
  8
0
  6
Continuous
 62
     7
370
    25
100
AcDbCircle
 10
184.5499467996
 20
67.1616652578
 30
0.0
 40
6.5
  0
LINE
  5
118
330
1F
100
AcDbEntity
  8
0
  6
Continuous
 62
     7
370
    25
100
AcDbLine
 10
184.5499467996
 20
100.1616652578
 30
0.0
 11
170.5499467996
 21
100.1616652578
 31
0.0
  0
LINE
  5
119
330
1F
100
AcDbEntity
  8
0
  6
Continuous
 62
     7
370
    25
100
AcDbLine
 10
198.5499467996
 20
100.1616652578
 30
0.0
 11
184.5499467996
 21
100.1616652578
 31
0.0
  0
LINE
  5
11A
330
1F
100
AcDbEntity
  8
0
  6
Continuous
 62
     7
370
    25
100
AcDbLine
 10
184.5499467996
 20
101.1616652578
 30
0.0
 11
197.5499467996
 21
101.1616652578
 31
0.0
  0
LINE
  5
11B
330
1F
100
AcDbEntity
  8
0
  6
Continuous
 62
     7
370
    25
100
AcDbLine
 10
171.5499467996
 20
101.1616652578
 30
0.0
 11
184.5499467996
 21
101.1616652578
 31
0.0
  0
LINE
  5
11C
330
1F
100
AcDbEntity
  8
0
  6
Continuous
 62
     7
370
    25
100
AcDbLine
 10
174.7519878285
 20
77.1616652578
 30
0.0
 11
174.0499467996
 21
77.1616652578
 31
0.0
  0
LINE
  5
11D
330
1F
100
AcDbEntity
  8
0
  6
Continuous
 62
     7
370
    25
100
AcDbLine
 10
174.0499467996
 20
78.1616652578
 30
0.0
 11
174.0499467996
 21
77.1616652578
 31
0.0
  0
LINE
  5
11E
330
1F
100
AcDbEntity
  8
0
  6
Continuous
 62
     7
370
    25
100
AcDbLine
 10
175.8896927618
 20
78.1616652578
 30
0.0
 11
174.0499467996
 21
78.1616652578
 31
0.0
  0
SPLINE
  5
11F
330
1F
100
AcDbEntity
  8
0
  6
Continuous
 62
     7
370
    25
100
AcDbSpline
210
0.0
220
0.0
230
1.0
 70
     8
 71
     3
 72
    12
 73
     8
 74
     0
 42
0.000000001
 43
0.00000001
 40
0.0
 40
0.0
 40
0.0
 40
0.0
 40
0.25
 40
0.25
 40
0.5
 40
0.5
 40
1.0
 40
1.0
 40
1.0
 40
1.0
 10
195.0934026490129
 20
78.5141795937892
 30
0.0
 10
195.1683247902408
 20
78.46615437657744
 30
0.0
 10
195.2344882451102
 20
78.42947010654365
 30
0.0
 10
195.3484427724663
 20
78.36349621404617
 30
0.0
 10
195.3962985780404
 20
78.33474458141488
 30
0.0
 10
195.511353871572
 20
78.25418968267702
 30
0.0
 10
195.5499467996418
 20
78.20805820254587
 30
0.0
 10
195.5499467996418
 20
78.16166525783332
 30
0.0
  0
SPLINE
  5
120
330
1F
100
AcDbEntity
  8
0
  6
Continuous
 62
     7
370
    25
100
AcDbSpline
210
0.0
220
0.0
230
1.0
 70
     8
 71
     3
 72
     8
 73
     4
 74
     0
 42
0.000000001
 43
0.00000001
 40
0.0
 40
0.0
 40
0.0
 40
0.0
 40
1.0
 40
1.0
 40
1.0
 40
1.0
 10
194.5934250605114
 20
78.6616652578333
 30
0.0
 10
194.7916653923261
 20
78.6616652578333
 30
0.0
 10
194.9573793211036
 20
78.60137077334771
 30
0.0
 10
195.0934026490129
 20
78.5141795937892
 30
0.0
  0
SPLINE
  5
121
330
1F
100
AcDbEntity
  8
0
  6
Continuous
 62
     7
370
    25
100
AcDbSpline
210
0.0
220
0.0
230
1.0
 70
     8
 71
     3
 72
     8
 73
     4
 74
     0
 42
0.000000001
 43
0.00000001
 40
0.0
 40
0.0
 40
0.0
 40
0.0
 40
1.0
 40
1.0
 40
1.0
 40
1.0
 10
174.0064909502707
 20
78.51417959378921
 30
0.0
 10
174.14251427818
 20
78.60137077334771
 30
0.0
 10
174.3082282069576
 20
78.6616652578333
 30
0.0
 10
174.5064685387723
 20
78.6616652578333
 30
0.0
  0
SPLINE
  5
122
330
1F
100
AcDbEntity
  8
0
  6
Continuous
 62
     7
370
    25
100
AcDbSpline
210
0.0
220
0.0
230
1.0
 70
     8
 71
     3
 72
    12
 73
     8
 74
     0
 42
0.000000001
 43
0.00000001
 40
0.0
 40
0.0
 40
0.0
 40
0.0
 40
0.25
 40
0.25
 40
0.5
 40
0.5
 40
1.0
 40
1.0
 40
1.0
 40
1.0
 10
174.0064909502707
 20
78.51417959378921
 30
0.0
 10
173.9315426727329
 20
78.46613762315931
 30
0.0
 10
173.8653592176302
 20
78.4294439805157
 30
0.0
 10
173.7513777122055
 20
78.36345329909098
 30
0.0
 10
173.7034962752286
 20
78.33467981091403
 30
0.0
 10
173.5885728093146
 20
78.2542041039033
 30
0.0
 10
173.5499467996418
 20
78.20807440066005
 30
0.0
 10
173.5499467996418
 20
78.16166525783332
 30
0.0
  0
LINE
  5
123
330
1F
100
AcDbEntity
  8
0
  6
Continuous
 62
     7
370
    25
100
AcDbLine
 10
195.0499467996
 20
76.7474516955
 30
0.0
 11
195.0499467996
 21
77.2188562163
 31
0.0
  0
ARC
  5
124
330
1F
100
AcDbEntity
  8
0
  6
Continuous
 62
     7
370
    25
100
AcDbCircle
 10
195.0638356885
 20
76.7327203042
 30
0.0
 40
0.4863342741721111
100
AcDbArc
 50
1.7357930888
 51
91.6364935946
  0
LINE
  5
125
330
1F
100
AcDbEntity
  8
0
  6
Continuous
 62
     7
370
    25
100
AcDbLine
 10
195.5499467996
 20
76.7474516955
 30
0.0
 11
195.0499467996
 21
76.7474516955
 31
0.0
  0
SPLINE
  5
126
330
1F
100
AcDbEntity
  8
0
  6
Continuous
 62
     7
370
    25
100
AcDbSpline
210
0.0
220
0.0
230
1.0
 70
     8
 71
     3
 72
    12
 73
     8
 74
     0
 42
0.000000001
 43
0.00000001
 40
0.0
 40
0.0
 40
0.0
 40
0.0
 40
0.2499999999999993
 40
0.2499999999999993
 40
0.4999999999999987
 40
0.4999999999999987
 40
1.0
 40
1.0
 40
1.0
 40
1.0
 10
174.0499467996418
 20
77.16166525783332
 30
0.0
 10
173.9737609545036
 20
77.16166525783332
 30
0.0
 10
173.9003866096865
 20
77.14359982994233
 30
0.0
 10
173.7742131064853
 20
77.08693858840714
 30
0.0
 10
173.7214861835895
 20
77.04941622888501
 30
0.0
 10
173.5938417552613
 20
76.92688946479201
 30
0.0
 10
173.5499467996418
 20
76.8339146562955
 30
0.0
 10
173.5499467996418
 20
76.74745169546021
 30
0.0
  0
LINE
  5
127
330
1F
100
AcDbEntity
  8
0
  6
Continuous
 62
     7
370
    25
100
AcDbLine
 10
173.5499467996
 20
75.8219192957
 30
0.0
 11
173.5499467996
 21
76.7474516955
 31
0.0
  0
SPLINE
  5
128
330
1F
100
AcDbEntity
  8
0
  6
Continuous
 62
     7
370
    25
100
AcDbSpline
210
0.0
220
0.0
230
1.0
 70
     8
 71
     3
 72
    12
 73
     8
 74
     0
 42
0.000000001
 43
0.00000001
 40
0.0
 40
0.0
 40
0.0
 40
0.0
 40
0.2499999999999999
 40
0.2499999999999999
 40
0.4999999999999999
 40
0.4999999999999999
 40
1.0
 40
1.0
 40
1.0
 40
1.0
 10
174.0499467996418
 20
78.1616652578333
 30
0.0
 10
173.9737609545036
 20
78.1616652578333
 30
0.0
 10
173.9003866096865
 20
78.14383796213697
 30
0.0
 10
173.7742131064853
 20
78.08454786288257
 30
0.0
 10
173.7214861835896
 20
78.04395035151948
 30
0.0
 10
173.5938417552613
 20
77.9026658078305
 30
0.0
 10
173.5499467996418
 20
77.78382731864433
 30
0.0
 10
173.5499467996418
 20
77.6616652578333
 30
0.0
  0
LINE
  5
129
330
1F
100
AcDbEntity
  8
0
  6
Continuous
 62
     7
370
    25
100
AcDbLine
 10
173.5499467996
 20
76.7474516955
 30
0.0
 11
173.5499467996
 21
77.6616652578
 31
0.0
  0
LINE
  5
12A
330
1F
100
AcDbEntity
  8
0
  6
Continuous
 62
     7
370
    25
100
AcDbLine
 10
195.5499467996
 20
76.7474516955
 30
0.0
 11
195.5499467996
 21
75.8219192957
 31
0.0
  0
LINE
  5
12B
330
1F
100
AcDbEntity
  8
0
  6
Continuous
 62
     7
370
    25
100
AcDbLine
 10
195.0499467996
 20
57.6616652578
 30
0.0
 11
195.5499467996
 21
57.6616652578
 31
0.0
  0
LINE
  5
12C
330
1F
100
AcDbEntity
  8
0
  6
Continuous
 62
     7
370
    25
100
AcDbLine
 10
195.5499467996
 20
58.50141122
 30
0.0
 11
195.5499467996
 21
57.6616652578
 31
0.0
  0
LINE
  5
12D
330
1F
100
AcDbEntity
  8
0
  6
Continuous
 62
     7
370
    25
100
AcDbLine
 10
173.5499467996
 20
57.6616652578
 30
0.0
 11
174.0499467996
 21
57.6616652578
 31
0.0
  0
LINE
  5
12E
330
1F
100
AcDbEntity
  8
0
  6
Continuous
 62
     7
370
    25
100
AcDbLine
 10
173.5499467996
 20
57.6616652578
 30
0.0
 11
173.5499467996
 21
58.50141122
 31
0.0
  0
LINE
  5
12F
330
1F
100
AcDbEntity
  8
0
  6
Continuous
 62
     7
370
    25
100
AcDbLine
 10
174.0499467996
 20
57.6616652578
 30
0.0
 11
174.0499467996
 21
57.1616652578
 31
0.0
  0
ARC
  5
130
330
1F
100
AcDbEntity
  8
0
  6
Continuous
 62
     7
370
    25
100
AcDbCircle
 10
174.0499467996
 20
57.6616652578
 30
0.0
 40
0.5
100
AcDbArc
 50
180.0
 51
270.0
  0
LINE
  5
131
330
1F
100
AcDbEntity
  8
0
  6
Continuous
 62
     7
370
    25
100
AcDbLine
 10
174.7519878285
 20
57.1616652578
 30
0.0
 11
174.0499467996
 21
57.1616652578
 31
0.0
  0
LINE
  5
132
330
1F
100
AcDbEntity
  8
0
  6
Continuous
 62
     7
370
    25
100
AcDbLine
 10
195.0499467996
 20
57.6616652578
 30
0.0
 11
195.0499467996
 21
57.1616652578
 31
0.0
  0
LINE
  5
133
330
1F
100
AcDbEntity
  8
0
  6
Continuous
 62
     7
370
    25
100
AcDbLine
 10
195.0499467996
 20
57.1616652578
 30
0.0
 11
194.3479057708
 21
57.1616652578
 31
0.0
  0
ARC
  5
134
330
1F
100
AcDbEntity
  8
0
  6
Continuous
 62
     7
370
    25
100
AcDbCircle
 10
195.0499467996
 20
57.6616652578
 30
0.0
 40
0.5
100
AcDbArc
 50
270.0
 51
0.0
  0
LINE
  5
135
330
1F
100
AcDbEntity
  8
0
  6
Continuous
 62
     7
370
    25
100
AcDbLine
 10
195.0499467996
 20
78.1616652578
 30
0.0
 11
193.2102008375
 21
78.1616652578
 31
0.0
  0
LINE
  5
136
330
1F
100
AcDbEntity
  8
0
  6
Continuous
 62
     7
370
    25
100
AcDbLine
 10
195.0499467996
 20
77.2188562163
 30
0.0
 11
195.0499467996
 21
78.1616652578
 31
0.0
  0
SPLINE
  5
137
330
1F
100
AcDbEntity
  8
0
  6
Continuous
 62
     7
370
    25
100
AcDbSpline
210
0.0
220
0.0
230
1.0
 70
     8
 71
     3
 72
    12
 73
     8
 74
     0
 42
0.000000001
 43
0.00000001
 40
0.0
 40
0.0
 40
0.0
 40
0.0
 40
0.2499999999999999
 40
0.2499999999999999
 40
0.4999999999999999
 40
0.4999999999999999
 40
1.0
 40
1.0
 40
1.0
 40
1.0
 10
195.0499467996418
 20
78.1616652578333
 30
0.0
 10
195.1261326447801
 20
78.1616652578333
 30
0.0
 10
195.1995069895972
 20
78.14383796213697
 30
0.0
 10
195.3256804927983
 20
78.08454786288257
 30
0.0
 10
195.3784074156941
 20
78.04395035151948
 30
0.0
 10
195.5060518440223
 20
77.9026658078305
 30
0.0
 10
195.5499467996418
 20
77.78382731864433
 30
0.0
 10
195.5499467996418
 20
77.6616652578333
 30
0.0
  0
LINE
  5
138
330
1F
100
AcDbEntity
  8
0
  6
Continuous
 62
     7
370
    25
100
AcDbLine
 10
195.5499467996
 20
77.6616652578
 30
0.0
 11
195.5499467996
 21
76.7474516955
 31
0.0
  0
ARC
  5
139
330
1F
100
AcDbEntity
  8
0
  6
Continuous
 62
     7
370
    25
100
AcDbCircle
 10
174.0271724725
 20
78.640871307
 30
0.0
 40
0.4797469202789554
100
AcDbArc
 50
272.7209417438
 51
2.4841826612
  0
ARC
  5
13A
330
1F
100
AcDbEntity
  8
0
  6
Continuous
 62
     7
370
    25
100
AcDbCircle
 10
195.0727211268
 20
78.640871307
 30
0.0
 40
0.4797469202789852
100
AcDbArc
 50
177.5158173388
 51
267.2790582562
  0
SPLINE
  5
13B
330
1F
100
AcDbEntity
  8
0
  6
Continuous
 62
     7
370
    25
100
AcDbSpline
210
0.0
220
0.0
230
1.0
 70
     8
 71
     3
 72
    10
 73
     6
 74
     0
 42
0.000000001
 43
0.00000001
 40
0.0
 40
0.0
 40
0.0
 40
0.0
 40
0.5
 40
0.5
 40
1.0
 40
1.0
 40
1.0
 40
1.0
 10
190.9725630889744
 20
68.16166525783335
 30
0.0
 10
190.9673328441359
 20
67.83186657816366
 30
0.0
 10
190.9643738854338
 20
67.50036933609869
 30
0.0
 10
190.9643132612038
 20
66.83363822603513
 30
0.0
 10
190.967238338958
 20
66.49742306254797
 30
0.0
 10
190.9725630889747
 20
66.16166525783358
 30
0.0
  0
LINE
  5
13C
330
1F
100
AcDbEntity
  8
0
  6
Continuous
 62
     7
370
    25
100
AcDbLine
 10
190.972563089
 20
66.1616652578
 30
0.0
 11
178.1273305103
 21
66.1616652578
 31
0.0
  0
SPLINE
  5
13D
330
1F
100
AcDbEntity
  8
0
  6
Continuous
 62
     7
370
    25
100
AcDbSpline
210
0.0
220
0.0
230
1.0
 70
     8
 71
     3
 72
     8
 73
     4
 74
     0
 42
0.000000001
 43
0.00000001
 40
0.0
 40
0.0
 40
0.0
 40
0.0
 40
1.0
 40
1.0
 40
1.0
 40
1.0
 10
178.1273305103093
 20
66.1616652578333
 30
0.0
 10
178.1378998107975
 20
66.82812379920469
 30
0.0
 10
178.1379064141368
 20
67.49479033584177
 30
0.0
 10
178.1273305103093
 20
68.16166525783335
 30
0.0
  0
ARC
  5
13E
330
1F
100
AcDbEntity
  8
0
  6
Continuous
 62
     7
370
    25
100
AcDbCircle
 10
195.5606002487
 20
78.4841826462
 30
0.0
 40
0.4681596031694917
100
AcDbArc
 50
176.3263026515
 51
237.8245286086
  0
ARC
  5
13F
330
1F
100
AcDbEntity
  8
0
  6
Continuous
 62
     7
370
    25
100
AcDbCircle
 10
173.5392933506
 20
78.4841826462
 30
0.0
 40
0.4681596031695183
100
AcDbArc
 50
302.1754713913
 51
3.6736973485
  0
SPLINE
  5
140
330
1F
100
AcDbEntity
  8
0
  6
Continuous
 62
     7
370
    25
100
AcDbSpline
210
0.0
220
0.0
230
1.0
 70
     8
 71
     3
 72
    12
 73
     8
 74
     0
 42
0.000000001
 43
0.00000001
 40
0.0
 40
0.0
 40
0.0
 40
0.0
 40
0.2499999999999999
 40
0.2499999999999999
 40
0.4999999999999998
 40
0.4999999999999998
 40
1.0
 40
1.0
 40
1.0
 40
1.0
 10
195.311298720904
 20
78.08792242581126
 30
0.0
 10
195.3483421319836
 20
78.0652099241032
 30
0.0
 10
195.3825550332704
 20
78.05769740427371
 30
0.0
 10
195.4420871881295
 20
78.05614132957322
 30
0.0
 10
195.4674879191513
 20
78.0625681714142
 30
0.0
 10
195.5288465508802
 20
78.09279317171506
 30
0.0
 10
195.5499467996418
 20
78.12748869283197
 30
0.0
 10
195.5499467996418
 20
78.16166525783332
 30
0.0
  0
SPLINE
  5
141
330
1F
100
AcDbEntity
  8
0
  6
Continuous
 62
     7
370
    25
100
AcDbSpline
210
0.0
220
0.0
230
1.0
 70
     8
 71
     3
 72
    12
 73
     8
 74
     0
 42
0.000000001
 43
0.00000001
 40
0.0
 40
0.0
 40
0.0
 40
0.0
 40
0.2500000000000001
 40
0.2500000000000001
 40
0.5000000000000001
 40
0.5000000000000001
 40
1.0
 40
1.0
 40
1.0
 40
1.0
 10
173.7885948783797
 20
78.08792242581126
 30
0.0
 10
173.7515514673
 20
78.0652099241032
 30
0.0
 10
173.7173385660132
 20
78.05769740427371
 30
0.0
 10
173.6578064111542
 20
78.05614132957322
 30
0.0
 10
173.6324056801323
 20
78.06256817141418
 30
0.0
 10
173.5710470484034
 20
78.09279317171503
 30
0.0
 10
173.5499467996418
 20
78.12748869283212
 30
0.0
 10
173.5499467996418
 20
78.16166525783332
 30
0.0
  0
SPLINE
  5
142
330
1F
100
AcDbEntity
  8
0
  6
Continuous
 62
     7
370
    25
100
AcDbSpline
210
0.0
220
0.0
230
1.0
 70
    24
 71
     3
 72
    12
 73
     8
 74
     0
 42
0.000000001
 43
0.00000001
 40
0.0
 40
0.0
 40
0.0
 40
0.0
 40
0.2500000000000001
 40
0.2500000000000001
 40
0.5000000000000001
 40
0.5000000000000001
 40
1.0
 40
1.0
 40
1.0
 40
1.0
 10
173.5499467996418
 20
77.66166525783332
 30
0.0
 10
173.5499467996418
 20
77.66166525783332
 30
0.0
 10
173.5499467996418
 20
77.68138820324124
 30
0.0
 10
173.5499467996418
 20
77.7420246680025
 30
0.0
 10
173.5499467996418
 20
77.78328121369086
 30
0.0
 10
173.5499467996418
 20
77.92505452336293
 30
0.0
 10
173.5499467996418
 20
78.04362156852326
 30
0.0
 10
173.5499467996418
 20
78.16166525783332
 30
0.0
  0
SPLINE
  5
143
330
1F
100
AcDbEntity
  8
0
  6
Continuous
 62
     7
370
    25
100
AcDbSpline
210
0.0
220
0.0
230
1.0
 70
    24
 71
     3
 72
    12
 73
     8
 74
     0
 42
0.000000001
 43
0.00000001
 40
0.0
 40
0.0
 40
0.0
 40
0.0
 40
0.2500000000000001
 40
0.2500000000000001
 40
0.5000000000000001
 40
0.5000000000000001
 40
1.0
 40
1.0
 40
1.0
 40
1.0
 10
195.5499467996418
 20
77.66166525783332
 30
0.0
 10
195.5499467996418
 20
77.66166525783332
 30
0.0
 10
195.5499467996418
 20
77.68138820324124
 30
0.0
 10
195.5499467996418
 20
77.7420246680025
 30
0.0
 10
195.5499467996418
 20
77.78328121369086
 30
0.0
 10
195.5499467996418
 20
77.92505452336293
 30
0.0
 10
195.5499467996418
 20
78.04362156852326
 30
0.0
 10
195.5499467996418
 20
78.16166525783332
 30
0.0
  0
SPLINE
  5
144
330
1F
100
AcDbEntity
  8
0
  6
Continuous
 62
     7
370
    25
100
AcDbSpline
210
0.0
220
0.0
230
1.0
 70
    24
 71
     3
 72
     9
 73
     5
 74
     0
 42
0.000000001
 43
0.00000001
 40
0.0
 40
0.0
 40
0.0
 40
0.0
 40
0.9946393580837019
 40
1.0
 40
1.0
 40
1.0
 40
1.0
 10
178.1273305103092
 20
66.16166525783332
 30
0.0
 10
178.1327809836348
 20
66.12755848736141
 30
0.0
 10
178.1382608324678
 20
66.09326789731519
 30
0.0
 10
178.1355208836041
 20
66.11041334531832
 30
0.0
 10
178.1355061957194
 20
66.11050525592556
 30
0.0
  0
SPLINE
  5
145
330
1F
100
AcDbEntity
  8
0
  6
Continuous
 62
     7
370
    25
100
AcDbSpline
210
0.0
220
0.0
230
1.0
 70
     8
 71
     3
 72
    25
 73
    21
 74
     0
 42
0.000000001
 43
0.00000001
 40
0.0
 40
0.0
 40
0.0
 40
0.0
 40
0.1249999999999999
 40
0.1249999999999999
 40
0.2499999999999999
 40
0.2499999999999999
 40
0.3749999999999999
 40
0.3749999999999999
 40
0.4374999999999999
 40
0.4374999999999999
 40
0.4999999999999999
 40
0.5625
 40
0.5625
 40
0.6249999999999999
 40
0.6249999999999999
 40
0.7500000000000001
 40
0.7500000000000001
 40
0.875
 40
0.875
 40
1.0
 40
1.0
 40
1.0
 40
1.0
 10
190.9725630889745
 20
66.16166525783338
 30
0.0
 10
190.4971351733359
 20
65.90328495209494
 30
0.0
 10
190.0135659667379
 20
65.65376133130417
 30
0.0
 10
189.0197064360242
 20
65.18378325338307
 30
0.0
 10
188.5096735711076
 20
64.96304871352088
 30
0.0
 10
187.4430720794706
 20
64.57220460017506
 30
0.0
 10
186.8918252575407
 20
64.40442319402197
 30
0.0
 10
186.0326934843797
 20
64.22554166386534
 30
0.0
 10
185.7390060358294
 20
64.17787975737518
 30
0.0
 10
185.1432264615169
 20
64.11352262926557
 30
0.0
 10
184.5475625040469
 20
64.08094343995492
 30
0.0
 10
183.9521368428871
 20
64.1138613305371
 30
0.0
 10
183.3568264861919
 20
64.17847130114068
 30
0.0
 10
183.0629516587856
 20
64.22630738837431
 30
0.0
 10
182.2050103128987
 20
64.40530003982956
 30
0.0
 10
181.6573538301096
 20
64.57204461951048
 30
0.0
 10
180.5913007421938
 20
64.96261767261296
 30
0.0
 10
180.0801736390519
 20
65.18378631706301
 30
0.0
 10
179.0861080946765
 20
65.65386847921845
 30
0.0
 10
178.6026041921925
 20
65.90336877335054
 30
0.0
 10
178.127330510309
 20
66.16166525783348
 30
0.0
  0
LINE
  5
146
330
1F
100
AcDbEntity
  8
0
  6
Continuous
 62
     8
370
    25
100
AcDbLine
 10
198.5499467996
 20
86.1616652578
 30
0.0
 11
170.5499467996
 21
86.1616652578
 31
0.0
  0
LINE
  5
147
330
1F
100
AcDbEntity
  8
0
  6
Continuous
 62
     8
370
    25
100
AcDbLine
 10
184.5499467996
 20
85.1934194213
 30
0.0
 11
197.7999467996
 21
85.1934194213
 31
0.0
  0
LINE
  5
148
330
1F
100
AcDbEntity
  8
0
  6
Continuous
 62
     8
370
    25
100
AcDbLine
 10
171.2999467996
 20
85.1934194213
 30
0.0
 11
184.5499467996
 21
85.1934194213
 31
0.0
  0
LINE
  5
149
330
1F
100
AcDbEntity
  8
0
  6
Continuous
 62
     8
370
    25
100
AcDbLine
 10
184.5499467996
 20
82.2886819116
 30
0.0
 11
173.5499467996
 21
82.2886819116
 31
0.0
  0
LINE
  5
14A
330
1F
100
AcDbEntity
  8
0
  6
Continuous
 62
     8
370
    25
100
AcDbLine
 10
195.5499467996
 20
82.2886819116
 30
0.0
 11
184.5499467996
 21
82.2886819116
 31
0.0
  0
LINE
  5
14B
330
1F
100
AcDbEntity
  8
0
  6
Continuous
 62
     8
370
    25
100
AcDbLine
 10
192.534306511
 20
78.6616652578
 30
0.0
 11
194.5934250605
 21
78.6616652578
 31
0.0
  0
LINE
  5
14C
330
1F
100
AcDbEntity
  8
0
  6
Continuous
 62
     8
370
    25
100
AcDbLine
 10
174.5064685388
 20
78.6616652578
 30
0.0
 11
176.5655870883
 21
78.6616652578
 31
0.0
  0
LINE
  5
14D
330
1F
100
AcDbEntity
  8
0
  6
Continuous
 62
     8
370
    25
100
AcDbLine
 10
195.0499467996
 20
76.7474516955
 30
0.0
 11
194.753509823
 21
76.7474516955
 31
0.0
  0
LINE
  5
14E
330
1F
100
AcDbEntity
  8
0
  6
Continuous
 62
     8
370
    25
100
AcDbLine
 10
194.289192665
 20
77.2188562163
 30
0.0
 11
195.0499467996
 21
77.2188562163
 31
0.0
  0
LINE
  5
14F
330
1F
100
AcDbEntity
  8
0
  6
Continuous
 62
     8
370
    25
100
AcDbLine
 10
174.0499467996
 20
77.1616652578
 30
0.0
 11
174.0499467996
 21
76.4217948466
 31
0.0
  0
LINE
  5
150
330
1F
100
AcDbEntity
  8
0
  6
Continuous
 62
     8
370
    25
100
AcDbLine
 10
195.0499467996
 20
76.4217948466
 30
0.0
 11
195.0499467996
 21
76.7474516955
 31
0.0
  0
LINE
  5
151
330
1F
100
AcDbEntity
  8
0
  6
Continuous
 62
     8
370
    25
100
AcDbLine
 10
195.0499467996
 20
57.6616652578
 30
0.0
 11
195.0499467996
 21
57.9015356691
 31
0.0
  0
LINE
  5
152
330
1F
100
AcDbEntity
  8
0
  6
Continuous
 62
     8
370
    25
100
AcDbLine
 10
174.0499467996
 20
57.9015356691
 30
0.0
 11
174.0499467996
 21
57.6616652578
 31
0.0
  0
LINE
  5
153
330
1F
100
AcDbEntity
  8
0
  6
Continuous
 62
     8
370
    25
100
AcDbLine
 10
174.0499467996
 20
57.6616652578
 30
0.0
 11
174.266464899
 21
57.6616652578
 31
0.0
  0
LINE
  5
154
330
1F
100
AcDbEntity
  8
0
  6
Continuous
 62
     8
370
    25
100
AcDbLine
 10
194.8334287002
 20
57.6616652578
 30
0.0
 11
195.0499467996
 21
57.6616652578
 31
0.0
  0
INSERT
  5
160
330
1F
100
AcDbEntity
  8
0
  6
Continuous
 62
     7
370
    18
100
AcDbBlockReference
  2
SW_CENTERMARKSYMBOL_0
 10
184.5499467996
 20
67.1616652578
 30
0.0
  0
ARC
  5
161
330
1F
100
AcDbEntity
  8
0
  6
Continuous
 62
     7
370
    18
100
AcDbCircle
 10
184.5499467996
 20
67.1616652578
 30
0.0
 40
10.43067499999999
100
AcDbArc
 50
75.0
 51
345.0
  0
LINE
  5
162
330
1F
100
AcDbEntity
  8
0
  6
Continuous
 62
     7
370
    25
100
AcDbLine
 10
152.1254233329
 20
144.738704609
 30
0.0
 11
138.1254233329
 21
144.738704609
 31
0.0
  0
LINE
  5
163
330
1F
100
AcDbEntity
  8
0
  6
Continuous
 62
     7
370
    25
100
AcDbLine
 10
138.1254233329
 20
116.738704609
 30
0.0
 11
152.1254233329
 21
116.738704609
 31
0.0
  0
LINE
  5
164
330
1F
100
AcDbEntity
  8
0
  6
Continuous
 62
     7
370
    25
100
AcDbLine
 10
152.1254233329
 20
116.738704609
 30
0.0
 11
153.1254233329
 21
117.738704609
 31
0.0
  0
LINE
  5
165
330
1F
100
AcDbEntity
  8
0
  6
Continuous
 62
     7
370
    25
100
AcDbLine
 10
153.1254233329
 20
143.738704609
 30
0.0
 11
152.1254233329
 21
144.738704609
 31
0.0
  0
ARC
  5
166
330
1F
100
AcDbEntity
  8
0
  6
Continuous
 62
     7
370
    25
100
AcDbCircle
 10
138.1254233329
 20
117.738704609
 30
0.0
 40
1.000000000000004
100
AcDbArc
 50
194.4775121859
 51
270.0
  0
ARC
  5
167
330
1F
100
AcDbEntity
  8
0
  6
Continuous
 62
     7
370
    25
100
AcDbCircle
 10
138.1254233329
 20
143.738704609
 30
0.0
 40
1.000000000000004
100
AcDbArc
 50
90.0
 51
165.5224878141
  0
ARC
  5
168
330
1F
100
AcDbEntity
  8
0
  6
Continuous
 62
     7
370
    25
100
AcDbCircle
 10
134.2524399867
 20
116.738704609
 30
0.0
 40
3.000000000000014
100
AcDbArc
 50
14.4775121859
 51
90.0
  0
ARC
  5
169
330
1F
100
AcDbEntity
  8
0
  6
Continuous
 62
     7
370
    25
100
AcDbCircle
 10
134.2524399867
 20
144.738704609
 30
0.0
 40
3.000000000000028
100
AcDbArc
 50
270.0
 51
345.5224878141
  0
LINE
  5
16A
330
1F
100
AcDbEntity
  8
0
  6
Continuous
 62
     7
370
    25
100
AcDbLine
 10
134.2524399867
 20
141.738704609
 30
0.0
 11
132.1254233329
 21
141.738704609
 31
0.0
  0
LINE
  5
16B
330
1F
100
AcDbEntity
  8
0
  6
Continuous
 62
     7
370
    25
100
AcDbLine
 10
130.1254233329
 20
119.738704609
 30
0.0
 11
134.2524399867
 21
119.738704609
 31
0.0
  0
ARC
  5
16C
330
1F
100
AcDbEntity
  8
0
  6
Continuous
 62
     7
370
    25
100
AcDbCircle
 10
131.6671657634
 20
141.538704609
 30
0.0
 40
0.5
100
AcDbArc
 50
23.5781784782
 51
90.0
  0
ARC
  5
16D
330
1F
100
AcDbEntity
  8
0
  6
Continuous
 62
     7
370
    25
100
AcDbCircle
 10
130.5836809024
 20
141.538704609
 30
0.0
 40
0.5
100
AcDbArc
 50
90.0
 51
156.4218215218
  0
CIRCLE
  5
16E
330
1F
100
AcDbEntity
  8
0
  6
Continuous
 62
     7
370
    25
100
AcDbCircle
 10
119.1254233329
 20
130.738704609
 30
0.0
 40
12.99999999999999
  0
CIRCLE
  5
16F
330
1F
100
AcDbEntity
  8
0
  6
Continuous
 62
     7
370
    25
100
AcDbCircle
 10
119.1254233329
 20
130.738704609
 30
0.0
 40
12.02499999999998
  0
CIRCLE
  5
170
330
1F
100
AcDbEntity
  8
0
  6
Continuous
 62
     7
370
    25
100
AcDbCircle
 10
119.1254233329
 20
130.738704609
 30
0.0
 40
14.00000000000001
  0
CIRCLE
  5
171
330
1F
100
AcDbEntity
  8
0
  6
Continuous
 62
     7
370
    25
100
AcDbCircle
 10
119.1254233329
 20
130.738704609
 30
0.0
 40
10.75000000000001
  0
CIRCLE
  5
172
330
1F
100
AcDbEntity
  8
0
  6
Continuous
 62
     7
370
    25
100
AcDbCircle
 10
119.1254233329
 20
130.738704609
 30
0.0
 40
11.77499999999998
  0
CIRCLE
  5
173
330
1F
100
AcDbEntity
  8
0
  6
Continuous
 62
     7
370
    25
100
AcDbCircle
 10
119.1254233329
 20
130.738704609
 30
0.0
 40
11.89999999999999
  0
CIRCLE
  5
174
330
1F
100
AcDbEntity
  8
0
  6
Continuous
 62
     7
370
    25
100
AcDbCircle
 10
119.1254233329
 20
130.738704609
 30
0.0
 40
9.798213046580443
  0
CIRCLE
  5
175
330
1F
100
AcDbEntity
  8
0
  6
Continuous
 62
     7
370
    25
100
AcDbCircle
 10
119.1254233329
 20
130.738704609
 30
0.0
 40
9.428250615618268
  0
CIRCLE
  5
176
330
1F
100
AcDbEntity
  8
0
  6
Continuous
 62
     7
370
    25
100
AcDbCircle
 10
119.1254233329
 20
130.738704609
 30
0.0
 40
9.3155
  0
CIRCLE
  5
177
330
1F
100
AcDbEntity
  8
0
  6
Continuous
 62
     7
370
    25
100
AcDbCircle
 10
119.1254233329
 20
130.738704609
 30
0.0
 40
6.499999999999986
  0
LINE
  5
178
330
1F
100
AcDbEntity
  8
0
  6
Continuous
 62
     7
370
    25
100
AcDbLine
 10
152.1254233329
 20
116.738704609
 30
0.0
 11
152.1254233329
 21
144.738704609
 31
0.0
  0
LINE
  5
179
330
1F
100
AcDbEntity
  8
0
  6
Continuous
 62
     7
370
    25
100
AcDbLine
 10
153.1254233329
 20
143.738704609
 30
0.0
 11
153.1254233329
 21
117.738704609
 31
0.0
  0
LINE
  5
17A
330
1F
100
AcDbEntity
  8
0
  6
Continuous
 62
     7
370
    25
100
AcDbLine
 10
129.1254233329
 20
141.238704609
 30
0.0
 11
129.1254233329
 21
140.5366635801
 31
0.0
  0
LINE
  5
17B
330
1F
100
AcDbEntity
  8
0
  6
Continuous
 62
     7
370
    25
100
AcDbLine
 10
129.7920899996
 20
141.238704609
 30
0.0
 11
129.1254233329
 21
141.238704609
 31
0.0
  0
LINE
  5
17C
330
1F
100
AcDbEntity
  8
0
  6
Continuous
 62
     7
370
    25
100
AcDbLine
 10
130.1254233329
 20
122.0784505711
 30
0.0
 11
130.1254233329
 21
120.238704609
 31
0.0
  0
LINE
  5
17D
330
1F
100
AcDbEntity
  8
0
  6
Continuous
 62
     7
370
    25
100
AcDbLine
 10
129.1254233329
 20
120.238704609
 30
0.0
 11
130.1254233329
 21
120.238704609
 31
0.0
  0
LINE
  5
17E
330
1F
100
AcDbEntity
  8
0
  6
Continuous
 62
     7
370
    25
100
AcDbLine
 10
129.1254233329
 20
120.9407456379
 30
0.0
 11
129.1254233329
 21
120.238704609
 31
0.0
  0
SPLINE
  5
17F
330
1F
100
AcDbEntity
  8
0
  6
Continuous
 62
     7
370
    25
100
AcDbSpline
210
0.0
220
0.0
230
1.0
 70
     8
 71
     3
 72
    12
 73
     8
 74
     0
 42
0.000000001
 43
0.00000001
 40
0.0
 40
0.0
 40
0.0
 40
0.0
 40
0.25
 40
0.25
 40
0.5
 40
0.5
 40
1.0
 40
1.0
 40
1.0
 40
1.0
 10
130.4779376688883
 20
120.1952487596147
 30
0.0
 10
130.4299124512456
 20
120.1203266177145
 30
0.0
 10
130.3932281809707
 20
120.0541631623306
 30
0.0
 10
130.3272542880413
 20
119.9402086342805
 30
0.0
 10
130.298502655473
 20
119.8923528288197
 30
0.0
 10
130.2179477546831
 20
119.7772975331993
 30
0.0
 10
130.1718162780632
 20
119.7387046089858
 30
0.0
 10
130.1254233329324
 20
119.7387046089858
 30
0.0
  0
SPLINE
  5
180
330
1F
100
AcDbEntity
  8
0
  6
Continuous
 62
     7
370
    25
100
AcDbSpline
210
0.0
220
0.0
230
1.0
 70
     8
 71
     3
 72
     8
 73
     4
 74
     0
 42
0.000000001
 43
0.00000001
 40
0.0
 40
0.0
 40
0.0
 40
0.0
 40
1.0
 40
1.0
 40
1.0
 40
1.0
 10
130.6254233329324
 20
120.6952263481163
 30
0.0
 10
130.6254233329324
 20
120.4969860163016
 30
0.0
 10
130.5651288484468
 20
120.331272087524
 30
0.0
 10
130.4779376688883
 20
120.1952487596147
 30
0.0
  0
SPLINE
  5
181
330
1F
100
AcDbEntity
  8
0
  6
Continuous
 62
     7
370
    25
100
AcDbSpline
210
0.0
220
0.0
230
1.0
 70
     8
 71
     3
 72
     8
 73
     4
 74
     0
 42
0.000000001
 43
0.00000001
 40
0.0
 40
0.0
 40
0.0
 40
0.0
 40
1.0
 40
1.0
 40
1.0
 40
1.0
 10
130.4779376688883
 20
141.2821604583569
 30
0.0
 10
130.5651288484468
 20
141.1461371304476
 30
0.0
 10
130.6254233329324
 20
140.9804232016701
 30
0.0
 10
130.6254233329324
 20
140.7821828698554
 30
0.0
  0
SPLINE
  5
182
330
1F
100
AcDbEntity
  8
0
  6
Continuous
 62
     7
370
    25
100
AcDbSpline
210
0.0
220
0.0
230
1.0
 70
     8
 71
     3
 72
    12
 73
     8
 74
     0
 42
0.000000001
 43
0.00000001
 40
0.0
 40
0.0
 40
0.0
 40
0.0
 40
0.2499999999999999
 40
0.2499999999999999
 40
0.4999999999999999
 40
0.4999999999999999
 40
1.0
 40
1.0
 40
1.0
 40
1.0
 10
130.4779376688883
 20
141.2821604583569
 30
0.0
 10
130.4298956982521
 20
141.3571087359046
 30
0.0
 10
130.3932020556049
 20
141.4232921910149
 30
0.0
 10
130.3272113741738
 20
141.5372736964499
 30
0.0
 10
130.2984378859943
 20
141.5851551334293
 30
0.0
 10
130.2179621789763
 20
141.7000785993434
 30
0.0
 10
130.1718324757804
 20
141.7387046089858
 30
0.0
 10
130.1254233329324
 20
141.7387046089858
 30
0.0
  0
LINE
  5
183
330
1F
100
AcDbEntity
  8
0
  6
Continuous
 62
     7
370
    25
100
AcDbLine
 10
109.6254233329
 20
141.738704609
 30
0.0
 11
109.6254233329
 21
141.238704609
 31
0.0
  0
LINE
  5
184
330
1F
100
AcDbEntity
  8
0
  6
Continuous
 62
     7
370
    25
100
AcDbLine
 10
109.6254233329
 20
141.738704609
 30
0.0
 11
110.4651692951
 21
141.738704609
 31
0.0
  0
LINE
  5
185
330
1F
100
AcDbEntity
  8
0
  6
Continuous
 62
     7
370
    25
100
AcDbLine
 10
109.6254233329
 20
141.238704609
 30
0.0
 11
109.1254233329
 21
141.238704609
 31
0.0
  0
ARC
  5
186
330
1F
100
AcDbEntity
  8
0
  6
Continuous
 62
     7
370
    25
100
AcDbCircle
 10
109.6254233329
 20
141.238704609
 30
0.0
 40
0.5
100
AcDbArc
 50
90.0
 51
180.0
  0
SPLINE
  5
187
330
1F
100
AcDbEntity
  8
0
  6
Continuous
 62
     7
370
    25
100
AcDbSpline
210
0.0
220
0.0
230
1.0
 70
     8
 71
     3
 72
    12
 73
     8
 74
     0
 42
0.000000001
 43
0.00000001
 40
0.0
 40
0.0
 40
0.0
 40
0.0
 40
0.2499999999999999
 40
0.2499999999999999
 40
0.4999999999999999
 40
0.4999999999999999
 40
1.0
 40
1.0
 40
1.0
 40
1.0
 10
129.1254233329324
 20
141.2387046089858
 30
0.0
 10
129.1254233329324
 20
141.3148904541241
 30
0.0
 10
129.1073579050414
 20
141.3882647989412
 30
0.0
 10
129.0506966635062
 20
141.5144383021423
 30
0.0
 10
129.0131743039841
 20
141.5671652250381
 30
0.0
 10
128.8906475398911
 20
141.6948096533663
 30
0.0
 10
128.7976727313948
 20
141.7387046089858
 30
0.0
 10
128.7112097705593
 20
141.7387046089858
 30
0.0
  0
LINE
  5
188
330
1F
100
AcDbEntity
  8
0
  6
Continuous
 62
     7
370
    25
100
AcDbLine
 10
127.7856773708
 20
141.738704609
 30
0.0
 11
128.7112097706
 21
141.738704609
 31
0.0
  0
LINE
  5
189
330
1F
100
AcDbEntity
  8
0
  6
Continuous
 62
     7
370
    25
100
AcDbLine
 10
109.1254233329
 20
140.5366635801
 30
0.0
 11
109.1254233329
 21
141.238704609
 31
0.0
  0
LWPOLYLINE
  5
18A
330
1F
100
AcDbEntity
  8
0
  6
Continuous
 62
     7
370
    25
100
AcDbPolyline
 90
        9
 70
   128
 43
0.0
 10
129.6254233329
 20
141.738704609
 10
129.6579383866
 20
141.7290972492
 10
129.689203905
 20
141.7006443752
 10
129.7180183718
 20
141.6544394151
 10
129.7432744631
 20
141.5922579996
 10
129.7640016016
 20
141.5164897255
 10
129.779403255
 20
141.4300463252
 10
129.7888875463
 20
141.33624977
 10
129.7920899996
 20
141.238704609
  0
LINE
  5
18B
330
1F
100
AcDbEntity
  8
0
  6
Continuous
 62
     7
370
    25
100
AcDbLine
 10
128.7112097706
 20
141.738704609
 30
0.0
 11
129.6254233329
 21
141.738704609
 31
0.0
  0
LINE
  5
18C
330
1F
100
AcDbEntity
  8
0
  6
Continuous
 62
     7
370
    25
100
AcDbLine
 10
109.1254233329
 20
120.238704609
 30
0.0
 11
109.1254233329
 21
120.9407456379
 31
0.0
  0
LINE
  5
18D
330
1F
100
AcDbEntity
  8
0
  6
Continuous
 62
     7
370
    25
100
AcDbLine
 10
109.1254233329
 20
120.238704609
 30
0.0
 11
109.6254233329
 21
120.238704609
 31
0.0
  0
LINE
  5
18E
330
1F
100
AcDbEntity
  8
0
  6
Continuous
 62
     7
370
    25
100
AcDbLine
 10
109.6254233329
 20
120.238704609
 30
0.0
 11
109.6254233329
 21
119.738704609
 31
0.0
  0
ARC
  5
18F
330
1F
100
AcDbEntity
  8
0
  6
Continuous
 62
     7
370
    25
100
AcDbCircle
 10
109.6254233329
 20
120.238704609
 30
0.0
 40
0.5
100
AcDbArc
 50
180.0
 51
270.0
  0
LINE
  5
190
330
1F
100
AcDbEntity
  8
0
  6
Continuous
 62
     7
370
    25
100
AcDbLine
 10
110.4651692951
 20
119.738704609
 30
0.0
 11
109.6254233329
 21
119.738704609
 31
0.0
  0
SPLINE
  5
191
330
1F
100
AcDbEntity
  8
0
  6
Continuous
 62
     7
370
    25
100
AcDbSpline
210
0.0
220
0.0
230
1.0
 70
     8
 71
     3
 72
    12
 73
     8
 74
     0
 42
0.000000001
 43
0.00000001
 40
0.0
 40
0.0
 40
0.0
 40
0.0
 40
0.2499999999999999
 40
0.2499999999999999
 40
0.4999999999999999
 40
0.4999999999999999
 40
1.0
 40
1.0
 40
1.0
 40
1.0
 10
129.1254233329324
 20
120.2387046089858
 30
0.0
 10
129.1254233329324
 20
120.1625187638476
 30
0.0
 10
129.1073579050414
 20
120.0891444190305
 30
0.0
 10
129.0506966635062
 20
119.9629709158293
 30
0.0
 10
129.0131743039841
 20
119.9102439929336
 30
0.0
 10
128.8906475398911
 20
119.7825995646053
 30
0.0
 10
128.7976727313948
 20
119.7387046089858
 30
0.0
 10
128.7112097705593
 20
119.7387046089858
 30
0.0
  0
LINE
  5
192
330
1F
100
AcDbEntity
  8
0
  6
Continuous
 62
     7
370
    25
100
AcDbLine
 10
128.7112097706
 20
119.738704609
 30
0.0
 11
127.7856773708
 21
119.738704609
 31
0.0
  0
SPLINE
  5
193
330
1F
100
AcDbEntity
  8
0
  6
Continuous
 62
     7
370
    25
100
AcDbSpline
210
0.0
220
0.0
230
1.0
 70
     8
 71
     3
 72
    12
 73
     8
 74
     0
 42
0.000000001
 43
0.00000001
 40
0.0
 40
0.0
 40
0.0
 40
0.0
 40
0.2499999999999993
 40
0.2499999999999993
 40
0.4999999999999987
 40
0.4999999999999987
 40
1.0
 40
1.0
 40
1.0
 40
1.0
 10
130.1254233329324
 20
120.2387046089858
 30
0.0
 10
130.1254233329324
 20
120.1625187638476
 30
0.0
 10
130.1075960372361
 20
120.0891444190305
 30
0.0
 10
130.0483059379817
 20
119.9629709158293
 30
0.0
 10
130.0077084266186
 20
119.9102439929336
 30
0.0
 10
129.8664238829296
 20
119.7825995646053
 30
0.0
 10
129.7475853937435
 20
119.7387046089858
 30
0.0
 10
129.6254233329324
 20
119.7387046089858
 30
0.0
  0
LINE
  5
194
330
1F
100
AcDbEntity
  8
0
  6
Continuous
 62
     7
370
    25
100
AcDbLine
 10
129.6254233329
 20
119.738704609
 30
0.0
 11
128.7112097706
 21
119.738704609
 31
0.0
  0
ARC
  5
195
330
1F
100
AcDbEntity
  8
0
  6
Continuous
 62
     7
370
    25
100
AcDbCircle
 10
130.6046293821
 20
120.2159302819
 30
0.0
 40
0.4797469202790163
100
AcDbArc
 50
87.5158173388
 51
177.2790582562
  0
LINE
  5
196
330
1F
100
AcDbEntity
  8
0
  6
Continuous
 62
     7
370
    25
100
AcDbLine
 10
130.1254233329
 20
141.238704609
 30
0.0
 11
129.7920899996
 21
141.238704609
 31
0.0
  0
LINE
  5
197
330
1F
100
AcDbEntity
  8
0
  6
Continuous
 62
     7
370
    25
100
AcDbLine
 10
130.1254233329
 20
141.238704609
 30
0.0
 11
130.1254233329
 21
139.3989586468
 31
0.0
  0
ARC
  5
198
330
1F
100
AcDbEntity
  8
0
  6
Continuous
 62
     7
370
    25
100
AcDbCircle
 10
129.6254233329
 20
141.238704609
 30
0.0
 40
0.5
100
AcDbArc
 50
0.0
 51
90.0
  0
ARC
  5
199
330
1F
100
AcDbEntity
  8
0
  6
Continuous
 62
     7
370
    25
100
AcDbCircle
 10
130.6046293821
 20
141.2614789361
 30
0.0
 40
0.4797469202790692
100
AcDbArc
 50
182.7209417438
 51
272.4841826612
  0
LINE
  5
19A
330
1F
100
AcDbEntity
  8
0
  6
Continuous
 62
     7
370
    25
100
AcDbLine
 10
118.1254233329
 20
124.3160883197
 30
0.0
 11
118.1254233329
 21
137.1613208983
 31
0.0
  0
SPLINE
  5
19B
330
1F
100
AcDbEntity
  8
0
  6
Continuous
 62
     7
370
    25
100
AcDbSpline
210
0.0
220
0.0
230
1.0
 70
     8
 71
     3
 72
    10
 73
     6
 74
     0
 42
0.000000001
 43
0.00000001
 40
0.0
 40
0.0
 40
0.0
 40
0.0
 40
0.5
 40
0.5
 40
1.0
 40
1.0
 40
1.0
 40
1.0
 10
120.1254233329323
 20
137.1613208983184
 30
0.0
 10
119.7956246532626
 20
137.1560906534799
 30
0.0
 10
119.4641274111976
 20
137.1531316947778
 30
0.0
 10
118.797396301134
 20
137.1530710705478
 30
0.0
 10
118.4611811376468
 20
137.1559961483021
 30
0.0
 10
118.1254233329324
 20
137.1613208983188
 30
0.0
  0
SPLINE
  5
19C
330
1F
100
AcDbEntity
  8
0
  6
Continuous
 62
     7
370
    25
100
AcDbSpline
210
0.0
220
0.0
230
1.0
 70
     8
 71
     3
 72
     8
 73
     4
 74
     0
 42
0.000000001
 43
0.00000001
 40
0.0
 40
0.0
 40
0.0
 40
0.0
 40
1.0
 40
1.0
 40
1.0
 40
1.0
 10
118.1254233329331
 20
124.3160883196533
 30
0.0
 10
118.7918818743042
 20
124.3266576201415
 30
0.0
 10
119.458548410941
 20
124.3266642234808
 30
0.0
 10
120.1254233329323
 20
124.3160883196533
 30
0.0
  0
ARC
  5
19D
330
1F
100
AcDbEntity
  8
0
  6
Continuous
 62
     7
370
    25
100
AcDbCircle
 10
130.4479407213
 20
141.7493580581
 30
0.0
 40
0.4681596031696564
100
AcDbArc
 50
212.1754713914
 51
273.6736973484
  0
ARC
  5
19E
330
1F
100
AcDbEntity
  8
0
  6
Continuous
 62
     7
370
    25
100
AcDbCircle
 10
130.4479407213
 20
119.7280511599
 30
0.0
 40
0.4681596031695388
100
AcDbArc
 50
86.3263026515
 51
147.8245286086
  0
SPLINE
  5
19F
330
1F
100
AcDbEntity
  8
0
  6
Continuous
 62
     7
370
    25
100
AcDbSpline
210
0.0
220
0.0
230
1.0
 70
     8
 71
     3
 72
    12
 73
     8
 74
     0
 42
0.000000001
 43
0.00000001
 40
0.0
 40
0.0
 40
0.0
 40
0.0
 40
0.25
 40
0.25
 40
0.5
 40
0.5
 40
1.0
 40
1.0
 40
1.0
 40
1.0
 10
130.0516805009104
 20
141.500056530248
 30
0.0
 10
130.0289679992013
 20
141.5370999413294
 30
0.0
 10
130.021455479372
 20
141.5713128426176
 30
0.0
 10
130.0198994046729
 20
141.6308449974786
 30
0.0
 10
130.0263262465149
 20
141.656245728501
 30
0.0
 10
130.0565512468193
 20
141.71760436023
 30
0.0
 10
130.091246767944
 20
141.7387046089858
 30
0.0
 10
130.1254233329324
 20
141.7387046089858
 30
0.0
  0
SPLINE
  5
1A0
330
1F
100
AcDbEntity
  8
0
  6
Continuous
 62
     7
370
    25
100
AcDbSpline
210
0.0
220
0.0
230
1.0
 70
    24
 71
     3
 72
    12
 73
     8
 74
     0
 42
0.000000001
 43
0.00000001
 40
0.0
 40
0.0
 40
0.0
 40
0.0
 40
0.25
 40
0.25
 40
0.5
 40
0.5
 40
1.0
 40
1.0
 40
1.0
 40
1.0
 10
129.6254233329324
 20
141.7387046089858
 30
0.0
 10
129.6254233329324
 20
141.7387046089858
 30
0.0
 10
129.6451462783403
 20
141.7387046089858
 30
0.0
 10
129.7057827431016
 20
141.7387046089858
 30
0.0
 10
129.7470392887899
 20
141.7387046089858
 30
0.0
 10
129.888812598462
 20
141.7387046089858
 30
0.0
 10
130.0073796436224
 20
141.7387046089858
 30
0.0
 10
130.1254233329324
 20
141.7387046089858
 30
0.0
  0
SPLINE
  5
1A1
330
1F
100
AcDbEntity
  8
0
  6
Continuous
 62
     7
370
    25
100
AcDbSpline
210
0.0
220
0.0
230
1.0
 70
     8
 71
     3
 72
    12
 73
     8
 74
     0
 42
0.000000001
 43
0.00000001
 40
0.0
 40
0.0
 40
0.0
 40
0.0
 40
0.25
 40
0.25
 40
0.5
 40
0.5
 40
1.0
 40
1.0
 40
1.0
 40
1.0
 10
130.0516805009104
 20
119.9773526877237
 30
0.0
 10
130.0289679992013
 20
119.9403092766423
 30
0.0
 10
130.021455479372
 20
119.906096375354
 30
0.0
 10
130.0198994046729
 20
119.846564220493
 30
0.0
 10
130.0263262465149
 20
119.8211634894706
 30
0.0
 10
130.0565512468193
 20
119.7598048577417
 30
0.0
 10
130.0912467679435
 20
119.7387046089858
 30
0.0
 10
130.1254233329324
 20
119.7387046089858
 30
0.0
  0
SPLINE
  5
1A2
330
1F
100
AcDbEntity
  8
0
  6
Continuous
 62
     7
370
    25
100
AcDbSpline
210
0.0
220
0.0
230
1.0
 70
    24
 71
     3
 72
    12
 73
     8
 74
     0
 42
0.000000001
 43
0.00000001
 40
0.0
 40
0.0
 40
0.0
 40
0.0
 40
0.2499999999999999
 40
0.2499999999999999
 40
0.4999999999999999
 40
0.4999999999999999
 40
1.0
 40
1.0
 40
1.0
 40
1.0
 10
129.6254233329324
 20
119.7387046089858
 30
0.0
 10
129.6254233329324
 20
119.7387046089858
 30
0.0
 10
129.6451462783403
 20
119.7387046089858
 30
0.0
 10
129.7057827431016
 20
119.7387046089858
 30
0.0
 10
129.7470392887899
 20
119.7387046089858
 30
0.0
 10
129.888812598462
 20
119.7387046089858
 30
0.0
 10
130.0073796436224
 20
119.7387046089858
 30
0.0
 10
130.1254233329324
 20
119.7387046089858
 30
0.0
  0
SPLINE
  5
1A3
330
1F
100
AcDbEntity
  8
0
  6
Continuous
 62
     7
370
    25
100
AcDbSpline
210
0.0
220
0.0
230
1.0
 70
     8
 71
     3
 72
    25
 73
    21
 74
     0
 42
0.000000001
 43
0.00000001
 40
0.0
 40
0.0
 40
0.0
 40
0.0
 40
0.1249999999999999
 40
0.1249999999999999
 40
0.2499999999999999
 40
0.2499999999999999
 40
0.3749999999999999
 40
0.3749999999999999
 40
0.4374999999999999
 40
0.4374999999999999
 40
0.4999999999999999
 40
0.5625
 40
0.5625
 40
0.6249999999999999
 40
0.6249999999999999
 40
0.7500000000000001
 40
0.7500000000000001
 40
0.875
 40
0.875
 40
1.0
 40
1.0
 40
1.0
 40
1.0
 10
118.1254233329324
 20
137.1613208983185
 30
0.0
 10
117.867043027194
 20
136.6858929826799
 30
0.0
 10
117.6175194064032
 20
136.2023237760819
 30
0.0
 10
117.1475413284821
 20
135.2084642453682
 30
0.0
 10
116.92680678862
 20
134.6984313804516
 30
0.0
 10
116.5359626752741
 20
133.6318298888146
 30
0.0
 10
116.3681812691211
 20
133.0805830668847
 30
0.0
 10
116.1892997389644
 20
132.2214512937237
 30
0.0
 10
116.1416378324742
 20
131.9277638451734
 30
0.0
 10
116.0772807043647
 20
131.331984270861
 30
0.0
 10
116.044701515054
 20
130.7363203133909
 30
0.0
 10
116.0776194056362
 20
130.1408946522311
 30
0.0
 10
116.1422293762397
 20
129.5455842955359
 30
0.0
 10
116.1900654634734
 20
129.2517094681296
 30
0.0
 10
116.3690581149286
 20
128.3937681222427
 30
0.0
 10
116.5358026946096
 20
127.8461116394536
 30
0.0
 10
116.926375747712
 20
126.7800585515378
 30
0.0
 10
117.1475443921621
 20
126.2689314483959
 30
0.0
 10
117.6176265543175
 20
125.2748659040205
 30
0.0
 10
117.8671268484496
 20
124.7913620015365
 30
0.0
 10
118.1254233329326
 20
124.316088319653
 30
0.0
  0
LINE
  5
1A4
330
1F
100
AcDbEntity
  8
0
  6
Continuous
 62
     7
370
    25
100
AcDbLine
 10
130.5836809024
 20
142.038704609
 30
0.0
 11
131.6671657634
 21
142.038704609
 31
0.0
  0
LINE
  5
1A5
330
1F
100
AcDbEntity
  8
0
  6
Continuous
 62
     7
370
    25
100
AcDbLine
 10
130.1254233329
 20
141.738704609
 30
0.0
 11
132.1254233329
 21
141.738704609
 31
0.0
  0
LINE
  5
1A6
330
1F
100
AcDbEntity
  8
0
  6
Continuous
 62
     8
370
    25
100
AcDbLine
 10
138.1254233329
 20
116.738704609
 30
0.0
 11
138.1254233329
 21
144.738704609
 31
0.0
  0
LINE
  5
1A7
330
1F
100
AcDbEntity
  8
0
  6
Continuous
 62
     8
370
    25
100
AcDbLine
 10
137.1571774964
 20
143.988704609
 30
0.0
 11
137.1571774964
 21
117.488704609
 31
0.0
  0
LINE
  5
1A8
330
1F
100
AcDbEntity
  8
0
  6
Continuous
 62
     8
370
    25
100
AcDbLine
 10
134.2524399867
 20
119.738704609
 30
0.0
 11
134.2524399867
 21
141.738704609
 31
0.0
  0
LINE
  5
1A9
330
1F
100
AcDbEntity
  8
0
  6
Continuous
 62
     8
370
    25
100
AcDbLine
 10
129.7920899996
 20
139.8063516148
 30
0.0
 11
129.7920899996
 21
141.238704609
 31
0.0
  0
LINE
  5
1AA
330
1F
100
AcDbEntity
  8
0
  6
Continuous
 62
     8
370
    25
100
AcDbLine
 10
130.6254233329
 20
122.7543448977
 30
0.0
 11
130.6254233329
 21
120.6952263481
 31
0.0
  0
LINE
  5
1AB
330
1F
100
AcDbEntity
  8
0
  6
Continuous
 62
     8
370
    25
100
AcDbLine
 10
130.6254233329
 20
140.7821828699
 30
0.0
 11
130.6254233329
 21
138.7230643203
 31
0.0
  0
LINE
  5
1AC
330
1F
100
AcDbEntity
  8
0
  6
Continuous
 62
     8
370
    25
100
AcDbLine
 10
109.8652937442
 20
141.238704609
 30
0.0
 11
109.6254233329
 21
141.238704609
 31
0.0
  0
LINE
  5
1AD
330
1F
100
AcDbEntity
  8
0
  6
Continuous
 62
     8
370
    25
100
AcDbLine
 10
129.1254233329
 20
141.238704609
 30
0.0
 11
128.3855529217
 21
141.238704609
 31
0.0
  0
LINE
  5
1AE
330
1F
100
AcDbEntity
  8
0
  6
Continuous
 62
     8
370
    25
100
AcDbLine
 10
109.6254233329
 20
141.238704609
 30
0.0
 11
109.6254233329
 21
141.0221865096
 31
0.0
  0
LINE
  5
1AF
330
1F
100
AcDbEntity
  8
0
  6
Continuous
 62
     8
370
    25
100
AcDbLine
 10
109.6254233329
 20
120.4552227084
 30
0.0
 11
109.6254233329
 21
120.238704609
 31
0.0
  0
LINE
  5
1B0
330
1F
100
AcDbEntity
  8
0
  6
Continuous
 62
     8
370
    25
100
AcDbLine
 10
128.3855529217
 20
120.238704609
 30
0.0
 11
129.1254233329
 21
120.238704609
 31
0.0
  0
LINE
  5
1B1
330
1F
100
AcDbEntity
  8
0
  6
Continuous
 62
     8
370
    25
100
AcDbLine
 10
109.6254233329
 20
120.238704609
 30
0.0
 11
109.8652937442
 21
120.238704609
 31
0.0
  0
INSERT
  5
1BD
330
1F
100
AcDbEntity
  8
0
  6
Continuous
 62
     7
370
    18
100
AcDbBlockReference
  2
SW_CENTERMARKSYMBOL_1
 10
119.1254233329
 20
130.738704609
 30
0.0
  0
ARC
  5
1BE
330
1F
100
AcDbEntity
  8
0
  6
Continuous
 62
     7
370
    18
100
AcDbCircle
 10
119.1254233329
 20
130.738704609
 30
0.0
 40
10.43067500000002
100
AcDbArc
 50
75.0
 51
345.0
  0
ENDSEC
  0
SECTION
  2
OBJECTS
  0
DICTIONARY
  5
C
330
0
100
AcDbDictionary
281
     1
  3
ACAD_GROUP
350
D
  3
ACAD_LAYOUT
350
1A
  3
ACAD_MLINESTYLE
350
17
  3
ACAD_PLOTSETTINGS
350
19
  3
ACAD_PLOTSTYLENAME
350
E
  3
ACAD_SCALELIST
350
47
  0
DICTIONARY
  5
D
102
{ACAD_REACTORS
330
C
102
}
330
C
100
AcDbDictionary
281
     1
  0
DICTIONARY
  5
1A
102
{ACAD_REACTORS
330
C
102
}
330
C
100
AcDbDictionary
281
     1
  3
Layout1
350
1E
  3
Layout2
350
26
  3
Model
350
22
  0
DICTIONARY
  5
17
102
{ACAD_REACTORS
330
C
102
}
330
C
100
AcDbDictionary
281
     1
  3
Standard
350
18
  0
DICTIONARY
  5
19
102
{ACAD_REACTORS
330
C
102
}
330
C
100
AcDbDictionary
281
     1
  0
ACDBDICTIONARYWDFLT
  5
E
102
{ACAD_REACTORS
330
C
102
}
330
C
100
AcDbDictionary
281
     1
  3
Normal
350
F
100
AcDbDictionaryWithDefault
340
F
  0
DICTIONARY
  5
47
102
{ACAD_REACTORS
330
C
102
}
330
C
100
AcDbDictionary
281
     1
  3
A0
350
48
  3
A1
350
49
  3
A2
350
4A
  3
A3
350
4B
  3
A4
350
4C
  3
A5
350
4D
  3
A6
350
4E
  3
A7
350
4F
  3
A8
350
50
  3
A9
350
51
  3
B0
350
52
  3
B1
350
53
  3
B2
350
54
  3
B3
350
55
  3
B4
350
56
  3
B5
350
57
  3
B6
350
58
  3
B7
350
59
  3
B8
350
5A
  3
B9
350
5B
  3
C0
350
5C
  3
C1
350
5D
  3
C2
350
5E
  3
C3
350
5F
  3
C4
350
60
  3
C5
350
61
  3
C6
350
62
  3
C7
350
63
  3
C8
350
64
  3
C9
350
65
  3
D0
350
66
  3
D1
350
67
  3
D2
350
68
  0
LAYOUT
  5
1E
102
{ACAD_REACTORS
330
1A
102
}
330
1A
100
AcDbPlotSettings
  1

  2
none_device
  4

  6

 40
0.0
 41
0.0
 42
0.0
 43
0.0
 44
0.0
 45
0.0
 46
0.0
 47
0.0
 48
0.0
 49
0.0
140
0.0
141
0.0
142
1.0
143
1.0
 70
   688
 72
     1
 73
     0
 74
     5
  7

 75
    16
147
1.0
148
0.0
149
0.0
100
AcDbLayout
  1
Layout1
 70
     1
 71
     1
 10
0.0
 20
0.0
 11
420.0
 21
297.0
 12
0.0
 22
0.0
 32
0.0
 14
1.0000000000E+20
 24
1.0000000000E+20
 34
1.0000000000E+20
 15
-1.0000000000E+20
 25
-1.0000000000E+20
 35
-1.0000000000E+20
146
0.0
 13
0.0
 23
0.0
 33
0.0
 16
1.0
 26
0.0
 36
0.0
 17
0.0
 27
1.0
 37
0.0
 76
     0
330
1B
  0
LAYOUT
  5
26
102
{ACAD_REACTORS
330
1A
102
}
330
1A
100
AcDbPlotSettings
  1

  2
none_device
  4

  6

 40
0.0
 41
0.0
 42
0.0
 43
0.0
 44
0.0
 45
0.0
 46
0.0
 47
0.0
 48
0.0
 49
0.0
140
0.0
141
0.0
142
1.0
143
1.0
 70
   688
 72
     1
 73
     0
 74
     5
  7

 75
    16
147
1.0
148
0.0
149
0.0
100
AcDbLayout
  1
Layout2
 70
     1
 71
     2
 10
0.0
 20
0.0
 11
0.0
 21
0.0
 12
0.0
 22
0.0
 32
0.0
 14
0.0
 24
0.0
 34
0.0
 15
0.0
 25
0.0
 35
0.0
146
0.0
 13
0.0
 23
0.0
 33
0.0
 16
1.0
 26
0.0
 36
0.0
 17
0.0
 27
1.0
 37
0.0
 76
     0
330
23
  0
LAYOUT
  5
22
102
{ACAD_REACTORS
330
1A
102
}
330
1A
100
AcDbPlotSettings
  1

  2
none_device
  4
Letter_(8.50_x_11.00_Inches)
  6

 40
6.35
 41
6.35
 42
6.35000508
 43
6.35000508
 44
215.9
 45
279.4
 46
0.0
 47
0.0
 48
0.0
 49
0.0
140
0.0
141
0.0
142
1.0
143
1.0
 70
  1712
 72
     1
 73
     0
 74
     0
  7

 75
     0
147
1.0
148
0.0
149
0.0
100
AcDbLayout
  1
Model
 70
     1
 71
     0
 10
0.0
 20
0.0
 11
431.8
 21
279.4
 12
0.0
 22
0.0
 32
0.0
 14
0.0
 24
0.0
 34
0.0
 15
431.8
 25
279.4
 35
0.0
146
0.0
 13
0.0
 23
0.0
 33
0.0
 16
1.0
 26
0.0
 36
0.0
 17
0.0
 27
1.0
 37
0.0
 76
     0
330
1F
331
29
  0
MLINESTYLE
  5
18
102
{ACAD_REACTORS
330
17
102
}
330
17
100
AcDbMlineStyle
  2
Standard
 70
     0
  3

 62
   256
 51
90.0
 52
90.0
 71
     2
 49
0.5
 62
   256
  6
BYLAYER
 49
-0.5
 62
   256
  6
BYLAYER
  0
ACDBPLACEHOLDER
  5
F
102
{ACAD_REACTORS
330
E
102
}
330
E
  0
SCALE
  5
48
102
{ACAD_REACTORS
330
47
102
}
330
47
100
AcDbScale
 70
     0
300
1:1
140
1.0
141
1.0
290
     1
  0
SCALE
  5
49
102
{ACAD_REACTORS
330
47
102
}
330
47
100
AcDbScale
 70
     0
300
1:2
140
1.0
141
2.0
290
     0
  0
SCALE
  5
4A
102
{ACAD_REACTORS
330
47
102
}
330
47
100
AcDbScale
 70
     0
300
1:4
140
1.0
141
4.0
290
     0
  0
SCALE
  5
4B
102
{ACAD_REACTORS
330
47
102
}
330
47
100
AcDbScale
 70
     0
300
1:5
140
1.0
141
5.0
290
     0
  0
SCALE
  5
4C
102
{ACAD_REACTORS
330
47
102
}
330
47
100
AcDbScale
 70
     0
300
1:8
140
1.0
141
8.0
290
     0
  0
SCALE
  5
4D
102
{ACAD_REACTORS
330
47
102
}
330
47
100
AcDbScale
 70
     0
300
1:10
140
1.0
141
10.0
290
     0
  0
SCALE
  5
4E
102
{ACAD_REACTORS
330
47
102
}
330
47
100
AcDbScale
 70
     0
300
1:16
140
1.0
141
16.0
290
     0
  0
SCALE
  5
4F
102
{ACAD_REACTORS
330
47
102
}
330
47
100
AcDbScale
 70
     0
300
1:20
140
1.0
141
20.0
290
     0
  0
SCALE
  5
50
102
{ACAD_REACTORS
330
47
102
}
330
47
100
AcDbScale
 70
     0
300
1:30
140
1.0
141
30.0
290
     0
  0
SCALE
  5
51
102
{ACAD_REACTORS
330
47
102
}
330
47
100
AcDbScale
 70
     0
300
1:40
140
1.0
141
40.0
290
     0
  0
SCALE
  5
52
102
{ACAD_REACTORS
330
47
102
}
330
47
100
AcDbScale
 70
     0
300
1:50
140
1.0
141
50.0
290
     0
  0
SCALE
  5
53
102
{ACAD_REACTORS
330
47
102
}
330
47
100
AcDbScale
 70
     0
300
1:100
140
1.0
141
100.0
290
     0
  0
SCALE
  5
54
102
{ACAD_REACTORS
330
47
102
}
330
47
100
AcDbScale
 70
     0
300
2:1
140
2.0
141
1.0
290
     0
  0
SCALE
  5
55
102
{ACAD_REACTORS
330
47
102
}
330
47
100
AcDbScale
 70
     0
300
4:1
140
4.0
141
1.0
290
     0
  0
SCALE
  5
56
102
{ACAD_REACTORS
330
47
102
}
330
47
100
AcDbScale
 70
     0
300
8:1
140
8.0
141
1.0
290
     0
  0
SCALE
  5
57
102
{ACAD_REACTORS
330
47
102
}
330
47
100
AcDbScale
 70
     0
300
10:1
140
10.0
141
1.0
290
     0
  0
SCALE
  5
58
102
{ACAD_REACTORS
330
47
102
}
330
47
100
AcDbScale
 70
     0
300
100:1
140
100.0
141
1.0
290
     0
  0
SCALE
  5
59
102
{ACAD_REACTORS
330
47
102
}
330
47
100
AcDbScale
 70
     0
300
1/128" = 1'-0"
140
0.0078125
141
12.0
290
     0
  0
SCALE
  5
5A
102
{ACAD_REACTORS
330
47
102
}
330
47
100
AcDbScale
 70
     0
300
1/64" = 1'-0"
140
0.015625
141
12.0
290
     0
  0
SCALE
  5
5B
102
{ACAD_REACTORS
330
47
102
}
330
47
100
AcDbScale
 70
     0
300
1/32" = 1'-0"
140
0.03125
141
12.0
290
     0
  0
SCALE
  5
5C
102
{ACAD_REACTORS
330
47
102
}
330
47
100
AcDbScale
 70
     0
300
1/16" = 1'-0"
140
0.0625
141
12.0
290
     0
  0
SCALE
  5
5D
102
{ACAD_REACTORS
330
47
102
}
330
47
100
AcDbScale
 70
     0
300
3/32" = 1'-0"
140
0.09375
141
12.0
290
     0
  0
SCALE
  5
5E
102
{ACAD_REACTORS
330
47
102
}
330
47
100
AcDbScale
 70
     0
300
1/8" = 1'-0"
140
0.125
141
12.0
290
     0
  0
SCALE
  5
5F
102
{ACAD_REACTORS
330
47
102
}
330
47
100
AcDbScale
 70
     0
300
3/16" = 1'-0"
140
0.1875
141
12.0
290
     0
  0
SCALE
  5
60
102
{ACAD_REACTORS
330
47
102
}
330
47
100
AcDbScale
 70
     0
300
1/4" = 1'-0"
140
0.25
141
12.0
290
     0
  0
SCALE
  5
61
102
{ACAD_REACTORS
330
47
102
}
330
47
100
AcDbScale
 70
     0
300
3/8" = 1'-0"
140
0.375
141
12.0
290
     0
  0
SCALE
  5
62
102
{ACAD_REACTORS
330
47
102
}
330
47
100
AcDbScale
 70
     0
300
1/2" = 1'-0"
140
0.5
141
12.0
290
     0
  0
SCALE
  5
63
102
{ACAD_REACTORS
330
47
102
}
330
47
100
AcDbScale
 70
     0
300
3/4" = 1'-0"
140
0.75
141
12.0
290
     0
  0
SCALE
  5
64
102
{ACAD_REACTORS
330
47
102
}
330
47
100
AcDbScale
 70
     0
300
1" = 1'-0"
140
1.0
141
12.0
290
     0
  0
SCALE
  5
65
102
{ACAD_REACTORS
330
47
102
}
330
47
100
AcDbScale
 70
     0
300
1-1/2" = 1'-0"
140
1.5
141
12.0
290
     0
  0
SCALE
  5
66
102
{ACAD_REACTORS
330
47
102
}
330
47
100
AcDbScale
 70
     0
300
3" = 1'-0"
140
3.0
141
12.0
290
     0
  0
SCALE
  5
67
102
{ACAD_REACTORS
330
47
102
}
330
47
100
AcDbScale
 70
     0
300
6" = 1'-0"
140
6.0
141
12.0
290
     0
  0
SCALE
  5
68
102
{ACAD_REACTORS
330
47
102
}
330
47
100
AcDbScale
 70
     0
300
1'-0" = 1'-0"
140
12.0
141
12.0
290
     0
  0
ENDSEC
  0
EOF
