  0
SECTION
  2
HEADER
  9
$ACADVER
  1
AC1015
  9
$ACADMAINTVER
 70
     6
  9
$DWGCODEPAGE
  3
DOS932
  9
$INSBASE
 10
0.0
 20
0.0
 30
0.0
  9
$EXTMIN
 10
0.0
 20
0.0
 30
0.0
  9
$EXTMAX
 10
431.8
 20
279.4
 30
0.0
  9
$LIMMIN
 10
0.0
 20
0.0
  9
$LIMMAX
 10
431.8
 20
279.4
  9
$ORTHOMODE
 70
     0
  9
$REGENMODE
 70
     1
  9
$FILLMODE
 70
     1
  9
$QTEXTMODE
 70
     0
  9
$MIRRTEXT
 70
     1
  9
$LTSCALE
 40
1.0
  9
$ATTMODE
 70
     1
  9
$TEXTSIZE
 40
3.5
  9
$TRACEWID
 40
1.0
  9
$TEXTSTYLE
  7
Standard
  9
$CLAYER
  8
0
  9
$CELTYPE
  6
ByLayer
  9
$CECOLOR
 62
   256
  9
$CELTSCALE
 40
1.0
  9
$DISPSILH
 70
     0
  9
$DIMSCALE
 40
1.0
  9
$DIMASZ
 40
3.302
  9
$DIMEXO
 40
1.0
  9
$DIMDLI
 40
3.75
  9
$DIMRND
 40
0.0
  9
$DIMDLE
 40
0.0
  9
$DIMEXE
 40
1.0
  9
$DIMTP
 40
0.0
  9
$DIMTM
 40
0.0
  9
$DIMTXT
 40
3.5
  9
$DIMCEN
 40
2.5
  9
$DIMTSZ
 40
0.0
  9
$DIMTOL
 70
     0
  9
$DIMLIM
 70
     0
  9
$DIMTIH
 70
     1
  9
$DIMTOH
 70
     1
  9
$DIMSE1
 70
     0
  9
$DIMSE2
 70
     0
  9
$DIMTAD
 70
     1
  9
$DIMZIN
 70
     1
  9
$DIMBLK
  1

  9
$DIMASO
 70
     1
  9
$DIMSHO
 70
     1
  9
$DIMPOST
  1

  9
$DIMAPOST
  1

  9
$DIMALT
 70
     0
  9
$DIMALTD
 70
     3
  9
$DIMALTF
 40
0.0393700787
  9
$DIMLFAC
 40
1.0
  9
$DIMTOFL
 70
     1
  9
$DIMTVP
 40
0.0
  9
$DIMTIX
 70
     0
  9
$DIMSOXD
 70
     0
  9
$DIMSAH
 70
     0
  9
$DIMBLK1
  1

  9
$DIMBLK2
  1

  9
$DIMSTYLE
  2
ISO-25
  9
$DIMCLRD
 70
     0
  9
$DIMCLRE
 70
     0
  9
$DIMCLRT
 70
     0
  9
$DIMTFAC
 40
1.0
  9
$DIMGAP
 40
1.524
  9
$DIMJUST
 70
     0
  9
$DIMSD1
 70
     0
  9
$DIMSD2
 70
     0
  9
$DIMTOLJ
 70
     0
  9
$DIMTZIN
 70
     1
  9
$DIMALTZ
 70
     0
  9
$DIMALTTZ
 70
     0
  9
$DIMUPT
 70
     0
  9
$DIMDEC
 70
     2
  9
$DIMTDEC
 70
     2
  9
$DIMALTU
 70
     2
  9
$DIMALTTD
 70
     3
  9
$DIMTXSTY
  7
Standard
  9
$DIMAUNIT
 70
     0
  9
$DIMADEC
 70
     2
  9
$DIMALTRND
 40
0.0
  9
$DIMAZIN
 70
     0
  9
$DIMDSEP
 70
    44
  9
$DIMATFIT
 70
     3
  9
$DIMFRAC
 70
     0
  9
$DIMLDRBLK
  1

  9
$DIMLUNIT
 70
     2
  9
$DIMLWD
 70
    -2
  9
$DIMLWE
 70
    -2
  9
$DIMTMOVE
 70
     0
  9
$LUNITS
 70
     2
  9
$LUPREC
 70
     2
  9
$SKETCHINC
 40
1.0
  9
$FILLETRAD
 40
10.0
  9
$AUNITS
 70
     0
  9
$AUPREC
 70
     2
  9
$MENU
  1
.
  9
$ELEVATION
 40
0.0
  9
$PELEVATION
 40
0.0
  9
$THICKNESS
 40
0.0
  9
$LIMCHECK
 70
     0
  9
$CHAMFERA
 40
0.0
  9
$CHAMFERB
 40
0.0
  9
$CHAMFERC
 40
0.0
  9
$CHAMFERD
 40
0.0
  9
$SKPOLY
 70
     0
  9
$TDCREATE
 40
2459247.400466296
  9
$TDUCREATE
 40
2459247.025466296
  9
$TDUPDATE
 40
2459247.40046684
  9
$TDUUPDATE
 40
2459247.02546684
  9
$TDINDWG
 40
0.0000000116
  9
$TDUSRTIMER
 40
0.0000000116
  9
$USRTIMER
 70
     1
  9
$ANGBASE
 50
0.0
  9
$ANGDIR
 70
     0
  9
$PDMODE
 70
     0
  9
$PDSIZE
 40
-1.0
  9
$PLINEWID
 40
0.0
  9
$SPLFRAME
 70
     0
  9
$SPLINETYPE
 70
     6
  9
$SPLINESEGS
 70
     8
  9
$HANDSEED
  5
1B6
  9
$SURFTAB1
 70
     6
  9
$SURFTAB2
 70
     6
  9
$SURFTYPE
 70
     6
  9
$SURFU
 70
     6
  9
$SURFV
 70
     6
  9
$UCSBASE
  2

  9
$UCSNAME
  2

  9
$UCSORG
 10
0.0
 20
0.0
 30
0.0
  9
$UCSXDIR
 10
1.0
 20
0.0
 30
0.0
  9
$UCSYDIR
 10
0.0
 20
1.0
 30
0.0
  9
$UCSORTHOREF
  2

  9
$UCSORTHOVIEW
 70
     0
  9
$UCSORGTOP
 10
0.0
 20
0.0
 30
0.0
  9
$UCSORGBOTTOM
 10
0.0
 20
0.0
 30
0.0
  9
$UCSORGLEFT
 10
0.0
 20
0.0
 30
0.0
  9
$UCSORGRIGHT
 10
0.0
 20
0.0
 30
0.0
  9
$UCSORGFRONT
 10
0.0
 20
0.0
 30
0.0
  9
$UCSORGBACK
 10
0.0
 20
0.0
 30
0.0
  9
$PUCSBASE
  2

  9
$PUCSNAME
  2

  9
$PUCSORG
 10
0.0
 20
0.0
 30
0.0
  9
$PUCSXDIR
 10
1.0
 20
0.0
 30
0.0
  9
$PUCSYDIR
 10
0.0
 20
1.0
 30
0.0
  9
$PUCSORTHOREF
  2

  9
$PUCSORTHOVIEW
 70
     0
  9
$PUCSORGTOP
 10
0.0
 20
0.0
 30
0.0
  9
$PUCSORGBOTTOM
 10
0.0
 20
0.0
 30
0.0
  9
$PUCSORGLEFT
 10
0.0
 20
0.0
 30
0.0
  9
$PUCSORGRIGHT
 10
0.0
 20
0.0
 30
0.0
  9
$PUCSORGFRONT
 10
0.0
 20
0.0
 30
0.0
  9
$PUCSORGBACK
 10
0.0
 20
0.0
 30
0.0
  9
$USERI1
 70
     0
  9
$USERI2
 70
     0
  9
$USERI3
 70
     0
  9
$USERI4
 70
     0
  9
$USERI5
 70
     0
  9
$USERR1
 40
0.0
  9
$USERR2
 40
0.0
  9
$USERR3
 40
0.0
  9
$USERR4
 40
0.0
  9
$USERR5
 40
0.0
  9
$WORLDVIEW
 70
     1
  9
$SHADEDGE
 70
     3
  9
$SHADEDIF
 70
    70
  9
$TILEMODE
 70
     1
  9
$MAXACTVP
 70
    64
  9
$PINSBASE
 10
0.0
 20
0.0
 30
0.0
  9
$PLIMCHECK
 70
     0
  9
$PEXTMIN
 10
1.0000000000E+20
 20
1.0000000000E+20
 30
1.0000000000E+20
  9
$PEXTMAX
 10
-1.0000000000E+20
 20
-1.0000000000E+20
 30
-1.0000000000E+20
  9
$PLIMMIN
 10
0.0
 20
0.0
  9
$PLIMMAX
 10
420.0
 20
297.0
  9
$UNITMODE
 70
     0
  9
$VISRETAIN
 70
     1
  9
$PLINEGEN
 70
     0
  9
$PSLTSCALE
 70
     1
  9
$TREEDEPTH
 70
  3020
  9
$CMLSTYLE
  2
Standard
  9
$CMLJUST
 70
     0
  9
$CMLSCALE
 40
20.0
  9
$PROXYGRAPHICS
 70
     1
  9
$MEASUREMENT
 70
     1
  9
$CELWEIGHT
370
    -1
  9
$ENDCAPS
280
     0
  9
$JOINSTYLE
280
     0
  9
$LWDISPLAY
290
     1
  9
$INSUNITS
 70
     4
  9
$HYPERLINKBASE
  1

  9
$STYLESHEET
  1

  9
$XEDIT
290
     1
  9
$CEPSNTYPE
380
     0
  9
$PSTYLEMODE
290
     1
  9
$FINGERPRINTGUID
  2
{F4C8DFDC-D01C-4A53-B8C3-F2C6A63D8313}
  9
$VERSIONGUID
  2
{FAEB1C32-E019-11D5-929B-00C0DF256EC4}
  9
$EXTNAMES
290
     1
  9
$PSVPSCALE
 40
0.0
  9
$OLESTARTUP
290
     0
  0
ENDSEC
  0
SECTION
  2
CLASSES
  0
CLASS
  1
ACDBDICTIONARYWDFLT
  2
AcDbDictionaryWithDefault
  3
ObjectDBX Classes
 90
        0
280
     0
281
     0
  0
CLASS
  1
VISUALSTYLE
  2
AcDbVisualStyle
  3
ObjectDBX Classes
 90
     4095
280
     0
281
     0
  0
CLASS
  1
MATERIAL
  2
AcDbMaterial
  3
ObjectDBX Classes
 90
     1153
280
     0
281
     0
  0
CLASS
  1
SCALE
  2
AcDbScale
  3
ObjectDBX Classes
 90
     1153
280
     0
281
     0
  0
CLASS
  1
TABLESTYLE
  2
AcDbTableStyle
  3
ObjectDBX Classes
 90
     4095
280
     0
281
     0
  0
CLASS
  1
MLEADERSTYLE
  2
AcDbMLeaderStyle
  3
ACDB_MLEADERSTYLE_CLASS
 90
     4095
280
     0
281
     0
  0
CLASS
  1
SUN
  2
AcDbSun
  3
SCENEOE
 90
     1153
280
     0
281
     0
  0
CLASS
  1
ACDBPLACEHOLDER
  2
AcDbPlaceHolder
  3
ObjectDBX Classes
 90
        0
280
     0
281
     0
  0
CLASS
  1
LAYOUT
  2
AcDbLayout
  3
ObjectDBX Classes
 90
        0
280
     0
281
     0
  0
ENDSEC
  0
SECTION
  2
TABLES
  0
TABLE
  2
VPORT
  5
8
330
0
100
AcDbSymbolTable
 70
     1
  0
VPORT
  5
29
330
8
100
AcDbSymbolTableRecord
100
AcDbViewportTableRecord
  2
*Active
 70
     0
 10
0.0
 20
0.0
 11
1.0
 21
1.0
 12
215.9
 22
139.7
 13
0.0
 23
0.0
 14
10.0
 24
10.0
 15
10.0
 25
10.0
 16
0.0
 26
0.0
 36
1.0
 17
0.0
 27
0.0
 37
0.0
 40
279.4
 41
1.5454545455
 42
50.0
 43
0.0
 44
0.0
 50
0.0
 51
0.0
 71
     0
 72
  2000
 73
     1
 74
     3
 75
     0
 76
     0
 77
     0
 78
     0
281
     0
 65
     1
110
0.0
120
0.0
130
0.0
111
1.0
121
0.0
131
0.0
112
0.0
122
1.0
132
0.0
 79
     0
146
0.0
  0
ENDTAB
  0
TABLE
  2
LTYPE
  5
5
330
0
100
AcDbSymbolTable
 70
     6
  0
LTYPE
  5
14
330
5
100
AcDbSymbolTableRecord
100
AcDbLinetypeTableRecord
  2
ByBlock
 70
     0
  3

 72
    65
 73
     0
 40
0.0
  0
LTYPE
  5
15
330
5
100
AcDbSymbolTableRecord
100
AcDbLinetypeTableRecord
  2
ByLayer
 70
     0
  3

 72
    65
 73
     0
 40
0.0
  0
LTYPE
  5
16
330
5
100
AcDbSymbolTableRecord
100
AcDbLinetypeTableRecord
  2
Continuous
 70
     0
  3
Solid line
 72
    65
 73
     0
 40
0.0
  0
LTYPE
  5
6E
330
5
100
AcDbSymbolTableRecord
100
AcDbLinetypeTableRecord
  2
HIDDEN
 70
     0
  3
Hidden __ __ __ __ __ __ __ __ __ __ __ __ __ __
 72
    65
 73
     2
 40
1.905
 49
1.27
 74
     0
 49
-0.635
 74
     0
  0
LTYPE
  5
6F
330
5
100
AcDbSymbolTableRecord
100
AcDbLinetypeTableRecord
  2
PHANTOM
 70
     0
  3
Phantom ______  __  __  ______  __  __  ______
 72
    65
 73
     6
 40
12.7
 49
6.35
 74
     0
 49
-1.27
 74
     0
 49
1.27
 74
     0
 49
-1.27
 74
     0
 49
1.27
 74
     0
 49
-1.27
 74
     0
  0
LTYPE
  5
70
330
5
100
AcDbSymbolTableRecord
100
AcDbLinetypeTableRecord
  2
CENTER
 70
     0
  3
Center ____ _ ____ _ ____ _ ____ _ ____ _ ____
 72
    65
 73
     4
 40
10.16
 49
6.35
 74
     0
 49
-1.27
 74
     0
 49
1.27
 74
     0
 49
-1.27
 74
     0
  0
LTYPE
  5
71
330
5
100
AcDbSymbolTableRecord
100
AcDbLinetypeTableRecord
  2
CENTERX2
 70
     0
  3
Center (2x) ________  __  ________  __  _____
 72
    65
 73
     4
 40
20.32
 49
12.7
 74
     0
 49
-2.54
 74
     0
 49
2.54
 74
     0
 49
-2.54
 74
     0
  0
LTYPE
  5
72
330
5
100
AcDbSymbolTableRecord
100
AcDbLinetypeTableRecord
  2
DOT2
 70
     0
  3
Dot (.5x) ........................................
 72
    65
 73
     2
 40
0.635
 49
0.0
 74
     0
 49
-0.635
 74
     0
  0
ENDTAB
  0
TABLE
  2
LAYER
  5
2
330
0
100
AcDbSymbolTable
 70
     1
  0
LAYER
  5
10
330
2
100
AcDbSymbolTableRecord
100
AcDbLayerTableRecord
  2
0
 70
     0
 62
     7
  6
Continuous
370
    -3
390
F
  0
ENDTAB
  0
TABLE
  2
STYLE
  5
3
330
0
100
AcDbSymbolTable
 70
     2
  0
STYLE
  5
11
330
3
100
AcDbSymbolTableRecord
100
AcDbTextStyleTableRecord
  2
Standard
 70
     0
 40
0.0
 41
1.0
 50
0.0
 71
     0
 42
3.5
  3
txt
  4
bigfont
  0
STYLE
  5
73
330
3
100
AcDbSymbolTableRecord
100
AcDbTextStyleTableRecord
  2
SLDTEXTSTYLE0
 70
     0
 40
0.0
 41
0.7
 50
0.0
 71
     0
 42
3.5
  3
TXT
  4
bigfont
  0
ENDTAB
  0
TABLE
  2
VIEW
  5
6
330
0
100
AcDbSymbolTable
 70
     0
  0
ENDTAB
  0
TABLE
  2
UCS
  5
7
330
0
100
AcDbSymbolTable
 70
     0
  0
ENDTAB
  0
TABLE
  2
APPID
  5
9
330
0
100
AcDbSymbolTable
 70
     1
  0
APPID
  5
12
330
9
100
AcDbSymbolTableRecord
100
AcDbRegAppTableRecord
  2
ACAD
 70
     0
  0
ENDTAB
  0
TABLE
  2
DIMSTYLE
  5
A
330
0
100
AcDbSymbolTable
 70
     1
100
AcDbDimStyleTable
  0
DIMSTYLE
105
27
330
A
100
AcDbSymbolTableRecord
100
AcDbDimStyleTableRecord
  2
ISO-25
 70
     0
 41
2.5
 42
0.625
 43
3.75
 44
1.25
 73
     0
 74
     0
 77
     1
 78
     8
140
2.5
141
2.5
143
0.0393700787
147
0.625
171
     3
172
     1
178
     0
271
     2
272
     2
274
     3
278
    44
283
     0
284
     8
340
11
  0
ENDTAB
  0
TABLE
  2
BLOCK_RECORD
  5
1
330
0
100
AcDbSymbolTable
 70
     3
  0
BLOCK_RECORD
  5
1F
330
1
100
AcDbSymbolTableRecord
100
AcDbBlockTableRecord
  2
*Model_Space
340
22
  0
BLOCK_RECORD
  5
1B
330
1
100
AcDbSymbolTableRecord
100
AcDbBlockTableRecord
  2
*Paper_Space
340
1E
  0
BLOCK_RECORD
  5
23
330
1
100
AcDbSymbolTableRecord
100
AcDbBlockTableRecord
  2
*Paper_Space0
340
26
  0
BLOCK_RECORD
  5
14F
330
1
100
AcDbSymbolTableRecord
100
AcDbBlockTableRecord
  2
SW_CENTERMARKSYMBOL_0
340
0
102
{BLKREFS
331
15A
102
}
  0
BLOCK_RECORD
  5
1A9
330
1
100
AcDbSymbolTableRecord
100
AcDbBlockTableRecord
  2
SW_CENTERMARKSYMBOL_1
340
0
102
{BLKREFS
331
1B4
102
}
  0
ENDTAB
  0
ENDSEC
  0
SECTION
  2
BLOCKS
  0
BLOCK
  5
20
330
1F
100
AcDbEntity
  8
0
100
AcDbBlockBegin
  2
*Model_Space
 70
     0
 10
0.0
 20
0.0
 30
0.0
  3
*Model_Space
  1

  0
ENDBLK
  5
21
330
1F
100
AcDbEntity
  8
0
100
AcDbBlockEnd
  0
BLOCK
  5
1C
330
1B
100
AcDbEntity
 67
     1
  8
0
100
AcDbBlockBegin
  2
*Paper_Space
 70
     0
 10
0.0
 20
0.0
 30
0.0
  3
*Paper_Space
  1

  0
ENDBLK
  5
1D
330
1B
100
AcDbEntity
 67
     1
  8
0
100
AcDbBlockEnd
  0
BLOCK
  5
24
330
23
100
AcDbEntity
  8
0
100
AcDbBlockBegin
  2
*Paper_Space0
 70
     0
 10
0.0
 20
0.0
 30
0.0
  3
*Paper_Space0
  1

  0
ENDBLK
  5
25
330
23
100
AcDbEntity
  8
0
100
AcDbBlockEnd
  0
BLOCK
  5
150
330
14F
100
AcDbEntity
  8
0
100
AcDbBlockBegin
  2
SW_CENTERMARKSYMBOL_0
 70
     0
 10
0.0
 20
0.0
 30
0.0
  3
SW_CENTERMARKSYMBOL_0
  1

  0
LINE
  5
152
330
14F
100
AcDbEntity
  8
0
  6
Continuous
 62
     0
370
    18
100
AcDbLine
 10
0.0
 20
0.0
 30
0.0
 11
0.0
 21
2.5
 31
0.0
  0
LINE
  5
153
330
14F
100
AcDbEntity
  8
0
  6
Continuous
 62
     0
370
    18
100
AcDbLine
 10
0.0
 20
0.0
 30
0.0
 11
-2.5
 21
0.0
 31
0.0
  0
LINE
  5
154
330
14F
100
AcDbEntity
  8
0
  6
Continuous
 62
     0
370
    18
100
AcDbLine
 10
0.0
 20
0.0
 30
0.0
 11
0.0
 21
-2.5
 31
0.0
  0
LINE
  5
155
330
14F
100
AcDbEntity
  8
0
  6
Continuous
 62
     0
370
    18
100
AcDbLine
 10
0.0
 20
0.0
 30
0.0
 11
2.5
 21
0.0
 31
0.0
  0
LINE
  5
156
330
14F
100
AcDbEntity
  8
0
  6
Continuous
 62
     0
370
    18
100
AcDbLine
 10
0.0
 20
5.0
 30
0.0
 11
0.0
 21
36.7385876725
 31
0.0
  0
LINE
  5
157
330
14F
100
AcDbEntity
  8
0
  6
Continuous
 62
     0
370
    18
100
AcDbLine
 10
-5.0
 20
0.0
 30
0.0
 11
-16.5
 21
0.0
 31
0.0
  0
LINE
  5
158
330
14F
100
AcDbEntity
  8
0
  6
Continuous
 62
     0
370
    18
100
AcDbLine
 10
0.0
 20
-5.0
 30
0.0
 11
0.0
 21
-16.5
 31
0.0
  0
LINE
  5
159
330
14F
100
AcDbEntity
  8
0
  6
Continuous
 62
     0
370
    18
100
AcDbLine
 10
5.0
 20
0.0
 30
0.0
 11
16.5
 21
0.0
 31
0.0
  0
ENDBLK
  5
151
330
14F
100
AcDbEntity
  8
0
100
AcDbBlockEnd
  0
BLOCK
  5
1AA
330
1A9
100
AcDbEntity
  8
0
100
AcDbBlockBegin
  2
SW_CENTERMARKSYMBOL_1
 70
     0
 10
0.0
 20
0.0
 30
0.0
  3
SW_CENTERMARKSYMBOL_1
  1

  0
LINE
  5
1AC
330
1A9
100
AcDbEntity
  8
0
  6
Continuous
 62
     0
370
    18
100
AcDbLine
 10
0.0
 20
0.0
 30
0.0
 11
0.0
 21
2.5
 31
0.0
  0
LINE
  5
1AD
330
1A9
100
AcDbEntity
  8
0
  6
Continuous
 62
     0
370
    18
100
AcDbLine
 10
0.0
 20
0.0
 30
0.0
 11
-2.5
 21
0.0
 31
0.0
  0
LINE
  5
1AE
330
1A9
100
AcDbEntity
  8
0
  6
Continuous
 62
     0
370
    18
100
AcDbLine
 10
0.0
 20
0.0
 30
0.0
 11
0.0
 21
-2.5
 31
0.0
  0
LINE
  5
1AF
330
1A9
100
AcDbEntity
  8
0
  6
Continuous
 62
     0
370
    18
100
AcDbLine
 10
0.0
 20
0.0
 30
0.0
 11
2.5
 21
0.0
 31
0.0
  0
LINE
  5
1B0
330
1A9
100
AcDbEntity
  8
0
  6
Continuous
 62
     0
370
    18
100
AcDbLine
 10
0.0
 20
5.0
 30
0.0
 11
0.0
 21
16.5
 31
0.0
  0
LINE
  5
1B1
330
1A9
100
AcDbEntity
  8
0
  6
Continuous
 62
     0
370
    18
100
AcDbLine
 10
-5.0
 20
0.0
 30
0.0
 11
-16.5
 21
0.0
 31
0.0
  0
LINE
  5
1B2
330
1A9
100
AcDbEntity
  8
0
  6
Continuous
 62
     0
370
    18
100
AcDbLine
 10
0.0
 20
-5.0
 30
0.0
 11
0.0
 21
-16.5
 31
0.0
  0
LINE
  5
1B3
330
1A9
100
AcDbEntity
  8
0
  6
Continuous
 62
     0
370
    18
100
AcDbLine
 10
5.0
 20
0.0
 30
0.0
 11
36.5971136636
 21
0.0
 31
0.0
  0
ENDBLK
  5
1AB
330
1A9
100
AcDbEntity
  8
0
100
AcDbBlockEnd
  0
ENDSEC
  0
SECTION
  2
ENTITIES
  0
MTEXT
  5
74
330
1F
100
AcDbEntity
  8
0
  6
Continuous
 62
     7
370
     0
100
AcDbMText
 10
152.6673706182
 20
112.0588842986
 30
0.0
 40
4.2333333333
 41
0.0
 71
     1
 72
     1
  1
5R-LF1034
  7
SLDTEXTSTYLE0
 73
     1
 44
1.0
  0
LINE
  5
75
330
1F
100
AcDbEntity
  8
0
  6
Continuous
 62
     7
370
    25
100
AcDbLine
 10
138.0913372976
 20
83.1900811499
 30
0.0
 11
138.0913372976
 21
97.1900811499
 31
0.0
  0
LINE
  5
76
330
1F
100
AcDbEntity
  8
0
  6
Continuous
 62
     7
370
    25
100
AcDbLine
 10
110.0913372976
 20
97.1900811499
 30
0.0
 11
110.0913372976
 21
83.1900811499
 31
0.0
  0
LINE
  5
77
330
1F
100
AcDbEntity
  8
0
  6
Continuous
 62
     7
370
    25
100
AcDbLine
 10
157.0913372976
 20
78.1900811499
 30
0.0
 11
143.0913372976
 21
78.1900811499
 31
0.0
  0
LINE
  5
78
330
1F
100
AcDbEntity
  8
0
  6
Continuous
 62
     7
370
    25
100
AcDbLine
 10
143.0913372976
 20
50.1900811499
 30
0.0
 11
157.0913372976
 21
50.1900811499
 31
0.0
  0
LINE
  5
79
330
1F
100
AcDbEntity
  8
0
  6
Continuous
 62
     7
370
    25
100
AcDbLine
 10
157.0913372976
 20
50.1900811499
 30
0.0
 11
158.0913372976
 21
51.1900811499
 31
0.0
  0
LINE
  5
7A
330
1F
100
AcDbEntity
  8
0
  6
Continuous
 62
     7
370
    25
100
AcDbLine
 10
158.0913372976
 20
77.1900811499
 30
0.0
 11
157.0913372976
 21
78.1900811499
 31
0.0
  0
ARC
  5
7B
330
1F
100
AcDbEntity
  8
0
  6
Continuous
 62
     7
370
    25
100
AcDbCircle
 10
143.0913372976
 20
51.1900811499
 30
0.0
 40
1.000000000000004
100
AcDbArc
 50
194.4775121859
 51
270.0
  0
ARC
  5
7C
330
1F
100
AcDbEntity
  8
0
  6
Continuous
 62
     7
370
    25
100
AcDbCircle
 10
143.0913372976
 20
77.1900811499
 30
0.0
 40
1.000000000000004
100
AcDbArc
 50
90.0
 51
165.5224878141
  0
ARC
  5
7D
330
1F
100
AcDbEntity
  8
0
  6
Continuous
 62
     7
370
    25
100
AcDbCircle
 10
111.0913372976
 20
83.1900811499
 30
0.0
 40
1.0
100
AcDbArc
 50
180.0
 51
255.5224878141
  0
ARC
  5
7E
330
1F
100
AcDbEntity
  8
0
  6
Continuous
 62
     7
370
    25
100
AcDbCircle
 10
137.0913372976
 20
83.1900811499
 30
0.0
 40
1.000000000000004
100
AcDbArc
 50
284.4775121859
 51
0.0
  0
LINE
  5
7F
330
1F
100
AcDbEntity
  8
0
  6
Continuous
 62
     7
370
    25
100
AcDbLine
 10
138.0913372976
 20
97.1900811499
 30
0.0
 11
137.0913372976
 21
98.1900811499
 31
0.0
  0
LINE
  5
80
330
1F
100
AcDbEntity
  8
0
  6
Continuous
 62
     7
370
    25
100
AcDbLine
 10
111.0913372976
 20
98.1900811499
 30
0.0
 11
110.0913372976
 21
97.1900811499
 31
0.0
  0
ARC
  5
81
330
1F
100
AcDbEntity
  8
0
  6
Continuous
 62
     7
370
    25
100
AcDbCircle
 10
139.2183539514
 20
50.1900811499
 30
0.0
 40
3.000000000000012
100
AcDbArc
 50
14.4775121859
 51
90.0
  0
ARC
  5
82
330
1F
100
AcDbEntity
  8
0
  6
Continuous
 62
     7
370
    25
100
AcDbCircle
 10
139.2183539514
 20
78.1900811499
 30
0.0
 40
3.000000000000014
100
AcDbArc
 50
270.0
 51
345.5224878141
  0
ARC
  5
83
330
1F
100
AcDbEntity
  8
0
  6
Continuous
 62
     7
370
    25
100
AcDbCircle
 10
110.0913372976
 20
79.3170978037
 30
0.0
 40
3.000000000000012
100
AcDbArc
 50
0.0
 51
75.5224878141
  0
ARC
  5
84
330
1F
100
AcDbEntity
  8
0
  6
Continuous
 62
     7
370
    25
100
AcDbCircle
 10
138.0913372976
 20
79.3170978037
 30
0.0
 40
3.0
100
AcDbArc
 50
104.4775121859
 51
180.0
  0
LINE
  5
85
330
1F
100
AcDbEntity
  8
0
  6
Continuous
 62
     7
370
    25
100
AcDbLine
 10
139.2183539514
 20
75.1900811499
 30
0.0
 11
136.0913372976
 21
75.1900811499
 31
0.0
  0
LINE
  5
86
330
1F
100
AcDbEntity
  8
0
  6
Continuous
 62
     7
370
    25
100
AcDbLine
 10
117.0865753883
 20
53.1900811499
 30
0.0
 11
139.2183539514
 21
53.1900811499
 31
0.0
  0
LINE
  5
87
330
1F
100
AcDbEntity
  8
0
  6
Continuous
 62
     7
370
    25
100
AcDbLine
 10
135.0913372976
 20
76.1900811499
 30
0.0
 11
135.0913372976
 21
79.3170978037
 31
0.0
  0
LINE
  5
88
330
1F
100
AcDbEntity
  8
0
  6
Continuous
 62
     7
370
    25
100
AcDbLine
 10
113.0913372976
 20
79.3170978037
 30
0.0
 11
113.0913372976
 21
57.1853192406
 31
0.0
  0
SPLINE
  5
89
330
1F
100
AcDbEntity
  8
0
  6
Continuous
 62
     7
370
    25
100
AcDbSpline
210
0.0
220
0.0
230
1.0
 70
     8
 71
     3
 72
    21
 73
    17
 74
     0
 42
0.000000001
 43
0.00000001
 40
0.0
 40
0.0
 40
0.0
 40
0.0
 40
0.082675685630924
 40
0.1577159325188836
 40
0.225107159227423
 40
0.2848508973562325
 40
0.3526128230463965
 40
0.4067896959711119
 40
0.4520101709879598
 40
0.5086862178782585
 40
0.5792250734246939
 40
0.6636252331326754
 40
0.7360319020681837
 40
0.8162246501067455
 40
0.904219872834077
 40
1.0
 40
1.0
 40
1.0
 40
1.0
 10
113.0913373005691
 20
57.18992913485149
 30
0.0
 10
113.0978715070009
 20
57.01676525406889
 30
0.0
 10
113.1103364590942
 20
56.68642988729452
 30
0.0
 10
113.2024042430304
 20
56.22262071878296
 30
0.0
 10
113.3269240245067
 20
55.81760023779544
 30
0.0
 10
113.4864297789288
 20
55.44144999598711
 30
0.0
 10
113.6694877426774
 20
55.10731483502904
 30
0.0
 10
113.8662190160424
 20
54.81750283292283
 30
0.0
 10
114.0702276115772
 20
54.56204802607019
 30
0.0
 10
114.3176317094103
 20
54.29861103606653
 30
0.0
 10
114.6525321578326
 20
54.00737379937014
 30
0.0
 10
115.0478688309103
 20
53.74004958778808
 30
0.0
 10
115.4904967501146
 20
53.51361772109266
 30
0.0
 10
115.9646080517082
 20
53.3409651019245
 30
0.0
 10
116.5055235753042
 20
53.2157186060295
 30
0.0
 10
116.8905283203463
 20
53.19886494973079
 30
0.0
 10
117.0911852825615
 20
53.19008115285902
 30
0.0
  0
SPLINE
  5
8A
330
1F
100
AcDbEntity
  8
0
  6
Continuous
 62
     7
370
    25
100
AcDbSpline
210
0.0
220
0.0
230
1.0
 70
     8
 71
     3
 72
    11
 73
     7
 74
     0
 42
0.000000001
 43
0.00000001
 40
0.0
 40
0.0
 40
0.0
 40
0.0
 40
0.250045322115713
 40
0.5
 40
0.7499546778842864
 40
1.0
 40
1.0
 40
1.0
 40
1.0
 10
136.0913372976071
 20
75.19008114990011
 30
0.0
 10
135.9602898995015
 20
75.2051466133163
 30
0.0
 10
135.6982426094407
 20
75.23527207874939
 30
0.0
 10
135.3678923358915
 20
75.4666361881815
 30
0.0
 10
135.1365282264594
 20
75.79698646173065
 30
0.0
 10
135.1064027610263
 20
76.05903375179149
 30
0.0
 10
135.0913372976101
 20
76.19008114989711
 30
0.0
  0
LINE
  5
8B
330
1F
100
AcDbEntity
  8
0
  6
Continuous
 62
     7
370
    25
100
AcDbLine
 10
138.0913372976
 20
97.1900811499
 30
0.0
 11
110.0913372976
 21
97.1900811499
 31
0.0
  0
LINE
  5
8C
330
1F
100
AcDbEntity
  8
0
  6
Continuous
 62
     7
370
    25
100
AcDbLine
 10
157.0913372976
 20
50.1900811499
 30
0.0
 11
157.0913372976
 21
78.1900811499
 31
0.0
  0
LINE
  5
8D
330
1F
100
AcDbEntity
  8
0
  6
Continuous
 62
     7
370
    25
100
AcDbLine
 10
158.0913372976
 20
77.1900811499
 30
0.0
 11
158.0913372976
 21
51.1900811499
 31
0.0
  0
LINE
  5
8E
330
1F
100
AcDbEntity
  8
0
  6
Continuous
 62
     7
370
    25
100
AcDbLine
 10
111.0913372976
 20
98.1900811499
 30
0.0
 11
137.0913372976
 21
98.1900811499
 31
0.0
  0
SPLINE
  5
8F
330
1F
100
AcDbEntity
  8
0
  6
Continuous
 62
     7
370
    25
100
AcDbSpline
210
0.0
220
0.0
230
1.0
 70
     8
 71
     3
 72
    12
 73
     8
 74
     0
 42
0.000000001
 43
0.00000001
 40
0.0
 40
0.0
 40
0.0
 40
0.0
 40
0.2500000000000001
 40
0.2500000000000001
 40
0.5000000000000001
 40
0.5000000000000001
 40
1.0
 40
1.0
 40
1.0
 40
1.0
 10
134.5913372976432
 20
60.91136188778211
 30
0.0
 10
134.5913372976432
 20
61.18888389369192
 30
0.0
 10
134.6110602430511
 20
61.46502022062468
 30
0.0
 10
134.6716967078123
 20
62.01580408403725
 30
0.0
 10
134.7129532535007
 20
62.29001248056264
 30
0.0
 10
134.8547265631728
 20
63.10816875821143
 30
0.0
 10
134.9732936083331
 20
63.64913167331644
 30
0.0
 10
135.0913372976432
 20
64.1900811499331
 30
0.0
  0
SPLINE
  5
90
330
1F
100
AcDbEntity
  8
0
  6
Continuous
 62
     7
370
    25
100
AcDbSpline
210
0.0
220
0.0
230
1.0
 70
     8
 71
     3
 72
    12
 73
     8
 74
     0
 42
0.000000001
 43
0.00000001
 40
0.0
 40
0.0
 40
0.0
 40
0.0
 40
0.2500000000000001
 40
0.2500000000000001
 40
0.5000000000000001
 40
0.5000000000000001
 40
1.0
 40
1.0
 40
1.0
 40
1.0
 10
135.0175944656211
 20
60.91136188778211
 30
0.0
 10
134.994881963913
 20
61.18266632615458
 30
0.0
 10
134.9873694440836
 20
61.45477852471491
 30
0.0
 10
134.9858133693831
 20
62.00048820918671
 30
0.0
 10
134.992240211224
 20
62.27388416334917
 30
0.0
 10
135.0224652115249
 20
63.09410604041845
 30
0.0
 10
135.0571607326418
 20
63.64244143773419
 30
0.0
 10
135.0913372976432
 20
64.1900811499331
 30
0.0
  0
LINE
  5
91
330
1F
100
AcDbEntity
  8
0
  6
Continuous
 62
     7
370
    25
100
AcDbLine
 10
134.5913372976
 20
60.9113618878
 30
0.0
 11
135.0175944656
 21
60.9113618878
 31
0.0
  0
ARC
  5
92
330
1F
100
AcDbEntity
  8
0
  6
Continuous
 62
     7
370
    25
100
AcDbCircle
 10
135.6023750727
 20
59.87133715
 30
0.0
 40
1.193155402138533
100
AcDbArc
 50
97.6349315662
 51
119.347988814
  0
SPLINE
  5
93
330
1F
100
AcDbEntity
  8
0
  6
Continuous
 62
     7
370
    25
100
AcDbSpline
210
0.0
220
0.0
230
1.0
 70
     8
 71
     3
 72
    12
 73
     8
 74
     0
 42
0.000000001
 43
0.00000001
 40
0.0
 40
0.0
 40
0.0
 40
0.0
 40
0.2500000000000001
 40
0.2500000000000001
 40
0.5000000000000001
 40
0.5000000000000001
 40
1.0
 40
1.0
 40
1.0
 40
1.0
 10
135.443851633599
 20
61.05391489917998
 30
0.0
 10
135.3958096629692
 20
61.30588300036604
 30
0.0
 10
135.3591160203255
 20
61.56148151902364
 30
0.0
 10
135.2931253389008
 20
62.07800788388447
 30
0.0
 10
135.2643518507239
 20
62.3394280432049
 30
0.0
 10
135.1838761437131
 20
63.12711179754332
 30
0.0
 10
135.1377464404699
 20
63.65912337017861
 30
0.0
 10
135.0913372976432
 20
64.1900811499331
 30
0.0
  0
LINE
  5
94
330
1F
100
AcDbEntity
  8
0
  6
Continuous
 62
     7
370
    25
100
AcDbLine
 10
134.5913372976
 20
67.4688004121
 30
0.0
 11
135.0175944656
 21
67.4688004121
 31
0.0
  0
SPLINE
  5
95
330
1F
100
AcDbEntity
  8
0
  6
Continuous
 62
     7
370
    25
100
AcDbSpline
210
0.0
220
0.0
230
1.0
 70
     8
 71
     3
 72
    12
 73
     8
 74
     0
 42
0.000000001
 43
0.00000001
 40
0.0
 40
0.0
 40
0.0
 40
0.0
 40
0.25
 40
0.25
 40
0.5
 40
0.5
 40
1.0
 40
1.0
 40
1.0
 40
1.0
 10
135.0175944656211
 20
67.46880041208408
 30
0.0
 10
134.994881963912
 20
67.19749597369903
 30
0.0
 10
134.9873694440828
 20
66.92538377512602
 30
0.0
 10
134.9858133693836
 20
66.37967409062877
 30
0.0
 10
134.9922402112257
 20
66.10627813645362
 30
0.0
 10
135.02246521153
 20
65.2860562593462
 30
0.0
 10
135.0571607326542
 20
64.73772086215968
 30
0.0
 10
135.0913372976432
 20
64.1900811499331
 30
0.0
  0
SPLINE
  5
96
330
1F
100
AcDbEntity
  8
0
  6
Continuous
 62
     7
370
    25
100
AcDbSpline
210
0.0
220
0.0
230
1.0
 70
     8
 71
     3
 72
    12
 73
     8
 74
     0
 42
0.000000001
 43
0.00000001
 40
0.0
 40
0.0
 40
0.0
 40
0.0
 40
0.2499999999999999
 40
0.2499999999999999
 40
0.4999999999999999
 40
0.4999999999999999
 40
1.0
 40
1.0
 40
1.0
 40
1.0
 10
134.5913372976432
 20
67.46880041208411
 30
0.0
 10
134.5913372976432
 20
67.19127840617429
 30
0.0
 10
134.6110602430511
 20
66.91514207924155
 30
0.0
 10
134.6716967078123
 20
66.36435821582896
 30
0.0
 10
134.7129532535007
 20
66.09014981930359
 30
0.0
 10
134.8547265631728
 20
65.2719935416548
 30
0.0
 10
134.9732936083331
 20
64.73103062654978
 30
0.0
 10
135.0913372976432
 20
64.1900811499331
 30
0.0
  0
ARC
  5
97
330
1F
100
AcDbEntity
  8
0
  6
Continuous
 62
     7
370
    25
100
AcDbCircle
 10
135.6023750727
 20
68.5088251499
 30
0.0
 40
1.193155402138418
100
AcDbArc
 50
240.652011186
 51
262.3650684338
  0
SPLINE
  5
98
330
1F
100
AcDbEntity
  8
0
  6
Continuous
 62
     7
370
    25
100
AcDbSpline
210
0.0
220
0.0
230
1.0
 70
     8
 71
     3
 72
    12
 73
     8
 74
     0
 42
0.000000001
 43
0.00000001
 40
0.0
 40
0.0
 40
0.0
 40
0.0
 40
0.25
 40
0.25
 40
0.5
 40
0.5
 40
1.0
 40
1.0
 40
1.0
 40
1.0
 10
135.443851633599
 20
67.32624740068614
 30
0.0
 10
135.3958264159563
 20
67.07436716472124
 30
0.0
 10
135.3591421456814
 20
66.81885897423757
 30
0.0
 10
135.2931682527521
 20
66.30251658305768
 30
0.0
 10
135.2644166201838
 20
66.04134753148541
 30
0.0
 10
135.1838617193938
 20
65.25295063261201
 30
0.0
 10
135.137730242774
 20
64.72085377763658
 30
0.0
 10
135.0913372976432
 20
64.1900811499331
 30
0.0
  0
ARC
  5
99
330
1F
100
AcDbEntity
  8
0
  6
Continuous
 62
     7
370
    25
100
AcDbCircle
 10
128.4100812976
 20
75.701118925
 30
0.0
 40
1.193155402139308
100
AcDbArc
 50
187.6349315662
 51
209.347988814
  0
SPLINE
  5
9A
330
1F
100
AcDbEntity
  8
0
  6
Continuous
 62
     7
370
    25
100
AcDbSpline
210
0.0
220
0.0
230
1.0
 70
     8
 71
     3
 72
    12
 73
     8
 74
     0
 42
0.000000001
 43
0.00000001
 40
0.0
 40
0.0
 40
0.0
 40
0.0
 40
0.2500000000000001
 40
0.2500000000000001
 40
0.5000000000000001
 40
0.5000000000000001
 40
1.0
 40
1.0
 40
1.0
 40
1.0
 10
127.3700565597941
 20
75.11633831791106
 30
0.0
 10
127.0987521214217
 20
75.093625816203
 30
0.0
 10
126.8266399228613
 20
75.08611329637351
 30
0.0
 10
126.2809302383895
 20
75.08455722167302
 30
0.0
 10
126.0075342842271
 20
75.090984063514
 30
0.0
 10
125.1873124071578
 20
75.12120906381482
 30
0.0
 10
124.6389770098421
 20
75.15590458493192
 30
0.0
 10
124.0913372976431
 20
75.1900811499331
 30
0.0
  0
SPLINE
  5
9B
330
1F
100
AcDbEntity
  8
0
  6
Continuous
 62
     7
370
    25
100
AcDbSpline
210
0.0
220
0.0
230
1.0
 70
     8
 71
     3
 72
    12
 73
     8
 74
     0
 42
0.000000001
 43
0.00000001
 40
0.0
 40
0.0
 40
0.0
 40
0.0
 40
0.25
 40
0.25
 40
0.5
 40
0.5
 40
1.0
 40
1.0
 40
1.0
 40
1.0
 10
127.2275035483963
 20
75.54259548588901
 30
0.0
 10
126.9755354472102
 20
75.4945535152591
 30
0.0
 10
126.7199369285526
 20
75.4578598726155
 30
0.0
 10
126.2034105636918
 20
75.39186919119076
 30
0.0
 10
125.9419904043713
 20
75.36309570301383
 30
0.0
 10
125.1543066500329
 20
75.2826199960031
 30
0.0
 10
124.6222950773976
 20
75.23649029275985
 30
0.0
 10
124.0913372976431
 20
75.1900811499331
 30
0.0
  0
ARC
  5
9C
330
1F
100
AcDbEntity
  8
0
  6
Continuous
 62
     7
370
    25
100
AcDbCircle
 10
119.7725932977
 20
75.701118925
 30
0.0
 40
1.19315540213887
100
AcDbArc
 50
330.652011186
 51
352.3650684338
  0
SPLINE
  5
9D
330
1F
100
AcDbEntity
  8
0
  6
Continuous
 62
     7
370
    25
100
AcDbSpline
210
0.0
220
0.0
230
1.0
 70
     8
 71
     3
 72
    12
 73
     8
 74
     0
 42
0.000000001
 43
0.00000001
 40
0.0
 40
0.0
 40
0.0
 40
0.0
 40
0.2499999999999999
 40
0.2499999999999999
 40
0.4999999999999999
 40
0.4999999999999999
 40
1.0
 40
1.0
 40
1.0
 40
1.0
 10
120.9551710468901
 20
75.54259548588898
 30
0.0
 10
121.207051282855
 20
75.49457026824629
 30
0.0
 10
121.4625594733387
 20
75.45788599797139
 30
0.0
 10
121.9789018645186
 20
75.39191210504201
 30
0.0
 10
122.2400709160908
 20
75.36316047247374
 30
0.0
 10
123.0284678149642
 20
75.28260557168377
 30
0.0
 10
123.5605646699397
 20
75.23647409506395
 30
0.0
 10
124.0913372976431
 20
75.1900811499331
 30
0.0
  0
SPLINE
  5
9E
330
1F
100
AcDbEntity
  8
0
  6
Continuous
 62
     7
370
    25
100
AcDbSpline
210
0.0
220
0.0
230
1.0
 70
     8
 71
     3
 72
    12
 73
     8
 74
     0
 42
0.000000001
 43
0.00000001
 40
0.0
 40
0.0
 40
0.0
 40
0.0
 40
0.2499999999999999
 40
0.2499999999999999
 40
0.4999999999999999
 40
0.4999999999999999
 40
1.0
 40
1.0
 40
1.0
 40
1.0
 10
120.8126180354922
 20
75.11633831791104
 30
0.0
 10
121.0839224738772
 20
75.09362581620195
 30
0.0
 10
121.3560346724502
 20
75.08611329637274
 30
0.0
 10
121.9017443569475
 20
75.08455722167356
 30
0.0
 10
122.1751403111226
 20
75.09098406351562
 30
0.0
 10
122.99536218823
 20
75.12120906381999
 30
0.0
 10
123.5436975854166
 20
75.15590458494418
 30
0.0
 10
124.0913372976431
 20
75.1900811499331
 30
0.0
  0
SPLINE
  5
9F
330
1F
100
AcDbEntity
  8
0
  6
Continuous
 62
     7
370
    25
100
AcDbSpline
210
0.0
220
0.0
230
1.0
 70
     8
 71
     3
 72
    12
 73
     8
 74
     0
 42
0.000000001
 43
0.00000001
 40
0.0
 40
0.0
 40
0.0
 40
0.0
 40
0.2500000000000001
 40
0.2500000000000001
 40
0.5000000000000001
 40
0.5000000000000001
 40
1.0
 40
1.0
 40
1.0
 40
1.0
 10
127.3700565597941
 20
74.6900811499331
 30
0.0
 10
127.0925345538843
 20
74.6900811499331
 30
0.0
 10
126.8163982269516
 20
74.70980409534103
 30
0.0
 10
126.265614363539
 20
74.77044056010229
 30
0.0
 10
125.9914059670136
 20
74.81169710579066
 30
0.0
 10
125.1732496893648
 20
74.95347041546273
 30
0.0
 10
124.6322867742598
 20
75.07203746062306
 30
0.0
 10
124.0913372976431
 20
75.1900811499331
 30
0.0
  0
LINE
  5
A0
330
1F
100
AcDbEntity
  8
0
  6
Continuous
 62
     7
370
    25
100
AcDbLine
 10
127.3700565598
 20
74.6900811499
 30
0.0
 11
127.3700565598
 21
75.1163383179
 31
0.0
  0
LINE
  5
A1
330
1F
100
AcDbEntity
  8
0
  6
Continuous
 62
     7
370
    25
100
AcDbLine
 10
120.8126180355
 20
74.6900811499
 30
0.0
 11
120.8126180355
 21
75.1163383179
 31
0.0
  0
SPLINE
  5
A2
330
1F
100
AcDbEntity
  8
0
  6
Continuous
 62
     7
370
    25
100
AcDbSpline
210
0.0
220
0.0
230
1.0
 70
     8
 71
     3
 72
    12
 73
     8
 74
     0
 42
0.000000001
 43
0.00000001
 40
0.0
 40
0.0
 40
0.0
 40
0.0
 40
0.2500000000000001
 40
0.2500000000000001
 40
0.5000000000000002
 40
0.5000000000000002
 40
1.0
 40
1.0
 40
1.0
 40
1.0
 10
120.8126180354922
 20
74.6900811499331
 30
0.0
 10
121.090140041402
 20
74.6900811499331
 30
0.0
 10
121.3662763683347
 20
74.70980409534104
 30
0.0
 10
121.9170602317473
 20
74.77044056010229
 30
0.0
 10
122.1912686282727
 20
74.81169710579066
 30
0.0
 10
123.0094249059215
 20
74.95347041546273
 30
0.0
 10
123.5503878210265
 20
75.07203746062306
 30
0.0
 10
124.0913372976431
 20
75.1900811499331
 30
0.0
  0
SPLINE
  5
A3
330
1F
100
AcDbEntity
  8
0
  6
Continuous
 62
     7
370
    25
100
AcDbSpline
210
0.0
220
0.0
230
1.0
 70
     8
 71
     3
 72
    12
 73
     8
 74
     0
 42
0.000000001
 43
0.00000001
 40
0.0
 40
0.0
 40
0.0
 40
0.0
 40
0.2499999999999999
 40
0.2499999999999999
 40
0.4999999999999999
 40
0.4999999999999999
 40
1.0
 40
1.0
 40
1.0
 40
1.0
 10
134.0913372976432
 20
75.1900811499331
 30
0.0
 10
134.0913372976432
 20
75.1900811499331
 30
0.0
 10
134.0732718697521
 20
75.17225385423677
 30
0.0
 10
134.016610628217
 20
75.11296375498237
 30
0.0
 10
133.9790882686949
 20
75.07236624361927
 30
0.0
 10
133.8565615046018
 20
74.9310816999303
 30
0.0
 10
133.7635866961055
 20
74.81224321074411
 30
0.0
 10
133.67712373527
 20
74.6900811499331
 30
0.0
  0
LINE
  5
A4
330
1F
100
AcDbEntity
  8
0
  6
Continuous
 62
     7
370
    25
100
AcDbLine
 10
133.6771237353
 20
74.6900811499
 30
0.0
 11
127.3700565598
 21
74.6900811499
 31
0.0
  0
SPLINE
  5
A5
330
1F
100
AcDbEntity
  8
0
  6
Continuous
 62
     7
370
    25
100
AcDbSpline
210
0.0
220
0.0
230
1.0
 70
     8
 71
     3
 72
     8
 73
     4
 74
     0
 42
0.000000001
 43
0.00000001
 40
0.0
 40
0.0
 40
0.0
 40
0.0
 40
1.0
 40
1.0
 40
1.0
 40
1.0
 10
128.7817530574665
 20
75.1900811499331
 30
0.0
 10
128.313528633693
 20
75.1900811499331
 30
0.0
 10
127.8425481493234
 20
75.15942411994953
 30
0.0
 10
127.3700565597941
 20
75.11633831791106
 30
0.0
  0
LINE
  5
A6
330
1F
100
AcDbEntity
  8
0
  6
Continuous
 62
     7
370
    25
100
AcDbLine
 10
128.7817530575
 20
75.1900811499
 30
0.0
 11
134.0913372976
 21
75.1900811499
 31
0.0
  0
LINE
  5
A7
330
1F
100
AcDbEntity
  8
0
  6
Continuous
 62
     7
370
    25
100
AcDbLine
 10
134.5913372976
 20
67.4688004121
 30
0.0
 11
134.5913372976
 21
73.7758675876
 31
0.0
  0
SPLINE
  5
A8
330
1F
100
AcDbEntity
  8
0
  6
Continuous
 62
     7
370
    25
100
AcDbSpline
210
0.0
220
0.0
230
1.0
 70
     8
 71
     3
 72
    12
 73
     8
 74
     0
 42
0.000000001
 43
0.00000001
 40
0.0
 40
0.0
 40
0.0
 40
0.0
 40
0.2499999999999993
 40
0.2499999999999993
 40
0.4999999999999987
 40
0.4999999999999987
 40
1.0
 40
1.0
 40
1.0
 40
1.0
 10
135.0913372976432
 20
74.1900811499331
 30
0.0
 10
135.0913372976432
 20
74.1900811499331
 30
0.0
 10
135.0735100019468
 20
74.17201572204213
 30
0.0
 10
135.0142199026924
 20
74.11535448050694
 30
0.0
 10
134.9736223913293
 20
74.07783212098481
 30
0.0
 10
134.8323378476403
 20
73.95530535689181
 30
0.0
 10
134.7134993584543
 20
73.8623305483953
 30
0.0
 10
134.5913372976432
 20
73.77586758756001
 30
0.0
  0
LINE
  5
A9
330
1F
100
AcDbEntity
  8
0
  6
Continuous
 62
     7
370
    25
100
AcDbLine
 10
135.0913372976
 20
74.1900811499
 30
0.0
 11
135.0913372976
 21
68.8804969098
 31
0.0
  0
SPLINE
  5
AA
330
1F
100
AcDbEntity
  8
0
  6
Continuous
 62
     7
370
    25
100
AcDbSpline
210
0.0
220
0.0
230
1.0
 70
     8
 71
     3
 72
     8
 73
     4
 74
     0
 42
0.000000001
 43
0.00000001
 40
0.0
 40
0.0
 40
0.0
 40
0.0
 40
1.0
 40
1.0
 40
1.0
 40
1.0
 10
135.0175944656211
 20
67.46880041208408
 30
0.0
 10
135.0606756504595
 20
67.94124136803788
 30
0.0
 10
135.0913372976432
 20
68.41236654639731
 30
0.0
 10
135.0913372976432
 20
68.88049690975654
 30
0.0
  0
ARC
  5
AB
330
1F
100
AcDbEntity
  8
0
  6
Continuous
 62
     7
370
    25
100
AcDbCircle
 10
135.0913372976
 20
75.1900811499
 30
0.0
 40
1.500000000000011
100
AcDbArc
 50
199.4712206345
 51
250.5287793655
  0
ARC
  5
AC
330
1F
100
AcDbEntity
  8
0
  6
Continuous
 62
     7
370
    25
100
AcDbCircle
 10
135.0913372976
 20
75.1900811499
 30
0.0
 40
1.0
100
AcDbArc
 50
180.0
 51
270.0
  0
SPLINE
  5
AD
330
1F
100
AcDbEntity
  8
0
  6
Continuous
 62
     7
370
    25
100
AcDbSpline
210
0.0
220
0.0
230
1.0
 70
     8
 71
     3
 72
     8
 73
     4
 74
     0
 42
0.000000001
 43
0.00000001
 40
0.0
 40
0.0
 40
0.0
 40
0.0
 40
1.0
 40
1.0
 40
1.0
 40
1.0
 10
135.0913372976432
 20
59.49966539010968
 30
0.0
 10
135.0913372976432
 20
59.96788981388323
 30
0.0
 10
135.0606802676596
 20
60.43887029825284
 30
0.0
 10
135.0175944656211
 20
60.91136188778211
 30
0.0
  0
LINE
  5
AE
330
1F
100
AcDbEntity
  8
0
  6
Continuous
 62
     7
370
    25
100
AcDbLine
 10
135.0913372976
 20
59.4996653901
 30
0.0
 11
135.0913372976
 21
54.6900811499
 31
0.0
  0
LINE
  5
AF
330
1F
100
AcDbEntity
  8
0
  6
Continuous
 62
     7
370
    25
100
AcDbLine
 10
134.5913372976
 20
54.6900811499
 30
0.0
 11
135.0913372976
 21
54.6900811499
 31
0.0
  0
LINE
  5
B0
330
1F
100
AcDbEntity
  8
0
  6
Continuous
 62
     7
370
    25
100
AcDbLine
 10
134.5913372976
 20
54.6900811499
 30
0.0
 11
134.5913372976
 21
60.9113618878
 31
0.0
  0
SPLINE
  5
B1
330
1F
100
AcDbEntity
  8
0
  6
Continuous
 62
     7
370
    25
100
AcDbSpline
210
0.0
220
0.0
230
1.0
 70
     8
 71
     3
 72
     8
 73
     4
 74
     0
 42
0.000000001
 43
0.00000001
 40
0.0
 40
0.0
 40
0.0
 40
0.0
 40
1.0
 40
1.0
 40
1.0
 40
1.0
 10
135.443851633599
 20
61.05391489917998
 30
0.0
 10
135.5310428131576
 20
60.59661900424729
 30
0.0
 10
135.5913372976432
 20
60.1473788080134
 30
0.0
 10
135.5913372976432
 20
59.703596510102
 30
0.0
  0
SPLINE
  5
B2
330
1F
100
AcDbEntity
  8
0
  6
Continuous
 62
     7
370
    25
100
AcDbSpline
210
0.0
220
0.0
230
1.0
 70
     8
 71
     3
 72
     8
 73
     4
 74
     0
 42
0.000000001
 43
0.00000001
 40
0.0
 40
0.0
 40
0.0
 40
0.0
 40
1.0
 40
1.0
 40
1.0
 40
1.0
 10
135.5913372976432
 20
68.67656578976423
 30
0.0
 10
135.5913372976432
 20
68.2327834918528
 30
0.0
 10
135.5310428131575
 20
67.78354329561887
 30
0.0
 10
135.443851633599
 20
67.32624740068614
 30
0.0
  0
LINE
  5
B3
330
1F
100
AcDbEntity
  8
0
  6
Continuous
 62
     7
370
    25
100
AcDbLine
 10
135.5913372976
 20
74.7118195478
 30
0.0
 11
135.5913372976
 21
68.6765657898
 31
0.0
  0
SPLINE
  5
B4
330
1F
100
AcDbEntity
  8
0
  6
Continuous
 62
     7
370
    25
100
AcDbSpline
210
0.0
220
0.0
230
1.0
 70
     8
 71
     3
 72
    14
 73
    10
 74
     0
 42
0.000000001
 43
0.00000001
 40
0.0
 40
0.0
 40
0.0
 40
0.0
 40
0.1250000000000012
 40
0.1250000000000012
 40
0.2500000000000024
 40
0.2500000000000024
 40
0.500000000000002
 40
0.500000000000002
 40
1.0
 40
1.0
 40
1.0
 40
1.0
 10
135.0496717465868
 20
74.23522284267631
 30
0.0
 10
135.1163558232727
 20
74.22988903614565
 30
0.0
 10
135.1855288691505
 20
74.2390249494701
 30
0.0
 10
135.2934294572721
 20
74.27104172792521
 30
0.0
 10
135.3354601711876
 20
74.2925075445361
 30
0.0
 10
135.4400896663979
 20
74.35980317911941
 30
0.0
 10
135.4816243360039
 20
74.40778857808041
 30
0.0
 10
135.5751032621905
 20
74.54785493113023
 30
0.0
 10
135.5913371733295
 20
74.63418946098018
 30
0.0
 10
135.5913372976426
 20
74.71181954780262
 30
0.0
  0
SPLINE
  5
B5
330
1F
100
AcDbEntity
  8
0
  6
Continuous
 62
     7
370
    25
100
AcDbSpline
210
0.0
220
0.0
230
1.0
 70
     8
 71
     3
 72
     8
 73
     4
 74
     0
 42
0.000000001
 43
0.00000001
 40
0.0
 40
0.0
 40
0.0
 40
0.0
 40
1.0
 40
1.0
 40
1.0
 40
1.0
 10
118.0913372976431
 20
54.14660288906354
 30
0.0
 10
117.9629391923129
 20
54.14660288906354
 30
0.0
 10
117.8358211646872
 20
54.15184746250696
 30
0.0
 10
117.7098960685375
 20
54.16209425880717
 30
0.0
  0
LINE
  5
B6
330
1F
100
AcDbEntity
  8
0
  6
Continuous
 62
     7
370
    25
100
AcDbLine
 10
134.5913372976
 20
54.1466028891
 30
0.0
 11
118.0913372976
 21
54.1466028891
 31
0.0
  0
SPLINE
  5
B7
330
1F
100
AcDbEntity
  8
0
  6
Continuous
 62
     7
370
    25
100
AcDbSpline
210
0.0
220
0.0
230
1.0
 70
     8
 71
     3
 72
    16
 73
    12
 74
     0
 42
0.000000001
 43
0.00000001
 40
0.0
 40
0.0
 40
0.0
 40
0.0
 40
0.1249999999999998
 40
0.1249999999999998
 40
0.2499999999999995
 40
0.2499999999999995
 40
0.4999999999999997
 40
0.4999999999999997
 40
0.7499999999999998
 40
0.7499999999999998
 40
1.0
 40
1.0
 40
1.0
 40
1.0
 10
134.5913372976432
 20
54.14660288906354
 30
0.0
 10
134.6915056441828
 20
54.14660288906354
 30
0.0
 10
134.7878541867418
 20
54.16166398944399
 30
0.0
 10
134.952794963931
 20
54.20749956660207
 30
0.0
 10
135.0232560156451
 20
54.23778818540122
 30
0.0
 10
135.2074367276729
 20
54.33769967207033
 30
0.0
 10
135.2987488040224
 20
54.41794951534809
 30
0.0
 10
135.4443457516207
 20
54.59165719397337
 30
0.0
 10
135.4982747085711
 20
54.686537578783
 30
0.0
 10
135.5714943415163
 20
54.88603893280177
 30
0.0
 10
135.5913372976432
 20
54.99142965350281
 30
0.0
 10
135.5913372976432
 20
55.10312462819398
 30
0.0
  0
LINE
  5
B8
330
1F
100
AcDbEntity
  8
0
  6
Continuous
 62
     7
370
    25
100
AcDbLine
 10
135.5913372976
 20
59.7035965101
 30
0.0
 11
135.5913372976
 21
55.1031246282
 31
0.0
  0
ARC
  5
B9
330
1F
100
AcDbEntity
  8
0
  6
Continuous
 62
     7
370
    25
100
AcDbCircle
 10
114.5913372976
 20
74.6900811499
 30
0.0
 40
0.5
100
AcDbArc
 50
90.0
 51
180.0
  0
LINE
  5
BA
330
1F
100
AcDbEntity
  8
0
  6
Continuous
 62
     7
370
    25
100
AcDbLine
 10
114.5913372976
 20
75.1900811499
 30
0.0
 11
114.5913372976
 21
74.6900811499
 31
0.0
  0
LINE
  5
BB
330
1F
100
AcDbEntity
  8
0
  6
Continuous
 62
     7
370
    25
100
AcDbLine
 10
114.5913372976
 20
74.6900811499
 30
0.0
 11
114.0913372976
 21
74.6900811499
 31
0.0
  0
ELLIPSE
  5
BC
330
1F
100
AcDbEntity
  8
0
  6
Continuous
 62
     7
370
    25
100
AcDbEllipse
 10
131.0917067472
 20
60.5433521988
 30
0.0
 11
0.6783923571545358
 21
9.379164112033322E-13
 31
0.0
210
0.0
220
0.0
230
1.0
 40
0.9531667975
 41
0.43579189875432
 42
2.705800754832849
  0
LINE
  5
BD
330
1F
100
AcDbEntity
  8
0
  6
Continuous
 62
     7
370
    25
100
AcDbLine
 10
129.1662047695
 20
57.1521675382
 30
0.0
 11
130.4767196237
 21
60.8163093287
 31
0.0
  0
ELLIPSE
  5
BE
330
1F
100
AcDbEntity
  8
0
  6
Continuous
 62
     7
370
    25
100
AcDbEllipse
 10
128.4979976513
 20
57.3692969151
 30
0.0
 11
-0.7059692822418667
 21
9.947598300641401E-14
 31
0.0
210
0.0
220
0.0
230
1.0
 40
0.9531667975
 41
1.047197551197141
 42
2.813039483038466
  0
LINE
  5
BF
330
1F
100
AcDbEntity
  8
0
  6
Continuous
 62
     7
370
    25
100
AcDbLine
 10
128.0913372976
 20
56.8160811499
 30
0.0
 11
128.1450130102
 21
56.7865428092
 31
0.0
  0
LINE
  5
C0
330
1F
100
AcDbEntity
  8
0
  6
Continuous
 62
     7
370
    25
100
AcDbLine
 10
128.9199494516
 20
55.2364699636
 30
0.0
 11
128.0913372976
 21
56.8160811499
 31
0.0
  0
ELLIPSE
  5
C1
330
1F
100
AcDbEntity
  8
0
  6
Continuous
 62
     7
370
    25
100
AcDbEllipse
 10
128.9988792168
 20
55.2740865794
 30
0.0
 11
0.08824616028027776
 21
0.0
 31
0.0
210
0.0
220
0.0
230
1.0
 40
0.9531667975
 41
3.605240262590705
 42
5.462183310215098
  0
ELLIPSE
  5
C2
330
1F
100
AcDbEntity
  8
0
  6
Continuous
 62
     7
370
    25
100
AcDbEllipse
 10
131.0917067472
 20
53.1319181724
 30
0.0
 11
2.982720217472917
 21
-4.973799150320701E-13
 31
0.0
210
0.0
220
0.0
230
1.0
 40
0.9531667975
 41
0.8210019969646044
 42
2.320590656625477
  0
ELLIPSE
  5
C3
330
1F
100
AcDbEntity
  8
0
  6
Continuous
 62
     7
370
    25
100
AcDbEllipse
 10
133.1845342775
 20
55.2740865794
 30
0.0
 11
0.08824616028022091
 21
2.842170943040400E-14
 31
0.0
210
0.0
220
0.0
230
1.0
 40
0.9531667975
 41
3.962594650553865
 42
5.819537698178481
  0
LINE
  5
C4
330
1F
100
AcDbEntity
  8
0
  6
Continuous
 62
     7
370
    25
100
AcDbLine
 10
134.0920761967
 20
56.8160811499
 30
0.0
 11
133.2634640428
 21
55.2364699636
 31
0.0
  0
LINE
  5
C5
330
1F
100
AcDbEntity
  8
0
  6
Continuous
 62
     7
370
    25
100
AcDbLine
 10
134.0487340905
 20
56.7913128556
 30
0.0
 11
134.0920761967
 21
56.8160811499
 31
0.0
  0
ELLIPSE
  5
C6
330
1F
100
AcDbEntity
  8
0
  6
Continuous
 62
     7
370
    25
100
AcDbEllipse
 10
133.6857213122
 20
57.3684428368
 30
0.0
 11
-0.7059692822421083
 21
-1.776356839400250E-13
 31
0.0
210
0.0
220
0.0
230
1.0
 40
0.9531667975
 41
0.3285531705512107
 42
2.110876526947619
  0
LINE
  5
C7
330
1F
100
AcDbEntity
  8
0
  6
Continuous
 62
     7
370
    25
100
AcDbLine
 10
131.7066938706
 20
60.8163093287
 30
0.0
 11
133.017514194
 21
57.1513134599
 31
0.0
  0
LINE
  5
C8
330
1F
100
AcDbEntity
  8
0
  6
Continuous
 62
     7
370
    25
100
AcDbLine
 10
118.0913372976
 20
54.6900811499
 30
0.0
 11
134.5913372976
 21
54.6900811499
 31
0.0
  0
ARC
  5
C9
330
1F
100
AcDbEntity
  8
0
  6
Continuous
 62
     7
370
    25
100
AcDbCircle
 10
118.0913372976
 20
58.1900811499
 30
0.0
 40
3.5
100
AcDbArc
 50
180.0
 51
270.0
  0
LINE
  5
CA
330
1F
100
AcDbEntity
  8
0
  6
Continuous
 62
     7
370
    25
100
AcDbLine
 10
114.5913372976
 20
74.6900811499
 30
0.0
 11
114.5913372976
 21
58.1900811499
 31
0.0
  0
LINE
  5
CB
330
1F
100
AcDbEntity
  8
0
  6
Continuous
 62
     7
370
    25
100
AcDbLine
 10
120.8126180355
 20
74.6900811499
 30
0.0
 11
114.5913372976
 21
74.6900811499
 31
0.0
  0
LINE
  5
CC
330
1F
100
AcDbEntity
  8
0
  6
Continuous
 62
     7
370
    25
100
AcDbLine
 10
118.0913372976
 20
54.6900811499
 30
0.0
 11
118.0913372976
 21
54.1900811499
 31
0.0
  0
ARC
  5
CD
330
1F
100
AcDbEntity
  8
0
  6
Continuous
 62
     7
370
    25
100
AcDbCircle
 10
118.0913372976
 20
58.1900811499
 30
0.0
 40
4.0
100
AcDbArc
 50
180.0
 51
270.0
  0
LINE
  5
CE
330
1F
100
AcDbEntity
  8
0
  6
Continuous
 62
     7
370
    25
100
AcDbLine
 10
114.5913372976
 20
58.1900811499
 30
0.0
 11
114.0913372976
 21
58.1900811499
 31
0.0
  0
SPLINE
  5
CF
330
1F
100
AcDbEntity
  8
0
  6
Continuous
 62
     7
370
    25
100
AcDbSpline
210
0.0
220
0.0
230
1.0
 70
     8
 71
     3
 72
    14
 73
    10
 74
     0
 42
0.000000001
 43
0.00000001
 40
0.0
 40
0.0
 40
0.0
 40
0.0
 40
0.4999999999999986
 40
0.4999999999999986
 40
0.7499999999999978
 40
0.7499999999999978
 40
0.8749999999999989
 40
0.8749999999999989
 40
1.0
 40
1.0
 40
1.0
 40
1.0
 10
134.6130756933613
 20
75.69008114993251
 30
0.0
 10
134.5354456052781
 20
75.6900810252544
 30
0.0
 10
134.4491110741114
 20
75.67384711317055
 30
0.0
 10
134.3090447200305
 20
75.58036818352666
 30
0.0
 10
134.261059319733
 20
75.53883351205832
 30
0.0
 10
134.1937636840917
 20
75.43420400859746
 30
0.0
 10
134.172297867725
 20
75.39217329172638
 30
0.0
 10
134.1402810919751
 20
75.28427269507598
 30
0.0
 10
134.1311451824177
 20
75.21509964443435
 30
0.0
 10
134.1364789928235
 20
75.14841556840756
 30
0.0
  0
LINE
  5
D0
330
1F
100
AcDbEntity
  8
0
  6
Continuous
 62
     7
370
    25
100
AcDbLine
 10
128.5778219375
 20
75.6900811499
 30
0.0
 11
134.6130756934
 21
75.6900811499
 31
0.0
  0
SPLINE
  5
D1
330
1F
100
AcDbEntity
  8
0
  6
Continuous
 62
     7
370
    25
100
AcDbSpline
210
0.0
220
0.0
230
1.0
 70
     8
 71
     3
 72
     8
 73
     4
 74
     0
 42
0.000000001
 43
0.00000001
 40
0.0
 40
0.0
 40
0.0
 40
0.0
 40
1.0
 40
1.0
 40
1.0
 40
1.0
 10
127.2275035483963
 20
75.54259548588901
 30
0.0
 10
127.684799443329
 20
75.62978666544751
 30
0.0
 10
128.1340396395628
 20
75.6900811499331
 30
0.0
 10
128.5778219374743
 20
75.6900811499331
 30
0.0
  0
SPLINE
  5
D2
330
1F
100
AcDbEntity
  8
0
  6
Continuous
 62
     7
370
    25
100
AcDbSpline
210
0.0
220
0.0
230
1.0
 70
     8
 71
     3
 72
     8
 73
     4
 74
     0
 42
0.000000001
 43
0.00000001
 40
0.0
 40
0.0
 40
0.0
 40
0.0
 40
1.0
 40
1.0
 40
1.0
 40
1.0
 10
119.604852657812
 20
75.6900811499331
 30
0.0
 10
120.0486349557235
 20
75.6900811499331
 30
0.0
 10
120.4978751519574
 20
75.62978666544751
 30
0.0
 10
120.9551710468901
 20
75.54259548588898
 30
0.0
  0
LINE
  5
D3
330
1F
100
AcDbEntity
  8
0
  6
Continuous
 62
     7
370
    25
100
AcDbLine
 10
115.0043807759
 20
75.6900811499
 30
0.0
 11
119.6048526578
 21
75.6900811499
 31
0.0
  0
SPLINE
  5
D4
330
1F
100
AcDbEntity
  8
0
  6
Continuous
 62
     7
370
    25
100
AcDbSpline
210
0.0
220
0.0
230
1.0
 70
     8
 71
     3
 72
    18
 73
    14
 74
     0
 42
0.000000001
 43
0.00000001
 40
0.0
 40
0.0
 40
0.0
 40
0.0
 40
0.25
 40
0.25
 40
0.5
 40
0.5
 40
0.625
 40
0.625
 40
0.75
 40
0.75
 40
0.875
 40
0.875
 40
1.0
 40
1.0
 40
1.0
 40
1.0
 10
115.004380775904
 20
75.6900811499331
 30
0.0
 10
114.8925890033283
 20
75.6900811499331
 30
0.0
 10
114.7872130083562
 20
75.67020818040731
 30
0.0
 10
114.5878741304673
 20
75.59704796201451
 30
0.0
 10
114.4930430850211
 20
75.5431712281793
 30
0.0
 10
114.3627711571361
 20
75.43402157219126
 30
0.0
 10
114.3214429454932
 20
75.39301282886854
 30
0.0
 10
114.2432728009297
 20
75.29896251485243
 30
0.0
 10
114.2060696395046
 20
75.24549197275535
 30
0.0
 10
114.1390516162467
 20
75.12207782949014
 30
0.0
 10
114.1088725498652
 20
75.05188876476659
 30
0.0
 10
114.0629251985295
 20
74.88668655362085
 30
0.0
 10
114.0478590367736
 20
74.7907269721651
 30
0.0
 10
114.0478590367736
 20
74.6900811499331
 30
0.0
  0
LINE
  5
D5
330
1F
100
AcDbEntity
  8
0
  6
Continuous
 62
     7
370
    25
100
AcDbLine
 10
114.0478590368
 20
58.1900811499
 30
0.0
 11
114.0478590368
 21
74.6900811499
 31
0.0
  0
SPLINE
  5
D6
330
1F
100
AcDbEntity
  8
0
  6
Continuous
 62
     7
370
    25
100
AcDbSpline
210
0.0
220
0.0
230
1.0
 70
     8
 71
     3
 72
     8
 73
     4
 74
     0
 42
0.000000001
 43
0.00000001
 40
0.0
 40
0.0
 40
0.0
 40
0.0
 40
1.0
 40
1.0
 40
1.0
 40
1.0
 10
114.0633504073093
 20
57.80863991109357
 30
0.0
 10
114.0531036104891
 20
57.93456501039608
 30
0.0
 10
114.0478590367736
 20
58.06168304126271
 30
0.0
 10
114.0478590367736
 20
58.19008114993311
 30
0.0
  0
SPLINE
  5
D7
330
1F
100
AcDbEntity
  8
0
  6
Continuous
 62
     7
370
    25
100
AcDbSpline
210
0.0
220
0.0
230
1.0
 70
     8
 71
     3
 72
     8
 73
     4
 74
     0
 42
0.000000001
 43
0.00000001
 40
0.0
 40
0.0
 40
0.0
 40
0.0
 40
1.0
 40
1.0
 40
1.0
 40
1.0
 10
120.8126180354922
 20
75.11633831791106
 30
0.0
 10
120.3401770795384
 20
75.15941950274944
 30
0.0
 10
119.8690519011789
 20
75.1900811499331
 30
0.0
 10
119.4009215378197
 20
75.1900811499331
 30
0.0
  0
LINE
  5
D8
330
1F
100
AcDbEntity
  8
0
  6
Continuous
 62
     7
370
    25
100
AcDbLine
 10
114.5913372976
 20
75.1900811499
 30
0.0
 11
119.4009215378
 21
75.1900811499
 31
0.0
  0
LINE
  5
D9
330
1F
100
AcDbEntity
  8
0
  6
Continuous
 62
     7
370
    25
100
AcDbLine
 10
114.0913372976
 20
58.1900811499
 30
0.0
 11
114.0913372976
 21
74.6900811499
 31
0.0
  0
ARC
  5
DA
330
1F
100
AcDbEntity
  8
0
  6
Continuous
 62
     7
370
    25
100
AcDbCircle
 10
134.5913372976
 20
54.6900811499
 30
0.0
 40
0.5
100
AcDbArc
 50
270.0
 51
0.0
  0
LINE
  5
DB
330
1F
100
AcDbEntity
  8
0
  6
Continuous
 62
     7
370
    25
100
AcDbLine
 10
134.5913372976
 20
54.1900811499
 30
0.0
 11
134.5913372976
 21
54.6900811499
 31
0.0
  0
LINE
  5
DC
330
1F
100
AcDbEntity
  8
0
  6
Continuous
 62
     7
370
    25
100
AcDbLine
 10
134.5913372976
 20
54.1900811499
 30
0.0
 11
118.0913372976
 21
54.1900811499
 31
0.0
  0
LINE
  5
DD
330
1F
100
AcDbEntity
  8
0
  6
Continuous
 62
     7
370
    25
100
AcDbLine
 10
131.0086016416
 20
58.1083242477
 30
0.0
 11
130.6925925732
 21
57.2649380676
 31
0.0
  0
ELLIPSE
  5
DE
330
1F
100
AcDbEntity
  8
0
  6
Continuous
 62
     7
370
    25
100
AcDbEllipse
 10
131.0917067493
 20
58.08003388
 30
0.0
 11
0.08824616028027776
 21
0.0
 31
0.0
210
0.0
220
0.0
230
1.0
 40
0.9531667975
 41
0.3430239394903919
 42
2.798568712238517
  0
LINE
  5
DF
330
1F
100
AcDbEntity
  8
0
  6
Continuous
 62
     7
370
    25
100
AcDbLine
 10
131.4908209218
 20
57.2649380674
 30
0.0
 11
131.174811857
 21
58.1083242475
 31
0.0
  0
ELLIPSE
  5
E0
330
1F
100
AcDbEntity
  8
0
  6
Continuous
 62
     7
370
    25
100
AcDbEllipse
 10
130.7756976808
 20
57.2366476999
 30
0.0
 11
-0.08824616028027776
 21
0.0
 31
0.0
210
0.0
220
0.0
230
1.0
 40
0.9531667975
 41
5.940161364898121
 42
7.853981633974483
  0
LINE
  5
E1
330
1F
100
AcDbEntity
  8
0
  6
Continuous
 62
     7
370
    25
100
AcDbLine
 10
130.7756976808
 20
57.1525343899
 30
0.0
 11
131.407715814
 21
57.1525343899
 31
0.0
  0
ELLIPSE
  5
E2
330
1F
100
AcDbEntity
  8
0
  6
Continuous
 62
     7
370
    25
100
AcDbEllipse
 10
131.407715814
 20
57.2366476999
 30
0.0
 11
0.08824616028027776
 21
1.421085471520200E-14
 31
0.0
210
0.0
220
0.0
230
1.0
 40
0.9531667975
 41
4.712388980384549
 42
6.626209245739314
  0
LWPOLYLINE
  5
E3
330
1F
100
AcDbEntity
  8
0
  6
Continuous
 62
     7
370
    25
100
AcDbPolyline
 90
        9
 70
   128
 43
0.0
 10
119.4009215378
 20
75.1900811499
 10
119.4407065257
 20
75.1996885097
 10
119.4789625988
 20
75.2281413837
 10
119.5142195977
 20
75.2743463438
 10
119.5451226157
 20
75.3365277593
 10
119.5704840671
 20
75.4122960334
 10
119.5893293256
 20
75.4987394338
 10
119.6009341785
 20
75.5925359889
 10
119.6048526578
 20
75.6900811499
  0
LWPOLYLINE
  5
E4
330
1F
100
AcDbEntity
  8
0
  6
Continuous
 62
     7
370
    25
100
AcDbPolyline
 90
        9
 70
   128
 43
0.0
 10
135.0913372976
 20
68.8804969098
 10
135.1009446574
 20
68.8407119219
 10
135.1293975314
 20
68.8024558488
 10
135.1756024915
 20
68.7671988499
 10
135.237783907
 20
68.7362958319
 10
135.3135521811
 20
68.7109343805
 10
135.3999955815
 20
68.692089122
 10
135.4937921366
 20
68.6804842691
 10
135.5913372976
 20
68.6765657898
  0
LWPOLYLINE
  5
E5
330
1F
100
AcDbEntity
  8
0
  6
Continuous
 62
     7
370
    25
100
AcDbPolyline
 90
        9
 70
   128
 43
0.0
 10
128.7817530575
 20
75.1900811499
 10
128.7419680696
 20
75.1996885097
 10
128.7037119965
 20
75.2281413837
 10
128.6684549976
 20
75.2743463438
 10
128.6375519796
 20
75.3365277593
 10
128.6121905282
 20
75.4122960334
 10
128.5933452697
 20
75.4987394338
 10
128.5817404168
 20
75.5925359889
 10
128.5778219375
 20
75.6900811499
  0
LWPOLYLINE
  5
E6
330
1F
100
AcDbEntity
  8
0
  6
Continuous
 62
     7
370
    25
100
AcDbPolyline
 90
        9
 70
   128
 43
0.0
 10
135.5913372976
 20
59.7035965101
 10
135.4937921366
 20
59.6996780308
 10
135.3999955815
 20
59.6880731779
 10
135.3135521811
 20
59.6692279194
 10
135.237783907
 20
59.643866468
 10
135.1756024915
 20
59.61296345
 10
135.1293975314
 20
59.5777064511
 10
135.1009446574
 20
59.539450378
 10
135.0913372976
 20
59.4996653901
  0
ARC
  5
E7
330
1F
100
AcDbEntity
  8
0
  6
Continuous
 62
     7
370
    25
100
AcDbCircle
 10
135.5516397551
 20
54.64202623
 30
0.0
 40
0.4628040921140317
100
AcDbArc
 50
85.0793433281
 51
174.0399926099
  0
SPLINE
  5
E8
330
1F
100
AcDbEntity
  8
0
  6
Continuous
 62
     7
370
    25
100
AcDbSpline
210
0.0
220
0.0
230
1.0
 70
     8
 71
     3
 72
    10
 73
     6
 74
     0
 42
0.000000001
 43
0.00000001
 40
0.0
 40
0.0
 40
0.0
 40
0.0
 40
0.5
 40
0.5
 40
1.0
 40
1.0
 40
1.0
 40
1.0
 10
135.0913372976432
 20
74.1900811499331
 30
0.0
 10
135.0913372976432
 20
74.1900811499331
 30
0.0
 10
135.1141497502593
 20
74.18936792327007
 30
0.0
 10
135.2022103940953
 20
74.19526733494267
 30
0.0
 10
135.2690054562797
 20
74.20213809019153
 30
0.0
 10
135.353129010939
 20
74.22495675440183
 30
0.0
  0
SPLINE
  5
E9
330
1F
100
AcDbEntity
  8
0
  6
Continuous
 62
     7
370
    25
100
AcDbSpline
210
0.0
220
0.0
230
1.0
 70
     8
 71
     3
 72
    12
 73
     8
 74
     0
 42
0.000000001
 43
0.00000001
 40
0.0
 40
0.0
 40
0.0
 40
0.0
 40
0.2499999999999999
 40
0.2499999999999999
 40
0.4999999999999998
 40
0.4999999999999998
 40
1.0
 40
1.0
 40
1.0
 40
1.0
 10
135.353129010939
 20
74.22495675440183
 30
0.0
 10
135.4142351618688
 20
74.2415319068059
 30
0.0
 10
135.457331530442
 20
74.28198094456643
 30
0.0
 10
135.5194850140205
 20
74.3684286434332
 30
0.0
 10
135.5394125745577
 20
74.41506870843848
 30
0.0
 10
135.5832492683445
 20
74.5507861195914
 30
0.0
 10
135.5900717710995
 20
74.63659840125888
 30
0.0
 10
135.5913372976426
 20
74.71181991343389
 30
0.0
  0
SPLINE
  5
EA
330
1F
100
AcDbEntity
  8
0
  6
Continuous
 62
     7
370
    25
100
AcDbSpline
210
0.0
220
0.0
230
1.0
 70
     8
 71
     3
 72
    10
 73
     6
 74
     0
 42
0.000000001
 43
0.00000001
 40
0.0
 40
0.0
 40
0.0
 40
0.0
 40
0.5
 40
0.5
 40
1.0
 40
1.0
 40
1.0
 40
1.0
 10
134.1262129021119
 20
75.45187286322897
 30
0.0
 10
134.103393844546
 20
75.36774785842043
 30
0.0
 10
134.0966477974891
 20
75.30220518284204
 30
0.0
 10
134.0906208167972
 20
75.2134376358791
 30
0.0
 10
134.0913372976431
 20
75.1900811499331
 30
0.0
 10
134.0913372976431
 20
75.1900811499331
 30
0.0
  0
SPLINE
  5
EB
330
1F
100
AcDbEntity
  8
0
  6
Continuous
 62
     7
370
    25
100
AcDbSpline
210
0.0
220
0.0
230
1.0
 70
     8
 71
     3
 72
    12
 73
     8
 74
     0
 42
0.000000001
 43
0.00000001
 40
0.0
 40
0.0
 40
0.0
 40
0.0
 40
0.5
 40
0.5
 40
0.75
 40
0.75
 40
1.0
 40
1.0
 40
1.0
 40
1.0
 10
134.6130760541102
 20
75.6900811505552
 30
0.0
 10
134.5373389515549
 20
75.68880694784927
 30
0.0
 10
134.4517881549012
 20
75.68190854625456
 30
0.0
 10
134.3164751566576
 20
75.63820622163094
 30
0.0
 10
134.2700607692038
 20
75.61842083643447
 30
0.0
 10
134.1835510520089
 20
75.5563788357995
 30
0.0
 10
134.1428104416123
 20
75.5130615466901
 30
0.0
 10
134.1262129021119
 20
75.45187286322899
 30
0.0
  0
ARC
  5
EC
330
1F
100
AcDbEntity
  8
0
  6
Continuous
 62
     7
370
    25
100
AcDbCircle
 10
114.5432823777
 20
75.6503836074
 30
0.0
 40
0.4628040921140505
100
AcDbArc
 50
275.9600073901
 51
4.9206566719
  0
LINE
  5
ED
330
1F
100
AcDbEntity
  8
0
  6
Continuous
 62
     7
370
    25
100
AcDbLine
 10
134.5913372976
 20
54.1466028891
 30
0.0
 11
134.5913372976
 21
54.1900811499
 31
0.0
  0
LINE
  5
EE
330
1F
100
AcDbEntity
  8
0
  6
Continuous
 62
     7
370
    25
100
AcDbLine
 10
114.0913372976
 20
74.6900811499
 30
0.0
 11
114.0478590368
 21
74.6900811499
 31
0.0
  0
SPLINE
  5
EF
330
1F
100
AcDbEntity
  8
0
  6
Continuous
 62
     7
370
    25
100
AcDbSpline
210
0.0
220
0.0
230
1.0
 70
     8
 71
     3
 72
    18
 73
    14
 74
     0
 42
0.000000001
 43
0.00000001
 40
0.0
 40
0.0
 40
0.0
 40
0.0
 40
0.2500000000000008
 40
0.2500000000000008
 40
0.3750000000000006
 40
0.3750000000000006
 40
0.5000000000000003
 40
0.5000000000000003
 40
0.7499999999999999
 40
0.7499999999999999
 40
0.8749999999999999
 40
0.8749999999999999
 40
1.0
 40
1.0
 40
1.0
 40
1.0
 10
117.7097868942177
 20
54.16214878547113
 30
0.0
 10
117.2433718137129
 20
54.19893364722397
 30
0.0
 10
116.7960020456148
 20
54.31420789096945
 30
0.0
 10
116.1544895639385
 20
54.60729569992834
 30
0.0
 10
115.9483617042268
 20
54.72476437472631
 30
0.0
 10
115.5640701776547
 20
54.99133239131633
 30
0.0
 10
115.3838657163597
 20
55.14130654638973
 30
0.0
 10
114.8805693688288
 20
55.64349933212725
 30
0.0
 10
114.6110440781576
 20
56.03107409071552
 30
0.0
 10
114.3154656827836
 20
56.67479931567293
 30
0.0
 10
114.2375408577081
 20
56.89461100292657
 30
0.0
 10
114.1207300892574
 20
57.34426722430745
 30
0.0
 10
114.0818011019038
 20
57.5752758120893
 30
0.0
 10
114.0634049331811
 20
57.80853074650769
 30
0.0
  0
SPLINE
  5
F0
330
1F
100
AcDbEntity
  8
0
  6
Continuous
 62
     7
370
    25
100
AcDbSpline
210
0.0
220
0.0
230
1.0
 70
     8
 71
     3
 72
     8
 73
     4
 74
     0
 42
0.000000001
 43
0.00000001
 40
0.0
 40
0.0
 40
0.0
 40
0.0
 40
1.0
 40
1.0
 40
1.0
 40
1.0
 10
114.0633504073093
 20
57.80863991109357
 30
0.0
 10
114.0922922920072
 20
57.82321540691866
 30
0.0
 10
114.1068596328969
 20
57.83778255823063
 30
0.0
 10
114.105733318747
 20
57.85102227096463
 30
0.0
  0
SPLINE
  5
F1
330
1F
100
AcDbEntity
  8
0
  6
Continuous
 62
     7
370
    25
100
AcDbSpline
210
0.0
220
0.0
230
1.0
 70
     8
 71
     3
 72
     8
 73
     4
 74
     0
 42
0.000000001
 43
0.00000001
 40
0.0
 40
0.0
 40
0.0
 40
0.0
 40
1.0
 40
1.0
 40
1.0
 40
1.0
 10
117.7097868942177
 20
54.16214878547113
 30
0.0
 10
117.7243244518697
 20
54.19106544012354
 30
0.0
 10
117.7388489195357
 20
54.20562041152419
 30
0.0
 10
117.7520462830184
 20
54.20449692583311
 30
0.0
  0
LINE
  5
F2
330
1F
100
AcDbEntity
  8
0
  6
Continuous
 62
     7
370
    25
100
AcDbLine
 10
118.0913372976
 20
54.1466028891
 30
0.0
 11
118.0913372976
 21
54.1900811499
 31
0.0
  0
LINE
  5
F3
330
1F
100
AcDbEntity
  8
0
  6
Continuous
 62
     7
370
    25
100
AcDbLine
 10
114.0478590368
 20
58.1900811499
 30
0.0
 11
114.0913372976
 21
58.1900811499
 31
0.0
  0
SPLINE
  5
F4
330
1F
100
AcDbEntity
  8
0
  6
Continuous
 62
     7
370
    25
100
AcDbSpline
210
0.0
220
0.0
230
1.0
 70
     8
 71
     3
 72
    10
 73
     6
 74
     0
 42
0.000000001
 43
0.00000001
 40
0.0
 40
0.0
 40
0.0
 40
0.0
 40
0.5
 40
0.5
 40
1.0
 40
1.0
 40
1.0
 40
1.0
 10
134.1364432142664
 20
75.14837851352213
 30
0.0
 10
134.1647932628222
 20
74.92282056575912
 30
0.0
 10
134.2734767637174
 20
74.70395113616574
 30
0.0
 10
134.6057619868967
 20
74.3718628872412
 30
0.0
 10
134.8240767139979
 20
74.26353711581326
 30
0.0
 10
135.0496346612321
 20
74.23518706655638
 30
0.0
  0
SPLINE
  5
F5
330
1F
100
AcDbEntity
  8
0
  6
Continuous
 62
     7
370
    25
100
AcDbSpline
210
0.0
220
0.0
230
1.0
 70
     8
 71
     3
 72
     8
 73
     4
 74
     0
 42
0.000000001
 43
0.00000001
 40
0.0
 40
0.0
 40
0.0
 40
0.0
 40
1.0
 40
1.0
 40
1.0
 40
1.0
 10
134.0913372976432
 20
75.1900811499331
 30
0.0
 10
134.0913372976432
 20
75.16219504141925
 30
0.0
 10
134.0925016992365
 20
75.134418421193
 30
0.0
 10
134.0948153824698
 20
75.10675004782037
 30
0.0
  0
LINE
  5
F6
330
1F
100
AcDbEntity
  8
0
  6
Continuous
 62
     8
370
    25
100
AcDbLine
 10
124.0913372976
 20
83.1900811499
 30
0.0
 11
110.0913372976
 21
83.1900811499
 31
0.0
  0
LINE
  5
F7
330
1F
100
AcDbEntity
  8
0
  6
Continuous
 62
     8
370
    25
100
AcDbLine
 10
138.0913372976
 20
83.1900811499
 30
0.0
 11
124.0913372976
 21
83.1900811499
 31
0.0
  0
LINE
  5
F8
330
1F
100
AcDbEntity
  8
0
  6
Continuous
 62
     8
370
    25
100
AcDbLine
 10
143.0913372976
 20
50.1900811499
 30
0.0
 11
143.0913372976
 21
78.1900811499
 31
0.0
  0
LINE
  5
F9
330
1F
100
AcDbEntity
  8
0
  6
Continuous
 62
     8
370
    25
100
AcDbLine
 10
142.1230914611
 20
77.4400811499
 30
0.0
 11
142.1230914611
 21
50.9400811499
 31
0.0
  0
LINE
  5
FA
330
1F
100
AcDbEntity
  8
0
  6
Continuous
 62
     8
370
    25
100
AcDbLine
 10
110.8413372976
 20
82.2218353134
 30
0.0
 11
137.3413372976
 21
82.2218353134
 31
0.0
  0
LINE
  5
FB
330
1F
100
AcDbEntity
  8
0
  6
Continuous
 62
     8
370
    25
100
AcDbLine
 10
139.2183539514
 20
64.1900811499
 30
0.0
 11
139.2183539514
 21
75.1900811499
 31
0.0
  0
LINE
  5
FC
330
1F
100
AcDbEntity
  8
0
  6
Continuous
 62
     8
370
    25
100
AcDbLine
 10
139.2183539514
 20
53.1900811499
 30
0.0
 11
139.2183539514
 21
64.1900811499
 31
0.0
  0
LINE
  5
FD
330
1F
100
AcDbEntity
  8
0
  6
Continuous
 62
     8
370
    25
100
AcDbLine
 10
135.0913372976
 20
79.3170978037
 30
0.0
 11
113.0913372976
 21
79.3170978037
 31
0.0
  0
SPLINE
  5
FE
330
1F
100
AcDbEntity
  8
0
  6
Continuous
 62
     8
370
    25
100
AcDbSpline
210
0.0
220
0.0
230
1.0
 70
    24
 71
     3
 72
    10
 73
     6
 74
     0
 42
0.000000001
 43
0.00000001
 40
0.0
 40
0.0
 40
0.0
 40
0.0
 40
0.2169967701183235
 40
0.2169967701183235
 40
0.4197141586735273
 40
0.4197141586735273
 40
0.4197141586735273
 40
0.4197141586735273
 10
135.0495508596086
 20
74.23511024840145
 30
0.0
 10
135.4030820969291
 20
74.55918054927861
 30
0.0
 10
135.6708610615723
 20
74.80464460020147
 30
0.0
 10
136.008868316156
 20
75.11448458356988
 30
0.0
 10
136.0913372976427
 20
75.19008114993272
 30
0.0
 10
136.0913372976432
 20
75.1900811499331
 30
0.0
  0
SPLINE
  5
FF
330
1F
100
AcDbEntity
  8
0
  6
Continuous
 62
     8
370
    25
100
AcDbSpline
210
0.0
220
0.0
230
1.0
 70
     8
 71
     3
 72
    10
 73
     6
 74
     0
 42
0.000000001
 43
0.00000001
 40
-0.4235250761411895
 40
-0.4235250761411895
 40
-0.4235250761411895
 40
-0.4235250761411895
 40
-0.2113930417852252
 40
-0.2113930417852252
 40
0.0
 40
0.0
 40
0.0
 40
0.0
 10
117.0911852825615
 20
53.19008115285902
 30
0.0
 10
117.0911852825615
 20
53.19008115285902
 30
0.0
 10
117.1438839596509
 20
53.27289154932988
 30
0.0
 10
117.3519589850827
 20
53.59985959006959
 30
0.0
 10
117.5072134536474
 20
53.84382574767329
 30
0.0
 10
117.7098452055178
 20
54.16224041559849
 30
0.0
  0
SPLINE
  5
100
330
1F
100
AcDbEntity
  8
0
  6
Continuous
 62
     8
370
    25
100
AcDbSpline
210
0.0
220
0.0
230
1.0
 70
    24
 71
     3
 72
    10
 73
     6
 74
     0
 42
0.000000001
 43
0.00000001
 40
0.0
 40
0.0
 40
0.0
 40
0.0
 40
0.2027173885552038
 40
0.2027173885552038
 40
0.4197141589608902
 40
0.4197141589608902
 40
0.4197141589608902
 40
0.4197141589608902
 10
135.0913372976432
 20
76.19008114993312
 30
0.0
 10
135.0913372976428
 20
76.1900811499327
 30
0.0
 10
135.0157407312799
 20
76.10761216844595
 30
0.0
 10
134.7059007476994
 20
75.76960491363083
 30
0.0
 10
134.4604366963385
 20
75.50182594850989
 30
0.0
 10
134.136366394824
 20
75.14829471049406
 30
0.0
  0
SPLINE
  5
101
330
1F
100
AcDbEntity
  8
0
  6
Continuous
 62
     8
370
    25
100
AcDbSpline
210
0.0
220
0.0
230
1.0
 70
     8
 71
     3
 72
    10
 73
     6
 74
     0
 42
0.000000001
 43
0.00000001
 40
-0.4235250761148888
 40
-0.4235250761148888
 40
-0.4235250761148888
 40
-0.4235250761148888
 40
-0.2121320343559643
 40
-0.2121320343559643
 40
0.0
 40
0.0
 40
0.0
 40
0.0
 10
114.0634965631897
 20
57.80858905773209
 30
0.0
 10
113.7450818953226
 20
57.60595730589876
 30
0.0
 10
113.5011157377593
 20
57.4507028373597
 30
0.0
 10
113.1741476970399
 20
57.24262781194084
 30
0.0
 10
113.0913373005691
 20
57.18992913485148
 30
0.0
 10
113.0913373005691
 20
57.18992913485148
 30
0.0
  0
LINE
  5
102
330
1F
100
AcDbEntity
  8
0
  6
CENTERX2
 62
     7
370
    18
100
AcDbLine
 10
124.0913372976
 20
99.1900811499
 30
0.0
 11
124.0913372976
 21
50.8661035897
 31
0.0
  0
LINE
  5
103
330
1F
100
AcDbEntity
  8
0
  6
CENTERX2
 62
     7
370
    18
100
AcDbLine
 10
110.3412593151
 20
64.1900811499
 30
0.0
 11
159.0913372976
 21
64.1900811499
 31
0.0
  0
ARC
  5
104
330
1F
100
AcDbEntity
  8
0
  6
Continuous
 62
     7
370
    25
100
AcDbCircle
 10
173.7196685895
 20
83.1900811499
 30
0.0
 40
1.0
100
AcDbArc
 50
180.0
 51
255.5224878141
  0
ARC
  5
105
330
1F
100
AcDbEntity
  8
0
  6
Continuous
 62
     7
370
    25
100
AcDbCircle
 10
199.7196685895
 20
83.1900811499
 30
0.0
 40
1.0
100
AcDbArc
 50
284.4775121859
 51
0.0
  0
LINE
  5
106
330
1F
100
AcDbEntity
  8
0
  6
Continuous
 62
     7
370
    25
100
AcDbLine
 10
200.7196685895
 20
83.1900811499
 30
0.0
 11
200.7196685895
 21
97.1900811499
 31
0.0
  0
LINE
  5
107
330
1F
100
AcDbEntity
  8
0
  6
Continuous
 62
     7
370
    25
100
AcDbLine
 10
172.7196685895
 20
97.1900811499
 30
0.0
 11
172.7196685895
 21
83.1900811499
 31
0.0
  0
LINE
  5
108
330
1F
100
AcDbEntity
  8
0
  6
Continuous
 62
     7
370
    25
100
AcDbLine
 10
200.7196685895
 20
97.1900811499
 30
0.0
 11
199.7196685895
 21
98.1900811499
 31
0.0
  0
LINE
  5
109
330
1F
100
AcDbEntity
  8
0
  6
Continuous
 62
     7
370
    25
100
AcDbLine
 10
173.7196685895
 20
98.1900811499
 30
0.0
 11
172.7196685895
 21
97.1900811499
 31
0.0
  0
ARC
  5
10A
330
1F
100
AcDbEntity
  8
0
  6
Continuous
 62
     7
370
    25
100
AcDbCircle
 10
172.7196685895
 20
79.3170978037
 30
0.0
 40
3.0
100
AcDbArc
 50
0.0
 51
75.5224878141
  0
ARC
  5
10B
330
1F
100
AcDbEntity
  8
0
  6
Continuous
 62
     7
370
    25
100
AcDbCircle
 10
200.7196685895
 20
79.3170978037
 30
0.0
 40
3.0
100
AcDbArc
 50
104.4775121859
 51
180.0
  0
LINE
  5
10C
330
1F
100
AcDbEntity
  8
0
  6
Continuous
 62
     7
370
    25
100
AcDbLine
 10
197.7196685895
 20
75.1900811499
 30
0.0
 11
197.7196685895
 21
79.3170978037
 31
0.0
  0
LINE
  5
10D
330
1F
100
AcDbEntity
  8
0
  6
Continuous
 62
     7
370
    25
100
AcDbLine
 10
175.7196685895
 20
79.3170978037
 30
0.0
 11
175.7196685895
 21
75.1900811499
 31
0.0
  0
CIRCLE
  5
10E
330
1F
100
AcDbEntity
  8
0
  6
Continuous
 62
     7
370
    25
100
AcDbCircle
 10
186.7196685895
 20
64.1900811499
 30
0.0
 40
8.5
  0
CIRCLE
  5
10F
330
1F
100
AcDbEntity
  8
0
  6
Continuous
 62
     7
370
    25
100
AcDbCircle
 10
186.7196685895
 20
64.1900811499
 30
0.0
 40
12.99999999999997
  0
CIRCLE
  5
110
330
1F
100
AcDbEntity
  8
0
  6
Continuous
 62
     7
370
    25
100
AcDbCircle
 10
186.7196685895
 20
64.1900811499
 30
0.0
 40
7.872175816270357
  0
CIRCLE
  5
111
330
1F
100
AcDbEntity
  8
0
  6
Continuous
 62
     7
370
    25
100
AcDbCircle
 10
186.7196685895
 20
64.1900811499
 30
0.0
 40
14.0
  0
CIRCLE
  5
112
330
1F
100
AcDbEntity
  8
0
  6
Continuous
 62
     7
370
    25
100
AcDbCircle
 10
186.7196685895
 20
64.1900811499
 30
0.0
 40
7.547130357748898
  0
CIRCLE
  5
113
330
1F
100
AcDbEntity
  8
0
  6
Continuous
 62
     7
370
    25
100
AcDbCircle
 10
186.7196685895
 20
64.1900811499
 30
0.0
 40
7.474999999999994
  0
CIRCLE
  5
114
330
1F
100
AcDbEntity
  8
0
  6
Continuous
 62
     7
370
    25
100
AcDbCircle
 10
186.7196685895
 20
64.1900811499
 30
0.0
 40
5.0
  0
LINE
  5
115
330
1F
100
AcDbEntity
  8
0
  6
Continuous
 62
     7
370
    25
100
AcDbLine
 10
186.7196685895
 20
97.1900811499
 30
0.0
 11
172.7196685895
 21
97.1900811499
 31
0.0
  0
LINE
  5
116
330
1F
100
AcDbEntity
  8
0
  6
Continuous
 62
     7
370
    25
100
AcDbLine
 10
200.7196685895
 20
97.1900811499
 30
0.0
 11
186.7196685895
 21
97.1900811499
 31
0.0
  0
LINE
  5
117
330
1F
100
AcDbEntity
  8
0
  6
Continuous
 62
     7
370
    25
100
AcDbLine
 10
186.7196685895
 20
98.1900811499
 30
0.0
 11
199.7196685895
 21
98.1900811499
 31
0.0
  0
LINE
  5
118
330
1F
100
AcDbEntity
  8
0
  6
Continuous
 62
     7
370
    25
100
AcDbLine
 10
173.7196685895
 20
98.1900811499
 30
0.0
 11
186.7196685895
 21
98.1900811499
 31
0.0
  0
LINE
  5
119
330
1F
100
AcDbEntity
  8
0
  6
Continuous
 62
     7
370
    25
100
AcDbLine
 10
176.9217096183
 20
74.1900811499
 30
0.0
 11
176.2196685895
 21
74.1900811499
 31
0.0
  0
LINE
  5
11A
330
1F
100
AcDbEntity
  8
0
  6
Continuous
 62
     7
370
    25
100
AcDbLine
 10
176.2196685895
 20
75.1900811499
 30
0.0
 11
176.2196685895
 21
74.1900811499
 31
0.0
  0
LINE
  5
11B
330
1F
100
AcDbEntity
  8
0
  6
Continuous
 62
     7
370
    25
100
AcDbLine
 10
178.0594145516
 20
75.1900811499
 30
0.0
 11
176.2196685895
 21
75.1900811499
 31
0.0
  0
SPLINE
  5
11C
330
1F
100
AcDbEntity
  8
0
  6
Continuous
 62
     7
370
    25
100
AcDbSpline
210
0.0
220
0.0
230
1.0
 70
     8
 71
     3
 72
    12
 73
     8
 74
     0
 42
0.000000001
 43
0.00000001
 40
0.0
 40
0.0
 40
0.0
 40
0.0
 40
0.25
 40
0.25
 40
0.5
 40
0.5
 40
1.0
 40
1.0
 40
1.0
 40
1.0
 10
197.2631244388266
 20
75.54259548588897
 30
0.0
 10
197.3380465800545
 20
75.49457026867722
 30
0.0
 10
197.4042100349239
 20
75.45788599864343
 30
0.0
 10
197.51816456228
 20
75.39191210614594
 30
0.0
 10
197.5660203678541
 20
75.36316047351467
 30
0.0
 10
197.6810756613857
 20
75.28260557477681
 30
0.0
 10
197.7196685894555
 20
75.23647409464564
 30
0.0
 10
197.7196685894555
 20
75.19008114993309
 30
0.0
  0
SPLINE
  5
11D
330
1F
100
AcDbEntity
  8
0
  6
Continuous
 62
     7
370
    25
100
AcDbSpline
210
0.0
220
0.0
230
1.0
 70
     8
 71
     3
 72
     8
 73
     4
 74
     0
 42
0.000000001
 43
0.00000001
 40
0.0
 40
0.0
 40
0.0
 40
0.0
 40
1.0
 40
1.0
 40
1.0
 40
1.0
 10
196.7631468503251
 20
75.69008114993309
 30
0.0
 10
196.9613871821398
 20
75.69008114993309
 30
0.0
 10
197.1271011109174
 20
75.6297866654475
 30
0.0
 10
197.2631244388266
 20
75.54259548588897
 30
0.0
  0
SPLINE
  5
11E
330
1F
100
AcDbEntity
  8
0
  6
Continuous
 62
     7
370
    25
100
AcDbSpline
210
0.0
220
0.0
230
1.0
 70
     8
 71
     3
 72
     8
 73
     4
 74
     0
 42
0.000000001
 43
0.00000001
 40
0.0
 40
0.0
 40
0.0
 40
0.0
 40
1.0
 40
1.0
 40
1.0
 40
1.0
 10
176.1762127400844
 20
75.54259548588898
 30
0.0
 10
176.3122360679937
 20
75.6297866654475
 30
0.0
 10
176.4779499967713
 20
75.69008114993309
 30
0.0
 10
176.676190328586
 20
75.69008114993309
 30
0.0
  0
SPLINE
  5
11F
330
1F
100
AcDbEntity
  8
0
  6
Continuous
 62
     7
370
    25
100
AcDbSpline
210
0.0
220
0.0
230
1.0
 70
     8
 71
     3
 72
    12
 73
     8
 74
     0
 42
0.000000001
 43
0.00000001
 40
0.0
 40
0.0
 40
0.0
 40
0.0
 40
0.25
 40
0.25
 40
0.5
 40
0.5
 40
1.0
 40
1.0
 40
1.0
 40
1.0
 10
176.1762127400844
 20
75.54259548588898
 30
0.0
 10
176.1012644625467
 20
75.49455351525908
 30
0.0
 10
176.0350810074439
 20
75.45785987261549
 30
0.0
 10
175.9210995020191
 20
75.39186919119076
 30
0.0
 10
175.8732180650424
 20
75.36309570301381
 30
0.0
 10
175.7582945991283
 20
75.28261999600309
 30
0.0
 10
175.7196685894555
 20
75.23649029275984
 30
0.0
 10
175.7196685894555
 20
75.19008114993309
 30
0.0
  0
LINE
  5
120
330
1F
100
AcDbEntity
  8
0
  6
Continuous
 62
     7
370
    25
100
AcDbLine
 10
197.2196685895
 20
73.7758675876
 30
0.0
 11
197.2196685895
 21
74.2472721084
 31
0.0
  0
LINE
  5
121
330
1F
100
AcDbEntity
  8
0
  6
Continuous
 62
     7
370
    25
100
AcDbLine
 10
197.7196685895
 20
73.7758675876
 30
0.0
 11
197.2196685895
 21
73.7758675876
 31
0.0
  0
LINE
  5
122
330
1F
100
AcDbEntity
  8
0
  6
Continuous
 62
     7
370
    25
100
AcDbLine
 10
197.7196685895
 20
73.7758675876
 30
0.0
 11
197.7196685895
 21
72.8503351878
 31
0.0
  0
SPLINE
  5
123
330
1F
100
AcDbEntity
  8
0
  6
Continuous
 62
     7
370
    25
100
AcDbSpline
210
0.0
220
0.0
230
1.0
 70
     8
 71
     3
 72
    12
 73
     8
 74
     0
 42
0.000000001
 43
0.00000001
 40
0.0
 40
0.0
 40
0.0
 40
0.0
 40
0.2499999999999999
 40
0.2499999999999999
 40
0.4999999999999999
 40
0.4999999999999999
 40
1.0
 40
1.0
 40
1.0
 40
1.0
 10
176.2196685894555
 20
75.19008114993309
 30
0.0
 10
176.1434827443173
 20
75.19008114993309
 30
0.0
 10
176.0701083995002
 20
75.17225385423676
 30
0.0
 10
175.943934896299
 20
75.11296375498236
 30
0.0
 10
175.8912079734033
 20
75.07236624361927
 30
0.0
 10
175.763563545075
 20
74.93108169993029
 30
0.0
 10
175.7196685894555
 20
74.81224321074411
 30
0.0
 10
175.7196685894555
 20
74.69008114993308
 30
0.0
  0
SPLINE
  5
124
330
1F
100
AcDbEntity
  8
0
  6
Continuous
 62
     7
370
    25
100
AcDbSpline
210
0.0
220
0.0
230
1.0
 70
     8
 71
     3
 72
    12
 73
     8
 74
     0
 42
0.000000001
 43
0.00000001
 40
0.0
 40
0.0
 40
0.0
 40
0.0
 40
0.2499999999999993
 40
0.2499999999999993
 40
0.4999999999999987
 40
0.4999999999999987
 40
1.0
 40
1.0
 40
1.0
 40
1.0
 10
176.2196685894555
 20
74.19008114993309
 30
0.0
 10
176.1434827443173
 20
74.19008114993309
 30
0.0
 10
176.0701083995002
 20
74.17201572204212
 30
0.0
 10
175.943934896299
 20
74.11535448050692
 30
0.0
 10
175.8912079734033
 20
74.0778321209848
 30
0.0
 10
175.763563545075
 20
73.9553053568918
 30
0.0
 10
175.7196685894555
 20
73.86233054839529
 30
0.0
 10
175.7196685894555
 20
73.77586758756
 30
0.0
  0
LINE
  5
125
330
1F
100
AcDbEntity
  8
0
  6
Continuous
 62
     7
370
    25
100
AcDbLine
 10
175.7196685895
 20
73.7758675876
 30
0.0
 11
175.7196685895
 21
74.6900811499
 31
0.0
  0
LINE
  5
126
330
1F
100
AcDbEntity
  8
0
  6
Continuous
 62
     7
370
    25
100
AcDbLine
 10
175.7196685895
 20
72.8503351878
 30
0.0
 11
175.7196685895
 21
73.7758675876
 31
0.0
  0
ARC
  5
127
330
1F
100
AcDbEntity
  8
0
  6
Continuous
 62
     7
370
    25
100
AcDbCircle
 10
197.2335574783
 20
73.7611361963
 30
0.0
 40
0.4863342741721497
100
AcDbArc
 50
1.7357930889
 51
91.6364935946
  0
LINE
  5
128
330
1F
100
AcDbEntity
  8
0
  6
Continuous
 62
     7
370
    25
100
AcDbLine
 10
175.7196685895
 20
54.6900811499
 30
0.0
 11
176.2196685895
 21
54.6900811499
 31
0.0
  0
LINE
  5
129
330
1F
100
AcDbEntity
  8
0
  6
Continuous
 62
     7
370
    25
100
AcDbLine
 10
175.7196685895
 20
54.6900811499
 30
0.0
 11
175.7196685895
 21
55.5298271121
 31
0.0
  0
LINE
  5
12A
330
1F
100
AcDbEntity
  8
0
  6
Continuous
 62
     7
370
    25
100
AcDbLine
 10
197.2196685895
 20
54.6900811499
 30
0.0
 11
197.7196685895
 21
54.6900811499
 31
0.0
  0
LINE
  5
12B
330
1F
100
AcDbEntity
  8
0
  6
Continuous
 62
     7
370
    25
100
AcDbLine
 10
197.7196685895
 20
55.5298271121
 30
0.0
 11
197.7196685895
 21
54.6900811499
 31
0.0
  0
LINE
  5
12C
330
1F
100
AcDbEntity
  8
0
  6
Continuous
 62
     7
370
    25
100
AcDbLine
 10
176.2196685895
 20
54.6900811499
 30
0.0
 11
176.2196685895
 21
54.1900811499
 31
0.0
  0
ARC
  5
12D
330
1F
100
AcDbEntity
  8
0
  6
Continuous
 62
     7
370
    25
100
AcDbCircle
 10
176.2196685895
 20
54.6900811499
 30
0.0
 40
0.5
100
AcDbArc
 50
180.0
 51
270.0
  0
LINE
  5
12E
330
1F
100
AcDbEntity
  8
0
  6
Continuous
 62
     7
370
    25
100
AcDbLine
 10
197.2196685895
 20
54.6900811499
 30
0.0
 11
197.2196685895
 21
54.1900811499
 31
0.0
  0
LINE
  5
12F
330
1F
100
AcDbEntity
  8
0
  6
Continuous
 62
     7
370
    25
100
AcDbLine
 10
197.2196685895
 20
54.1900811499
 30
0.0
 11
196.5176275606
 21
54.1900811499
 31
0.0
  0
ARC
  5
130
330
1F
100
AcDbEntity
  8
0
  6
Continuous
 62
     7
370
    25
100
AcDbCircle
 10
197.2196685895
 20
54.6900811499
 30
0.0
 40
0.5
100
AcDbArc
 50
270.0
 51
0.0
  0
LINE
  5
131
330
1F
100
AcDbEntity
  8
0
  6
Continuous
 62
     7
370
    25
100
AcDbLine
 10
176.9217096183
 20
54.1900811499
 30
0.0
 11
176.2196685895
 21
54.1900811499
 31
0.0
  0
LINE
  5
132
330
1F
100
AcDbEntity
  8
0
  6
Continuous
 62
     7
370
    25
100
AcDbLine
 10
197.2196685895
 20
75.1900811499
 30
0.0
 11
195.3799226273
 21
75.1900811499
 31
0.0
  0
LINE
  5
133
330
1F
100
AcDbEntity
  8
0
  6
Continuous
 62
     7
370
    25
100
AcDbLine
 10
197.2196685895
 20
74.2472721084
 30
0.0
 11
197.2196685895
 21
75.1900811499
 31
0.0
  0
SPLINE
  5
134
330
1F
100
AcDbEntity
  8
0
  6
Continuous
 62
     7
370
    25
100
AcDbSpline
210
0.0
220
0.0
230
1.0
 70
     8
 71
     3
 72
    12
 73
     8
 74
     0
 42
0.000000001
 43
0.00000001
 40
0.0
 40
0.0
 40
0.0
 40
0.0
 40
0.2499999999999999
 40
0.2499999999999999
 40
0.4999999999999999
 40
0.4999999999999999
 40
1.0
 40
1.0
 40
1.0
 40
1.0
 10
197.2196685894555
 20
75.19008114993309
 30
0.0
 10
197.2958544345938
 20
75.19008114993309
 30
0.0
 10
197.3692287794109
 20
75.17225385423676
 30
0.0
 10
197.495402282612
 20
75.11296375498236
 30
0.0
 10
197.5481292055078
 20
75.07236624361927
 30
0.0
 10
197.675773633836
 20
74.93108169993029
 30
0.0
 10
197.7196685894555
 20
74.81224321074411
 30
0.0
 10
197.7196685894555
 20
74.69008114993308
 30
0.0
  0
LINE
  5
135
330
1F
100
AcDbEntity
  8
0
  6
Continuous
 62
     7
370
    25
100
AcDbLine
 10
197.7196685895
 20
74.6900811499
 30
0.0
 11
197.7196685895
 21
73.7758675876
 31
0.0
  0
ARC
  5
136
330
1F
100
AcDbEntity
  8
0
  6
Continuous
 62
     7
370
    25
100
AcDbCircle
 10
176.1968942623
 20
75.6692871991
 30
0.0
 40
0.4797469202790421
100
AcDbArc
 50
272.7209417438
 51
2.4841826612
  0
ARC
  5
137
330
1F
100
AcDbEntity
  8
0
  6
Continuous
 62
     7
370
    25
100
AcDbCircle
 10
197.2424429166
 20
75.6692871991
 30
0.0
 40
0.4797469202790143
100
AcDbArc
 50
177.5158173388
 51
267.2790582562
  0
LINE
  5
138
330
1F
100
AcDbEntity
  8
0
  6
Continuous
 62
     7
370
    25
100
AcDbLine
 10
191.618648075
 20
63.1900811499
 30
0.0
 11
181.8206891039
 21
63.1900811499
 31
0.0
  0
ARC
  5
139
330
1F
100
AcDbEntity
  8
0
  6
Continuous
 62
     7
370
    25
100
AcDbCircle
 10
197.7303220385
 20
75.5125985383
 30
0.0
 40
0.4681596031695201
100
AcDbArc
 50
176.3263026515
 51
237.8245286086
  0
ARC
  5
13A
330
1F
100
AcDbEntity
  8
0
  6
Continuous
 62
     7
370
    25
100
AcDbCircle
 10
175.7090151404
 20
75.5125985383
 30
0.0
 40
0.4681596031695741
100
AcDbArc
 50
302.1754713914
 51
3.6736973485
  0
SPLINE
  5
13B
330
1F
100
AcDbEntity
  8
0
  6
Continuous
 62
     7
370
    25
100
AcDbSpline
210
0.0
220
0.0
230
1.0
 70
     8
 71
     3
 72
    26
 73
    22
 74
     0
 42
0.000000001
 43
0.00000001
 40
0.0
 40
0.0
 40
0.0
 40
0.0
 40
0.2500000000000001
 40
0.2500000000000001
 40
0.3750000000000001
 40
0.3750000000000001
 40
0.4375000000000001
 40
0.4375000000000001
 40
0.4687500000000001
 40
0.4687500000000001
 40
0.5000000000000001
 40
0.5000000000000001
 40
0.5625000000000001
 40
0.5625000000000001
 40
0.6250000000000001
 40
0.6250000000000001
 40
0.7500000000000001
 40
0.7500000000000001
 40
0.875
 40
0.875
 40
1.0
 40
1.0
 40
1.0
 40
1.0
 10
182.1908125663616
 20
62.07124582785508
 30
0.0
 10
182.8826309594905
 20
61.70193303434386
 30
0.0
 10
183.593128902086
 20
61.34855941556812
 30
0.0
 10
184.7105973288014
 20
60.84819026510921
 30
0.0
 10
185.0912538898182
 20
60.68403867840761
 30
0.0
 10
185.6852318713962
 20
60.47009019317721
 30
0.0
 10
185.8846547348626
 20
60.4056008184308
 30
0.0
 10
186.1896782121652
 20
60.33350279305017
 30
0.0
 10
186.2923712483918
 20
60.31371928366416
 30
0.0
 10
186.5007009855439
 20
60.2861656767788
 30
0.0
 10
186.6072352489975
 20
60.27853681220715
 30
0.0
 10
186.9221186840464
 20
60.27753881937431
 30
0.0
 10
187.1273668908626
 20
60.30594600104374
 30
0.0
 10
187.5322053662062
 20
60.39907457298298
 30
0.0
 10
187.7328518072785
 20
60.4630830428566
 30
0.0
 10
188.3229037618777
 20
60.67377756453934
 30
0.0
 10
188.7033674546572
 20
60.83724298497778
 30
0.0
 10
189.4530312036512
 20
61.17211730580477
 30
0.0
 10
189.8219562039415
 20
61.34630692351416
 30
0.0
 10
190.5475595514236
 20
61.70379659237229
 30
0.0
 10
190.9012215393853
 20
61.88584533920201
 30
0.0
 10
191.2485246125495
 20
62.07124582785508
 30
0.0
  0
SPLINE
  5
13C
330
1F
100
AcDbEntity
  8
0
  6
Continuous
 62
     7
370
    25
100
AcDbSpline
210
0.0
220
0.0
230
1.0
 70
     8
 71
     3
 72
    12
 73
     8
 74
     0
 42
0.000000001
 43
0.00000001
 40
0.0
 40
0.0
 40
0.0
 40
0.0
 40
0.2499999999999999
 40
0.2499999999999999
 40
0.4999999999999998
 40
0.4999999999999998
 40
1.0
 40
1.0
 40
1.0
 40
1.0
 10
197.4810205107177
 20
75.11633831791103
 30
0.0
 10
197.5180639217973
 20
75.09362581620299
 30
0.0
 10
197.5522768230842
 20
75.0861132963735
 30
0.0
 10
197.6118089779432
 20
75.08455722167301
 30
0.0
 10
197.637209708965
 20
75.09098406351399
 30
0.0
 10
197.6985683406939
 20
75.12120906381483
 30
0.0
 10
197.7196685894555
 20
75.15590458493176
 30
0.0
 10
197.7196685894555
 20
75.19008114993309
 30
0.0
  0
SPLINE
  5
13D
330
1F
100
AcDbEntity
  8
0
  6
Continuous
 62
     7
370
    25
100
AcDbSpline
210
0.0
220
0.0
230
1.0
 70
    24
 71
     3
 72
    12
 73
     8
 74
     0
 42
0.000000001
 43
0.00000001
 40
0.0
 40
0.0
 40
0.0
 40
0.0
 40
0.2500000000000001
 40
0.2500000000000001
 40
0.5000000000000001
 40
0.5000000000000001
 40
1.0
 40
1.0
 40
1.0
 40
1.0
 10
197.7196685894555
 20
74.69008114993309
 30
0.0
 10
197.7196685894555
 20
74.69008114993309
 30
0.0
 10
197.7196685894555
 20
74.70980409534103
 30
0.0
 10
197.7196685894555
 20
74.77044056010227
 30
0.0
 10
197.7196685894555
 20
74.81169710579064
 30
0.0
 10
197.7196685894555
 20
74.95347041546272
 30
0.0
 10
197.7196685894555
 20
75.07203746062305
 30
0.0
 10
197.7196685894555
 20
75.19008114993309
 30
0.0
  0
SPLINE
  5
13E
330
1F
100
AcDbEntity
  8
0
  6
Continuous
 62
     7
370
    25
100
AcDbSpline
210
0.0
220
0.0
230
1.0
 70
     8
 71
     3
 72
    12
 73
     8
 74
     0
 42
0.000000001
 43
0.00000001
 40
0.0
 40
0.0
 40
0.0
 40
0.0
 40
0.2500000000000001
 40
0.2500000000000001
 40
0.5000000000000001
 40
0.5000000000000001
 40
1.0
 40
1.0
 40
1.0
 40
1.0
 10
175.9583166681934
 20
75.11633831791103
 30
0.0
 10
175.9212732571137
 20
75.09362581620299
 30
0.0
 10
175.8870603558269
 20
75.0861132963735
 30
0.0
 10
175.8275282009679
 20
75.08455722167301
 30
0.0
 10
175.802127469946
 20
75.09098406351397
 30
0.0
 10
175.7407688382171
 20
75.1212090638148
 30
0.0
 10
175.7196685894555
 20
75.1559045849319
 30
0.0
 10
175.7196685894555
 20
75.19008114993309
 30
0.0
  0
SPLINE
  5
13F
330
1F
100
AcDbEntity
  8
0
  6
Continuous
 62
     7
370
    25
100
AcDbSpline
210
0.0
220
0.0
230
1.0
 70
    24
 71
     3
 72
    12
 73
     8
 74
     0
 42
0.000000001
 43
0.00000001
 40
0.0
 40
0.0
 40
0.0
 40
0.0
 40
0.2500000000000001
 40
0.2500000000000001
 40
0.5000000000000001
 40
0.5000000000000001
 40
1.0
 40
1.0
 40
1.0
 40
1.0
 10
175.7196685894555
 20
74.69008114993309
 30
0.0
 10
175.7196685894555
 20
74.69008114993309
 30
0.0
 10
175.7196685894555
 20
74.70980409534103
 30
0.0
 10
175.7196685894555
 20
74.77044056010227
 30
0.0
 10
175.7196685894555
 20
74.81169710579064
 30
0.0
 10
175.7196685894555
 20
74.95347041546272
 30
0.0
 10
175.7196685894555
 20
75.07203746062305
 30
0.0
 10
175.7196685894555
 20
75.19008114993309
 30
0.0
  0
LINE
  5
140
330
1F
100
AcDbEntity
  8
0
  6
Continuous
 62
     8
370
    25
100
AcDbLine
 10
200.7196685895
 20
83.1900811499
 30
0.0
 11
172.7196685895
 21
83.1900811499
 31
0.0
  0
LINE
  5
141
330
1F
100
AcDbEntity
  8
0
  6
Continuous
 62
     8
370
    25
100
AcDbLine
 10
186.7196685895
 20
82.2218353134
 30
0.0
 11
199.9696685895
 21
82.2218353134
 31
0.0
  0
LINE
  5
142
330
1F
100
AcDbEntity
  8
0
  6
Continuous
 62
     8
370
    25
100
AcDbLine
 10
173.4696685895
 20
82.2218353134
 30
0.0
 11
186.7196685895
 21
82.2218353134
 31
0.0
  0
LINE
  5
143
330
1F
100
AcDbEntity
  8
0
  6
Continuous
 62
     8
370
    25
100
AcDbLine
 10
186.7196685895
 20
79.3170978037
 30
0.0
 11
175.7196685895
 21
79.3170978037
 31
0.0
  0
LINE
  5
144
330
1F
100
AcDbEntity
  8
0
  6
Continuous
 62
     8
370
    25
100
AcDbLine
 10
197.7196685895
 20
79.3170978037
 30
0.0
 11
186.7196685895
 21
79.3170978037
 31
0.0
  0
LINE
  5
145
330
1F
100
AcDbEntity
  8
0
  6
Continuous
 62
     8
370
    25
100
AcDbLine
 10
194.7040283008
 20
75.6900811499
 30
0.0
 11
196.7631468503
 21
75.6900811499
 31
0.0
  0
LINE
  5
146
330
1F
100
AcDbEntity
  8
0
  6
Continuous
 62
     8
370
    25
100
AcDbLine
 10
176.6761903286
 20
75.6900811499
 30
0.0
 11
178.7353088781
 21
75.6900811499
 31
0.0
  0
LINE
  5
147
330
1F
100
AcDbEntity
  8
0
  6
Continuous
 62
     8
370
    25
100
AcDbLine
 10
197.2196685895
 20
73.7758675876
 30
0.0
 11
196.9232316128
 21
73.7758675876
 31
0.0
  0
LINE
  5
148
330
1F
100
AcDbEntity
  8
0
  6
Continuous
 62
     8
370
    25
100
AcDbLine
 10
196.4589144548
 20
74.2472721084
 30
0.0
 11
197.2196685895
 21
74.2472721084
 31
0.0
  0
LINE
  5
149
330
1F
100
AcDbEntity
  8
0
  6
Continuous
 62
     8
370
    25
100
AcDbLine
 10
197.2196685895
 20
73.4502107387
 30
0.0
 11
197.2196685895
 21
73.7758675876
 31
0.0
  0
LINE
  5
14A
330
1F
100
AcDbEntity
  8
0
  6
Continuous
 62
     8
370
    25
100
AcDbLine
 10
176.2196685895
 20
74.1900811499
 30
0.0
 11
176.2196685895
 21
73.4502107387
 31
0.0
  0
LINE
  5
14B
330
1F
100
AcDbEntity
  8
0
  6
Continuous
 62
     8
370
    25
100
AcDbLine
 10
176.2196685895
 20
54.9299515612
 30
0.0
 11
176.2196685895
 21
54.6900811499
 31
0.0
  0
LINE
  5
14C
330
1F
100
AcDbEntity
  8
0
  6
Continuous
 62
     8
370
    25
100
AcDbLine
 10
176.2196685895
 20
54.6900811499
 30
0.0
 11
176.4361866889
 21
54.6900811499
 31
0.0
  0
LINE
  5
14D
330
1F
100
AcDbEntity
  8
0
  6
Continuous
 62
     8
370
    25
100
AcDbLine
 10
197.0031504901
 20
54.6900811499
 30
0.0
 11
197.2196685895
 21
54.6900811499
 31
0.0
  0
LINE
  5
14E
330
1F
100
AcDbEntity
  8
0
  6
Continuous
 62
     8
370
    25
100
AcDbLine
 10
197.2196685895
 20
54.6900811499
 30
0.0
 11
197.2196685895
 21
54.9299515612
 31
0.0
  0
INSERT
  5
15A
330
1F
100
AcDbEntity
  8
0
  6
Continuous
 62
     7
370
    18
100
AcDbBlockReference
  2
SW_CENTERMARKSYMBOL_0
 10
186.7196685895
 20
64.1900811499
 30
0.0
  0
ARC
  5
15B
330
1F
100
AcDbEntity
  8
0
  6
Continuous
 62
     7
370
    18
100
AcDbCircle
 10
186.7196685895
 20
64.1900811499
 30
0.0
 40
8.334121499999995
100
AcDbArc
 50
75.0
 51
345.0
  0
LINE
  5
15C
330
1F
100
AcDbEntity
  8
0
  6
Continuous
 62
     7
370
    25
100
AcDbLine
 10
157.0913372976
 20
145.9114767603
 30
0.0
 11
143.0913372976
 21
145.9114767603
 31
0.0
  0
LINE
  5
15D
330
1F
100
AcDbEntity
  8
0
  6
Continuous
 62
     7
370
    25
100
AcDbLine
 10
143.0913372976
 20
117.9114767603
 30
0.0
 11
157.0913372976
 21
117.9114767603
 31
0.0
  0
LINE
  5
15E
330
1F
100
AcDbEntity
  8
0
  6
Continuous
 62
     7
370
    25
100
AcDbLine
 10
157.0913372976
 20
117.9114767603
 30
0.0
 11
158.0913372976
 21
118.9114767603
 31
0.0
  0
LINE
  5
15F
330
1F
100
AcDbEntity
  8
0
  6
Continuous
 62
     7
370
    25
100
AcDbLine
 10
158.0913372976
 20
144.9114767603
 30
0.0
 11
157.0913372976
 21
145.9114767603
 31
0.0
  0
ARC
  5
160
330
1F
100
AcDbEntity
  8
0
  6
Continuous
 62
     7
370
    25
100
AcDbCircle
 10
143.0913372976
 20
118.9114767603
 30
0.0
 40
1.000000000000004
100
AcDbArc
 50
194.4775121859
 51
270.0
  0
ARC
  5
161
330
1F
100
AcDbEntity
  8
0
  6
Continuous
 62
     7
370
    25
100
AcDbCircle
 10
143.0913372976
 20
144.9114767603
 30
0.0
 40
1.000000000000004
100
AcDbArc
 50
90.0
 51
165.5224878141
  0
ARC
  5
162
330
1F
100
AcDbEntity
  8
0
  6
Continuous
 62
     7
370
    25
100
AcDbCircle
 10
139.2183539514
 20
117.9114767603
 30
0.0
 40
3.000000000000012
100
AcDbArc
 50
14.4775121859
 51
90.0
  0
ARC
  5
163
330
1F
100
AcDbEntity
  8
0
  6
Continuous
 62
     7
370
    25
100
AcDbCircle
 10
139.2183539514
 20
145.9114767603
 30
0.0
 40
3.000000000000012
100
AcDbArc
 50
270.0
 51
345.5224878141
  0
LINE
  5
164
330
1F
100
AcDbEntity
  8
0
  6
Continuous
 62
     7
370
    25
100
AcDbLine
 10
139.2183539514
 20
142.9114767603
 30
0.0
 11
137.0913372976
 21
142.9114767603
 31
0.0
  0
LINE
  5
165
330
1F
100
AcDbEntity
  8
0
  6
Continuous
 62
     7
370
    25
100
AcDbLine
 10
135.0913372976
 20
120.9114767603
 30
0.0
 11
139.2183539514
 21
120.9114767603
 31
0.0
  0
ARC
  5
166
330
1F
100
AcDbEntity
  8
0
  6
Continuous
 62
     7
370
    25
100
AcDbCircle
 10
136.6330797281
 20
142.7114767603
 30
0.0
 40
0.500000000000022
100
AcDbArc
 50
23.5781784782
 51
90.0
  0
ARC
  5
167
330
1F
100
AcDbEntity
  8
0
  6
Continuous
 62
     7
370
    25
100
AcDbCircle
 10
135.5495948671
 20
142.7114767603
 30
0.0
 40
0.5
100
AcDbArc
 50
90.0
 51
156.4218215218
  0
CIRCLE
  5
168
330
1F
100
AcDbEntity
  8
0
  6
Continuous
 62
     7
370
    25
100
AcDbCircle
 10
124.0913372976
 20
131.9114767603
 30
0.0
 40
14.00000000000003
  0
CIRCLE
  5
169
330
1F
100
AcDbEntity
  8
0
  6
Continuous
 62
     7
370
    25
100
AcDbCircle
 10
124.0913372976
 20
131.9114767603
 30
0.0
 40
13.00000000000003
  0
CIRCLE
  5
16A
330
1F
100
AcDbEntity
  8
0
  6
Continuous
 62
     7
370
    25
100
AcDbCircle
 10
124.0913372976
 20
131.9114767603
 30
0.0
 40
10.75000000000003
  0
CIRCLE
  5
16B
330
1F
100
AcDbEntity
  8
0
  6
Continuous
 62
     7
370
    25
100
AcDbCircle
 10
124.0913372976
 20
131.9114767603
 30
0.0
 40
9.798213046580429
  0
CIRCLE
  5
16C
330
1F
100
AcDbEntity
  8
0
  6
Continuous
 62
     7
370
    25
100
AcDbCircle
 10
124.0913372976
 20
131.9114767603
 30
0.0
 40
9.428250615618268
  0
CIRCLE
  5
16D
330
1F
100
AcDbEntity
  8
0
  6
Continuous
 62
     7
370
    25
100
AcDbCircle
 10
124.0913372976
 20
131.9114767603
 30
0.0
 40
9.3155
  0
CIRCLE
  5
16E
330
1F
100
AcDbEntity
  8
0
  6
Continuous
 62
     7
370
    25
100
AcDbCircle
 10
124.0913372976
 20
131.9114767603
 30
0.0
 40
6.5
  0
LINE
  5
16F
330
1F
100
AcDbEntity
  8
0
  6
Continuous
 62
     7
370
    25
100
AcDbLine
 10
157.0913372976
 20
117.9114767603
 30
0.0
 11
157.0913372976
 21
145.9114767603
 31
0.0
  0
LINE
  5
170
330
1F
100
AcDbEntity
  8
0
  6
Continuous
 62
     7
370
    25
100
AcDbLine
 10
158.0913372976
 20
144.9114767603
 30
0.0
 11
158.0913372976
 21
118.9114767603
 31
0.0
  0
LINE
  5
171
330
1F
100
AcDbEntity
  8
0
  6
Continuous
 62
     7
370
    25
100
AcDbLine
 10
134.0913372976
 20
142.4114767603
 30
0.0
 11
134.0913372976
 21
141.7094357314
 31
0.0
  0
LINE
  5
172
330
1F
100
AcDbEntity
  8
0
  6
Continuous
 62
     7
370
    25
100
AcDbLine
 10
134.7580039643
 20
142.4114767603
 30
0.0
 11
134.0913372976
 21
142.4114767603
 31
0.0
  0
LINE
  5
173
330
1F
100
AcDbEntity
  8
0
  6
Continuous
 62
     7
370
    25
100
AcDbLine
 10
135.0913372976
 20
123.2512227225
 30
0.0
 11
135.0913372976
 21
121.4114767603
 31
0.0
  0
LINE
  5
174
330
1F
100
AcDbEntity
  8
0
  6
Continuous
 62
     7
370
    25
100
AcDbLine
 10
134.0913372976
 20
121.4114767603
 30
0.0
 11
135.0913372976
 21
121.4114767603
 31
0.0
  0
LINE
  5
175
330
1F
100
AcDbEntity
  8
0
  6
Continuous
 62
     7
370
    25
100
AcDbLine
 10
134.0913372976
 20
122.1135177892
 30
0.0
 11
134.0913372976
 21
121.4114767603
 31
0.0
  0
SPLINE
  5
176
330
1F
100
AcDbEntity
  8
0
  6
Continuous
 62
     7
370
    25
100
AcDbSpline
210
0.0
220
0.0
230
1.0
 70
     8
 71
     3
 72
    12
 73
     8
 74
     0
 42
0.000000001
 43
0.00000001
 40
0.0
 40
0.0
 40
0.0
 40
0.0
 40
0.25
 40
0.25
 40
0.5
 40
0.5
 40
1.0
 40
1.0
 40
1.0
 40
1.0
 10
135.443851633599
 20
121.3680209109369
 30
0.0
 10
135.3958264159563
 20
121.2930987690367
 30
0.0
 10
135.3591421456814
 20
121.2269353136528
 30
0.0
 10
135.2931682527521
 20
121.1129807856026
 30
0.0
 10
135.2644166201838
 20
121.0651249801419
 30
0.0
 10
135.1838617193938
 20
120.9500696845215
 30
0.0
 10
135.137730242774
 20
120.911476760308
 30
0.0
 10
135.0913372976432
 20
120.911476760308
 30
0.0
  0
SPLINE
  5
177
330
1F
100
AcDbEntity
  8
0
  6
Continuous
 62
     7
370
    25
100
AcDbSpline
210
0.0
220
0.0
230
1.0
 70
     8
 71
     3
 72
     8
 73
     4
 74
     0
 42
0.000000001
 43
0.00000001
 40
0.0
 40
0.0
 40
0.0
 40
0.0
 40
1.0
 40
1.0
 40
1.0
 40
1.0
 10
135.5913372976432
 20
121.8679984994384
 30
0.0
 10
135.5913372976432
 20
121.6697581676237
 30
0.0
 10
135.5310428131575
 20
121.5040442388462
 30
0.0
 10
135.443851633599
 20
121.3680209109369
 30
0.0
  0
SPLINE
  5
178
330
1F
100
AcDbEntity
  8
0
  6
Continuous
 62
     7
370
    25
100
AcDbSpline
210
0.0
220
0.0
230
1.0
 70
     8
 71
     3
 72
     8
 73
     4
 74
     0
 42
0.000000001
 43
0.00000001
 40
0.0
 40
0.0
 40
0.0
 40
0.0
 40
1.0
 40
1.0
 40
1.0
 40
1.0
 10
135.443851633599
 20
142.4549326096791
 30
0.0
 10
135.5310428131576
 20
142.3189092817698
 30
0.0
 10
135.5913372976432
 20
142.1531953529923
 30
0.0
 10
135.5913372976432
 20
141.9549550211775
 30
0.0
  0
SPLINE
  5
179
330
1F
100
AcDbEntity
  8
0
  6
Continuous
 62
     7
370
    25
100
AcDbSpline
210
0.0
220
0.0
230
1.0
 70
     8
 71
     3
 72
    12
 73
     8
 74
     0
 42
0.000000001
 43
0.00000001
 40
0.0
 40
0.0
 40
0.0
 40
0.0
 40
0.2499999999999999
 40
0.2499999999999999
 40
0.4999999999999999
 40
0.4999999999999999
 40
1.0
 40
1.0
 40
1.0
 40
1.0
 10
135.443851633599
 20
142.4549326096791
 30
0.0
 10
135.3958096629628
 20
142.5298808872268
 30
0.0
 10
135.3591160203156
 20
142.5960643423371
 30
0.0
 10
135.2931253388846
 20
142.7100458477721
 30
0.0
 10
135.264351850705
 20
142.7579272847515
 30
0.0
 10
135.183876143687
 20
142.8728507506656
 30
0.0
 10
135.1377464404912
 20
142.911476760308
 30
0.0
 10
135.0913372976432
 20
142.911476760308
 30
0.0
  0
LINE
  5
17A
330
1F
100
AcDbEntity
  8
0
  6
Continuous
 62
     7
370
    25
100
AcDbLine
 10
114.5913372976
 20
142.9114767603
 30
0.0
 11
114.5913372976
 21
142.4114767603
 31
0.0
  0
LINE
  5
17B
330
1F
100
AcDbEntity
  8
0
  6
Continuous
 62
     7
370
    25
100
AcDbLine
 10
114.5913372976
 20
142.9114767603
 30
0.0
 11
115.4310832598
 21
142.9114767603
 31
0.0
  0
LINE
  5
17C
330
1F
100
AcDbEntity
  8
0
  6
Continuous
 62
     7
370
    25
100
AcDbLine
 10
114.5913372976
 20
142.4114767603
 30
0.0
 11
114.0913372976
 21
142.4114767603
 31
0.0
  0
ARC
  5
17D
330
1F
100
AcDbEntity
  8
0
  6
Continuous
 62
     7
370
    25
100
AcDbCircle
 10
114.5913372976
 20
142.4114767603
 30
0.0
 40
0.5
100
AcDbArc
 50
90.0
 51
180.0
  0
LINE
  5
17E
330
1F
100
AcDbEntity
  8
0
  6
Continuous
 62
     7
370
    25
100
AcDbLine
 10
114.0913372976
 20
141.7094357314
 30
0.0
 11
114.0913372976
 21
142.4114767603
 31
0.0
  0
SPLINE
  5
17F
330
1F
100
AcDbEntity
  8
0
  6
Continuous
 62
     7
370
    25
100
AcDbSpline
210
0.0
220
0.0
230
1.0
 70
     8
 71
     3
 72
    12
 73
     8
 74
     0
 42
0.000000001
 43
0.00000001
 40
0.0
 40
0.0
 40
0.0
 40
0.0
 40
0.2499999999999999
 40
0.2499999999999999
 40
0.4999999999999999
 40
0.4999999999999999
 40
1.0
 40
1.0
 40
1.0
 40
1.0
 10
134.0913372976432
 20
142.411476760308
 30
0.0
 10
134.0913372976432
 20
142.4876626054462
 30
0.0
 10
134.0732718697521
 20
142.5610369502633
 30
0.0
 10
134.016610628217
 20
142.6872104534645
 30
0.0
 10
133.9790882686949
 20
142.7399373763603
 30
0.0
 10
133.8565615046018
 20
142.8675818046885
 30
0.0
 10
133.7635866961055
 20
142.911476760308
 30
0.0
 10
133.67712373527
 20
142.911476760308
 30
0.0
  0
LINE
  5
180
330
1F
100
AcDbEntity
  8
0
  6
Continuous
 62
     7
370
    25
100
AcDbLine
 10
132.7515913355
 20
142.9114767603
 30
0.0
 11
133.6771237353
 21
142.9114767603
 31
0.0
  0
LWPOLYLINE
  5
181
330
1F
100
AcDbEntity
  8
0
  6
Continuous
 62
     7
370
    25
100
AcDbPolyline
 90
        9
 70
   128
 43
0.0
 10
134.5913372976
 20
142.9114767603
 10
134.6238523513
 20
142.9018694005
 10
134.6551178697
 20
142.8734165266
 10
134.6839323365
 20
142.8272115665
 10
134.7091884278
 20
142.7650301509
 10
134.7299155664
 20
142.6892618768
 10
134.7453172197
 20
142.6028184765
 10
134.754801511
 20
142.5090219213
 10
134.7580039643
 20
142.4114767603
  0
LINE
  5
182
330
1F
100
AcDbEntity
  8
0
  6
Continuous
 62
     7
370
    25
100
AcDbLine
 10
133.6771237353
 20
142.9114767603
 30
0.0
 11
134.5913372976
 21
142.9114767603
 31
0.0
  0
LINE
  5
183
330
1F
100
AcDbEntity
  8
0
  6
Continuous
 62
     7
370
    25
100
AcDbLine
 10
114.0913372976
 20
121.4114767603
 30
0.0
 11
114.0913372976
 21
122.1135177892
 31
0.0
  0
LINE
  5
184
330
1F
100
AcDbEntity
  8
0
  6
Continuous
 62
     7
370
    25
100
AcDbLine
 10
114.0913372976
 20
121.4114767603
 30
0.0
 11
114.5913372976
 21
121.4114767603
 31
0.0
  0
LINE
  5
185
330
1F
100
AcDbEntity
  8
0
  6
Continuous
 62
     7
370
    25
100
AcDbLine
 10
114.5913372976
 20
121.4114767603
 30
0.0
 11
114.5913372976
 21
120.9114767603
 31
0.0
  0
ARC
  5
186
330
1F
100
AcDbEntity
  8
0
  6
Continuous
 62
     7
370
    25
100
AcDbCircle
 10
114.5913372976
 20
121.4114767603
 30
0.0
 40
0.5
100
AcDbArc
 50
180.0
 51
270.0
  0
LINE
  5
187
330
1F
100
AcDbEntity
  8
0
  6
Continuous
 62
     7
370
    25
100
AcDbLine
 10
115.4310832598
 20
120.9114767603
 30
0.0
 11
114.5913372976
 21
120.9114767603
 31
0.0
  0
SPLINE
  5
188
330
1F
100
AcDbEntity
  8
0
  6
Continuous
 62
     7
370
    25
100
AcDbSpline
210
0.0
220
0.0
230
1.0
 70
     8
 71
     3
 72
    12
 73
     8
 74
     0
 42
0.000000001
 43
0.00000001
 40
0.0
 40
0.0
 40
0.0
 40
0.0
 40
0.2499999999999999
 40
0.2499999999999999
 40
0.4999999999999999
 40
0.4999999999999999
 40
1.0
 40
1.0
 40
1.0
 40
1.0
 10
134.0913372976432
 20
121.411476760308
 30
0.0
 10
134.0913372976432
 20
121.3352909151697
 30
0.0
 10
134.0732718697521
 20
121.2619165703527
 30
0.0
 10
134.016610628217
 20
121.1357430671515
 30
0.0
 10
133.9790882686949
 20
121.0830161442557
 30
0.0
 10
133.8565615046018
 20
120.9553717159275
 30
0.0
 10
133.7635866961055
 20
120.911476760308
 30
0.0
 10
133.67712373527
 20
120.911476760308
 30
0.0
  0
LINE
  5
189
330
1F
100
AcDbEntity
  8
0
  6
Continuous
 62
     7
370
    25
100
AcDbLine
 10
133.6771237353
 20
120.9114767603
 30
0.0
 11
132.7515913355
 21
120.9114767603
 31
0.0
  0
SPLINE
  5
18A
330
1F
100
AcDbEntity
  8
0
  6
Continuous
 62
     7
370
    25
100
AcDbSpline
210
0.0
220
0.0
230
1.0
 70
     8
 71
     3
 72
    12
 73
     8
 74
     0
 42
0.000000001
 43
0.00000001
 40
0.0
 40
0.0
 40
0.0
 40
0.0
 40
0.2499999999999993
 40
0.2499999999999993
 40
0.4999999999999987
 40
0.4999999999999987
 40
1.0
 40
1.0
 40
1.0
 40
1.0
 10
135.0913372976432
 20
121.411476760308
 30
0.0
 10
135.0913372976432
 20
121.3352909151698
 30
0.0
 10
135.0735100019468
 20
121.2619165703527
 30
0.0
 10
135.0142199026924
 20
121.1357430671515
 30
0.0
 10
134.9736223913293
 20
121.0830161442557
 30
0.0
 10
134.8323378476403
 20
120.9553717159275
 30
0.0
 10
134.7134993584543
 20
120.911476760308
 30
0.0
 10
134.5913372976432
 20
120.911476760308
 30
0.0
  0
LINE
  5
18B
330
1F
100
AcDbEntity
  8
0
  6
Continuous
 62
     7
370
    25
100
AcDbLine
 10
134.5913372976
 20
120.9114767603
 30
0.0
 11
133.6771237353
 21
120.9114767603
 31
0.0
  0
ARC
  5
18C
330
1F
100
AcDbEntity
  8
0
  6
Continuous
 62
     7
370
    25
100
AcDbCircle
 10
135.5705433468
 20
121.3887024332
 30
0.0
 40
0.4797469202789859
100
AcDbArc
 50
87.5158173388
 51
177.2790582562
  0
LINE
  5
18D
330
1F
100
AcDbEntity
  8
0
  6
Continuous
 62
     7
370
    25
100
AcDbLine
 10
135.0913372976
 20
142.4114767603
 30
0.0
 11
134.7580039643
 21
142.4114767603
 31
0.0
  0
LINE
  5
18E
330
1F
100
AcDbEntity
  8
0
  6
Continuous
 62
     7
370
    25
100
AcDbLine
 10
135.0913372976
 20
142.4114767603
 30
0.0
 11
135.0913372976
 21
140.5717307982
 31
0.0
  0
ARC
  5
18F
330
1F
100
AcDbEntity
  8
0
  6
Continuous
 62
     7
370
    25
100
AcDbCircle
 10
134.5913372976
 20
142.4114767603
 30
0.0
 40
0.5
100
AcDbArc
 50
0.0
 51
90.0
  0
ARC
  5
190
330
1F
100
AcDbEntity
  8
0
  6
Continuous
 62
     7
370
    25
100
AcDbCircle
 10
135.5705433468
 20
142.4342510874
 30
0.0
 40
0.4797469202790692
100
AcDbArc
 50
182.7209417438
 51
272.4841826612
  0
SPLINE
  5
191
330
1F
100
AcDbEntity
  8
0
  6
Continuous
 62
     7
370
    25
100
AcDbSpline
210
0.0
220
0.0
230
1.0
 70
     8
 71
     3
 72
    16
 73
    12
 74
     0
 42
0.000000001
 43
0.00000001
 40
0.0
 40
0.0
 40
0.0
 40
0.0
 40
0.2499999999999999
 40
0.2499999999999999
 40
0.3749999999999998
 40
0.3749999999999998
 40
0.4999999999999999
 40
0.4999999999999999
 40
0.75
 40
0.75
 40
1.0
 40
1.0
 40
1.0
 40
1.0
 10
123.0913372976431
 20
136.4403327834019
 30
0.0
 10
123.5375800063798
 20
136.4030514320109
 30
0.0
 10
123.9902834029946
 20
136.3867552890926
 30
0.0
 10
124.6823181887783
 20
136.4097937351789
 30
0.0
 10
124.9115637633034
 20
136.42473694674
 30
0.0
 10
125.360561283738
 20
136.4635301635316
 30
0.0
 10
125.5817446544089
 20
136.4873357089544
 30
0.0
 10
126.2388106880181
 20
136.5641835166969
 30
0.0
 10
126.66871021745
 20
136.6219430612727
 30
0.0
 10
127.5219494942628
 20
136.7263131608553
 30
0.0
 10
127.9435479528802
 20
136.7731703789481
 30
0.0
 10
128.3633391703019
 20
136.8104562458743
 30
0.0
  0
SPLINE
  5
192
330
1F
100
AcDbEntity
  8
0
  6
Continuous
 62
     7
370
    25
100
AcDbSpline
210
0.0
220
0.0
230
1.0
 70
     8
 71
     3
 72
    16
 73
    12
 74
     0
 42
0.000000001
 43
0.00000001
 40
0.0
 40
0.0
 40
0.0
 40
0.0
 40
0.25
 40
0.25
 40
0.5
 40
0.5
 40
0.75
 40
0.75
 40
0.875
 40
0.875
 40
1.0
 40
1.0
 40
1.0
 40
1.0
 10
128.3633391703019
 20
127.0124972747416
 30
0.0
 10
127.9444348762047
 20
127.0497043651149
 30
0.0
 10
127.5239305695848
 20
127.0964209646755
 30
0.0
 10
126.6735734421379
 20
127.2003928283439
 30
0.0
 10
126.2421314590677
 20
127.2583508183659
 30
0.0
 10
125.3641593181687
 20
127.3610963547676
 30
0.0
 10
124.9194252532252
 20
127.4047922235101
 30
0.0
 10
124.2349670320032
 20
127.4282806899998
 30
0.0
 10
124.0019687803725
 20
127.4289282686447
 30
0.0
 10
123.5427642571639
 20
127.4153487604642
 30
0.0
 10
123.3159727503454
 20
127.4013879082694
 30
0.0
 10
123.0913372976431
 20
127.382620737214
 30
0.0
  0
LINE
  5
193
330
1F
100
AcDbEntity
  8
0
  6
Continuous
 62
     7
370
    25
100
AcDbLine
 10
123.0913372976
 20
127.3826207372
 30
0.0
 11
123.0913372976
 21
136.4403327834
 31
0.0
  0
ARC
  5
194
330
1F
100
AcDbEntity
  8
0
  6
Continuous
 62
     7
370
    25
100
AcDbCircle
 10
135.413854686
 20
142.9221302094
 30
0.0
 40
0.4681596031694907
100
AcDbArc
 50
212.1754713914
 51
273.6736973485
  0
ARC
  5
195
330
1F
100
AcDbEntity
  8
0
  6
Continuous
 62
     7
370
    25
100
AcDbCircle
 10
135.413854686
 20
120.9008233112
 30
0.0
 40
0.4681596031694766
100
AcDbArc
 50
86.3263026515
 51
147.8245286086
  0
SPLINE
  5
196
330
1F
100
AcDbEntity
  8
0
  6
Continuous
 62
     7
370
    25
100
AcDbSpline
210
0.0
220
0.0
230
1.0
 70
     8
 71
     3
 72
    12
 73
     8
 74
     0
 42
0.000000001
 43
0.00000001
 40
0.0
 40
0.0
 40
0.0
 40
0.0
 40
0.25
 40
0.25
 40
0.5
 40
0.5
 40
1.0
 40
1.0
 40
1.0
 40
1.0
 10
135.0175944656211
 20
142.6728286815701
 30
0.0
 10
134.994881963912
 20
142.7098720926515
 30
0.0
 10
134.9873694440828
 20
142.7440849939398
 30
0.0
 10
134.9858133693836
 20
142.8036171488008
 30
0.0
 10
134.9922402112257
 20
142.8290178798231
 30
0.0
 10
135.02246521153
 20
142.8903765115521
 30
0.0
 10
135.0571607326548
 20
142.911476760308
 30
0.0
 10
135.0913372976432
 20
142.911476760308
 30
0.0
  0
SPLINE
  5
197
330
1F
100
AcDbEntity
  8
0
  6
Continuous
 62
     7
370
    25
100
AcDbSpline
210
0.0
220
0.0
230
1.0
 70
    24
 71
     3
 72
    12
 73
     8
 74
     0
 42
0.000000001
 43
0.00000001
 40
0.0
 40
0.0
 40
0.0
 40
0.0
 40
0.25
 40
0.25
 40
0.5
 40
0.5
 40
1.0
 40
1.0
 40
1.0
 40
1.0
 10
134.5913372976432
 20
142.911476760308
 30
0.0
 10
134.5913372976432
 20
142.911476760308
 30
0.0
 10
134.6110602430511
 20
142.911476760308
 30
0.0
 10
134.6716967078123
 20
142.911476760308
 30
0.0
 10
134.7129532535007
 20
142.911476760308
 30
0.0
 10
134.8547265631728
 20
142.911476760308
 30
0.0
 10
134.9732936083331
 20
142.911476760308
 30
0.0
 10
135.0913372976432
 20
142.911476760308
 30
0.0
  0
SPLINE
  5
198
330
1F
100
AcDbEntity
  8
0
  6
Continuous
 62
     7
370
    25
100
AcDbSpline
210
0.0
220
0.0
230
1.0
 70
     8
 71
     3
 72
    12
 73
     8
 74
     0
 42
0.000000001
 43
0.00000001
 40
0.0
 40
0.0
 40
0.0
 40
0.0
 40
0.25
 40
0.25
 40
0.5
 40
0.5
 40
1.0
 40
1.0
 40
1.0
 40
1.0
 10
135.0175944656211
 20
121.1501248390458
 30
0.0
 10
134.994881963912
 20
121.1130814279645
 30
0.0
 10
134.9873694440828
 20
121.0788685266762
 30
0.0
 10
134.9858133693836
 20
121.0193363718152
 30
0.0
 10
134.9922402112257
 20
120.9939356407928
 30
0.0
 10
135.02246521153
 20
120.9325770090638
 30
0.0
 10
135.0571607326542
 20
120.911476760308
 30
0.0
 10
135.0913372976432
 20
120.911476760308
 30
0.0
  0
SPLINE
  5
199
330
1F
100
AcDbEntity
  8
0
  6
Continuous
 62
     7
370
    25
100
AcDbSpline
210
0.0
220
0.0
230
1.0
 70
    24
 71
     3
 72
    12
 73
     8
 74
     0
 42
0.000000001
 43
0.00000001
 40
0.0
 40
0.0
 40
0.0
 40
0.0
 40
0.2499999999999999
 40
0.2499999999999999
 40
0.4999999999999999
 40
0.4999999999999999
 40
1.0
 40
1.0
 40
1.0
 40
1.0
 10
134.5913372976432
 20
120.911476760308
 30
0.0
 10
134.5913372976432
 20
120.911476760308
 30
0.0
 10
134.6110602430511
 20
120.911476760308
 30
0.0
 10
134.6716967078123
 20
120.911476760308
 30
0.0
 10
134.7129532535007
 20
120.911476760308
 30
0.0
 10
134.8547265631728
 20
120.911476760308
 30
0.0
 10
134.9732936083331
 20
120.911476760308
 30
0.0
 10
135.0913372976432
 20
120.911476760308
 30
0.0
  0
SPLINE
  5
19A
330
1F
100
AcDbEntity
  8
0
  6
Continuous
 62
     7
370
    25
100
AcDbSpline
210
0.0
220
0.0
230
1.0
 70
     8
 71
     3
 72
    26
 73
    22
 74
     0
 42
0.000000001
 43
0.00000001
 40
0.0
 40
0.0
 40
0.0
 40
0.0
 40
0.2500000000000001
 40
0.2500000000000001
 40
0.3750000000000001
 40
0.3750000000000001
 40
0.4375000000000001
 40
0.4375000000000001
 40
0.4687500000000001
 40
0.4687500000000001
 40
0.5000000000000001
 40
0.5000000000000001
 40
0.5625000000000001
 40
0.5625000000000001
 40
0.6250000000000001
 40
0.6250000000000001
 40
0.7500000000000001
 40
0.7500000000000001
 40
0.875
 40
0.875
 40
1.0
 40
1.0
 40
1.0
 40
1.0
 10
123.0913372976431
 20
127.382620737214
 30
0.0
 10
122.8088567491835
 20
128.074439130343
 30
0.0
 10
122.5801123999894
 20
128.7849370729385
 30
0.0
 10
122.4177344641085
 20
129.9024054996538
 30
0.0
 10
122.3960119145093
 20
130.2830620606706
 30
0.0
 10
122.4035932837255
 20
130.8770400422487
 30
0.0
 10
122.4123014925275
 20
131.0764629057151
 30
0.0
 10
122.4252408732012
 20
131.3814863830177
 30
0.0
 10
122.4294467900852
 20
131.4841794192443
 30
0.0
 10
122.4355837544306
 20
131.6925091563964
 30
0.0
 10
122.4374519090018
 20
131.79904341985
 30
0.0
 10
122.4376901644577
 20
132.1139268548989
 30
0.0
 10
122.4303739572959
 20
132.3191750617151
 30
0.0
 10
122.41330447064
 20
132.7240135370587
 30
0.0
 10
122.4043209375476
 20
132.9246599781309
 30
0.0
 10
122.3954951584499
 20
133.5147119327302
 30
0.0
 10
122.4153888559295
 20
133.8951756255097
 30
0.0
 10
122.5217190431798
 20
134.6448393745036
 30
0.0
 10
122.6063222772861
 20
135.0137643747939
 30
0.0
 10
122.820962371494
 20
135.7393677222761
 30
0.0
 10
122.9495278812363
 20
136.0930297102378
 30
0.0
 10
123.0913372976431
 20
136.4403327834019
 30
0.0
  0
LINE
  5
19B
330
1F
100
AcDbEntity
  8
0
  6
Continuous
 62
     7
370
    25
100
AcDbLine
 10
135.5495948671
 20
143.2114767603
 30
0.0
 11
136.6330797281
 21
143.2114767603
 31
0.0
  0
LINE
  5
19C
330
1F
100
AcDbEntity
  8
0
  6
Continuous
 62
     7
370
    25
100
AcDbLine
 10
135.0913372976
 20
142.9114767603
 30
0.0
 11
137.0913372976
 21
142.9114767603
 31
0.0
  0
LINE
  5
19D
330
1F
100
AcDbEntity
  8
0
  6
Continuous
 62
     8
370
    25
100
AcDbLine
 10
143.0913372976
 20
117.9114767603
 30
0.0
 11
143.0913372976
 21
145.9114767603
 31
0.0
  0
LINE
  5
19E
330
1F
100
AcDbEntity
  8
0
  6
Continuous
 62
     8
370
    25
100
AcDbLine
 10
142.1230914611
 20
145.1614767603
 30
0.0
 11
142.1230914611
 21
118.6614767603
 31
0.0
  0
LINE
  5
19F
330
1F
100
AcDbEntity
  8
0
  6
Continuous
 62
     8
370
    25
100
AcDbLine
 10
139.2183539514
 20
120.9114767603
 30
0.0
 11
139.2183539514
 21
142.9114767603
 31
0.0
  0
LINE
  5
1A0
330
1F
100
AcDbEntity
  8
0
  6
Continuous
 62
     8
370
    25
100
AcDbLine
 10
134.7580039643
 20
140.9791237661
 30
0.0
 11
134.7580039643
 21
142.4114767603
 31
0.0
  0
LINE
  5
1A1
330
1F
100
AcDbEntity
  8
0
  6
Continuous
 62
     8
370
    25
100
AcDbLine
 10
135.5913372976
 20
123.927117049
 30
0.0
 11
135.5913372976
 21
121.8679984994
 31
0.0
  0
LINE
  5
1A2
330
1F
100
AcDbEntity
  8
0
  6
Continuous
 62
     8
370
    25
100
AcDbLine
 10
135.5913372976
 20
141.9549550212
 30
0.0
 11
135.5913372976
 21
139.8958364716
 31
0.0
  0
LINE
  5
1A3
330
1F
100
AcDbEntity
  8
0
  6
Continuous
 62
     8
370
    25
100
AcDbLine
 10
114.8312077089
 20
142.4114767603
 30
0.0
 11
114.5913372976
 21
142.4114767603
 31
0.0
  0
LINE
  5
1A4
330
1F
100
AcDbEntity
  8
0
  6
Continuous
 62
     8
370
    25
100
AcDbLine
 10
114.5913372976
 20
142.4114767603
 30
0.0
 11
114.5913372976
 21
142.1949586609
 31
0.0
  0
LINE
  5
1A5
330
1F
100
AcDbEntity
  8
0
  6
Continuous
 62
     8
370
    25
100
AcDbLine
 10
134.0913372976
 20
142.4114767603
 30
0.0
 11
133.3514668864
 21
142.4114767603
 31
0.0
  0
LINE
  5
1A6
330
1F
100
AcDbEntity
  8
0
  6
Continuous
 62
     8
370
    25
100
AcDbLine
 10
114.5913372976
 20
121.6279948597
 30
0.0
 11
114.5913372976
 21
121.4114767603
 31
0.0
  0
LINE
  5
1A7
330
1F
100
AcDbEntity
  8
0
  6
Continuous
 62
     8
370
    25
100
AcDbLine
 10
133.3514668864
 20
121.4114767603
 30
0.0
 11
134.0913372976
 21
121.4114767603
 31
0.0
  0
LINE
  5
1A8
330
1F
100
AcDbEntity
  8
0
  6
Continuous
 62
     8
370
    25
100
AcDbLine
 10
114.5913372976
 20
121.4114767603
 30
0.0
 11
114.8312077089
 21
121.4114767603
 31
0.0
  0
INSERT
  5
1B4
330
1F
100
AcDbEntity
  8
0
  6
Continuous
 62
     7
370
    18
100
AcDbBlockReference
  2
SW_CENTERMARKSYMBOL_1
 10
124.0913372976
 20
131.9114767603
 30
0.0
  0
ARC
  5
1B5
330
1F
100
AcDbEntity
  8
0
  6
Continuous
 62
     7
370
    18
100
AcDbCircle
 10
124.0913372976
 20
131.9114767603
 30
0.0
 40
10.43067500000002
100
AcDbArc
 50
75.0
 51
345.0
  0
ENDSEC
  0
SECTION
  2
OBJECTS
  0
DICTIONARY
  5
C
330
0
100
AcDbDictionary
281
     1
  3
ACAD_GROUP
350
D
  3
ACAD_LAYOUT
350
1A
  3
ACAD_MLINESTYLE
350
17
  3
ACAD_PLOTSETTINGS
350
19
  3
ACAD_PLOTSTYLENAME
350
E
  3
ACAD_SCALELIST
350
47
  0
DICTIONARY
  5
D
102
{ACAD_REACTORS
330
C
102
}
330
C
100
AcDbDictionary
281
     1
  0
DICTIONARY
  5
1A
102
{ACAD_REACTORS
330
C
102
}
330
C
100
AcDbDictionary
281
     1
  3
Layout1
350
1E
  3
Layout2
350
26
  3
Model
350
22
  0
DICTIONARY
  5
17
102
{ACAD_REACTORS
330
C
102
}
330
C
100
AcDbDictionary
281
     1
  3
Standard
350
18
  0
DICTIONARY
  5
19
102
{ACAD_REACTORS
330
C
102
}
330
C
100
AcDbDictionary
281
     1
  0
ACDBDICTIONARYWDFLT
  5
E
102
{ACAD_REACTORS
330
C
102
}
330
C
100
AcDbDictionary
281
     1
  3
Normal
350
F
100
AcDbDictionaryWithDefault
340
F
  0
DICTIONARY
  5
47
102
{ACAD_REACTORS
330
C
102
}
330
C
100
AcDbDictionary
281
     1
  3
A0
350
48
  3
A1
350
49
  3
A2
350
4A
  3
A3
350
4B
  3
A4
350
4C
  3
A5
350
4D
  3
A6
350
4E
  3
A7
350
4F
  3
A8
350
50
  3
A9
350
51
  3
B0
350
52
  3
B1
350
53
  3
B2
350
54
  3
B3
350
55
  3
B4
350
56
  3
B5
350
57
  3
B6
350
58
  3
B7
350
59
  3
B8
350
5A
  3
B9
350
5B
  3
C0
350
5C
  3
C1
350
5D
  3
C2
350
5E
  3
C3
350
5F
  3
C4
350
60
  3
C5
350
61
  3
C6
350
62
  3
C7
350
63
  3
C8
350
64
  3
C9
350
65
  3
D0
350
66
  3
D1
350
67
  3
D2
350
68
  0
LAYOUT
  5
1E
102
{ACAD_REACTORS
330
1A
102
}
330
1A
100
AcDbPlotSettings
  1

  2
none_device
  4

  6

 40
0.0
 41
0.0
 42
0.0
 43
0.0
 44
0.0
 45
0.0
 46
0.0
 47
0.0
 48
0.0
 49
0.0
140
0.0
141
0.0
142
1.0
143
1.0
 70
   688
 72
     1
 73
     0
 74
     5
  7

 75
    16
147
1.0
148
0.0
149
0.0
100
AcDbLayout
  1
Layout1
 70
     1
 71
     1
 10
0.0
 20
0.0
 11
420.0
 21
297.0
 12
0.0
 22
0.0
 32
0.0
 14
1.0000000000E+20
 24
1.0000000000E+20
 34
1.0000000000E+20
 15
-1.0000000000E+20
 25
-1.0000000000E+20
 35
-1.0000000000E+20
146
0.0
 13
0.0
 23
0.0
 33
0.0
 16
1.0
 26
0.0
 36
0.0
 17
0.0
 27
1.0
 37
0.0
 76
     0
330
1B
  0
LAYOUT
  5
26
102
{ACAD_REACTORS
330
1A
102
}
330
1A
100
AcDbPlotSettings
  1

  2
none_device
  4

  6

 40
0.0
 41
0.0
 42
0.0
 43
0.0
 44
0.0
 45
0.0
 46
0.0
 47
0.0
 48
0.0
 49
0.0
140
0.0
141
0.0
142
1.0
143
1.0
 70
   688
 72
     1
 73
     0
 74
     5
  7

 75
    16
147
1.0
148
0.0
149
0.0
100
AcDbLayout
  1
Layout2
 70
     1
 71
     2
 10
0.0
 20
0.0
 11
0.0
 21
0.0
 12
0.0
 22
0.0
 32
0.0
 14
0.0
 24
0.0
 34
0.0
 15
0.0
 25
0.0
 35
0.0
146
0.0
 13
0.0
 23
0.0
 33
0.0
 16
1.0
 26
0.0
 36
0.0
 17
0.0
 27
1.0
 37
0.0
 76
     0
330
23
  0
LAYOUT
  5
22
102
{ACAD_REACTORS
330
1A
102
}
330
1A
100
AcDbPlotSettings
  1

  2
none_device
  4
Letter_(8.50_x_11.00_Inches)
  6

 40
6.35
 41
6.35
 42
6.35000508
 43
6.35000508
 44
215.9
 45
279.4
 46
0.0
 47
0.0
 48
0.0
 49
0.0
140
0.0
141
0.0
142
1.0
143
1.0
 70
  1712
 72
     1
 73
     0
 74
     0
  7

 75
     0
147
1.0
148
0.0
149
0.0
100
AcDbLayout
  1
Model
 70
     1
 71
     0
 10
0.0
 20
0.0
 11
431.8
 21
279.4
 12
0.0
 22
0.0
 32
0.0
 14
0.0
 24
0.0
 34
0.0
 15
431.8
 25
279.4
 35
0.0
146
0.0
 13
0.0
 23
0.0
 33
0.0
 16
1.0
 26
0.0
 36
0.0
 17
0.0
 27
1.0
 37
0.0
 76
     0
330
1F
331
29
  0
MLINESTYLE
  5
18
102
{ACAD_REACTORS
330
17
102
}
330
17
100
AcDbMlineStyle
  2
Standard
 70
     0
  3

 62
   256
 51
90.0
 52
90.0
 71
     2
 49
0.5
 62
   256
  6
BYLAYER
 49
-0.5
 62
   256
  6
BYLAYER
  0
ACDBPLACEHOLDER
  5
F
102
{ACAD_REACTORS
330
E
102
}
330
E
  0
SCALE
  5
48
102
{ACAD_REACTORS
330
47
102
}
330
47
100
AcDbScale
 70
     0
300
1:1
140
1.0
141
1.0
290
     1
  0
SCALE
  5
49
102
{ACAD_REACTORS
330
47
102
}
330
47
100
AcDbScale
 70
     0
300
1:2
140
1.0
141
2.0
290
     0
  0
SCALE
  5
4A
102
{ACAD_REACTORS
330
47
102
}
330
47
100
AcDbScale
 70
     0
300
1:4
140
1.0
141
4.0
290
     0
  0
SCALE
  5
4B
102
{ACAD_REACTORS
330
47
102
}
330
47
100
AcDbScale
 70
     0
300
1:5
140
1.0
141
5.0
290
     0
  0
SCALE
  5
4C
102
{ACAD_REACTORS
330
47
102
}
330
47
100
AcDbScale
 70
     0
300
1:8
140
1.0
141
8.0
290
     0
  0
SCALE
  5
4D
102
{ACAD_REACTORS
330
47
102
}
330
47
100
AcDbScale
 70
     0
300
1:10
140
1.0
141
10.0
290
     0
  0
SCALE
  5
4E
102
{ACAD_REACTORS
330
47
102
}
330
47
100
AcDbScale
 70
     0
300
1:16
140
1.0
141
16.0
290
     0
  0
SCALE
  5
4F
102
{ACAD_REACTORS
330
47
102
}
330
47
100
AcDbScale
 70
     0
300
1:20
140
1.0
141
20.0
290
     0
  0
SCALE
  5
50
102
{ACAD_REACTORS
330
47
102
}
330
47
100
AcDbScale
 70
     0
300
1:30
140
1.0
141
30.0
290
     0
  0
SCALE
  5
51
102
{ACAD_REACTORS
330
47
102
}
330
47
100
AcDbScale
 70
     0
300
1:40
140
1.0
141
40.0
290
     0
  0
SCALE
  5
52
102
{ACAD_REACTORS
330
47
102
}
330
47
100
AcDbScale
 70
     0
300
1:50
140
1.0
141
50.0
290
     0
  0
SCALE
  5
53
102
{ACAD_REACTORS
330
47
102
}
330
47
100
AcDbScale
 70
     0
300
1:100
140
1.0
141
100.0
290
     0
  0
SCALE
  5
54
102
{ACAD_REACTORS
330
47
102
}
330
47
100
AcDbScale
 70
     0
300
2:1
140
2.0
141
1.0
290
     0
  0
SCALE
  5
55
102
{ACAD_REACTORS
330
47
102
}
330
47
100
AcDbScale
 70
     0
300
4:1
140
4.0
141
1.0
290
     0
  0
SCALE
  5
56
102
{ACAD_REACTORS
330
47
102
}
330
47
100
AcDbScale
 70
     0
300
8:1
140
8.0
141
1.0
290
     0
  0
SCALE
  5
57
102
{ACAD_REACTORS
330
47
102
}
330
47
100
AcDbScale
 70
     0
300
10:1
140
10.0
141
1.0
290
     0
  0
SCALE
  5
58
102
{ACAD_REACTORS
330
47
102
}
330
47
100
AcDbScale
 70
     0
300
100:1
140
100.0
141
1.0
290
     0
  0
SCALE
  5
59
102
{ACAD_REACTORS
330
47
102
}
330
47
100
AcDbScale
 70
     0
300
1/128" = 1'-0"
140
0.0078125
141
12.0
290
     0
  0
SCALE
  5
5A
102
{ACAD_REACTORS
330
47
102
}
330
47
100
AcDbScale
 70
     0
300
1/64" = 1'-0"
140
0.015625
141
12.0
290
     0
  0
SCALE
  5
5B
102
{ACAD_REACTORS
330
47
102
}
330
47
100
AcDbScale
 70
     0
300
1/32" = 1'-0"
140
0.03125
141
12.0
290
     0
  0
SCALE
  5
5C
102
{ACAD_REACTORS
330
47
102
}
330
47
100
AcDbScale
 70
     0
300
1/16" = 1'-0"
140
0.0625
141
12.0
290
     0
  0
SCALE
  5
5D
102
{ACAD_REACTORS
330
47
102
}
330
47
100
AcDbScale
 70
     0
300
3/32" = 1'-0"
140
0.09375
141
12.0
290
     0
  0
SCALE
  5
5E
102
{ACAD_REACTORS
330
47
102
}
330
47
100
AcDbScale
 70
     0
300
1/8" = 1'-0"
140
0.125
141
12.0
290
     0
  0
SCALE
  5
5F
102
{ACAD_REACTORS
330
47
102
}
330
47
100
AcDbScale
 70
     0
300
3/16" = 1'-0"
140
0.1875
141
12.0
290
     0
  0
SCALE
  5
60
102
{ACAD_REACTORS
330
47
102
}
330
47
100
AcDbScale
 70
     0
300
1/4" = 1'-0"
140
0.25
141
12.0
290
     0
  0
SCALE
  5
61
102
{ACAD_REACTORS
330
47
102
}
330
47
100
AcDbScale
 70
     0
300
3/8" = 1'-0"
140
0.375
141
12.0
290
     0
  0
SCALE
  5
62
102
{ACAD_REACTORS
330
47
102
}
330
47
100
AcDbScale
 70
     0
300
1/2" = 1'-0"
140
0.5
141
12.0
290
     0
  0
SCALE
  5
63
102
{ACAD_REACTORS
330
47
102
}
330
47
100
AcDbScale
 70
     0
300
3/4" = 1'-0"
140
0.75
141
12.0
290
     0
  0
SCALE
  5
64
102
{ACAD_REACTORS
330
47
102
}
330
47
100
AcDbScale
 70
     0
300
1" = 1'-0"
140
1.0
141
12.0
290
     0
  0
SCALE
  5
65
102
{ACAD_REACTORS
330
47
102
}
330
47
100
AcDbScale
 70
     0
300
1-1/2" = 1'-0"
140
1.5
141
12.0
290
     0
  0
SCALE
  5
66
102
{ACAD_REACTORS
330
47
102
}
330
47
100
AcDbScale
 70
     0
300
3" = 1'-0"
140
3.0
141
12.0
290
     0
  0
SCALE
  5
67
102
{ACAD_REACTORS
330
47
102
}
330
47
100
AcDbScale
 70
     0
300
6" = 1'-0"
140
6.0
141
12.0
290
     0
  0
SCALE
  5
68
102
{ACAD_REACTORS
330
47
102
}
330
47
100
AcDbScale
 70
     0
300
1'-0" = 1'-0"
140
12.0
141
12.0
290
     0
  0
ENDSEC
  0
EOF
