  0
SECTION
  2
HEADER
  9
$ACADVER
  1
AC1015
  9
$ACADMAINTVER
 70
     6
  9
$DWGCODEPAGE
  3
DOS932
  9
$INSBASE
 10
0.0
 20
0.0
 30
0.0
  9
$EXTMIN
 10
0.0
 20
0.0
 30
0.0
  9
$EXTMAX
 10
431.8
 20
279.4
 30
0.0
  9
$LIMMIN
 10
0.0
 20
0.0
  9
$LIMMAX
 10
431.8
 20
279.4
  9
$ORTHOMODE
 70
     0
  9
$REGENMODE
 70
     1
  9
$FILLMODE
 70
     1
  9
$QTEXTMODE
 70
     0
  9
$MIRRTEXT
 70
     1
  9
$LTSCALE
 40
1.0
  9
$ATTMODE
 70
     1
  9
$TEXTSIZE
 40
3.5
  9
$TRACEWID
 40
1.0
  9
$TEXTSTYLE
  7
Standard
  9
$CLAYER
  8
0
  9
$CELTYPE
  6
ByLayer
  9
$CECOLOR
 62
   256
  9
$CELTSCALE
 40
1.0
  9
$DISPSILH
 70
     0
  9
$DIMSCALE
 40
1.0
  9
$DIMASZ
 40
3.302
  9
$DIMEXO
 40
1.0
  9
$DIMDLI
 40
3.75
  9
$DIMRND
 40
0.0
  9
$DIMDLE
 40
0.0
  9
$DIMEXE
 40
1.0
  9
$DIMTP
 40
0.0
  9
$DIMTM
 40
0.0
  9
$DIMTXT
 40
3.5
  9
$DIMCEN
 40
2.5
  9
$DIMTSZ
 40
0.0
  9
$DIMTOL
 70
     0
  9
$DIMLIM
 70
     0
  9
$DIMTIH
 70
     1
  9
$DIMTOH
 70
     1
  9
$DIMSE1
 70
     0
  9
$DIMSE2
 70
     0
  9
$DIMTAD
 70
     1
  9
$DIMZIN
 70
     1
  9
$DIMBLK
  1

  9
$DIMASO
 70
     1
  9
$DIMSHO
 70
     1
  9
$DIMPOST
  1

  9
$DIMAPOST
  1

  9
$DIMALT
 70
     0
  9
$DIMALTD
 70
     3
  9
$DIMALTF
 40
0.0393700787
  9
$DIMLFAC
 40
1.0
  9
$DIMTOFL
 70
     1
  9
$DIMTVP
 40
0.0
  9
$DIMTIX
 70
     0
  9
$DIMSOXD
 70
     0
  9
$DIMSAH
 70
     0
  9
$DIMBLK1
  1

  9
$DIMBLK2
  1

  9
$DIMSTYLE
  2
ISO-25
  9
$DIMCLRD
 70
     0
  9
$DIMCLRE
 70
     0
  9
$DIMCLRT
 70
     0
  9
$DIMTFAC
 40
1.0
  9
$DIMGAP
 40
1.524
  9
$DIMJUST
 70
     0
  9
$DIMSD1
 70
     0
  9
$DIMSD2
 70
     0
  9
$DIMTOLJ
 70
     0
  9
$DIMTZIN
 70
     1
  9
$DIMALTZ
 70
     0
  9
$DIMALTTZ
 70
     0
  9
$DIMUPT
 70
     0
  9
$DIMDEC
 70
     2
  9
$DIMTDEC
 70
     2
  9
$DIMALTU
 70
     2
  9
$DIMALTTD
 70
     3
  9
$DIMTXSTY
  7
Standard
  9
$DIMAUNIT
 70
     0
  9
$DIMADEC
 70
     2
  9
$DIMALTRND
 40
0.0
  9
$DIMAZIN
 70
     0
  9
$DIMDSEP
 70
    44
  9
$DIMATFIT
 70
     3
  9
$DIMFRAC
 70
     0
  9
$DIMLDRBLK
  1

  9
$DIMLUNIT
 70
     2
  9
$DIMLWD
 70
    -2
  9
$DIMLWE
 70
    -2
  9
$DIMTMOVE
 70
     0
  9
$LUNITS
 70
     2
  9
$LUPREC
 70
     2
  9
$SKETCHINC
 40
1.0
  9
$FILLETRAD
 40
10.0
  9
$AUNITS
 70
     0
  9
$AUPREC
 70
     2
  9
$MENU
  1
.
  9
$ELEVATION
 40
0.0
  9
$PELEVATION
 40
0.0
  9
$THICKNESS
 40
0.0
  9
$LIMCHECK
 70
     0
  9
$CHAMFERA
 40
0.0
  9
$CHAMFERB
 40
0.0
  9
$CHAMFERC
 40
0.0
  9
$CHAMFERD
 40
0.0
  9
$SKPOLY
 70
     0
  9
$TDCREATE
 40
2459247.393058449
  9
$TDUCREATE
 40
2459247.018058449
  9
$TDUPDATE
 40
2459247.393058993
  9
$TDUUPDATE
 40
2459247.018058993
  9
$TDINDWG
 40
0.0000000116
  9
$TDUSRTIMER
 40
0.0000000116
  9
$USRTIMER
 70
     1
  9
$ANGBASE
 50
0.0
  9
$ANGDIR
 70
     0
  9
$PDMODE
 70
     0
  9
$PDSIZE
 40
-1.0
  9
$PLINEWID
 40
0.0
  9
$SPLFRAME
 70
     0
  9
$SPLINETYPE
 70
     6
  9
$SPLINESEGS
 70
     8
  9
$HANDSEED
  5
1FC
  9
$SURFTAB1
 70
     6
  9
$SURFTAB2
 70
     6
  9
$SURFTYPE
 70
     6
  9
$SURFU
 70
     6
  9
$SURFV
 70
     6
  9
$UCSBASE
  2

  9
$UCSNAME
  2

  9
$UCSORG
 10
0.0
 20
0.0
 30
0.0
  9
$UCSXDIR
 10
1.0
 20
0.0
 30
0.0
  9
$UCSYDIR
 10
0.0
 20
1.0
 30
0.0
  9
$UCSORTHOREF
  2

  9
$UCSORTHOVIEW
 70
     0
  9
$UCSORGTOP
 10
0.0
 20
0.0
 30
0.0
  9
$UCSORGBOTTOM
 10
0.0
 20
0.0
 30
0.0
  9
$UCSORGLEFT
 10
0.0
 20
0.0
 30
0.0
  9
$UCSORGRIGHT
 10
0.0
 20
0.0
 30
0.0
  9
$UCSORGFRONT
 10
0.0
 20
0.0
 30
0.0
  9
$UCSORGBACK
 10
0.0
 20
0.0
 30
0.0
  9
$PUCSBASE
  2

  9
$PUCSNAME
  2

  9
$PUCSORG
 10
0.0
 20
0.0
 30
0.0
  9
$PUCSXDIR
 10
1.0
 20
0.0
 30
0.0
  9
$PUCSYDIR
 10
0.0
 20
1.0
 30
0.0
  9
$PUCSORTHOREF
  2

  9
$PUCSORTHOVIEW
 70
     0
  9
$PUCSORGTOP
 10
0.0
 20
0.0
 30
0.0
  9
$PUCSORGBOTTOM
 10
0.0
 20
0.0
 30
0.0
  9
$PUCSORGLEFT
 10
0.0
 20
0.0
 30
0.0
  9
$PUCSORGRIGHT
 10
0.0
 20
0.0
 30
0.0
  9
$PUCSORGFRONT
 10
0.0
 20
0.0
 30
0.0
  9
$PUCSORGBACK
 10
0.0
 20
0.0
 30
0.0
  9
$USERI1
 70
     0
  9
$USERI2
 70
     0
  9
$USERI3
 70
     0
  9
$USERI4
 70
     0
  9
$USERI5
 70
     0
  9
$USERR1
 40
0.0
  9
$USERR2
 40
0.0
  9
$USERR3
 40
0.0
  9
$USERR4
 40
0.0
  9
$USERR5
 40
0.0
  9
$WORLDVIEW
 70
     1
  9
$SHADEDGE
 70
     3
  9
$SHADEDIF
 70
    70
  9
$TILEMODE
 70
     1
  9
$MAXACTVP
 70
    64
  9
$PINSBASE
 10
0.0
 20
0.0
 30
0.0
  9
$PLIMCHECK
 70
     0
  9
$PEXTMIN
 10
1.0000000000E+20
 20
1.0000000000E+20
 30
1.0000000000E+20
  9
$PEXTMAX
 10
-1.0000000000E+20
 20
-1.0000000000E+20
 30
-1.0000000000E+20
  9
$PLIMMIN
 10
0.0
 20
0.0
  9
$PLIMMAX
 10
420.0
 20
297.0
  9
$UNITMODE
 70
     0
  9
$VISRETAIN
 70
     1
  9
$PLINEGEN
 70
     0
  9
$PSLTSCALE
 70
     1
  9
$TREEDEPTH
 70
  3020
  9
$CMLSTYLE
  2
Standard
  9
$CMLJUST
 70
     0
  9
$CMLSCALE
 40
20.0
  9
$PROXYGRAPHICS
 70
     1
  9
$MEASUREMENT
 70
     1
  9
$CELWEIGHT
370
    -1
  9
$ENDCAPS
280
     0
  9
$JOINSTYLE
280
     0
  9
$LWDISPLAY
290
     1
  9
$INSUNITS
 70
     4
  9
$HYPERLINKBASE
  1

  9
$STYLESHEET
  1

  9
$XEDIT
290
     1
  9
$CEPSNTYPE
380
     0
  9
$PSTYLEMODE
290
     1
  9
$FINGERPRINTGUID
  2
{F29CF74B-E97A-4727-9A18-1C9EC1C41DED}
  9
$VERSIONGUID
  2
{FAEB1C32-E019-11D5-929B-00C0DF256EC4}
  9
$EXTNAMES
290
     1
  9
$PSVPSCALE
 40
0.0
  9
$OLESTARTUP
290
     0
  0
ENDSEC
  0
SECTION
  2
CLASSES
  0
CLASS
  1
ACDBDICTIONARYWDFLT
  2
AcDbDictionaryWithDefault
  3
ObjectDBX Classes
 90
        0
280
     0
281
     0
  0
CLASS
  1
VISUALSTYLE
  2
AcDbVisualStyle
  3
ObjectDBX Classes
 90
     4095
280
     0
281
     0
  0
CLASS
  1
MATERIAL
  2
AcDbMaterial
  3
ObjectDBX Classes
 90
     1153
280
     0
281
     0
  0
CLASS
  1
SCALE
  2
AcDbScale
  3
ObjectDBX Classes
 90
     1153
280
     0
281
     0
  0
CLASS
  1
TABLESTYLE
  2
AcDbTableStyle
  3
ObjectDBX Classes
 90
     4095
280
     0
281
     0
  0
CLASS
  1
MLEADERSTYLE
  2
AcDbMLeaderStyle
  3
ACDB_MLEADERSTYLE_CLASS
 90
     4095
280
     0
281
     0
  0
CLASS
  1
SUN
  2
AcDbSun
  3
SCENEOE
 90
     1153
280
     0
281
     0
  0
CLASS
  1
ACDBPLACEHOLDER
  2
AcDbPlaceHolder
  3
ObjectDBX Classes
 90
        0
280
     0
281
     0
  0
CLASS
  1
LAYOUT
  2
AcDbLayout
  3
ObjectDBX Classes
 90
        0
280
     0
281
     0
  0
ENDSEC
  0
SECTION
  2
TABLES
  0
TABLE
  2
VPORT
  5
8
330
0
100
AcDbSymbolTable
 70
     1
  0
VPORT
  5
29
330
8
100
AcDbSymbolTableRecord
100
AcDbViewportTableRecord
  2
*Active
 70
     0
 10
0.0
 20
0.0
 11
1.0
 21
1.0
 12
215.9
 22
139.7
 13
0.0
 23
0.0
 14
10.0
 24
10.0
 15
10.0
 25
10.0
 16
0.0
 26
0.0
 36
1.0
 17
0.0
 27
0.0
 37
0.0
 40
279.4
 41
1.5454545455
 42
50.0
 43
0.0
 44
0.0
 50
0.0
 51
0.0
 71
     0
 72
  2000
 73
     1
 74
     3
 75
     0
 76
     0
 77
     0
 78
     0
281
     0
 65
     1
110
0.0
120
0.0
130
0.0
111
1.0
121
0.0
131
0.0
112
0.0
122
1.0
132
0.0
 79
     0
146
0.0
  0
ENDTAB
  0
TABLE
  2
LTYPE
  5
5
330
0
100
AcDbSymbolTable
 70
     6
  0
LTYPE
  5
14
330
5
100
AcDbSymbolTableRecord
100
AcDbLinetypeTableRecord
  2
ByBlock
 70
     0
  3

 72
    65
 73
     0
 40
0.0
  0
LTYPE
  5
15
330
5
100
AcDbSymbolTableRecord
100
AcDbLinetypeTableRecord
  2
ByLayer
 70
     0
  3

 72
    65
 73
     0
 40
0.0
  0
LTYPE
  5
16
330
5
100
AcDbSymbolTableRecord
100
AcDbLinetypeTableRecord
  2
Continuous
 70
     0
  3
Solid line
 72
    65
 73
     0
 40
0.0
  0
LTYPE
  5
6E
330
5
100
AcDbSymbolTableRecord
100
AcDbLinetypeTableRecord
  2
HIDDEN
 70
     0
  3
Hidden __ __ __ __ __ __ __ __ __ __ __ __ __ __
 72
    65
 73
     2
 40
1.905
 49
1.27
 74
     0
 49
-0.635
 74
     0
  0
LTYPE
  5
6F
330
5
100
AcDbSymbolTableRecord
100
AcDbLinetypeTableRecord
  2
PHANTOM
 70
     0
  3
Phantom ______  __  __  ______  __  __  ______
 72
    65
 73
     6
 40
12.7
 49
6.35
 74
     0
 49
-1.27
 74
     0
 49
1.27
 74
     0
 49
-1.27
 74
     0
 49
1.27
 74
     0
 49
-1.27
 74
     0
  0
LTYPE
  5
70
330
5
100
AcDbSymbolTableRecord
100
AcDbLinetypeTableRecord
  2
CENTER
 70
     0
  3
Center ____ _ ____ _ ____ _ ____ _ ____ _ ____
 72
    65
 73
     4
 40
10.16
 49
6.35
 74
     0
 49
-1.27
 74
     0
 49
1.27
 74
     0
 49
-1.27
 74
     0
  0
LTYPE
  5
71
330
5
100
AcDbSymbolTableRecord
100
AcDbLinetypeTableRecord
  2
CENTERX2
 70
     0
  3
Center (2x) ________  __  ________  __  _____
 72
    65
 73
     4
 40
20.32
 49
12.7
 74
     0
 49
-2.54
 74
     0
 49
2.54
 74
     0
 49
-2.54
 74
     0
  0
LTYPE
  5
72
330
5
100
AcDbSymbolTableRecord
100
AcDbLinetypeTableRecord
  2
DOT2
 70
     0
  3
Dot (.5x) ........................................
 72
    65
 73
     2
 40
0.635
 49
0.0
 74
     0
 49
-0.635
 74
     0
  0
ENDTAB
  0
TABLE
  2
LAYER
  5
2
330
0
100
AcDbSymbolTable
 70
     1
  0
LAYER
  5
10
330
2
100
AcDbSymbolTableRecord
100
AcDbLayerTableRecord
  2
0
 70
     0
 62
     7
  6
Continuous
370
    -3
390
F
  0
ENDTAB
  0
TABLE
  2
STYLE
  5
3
330
0
100
AcDbSymbolTable
 70
     2
  0
STYLE
  5
11
330
3
100
AcDbSymbolTableRecord
100
AcDbTextStyleTableRecord
  2
Standard
 70
     0
 40
0.0
 41
1.0
 50
0.0
 71
     0
 42
3.5
  3
txt
  4
bigfont
  0
STYLE
  5
73
330
3
100
AcDbSymbolTableRecord
100
AcDbTextStyleTableRecord
  2
SLDTEXTSTYLE0
 70
     0
 40
0.0
 41
0.7
 50
0.0
 71
     0
 42
3.5
  3
TXT
  4
bigfont
  0
ENDTAB
  0
TABLE
  2
VIEW
  5
6
330
0
100
AcDbSymbolTable
 70
     0
  0
ENDTAB
  0
TABLE
  2
UCS
  5
7
330
0
100
AcDbSymbolTable
 70
     0
  0
ENDTAB
  0
TABLE
  2
APPID
  5
9
330
0
100
AcDbSymbolTable
 70
     1
  0
APPID
  5
12
330
9
100
AcDbSymbolTableRecord
100
AcDbRegAppTableRecord
  2
ACAD
 70
     0
  0
ENDTAB
  0
TABLE
  2
DIMSTYLE
  5
A
330
0
100
AcDbSymbolTable
 70
     1
100
AcDbDimStyleTable
  0
DIMSTYLE
105
27
330
A
100
AcDbSymbolTableRecord
100
AcDbDimStyleTableRecord
  2
ISO-25
 70
     0
 41
2.5
 42
0.625
 43
3.75
 44
1.25
 73
     0
 74
     0
 77
     1
 78
     8
140
2.5
141
2.5
143
0.0393700787
147
0.625
171
     3
172
     1
178
     0
271
     2
272
     2
274
     3
278
    44
283
     0
284
     8
340
11
  0
ENDTAB
  0
TABLE
  2
BLOCK_RECORD
  5
1
330
0
100
AcDbSymbolTable
 70
     3
  0
BLOCK_RECORD
  5
1F
330
1
100
AcDbSymbolTableRecord
100
AcDbBlockTableRecord
  2
*Model_Space
340
22
  0
BLOCK_RECORD
  5
1B
330
1
100
AcDbSymbolTableRecord
100
AcDbBlockTableRecord
  2
*Paper_Space
340
1E
  0
BLOCK_RECORD
  5
23
330
1
100
AcDbSymbolTableRecord
100
AcDbBlockTableRecord
  2
*Paper_Space0
340
26
  0
BLOCK_RECORD
  5
18B
330
1
100
AcDbSymbolTableRecord
100
AcDbBlockTableRecord
  2
SW_CENTERMARKSYMBOL_0
340
0
102
{BLKREFS
331
196
102
}
  0
BLOCK_RECORD
  5
1EF
330
1
100
AcDbSymbolTableRecord
100
AcDbBlockTableRecord
  2
SW_CENTERMARKSYMBOL_1
340
0
102
{BLKREFS
331
1FA
102
}
  0
ENDTAB
  0
ENDSEC
  0
SECTION
  2
BLOCKS
  0
BLOCK
  5
20
330
1F
100
AcDbEntity
  8
0
100
AcDbBlockBegin
  2
*Model_Space
 70
     0
 10
0.0
 20
0.0
 30
0.0
  3
*Model_Space
  1

  0
ENDBLK
  5
21
330
1F
100
AcDbEntity
  8
0
100
AcDbBlockEnd
  0
BLOCK
  5
1C
330
1B
100
AcDbEntity
 67
     1
  8
0
100
AcDbBlockBegin
  2
*Paper_Space
 70
     0
 10
0.0
 20
0.0
 30
0.0
  3
*Paper_Space
  1

  0
ENDBLK
  5
1D
330
1B
100
AcDbEntity
 67
     1
  8
0
100
AcDbBlockEnd
  0
BLOCK
  5
24
330
23
100
AcDbEntity
  8
0
100
AcDbBlockBegin
  2
*Paper_Space0
 70
     0
 10
0.0
 20
0.0
 30
0.0
  3
*Paper_Space0
  1

  0
ENDBLK
  5
25
330
23
100
AcDbEntity
  8
0
100
AcDbBlockEnd
  0
BLOCK
  5
18C
330
18B
100
AcDbEntity
  8
0
100
AcDbBlockBegin
  2
SW_CENTERMARKSYMBOL_0
 70
     0
 10
0.0
 20
0.0
 30
0.0
  3
SW_CENTERMARKSYMBOL_0
  1

  0
LINE
  5
18E
330
18B
100
AcDbEntity
  8
0
  6
Continuous
 62
     0
370
    18
100
AcDbLine
 10
0.0
 20
0.0
 30
0.0
 11
0.0
 21
2.5
 31
0.0
  0
LINE
  5
18F
330
18B
100
AcDbEntity
  8
0
  6
Continuous
 62
     0
370
    18
100
AcDbLine
 10
0.0
 20
0.0
 30
0.0
 11
-2.5
 21
0.0
 31
0.0
  0
LINE
  5
190
330
18B
100
AcDbEntity
  8
0
  6
Continuous
 62
     0
370
    18
100
AcDbLine
 10
0.0
 20
0.0
 30
0.0
 11
0.0
 21
-2.5
 31
0.0
  0
LINE
  5
191
330
18B
100
AcDbEntity
  8
0
  6
Continuous
 62
     0
370
    18
100
AcDbLine
 10
0.0
 20
0.0
 30
0.0
 11
2.5
 21
0.0
 31
0.0
  0
LINE
  5
192
330
18B
100
AcDbEntity
  8
0
  6
Continuous
 62
     0
370
    18
100
AcDbLine
 10
0.0
 20
5.0
 30
0.0
 11
0.0
 21
26.3888281014
 31
0.0
  0
LINE
  5
193
330
18B
100
AcDbEntity
  8
0
  6
Continuous
 62
     0
370
    18
100
AcDbLine
 10
-5.0
 20
0.0
 30
0.0
 11
-11.5
 21
0.0
 31
0.0
  0
LINE
  5
194
330
18B
100
AcDbEntity
  8
0
  6
Continuous
 62
     0
370
    18
100
AcDbLine
 10
0.0
 20
-5.0
 30
0.0
 11
0.0
 21
-11.5
 31
0.0
  0
LINE
  5
195
330
18B
100
AcDbEntity
  8
0
  6
Continuous
 62
     0
370
    18
100
AcDbLine
 10
5.0
 20
0.0
 30
0.0
 11
11.5
 21
0.0
 31
0.0
  0
ENDBLK
  5
18D
330
18B
100
AcDbEntity
  8
0
100
AcDbBlockEnd
  0
BLOCK
  5
1F0
330
1EF
100
AcDbEntity
  8
0
100
AcDbBlockBegin
  2
SW_CENTERMARKSYMBOL_1
 70
     0
 10
0.0
 20
0.0
 30
0.0
  3
SW_CENTERMARKSYMBOL_1
  1

  0
LINE
  5
1F2
330
1EF
100
AcDbEntity
  8
0
  6
Continuous
 62
     0
370
    18
100
AcDbLine
 10
0.0
 20
0.0
 30
0.0
 11
0.0
 21
2.5
 31
0.0
  0
LINE
  5
1F3
330
1EF
100
AcDbEntity
  8
0
  6
Continuous
 62
     0
370
    18
100
AcDbLine
 10
0.0
 20
0.0
 30
0.0
 11
-2.5
 21
0.0
 31
0.0
  0
LINE
  5
1F4
330
1EF
100
AcDbEntity
  8
0
  6
Continuous
 62
     0
370
    18
100
AcDbLine
 10
0.0
 20
0.0
 30
0.0
 11
0.0
 21
-2.5
 31
0.0
  0
LINE
  5
1F5
330
1EF
100
AcDbEntity
  8
0
  6
Continuous
 62
     0
370
    18
100
AcDbLine
 10
0.0
 20
0.0
 30
0.0
 11
2.5
 21
0.0
 31
0.0
  0
LINE
  5
1F6
330
1EF
100
AcDbEntity
  8
0
  6
Continuous
 62
     0
370
    18
100
AcDbLine
 10
0.0
 20
5.0
 30
0.0
 11
0.0
 21
11.5
 31
0.0
  0
LINE
  5
1F7
330
1EF
100
AcDbEntity
  8
0
  6
Continuous
 62
     0
370
    18
100
AcDbLine
 10
-5.0
 20
0.0
 30
0.0
 11
-11.5
 21
0.0
 31
0.0
  0
LINE
  5
1F8
330
1EF
100
AcDbEntity
  8
0
  6
Continuous
 62
     0
370
    18
100
AcDbLine
 10
0.0
 20
-5.0
 30
0.0
 11
0.0
 21
-11.5
 31
0.0
  0
LINE
  5
1F9
330
1EF
100
AcDbEntity
  8
0
  6
Continuous
 62
     0
370
    18
100
AcDbLine
 10
5.0
 20
0.0
 30
0.0
 11
27.5907122911
 21
0.0
 31
0.0
  0
ENDBLK
  5
1F1
330
1EF
100
AcDbEntity
  8
0
100
AcDbBlockEnd
  0
ENDSEC
  0
SECTION
  2
ENTITIES
  0
MTEXT
  5
74
330
1F
100
AcDbEntity
  8
0
  6
Continuous
 62
     7
370
     0
100
AcDbMText
 10
140.5507563197
 20
107.9036667056
 30
0.0
 40
4.2333333333
 41
0.0
 71
     1
 72
     1
  1
5R-LF1022
  7
SLDTEXTSTYLE0
 73
     1
 44
1.0
  0
LINE
  5
75
330
1F
100
AcDbEntity
  8
0
  6
Continuous
 62
     7
370
    25
100
AcDbLine
 10
139.6772618314
 20
61.4936427477
 30
0.0
 11
140.1772628447
 21
61.9936418984
 31
0.0
  0
LINE
  5
76
330
1F
100
AcDbEntity
  8
0
  6
Continuous
 62
     7
370
    25
100
AcDbLine
 10
140.1772628447
 20
78.9936428222
 30
0.0
 11
139.6772618314
 21
79.4936419729
 31
0.0
  0
LINE
  5
77
330
1F
100
AcDbEntity
  8
0
  6
Continuous
 62
     7
370
    25
100
AcDbLine
 10
139.6772618314
 20
79.4936419729
 30
0.0
 11
128.1772627404
 21
79.4936419729
 31
0.0
  0
LINE
  5
78
330
1F
100
AcDbEntity
  8
0
  6
Continuous
 62
     7
370
    25
100
AcDbLine
 10
128.1772627404
 20
61.4936427477
 30
0.0
 11
139.6772618314
 21
61.4936427477
 31
0.0
  0
LINE
  5
79
330
1F
100
AcDbEntity
  8
0
  6
Continuous
 62
     7
370
    25
100
AcDbLine
 10
106.1772628596
 20
94.9936417195
 30
0.0
 11
106.1772628596
 21
83.4936426285
 31
0.0
  0
LINE
  5
7A
330
1F
100
AcDbEntity
  8
0
  6
Continuous
 62
     7
370
    25
100
AcDbLine
 10
124.1772620848
 20
83.4936426285
 30
0.0
 11
124.1772620848
 21
94.9936417195
 31
0.0
  0
LINE
  5
7B
330
1F
100
AcDbEntity
  8
0
  6
Continuous
 62
     7
370
    25
100
AcDbLine
 10
124.1772620848
 20
94.9936417195
 30
0.0
 11
123.6772629341
 21
95.4936427328
 31
0.0
  0
LINE
  5
7C
330
1F
100
AcDbEntity
  8
0
  6
Continuous
 62
     7
370
    25
100
AcDbLine
 10
106.6772620102
 20
95.4936427328
 30
0.0
 11
106.1772628596
 21
94.9936417195
 31
0.0
  0
ARC
  5
7D
330
1F
100
AcDbEntity
  8
0
  6
Continuous
 62
     7
370
    25
100
AcDbCircle
 10
128.1772624722
 20
78.4936423603
 30
0.0
 40
1.0
100
AcDbArc
 50
90.0
 51
180.0
  0
ARC
  5
7E
330
1F
100
AcDbEntity
  8
0
  6
Continuous
 62
     7
370
    25
100
AcDbCircle
 10
128.1772624722
 20
62.4936423603
 30
0.0
 40
1.0
100
AcDbArc
 50
180.0
 51
270.0
  0
ARC
  5
7F
330
1F
100
AcDbEntity
  8
0
  6
Continuous
 62
     7
370
    25
100
AcDbCircle
 10
107.1772624722
 20
83.4936423603
 30
0.0
 40
1.0
100
AcDbArc
 50
180.0
 51
270.0
  0
ARC
  5
80
330
1F
100
AcDbEntity
  8
0
  6
Continuous
 62
     7
370
    25
100
AcDbCircle
 10
123.1772624722
 20
83.4936423603
 30
0.0
 40
1.0
100
AcDbArc
 50
270.0
 51
0.0
  0
ARC
  5
81
330
1F
100
AcDbEntity
  8
0
  6
Continuous
 62
     7
370
    25
100
AcDbCircle
 10
126.1772624722
 20
78.4936423603
 30
0.0
 40
1.000000000000014
100
AcDbArc
 50
270.0
 51
0.0
  0
ARC
  5
82
330
1F
100
AcDbEntity
  8
0
  6
Continuous
 62
     7
370
    25
100
AcDbCircle
 10
126.1772624722
 20
62.4936423603
 30
0.0
 40
1.000000000000014
100
AcDbArc
 50
0.0
 51
90.0
  0
ARC
  5
83
330
1F
100
AcDbEntity
  8
0
  6
Continuous
 62
     7
370
    25
100
AcDbCircle
 10
107.1772624722
 20
81.4936423603
 30
0.0
 40
1.0
100
AcDbArc
 50
0.0
 51
90.0
  0
ARC
  5
84
330
1F
100
AcDbEntity
  8
0
  6
Continuous
 62
     7
370
    25
100
AcDbCircle
 10
123.1772624722
 20
81.4936423603
 30
0.0
 40
1.0
100
AcDbArc
 50
90.0
 51
180.0
  0
LINE
  5
85
330
1F
100
AcDbEntity
  8
0
  6
Continuous
 62
     7
370
    25
100
AcDbLine
 10
122.1772626883
 20
77.4936425764
 30
0.0
 11
122.1772626883
 21
81.4936423007
 31
0.0
  0
LINE
  5
86
330
1F
100
AcDbEntity
  8
0
  6
Continuous
 62
     7
370
    25
100
AcDbLine
 10
108.1772622561
 20
81.4936423007
 30
0.0
 11
108.1772622561
 21
65.4936424721
 31
0.0
  0
LINE
  5
87
330
1F
100
AcDbEntity
  8
0
  6
Continuous
 62
     7
370
    25
100
AcDbLine
 10
110.1772625839
 20
63.4936421442
 30
0.0
 11
126.1772624126
 21
63.4936421442
 31
0.0
  0
LINE
  5
88
330
1F
100
AcDbEntity
  8
0
  6
Continuous
 62
     7
370
    25
100
AcDbLine
 10
126.1772624126
 20
77.4936425764
 30
0.0
 11
122.1772626883
 21
77.4936425764
 31
0.0
  0
ARC
  5
89
330
1F
100
AcDbEntity
  8
0
  6
Continuous
 62
     7
370
    25
100
AcDbCircle
 10
110.1772624722
 20
65.4936423603
 30
0.0
 40
1.999999999999999
100
AcDbArc
 50
179.831736774
 51
270.2188286019
  0
LINE
  5
8A
330
1F
100
AcDbEntity
  8
0
  6
Continuous
 62
     7
370
    25
100
AcDbLine
 10
139.6772618314
 20
61.4936427477
 30
0.0
 11
139.6772618314
 21
79.4936419729
 31
0.0
  0
LINE
  5
8B
330
1F
100
AcDbEntity
  8
0
  6
Continuous
 62
     7
370
    25
100
AcDbLine
 10
140.1772628447
 20
78.9936428222
 30
0.0
 11
140.1772628447
 21
61.9936418984
 31
0.0
  0
LINE
  5
8C
330
1F
100
AcDbEntity
  8
0
  6
Continuous
 62
     7
370
    25
100
AcDbLine
 10
124.1772620848
 20
94.9936417195
 30
0.0
 11
106.1772628596
 21
94.9936417195
 31
0.0
  0
LINE
  5
8D
330
1F
100
AcDbEntity
  8
0
  6
Continuous
 62
     7
370
    25
100
AcDbLine
 10
106.6772620102
 20
95.4936427328
 30
0.0
 11
123.6772629341
 21
95.4936427328
 31
0.0
  0
LINE
  5
8E
330
1F
100
AcDbEntity
  8
0
  6
Continuous
 62
     7
370
    25
100
AcDbLine
 10
127.1772625765
 20
62.4936419803
 30
0.0
 11
127.1772625765
 21
78.4936427403
 31
0.0
  0
LINE
  5
8F
330
1F
100
AcDbEntity
  8
0
  6
Continuous
 62
     7
370
    25
100
AcDbLine
 10
107.1772620922
 20
82.4936424646
 30
0.0
 11
123.1772628522
 21
82.4936424646
 31
0.0
  0
LINE
  5
90
330
1F
100
AcDbEntity
  8
0
  6
Continuous
 62
     7
370
    25
100
AcDbLine
 10
109.427262461
 20
77.9936421927
 30
0.0
 11
112.5315112436
 21
77.9936421927
 31
0.0
  0
SPLINE
  5
91
330
1F
100
AcDbEntity
  8
0
  6
Continuous
 62
     7
370
    25
100
AcDbSpline
210
0.0
220
0.0
230
1.0
 70
     8
 71
     3
 72
    12
 73
     8
 74
     0
 42
0.000000001
 43
0.00000001
 40
0.0
 40
0.0
 40
0.0
 40
0.0
 40
0.25
 40
0.25
 40
0.5
 40
0.5
 40
1.0
 40
1.0
 40
1.0
 40
1.0
 10
112.5448771091868
 20
77.92041905558821
 30
0.0
 10
112.5465712540127
 20
77.9346963573429
 30
0.0
 10
112.5484974635688
 20
77.94641146476431
 30
0.0
 10
112.5514129248593
 20
77.96549482255448
 30
0.0
 10
112.5524021765937
 20
77.97286307292326
 30
0.0
 10
112.5518628641411
 20
77.98961383587155
 30
0.0
 10
112.5468272322983
 20
77.99364236029308
 30
0.0
 10
112.5315111611192
 20
77.99364236029308
 30
0.0
  0
SPLINE
  5
92
330
1F
100
AcDbEntity
  8
0
  6
Continuous
 62
     7
370
    25
100
AcDbSpline
210
0.0
220
0.0
230
1.0
 70
     8
 71
     3
 72
    10
 73
     6
 74
     0
 42
0.000000001
 43
0.00000001
 40
0.0
 40
0.0
 40
0.0
 40
0.0
 40
0.5
 40
0.5
 40
1.0
 40
1.0
 40
1.0
 40
1.0
 10
112.5448771091868
 20
77.92041905558821
 30
0.0
 10
112.541488819535
 20
77.8918644520788
 30
0.0
 10
112.5381473325181
 20
77.85884291700197
 30
0.0
 10
112.5331585033102
 20
77.79590450985602
 30
0.0
 10
112.5315111611192
 20
77.76598763778695
 30
0.0
 10
112.5315111611192
 20
77.74364236029308
 30
0.0
  0
LINE
  5
93
330
1F
100
AcDbEntity
  8
0
  6
Continuous
 62
     7
370
    25
100
AcDbLine
 10
112.5315112436
 20
77.7436421517
 30
0.0
 11
109.427262461
 21
77.7436421517
 31
0.0
  0
LINE
  5
94
330
1F
100
AcDbEntity
  8
0
  6
Continuous
 62
     7
370
    25
100
AcDbLine
 10
109.427262461
 20
77.9936421927
 30
0.0
 11
109.427262461
 21
77.7436421517
 31
0.0
  0
LINE
  5
95
330
1F
100
AcDbEntity
  8
0
  6
Continuous
 62
     7
370
    25
100
AcDbLine
 10
120.9272624834
 20
77.7436421517
 30
0.0
 11
117.8230137007
 21
77.7436421517
 31
0.0
  0
LINE
  5
96
330
1F
100
AcDbEntity
  8
0
  6
Continuous
 62
     7
370
    25
100
AcDbLine
 10
120.9272624834
 20
77.4936425764
 30
0.0
 11
120.9272624834
 21
77.7436421517
 31
0.0
  0
ARC
  5
97
330
1F
100
AcDbEntity
  8
0
  6
Continuous
 62
     7
370
    25
100
AcDbCircle
 10
122.1772624722
 20
77.4936423603
 30
0.0
 40
1.25
100
AcDbArc
 50
180.0
 51
270.0
  0
LINE
  5
98
330
1F
100
AcDbEntity
  8
0
  6
Continuous
 62
     7
370
    25
100
AcDbLine
 10
122.4272622636
 20
76.2436423715
 30
0.0
 11
122.1772626883
 21
76.2436423715
 31
0.0
  0
LINE
  5
99
330
1F
100
AcDbEntity
  8
0
  6
Continuous
 62
     7
370
    25
100
AcDbLine
 10
122.4272622636
 20
73.1393935888
 30
0.0
 11
122.4272622636
 21
76.2436423715
 31
0.0
  0
LINE
  5
9A
330
1F
100
AcDbEntity
  8
0
  6
Continuous
 62
     7
370
    25
100
AcDbLine
 10
122.4272622636
 20
73.1393935888
 30
0.0
 11
122.4272622636
 21
70.4936423603
 31
0.0
  0
LINE
  5
9B
330
1F
100
AcDbEntity
  8
0
  6
Continuous
 62
     7
370
    25
100
AcDbLine
 10
122.4272622636
 20
70.4936423603
 30
0.0
 11
122.4272622636
 21
67.8478911317
 31
0.0
  0
LINE
  5
9C
330
1F
100
AcDbEntity
  8
0
  6
Continuous
 62
     7
370
    25
100
AcDbLine
 10
122.4272622636
 20
64.7436423491
 30
0.0
 11
122.4272622636
 21
67.8478911317
 31
0.0
  0
LINE
  5
9D
330
1F
100
AcDbEntity
  8
0
  6
Continuous
 62
     7
370
    25
100
AcDbLine
 10
111.1772622822
 20
64.7436423491
 30
0.0
 11
122.4272622636
 21
64.7436423491
 31
0.0
  0
ARC
  5
9E
330
1F
100
AcDbEntity
  8
0
  6
Continuous
 62
     7
370
    25
100
AcDbCircle
 10
111.1772624722
 20
66.4936423603
 30
0.0
 40
1.75
100
AcDbArc
 50
180.0
 51
270.0
  0
LINE
  5
9F
330
1F
100
AcDbEntity
  8
0
  6
Continuous
 62
     7
370
    25
100
AcDbLine
 10
109.427262461
 20
77.7436421517
 30
0.0
 11
109.427262461
 21
66.4936421703
 31
0.0
  0
LINE
  5
A0
330
1F
100
AcDbEntity
  8
0
  6
Continuous
 62
     7
370
    25
100
AcDbLine
 10
112.5315112436
 20
77.7436421517
 30
0.0
 11
115.1772624722
 21
77.7436421517
 31
0.0
  0
LINE
  5
A1
330
1F
100
AcDbEntity
  8
0
  6
Continuous
 62
     7
370
    25
100
AcDbLine
 10
115.1772624722
 20
77.7436421517
 30
0.0
 11
117.8230137007
 21
77.7436421517
 31
0.0
  0
LINE
  5
A2
330
1F
100
AcDbEntity
  8
0
  6
Continuous
 62
     7
370
    25
100
AcDbLine
 10
120.0291643759
 20
70.3126878683
 30
0.0
 11
121.0044397881
 21
67.5858604986
 31
0.0
  0
SPLINE
  5
A3
330
1F
100
AcDbEntity
  8
0
  6
Continuous
 62
     7
370
    25
100
AcDbSpline
210
0.0
220
0.0
230
1.0
 70
     8
 71
     3
 72
    14
 73
    10
 74
     0
 42
0.000000001
 43
0.00000001
 40
0.0
 40
0.0
 40
0.0
 40
0.0
 40
0.25
 40
0.25
 40
0.5
 40
0.5
 40
0.75
 40
0.75
 40
1.0
 40
1.0
 40
1.0
 40
1.0
 10
118.65551670183
 20
70.31268786493584
 30
0.0
 10
118.7159131250288
 20
70.44332524524069
 30
0.0
 10
118.8154426866863
 20
70.5533896104062
 30
0.0
 10
119.0565283774326
 20
70.70316689387938
 30
0.0
 10
119.197845410726
 20
70.7435128310138
 30
0.0
 10
119.4854386248387
 20
70.74377126194337
 30
0.0
 10
119.6268962807276
 20
70.70395022484561
 30
0.0
 10
119.8705162178259
 20
70.55259281069054
 30
0.0
 10
119.968773216793
 20
70.44331356479087
 30
0.0
 10
120.0291642398727
 20
70.31268786493638
 30
0.0
  0
LINE
  5
A4
330
1F
100
AcDbEntity
  8
0
  6
Continuous
 62
     7
370
    25
100
AcDbLine
 10
117.6804675629
 20
67.5864930994
 30
0.0
 11
118.6555166638
 21
70.3126878683
 31
0.0
  0
SPLINE
  5
A5
330
1F
100
AcDbEntity
  8
0
  6
Continuous
 62
     7
370
    25
100
AcDbSpline
210
0.0
220
0.0
230
1.0
 70
     8
 71
     3
 72
    10
 73
     6
 74
     0
 42
0.000000001
 43
0.00000001
 40
0.0
 40
0.0
 40
0.0
 40
0.0
 40
0.5
 40
0.5
 40
1.0
 40
1.0
 40
1.0
 40
1.0
 10
117.279863526367
 20
67.45045949200814
 30
0.0
 10
117.350315424624
 20
67.41168902987799
 30
0.0
 10
117.4356474197188
 20
67.40436668982441
 30
0.0
 10
117.5876333328804
 20
67.4533320048668
 30
0.0
 10
117.6533378981455
 20
67.51064008639149
 30
0.0
 10
117.6804674846945
 20
67.58649321503869
 30
0.0
  0
LINE
  5
A6
330
1F
100
AcDbEntity
  8
0
  6
Continuous
 62
     7
370
    25
100
AcDbLine
 10
116.5122540111
 20
67.8728836387
 30
0.0
 11
117.2798635813
 21
67.4504594676
 31
0.0
  0
LINE
  5
A7
330
1F
100
AcDbEntity
  8
0
  6
Continuous
 62
     7
370
    25
100
AcDbLine
 10
117.5120413678
 20
65.9669555056
 30
0.0
 11
116.5122540111
 21
67.8728836387
 31
0.0
  0
SPLINE
  5
A8
330
1F
100
AcDbEntity
  8
0
  6
Continuous
 62
     7
370
    25
100
AcDbSpline
210
0.0
220
0.0
230
1.0
 70
     8
 71
     3
 72
    10
 73
     6
 74
     0
 42
0.000000001
 43
0.00000001
 40
0.0
 40
0.0
 40
0.0
 40
0.0
 40
0.5
 40
0.5
 40
1.0
 40
1.0
 40
1.0
 40
1.0
 10
118.0024132165694
 20
65.87838127278786
 30
0.0
 10
117.9303022222474
 20
65.81437550298388
 30
0.0
 10
117.8291980954076
 20
65.78679016473029
 30
0.0
 10
117.6416402373676
 20
65.82059092469406
 30
0.0
 10
117.5568370117752
 20
65.88155988286445
 30
0.0
 10
117.5120413729916
 20
65.96695531399052
 30
0.0
  0
SPLINE
  5
A9
330
1F
100
AcDbEntity
  8
0
  6
Continuous
 62
     7
370
    25
100
AcDbSpline
210
0.0
220
0.0
230
1.0
 70
     8
 71
     3
 72
    14
 73
    10
 74
     0
 42
0.000000001
 43
0.00000001
 40
0.0
 40
0.0
 40
0.0
 40
0.0
 40
0.4999999999999987
 40
0.4999999999999987
 40
0.6249999999999988
 40
0.6249999999999988
 40
0.7499999999999993
 40
0.7499999999999993
 40
1.0
 40
1.0
 40
1.0
 40
1.0
 10
120.6822677251334
 20
65.87838127278778
 30
0.0
 10
120.3142472365635
 20
66.20503651996596
 30
0.0
 10
119.8301994528422
 20
66.38015936335805
 30
0.0
 10
119.2204736667706
 20
66.38018246184721
 30
0.0
 10
119.0973668081299
 20
66.36921557945728
 30
0.0
 10
118.858298715673
 20
66.3263350955271
 30
0.0
 10
118.7411117835609
 20
66.29448923880064
 30
0.0
 10
118.3968747212383
 20
66.16648287887183
 30
0.0
 10
118.1864439346712
 20
66.04172706895132
 30
0.0
 10
118.0024132165694
 20
65.87838127278786
 30
0.0
  0
SPLINE
  5
AA
330
1F
100
AcDbEntity
  8
0
  6
Continuous
 62
     7
370
    25
100
AcDbSpline
210
0.0
220
0.0
230
1.0
 70
     8
 71
     3
 72
    10
 73
     6
 74
     0
 42
0.000000001
 43
0.00000001
 40
0.0
 40
0.0
 40
0.0
 40
0.0
 40
0.5
 40
0.5
 40
1.0
 40
1.0
 40
1.0
 40
1.0
 10
121.1726395687113
 20
65.96695531399085
 30
0.0
 10
121.127840579324
 20
65.88155349549612
 30
0.0
 10
121.0425567336665
 20
65.8203650457204
 30
0.0
 10
120.8550668740657
 20
65.7868545276473
 30
0.0
 10
120.7543878087464
 20
65.81436743532265
 30
0.0
 10
120.6822677251334
 20
65.87838127278776
 30
0.0
  0
LINE
  5
AB
330
1F
100
AcDbEntity
  8
0
  6
Continuous
 62
     7
370
    25
100
AcDbLine
 10
122.1839863716
 20
67.894919895
 30
0.0
 11
121.1726394391
 21
65.9669555056
 31
0.0
  0
LINE
  5
AC
330
1F
100
AcDbEntity
  8
0
  6
Continuous
 62
     7
370
    25
100
AcDbLine
 10
121.4089648707
 20
67.4520259521
 30
0.0
 11
122.1839863716
 21
67.894919895
 31
0.0
  0
SPLINE
  5
AD
330
1F
100
AcDbEntity
  8
0
  6
Continuous
 62
     7
370
    25
100
AcDbSpline
210
0.0
220
0.0
230
1.0
 70
     8
 71
     3
 72
    10
 73
     6
 74
     0
 42
0.000000001
 43
0.00000001
 40
0.0
 40
0.0
 40
0.0
 40
0.0
 40
0.5
 40
0.5
 40
1.0
 40
1.0
 40
1.0
 40
1.0
 10
121.0044397587411
 20
67.58586048536282
 30
0.0
 10
121.0318819339312
 20
67.50913337264855
 30
0.0
 10
121.0989645646036
 20
67.45152618728349
 30
0.0
 10
121.2517724190637
 20
67.40357043840004
 30
0.0
 10
121.3383649042286
 20
67.4116807866468
 30
0.0
 10
121.4089649630793
 20
67.45202591964363
 30
0.0
  0
SPLINE
  5
AE
330
1F
100
AcDbEntity
  8
0
  6
Continuous
 62
     7
370
    25
100
AcDbSpline
210
0.0
220
0.0
230
1.0
 70
     8
 71
     3
 72
     8
 73
     4
 74
     0
 42
0.000000001
 43
0.00000001
 40
0.0
 40
0.0
 40
0.0
 40
0.0
 40
1.0
 40
1.0
 40
1.0
 40
1.0
 10
109.1617614986658
 20
66.19685595063733
 30
0.0
 10
109.1492456409812
 20
66.29427136974867
 30
0.0
 10
109.1427797135631
 20
66.39315210727595
 30
0.0
 10
109.1427797135631
 20
66.49364236029307
 30
0.0
  0
LINE
  5
AF
330
1F
100
AcDbEntity
  8
0
  6
Continuous
 62
     7
370
    25
100
AcDbLine
 10
121.5455489142
 20
76.8619288023
 30
0.0
 11
122.1772626883
 21
77.4936425764
 31
0.0
  0
SPLINE
  5
B0
330
1F
100
AcDbEntity
  8
0
  6
Continuous
 62
     7
370
    25
100
AcDbSpline
210
0.0
220
0.0
230
1.0
 70
     8
 71
     3
 72
    12
 73
     8
 74
     0
 42
0.000000001
 43
0.00000001
 40
0.0
 40
0.0
 40
0.0
 40
0.0
 40
0.2500000000000002
 40
0.2500000000000002
 40
0.5000000000000004
 40
0.5000000000000004
 40
1.0
 40
1.0
 40
1.0
 40
1.0
 10
121.2117452308045
 20
77.49364236029308
 30
0.0
 10
121.2117452308045
 20
77.40683658317644
 30
0.0
 10
121.2268440837427
 20
77.32335138463957
 30
0.0
 10
121.2742959419292
 20
77.17937119590131
 30
0.0
 10
121.3052009538454
 20
77.12013506297806
 30
0.0
 10
121.4045347055946
 20
76.96982149482106
 30
0.0
 10
121.4768669773301
 20
76.90745272189231
 30
0.0
 10
121.5455489608811
 20
76.86192884899036
 30
0.0
  0
LINE
  5
B1
330
1F
100
AcDbEntity
  8
0
  6
Continuous
 62
     7
370
    25
100
AcDbLine
 10
121.2117452083
 20
77.7436421517
 30
0.0
 11
121.2117452083
 21
77.4936425764
 31
0.0
  0
SPLINE
  5
B2
330
1F
100
AcDbEntity
  8
0
  6
Continuous
 62
     7
370
    25
100
AcDbSpline
210
0.0
220
0.0
230
1.0
 70
     8
 71
     3
 72
    14
 73
    10
 74
     0
 42
0.000000001
 43
0.00000001
 40
0.0
 40
0.0
 40
0.0
 40
0.0
 40
0.25
 40
0.25
 40
0.5
 40
0.5
 40
0.75
 40
0.75
 40
1.0
 40
1.0
 40
1.0
 40
1.0
 10
121.2117452308045
 20
77.74364236029308
 30
0.0
 10
121.2117452308045
 20
77.835444754906
 30
0.0
 10
121.1862350368653
 20
77.91960869382143
 30
0.0
 10
121.1192686690759
 20
78.0467043743928
 30
0.0
 10
121.0774540364744
 20
78.09482684364396
 30
0.0
 10
120.9874935187929
 20
78.17014462342271
 30
0.0
 10
120.9384865266932
 20
78.19752083651605
 30
0.0
 10
120.8371726761539
 20
78.23408268713817
 30
0.0
 10
120.7843040595033
 20
78.24364236029308
 30
0.0
 10
120.7289866101148
 20
78.24364236029308
 30
0.0
  0
LINE
  5
B3
330
1F
100
AcDbEntity
  8
0
  6
Continuous
 62
     7
370
    25
100
AcDbLine
 10
117.7317808757
 20
78.2436422336
 30
0.0
 11
120.7289867012
 21
78.2436422336
 31
0.0
  0
SPLINE
  5
B4
330
1F
100
AcDbEntity
  8
0
  6
Continuous
 62
     7
370
    25
100
AcDbSpline
210
0.0
220
0.0
230
1.0
 70
    24
 71
     3
 72
    14
 73
    10
 74
     0
 42
0.000000001
 43
0.00000001
 40
0.0
 40
0.0
 40
0.0
 40
0.0
 40
0.25
 40
0.25
 40
0.5
 40
0.5
 40
0.75
 40
0.75
 40
1.0
 40
1.0
 40
1.0
 40
1.0
 10
115.1772624721838
 20
78.24364236029308
 30
0.0
 10
115.3925587027064
 20
78.24364236029308
 30
0.0
 10
115.6078560638496
 20
78.24364236029308
 30
0.0
 10
116.0375898284456
 20
78.24364236029308
 30
0.0
 10
116.2520284978421
 20
78.24364236029308
 30
0.0
 10
116.6791183015522
 20
78.24364236029308
 30
0.0
 10
116.8917717129868
 20
78.24364236029308
 30
0.0
 10
117.3142284154992
 20
78.24364236029308
 30
0.0
 10
117.5240339923844
 20
78.24364236029308
 30
0.0
 10
117.7317809794186
 20
78.24364236029308
 30
0.0
  0
SPLINE
  5
B5
330
1F
100
AcDbEntity
  8
0
  6
Continuous
 62
     7
370
    25
100
AcDbSpline
210
0.0
220
0.0
230
1.0
 70
    24
 71
     3
 72
    14
 73
    10
 74
     0
 42
0.000000001
 43
0.00000001
 40
0.0
 40
0.0
 40
0.0
 40
0.0
 40
0.25
 40
0.25
 40
0.5
 40
0.5
 40
0.75
 40
0.75
 40
1.0
 40
1.0
 40
1.0
 40
1.0
 10
115.1772624721838
 20
78.24364236029308
 30
0.0
 10
114.9619662416612
 20
78.24364236029308
 30
0.0
 10
114.746668880518
 20
78.24364236029308
 30
0.0
 10
114.316935115922
 20
78.24364236029308
 30
0.0
 10
114.1024964465255
 20
78.24364236029308
 30
0.0
 10
113.6754066428154
 20
78.24364236029308
 30
0.0
 10
113.4627532313808
 20
78.24364236029308
 30
0.0
 10
113.0402965288684
 20
78.24364236029308
 30
0.0
 10
112.8304909519832
 20
78.24364236029308
 30
0.0
 10
112.622743964949
 20
78.24364236029308
 30
0.0
  0
LINE
  5
B6
330
1F
100
AcDbEntity
  8
0
  6
Continuous
 62
     7
370
    25
100
AcDbLine
 10
109.6255382432
 20
78.2436422336
 30
0.0
 11
112.6227440687
 21
78.2436422336
 31
0.0
  0
SPLINE
  5
B7
330
1F
100
AcDbEntity
  8
0
  6
Continuous
 62
     7
370
    25
100
AcDbSpline
210
0.0
220
0.0
230
1.0
 70
     8
 71
     3
 72
    14
 73
    10
 74
     0
 42
0.000000001
 43
0.00000001
 40
0.0
 40
0.0
 40
0.0
 40
0.0
 40
0.25
 40
0.25
 40
0.5
 40
0.5
 40
0.75
 40
0.75
 40
1.0
 40
1.0
 40
1.0
 40
1.0
 10
109.6255383342528
 20
78.24364236029308
 30
0.0
 10
109.5702595576272
 20
78.24364236029308
 30
0.0
 10
109.5172808794609
 20
78.23409379605694
 30
0.0
 10
109.4155394117348
 20
78.19730367793213
 30
0.0
 10
109.3664951380123
 20
78.16975263064394
 30
0.0
 10
109.2770470930441
 20
78.09474954307379
 30
0.0
 10
109.2351725247195
 20
78.0465691628818
 30
0.0
 10
109.1683008965159
 20
77.91960578510498
 30
0.0
 10
109.1427797135631
 20
77.83558330501619
 30
0.0
 10
109.1427797135631
 20
77.74364236029308
 30
0.0
  0
LINE
  5
B8
330
1F
100
AcDbEntity
  8
0
  6
Continuous
 62
     7
370
    25
100
AcDbLine
 10
109.142779736
 20
66.4936421703
 30
0.0
 11
109.142779736
 21
77.7436421517
 31
0.0
  0
LINE
  5
B9
330
1F
100
AcDbEntity
  8
0
  6
Continuous
 62
     7
370
    25
100
AcDbLine
 10
122.6772623045
 20
76.2436423715
 30
0.0
 11
122.6772623045
 21
73.1393935888
 31
0.0
  0
SPLINE
  5
BA
330
1F
100
AcDbEntity
  8
0
  6
Continuous
 62
     7
370
    25
100
AcDbSpline
210
0.0
220
0.0
230
1.0
 70
     8
 71
     3
 72
    12
 73
     8
 74
     0
 42
0.000000001
 43
0.00000001
 40
0.0
 40
0.0
 40
0.0
 40
0.0
 40
0.25
 40
0.25
 40
0.5
 40
0.5
 40
1.0
 40
1.0
 40
1.0
 40
1.0
 10
122.6040391674789
 20
73.12602772329005
 30
0.0
 10
122.6183164692336
 20
73.12433357846415
 30
0.0
 10
122.630031576655
 20
73.12240736890804
 30
0.0
 10
122.6491149344452
 20
73.11949190761754
 30
0.0
 10
122.656483184814
 20
73.11850265588316
 30
0.0
 10
122.6732339477623
 20
73.11904196833576
 30
0.0
 10
122.6772624721838
 20
73.12407760017857
 30
0.0
 10
122.6772624721838
 20
73.13939367135767
 30
0.0
  0
SPLINE
  5
BB
330
1F
100
AcDbEntity
  8
0
  6
Continuous
 62
     7
370
    25
100
AcDbSpline
210
0.0
220
0.0
230
1.0
 70
     8
 71
     3
 72
    10
 73
     6
 74
     0
 42
0.000000001
 43
0.00000001
 40
0.0
 40
0.0
 40
0.0
 40
0.0
 40
0.5
 40
0.5
 40
1.0
 40
1.0
 40
1.0
 40
1.0
 10
122.6040391674789
 20
73.12602772329005
 30
0.0
 10
122.5754845639695
 20
73.12941601294183
 30
0.0
 10
122.5424630288927
 20
73.13275749995873
 30
0.0
 10
122.4795246217467
 20
73.13774632916666
 30
0.0
 10
122.4496077496777
 20
73.13939367135767
 30
0.0
 10
122.4272624721838
 20
73.13939367135767
 30
0.0
  0
LINE
  5
BC
330
1F
100
AcDbEntity
  8
0
  6
Continuous
 62
     7
370
    25
100
AcDbLine
 10
122.4272622636
 20
76.2436423715
 30
0.0
 11
122.6772623045
 21
76.2436423715
 31
0.0
  0
SPLINE
  5
BD
330
1F
100
AcDbEntity
  8
0
  6
Continuous
 62
     7
370
    25
100
AcDbSpline
210
0.0
220
0.0
230
1.0
 70
     8
 71
     3
 72
    12
 73
     8
 74
     0
 42
0.000000001
 43
0.00000001
 40
0.0
 40
0.0
 40
0.0
 40
0.0
 40
0.25
 40
0.25
 40
0.5
 40
0.5
 40
1.0
 40
1.0
 40
1.0
 40
1.0
 10
117.8096478351808
 20
77.92041905558821
 30
0.0
 10
117.8079536903549
 20
77.9346963573429
 30
0.0
 10
117.8060274807988
 20
77.94641146476431
 30
0.0
 10
117.8031120195083
 20
77.96549482255448
 30
0.0
 10
117.8021227677739
 20
77.97286307292326
 30
0.0
 10
117.8026620802265
 20
77.98961383587155
 30
0.0
 10
117.8076977120693
 20
77.99364236029308
 30
0.0
 10
117.8230137832484
 20
77.99364236029308
 30
0.0
  0
LINE
  5
BE
330
1F
100
AcDbEntity
  8
0
  6
Continuous
 62
     7
370
    25
100
AcDbLine
 10
117.8230137007
 20
77.9936421927
 30
0.0
 11
120.9272624834
 21
77.9936421927
 31
0.0
  0
LINE
  5
BF
330
1F
100
AcDbEntity
  8
0
  6
Continuous
 62
     7
370
    25
100
AcDbLine
 10
120.9272624834
 20
77.9936421927
 30
0.0
 11
120.9272624834
 21
77.7436421517
 31
0.0
  0
SPLINE
  5
C0
330
1F
100
AcDbEntity
  8
0
  6
Continuous
 62
     7
370
    25
100
AcDbSpline
210
0.0
220
0.0
230
1.0
 70
     8
 71
     3
 72
    10
 73
     6
 74
     0
 42
0.000000001
 43
0.00000001
 40
0.0
 40
0.0
 40
0.0
 40
0.0
 40
0.5
 40
0.5
 40
1.0
 40
1.0
 40
1.0
 40
1.0
 10
117.8096478351808
 20
77.92041905558821
 30
0.0
 10
117.8130361248325
 20
77.8918644520788
 30
0.0
 10
117.8163776118495
 20
77.85884291700197
 30
0.0
 10
117.8213664410574
 20
77.79590450985602
 30
0.0
 10
117.8230137832484
 20
77.76598763778695
 30
0.0
 10
117.8230137832484
 20
77.74364236029308
 30
0.0
  0
SPLINE
  5
C1
330
1F
100
AcDbEntity
  8
0
  6
Continuous
 62
     7
370
    25
100
AcDbSpline
210
0.0
220
0.0
230
1.0
 70
     8
 71
     3
 72
    10
 73
     6
 74
     0
 42
0.000000001
 43
0.00000001
 40
0.0
 40
0.0
 40
0.0
 40
0.0
 40
0.5
 40
0.5
 40
1.0
 40
1.0
 40
1.0
 40
1.0
 10
122.6040391674789
 20
67.8612569972961
 30
0.0
 10
122.5754845639695
 20
67.8578687076443
 30
0.0
 10
122.5424630288927
 20
67.8545272206274
 30
0.0
 10
122.4795246217467
 20
67.8495383914195
 30
0.0
 10
122.4496077496777
 20
67.84789104922848
 30
0.0
 10
122.4272624721838
 20
67.84789104922848
 30
0.0
  0
SPLINE
  5
C2
330
1F
100
AcDbEntity
  8
0
  6
Continuous
 62
     7
370
    25
100
AcDbSpline
210
0.0
220
0.0
230
1.0
 70
     8
 71
     3
 72
    12
 73
     8
 74
     0
 42
0.000000001
 43
0.00000001
 40
0.0
 40
0.0
 40
0.0
 40
0.0
 40
0.25
 40
0.25
 40
0.5
 40
0.5
 40
1.0
 40
1.0
 40
1.0
 40
1.0
 10
122.6040391674789
 20
67.8612569972961
 30
0.0
 10
122.6183164692336
 20
67.86295114212199
 30
0.0
 10
122.630031576655
 20
67.86487735167809
 30
0.0
 10
122.6491149344452
 20
67.8677928129686
 30
0.0
 10
122.656483184814
 20
67.868782064703
 30
0.0
 10
122.6732339477623
 20
67.86824275225038
 30
0.0
 10
122.6772624721838
 20
67.86320712040758
 30
0.0
 10
122.6772624721838
 20
67.84789104922848
 30
0.0
  0
LINE
  5
C3
330
1F
100
AcDbEntity
  8
0
  6
Continuous
 62
     7
370
    25
100
AcDbLine
 10
122.6772623045
 20
67.8478911317
 30
0.0
 11
122.6772623045
 21
64.7436423491
 31
0.0
  0
LINE
  5
C4
330
1F
100
AcDbEntity
  8
0
  6
Continuous
 62
     7
370
    25
100
AcDbLine
 10
122.4272622636
 20
64.7436423491
 30
0.0
 11
122.6772623045
 21
64.7436423491
 31
0.0
  0
SPLINE
  5
C5
330
1F
100
AcDbEntity
  8
0
  6
Continuous
 62
     7
370
    25
100
AcDbSpline
210
0.0
220
0.0
230
1.0
 70
    24
 71
     3
 72
    14
 73
    10
 74
     0
 42
0.000000001
 43
0.00000001
 40
0.0
 40
0.0
 40
0.0
 40
0.0
 40
0.25
 40
0.25
 40
0.5
 40
0.5
 40
0.75
 40
0.75
 40
1.0
 40
1.0
 40
1.0
 40
1.0
 10
122.9272624721838
 20
70.49364236029307
 30
0.0
 10
122.9272624721838
 20
70.27834612977048
 30
0.0
 10
122.9272624721838
 20
70.06304876862727
 30
0.0
 10
122.9272624721838
 20
69.63331500403123
 30
0.0
 10
122.9272624721838
 20
69.41887633463477
 30
0.0
 10
122.9272624721838
 20
68.99178653092467
 30
0.0
 10
122.9272624721838
 20
68.7791331194901
 30
0.0
 10
122.9272624721838
 20
68.3566764169777
 30
0.0
 10
122.9272624721838
 20
68.14687084009245
 30
0.0
 10
122.9272624721838
 20
67.93912385305829
 30
0.0
  0
SPLINE
  5
C6
330
1F
100
AcDbEntity
  8
0
  6
Continuous
 62
     7
370
    25
100
AcDbSpline
210
0.0
220
0.0
230
1.0
 70
    24
 71
     3
 72
    14
 73
    10
 74
     0
 42
0.000000001
 43
0.00000001
 40
0.0
 40
0.0
 40
0.0
 40
0.0
 40
0.25
 40
0.25
 40
0.5
 40
0.5
 40
0.75
 40
0.75
 40
1.0
 40
1.0
 40
1.0
 40
1.0
 10
122.9272624721838
 20
70.49364236029307
 30
0.0
 10
122.9272624721838
 20
70.70893859081568
 30
0.0
 10
122.9272624721838
 20
70.92423595195889
 30
0.0
 10
122.9272624721838
 20
71.35396971655491
 30
0.0
 10
122.9272624721838
 20
71.56840838595139
 30
0.0
 10
122.9272624721838
 20
71.99549818966149
 30
0.0
 10
122.9272624721838
 20
72.20815160109605
 30
0.0
 10
122.9272624721838
 20
72.63060830360844
 30
0.0
 10
122.9272624721838
 20
72.8404138804937
 30
0.0
 10
122.9272624721838
 20
73.04816086752786
 30
0.0
  0
LINE
  5
C7
330
1F
100
AcDbEntity
  8
0
  6
Continuous
 62
     7
370
    25
100
AcDbLine
 10
122.9272623455
 20
76.0453665893
 30
0.0
 11
122.9272623455
 21
73.0481607638
 31
0.0
  0
SPLINE
  5
C8
330
1F
100
AcDbEntity
  8
0
  6
Continuous
 62
     7
370
    25
100
AcDbSpline
210
0.0
220
0.0
230
1.0
 70
     8
 71
     3
 72
    14
 73
    10
 74
     0
 42
0.000000001
 43
0.00000001
 40
0.0
 40
0.0
 40
0.0
 40
0.0
 40
0.25
 40
0.25
 40
0.5
 40
0.5
 40
0.75
 40
0.75
 40
1.0
 40
1.0
 40
1.0
 40
1.0
 10
122.9272624721838
 20
76.0453664982241
 30
0.0
 10
122.9272624721838
 20
76.1006452748497
 30
0.0
 10
122.9177139079476
 20
76.15362395301594
 30
0.0
 10
122.8809237898228
 20
76.2553654207421
 30
0.0
 10
122.8533727425347
 20
76.30440969446451
 30
0.0
 10
122.7783696549645
 20
76.39385773943273
 30
0.0
 10
122.7301892747725
 20
76.4357323077573
 30
0.0
 10
122.6032258969957
 20
76.502603935961
 30
0.0
 10
122.5192034169069
 20
76.52812511891375
 30
0.0
 10
122.4272624721838
 20
76.52812511891375
 30
0.0
  0
LINE
  5
C9
330
1F
100
AcDbEntity
  8
0
  6
Continuous
 62
     7
370
    25
100
AcDbLine
 10
122.1772626883
 20
76.5281250964
 30
0.0
 11
122.4272622636
 21
76.5281250964
 31
0.0
  0
SPLINE
  5
CA
330
1F
100
AcDbEntity
  8
0
  6
Continuous
 62
     7
370
    25
100
AcDbSpline
210
0.0
220
0.0
230
1.0
 70
     8
 71
     3
 72
    12
 73
     8
 74
     0
 42
0.000000001
 43
0.00000001
 40
0.0
 40
0.0
 40
0.0
 40
0.0
 40
0.4999999999999991
 40
0.4999999999999991
 40
0.7499999999999996
 40
0.7499999999999996
 40
1.0
 40
1.0
 40
1.0
 40
1.0
 10
121.5455489608811
 20
76.86192884899036
 30
0.0
 10
121.591072833783
 20
76.7932468654394
 30
0.0
 10
121.6534416067118
 20
76.72091459370387
 30
0.0
 10
121.8037551748688
 20
76.62158084195471
 30
0.0
 10
121.862991307792
 20
76.59067583003846
 30
0.0
 10
122.0069714965303
 20
76.54322397185197
 30
0.0
 10
122.0904566950672
 20
76.52812511891375
 30
0.0
 10
122.1772624721838
 20
76.52812511891375
 30
0.0
  0
SPLINE
  5
CB
330
1F
100
AcDbEntity
  8
0
  6
Continuous
 62
     7
370
    25
100
AcDbSpline
210
0.0
220
0.0
230
1.0
 70
     8
 71
     3
 72
     8
 73
     4
 74
     0
 42
0.000000001
 43
0.00000001
 40
0.0
 40
0.0
 40
0.0
 40
0.0
 40
1.0
 40
1.0
 40
1.0
 40
1.0
 10
111.1772624721838
 20
64.45915960167238
 30
0.0
 10
111.0767722191666
 20
64.45915960167238
 30
0.0
 10
110.9778914816394
 20
64.46562552909046
 30
0.0
 10
110.880476062528
 20
64.47814138677505
 30
0.0
  0
LINE
  5
CC
330
1F
100
AcDbEntity
  8
0
  6
Continuous
 62
     7
370
    25
100
AcDbLine
 10
122.4272622636
 20
64.4591596242
 30
0.0
 11
111.1772622822
 21
64.4591596242
 31
0.0
  0
SPLINE
  5
CD
330
1F
100
AcDbEntity
  8
0
  6
Continuous
 62
     7
370
    25
100
AcDbSpline
210
0.0
220
0.0
230
1.0
 70
     8
 71
     3
 72
    14
 73
    10
 74
     0
 42
0.000000001
 43
0.00000001
 40
0.0
 40
0.0
 40
0.0
 40
0.0
 40
0.25
 40
0.25
 40
0.5
 40
0.5
 40
0.75
 40
0.75
 40
1.0
 40
1.0
 40
1.0
 40
1.0
 10
122.4272624721838
 20
64.45915960167238
 30
0.0
 10
122.5190648667967
 20
64.45915960167238
 30
0.0
 10
122.6032288057121
 20
64.4846697956115
 30
0.0
 10
122.7303244862835
 20
64.55163616340099
 30
0.0
 10
122.7784469555347
 20
64.59345079600244
 30
0.0
 10
122.8537647353134
 20
64.68341131368398
 30
0.0
 10
122.8811409484068
 20
64.73241830578367
 30
0.0
 10
122.9177027990289
 20
64.83373215632297
 30
0.0
 10
122.9272624721838
 20
64.88660077297357
 30
0.0
 10
122.9272624721838
 20
64.94191822236203
 30
0.0
  0
LINE
  5
CE
330
1F
100
AcDbEntity
  8
0
  6
Continuous
 62
     7
370
    25
100
AcDbLine
 10
122.9272623455
 20
67.9391239568
 30
0.0
 11
122.9272623455
 21
64.9419181313
 31
0.0
  0
SPLINE
  5
CF
330
1F
100
AcDbEntity
  8
0
  6
Continuous
 62
     7
370
    25
100
AcDbSpline
210
0.0
220
0.0
230
1.0
 70
    24
 71
     3
 72
    10
 73
     6
 74
     0
 42
0.000000001
 43
0.00000001
 40
0.0
 40
0.0
 40
0.0
 40
0.0
 40
0.5
 40
0.5
 40
1.0
 40
1.0
 40
1.0
 40
1.0
 10
122.6789822298381
 20
70.49364236029307
 30
0.0
 10
122.6380138360418
 20
70.49364236029307
 30
0.0
 10
122.5940493262973
 20
70.49364236029307
 30
0.0
 10
122.5030026865535
 20
70.49364236029307
 30
0.0
 10
122.4700542459726
 20
70.49364236029307
 30
0.0
 10
122.4272624721838
 20
70.49364236029307
 30
0.0
  0
SPLINE
  5
D0
330
1F
100
AcDbEntity
  8
0
  6
Continuous
 62
     7
370
    25
100
AcDbSpline
210
0.0
220
0.0
230
1.0
 70
     8
 71
     3
 72
    12
 73
     8
 74
     0
 42
0.000000001
 43
0.00000001
 40
0.0
 40
0.0
 40
0.0
 40
0.0
 40
0.25
 40
0.25
 40
0.5
 40
0.5
 40
1.0
 40
1.0
 40
1.0
 40
1.0
 10
122.6789822298381
 20
70.49364236029307
 30
0.0
 10
122.668740131389
 20
70.71233144649942
 30
0.0
 10
122.6612009198357
 20
70.93071424791277
 30
0.0
 10
122.6468714042114
 20
71.36898439994049
 30
0.0
 10
122.6400811001403
 20
71.58887175055489
 30
0.0
 10
122.6138482496871
 20
72.25396630438013
 30
0.0
 10
122.6041655329988
 20
72.68715400945217
 30
0.0
 10
122.6040391674789
 20
73.12602772329005
 30
0.0
  0
SPLINE
  5
D1
330
1F
100
AcDbEntity
  8
0
  6
Continuous
 62
     7
370
    25
100
AcDbSpline
210
0.0
220
0.0
230
1.0
 70
     8
 71
     3
 72
    12
 73
     8
 74
     0
 42
0.000000001
 43
0.00000001
 40
0.0
 40
0.0
 40
0.0
 40
0.0
 40
0.25
 40
0.25
 40
0.5
 40
0.5
 40
1.0
 40
1.0
 40
1.0
 40
1.0
 10
122.6789822298381
 20
70.49364236029307
 30
0.0
 10
122.668740131389
 20
70.27495327408673
 30
0.0
 10
122.6612009198357
 20
70.05657047267337
 30
0.0
 10
122.6468714042114
 20
69.61830032064564
 30
0.0
 10
122.6400811001403
 20
69.39841297003127
 30
0.0
 10
122.6138482496871
 20
68.733318416206
 30
0.0
 10
122.6041655329988
 20
68.30013071113396
 30
0.0
 10
122.6040391674789
 20
67.8612569972961
 30
0.0
  0
SPLINE
  5
D2
330
1F
100
AcDbEntity
  8
0
  6
Continuous
 62
     7
370
    25
100
AcDbSpline
210
0.0
220
0.0
230
1.0
 70
    24
 71
     3
 72
    10
 73
     6
 74
     0
 42
0.000000001
 43
0.00000001
 40
0.0
 40
0.0
 40
0.0
 40
0.0
 40
0.5
 40
0.5
 40
1.0
 40
1.0
 40
1.0
 40
1.0
 10
115.1772624721838
 20
77.99536211794738
 30
0.0
 10
115.1772624721838
 20
77.95439372415113
 30
0.0
 10
115.1772624721838
 20
77.9104292144066
 30
0.0
 10
115.1772624721838
 20
77.8193825746628
 30
0.0
 10
115.1772624721838
 20
77.78643413408193
 30
0.0
 10
115.1772624721838
 20
77.74364236029308
 30
0.0
  0
SPLINE
  5
D3
330
1F
100
AcDbEntity
  8
0
  6
Continuous
 62
     7
370
    25
100
AcDbSpline
210
0.0
220
0.0
230
1.0
 70
     8
 71
     3
 72
    12
 73
     8
 74
     0
 42
0.000000001
 43
0.00000001
 40
0.0
 40
0.0
 40
0.0
 40
0.0
 40
0.25
 40
0.25
 40
0.5
 40
0.5
 40
1.0
 40
1.0
 40
1.0
 40
1.0
 10
115.1772624721838
 20
77.99536211794738
 30
0.0
 10
114.9585733859774
 20
77.98512001949832
 30
0.0
 10
114.7401905845641
 20
77.97758080794499
 30
0.0
 10
114.3019204325363
 20
77.96325129232063
 30
0.0
 10
114.082033081922
 20
77.95646098824963
 30
0.0
 10
113.4169385280967
 20
77.93022813779635
 30
0.0
 10
112.9837508230247
 20
77.92054542110805
 30
0.0
 10
112.5448771091868
 20
77.92041905558821
 30
0.0
  0
SPLINE
  5
D4
330
1F
100
AcDbEntity
  8
0
  6
Continuous
 62
     7
370
    25
100
AcDbSpline
210
0.0
220
0.0
230
1.0
 70
     8
 71
     3
 72
    12
 73
     8
 74
     0
 42
0.000000001
 43
0.00000001
 40
0.0
 40
0.0
 40
0.0
 40
0.0
 40
0.25
 40
0.25
 40
0.5
 40
0.5
 40
1.0
 40
1.0
 40
1.0
 40
1.0
 10
115.1772624721838
 20
77.99536211794738
 30
0.0
 10
115.3959515583901
 20
77.98512001949832
 30
0.0
 10
115.6143343598035
 20
77.97758080794497
 30
0.0
 10
116.0526045118312
 20
77.96325129232063
 30
0.0
 10
116.2724918624456
 20
77.95646098824963
 30
0.0
 10
116.9375864162709
 20
77.93022813779635
 30
0.0
 10
117.3707741213429
 20
77.92054542110805
 30
0.0
 10
117.8096478351808
 20
77.92041905558821
 30
0.0
  0
SPLINE
  5
D5
330
1F
100
AcDbEntity
  8
0
  6
Continuous
 62
     7
370
    25
100
AcDbSpline
210
0.0
220
0.0
230
1.0
 70
     8
 71
     3
 72
    10
 73
     6
 74
     0
 42
0.000000001
 43
0.00000001
 40
0.0
 40
0.0
 40
0.0
 40
0.0
 40
0.5
 40
0.5
 40
1.0
 40
1.0
 40
1.0
 40
1.0
 10
118.8867375102135
 20
70.21681965754277
 30
0.0
 10
118.8867375102135
 20
70.21681965754277
 30
0.0
 10
118.8617200027794
 20
70.22740058807284
 30
0.0
 10
118.7765031282685
 20
70.26293537913718
 30
0.0
 10
118.7158135417825
 20
70.28801289733089
 30
0.0
 10
118.65551670183
 20
70.31268786493584
 30
0.0
  0
LINE
  5
D6
330
1F
100
AcDbEntity
  8
0
  6
Continuous
 62
     7
370
    25
100
AcDbLine
 10
118.8867375163
 20
70.2168196471
 30
0.0
 11
117.915864466
 21
67.5023013059
 31
0.0
  0
LWPOLYLINE
  5
D7
330
1F
100
AcDbEntity
  8
0
  6
Continuous
 62
     7
370
    25
100
AcDbPolyline
 90
        9
 70
   128
 43
0.0
 10
117.6804675629
 20
67.5864930994
 10
117.7263910791
 20
67.5700682945
 10
117.7705499718
 20
67.5542744606
 10
117.8112469057
 20
67.5397185873
 10
117.8469181901
 20
67.5269606322
 10
117.8761929182
 20
67.5164902381
 10
117.8979458196
 20
67.5087099693
 10
117.911341265
 20
67.5039190132
 10
117.915864466
 20
67.5023013059
  0
SPLINE
  5
D8
330
1F
100
AcDbEntity
  8
0
  6
Continuous
 62
     7
370
    25
100
AcDbSpline
210
0.0
220
0.0
230
1.0
 70
     8
 71
     3
 72
    10
 73
     6
 74
     0
 42
0.000000001
 43
0.00000001
 40
0.0
 40
0.0
 40
0.0
 40
0.0
 40
0.5
 40
0.5
 40
1.0
 40
1.0
 40
1.0
 40
1.0
 10
119.7979434314894
 20
70.21681965754289
 30
0.0
 10
119.7979434314894
 20
70.21681965754289
 30
0.0
 10
119.8229609389232
 20
70.2274005880733
 30
0.0
 10
119.9081778134339
 20
70.26293537913753
 30
0.0
 10
119.9688673999206
 20
70.28801289733185
 30
0.0
 10
120.0291642398728
 20
70.3126878649364
 30
0.0
  0
SPLINE
  5
D9
330
1F
100
AcDbEntity
  8
0
  6
Continuous
 62
     7
370
    25
100
AcDbSpline
210
0.0
220
0.0
230
1.0
 70
     8
 71
     3
 72
    14
 73
    10
 74
     0
 42
0.000000001
 43
0.00000001
 40
0.0
 40
0.0
 40
0.0
 40
0.0
 40
0.25
 40
0.25
 40
0.5
 40
0.5
 40
0.75
 40
0.75
 40
1.0
 40
1.0
 40
1.0
 40
1.0
 10
119.7979434314894
 20
70.2168196575429
 30
0.0
 10
119.7564954121876
 20
70.30166210202394
 30
0.0
 10
119.6905693569604
 20
70.37181949132001
 30
0.0
 10
119.5287270175008
 20
70.4687094311427
 30
0.0
 10
119.4361227517848
 20
70.49373883132759
 30
0.0
 10
119.2474765368303
 20
70.49354533452612
 30
0.0
 10
119.1546396787527
 20
70.46797218823187
 30
0.0
 10
118.9950278699657
 20
70.37231836421641
 30
0.0
 10
118.9281927097973
 20
70.30167679977504
 30
0.0
 10
118.8867375102135
 20
70.21681965754277
 30
0.0
  0
LWPOLYLINE
  5
DA
330
1F
100
AcDbEntity
  8
0
  6
Continuous
 62
     7
370
    25
100
AcDbPolyline
 90
        9
 70
   128
 43
0.0
 10
121.0044397881
 20
67.5858604986
 10
120.958516272
 20
67.5694354608
 10
120.9143571464
 20
67.5536416269
 10
120.8736602126
 20
67.5390859864
 10
120.837989161
 20
67.5263277985
 10
120.8087144328
 20
67.5158574044
 10
120.7869615315
 20
67.5080773685
 10
120.7735658532
 20
67.5032861795
 10
120.7690428851
 20
67.5016684722
  0
LINE
  5
DB
330
1F
100
AcDbEntity
  8
0
  6
Continuous
 62
     7
370
    25
100
AcDbLine
 10
120.7690428851
 20
67.5016684722
 30
0.0
 11
119.7979435233
 21
70.2168196471
 31
0.0
  0
SPLINE
  5
DC
330
1F
100
AcDbEntity
  8
0
  6
Continuous
 62
     7
370
    25
100
AcDbSpline
210
0.0
220
0.0
230
1.0
 70
     8
 71
     3
 72
    12
 73
     8
 74
     0
 42
0.000000001
 43
0.00000001
 40
0.0
 40
0.0
 40
0.0
 40
0.0
 40
0.25
 40
0.25
 40
0.5
 40
0.5
 40
1.0
 40
1.0
 40
1.0
 40
1.0
 10
115.1772624721838
 20
77.99536211794738
 30
0.0
 10
114.9585733859774
 20
78.00560421639646
 30
0.0
 10
114.7413944809689
 20
78.02028693085985
 30
0.0
 10
114.3100454463885
 20
78.05210932151772
 30
0.0
 10
114.0958753168166
 20
78.06924899771218
 30
0.0
 10
113.4578607108168
 20
78.11471706344574
 30
0.0
 10
113.0283340874806
 20
78.10788421238159
 30
0.0
 10
112.60816607285
 20
78.06685965436635
 30
0.0
  0
SPLINE
  5
DD
330
1F
100
AcDbEntity
  8
0
  6
Continuous
 62
     7
370
    25
100
AcDbSpline
210
0.0
220
0.0
230
1.0
 70
     8
 71
     3
 72
    10
 73
     6
 74
     0
 42
0.000000001
 43
0.00000001
 40
0.0
 40
0.0
 40
0.0
 40
0.0
 40
0.5
 40
0.5
 40
1.0
 40
1.0
 40
1.0
 40
1.0
 10
112.60816607285
 20
78.06685965436635
 30
0.0
 10
112.6154580533076
 20
78.09541347632994
 30
0.0
 10
112.6193552159324
 20
78.12977350806237
 30
0.0
 10
112.6228914199142
 20
78.19281633259149
 30
0.0
 10
112.622743964949
 20
78.22129524256974
 30
0.0
 10
112.622743964949
 20
78.24364236029308
 30
0.0
  0
SPLINE
  5
DE
330
1F
100
AcDbEntity
  8
0
  6
Continuous
 62
     7
370
    25
100
AcDbSpline
210
0.0
220
0.0
230
1.0
 70
    24
 71
     3
 72
    10
 73
     6
 74
     0
 42
0.000000001
 43
0.00000001
 40
0.0
 40
0.0
 40
0.0
 40
0.0
 40
0.5
 40
0.5
 40
1.0
 40
1.0
 40
1.0
 40
1.0
 10
115.1772624721838
 20
77.99536211794738
 30
0.0
 10
115.1772624721838
 20
78.03633051174364
 30
0.0
 10
115.1772624721838
 20
78.07978595881558
 30
0.0
 10
115.1772624721838
 20
78.16887180403282
 30
0.0
 10
115.1772624721838
 20
78.20125903264814
 30
0.0
 10
115.1772624721838
 20
78.24364236029308
 30
0.0
  0
SPLINE
  5
DF
330
1F
100
AcDbEntity
  8
0
  6
Continuous
 62
     7
370
    25
100
AcDbSpline
210
0.0
220
0.0
230
1.0
 70
     8
 71
     3
 72
     8
 73
     4
 74
     0
 42
0.000000001
 43
0.00000001
 40
0.0
 40
0.0
 40
0.0
 40
0.0
 40
1.0
 40
1.0
 40
1.0
 40
1.0
 10
117.7317809794186
 20
78.24364236029308
 30
0.0
 10
117.7277757491616
 20
78.17818967985691
 30
0.0
 10
117.7335980620871
 20
78.11314011484869
 30
0.0
 10
117.7463588715176
 20
78.06685965436635
 30
0.0
  0
SPLINE
  5
E0
330
1F
100
AcDbEntity
  8
0
  6
Continuous
 62
     7
370
    25
100
AcDbSpline
210
0.0
220
0.0
230
1.0
 70
     8
 71
     3
 72
    12
 73
     8
 74
     0
 42
0.000000001
 43
0.00000001
 40
0.0
 40
0.0
 40
0.0
 40
0.0
 40
0.25
 40
0.25
 40
0.5
 40
0.5
 40
1.0
 40
1.0
 40
1.0
 40
1.0
 10
115.1772624721838
 20
77.99536211794738
 30
0.0
 10
115.3959515583901
 20
78.00560421639645
 30
0.0
 10
115.6131304633986
 20
78.02028693085985
 30
0.0
 10
116.044479497979
 20
78.05210932151772
 30
0.0
 10
116.258649627551
 20
78.06924899771218
 30
0.0
 10
116.8966642335508
 20
78.11471706344572
 30
0.0
 10
117.326190856887
 20
78.10788421238159
 30
0.0
 10
117.7463588715176
 20
78.06685965436635
 30
0.0
  0
SPLINE
  5
E1
330
1F
100
AcDbEntity
  8
0
  6
Continuous
 62
     7
370
    25
100
AcDbSpline
210
0.0
220
0.0
230
1.0
 70
     8
 71
     3
 72
    14
 73
    10
 74
     0
 42
0.000000001
 43
0.00000001
 40
0.0
 40
0.0
 40
0.0
 40
0.0
 40
0.25
 40
0.25
 40
0.5
 40
0.5
 40
0.75
 40
0.75
 40
1.0
 40
1.0
 40
1.0
 40
1.0
 10
122.6789822298381
 20
70.49364236029307
 30
0.0
 10
122.6892243282872
 20
70.71233144649942
 30
0.0
 10
122.7039070427506
 20
70.9295103515079
 30
0.0
 10
122.7357294334084
 20
71.36085938608832
 30
0.0
 10
122.7528691096029
 20
71.57502951566028
 30
0.0
 10
122.7831811534253
 20
72.00037258632682
 30
0.0
 10
122.7890509516148
 20
72.2140900098275
 30
0.0
 10
122.7829563975345
 20
72.64023109281987
 30
0.0
 10
122.7709920452647
 20
72.85265475231158
 30
0.0
 10
122.7504797662571
 20
73.0627387596269
 30
0.0
  0
SPLINE
  5
E2
330
1F
100
AcDbEntity
  8
0
  6
Continuous
 62
     7
370
    25
100
AcDbSpline
210
0.0
220
0.0
230
1.0
 70
     8
 71
     3
 72
     8
 73
     4
 74
     0
 42
0.000000001
 43
0.00000001
 40
0.0
 40
0.0
 40
0.0
 40
0.0
 40
1.0
 40
1.0
 40
1.0
 40
1.0
 10
122.7504797662571
 20
73.0627387596269
 30
0.0
 10
122.7967602267394
 20
73.04997795019635
 30
0.0
 10
122.8618097917476
 20
73.04415563727088
 30
0.0
 10
122.9272624721838
 20
73.04816086752786
 30
0.0
  0
SPLINE
  5
E3
330
1F
100
AcDbEntity
  8
0
  6
Continuous
 62
     7
370
    25
100
AcDbSpline
210
0.0
220
0.0
230
1.0
 70
    24
 71
     3
 72
    10
 73
     6
 74
     0
 42
0.000000001
 43
0.00000001
 40
0.0
 40
0.0
 40
0.0
 40
0.0
 40
0.5
 40
0.5
 40
1.0
 40
1.0
 40
1.0
 40
1.0
 10
122.6789822298381
 20
70.49364236029307
 30
0.0
 10
122.7199506236344
 20
70.49364236029307
 30
0.0
 10
122.7634060707063
 20
70.49364236029307
 30
0.0
 10
122.8524919159235
 20
70.49364236029307
 30
0.0
 10
122.8848791445389
 20
70.49364236029307
 30
0.0
 10
122.9272624721838
 20
70.49364236029307
 30
0.0
  0
SPLINE
  5
E4
330
1F
100
AcDbEntity
  8
0
  6
Continuous
 62
     7
370
    25
100
AcDbSpline
210
0.0
220
0.0
230
1.0
 70
     8
 71
     3
 72
    10
 73
     6
 74
     0
 42
0.000000001
 43
0.00000001
 40
0.0
 40
0.0
 40
0.0
 40
0.0
 40
0.5
 40
0.5
 40
1.0
 40
1.0
 40
1.0
 40
1.0
 10
122.7504797662571
 20
67.92454596095925
 30
0.0
 10
122.7790335882206
 20
67.9318379414169
 30
0.0
 10
122.8133936199531
 20
67.9357351040417
 30
0.0
 10
122.8764364444822
 20
67.93927130802344
 30
0.0
 10
122.9049153544605
 20
67.93912385305829
 30
0.0
 10
122.9272624721838
 20
67.93912385305829
 30
0.0
  0
SPLINE
  5
E5
330
1F
100
AcDbEntity
  8
0
  6
Continuous
 62
     7
370
    25
100
AcDbSpline
210
0.0
220
0.0
230
1.0
 70
     8
 71
     3
 72
    14
 73
    10
 74
     0
 42
0.000000001
 43
0.00000001
 40
0.0
 40
0.0
 40
0.0
 40
0.0
 40
0.25
 40
0.25
 40
0.5
 40
0.5
 40
0.75
 40
0.75
 40
1.0
 40
1.0
 40
1.0
 40
1.0
 10
122.6789822298381
 20
70.49364236029307
 30
0.0
 10
122.6892243282872
 20
70.27495327408673
 30
0.0
 10
122.7039070427506
 20
70.05777436907825
 30
0.0
 10
122.7357294334084
 20
69.62642533449781
 30
0.0
 10
122.7528691096029
 20
69.41225520492587
 30
0.0
 10
122.7831811534253
 20
68.98691213425933
 30
0.0
 10
122.7890509516148
 20
68.77319471075864
 30
0.0
 10
122.7829563975345
 20
68.34705362776626
 30
0.0
 10
122.7709920452647
 20
68.13462996827457
 30
0.0
 10
122.7504797662571
 20
67.92454596095925
 30
0.0
  0
SPLINE
  5
E6
330
1F
100
AcDbEntity
  8
0
  6
Continuous
 62
     7
370
    25
100
AcDbSpline
210
0.0
220
0.0
230
1.0
 70
     8
 71
     3
 72
    12
 73
     8
 74
     0
 42
0.000000001
 43
0.00000001
 40
0.0
 40
0.0
 40
0.0
 40
0.0
 40
0.25
 40
0.25
 40
0.5
 40
0.5
 40
1.0
 40
1.0
 40
1.0
 40
1.0
 10
112.60816607285
 20
78.06685965436635
 30
0.0
 10
112.6045200826211
 20
78.05258274338456
 30
0.0
 10
112.5999635496887
 20
78.03982020713502
 30
0.0
 10
112.5893449357047
 20
78.01867345425616
 30
0.0
 10
112.5832828546532
 20
78.01028923762682
 30
0.0
 10
112.5633115952523
 20
77.99372842240258
 30
0.0
 10
112.547960802283
 20
77.99364236029308
 30
0.0
 10
112.5315111611192
 20
77.99364236029308
 30
0.0
  0
SPLINE
  5
E7
330
1F
100
AcDbEntity
  8
0
  6
Continuous
 62
     7
370
    25
100
AcDbSpline
210
0.0
220
0.0
230
1.0
 70
     8
 71
     3
 72
    15
 73
    11
 74
     0
 42
0.000000001
 43
0.00000001
 40
0.0
 40
0.0
 40
0.0
 40
0.0
 40
0.0425877399909041
 40
0.1028282325346875
 40
0.1864706729280299
 40
0.2956205441869006
 40
0.4311891005861807
 40
0.5936297641565581
 40
0.7831876993469636
 40
1.0
 40
1.0
 40
1.0
 40
1.0
 10
122.6772624721838
 20
73.13939367135767
 30
0.0
 10
122.6772682652859
 20
73.13657434787716
 30
0.0
 10
122.6772822527493
 20
73.129767082441
 30
0.0
 10
122.6777739535811
 20
73.12122688610012
 30
0.0
 10
122.6794013075396
 20
73.11192920356973
 30
0.0
 10
122.6832264559237
 20
73.10212146794272
 30
0.0
 10
122.6905987659646
 20
73.09179582189363
 30
0.0
 10
122.7032167549414
 20
73.08132911044166
 30
0.0
 10
122.7224609571455
 20
73.07099587520099
 30
0.0
 10
122.7407317035158
 20
73.06561150415925
 30
0.0
 10
122.7504797662571
 20
73.0627387596269
 30
0.0
  0
SPLINE
  5
E8
330
1F
100
AcDbEntity
  8
0
  6
Continuous
 62
     7
370
    25
100
AcDbSpline
210
0.0
220
0.0
230
1.0
 70
     8
 71
     3
 72
    12
 73
     8
 74
     0
 42
0.000000001
 43
0.00000001
 40
0.0
 40
0.0
 40
0.0
 40
0.0
 40
0.25
 40
0.25
 40
0.5
 40
0.5
 40
1.0
 40
1.0
 40
1.0
 40
1.0
 10
122.7504797662571
 20
67.92454596095925
 30
0.0
 10
122.7362028552753
 20
67.92089997073043
 30
0.0
 10
122.7234403190257
 20
67.91634343779799
 30
0.0
 10
122.7022935661469
 20
67.90572482381404
 30
0.0
 10
122.6939093495175
 20
67.89966274276252
 30
0.0
 10
122.6773485342933
 20
67.87969148336155
 30
0.0
 10
122.6772624721838
 20
67.86434069039234
 30
0.0
 10
122.6772624721838
 20
67.84789104922848
 30
0.0
  0
SPLINE
  5
E9
330
1F
100
AcDbEntity
  8
0
  6
Continuous
 62
     7
370
    25
100
AcDbSpline
210
0.0
220
0.0
230
1.0
 70
     8
 71
     3
 72
    14
 73
    10
 74
     0
 42
0.000000001
 43
0.00000001
 40
0.0
 40
0.0
 40
0.0
 40
0.0
 40
0.2455893235675696
 40
0.4556181963142487
 40
0.6303106213393677
 40
0.7701164303669036
 40
0.8759901151610805
 40
0.9502659312389182
 40
1.0
 40
1.0
 40
1.0
 40
1.0
 10
117.7463588715176
 20
78.06685965436635
 30
0.0
 10
117.7496504489908
 20
78.05589461505106
 30
0.0
 10
117.7557569953569
 20
78.0355522346789
 30
0.0
 10
117.7676799856162
 20
78.01540022220243
 30
0.0
 10
117.7796090681307
 20
78.00328066273157
 30
0.0
 10
117.7910562754948
 20
77.99707483949918
 30
0.0
 10
117.8019418005416
 20
77.99445514052533
 30
0.0
 10
117.8116290623327
 20
77.9936749461803
 30
0.0
 10
117.819754915926
 20
77.99365168797742
 30
0.0
 10
117.8230137832484
 20
77.99364236029308
 30
0.0
  0
LINE
  5
EA
330
1F
100
AcDbEntity
  8
0
  6
Continuous
 62
     7
370
    25
100
AcDbLine
 10
109.427262461
 20
66.4936421703
 30
0.0
 11
109.17726242
 21
66.4936421703
 31
0.0
  0
LINE
  5
EB
330
1F
100
AcDbEntity
  8
0
  6
Continuous
 62
     7
370
    25
100
AcDbLine
 10
109.17726242
 20
66.4936421703
 30
0.0
 11
109.17726242
 21
77.7436421517
 31
0.0
  0
LINE
  5
EC
330
1F
100
AcDbEntity
  8
0
  6
Continuous
 62
     7
370
    25
100
AcDbLine
 10
109.17726242
 20
77.7436421517
 30
0.0
 11
109.427262461
 21
77.7436421517
 31
0.0
  0
LINE
  5
ED
330
1F
100
AcDbEntity
  8
0
  6
Continuous
 62
     7
370
    25
100
AcDbLine
 10
117.1195667844
 20
67.2533173378
 30
0.0
 11
117.7334302479
 21
66.0830886367
 31
0.0
  0
LWPOLYLINE
  5
EE
330
1F
100
AcDbEntity
  8
0
  6
Continuous
 62
     7
370
    25
100
AcDbPolyline
 90
        9
 70
   128
 43
0.0
 10
117.7334302479
 20
66.0830886367
 10
117.7291764321
 20
66.0808571878
 10
117.716577966
 20
66.0742485228
 10
117.696119603
 20
66.0635168928
 10
117.6685869137
 20
66.0490739423
 10
117.6350383462
 20
66.031475671
 10
117.5967633167
 20
66.0113977532
 10
117.5552321507
 20
65.9896117899
 10
117.5120413678
 20
65.9669555056
  0
LWPOLYLINE
  5
EF
330
1F
100
AcDbEntity
  8
0
  6
Continuous
 62
     7
370
    25
100
AcDbPolyline
 90
       10
 70
   128
 43
0.0
 10
117.1195667844
 20
67.2533173378
 10
117.1103402881
 20
67.2627299822
 10
117.08294136
 20
67.2906817667
 10
117.0382022534
 20
67.3363233249
 10
116.9774825826
 20
67.3982681505
 10
116.9026271815
 20
67.4746340405
 10
116.8159103396
 20
67.5631003718
 10
116.7199672341
 20
67.6609793476
 10
116.6177127885
 20
67.765297022
 10
116.5122540111
 20
67.8728836387
  0
ARC
  5
F0
330
1F
100
AcDbEntity
  8
0
  6
Continuous
 62
     7
370
    25
100
AcDbCircle
 10
109.4272624722
 20
77.7436423603
 30
0.0
 40
0.25
100
AcDbArc
 50
90.0
 51
180.0
  0
SPLINE
  5
F1
330
1F
100
AcDbEntity
  8
0
  6
Continuous
 62
     7
370
    25
100
AcDbSpline
210
0.0
220
0.0
230
1.0
 70
     8
 71
     3
 72
    23
 73
    19
 74
     0
 42
0.000000001
 43
0.00000001
 40
0.0
 40
0.0
 40
0.0
 40
0.0
 40
0.0000210594021204
 40
0.0000210594021204
 40
0.0000210594021204
 40
0.0000429122282046
 40
0.0000429122282046
 40
0.0000429122282046
 40
0.0000655452306719
 40
0.0000655452306719
 40
0.0000655452306719
 40
0.000088492665435
 40
0.000088492665435
 40
0.000088492665435
 40
0.0001110534468608
 40
0.0001110534468608
 40
0.0001110534468608
 40
0.000119364715226
 40
0.000119364715226
 40
0.000119364715226
 40
0.000119364715226
 10
117.7334302743738
 20
66.08308866124618
 30
0.0
 10
117.7366912061864
 20
66.07687223738057
 30
0.0
 10
117.7410951374761
 20
66.07115073344578
 30
0.0
 10
117.7462340527502
 20
66.06636856325129
 30
0.0
 10
117.7515657856411
 20
66.0614069608983
 30
0.0
 10
117.757835044345
 20
66.05731414486368
 30
0.0
 10
117.7645013354889
 20
66.05438064253477
 30
0.0
 10
117.7714034833909
 20
66.05134335140725
 30
0.0
 10
117.7789232162814
 20
66.04946130784373
 30
0.0
 10
117.7864401086445
 20
66.04886038167906
 30
0.0
 10
117.7940596095363
 20
66.04825125263658
 30
0.0
 10
117.80188931594
 20
66.04894121337527
 30
0.0
 10
117.8092820579169
 20
66.05088420027514
 30
0.0
 10
117.8165503924091
 20
66.05279448995469
 30
0.0
 10
117.8235982304692
 20
66.05597144333456
 30
0.0
 10
117.8298170264163
 20
66.0601909776595
 30
0.0
 10
117.8321368965037
 20
66.06176503983275
 30
0.0
 10
117.8343601619328
 20
66.06349213226466
 30
0.0
 10
117.83645684545
 20
66.06535315004446
 30
0.0
  0
LWPOLYLINE
  5
F2
330
1F
100
AcDbEntity
  8
0
  6
Continuous
 62
     7
370
    25
100
AcDbPolyline
 90
        9
 70
   128
 43
0.0
 10
117.8364568764
 20
66.0653529953
 10
117.8396457249
 20
66.0617604184
 10
117.8490895687
 20
66.0511209893
 10
117.8644254247
 20
66.0338426273
 10
117.8850642314
 20
66.0105902966
 10
117.9102127349
 20
65.9822571355
 10
117.9389044551
 20
65.949932326
 10
117.9700367062
 20
65.9148577865
 10
118.0024132041
 20
65.8783811409
  0
LINE
  5
F3
330
1F
100
AcDbEntity
  8
0
  6
Continuous
 62
     7
370
    25
100
AcDbLine
 10
120.9512505589
 20
66.0830886367
 30
0.0
 11
121.5651141388
 21
67.2533173378
 31
0.0
  0
LWPOLYLINE
  5
F4
330
1F
100
AcDbEntity
  8
0
  6
Continuous
 62
     7
370
    25
100
AcDbPolyline
 90
       10
 70
   128
 43
0.0
 10
121.5651141388
 20
67.2533173378
 10
121.5745163059
 20
67.2630645599
 10
121.602436891
 20
67.292010764
 10
121.6480274594
 20
67.3392758503
 10
121.7099026686
 20
67.4034237194
 10
121.7861831097
 20
67.4825058117
 10
121.8745502552
 20
67.5741186164
 10
121.9723195678
 20
67.675478876
 10
122.076520594
 20
67.7835069395
 10
122.1839863716
 20
67.894919895
  0
LWPOLYLINE
  5
F5
330
1F
100
AcDbEntity
  8
0
  6
Continuous
 62
     7
370
    25
100
AcDbPolyline
 90
        9
 70
   128
 43
0.0
 10
120.9512505589
 20
66.0830886367
 10
120.9555043748
 20
66.0808571878
 10
120.9681028409
 20
66.0742485228
 10
120.9885612039
 20
66.0635168928
 10
121.0160938932
 20
66.0490739423
 10
121.0496424606
 20
66.031475671
 10
121.0879174901
 20
66.0113977532
 10
121.129448889
 20
65.9896117899
 10
121.1726394391
 20
65.9669555056
  0
SPLINE
  5
F6
330
1F
100
AcDbEntity
  8
0
  6
Continuous
 62
     7
370
    25
100
AcDbSpline
210
0.0
220
0.0
230
1.0
 70
     8
 71
     3
 72
    10
 73
     6
 74
     0
 42
0.000000001
 43
0.00000001
 40
0.0
 40
0.0
 40
0.0
 40
0.0
 40
0.5
 40
0.5
 40
1.0
 40
1.0
 40
1.0
 40
1.0
 10
117.9158644223645
 20
67.50230128112821
 30
0.0
 10
117.8642475043642
 20
67.35798265266875
 30
0.0
 10
117.7436672802942
 20
67.24486339099701
 30
0.0
 10
117.4570996568191
 20
67.1450236407791
 30
0.0
 10
117.293492032025
 20
67.15760427847876
 30
0.0
 10
117.1593315273475
 20
67.23143429434273
 30
0.0
  0
LWPOLYLINE
  5
F7
330
1F
100
AcDbEntity
  8
0
  6
Continuous
 62
     7
370
    25
100
AcDbPolyline
 90
        9
 70
   128
 43
0.0
 10
117.2798635813
 20
67.4504594676
 10
117.2563488504
 20
67.4077296894
 10
117.2337379681
 20
67.3666420657
 10
117.2128996255
 20
67.3287756539
 10
117.1946345272
 20
67.29558518
 10
117.1796448903
 20
67.2683467887
 10
117.1685065052
 20
67.248106588
 10
117.1616475472
 20
67.235642698
 10
117.1593315808
 20
67.2314342841
  0
LINE
  5
F8
330
1F
100
AcDbEntity
  8
0
  6
Continuous
 62
     7
370
    25
100
AcDbLine
 10
121.1772625243
 20
77.7436421517
 30
0.0
 11
121.1772625243
 21
77.4936425764
 31
0.0
  0
LINE
  5
F9
330
1F
100
AcDbEntity
  8
0
  6
Continuous
 62
     7
370
    25
100
AcDbLine
 10
121.1772625243
 20
77.4936425764
 30
0.0
 11
120.9272624834
 21
77.4936425764
 31
0.0
  0
LINE
  5
FA
330
1F
100
AcDbEntity
  8
0
  6
Continuous
 62
     7
370
    25
100
AcDbLine
 10
120.9272624834
 20
77.7436421517
 30
0.0
 11
121.1772625243
 21
77.7436421517
 31
0.0
  0
ARC
  5
FB
330
1F
100
AcDbEntity
  8
0
  6
Continuous
 62
     7
370
    25
100
AcDbCircle
 10
122.1772624722
 20
77.4936423603
 30
0.0
 40
1.0
100
AcDbArc
 50
180.0
 51
270.0
  0
LINE
  5
FC
330
1F
100
AcDbEntity
  8
0
  6
Continuous
 62
     7
370
    25
100
AcDbLine
 10
122.1772626883
 20
76.4936424124
 30
0.0
 11
122.1772626883
 21
76.2436423715
 31
0.0
  0
ARC
  5
FD
330
1F
100
AcDbEntity
  8
0
  6
Continuous
 62
     7
370
    25
100
AcDbCircle
 10
120.9272624722
 20
77.7436423603
 30
0.0
 40
0.25
100
AcDbArc
 50
0.0
 51
90.0
  0
ELLIPSE
  5
FE
330
1F
100
AcDbEntity
  8
0
  6
Continuous
 62
     7
370
    25
100
AcDbEllipse
 10
119.3423404724
 20
68.189695596
 30
0.0
 11
0.06537569707428759
 21
0.0
 31
0.0
210
0.0
220
0.0
230
1.0
 40
0.9531667975
 41
0.3430239404204254
 42
2.798568713169514
  0
LINE
  5
FF
330
1F
100
AcDbEntity
  8
0
  6
Continuous
 62
     7
370
    25
100
AcDbLine
 10
119.4039074613
 20
68.2106540802
 30
0.0
 11
119.6380177422
 21
67.5858453646
 31
0.0
  0
ELLIPSE
  5
100
330
1F
100
AcDbEntity
  8
0
  6
Continuous
 62
     7
370
    25
100
AcDbEllipse
 10
119.5764505212
 20
67.5648870009
 30
0.0
 11
0.0653756970743018
 21
0.0
 31
0.0
210
0.0
220
0.0
230
1.0
 40
0.9531667975
 41
4.712388980384703
 42
6.626209245739544
  0
LINE
  5
101
330
1F
100
AcDbEntity
  8
0
  6
Continuous
 62
     7
370
    25
100
AcDbLine
 10
119.5764503351
 20
67.5025730192
 30
0.0
 11
119.108230239
 21
67.5025730192
 31
0.0
  0
LINE
  5
102
330
1F
100
AcDbEntity
  8
0
  6
Continuous
 62
     7
370
    25
100
AcDbLine
 10
119.0466632975
 20
67.5858453646
 30
0.0
 11
119.2807735784
 21
68.2106540802
 31
0.0
  0
ELLIPSE
  5
103
330
1F
100
AcDbEntity
  8
0
  6
Continuous
 62
     7
370
    25
100
AcDbEllipse
 10
119.1082304208
 20
67.5648870009
 30
0.0
 11
-0.06537569707431601
 21
0.0
 31
0.0
210
0.0
220
0.0
230
1.0
 40
0.9531667975
 41
5.94016136489583
 42
7.853981633974483
  0
LINE
  5
104
330
1F
100
AcDbEntity
  8
0
  6
Continuous
 62
     7
370
    25
100
AcDbLine
 10
121.5651141388
 20
67.2533173378
 30
0.0
 11
121.5330049304
 21
67.2349681876
 31
0.0
  0
LWPOLYLINE
  5
105
330
1F
100
AcDbEntity
  8
0
  6
Continuous
 62
     7
370
    25
100
AcDbPolyline
 90
        9
 70
   128
 43
0.0
 10
121.4089648707
 20
67.4520259521
 10
121.4331638908
 20
67.4096801117
 10
121.4564329853
 20
67.3689615245
 10
121.4778780846
 20
67.3314350455
 10
121.4966745025
 20
67.2985428277
 10
121.5121004639
 20
67.2715489085
 10
121.5235627165
 20
67.2514905486
 10
121.530621676
 20
67.2391388829
 10
121.5330049304
 20
67.2349681876
  0
ARC
  5
106
330
1F
100
AcDbEntity
  8
0
  6
Continuous
 62
     7
370
    25
100
AcDbCircle
 10
122.4272624722
 20
64.7436423603
 30
0.0
 40
0.25
100
AcDbArc
 50
270.0
 51
0.0
  0
LINE
  5
107
330
1F
100
AcDbEntity
  8
0
  6
Continuous
 62
     7
370
    25
100
AcDbLine
 10
122.4272622636
 20
64.7436423491
 30
0.0
 11
122.4272622636
 21
64.4936423081
 31
0.0
  0
LINE
  5
108
330
1F
100
AcDbEntity
  8
0
  6
Continuous
 62
     7
370
    25
100
AcDbLine
 10
117.1593315808
 20
67.2314342841
 30
0.0
 11
117.1195667844
 21
67.2533173378
 31
0.0
  0
LINE
  5
109
330
1F
100
AcDbEntity
  8
0
  6
Continuous
 62
     7
370
    25
100
AcDbLine
 10
122.4272622636
 20
64.4936423081
 30
0.0
 11
111.1772622822
 21
64.4936423081
 31
0.0
  0
LINE
  5
10A
330
1F
100
AcDbEntity
  8
0
  6
Continuous
 62
     7
370
    25
100
AcDbLine
 10
111.1772622822
 20
64.7436423491
 30
0.0
 11
111.1772622822
 21
64.4936423081
 31
0.0
  0
ARC
  5
10B
330
1F
100
AcDbEntity
  8
0
  6
Continuous
 62
     7
370
    25
100
AcDbCircle
 10
122.4272624722
 20
76.2436423603
 30
0.0
 40
0.25
100
AcDbArc
 50
0.0
 51
90.0
  0
LINE
  5
10C
330
1F
100
AcDbEntity
  8
0
  6
Continuous
 62
     7
370
    25
100
AcDbLine
 10
122.4272622636
 20
76.4936424124
 30
0.0
 11
122.4272622636
 21
76.2436423715
 31
0.0
  0
SPLINE
  5
10D
330
1F
100
AcDbEntity
  8
0
  6
Continuous
 62
     7
370
    25
100
AcDbSpline
210
0.0
220
0.0
230
1.0
 70
     8
 71
     3
 72
    20
 73
    16
 74
     0
 42
0.000000001
 43
0.00000001
 40
0.0
 40
0.0
 40
0.0
 40
0.0
 40
0.2500000000000003
 40
0.2500000000000003
 40
0.3750000000000002
 40
0.3750000000000002
 40
0.5000000000000002
 40
0.5000000000000002
 40
0.6250000000000002
 40
0.6250000000000002
 40
0.7500000000000001
 40
0.7500000000000001
 40
0.8750000000000001
 40
0.8750000000000001
 40
1.0
 40
1.0
 40
1.0
 40
1.0
 10
117.83645684545
 20
66.06535315004447
 30
0.0
 10
118.0433120618278
 20
66.24895798709737
 30
0.0
 10
118.2796617884758
 20
66.38939408692193
 30
0.0
 10
118.6665441117356
 20
66.53359867093029
 30
0.0
 10
118.798252900269
 20
66.56948785885034
 30
0.0
 10
119.0669612827937
 20
66.61781775418065
 30
0.0
 10
119.2053429837858
 20
66.63018271076368
 30
0.0
 10
119.4795026315222
 20
66.63017297357904
 30
0.0
 10
119.6152722990379
 20
66.61811404332654
 30
0.0
 10
119.8842066206183
 20
66.5700288199186
 30
0.0
 10
120.0185394236966
 20
66.53342028129816
 30
0.0
 10
120.27482903362
 20
66.43794873918965
 30
0.0
 10
120.397650601173
 20
66.37916115999955
 30
0.0
 10
120.6324319159721
 20
66.23903529707172
 30
0.0
 10
120.7448066656037
 20
66.15714653497929
 30
0.0
 10
120.8482240962528
 20
66.06535315004444
 30
0.0
  0
LWPOLYLINE
  5
10E
330
1F
100
AcDbEntity
  8
0
  6
Continuous
 62
     7
370
    25
100
AcDbPolyline
 90
        9
 70
   128
 43
0.0
 10
120.8482239304
 20
66.0653529953
 10
120.8450350819
 20
66.0617604184
 10
120.835591471
 20
66.0511209893
 10
120.8202553822
 20
66.0338426273
 10
120.7996168083
 20
66.0105902966
 10
120.7744683048
 20
65.9822571355
 10
120.7457765846
 20
65.949932326
 10
120.7146443335
 20
65.9148577865
 10
120.6822678356
 20
65.8783811409
  0
LINE
  5
10F
330
1F
100
AcDbEntity
  8
0
  6
Continuous
 62
     7
370
    25
100
AcDbLine
 10
122.1772626883
 20
76.4936424124
 30
0.0
 11
122.4272622636
 21
76.4936424124
 31
0.0
  0
SPLINE
  5
110
330
1F
100
AcDbEntity
  8
0
  6
Continuous
 62
     7
370
    25
100
AcDbSpline
210
0.0
220
0.0
230
1.0
 70
     8
 71
     3
 72
    10
 73
     6
 74
     0
 42
0.000000001
 43
0.00000001
 40
0.0
 40
0.0
 40
0.0
 40
0.0
 40
0.5
 40
0.5
 40
1.0
 40
1.0
 40
1.0
 40
1.0
 10
121.5330048943888
 20
67.23496810374948
 30
0.0
 10
121.3985703467969
 20
67.15814409268955
 30
0.0
 10
121.2329049796353
 20
67.1438946022041
 30
0.0
 10
120.9441255379253
 20
67.24198065724836
 30
0.0
 10
120.8212427494845
 20
67.355719851566
 30
0.0
 10
120.769042821071
 20
67.50166855145248
 30
0.0
  0
SPLINE
  5
111
330
1F
100
AcDbEntity
  8
0
  6
Continuous
 62
     7
370
    25
100
AcDbSpline
210
0.0
220
0.0
230
1.0
 70
     8
 71
     3
 72
    23
 73
    19
 74
     0
 42
0.000000001
 43
0.00000001
 40
0.0
 40
0.0
 40
0.0
 40
0.0
 40
0.0000221251499261
 40
0.0000221251499261
 40
0.0000221251499261
 40
0.0000448428854419
 40
0.0000448428854419
 40
0.0000448428854419
 40
0.000067774629955
 40
0.000067774629955
 40
0.000067774629955
 40
0.0000902663208602
 40
0.0000902663208602
 40
0.0000902663208602
 40
0.000111841557339
 40
0.000111841557339
 40
0.000111841557339
 40
0.0001193253350659
 40
0.0001193253350659
 40
0.0001193253350659
 40
0.0001193253350659
 10
120.8482240962528
 20
66.06535315004444
 30
0.0
 10
120.8537398040078
 20
66.06045740392149
 30
0.0
 10
120.860193438303
 20
66.05647152973044
 30
0.0
 10
120.8670206505614
 20
66.05368216870723
 30
0.0
 10
120.8740300195219
 20
66.0508183848031
 30
0.0
 10
120.8816296517059
 20
66.0491320681735
 30
0.0
 10
120.8891911178014
 20
66.04873616166887
 30
0.0
 10
120.8968225488891
 20
66.04833659190699
 30
0.0
 10
120.9046287520938
 20
66.04924012148989
 30
0.0
 10
120.9119630849623
 20
66.05138627102205
 30
0.0
 10
120.9191569987741
 20
66.05349133156926
 30
0.0
 10
120.9260965236296
 20
66.05685288285189
 30
0.0
 10
120.9321796037874
 20
66.06123235903429
 30
0.0
 10
120.9380166352706
 20
66.06543469398524
 30
0.0
 10
120.9432239118561
 20
66.07069331758748
 30
0.0
 10
120.9473214792388
 20
66.07660436632013
 30
0.0
 10
120.9487612953666
 20
66.07868140923416
 30
0.0
 10
120.9500766583022
 20
66.0808506083975
 30
0.0
 10
120.9512506673289
 20
66.08308866124618
 30
0.0
  0
ARC
  5
112
330
1F
100
AcDbEntity
  8
0
  6
Continuous
 62
     7
370
    25
100
AcDbCircle
 10
111.1772624722
 20
66.4936423603
 30
0.0
 40
2.0
100
AcDbArc
 50
180.0
 51
270.0
  0
ARC
  5
113
330
1F
100
AcDbEntity
  8
0
  6
Continuous
 62
     7
370
    25
100
AcDbCircle
 10
120.9564978242
 20
78.2204554083
 30
0.0
 40
0.228689614909265
100
AcDbArc
 50
174.1807852453
 51
262.6552938174
  0
ARC
  5
114
330
1F
100
AcDbEntity
  8
0
  6
Continuous
 62
     7
370
    25
100
AcDbCircle
 10
122.9040755202
 20
64.7144070083
 30
0.0
 40
0.2286896149092581
100
AcDbArc
 50
84.1807852453
 51
172.6552938174
  0
ARC
  5
115
330
1F
100
AcDbEntity
  8
0
  6
Continuous
 62
     7
370
    25
100
AcDbCircle
 10
109.3980271202
 20
78.2204554083
 30
0.0
 40
0.2286896149092708
100
AcDbArc
 50
277.3447061826
 51
5.8192147547
  0
ARC
  5
116
330
1F
100
AcDbEntity
  8
0
  6
Continuous
 62
     7
370
    25
100
AcDbCircle
 10
122.9040755202
 20
76.2728777123
 30
0.0
 40
0.2286896149092723
100
AcDbArc
 50
187.3447061826
 51
275.8192147547
  0
LINE
  5
117
330
1F
100
AcDbEntity
  8
0
  6
Continuous
 62
     7
370
    25
100
AcDbLine
 10
121.2117452083
 20
77.7436421517
 30
0.0
 11
121.1772625243
 21
77.7436421517
 31
0.0
  0
LINE
  5
118
330
1F
100
AcDbEntity
  8
0
  6
Continuous
 62
     7
370
    25
100
AcDbLine
 10
122.4272622636
 20
64.4936423081
 30
0.0
 11
122.4272622636
 21
64.4591596242
 31
0.0
  0
LINE
  5
119
330
1F
100
AcDbEntity
  8
0
  6
Continuous
 62
     7
370
    25
100
AcDbLine
 10
109.142779736
 20
77.7436421517
 30
0.0
 11
109.17726242
 21
77.7436421517
 31
0.0
  0
LINE
  5
11A
330
1F
100
AcDbEntity
  8
0
  6
Continuous
 62
     7
370
    25
100
AcDbLine
 10
122.4272622636
 20
76.4936424124
 30
0.0
 11
122.4272622636
 21
76.5281250964
 31
0.0
  0
LWPOLYLINE
  5
11B
330
1F
100
AcDbEntity
  8
0
  6
Continuous
 62
     7
370
    25
100
AcDbPolyline
 90
        9
 70
   128
 43
0.0
 10
110.9134521244
 20
64.5111176449
 10
110.9096811993
 20
64.5110207874
 10
110.9057715071
 20
64.5097481351
 10
110.9017416744
 20
64.5073057416
 10
110.8976112587
 20
64.5037047829
 10
110.8933988867
 20
64.498962954
 10
110.8891255131
 20
64.493102141
 10
110.8848111613
 20
64.4861507493
 10
110.8804758547
 20
64.4781413752
  0
SPLINE
  5
11C
330
1F
100
AcDbEntity
  8
0
  6
Continuous
 62
     7
370
    25
100
AcDbSpline
210
0.0
220
0.0
230
1.0
 70
     8
 71
     3
 72
    14
 73
    10
 74
     0
 42
0.000000001
 43
0.00000001
 40
0.0
 40
0.0
 40
0.0
 40
0.0
 40
0.25
 40
0.25
 40
0.5
 40
0.5
 40
0.75
 40
0.75
 40
1.0
 40
1.0
 40
1.0
 40
1.0
 10
110.880476062528
 20
64.47814138677505
 30
0.0
 10
110.6646167904303
 20
64.50459232369144
 30
0.0
 10
110.4567852960381
 20
64.5649781695468
 30
0.0
 10
110.0593819051274
 20
64.7572587348274
 30
0.0
 10
109.8808990972471
 20
64.88382652673788
 30
0.0
 10
109.5670832844119
 20
65.19773497120948
 30
0.0
 10
109.4401518603203
 20
65.37701728197445
 30
0.0
 10
109.2484849978094
 20
65.77364744125596
 30
0.0
 10
109.1882112479038
 20
65.98100637087589
 30
0.0
 10
109.1617614986658
 20
66.19685595063733
 30
0.0
  0
LWPOLYLINE
  5
11D
330
1F
100
AcDbEntity
  8
0
  6
Continuous
 62
     7
370
    25
100
AcDbPolyline
 90
        9
 70
   128
 43
0.0
 10
109.1947377568
 20
66.2298320125
 10
109.1946408993
 20
66.2260610874
 10
109.193368247
 20
66.2221513953
 10
109.1909258535
 20
66.2181215625
 10
109.1873248948
 20
66.2139911469
 10
109.1825830659
 20
66.2097787749
 10
109.1767222529
 20
66.2055054012
 10
109.1697708612
 20
66.2011910494
 10
109.1617614871
 20
66.1968557428
  0
LINE
  5
11E
330
1F
100
AcDbEntity
  8
0
  6
Continuous
 62
     7
370
    25
100
AcDbLine
 10
111.1772622822
 20
64.4936423081
 30
0.0
 11
111.1772622822
 21
64.4591596242
 31
0.0
  0
LINE
  5
11F
330
1F
100
AcDbEntity
  8
0
  6
Continuous
 62
     7
370
    25
100
AcDbLine
 10
109.142779736
 20
66.4936421703
 30
0.0
 11
109.17726242
 21
66.4936421703
 31
0.0
  0
SPLINE
  5
120
330
1F
100
AcDbEntity
  8
0
  6
Continuous
 62
     7
370
    25
100
AcDbSpline
210
0.0
220
0.0
230
1.0
 70
    24
 71
     3
 72
     9
 73
     5
 74
     0
 42
0.000000001
 43
0.00000001
 40
0.0
 40
0.0
 40
0.0
 40
0.0
 40
0.6406192973172163
 40
1.0
 40
1.0
 40
1.0
 40
1.0
 10
121.5455489141954
 20
76.86192880230466
 30
0.0
 10
121.5213206665485
 20
76.8377005546578
 30
0.0
 10
121.4835006262401
 20
76.79988051434941
 30
0.0
 10
121.4768412682962
 20
76.79322115640551
 30
0.0
 10
121.4744480235589
 20
76.79082791166822
 30
0.0
  0
LINE
  5
121
330
1F
100
AcDbEntity
  8
0
  6
Continuous
 62
     7
370
    25
100
AcDbLine
 10
121.2117452083
 20
77.4936425764
 30
0.0
 11
121.1772625243
 21
77.4936425764
 31
0.0
  0
LINE
  5
122
330
1F
100
AcDbEntity
  8
0
  6
Continuous
 62
     7
370
    25
100
AcDbLine
 10
122.1772626883
 20
76.4936424124
 30
0.0
 11
122.1772626883
 21
76.5281250964
 31
0.0
  0
LINE
  5
123
330
1F
100
AcDbEntity
  8
0
  6
Continuous
 62
     8
370
    25
100
AcDbLine
 10
128.1772627404
 20
79.4936419729
 30
0.0
 11
128.1772627404
 21
61.4936427477
 31
0.0
  0
LINE
  5
124
330
1F
100
AcDbEntity
  8
0
  6
Continuous
 62
     8
370
    25
100
AcDbLine
 10
106.1772628596
 20
83.4936426285
 30
0.0
 11
124.1772620848
 21
83.4936426285
 31
0.0
  0
LINE
  5
125
330
1F
100
AcDbEntity
  8
0
  6
Continuous
 62
     8
370
    25
100
AcDbLine
 10
126.1772624126
 20
63.4936421442
 30
0.0
 11
126.1772624126
 21
77.4936425764
 31
0.0
  0
LINE
  5
126
330
1F
100
AcDbEntity
  8
0
  6
Continuous
 62
     8
370
    25
100
AcDbLine
 10
122.1772626883
 20
81.4936423007
 30
0.0
 11
108.1772622561
 21
81.4936423007
 31
0.0
  0
LWPOLYLINE
  5
127
330
1F
100
AcDbEntity
  8
0
  6
Continuous
 62
     8
370
    25
100
AcDbPolyline
 90
        9
 70
   128
 43
0.0
 10
108.1772622561
 20
65.4936424721
 10
108.1930141805
 20
65.5048933144
 10
108.2401982417
 20
65.5385964814
 10
108.3186020983
 20
65.5945992361
 10
108.4278732447
 20
65.6726501215
 10
108.5675199425
 20
65.7723975632
 10
108.736913549
 20
65.8933931294
 10
108.9352917766
 20
66.0350915309
 10
109.1617614871
 20
66.1968557428
  0
LWPOLYLINE
  5
128
330
1F
100
AcDbEntity
  8
0
  6
Continuous
 62
     8
370
    25
100
AcDbPolyline
 90
        9
 70
   128
 43
0.0
 10
110.8804758547
 20
64.4781413752
 10
110.7187116427
 20
64.2516716647
 10
110.5770132413
 20
64.0532934371
 10
110.4560176751
 20
63.8838998306
 10
110.3562702334
 20
63.7442531328
 10
110.278219348
 20
63.6349819865
 10
110.2222165933
 20
63.5565781299
 10
110.1885134263
 20
63.5093940686
 10
110.1772625839
 20
63.4936421442
  0
LINE
  5
129
330
1F
100
AcDbEntity
  8
0
  6
CENTERX2
 62
     7
370
    18
100
AcDbLine
 10
115.1772624722
 20
62.4229730806
 30
0.0
 11
115.1772624722
 21
97.4936423603
 31
0.0
  0
LINE
  5
12A
330
1F
100
AcDbEntity
  8
0
  6
CENTERX2
 62
     7
370
    18
100
AcDbLine
 10
106.3553180244
 20
70.4936423603
 30
0.0
 11
142.1772624722
 21
70.4936423603
 31
0.0
  0
LINE
  5
12B
330
1F
100
AcDbEntity
  8
0
  6
Continuous
 62
     7
370
    25
100
AcDbLine
 10
158.8873547141
 20
94.9936417195
 30
0.0
 11
158.8873547141
 21
83.4936426285
 31
0.0
  0
LINE
  5
12C
330
1F
100
AcDbEntity
  8
0
  6
Continuous
 62
     7
370
    25
100
AcDbLine
 10
176.8873539392
 20
83.4936426285
 30
0.0
 11
176.8873539392
 21
94.9936417195
 31
0.0
  0
ARC
  5
12D
330
1F
100
AcDbEntity
  8
0
  6
Continuous
 62
     7
370
    25
100
AcDbCircle
 10
159.8873543267
 20
83.4936423603
 30
0.0
 40
1.0
100
AcDbArc
 50
180.0
 51
270.0
  0
ARC
  5
12E
330
1F
100
AcDbEntity
  8
0
  6
Continuous
 62
     7
370
    25
100
AcDbCircle
 10
175.8873543267
 20
83.4936423603
 30
0.0
 40
1.0
100
AcDbArc
 50
270.0
 51
0.0
  0
LINE
  5
12F
330
1F
100
AcDbEntity
  8
0
  6
Continuous
 62
     7
370
    25
100
AcDbLine
 10
176.8873539392
 20
94.9936417195
 30
0.0
 11
176.3873547886
 21
95.4936427328
 31
0.0
  0
LINE
  5
130
330
1F
100
AcDbEntity
  8
0
  6
Continuous
 62
     7
370
    25
100
AcDbLine
 10
159.3873538647
 20
95.4936427328
 30
0.0
 11
158.8873547141
 21
94.9936417195
 31
0.0
  0
ARC
  5
131
330
1F
100
AcDbEntity
  8
0
  6
Continuous
 62
     7
370
    25
100
AcDbCircle
 10
159.8873543267
 20
81.4936423603
 30
0.0
 40
1.0
100
AcDbArc
 50
0.0
 51
90.0
  0
ARC
  5
132
330
1F
100
AcDbEntity
  8
0
  6
Continuous
 62
     7
370
    25
100
AcDbCircle
 10
175.8873543267
 20
81.4936423603
 30
0.0
 40
1.0
100
AcDbArc
 50
90.0
 51
180.0
  0
LINE
  5
133
330
1F
100
AcDbEntity
  8
0
  6
Continuous
 62
     7
370
    25
100
AcDbLine
 10
174.8873545427
 20
78.2436422336
 30
0.0
 11
174.8873545427
 21
81.4936423007
 31
0.0
  0
LINE
  5
134
330
1F
100
AcDbEntity
  8
0
  6
Continuous
 62
     7
370
    25
100
AcDbLine
 10
160.8873541106
 20
81.4936423007
 30
0.0
 11
160.8873541106
 21
78.2436422336
 31
0.0
  0
SPLINE
  5
135
330
1F
100
AcDbEntity
  8
0
  6
Continuous
 62
     7
370
    25
100
AcDbSpline
210
0.0
220
0.0
230
1.0
 70
     8
 71
     3
 72
    16
 73
    12
 74
     0
 42
0.000000001
 43
0.00000001
 40
0.0
 40
0.0
 40
0.0
 40
0.0
 40
0.7221229069155195
 40
0.9390266461983071
 40
0.9870920850039897
 40
0.9916400445717392
 40
0.9930292243381138
 40
0.9935063600177917
 40
0.994757573876845
 40
0.9994756227886644
 40
1.0
 40
1.0
 40
1.0
 40
1.0
 10
160.8896609966191
 20
78.1184091496698
 30
0.0
 10
160.8894318751842
 20
78.11163132568358
 30
0.0
 10
160.8891339326448
 20
78.10281764969386
 30
0.0
 10
160.8889607099296
 20
78.09440273467447
 30
0.0
 10
160.8888911350451
 20
78.09153776565633
 30
0.0
 10
160.888888298657
 20
78.09120153333109
 30
0.0
 10
160.8888851432192
 20
78.09109141878925
 30
0.0
 10
160.8888865522462
 20
78.09112916140649
 30
0.0
 10
160.8888862284417
 20
78.09117196640197
 30
0.0
 10
160.8888908372841
 20
78.0913285523315
 30
0.0
 10
160.888889103616
 20
78.09127442680406
 30
0.0
 10
160.8888889302047
 20
78.09126901286164
 30
0.0
  0
CIRCLE
  5
136
330
1F
100
AcDbEntity
  8
0
  6
Continuous
 62
     7
370
    25
100
AcDbCircle
 10
167.8873543267
 20
70.4936423603
 30
0.0
 40
7.500000000000007
  0
CIRCLE
  5
137
330
1F
100
AcDbEntity
  8
0
  6
Continuous
 62
     7
370
    25
100
AcDbCircle
 10
167.8873543267
 20
70.4936423603
 30
0.0
 40
7.600000000000009
  0
CIRCLE
  5
138
330
1F
100
AcDbEntity
  8
0
  6
Continuous
 62
     7
370
    25
100
AcDbCircle
 10
167.8873543267
 20
70.4936423603
 30
0.0
 40
8.499999999999986
  0
CIRCLE
  5
139
330
1F
100
AcDbEntity
  8
0
  6
Continuous
 62
     7
370
    25
100
AcDbCircle
 10
167.8873543267
 20
70.4936423603
 30
0.0
 40
9.0
  0
CIRCLE
  5
13A
330
1F
100
AcDbEntity
  8
0
  6
Continuous
 62
     7
370
    25
100
AcDbCircle
 10
167.8873543267
 20
70.4936423603
 30
0.0
 40
7.399999999999999
  0
CIRCLE
  5
13B
330
1F
100
AcDbEntity
  8
0
  6
Continuous
 62
     7
370
    25
100
AcDbCircle
 10
167.8873543267
 20
70.4936423603
 30
0.0
 40
6.75
  0
CIRCLE
  5
13C
330
1F
100
AcDbEntity
  8
0
  6
Continuous
 62
     7
370
    25
100
AcDbCircle
 10
167.8873543267
 20
70.4936423603
 30
0.0
 40
6.116633130021768
  0
CIRCLE
  5
13D
330
1F
100
AcDbEntity
  8
0
  6
Continuous
 62
     7
370
    25
100
AcDbCircle
 10
167.8873543267
 20
70.4936423603
 30
0.0
 40
5.810617330388084
  0
CIRCLE
  5
13E
330
1F
100
AcDbEntity
  8
0
  6
Continuous
 62
     7
370
    25
100
AcDbCircle
 10
167.8873543267
 20
70.4936423603
 30
0.0
 40
5.349999999999994
  0
CIRCLE
  5
13F
330
1F
100
AcDbEntity
  8
0
  6
Continuous
 62
     7
370
    25
100
AcDbCircle
 10
167.8873543267
 20
70.4936423603
 30
0.0
 40
4.0
  0
LINE
  5
140
330
1F
100
AcDbEntity
  8
0
  6
Continuous
 62
     7
370
    25
100
AcDbLine
 10
167.8873543267
 20
94.9936417195
 30
0.0
 11
158.8873547141
 21
94.9936417195
 31
0.0
  0
LINE
  5
141
330
1F
100
AcDbEntity
  8
0
  6
Continuous
 62
     7
370
    25
100
AcDbLine
 10
176.8873539392
 20
94.9936417195
 30
0.0
 11
167.8873543267
 21
94.9936417195
 31
0.0
  0
LINE
  5
142
330
1F
100
AcDbEntity
  8
0
  6
Continuous
 62
     7
370
    25
100
AcDbLine
 10
167.8873543267
 20
82.4936424646
 30
0.0
 11
175.8873547066
 21
82.4936424646
 31
0.0
  0
LINE
  5
143
330
1F
100
AcDbEntity
  8
0
  6
Continuous
 62
     7
370
    25
100
AcDbLine
 10
159.8873539467
 20
82.4936424646
 30
0.0
 11
167.8873543267
 21
82.4936424646
 31
0.0
  0
LINE
  5
144
330
1F
100
AcDbEntity
  8
0
  6
Continuous
 62
     7
370
    25
100
AcDbLine
 10
167.8873543267
 20
95.4936427328
 30
0.0
 11
176.3873547886
 21
95.4936427328
 31
0.0
  0
LINE
  5
145
330
1F
100
AcDbEntity
  8
0
  6
Continuous
 62
     7
370
    25
100
AcDbLine
 10
159.3873538647
 20
95.4936427328
 30
0.0
 11
167.8873543267
 21
95.4936427328
 31
0.0
  0
LINE
  5
146
330
1F
100
AcDbEntity
  8
0
  6
Continuous
 62
     7
370
    25
100
AcDbLine
 10
174.8873545427
 20
64.8367881108
 30
0.0
 11
174.8873545427
 21
64.7436423491
 31
0.0
  0
LINE
  5
147
330
1F
100
AcDbEntity
  8
0
  6
Continuous
 62
     7
370
    25
100
AcDbLine
 10
174.8873545427
 20
76.2436423715
 30
0.0
 11
174.8873545427
 21
76.1504966098
 31
0.0
  0
LINE
  5
148
330
1F
100
AcDbEntity
  8
0
  6
Continuous
 62
     7
370
    25
100
AcDbLine
 10
160.8873541106
 20
76.1504966098
 30
0.0
 11
160.8873541106
 21
76.2436423715
 31
0.0
  0
LINE
  5
149
330
1F
100
AcDbEntity
  8
0
  6
Continuous
 62
     7
370
    25
100
AcDbLine
 10
160.8873541106
 20
64.7436423491
 30
0.0
 11
160.8873541106
 21
64.8367881108
 31
0.0
  0
ARC
  5
14A
330
1F
100
AcDbEntity
  8
0
  6
Continuous
 62
     7
370
    25
100
AcDbCircle
 10
174.6373543267
 20
64.7436423603
 30
0.0
 40
0.25
100
AcDbArc
 50
270.0
 51
0.0
  0
LINE
  5
14B
330
1F
100
AcDbEntity
  8
0
  6
Continuous
 62
     7
370
    25
100
AcDbLine
 10
174.5955581416
 20
76.4936424124
 30
0.0
 11
174.6373545018
 21
76.4936424124
 31
0.0
  0
LINE
  5
14C
330
1F
100
AcDbEntity
  8
0
  6
Continuous
 62
     7
370
    25
100
AcDbLine
 10
161.1373541516
 20
76.4936424124
 30
0.0
 11
161.1791505117
 21
76.4936424124
 31
0.0
  0
ARC
  5
14D
330
1F
100
AcDbEntity
  8
0
  6
Continuous
 62
     7
370
    25
100
AcDbCircle
 10
161.1373543267
 20
76.2436423603
 30
0.0
 40
0.25
100
AcDbArc
 50
90.0
 51
180.0
  0
ARC
  5
14E
330
1F
100
AcDbEntity
  8
0
  6
Continuous
 62
     7
370
    25
100
AcDbCircle
 10
174.6373543267
 20
76.2436423603
 30
0.0
 40
0.25
100
AcDbArc
 50
0.0
 51
90.0
  0
LINE
  5
14F
330
1F
100
AcDbEntity
  8
0
  6
Continuous
 62
     7
370
    25
100
AcDbLine
 10
161.1791505117
 20
64.4936423081
 30
0.0
 11
161.1373541516
 21
64.4936423081
 31
0.0
  0
LINE
  5
150
330
1F
100
AcDbEntity
  8
0
  6
Continuous
 62
     7
370
    25
100
AcDbLine
 10
174.6373545018
 20
64.4936423081
 30
0.0
 11
174.5955581416
 21
64.4936423081
 31
0.0
  0
ARC
  5
151
330
1F
100
AcDbEntity
  8
0
  6
Continuous
 62
     7
370
    25
100
AcDbCircle
 10
161.1373543267
 20
64.7436423603
 30
0.0
 40
0.25
100
AcDbArc
 50
180.0
 51
270.0
  0
LINE
  5
152
330
1F
100
AcDbEntity
  8
0
  6
Continuous
 62
     7
370
    25
100
AcDbLine
 10
161.1373541516
 20
77.4936425764
 30
0.0
 11
161.1373541516
 21
76.4936424124
 31
0.0
  0
LINE
  5
153
330
1F
100
AcDbEntity
  8
0
  6
Continuous
 62
     7
370
    25
100
AcDbLine
 10
161.1373541516
 20
77.4936425764
 30
0.0
 11
160.8873541106
 21
77.4936425764
 31
0.0
  0
LINE
  5
154
330
1F
100
AcDbEntity
  8
0
  6
Continuous
 62
     7
370
    25
100
AcDbLine
 10
160.8873541106
 20
76.2436423715
 30
0.0
 11
160.8873541106
 21
77.4936425764
 31
0.0
  0
LINE
  5
155
330
1F
100
AcDbEntity
  8
0
  6
Continuous
 62
     7
370
    25
100
AcDbLine
 10
174.6373545018
 20
76.4936424124
 30
0.0
 11
174.6373545018
 21
77.4936425764
 31
0.0
  0
LINE
  5
156
330
1F
100
AcDbEntity
  8
0
  6
Continuous
 62
     7
370
    25
100
AcDbLine
 10
174.6373545018
 20
77.4936425764
 30
0.0
 11
174.8873545427
 21
77.4936425764
 31
0.0
  0
LINE
  5
157
330
1F
100
AcDbEntity
  8
0
  6
Continuous
 62
     7
370
    25
100
AcDbLine
 10
174.8873545427
 20
77.4936425764
 30
0.0
 11
174.8873545427
 21
76.2436423715
 31
0.0
  0
SPLINE
  5
158
330
1F
100
AcDbEntity
  8
0
  6
Continuous
 62
     7
370
    25
100
AcDbSpline
210
0.0
220
0.0
230
1.0
 70
    24
 71
     3
 72
    14
 73
    10
 74
     0
 42
0.000000001
 43
0.00000001
 40
0.0
 40
0.0
 40
0.0
 40
0.0
 40
0.25
 40
0.25
 40
0.5
 40
0.5
 40
0.75
 40
0.75
 40
1.0
 40
1.0
 40
1.0
 40
1.0
 10
174.8873543266686
 20
78.24364236029308
 30
0.0
 10
174.8873543266686
 20
78.24364236029308
 30
0.0
 10
174.8774296367432
 20
78.24364236029308
 30
0.0
 10
174.8376349340805
 20
78.24364236029308
 30
0.0
 10
174.8077645888588
 20
78.24364236029308
 30
0.0
 10
174.7277950489269
 20
78.24364236029308
 30
0.0
 10
174.677695168491
 20
78.24364236029308
 30
0.0
 10
174.5568106195032
 20
78.24364236029308
 30
0.0
 10
174.4860248709145
 20
78.24364236029308
 30
0.0
 10
174.4045957059789
 20
78.24364236029308
 30
0.0
  0
SPLINE
  5
159
330
1F
100
AcDbEntity
  8
0
  6
Continuous
 62
     7
370
    25
100
AcDbSpline
210
0.0
220
0.0
230
1.0
 70
    24
 71
     3
 72
    14
 73
    10
 74
     0
 42
0.000000001
 43
0.00000001
 40
0.0
 40
0.0
 40
0.0
 40
0.0
 40
0.25
 40
0.25
 40
0.5
 40
0.5
 40
0.75
 40
0.75
 40
1.0
 40
1.0
 40
1.0
 40
1.0
 10
160.8873543266686
 20
78.24364236029308
 30
0.0
 10
160.8873543266686
 20
78.24364236029308
 30
0.0
 10
160.897279016594
 20
78.24364236029308
 30
0.0
 10
160.9370737192567
 20
78.24364236029308
 30
0.0
 10
160.9669440644783
 20
78.24364236029308
 30
0.0
 10
161.0469136044103
 20
78.24364236029308
 30
0.0
 10
161.0970134848461
 20
78.24364236029308
 30
0.0
 10
161.217898033834
 20
78.24364236029308
 30
0.0
 10
161.2886837824226
 20
78.24364236029308
 30
0.0
 10
161.3701129473582
 20
78.24364236029308
 30
0.0
  0
LINE
  5
15A
330
1F
100
AcDbEntity
  8
0
  6
Continuous
 62
     7
370
    25
100
AcDbLine
 10
174.6373545018
 20
77.4936425764
 30
0.0
 11
174.6373545018
 21
77.7436421517
 31
0.0
  0
LINE
  5
15B
330
1F
100
AcDbEntity
  8
0
  6
Continuous
 62
     7
370
    25
100
AcDbLine
 10
161.1373541516
 20
77.9936421927
 30
0.0
 11
161.1373541516
 21
77.7436421517
 31
0.0
  0
LINE
  5
15C
330
1F
100
AcDbEntity
  8
0
  6
Continuous
 62
     7
370
    25
100
AcDbLine
 10
160.8873541106
 20
77.7436421517
 30
0.0
 11
161.1373541516
 21
77.7436421517
 31
0.0
  0
ARC
  5
15D
330
1F
100
AcDbEntity
  8
0
  6
Continuous
 62
     7
370
    25
100
AcDbCircle
 10
161.1373543267
 20
77.7436423603
 30
0.0
 40
0.25
100
AcDbArc
 50
90.0
 51
180.0
  0
LINE
  5
15E
330
1F
100
AcDbEntity
  8
0
  6
Continuous
 62
     7
370
    25
100
AcDbLine
 10
174.6373545018
 20
77.7436421517
 30
0.0
 11
174.6373545018
 21
77.9936421927
 31
0.0
  0
ARC
  5
15F
330
1F
100
AcDbEntity
  8
0
  6
Continuous
 62
     7
370
    25
100
AcDbCircle
 10
174.6373543267
 20
77.7436423603
 30
0.0
 40
0.25
100
AcDbArc
 50
0.0
 51
90.0
  0
LINE
  5
160
330
1F
100
AcDbEntity
  8
0
  6
Continuous
 62
     7
370
    25
100
AcDbLine
 10
174.6373545018
 20
77.7436421517
 30
0.0
 11
174.8873545427
 21
77.7436421517
 31
0.0
  0
LINE
  5
161
330
1F
100
AcDbEntity
  8
0
  6
Continuous
 62
     7
370
    25
100
AcDbLine
 10
161.1373541516
 20
77.7436421517
 30
0.0
 11
161.1373541516
 21
77.4936425764
 31
0.0
  0
LINE
  5
162
330
1F
100
AcDbEntity
  8
0
  6
Continuous
 62
     7
370
    25
100
AcDbLine
 10
160.8873541106
 20
77.4936425764
 30
0.0
 11
160.8873541106
 21
77.7436421517
 31
0.0
  0
LINE
  5
163
330
1F
100
AcDbEntity
  8
0
  6
Continuous
 62
     7
370
    25
100
AcDbLine
 10
172.8622913931
 20
77.9936421927
 30
0.0
 11
174.6373545018
 21
77.9936421927
 31
0.0
  0
LINE
  5
164
330
1F
100
AcDbEntity
  8
0
  6
Continuous
 62
     7
370
    25
100
AcDbLine
 10
174.8873545427
 20
77.7436421517
 30
0.0
 11
174.8873545427
 21
77.4936425764
 31
0.0
  0
LINE
  5
165
330
1F
100
AcDbEntity
  8
0
  6
Continuous
 62
     7
370
    25
100
AcDbLine
 10
161.1373541516
 20
77.9936421927
 30
0.0
 11
162.9124172602
 21
77.9936421927
 31
0.0
  0
SPLINE
  5
166
330
1F
100
AcDbEntity
  8
0
  6
Continuous
 62
     7
370
    25
100
AcDbSpline
210
0.0
220
0.0
230
1.0
 70
     8
 71
     3
 72
    15
 73
    11
 74
     0
 42
0.000000001
 43
0.00000001
 40
0.0
 40
0.0
 40
0.0
 40
0.0
 40
0.0425877399909108
 40
0.1028282325346858
 40
0.1864706729280343
 40
0.2956205441869044
 40
0.4311891005861843
 40
0.5936297641565587
 40
0.7831876993469675
 40
1.0
 40
1.0
 40
1.0
 40
1.0
 10
174.6373543266686
 20
77.99364236029308
 30
0.0
 10
174.6366388250717
 20
77.99364815339521
 30
0.0
 10
174.6349112442094
 20
77.99366214085862
 30
0.0
 10
174.6250370651146
 20
77.99415384169035
 30
0.0
 10
174.6111433852923
 20
77.99578119564895
 30
0.0
 10
174.5916461274706
 20
77.99960634403303
 30
0.0
 10
174.5674412746213
 20
78.00697865407385
 30
0.0
 10
174.5390726179572
 20
78.01959664305065
 30
0.0
 10
174.5075334472136
 20
78.03884084525482
 30
0.0
 10
174.4879636546412
 20
78.05711159162509
 30
0.0
 10
174.4775225067011
 20
78.06685965436635
 30
0.0
  0
SPLINE
  5
167
330
1F
100
AcDbEntity
  8
0
  6
Continuous
 62
     7
370
    25
100
AcDbSpline
210
0.0
220
0.0
230
1.0
 70
     8
 71
     3
 72
     8
 73
     4
 74
     0
 42
0.000000001
 43
0.00000001
 40
0.0
 40
0.0
 40
0.0
 40
0.0
 40
1.0
 40
1.0
 40
1.0
 40
1.0
 10
174.4775225067011
 20
78.06685965436635
 30
0.0
 10
174.4328209430797
 20
78.11314011484869
 30
0.0
 10
174.4061656086757
 20
78.17818967985691
 30
0.0
 10
174.4045957059789
 20
78.24364236029308
 30
0.0
  0
SPLINE
  5
168
330
1F
100
AcDbEntity
  8
0
  6
Continuous
 62
     7
370
    25
100
AcDbSpline
210
0.0
220
0.0
230
1.0
 70
     8
 71
     3
 72
     8
 73
     4
 74
     0
 42
0.000000001
 43
0.00000001
 40
0.0
 40
0.0
 40
0.0
 40
0.0
 40
1.0
 40
1.0
 40
1.0
 40
1.0
 10
161.3701129473582
 20
78.24364236029308
 30
0.0
 10
161.3685430446614
 20
78.17818967985691
 30
0.0
 10
161.3418877102575
 20
78.11314011484869
 30
0.0
 10
161.297186146636
 20
78.06685965436635
 30
0.0
  0
SPLINE
  5
169
330
1F
100
AcDbEntity
  8
0
  6
Continuous
 62
     7
370
    25
100
AcDbSpline
210
0.0
220
0.0
230
1.0
 70
     8
 71
     3
 72
    14
 73
    10
 74
     0
 42
0.000000001
 43
0.00000001
 40
0.0
 40
0.0
 40
0.0
 40
0.0
 40
0.2455893235675696
 40
0.4556181963142487
 40
0.6303106213393677
 40
0.7701164303669036
 40
0.8759901151610805
 40
0.9502659312389182
 40
1.0
 40
1.0
 40
1.0
 40
1.0
 10
161.297186146636
 20
78.06685965436635
 30
0.0
 10
161.2852952060968
 20
78.05589461505106
 30
0.0
 10
161.2632350904443
 20
78.0355522346789
 30
0.0
 10
161.2276713921241
 20
78.01540022220243
 30
0.0
 10
161.1968790835209
 20
78.00328066273157
 30
0.0
 10
161.171639500948
 20
77.99707483949918
 30
0.0
 10
161.1536572080132
 20
77.99445514052533
 30
0.0
 10
161.1407350445973
 20
77.9936749461803
 30
0.0
 10
161.1383220544913
 20
77.99365168797742
 30
0.0
 10
161.1373543266686
 20
77.99364236029308
 30
0.0
  0
SPLINE
  5
16A
330
1F
100
AcDbEntity
  8
0
  6
Continuous
 62
     7
370
    25
100
AcDbSpline
210
0.0
220
0.0
230
1.0
 70
     8
 71
     3
 72
    10
 73
     6
 74
     0
 42
0.000000001
 43
0.00000001
 40
0.0
 40
0.0
 40
0.0
 40
0.0
 40
0.5
 40
0.5
 40
1.0
 40
1.0
 40
1.0
 40
1.0
 10
171.760337672876
 20
69.49364236029307
 30
0.0
 10
171.7453057904862
 20
69.8229897539368
 30
0.0
 10
171.7357521005703
 20
70.15426312555326
 30
0.0
 10
171.7355512258874
 20
70.82174228783478
 30
0.0
 10
171.7451410978152
 20
71.16068656282309
 30
0.0
 10
171.760337672876
 20
71.49364236029307
 30
0.0
  0
LINE
  5
16B
330
1F
100
AcDbEntity
  8
0
  6
Continuous
 62
     7
370
    25
100
AcDbLine
 10
171.7603377171
 20
69.4936423128
 30
0.0
 11
164.0143709362
 21
69.4936423128
 31
0.0
  0
SPLINE
  5
16C
330
1F
100
AcDbEntity
  8
0
  6
Continuous
 62
     7
370
    25
100
AcDbSpline
210
0.0
220
0.0
230
1.0
 70
     8
 71
     3
 72
    10
 73
     6
 74
     0
 42
0.000000001
 43
0.00000001
 40
0.0
 40
0.0
 40
0.0
 40
0.0
 40
0.5
 40
0.5
 40
1.0
 40
1.0
 40
1.0
 40
1.0
 10
164.0143709804611
 20
71.49364236029307
 30
0.0
 10
164.0292884885963
 20
71.16680089782174
 30
0.0
 10
164.0389151932196
 20
70.83647315792489
 30
0.0
 10
164.0391971639375
 20
70.16658769357983
 30
0.0
 10
164.029550076453
 20
69.82621519269996
 30
0.0
 10
164.0143709804611
 20
69.49364236029307
 30
0.0
  0
SPLINE
  5
16D
330
1F
100
AcDbEntity
  8
0
  6
Continuous
 62
     7
370
    25
100
AcDbSpline
210
0.0
220
0.0
230
1.0
 70
     8
 71
     3
 72
    14
 73
    10
 74
     0
 42
0.000000001
 43
0.00000001
 40
0.0
 40
0.0
 40
0.0
 40
0.0
 40
0.25
 40
0.25
 40
0.5
 40
0.5
 40
0.75
 40
0.75
 40
1.0
 40
1.0
 40
1.0
 40
1.0
 10
174.8862447873865
 20
77.99536211794738
 30
0.0
 10
174.8862533947717
 20
78.00560421639645
 30
0.0
 10
174.8776622595869
 20
78.02028693085985
 30
0.0
 10
174.8413526600766
 20
78.05210932151772
 30
0.0
 10
174.8136341957512
 20
78.06924899771218
 30
0.0
 10
174.737142093959
 20
78.09956104153456
 30
0.0
 10
174.6926163578533
 20
78.1054308397241
 30
0.0
 10
174.5927472376571
 20
78.09933628564382
 30
0.0
 10
174.5374038535666
 20
78.08737193337397
 30
0.0
 10
174.4775225067011
 20
78.06685965436635
 30
0.0
  0
SPLINE
  5
16E
330
1F
100
AcDbEntity
  8
0
  6
Continuous
 62
     7
370
    25
100
AcDbSpline
210
0.0
220
0.0
230
1.0
 70
     8
 71
     3
 72
    12
 73
     8
 74
     0
 42
0.000000001
 43
0.00000001
 40
0.0
 40
0.0
 40
0.0
 40
0.0
 40
0.25
 40
0.25
 40
0.5
 40
0.5
 40
1.0
 40
1.0
 40
1.0
 40
1.0
 10
174.8862447873865
 20
77.99536211794738
 30
0.0
 10
174.8862361800013
 20
77.98512001949832
 30
0.0
 10
174.8776263696712
 20
77.97758080794499
 30
0.0
 10
174.8561452594009
 20
77.96325129232063
 30
0.0
 10
174.8432739594608
 20
77.95646098824963
 30
0.0
 10
174.8176791996456
 20
77.93022813779635
 30
0.0
 10
174.8140046564469
 20
77.92054542110805
 30
0.0
 10
174.8141310219667
 20
77.92041905558821
 30
0.0
  0
LINE
  5
16F
330
1F
100
AcDbEntity
  8
0
  6
Continuous
 62
     7
370
    25
100
AcDbLine
 10
174.8877093766
 20
77.8017762381
 30
0.0
 11
174.8880949442
 21
77.8649115268
 31
0.0
  0
SPLINE
  5
170
330
1F
100
AcDbEntity
  8
0
  6
Continuous
 62
     7
370
    25
100
AcDbSpline
210
0.0
220
0.0
230
1.0
 70
     8
 71
     3
 72
    12
 73
     8
 74
     0
 42
0.000000001
 43
0.00000001
 40
0.0
 40
0.0
 40
0.0
 40
0.0
 40
0.25
 40
0.25
 40
0.5
 40
0.5
 40
1.0
 40
1.0
 40
1.0
 40
1.0
 10
160.8884638659506
 20
77.99536211794738
 30
0.0
 10
160.8884724733358
 20
77.98512001949832
 30
0.0
 10
160.897082283666
 20
77.97758080794497
 30
0.0
 10
160.9185633939362
 20
77.96325129232063
 30
0.0
 10
160.9314346938763
 20
77.95646098824963
 30
0.0
 10
160.9570294536915
 20
77.93022813779635
 30
0.0
 10
160.9607039968903
 20
77.92054542110805
 30
0.0
 10
160.9605776313704
 20
77.92041905558821
 30
0.0
  0
LINE
  5
171
330
1F
100
AcDbEntity
  8
0
  6
Continuous
 62
     7
370
    25
100
AcDbLine
 10
160.8869992767
 20
77.8017762381
 30
0.0
 11
160.8866137092
 21
77.8649115268
 31
0.0
  0
SPLINE
  5
172
330
1F
100
AcDbEntity
  8
0
  6
Continuous
 62
     7
370
    25
100
AcDbSpline
210
0.0
220
0.0
230
1.0
 70
     8
 71
     3
 72
    12
 73
     8
 74
     0
 42
0.000000001
 43
0.00000001
 40
0.0
 40
0.0
 40
0.0
 40
0.0
 40
0.25
 40
0.25
 40
0.5
 40
0.5
 40
1.0
 40
1.0
 40
1.0
 40
1.0
 10
160.8884638659506
 20
77.99536211794738
 30
0.0
 10
160.8884552585654
 20
78.00560421639645
 30
0.0
 10
160.8970463937502
 20
78.02028693085985
 30
0.0
 10
160.9333559932605
 20
78.05210932151772
 30
0.0
 10
160.961074457586
 20
78.06924899771218
 30
0.0
 10
161.0758126102742
 20
78.11471706344572
 30
0.0
 10
161.1774234529051
 20
78.10788421238159
 30
0.0
 10
161.297186146636
 20
78.06685965436635
 30
0.0
  0
SPLINE
  5
173
330
1F
100
AcDbEntity
  8
0
  6
Continuous
 62
     7
370
    25
100
AcDbSpline
210
0.0
220
0.0
230
1.0
 70
     8
 71
     3
 72
    10
 73
     6
 74
     0
 42
0.000000001
 43
0.00000001
 40
0.0
 40
0.0
 40
0.0
 40
0.0
 40
0.5
 40
0.5
 40
1.0
 40
1.0
 40
1.0
 40
1.0
 10
160.8884638659506
 20
77.99536211794738
 30
0.0
 10
160.8884294364098
 20
78.03633051174364
 30
0.0
 10
160.8880477589756
 20
78.07978595881558
 30
0.0
 10
160.8917397731018
 20
78.16887180403282
 30
0.0
 10
160.8873543266686
 20
78.20125903264814
 30
0.0
 10
160.8873543266686
 20
78.24364236029308
 30
0.0
  0
SPLINE
  5
174
330
1F
100
AcDbEntity
  8
0
  6
Continuous
 62
     7
370
    25
100
AcDbSpline
210
0.0
220
0.0
230
1.0
 70
     8
 71
     3
 72
     9
 73
     5
 74
     0
 42
0.000000001
 43
0.00000001
 40
0.0
 40
0.0
 40
0.0
 40
0.0
 40
0.1238817103976022
 40
1.0
 40
1.0
 40
1.0
 40
1.0
 10
174.8856199544402
 20
78.12431699442187
 30
0.0
 10
174.8855351990281
 20
78.11899233821894
 30
0.0
 10
174.8848510349827
 20
78.07601055998997
 30
0.0
 10
174.8855939715624
 20
78.03302381710355
 30
0.0
 10
174.8862448718878
 20
77.99536234545032
 30
0.0
  0
SPLINE
  5
175
330
1F
100
AcDbEntity
  8
0
  6
Continuous
 62
     7
370
    25
100
AcDbSpline
210
0.0
220
0.0
230
1.0
 70
     8
 71
     3
 72
    26
 73
    22
 74
     0
 42
0.000000001
 43
0.00000001
 40
0.0
 40
0.0
 40
0.0
 40
0.0
 40
0.125
 40
0.125
 40
0.25
 40
0.25
 40
0.375
 40
0.375
 40
0.4375
 40
0.4375
 40
0.5
 40
0.5
 40
0.625
 40
0.625
 40
0.6875
 40
0.6875
 40
0.75
 40
0.75
 40
0.875
 40
0.875
 40
1.0
 40
1.0
 40
1.0
 40
1.0
 10
164.0143709804611
 20
69.49364236029307
 30
0.0
 10
164.30357603863
 20
69.3473619471854
 30
0.0
 10
164.5978108708863
 20
69.20729751483675
 30
0.0
 10
165.2019069221642
 20
68.94648031658377
 30
0.0
 10
165.5116790490778
 20
68.82561744735887
 30
0.0
 10
166.1564653535202
 20
68.61508676821293
 30
0.0
 10
166.4929323105752
 20
68.525597267412
 30
0.0
 10
167.0071419141828
 20
68.4329155419267
 30
0.0
 10
167.1807355666417
 20
68.40874902777193
 30
0.0
 10
167.5330005943572
 20
68.3760108881927
 30
0.0
 10
167.7130086390967
 20
68.36752581900267
 30
0.0
 10
168.2465203589413
 20
68.36785468404062
 30
0.0
 10
168.5960606159893
 20
68.4019177769661
 30
0.0
 10
169.1127297179513
 20
68.49517104987386
 30
0.0
 10
169.2840767978359
 20
68.53338473439432
 30
0.0
 10
169.6175515264387
 20
68.61978954126914
 30
0.0
 10
169.7806797730117
 20
68.66811722216575
 30
0.0
 10
170.2615747200754
 20
68.82515654736066
 30
0.0
 10
170.5709830078259
 20
68.945737902662
 30
0.0
 10
171.175800196177
 20
69.20678102415735
 30
0.0
 10
171.4712149531687
 20
69.34740359412012
 30
0.0
 10
171.760337672876
 20
69.49364236029307
 30
0.0
  0
LINE
  5
176
330
1F
100
AcDbEntity
  8
0
  6
Continuous
 62
     8
370
    25
100
AcDbLine
 10
167.8873543267
 20
83.4936426285
 30
0.0
 11
176.8873539392
 21
83.4936426285
 31
0.0
  0
LINE
  5
177
330
1F
100
AcDbEntity
  8
0
  6
Continuous
 62
     8
370
    25
100
AcDbLine
 10
158.8873547141
 20
83.4936426285
 30
0.0
 11
167.8873543267
 21
83.4936426285
 31
0.0
  0
LINE
  5
178
330
1F
100
AcDbEntity
  8
0
  6
Continuous
 62
     8
370
    25
100
AcDbLine
 10
167.8873543267
 20
81.4936423007
 30
0.0
 11
160.8873541106
 21
81.4936423007
 31
0.0
  0
LINE
  5
179
330
1F
100
AcDbEntity
  8
0
  6
Continuous
 62
     8
370
    25
100
AcDbLine
 10
174.8873545427
 20
81.4936423007
 30
0.0
 11
167.8873543267
 21
81.4936423007
 31
0.0
  0
LINE
  5
17A
330
1F
100
AcDbEntity
  8
0
  6
Continuous
 62
     8
370
    25
100
AcDbLine
 10
174.8110456963
 20
64.7436423491
 30
0.0
 11
174.8873545427
 21
64.7436423491
 31
0.0
  0
LINE
  5
17B
330
1F
100
AcDbEntity
  8
0
  6
Continuous
 62
     8
370
    25
100
AcDbLine
 10
174.8110456963
 20
76.2436423715
 30
0.0
 11
174.8873545427
 21
76.2436423715
 31
0.0
  0
LINE
  5
17C
330
1F
100
AcDbEntity
  8
0
  6
Continuous
 62
     8
370
    25
100
AcDbLine
 10
160.8873541106
 20
76.2436423715
 30
0.0
 11
160.9636629571
 21
76.2436423715
 31
0.0
  0
LINE
  5
17D
330
1F
100
AcDbEntity
  8
0
  6
Continuous
 62
     8
370
    25
100
AcDbLine
 10
160.8873541106
 20
64.7436423491
 30
0.0
 11
160.9636629571
 21
64.7436423491
 31
0.0
  0
LINE
  5
17E
330
1F
100
AcDbEntity
  8
0
  6
Continuous
 62
     8
370
    25
100
AcDbLine
 10
174.6373545018
 20
64.5407020378
 30
0.0
 11
174.6373545018
 21
64.4936423081
 31
0.0
  0
LINE
  5
17F
330
1F
100
AcDbEntity
  8
0
  6
Continuous
 62
     8
370
    25
100
AcDbLine
 10
174.6373545018
 20
76.4465826828
 30
0.0
 11
174.6373545018
 21
76.4936424124
 31
0.0
  0
LINE
  5
180
330
1F
100
AcDbEntity
  8
0
  6
Continuous
 62
     8
370
    25
100
AcDbLine
 10
161.1373541516
 20
76.4936424124
 30
0.0
 11
161.1373541516
 21
76.4465826828
 31
0.0
  0
LINE
  5
181
330
1F
100
AcDbEntity
  8
0
  6
Continuous
 62
     8
370
    25
100
AcDbLine
 10
161.1373541516
 20
64.4936423081
 30
0.0
 11
161.1373541516
 21
64.5407020378
 31
0.0
  0
LINE
  5
182
330
1F
100
AcDbEntity
  8
0
  6
Continuous
 62
     8
370
    25
100
AcDbLine
 10
161.1373541516
 20
77.4936425764
 30
0.0
 11
162.2305000771
 21
77.4936425764
 31
0.0
  0
LINE
  5
183
330
1F
100
AcDbEntity
  8
0
  6
Continuous
 62
     8
370
    25
100
AcDbLine
 10
173.5442085762
 20
77.4936425764
 30
0.0
 11
174.6373545018
 21
77.4936425764
 31
0.0
  0
LINE
  5
184
330
1F
100
AcDbEntity
  8
0
  6
Continuous
 62
     8
370
    25
100
AcDbLine
 10
172.4631055829
 20
78.2436422336
 30
0.0
 11
174.4045955699
 21
78.2436422336
 31
0.0
  0
LINE
  5
185
330
1F
100
AcDbEntity
  8
0
  6
Continuous
 62
     8
370
    25
100
AcDbLine
 10
161.3701130834
 20
78.2436422336
 30
0.0
 11
163.3116030705
 21
78.2436422336
 31
0.0
  0
LINE
  5
186
330
1F
100
AcDbEntity
  8
0
  6
Continuous
 62
     8
370
    25
100
AcDbLine
 10
174.6373545018
 20
77.7436421517
 30
0.0
 11
173.2200366084
 21
77.7436421517
 31
0.0
  0
LINE
  5
187
330
1F
100
AcDbEntity
  8
0
  6
Continuous
 62
     8
370
    25
100
AcDbLine
 10
162.5546720449
 20
77.7436421517
 30
0.0
 11
161.1373541516
 21
77.7436421517
 31
0.0
  0
SPLINE
  5
188
330
1F
100
AcDbEntity
  8
0
  6
Continuous
 62
     8
370
    25
100
AcDbSpline
210
0.0
220
0.0
230
1.0
 70
     8
 71
     3
 72
     9
 73
     5
 74
     0
 42
0.000000001
 43
0.00000001
 40
0.0
 40
0.0
 40
0.0
 40
0.0
 40
0.1250373943442832
 40
1.0
 40
1.0
 40
1.0
 40
1.0
 10
174.8880949441822
 20
77.86491152676264
 30
0.0
 10
174.8881360445183
 20
77.87034925208208
 30
0.0
 10
174.8884647488734
 20
77.91383804475852
 30
0.0
 10
174.8872807908686
 20
77.95731853895393
 30
0.0
 10
174.8862448718878
 20
77.99536234545032
 30
0.0
  0
SPLINE
  5
189
330
1F
100
AcDbEntity
  8
0
  6
Continuous
 62
     8
370
    25
100
AcDbSpline
210
0.0
220
0.0
230
1.0
 70
     8
 71
     3
 72
     9
 73
     5
 74
     0
 42
0.000000001
 43
0.00000001
 40
0.0
 40
0.0
 40
0.0
 40
0.0
 40
0.1250373943442832
 40
1.0
 40
1.0
 40
1.0
 40
1.0
 10
160.8866137091549
 20
77.86491152676264
 30
0.0
 10
160.8865726088188
 20
77.87034925208208
 30
0.0
 10
160.8862439044637
 20
77.91383804475852
 30
0.0
 10
160.8874278624685
 20
77.95731853895393
 30
0.0
 10
160.8884637814494
 20
77.99536234545032
 30
0.0
  0
LINE
  5
18A
330
1F
100
AcDbEntity
  8
0
  6
Continuous
 62
     8
370
    25
100
AcDbLine
 10
174.8873545427
 20
78.2436422336
 30
0.0
 11
174.8856199544
 21
78.1243169944
 31
0.0
  0
INSERT
  5
196
330
1F
100
AcDbEntity
  8
0
  6
Continuous
 62
     7
370
    18
100
AcDbBlockReference
  2
SW_CENTERMARKSYMBOL_0
 10
167.8873543267
 20
70.4936423603
 30
0.0
  0
ARC
  5
197
330
1F
100
AcDbEntity
  8
0
  6
Continuous
 62
     7
370
    18
100
AcDbCircle
 10
167.8873543267
 20
70.4936423603
 30
0.0
 40
6.574965237046074
100
AcDbArc
 50
75.0
 51
345.0
  0
LINE
  5
198
330
1F
100
AcDbEntity
  8
0
  6
Continuous
 62
     7
370
    25
100
AcDbLine
 10
139.6772618314
 20
114.804676697
 30
0.0
 11
140.1772628447
 21
115.3046758477
 31
0.0
  0
LINE
  5
199
330
1F
100
AcDbEntity
  8
0
  6
Continuous
 62
     7
370
    25
100
AcDbLine
 10
140.1772628447
 20
132.3046767715
 30
0.0
 11
139.6772618314
 21
132.8046759222
 31
0.0
  0
ARC
  5
19A
330
1F
100
AcDbEntity
  8
0
  6
Continuous
 62
     7
370
    25
100
AcDbCircle
 10
128.1772624722
 20
131.8046763096
 30
0.0
 40
1.0
100
AcDbArc
 50
90.0
 51
180.0
  0
ARC
  5
19B
330
1F
100
AcDbEntity
  8
0
  6
Continuous
 62
     7
370
    25
100
AcDbCircle
 10
128.1772624722
 20
115.8046763096
 30
0.0
 40
1.0
100
AcDbArc
 50
180.0
 51
270.0
  0
LINE
  5
19C
330
1F
100
AcDbEntity
  8
0
  6
Continuous
 62
     7
370
    25
100
AcDbLine
 10
139.6772618314
 20
132.8046759222
 30
0.0
 11
128.1772627404
 21
132.8046759222
 31
0.0
  0
LINE
  5
19D
330
1F
100
AcDbEntity
  8
0
  6
Continuous
 62
     7
370
    25
100
AcDbLine
 10
128.1772627404
 20
114.804676697
 30
0.0
 11
139.6772618314
 21
114.804676697
 31
0.0
  0
ARC
  5
19E
330
1F
100
AcDbEntity
  8
0
  6
Continuous
 62
     7
370
    25
100
AcDbCircle
 10
126.1772624722
 20
131.8046763096
 30
0.0
 40
1.000000000000014
100
AcDbArc
 50
270.0
 51
0.0
  0
ARC
  5
19F
330
1F
100
AcDbEntity
  8
0
  6
Continuous
 62
     7
370
    25
100
AcDbCircle
 10
126.1772624722
 20
115.8046763096
 30
0.0
 40
1.000000000000014
100
AcDbArc
 50
0.0
 51
90.0
  0
LINE
  5
1A0
330
1F
100
AcDbEntity
  8
0
  6
Continuous
 62
     7
370
    25
100
AcDbLine
 10
122.9272623455
 20
116.8046760935
 30
0.0
 11
126.1772624126
 21
116.8046760935
 31
0.0
  0
LINE
  5
1A1
330
1F
100
AcDbEntity
  8
0
  6
Continuous
 62
     7
370
    25
100
AcDbLine
 10
126.1772624126
 20
130.8046765257
 30
0.0
 11
122.9272623455
 21
130.8046765257
 31
0.0
  0
CIRCLE
  5
1A2
330
1F
100
AcDbEntity
  8
0
  6
Continuous
 62
     7
370
    25
100
AcDbCircle
 10
115.1772624722
 20
123.8046763096
 30
0.0
 40
8.499999999999986
  0
CIRCLE
  5
1A3
330
1F
100
AcDbEntity
  8
0
  6
Continuous
 62
     7
370
    25
100
AcDbCircle
 10
115.1772624722
 20
123.8046763096
 30
0.0
 40
7.599999999999994
  0
CIRCLE
  5
1A4
330
1F
100
AcDbEntity
  8
0
  6
Continuous
 62
     7
370
    25
100
AcDbCircle
 10
115.1772624722
 20
123.8046763096
 30
0.0
 40
7.5
  0
CIRCLE
  5
1A5
330
1F
100
AcDbEntity
  8
0
  6
Continuous
 62
     7
370
    25
100
AcDbCircle
 10
115.1772624722
 20
123.8046763096
 30
0.0
 40
9.0
  0
CIRCLE
  5
1A6
330
1F
100
AcDbEntity
  8
0
  6
Continuous
 62
     7
370
    25
100
AcDbCircle
 10
115.1772624722
 20
123.8046763096
 30
0.0
 40
7.399999999999991
  0
CIRCLE
  5
1A7
330
1F
100
AcDbEntity
  8
0
  6
Continuous
 62
     7
370
    25
100
AcDbCircle
 10
115.1772624722
 20
123.8046763096
 30
0.0
 40
6.116633130021768
  0
CIRCLE
  5
1A8
330
1F
100
AcDbEntity
  8
0
  6
Continuous
 62
     7
370
    25
100
AcDbCircle
 10
115.1772624722
 20
123.8046763096
 30
0.0
 40
6.75
  0
CIRCLE
  5
1A9
330
1F
100
AcDbEntity
  8
0
  6
Continuous
 62
     7
370
    25
100
AcDbCircle
 10
115.1772624722
 20
123.8046763096
 30
0.0
 40
5.810617330388098
  0
CIRCLE
  5
1AA
330
1F
100
AcDbEntity
  8
0
  6
Continuous
 62
     7
370
    25
100
AcDbCircle
 10
115.1772624722
 20
123.8046763096
 30
0.0
 40
5.350000000000009
  0
CIRCLE
  5
1AB
330
1F
100
AcDbEntity
  8
0
  6
Continuous
 62
     7
370
    25
100
AcDbCircle
 10
115.1772624722
 20
123.8046763096
 30
0.0
 40
4.0
  0
LINE
  5
1AC
330
1F
100
AcDbEntity
  8
0
  6
Continuous
 62
     7
370
    25
100
AcDbLine
 10
139.6772618314
 20
114.804676697
 30
0.0
 11
139.6772618314
 21
132.8046759222
 31
0.0
  0
LINE
  5
1AD
330
1F
100
AcDbEntity
  8
0
  6
Continuous
 62
     7
370
    25
100
AcDbLine
 10
140.1772628447
 20
132.3046767715
 30
0.0
 11
140.1772628447
 21
115.3046758477
 31
0.0
  0
LINE
  5
1AE
330
1F
100
AcDbEntity
  8
0
  6
Continuous
 62
     7
370
    25
100
AcDbLine
 10
127.1772625765
 20
115.8046759296
 30
0.0
 11
127.1772625765
 21
131.8046766896
 31
0.0
  0
LINE
  5
1AF
330
1F
100
AcDbEntity
  8
0
  6
Continuous
 62
     7
370
    25
100
AcDbLine
 10
120.8341167217
 20
130.8046765257
 30
0.0
 11
120.9272624834
 21
130.8046765257
 31
0.0
  0
LINE
  5
1B0
330
1F
100
AcDbEntity
  8
0
  6
Continuous
 62
     7
370
    25
100
AcDbLine
 10
109.427262461
 20
130.8046765257
 30
0.0
 11
109.5204082226
 21
130.8046765257
 31
0.0
  0
LINE
  5
1B1
330
1F
100
AcDbEntity
  8
0
  6
Continuous
 62
     7
370
    25
100
AcDbLine
 10
109.5204082226
 20
116.8046760935
 30
0.0
 11
109.427262461
 21
116.8046760935
 31
0.0
  0
LINE
  5
1B2
330
1F
100
AcDbEntity
  8
0
  6
Continuous
 62
     7
370
    25
100
AcDbLine
 10
120.9272624834
 20
116.8046760935
 30
0.0
 11
120.8341167217
 21
116.8046760935
 31
0.0
  0
ARC
  5
1B3
330
1F
100
AcDbEntity
  8
0
  6
Continuous
 62
     7
370
    25
100
AcDbCircle
 10
109.4272624722
 20
130.5546763096
 30
0.0
 40
0.25
100
AcDbArc
 50
90.0
 51
180.0
  0
ARC
  5
1B4
330
1F
100
AcDbEntity
  8
0
  6
Continuous
 62
     7
370
    25
100
AcDbCircle
 10
120.9272624722
 20
130.5546763096
 30
0.0
 40
0.25
100
AcDbArc
 50
0.0
 51
90.0
  0
LINE
  5
1B5
330
1F
100
AcDbEntity
  8
0
  6
Continuous
 62
     7
370
    25
100
AcDbLine
 10
121.1772625243
 20
130.5546764847
 30
0.0
 11
121.1772625243
 21
130.5128801245
 31
0.0
  0
LINE
  5
1B6
330
1F
100
AcDbEntity
  8
0
  6
Continuous
 62
     7
370
    25
100
AcDbLine
 10
109.17726242
 20
130.5128801245
 30
0.0
 11
109.17726242
 21
130.5546764847
 31
0.0
  0
LINE
  5
1B7
330
1F
100
AcDbEntity
  8
0
  6
Continuous
 62
     7
370
    25
100
AcDbLine
 10
121.1772625243
 20
117.0964724947
 30
0.0
 11
121.1772625243
 21
117.0546761345
 31
0.0
  0
LINE
  5
1B8
330
1F
100
AcDbEntity
  8
0
  6
Continuous
 62
     7
370
    25
100
AcDbLine
 10
109.17726242
 20
117.0546761345
 30
0.0
 11
109.17726242
 21
117.0964724947
 31
0.0
  0
ARC
  5
1B9
330
1F
100
AcDbEntity
  8
0
  6
Continuous
 62
     7
370
    25
100
AcDbCircle
 10
109.4272624722
 20
117.0546763096
 30
0.0
 40
0.25
100
AcDbArc
 50
180.0
 51
270.0
  0
ARC
  5
1BA
330
1F
100
AcDbEntity
  8
0
  6
Continuous
 62
     7
370
    25
100
AcDbCircle
 10
120.9272624722
 20
117.0546763096
 30
0.0
 40
0.25
100
AcDbArc
 50
270.0
 51
0.0
  0
LINE
  5
1BB
330
1F
100
AcDbEntity
  8
0
  6
Continuous
 62
     7
370
    25
100
AcDbLine
 10
122.1772626883
 20
130.5546764847
 30
0.0
 11
121.1772625243
 21
130.5546764847
 31
0.0
  0
LINE
  5
1BC
330
1F
100
AcDbEntity
  8
0
  6
Continuous
 62
     7
370
    25
100
AcDbLine
 10
122.1772626883
 20
130.8046765257
 30
0.0
 11
122.1772626883
 21
130.5546764847
 31
0.0
  0
LINE
  5
1BD
330
1F
100
AcDbEntity
  8
0
  6
Continuous
 62
     7
370
    25
100
AcDbLine
 10
120.9272624834
 20
130.8046765257
 30
0.0
 11
122.1772626883
 21
130.8046765257
 31
0.0
  0
SPLINE
  5
1BE
330
1F
100
AcDbEntity
  8
0
  6
Continuous
 62
     7
370
    25
100
AcDbSpline
210
0.0
220
0.0
230
1.0
 70
    24
 71
     3
 72
    14
 73
    10
 74
     0
 42
0.000000001
 43
0.00000001
 40
0.0
 40
0.0
 40
0.0
 40
0.0
 40
0.25
 40
0.25
 40
0.5
 40
0.5
 40
0.75
 40
0.75
 40
1.0
 40
1.0
 40
1.0
 40
1.0
 10
122.9272624721838
 20
116.8046763095964
 30
0.0
 10
122.9272624721838
 20
116.8046763095964
 30
0.0
 10
122.9272624721838
 20
116.8146009995218
 30
0.0
 10
122.9272624721838
 20
116.8543957021845
 30
0.0
 10
122.9272624721838
 20
116.8842660474062
 30
0.0
 10
122.9272624721838
 20
116.9642355873381
 30
0.0
 10
122.9272624721838
 20
117.014335467774
 30
0.0
 10
122.9272624721838
 20
117.1352200167618
 30
0.0
 10
122.9272624721838
 20
117.2060057653505
 30
0.0
 10
122.9272624721838
 20
117.2874349302861
 30
0.0
  0
SPLINE
  5
1BF
330
1F
100
AcDbEntity
  8
0
  6
Continuous
 62
     7
370
    25
100
AcDbSpline
210
0.0
220
0.0
230
1.0
 70
    24
 71
     3
 72
    14
 73
    10
 74
     0
 42
0.000000001
 43
0.00000001
 40
0.0
 40
0.0
 40
0.0
 40
0.0
 40
0.25
 40
0.25
 40
0.5
 40
0.5
 40
0.75
 40
0.75
 40
1.0
 40
1.0
 40
1.0
 40
1.0
 10
122.9272624721838
 20
130.8046763095964
 30
0.0
 10
122.9272624721838
 20
130.8046763095964
 30
0.0
 10
122.9272624721838
 20
130.794751619671
 30
0.0
 10
122.9272624721838
 20
130.7549569170083
 30
0.0
 10
122.9272624721838
 20
130.7250865717867
 30
0.0
 10
122.9272624721838
 20
130.6451170318547
 30
0.0
 10
122.9272624721838
 20
130.5950171514189
 30
0.0
 10
122.9272624721838
 20
130.474132602431
 30
0.0
 10
122.9272624721838
 20
130.4033468538424
 30
0.0
 10
122.9272624721838
 20
130.3219176889068
 30
0.0
  0
LINE
  5
1C0
330
1F
100
AcDbEntity
  8
0
  6
Continuous
 62
     7
370
    25
100
AcDbLine
 10
121.1772625243
 20
117.0546761345
 30
0.0
 11
122.1772626883
 21
117.0546761345
 31
0.0
  0
LINE
  5
1C1
330
1F
100
AcDbEntity
  8
0
  6
Continuous
 62
     7
370
    25
100
AcDbLine
 10
122.1772626883
 20
117.0546761345
 30
0.0
 11
122.1772626883
 21
116.8046760935
 31
0.0
  0
LINE
  5
1C2
330
1F
100
AcDbEntity
  8
0
  6
Continuous
 62
     7
370
    25
100
AcDbLine
 10
122.1772626883
 20
116.8046760935
 30
0.0
 11
120.9272624834
 21
116.8046760935
 31
0.0
  0
LINE
  5
1C3
330
1F
100
AcDbEntity
  8
0
  6
Continuous
 62
     7
370
    25
100
AcDbLine
 10
122.4272622636
 20
130.8046765257
 30
0.0
 11
122.4272622636
 21
130.5546764847
 31
0.0
  0
LINE
  5
1C4
330
1F
100
AcDbEntity
  8
0
  6
Continuous
 62
     7
370
    25
100
AcDbLine
 10
122.4272622636
 20
130.5546764847
 30
0.0
 11
122.1772626883
 21
130.5546764847
 31
0.0
  0
LINE
  5
1C5
330
1F
100
AcDbEntity
  8
0
  6
Continuous
 62
     7
370
    25
100
AcDbLine
 10
122.1772626883
 20
130.8046765257
 30
0.0
 11
122.4272622636
 21
130.8046765257
 31
0.0
  0
LINE
  5
1C6
330
1F
100
AcDbEntity
  8
0
  6
Continuous
 62
     7
370
    25
100
AcDbLine
 10
122.6772623045
 20
130.5546764847
 30
0.0
 11
122.4272622636
 21
130.5546764847
 31
0.0
  0
ARC
  5
1C7
330
1F
100
AcDbEntity
  8
0
  6
Continuous
 62
     7
370
    25
100
AcDbCircle
 10
122.4272624722
 20
130.5546763096
 30
0.0
 40
0.25
100
AcDbArc
 50
0.0
 51
90.0
  0
LINE
  5
1C8
330
1F
100
AcDbEntity
  8
0
  6
Continuous
 62
     7
370
    25
100
AcDbLine
 10
122.6772623045
 20
130.5546764847
 30
0.0
 11
122.6772623045
 21
128.779613376
 31
0.0
  0
LINE
  5
1C9
330
1F
100
AcDbEntity
  8
0
  6
Continuous
 62
     7
370
    25
100
AcDbLine
 10
122.6772623045
 20
118.8297392432
 30
0.0
 11
122.6772623045
 21
117.0546761345
 31
0.0
  0
LINE
  5
1CA
330
1F
100
AcDbEntity
  8
0
  6
Continuous
 62
     7
370
    25
100
AcDbLine
 10
122.4272622636
 20
117.0546761345
 30
0.0
 11
122.6772623045
 21
117.0546761345
 31
0.0
  0
LINE
  5
1CB
330
1F
100
AcDbEntity
  8
0
  6
Continuous
 62
     7
370
    25
100
AcDbLine
 10
122.1772626883
 20
117.0546761345
 30
0.0
 11
122.4272622636
 21
117.0546761345
 31
0.0
  0
LINE
  5
1CC
330
1F
100
AcDbEntity
  8
0
  6
Continuous
 62
     7
370
    25
100
AcDbLine
 10
122.4272622636
 20
117.0546761345
 30
0.0
 11
122.4272622636
 21
116.8046760935
 31
0.0
  0
LINE
  5
1CD
330
1F
100
AcDbEntity
  8
0
  6
Continuous
 62
     7
370
    25
100
AcDbLine
 10
122.4272622636
 20
116.8046760935
 30
0.0
 11
122.1772626883
 21
116.8046760935
 31
0.0
  0
ARC
  5
1CE
330
1F
100
AcDbEntity
  8
0
  6
Continuous
 62
     7
370
    25
100
AcDbCircle
 10
122.4272624722
 20
117.0546763096
 30
0.0
 40
0.25
100
AcDbArc
 50
270.0
 51
0.0
  0
SPLINE
  5
1CF
330
1F
100
AcDbEntity
  8
0
  6
Continuous
 62
     7
370
    25
100
AcDbSpline
210
0.0
220
0.0
230
1.0
 70
     8
 71
     3
 72
     8
 73
     4
 74
     0
 42
0.000000001
 43
0.00000001
 40
0.0
 40
0.0
 40
0.0
 40
0.0
 40
1.0
 40
1.0
 40
1.0
 40
1.0
 10
122.9272624721838
 20
130.3219176889068
 30
0.0
 10
122.8618097917476
 20
130.3234875916036
 30
0.0
 10
122.7967602267394
 20
130.3501429260075
 30
0.0
 10
122.7504797662571
 20
130.394844489629
 30
0.0
  0
SPLINE
  5
1D0
330
1F
100
AcDbEntity
  8
0
  6
Continuous
 62
     7
370
    25
100
AcDbSpline
210
0.0
220
0.0
230
1.0
 70
     8
 71
     3
 72
    14
 73
    10
 74
     0
 42
0.000000001
 43
0.00000001
 40
0.0
 40
0.0
 40
0.0
 40
0.0
 40
0.245589323567575
 40
0.455618196314265
 40
0.6303106213393797
 40
0.77011643036692
 40
0.8759901151610914
 40
0.9502659312389357
 40
1.0
 40
1.0
 40
1.0
 40
1.0
 10
122.7504797662571
 20
130.394844489629
 30
0.0
 10
122.7395147269418
 20
130.4067354301682
 30
0.0
 10
122.7191723465696
 20
130.4287955458207
 30
0.0
 10
122.6990203340931
 20
130.4643592441409
 30
0.0
 10
122.6869007746223
 20
130.4951515527441
 30
0.0
 10
122.6806949513899
 20
130.520391135317
 30
0.0
 10
122.6780752524161
 20
130.5383734282518
 30
0.0
 10
122.677295058071
 20
130.5512955916677
 30
0.0
 10
122.6772717998681
 20
130.5537085817737
 30
0.0
 10
122.6772624721838
 20
130.5546763095964
 30
0.0
  0
SPLINE
  5
1D1
330
1F
100
AcDbEntity
  8
0
  6
Continuous
 62
     7
370
    25
100
AcDbSpline
210
0.0
220
0.0
230
1.0
 70
     8
 71
     3
 72
    15
 73
    11
 74
     0
 42
0.000000001
 43
0.00000001
 40
0.0
 40
0.0
 40
0.0
 40
0.0
 40
0.0425877399909041
 40
0.1028282325346875
 40
0.1864706729280299
 40
0.2956205441869006
 40
0.4311891005861807
 40
0.5936297641565581
 40
0.7831876993469636
 40
1.0
 40
1.0
 40
1.0
 40
1.0
 10
122.6772624721838
 20
117.0546763095964
 30
0.0
 10
122.6772682652859
 20
117.0553918111933
 30
0.0
 10
122.6772822527493
 20
117.0571193920556
 30
0.0
 10
122.6777739535811
 20
117.0669935711504
 30
0.0
 10
122.6794013075396
 20
117.0808872509728
 30
0.0
 10
122.6832264559237
 20
117.1003845087944
 30
0.0
 10
122.6905987659646
 20
117.1245893616437
 30
0.0
 10
122.7032167549414
 20
117.1529580183078
 30
0.0
 10
122.7224609571455
 20
117.1844971890514
 30
0.0
 10
122.7407317035158
 20
117.2040669816237
 30
0.0
 10
122.7504797662571
 20
117.2145081295639
 30
0.0
  0
SPLINE
  5
1D2
330
1F
100
AcDbEntity
  8
0
  6
Continuous
 62
     7
370
    25
100
AcDbSpline
210
0.0
220
0.0
230
1.0
 70
     8
 71
     3
 72
     8
 73
     4
 74
     0
 42
0.000000001
 43
0.00000001
 40
0.0
 40
0.0
 40
0.0
 40
0.0
 40
1.0
 40
1.0
 40
1.0
 40
1.0
 10
122.7504797662571
 20
117.2145081295639
 30
0.0
 10
122.7967602267394
 20
117.2592096931853
 30
0.0
 10
122.8618097917476
 20
117.2858650275893
 30
0.0
 10
122.9272624721838
 20
117.2874349302861
 30
0.0
  0
SPLINE
  5
1D3
330
1F
100
AcDbEntity
  8
0
  6
Continuous
 62
     7
370
    25
100
AcDbSpline
210
0.0
220
0.0
230
1.0
 70
     8
 71
     3
 72
    10
 73
     6
 74
     0
 42
0.000000001
 43
0.00000001
 40
0.0
 40
0.0
 40
0.0
 40
0.0
 40
0.5
 40
0.5
 40
1.0
 40
1.0
 40
1.0
 40
1.0
 10
116.1772624721838
 20
119.931692963389
 30
0.0
 10
115.8504210097125
 20
119.9466104715242
 30
0.0
 10
115.5200932698156
 20
119.9562371761475
 30
0.0
 10
114.8502078054705
 20
119.9565191468653
 30
0.0
 10
114.5098353045907
 20
119.9468720593809
 30
0.0
 10
114.1772624721838
 20
119.931692963389
 30
0.0
  0
LINE
  5
1D4
330
1F
100
AcDbEntity
  8
0
  6
Continuous
 62
     7
370
    25
100
AcDbLine
 10
114.1772624247
 20
119.9316929191
 30
0.0
 11
114.1772624247
 21
127.6776597001
 31
0.0
  0
SPLINE
  5
1D5
330
1F
100
AcDbEntity
  8
0
  6
Continuous
 62
     7
370
    25
100
AcDbSpline
210
0.0
220
0.0
230
1.0
 70
     8
 71
     3
 72
    10
 73
     6
 74
     0
 42
0.000000001
 43
0.00000001
 40
0.0
 40
0.0
 40
0.0
 40
0.0
 40
0.5
 40
0.5
 40
1.0
 40
1.0
 40
1.0
 40
1.0
 10
114.1772624721838
 20
127.6776596558039
 30
0.0
 10
114.5066098658275
 20
127.6626277734141
 30
0.0
 10
114.837883237444
 20
127.6530740834981
 30
0.0
 10
115.5053623997255
 20
127.6528732088153
 30
0.0
 10
115.8443066747138
 20
127.6624630807431
 30
0.0
 10
116.1772624721838
 20
127.6776596558039
 30
0.0
  0
SPLINE
  5
1D6
330
1F
100
AcDbEntity
  8
0
  6
Continuous
 62
     7
370
    25
100
AcDbSpline
210
0.0
220
0.0
230
1.0
 70
     8
 71
     3
 72
    12
 73
     8
 74
     0
 42
0.000000001
 43
0.00000001
 40
0.0
 40
0.0
 40
0.0
 40
0.0
 40
0.25
 40
0.25
 40
0.5
 40
0.5
 40
1.0
 40
1.0
 40
1.0
 40
1.0
 10
122.6789822298381
 20
130.8035667703144
 30
0.0
 10
122.6892243282872
 20
130.8035753776996
 30
0.0
 10
122.7039070427506
 20
130.7949842425148
 30
0.0
 10
122.7357294334084
 20
130.7586746430045
 30
0.0
 10
122.7528691096029
 20
130.730956178679
 30
0.0
 10
122.7983371753364
 20
130.6162180259908
 30
0.0
 10
122.7915043242723
 20
130.5146071833599
 30
0.0
 10
122.7504797662571
 20
130.394844489629
 30
0.0
  0
SPLINE
  5
1D7
330
1F
100
AcDbEntity
  8
0
  6
Continuous
 62
     7
370
    25
100
AcDbSpline
210
0.0
220
0.0
230
1.0
 70
     8
 71
     3
 72
    12
 73
     8
 74
     0
 42
0.000000001
 43
0.00000001
 40
0.0
 40
0.0
 40
0.0
 40
0.0
 40
0.25
 40
0.25
 40
0.5
 40
0.5
 40
1.0
 40
1.0
 40
1.0
 40
1.0
 10
122.6789822298381
 20
130.8035667703144
 30
0.0
 10
122.668740131389
 20
130.8035581629292
 30
0.0
 10
122.6612009198357
 20
130.794948352599
 30
0.0
 10
122.6468714042114
 20
130.7734672423287
 30
0.0
 10
122.6400811001403
 20
130.7605959423886
 30
0.0
 10
122.6138482496871
 20
130.7350011825734
 30
0.0
 10
122.6041655329988
 20
130.7313266393747
 30
0.0
 10
122.6040391674789
 20
130.7314530048946
 30
0.0
  0
SPLINE
  5
1D8
330
1F
100
AcDbEntity
  8
0
  6
Continuous
 62
     7
370
    25
100
AcDbSpline
210
0.0
220
0.0
230
1.0
 70
     8
 71
     3
 72
    10
 73
     6
 74
     0
 42
0.000000001
 43
0.00000001
 40
0.0
 40
0.0
 40
0.0
 40
0.0
 40
0.5
 40
0.5
 40
1.0
 40
1.0
 40
1.0
 40
1.0
 10
122.6789822298381
 20
130.8035667703144
 30
0.0
 10
122.6380138360418
 20
130.8035323407736
 30
0.0
 10
122.5940493262973
 20
130.8038405511105
 30
0.0
 10
122.5030026865535
 20
130.808795284491
 30
0.0
 10
122.4700542459726
 20
130.8046763095964
 30
0.0
 10
122.4272624721838
 20
130.8046763095964
 30
0.0
  0
SPLINE
  5
1D9
330
1F
100
AcDbEntity
  8
0
  6
Continuous
 62
     7
370
    25
100
AcDbSpline
210
0.0
220
0.0
230
1.0
 70
     8
 71
     3
 72
    14
 73
    10
 74
     0
 42
0.000000001
 43
0.00000001
 40
0.0
 40
0.0
 40
0.0
 40
0.0
 40
0.25
 40
0.25
 40
0.5
 40
0.5
 40
0.75
 40
0.75
 40
1.0
 40
1.0
 40
1.0
 40
1.0
 10
122.6789822298381
 20
116.8057858488785
 30
0.0
 10
122.6892243282872
 20
116.8057772414933
 30
0.0
 10
122.7039070427506
 20
116.8143683766781
 30
0.0
 10
122.7357294334084
 20
116.8506779761884
 30
0.0
 10
122.7528691096029
 20
116.8783964405138
 30
0.0
 10
122.7831811534253
 20
116.954888542306
 30
0.0
 10
122.7890509516148
 20
116.9994142784117
 30
0.0
 10
122.7829563975345
 20
117.099283398608
 30
0.0
 10
122.7709920452647
 20
117.1546267826984
 30
0.0
 10
122.7504797662571
 20
117.2145081295639
 30
0.0
  0
SPLINE
  5
1DA
330
1F
100
AcDbEntity
  8
0
  6
Continuous
 62
     7
370
    25
100
AcDbSpline
210
0.0
220
0.0
230
1.0
 70
     8
 71
     3
 72
    12
 73
     8
 74
     0
 42
0.000000001
 43
0.00000001
 40
0.0
 40
0.0
 40
0.0
 40
0.0
 40
0.25
 40
0.25
 40
0.5
 40
0.5
 40
1.0
 40
1.0
 40
1.0
 40
1.0
 10
122.6789822298381
 20
116.8057858488785
 30
0.0
 10
122.668740131389
 20
116.8057944562637
 30
0.0
 10
122.6612009198357
 20
116.8144042665938
 30
0.0
 10
122.6468714042114
 20
116.8358853768641
 30
0.0
 10
122.6400811001403
 20
116.8487566768042
 30
0.0
 10
122.6138482496871
 20
116.8743514366194
 30
0.0
 10
122.6041655329988
 20
116.8780259798181
 30
0.0
 10
122.6040391674789
 20
116.8778996142983
 30
0.0
  0
SPLINE
  5
1DB
330
1F
100
AcDbEntity
  8
0
  6
Continuous
 62
     7
370
    25
100
AcDbSpline
210
0.0
220
0.0
230
1.0
 70
     8
 71
     3
 72
    10
 73
     6
 74
     0
 42
0.000000001
 43
0.00000001
 40
0.0
 40
0.0
 40
0.0
 40
0.0
 40
0.5
 40
0.5
 40
1.0
 40
1.0
 40
1.0
 40
1.0
 10
122.6789822298381
 20
116.8057858488785
 30
0.0
 10
122.6380138360418
 20
116.8058202784193
 30
0.0
 10
122.5940493262973
 20
116.8055120680823
 30
0.0
 10
122.5030026865535
 20
116.8005573347019
 30
0.0
 10
122.4700542459726
 20
116.8046763095964
 30
0.0
 10
122.4272624721838
 20
116.8046763095964
 30
0.0
  0
SPLINE
  5
1DC
330
1F
100
AcDbEntity
  8
0
  6
Continuous
 62
     7
370
    25
100
AcDbSpline
210
0.0
220
0.0
230
1.0
 70
     8
 71
     3
 72
    10
 73
     6
 74
     0
 42
0.000000001
 43
0.00000001
 40
0.0
 40
0.0
 40
0.0
 40
0.0
 40
0.5
 40
0.5
 40
1.0
 40
1.0
 40
1.0
 40
1.0
 10
122.6789822298381
 20
130.8035667703144
 30
0.0
 10
122.7199506236344
 20
130.8036011998552
 30
0.0
 10
122.7634060707063
 20
130.8039828772894
 30
0.0
 10
122.8524919159235
 20
130.8002908631632
 30
0.0
 10
122.8848791445389
 20
130.8046763095964
 30
0.0
 10
122.9272624721838
 20
130.8046763095964
 30
0.0
  0
SPLINE
  5
1DD
330
1F
100
AcDbEntity
  8
0
  6
Continuous
 62
     7
370
    25
100
AcDbSpline
210
0.0
220
0.0
230
1.0
 70
     8
 71
     3
 72
    10
 73
     6
 74
     0
 42
0.000000001
 43
0.00000001
 40
0.0
 40
0.0
 40
0.0
 40
0.0
 40
0.5
 40
0.5
 40
1.0
 40
1.0
 40
1.0
 40
1.0
 10
122.6789822298381
 20
116.8057858488785
 30
0.0
 10
122.7199506236344
 20
116.8057514193377
 30
0.0
 10
122.7634060707063
 20
116.8053697419035
 30
0.0
 10
122.8524919159235
 20
116.8090617560297
 30
0.0
 10
122.8848791445389
 20
116.8046763095964
 30
0.0
 10
122.9272624721838
 20
116.8046763095964
 30
0.0
  0
SPLINE
  5
1DE
330
1F
100
AcDbEntity
  8
0
  6
Continuous
 62
     7
370
    25
100
AcDbSpline
210
0.0
220
0.0
230
1.0
 70
     8
 71
     3
 72
    26
 73
    22
 74
     0
 42
0.000000001
 43
0.00000001
 40
0.0
 40
0.0
 40
0.0
 40
0.0
 40
0.125
 40
0.125
 40
0.25
 40
0.25
 40
0.375
 40
0.375
 40
0.4375
 40
0.4375
 40
0.5
 40
0.5
 40
0.625
 40
0.625
 40
0.6875
 40
0.6875
 40
0.75
 40
0.75
 40
0.875
 40
0.875
 40
1.0
 40
1.0
 40
1.0
 40
1.0
 10
114.1772624721838
 20
119.931692963389
 30
0.0
 10
114.0309820590761
 20
120.2208980215579
 30
0.0
 10
113.8909176267275
 20
120.5151328538142
 30
0.0
 10
113.6301004284745
 20
121.1192289050921
 30
0.0
 10
113.5092375592496
 20
121.4290010320057
 30
0.0
 10
113.2987068801036
 20
122.073787336448
 30
0.0
 10
113.2092173793027
 20
122.4102542935031
 30
0.0
 10
113.1165356538174
 20
122.9244638971107
 30
0.0
 10
113.0923691396626
 20
123.0980575495695
 30
0.0
 10
113.0596310000834
 20
123.4503225772851
 30
0.0
 10
113.0511459308934
 20
123.6303306220246
 30
0.0
 10
113.0514747959313
 20
124.1638423418691
 30
0.0
 10
113.0855378888568
 20
124.5133825989171
 30
0.0
 10
113.1787911617646
 20
125.0300517008792
 30
0.0
 10
113.217004846285
 20
125.2013987807638
 30
0.0
 10
113.3034096531598
 20
125.5348735093666
 30
0.0
 10
113.3517373340565
 20
125.6980017559396
 30
0.0
 10
113.5087766592514
 20
126.1788967030033
 30
0.0
 10
113.6293580145527
 20
126.4883049907538
 30
0.0
 10
113.8904011360481
 20
127.0931221791049
 30
0.0
 10
114.0310237060108
 20
127.3885369360966
 30
0.0
 10
114.1772624721838
 20
127.6776596558039
 30
0.0
  0
LINE
  5
1DF
330
1F
100
AcDbEntity
  8
0
  6
Continuous
 62
     8
370
    25
100
AcDbLine
 10
128.1772627404
 20
132.8046759222
 30
0.0
 11
128.1772627404
 21
114.804676697
 31
0.0
  0
LINE
  5
1E0
330
1F
100
AcDbEntity
  8
0
  6
Continuous
 62
     8
370
    25
100
AcDbLine
 10
126.1772624126
 20
116.8046760935
 30
0.0
 11
126.1772624126
 21
130.8046765257
 31
0.0
  0
LINE
  5
1E1
330
1F
100
AcDbEntity
  8
0
  6
Continuous
 62
     8
370
    25
100
AcDbLine
 10
120.9272624834
 20
130.8046765257
 30
0.0
 11
120.9272624834
 21
130.7283676792
 31
0.0
  0
LINE
  5
1E2
330
1F
100
AcDbEntity
  8
0
  6
Continuous
 62
     8
370
    25
100
AcDbLine
 10
109.427262461
 20
130.8046765257
 30
0.0
 11
109.427262461
 21
130.7283676792
 31
0.0
  0
LINE
  5
1E3
330
1F
100
AcDbEntity
  8
0
  6
Continuous
 62
     8
370
    25
100
AcDbLine
 10
109.427262461
 20
116.88098494
 30
0.0
 11
109.427262461
 21
116.8046760935
 31
0.0
  0
LINE
  5
1E4
330
1F
100
AcDbEntity
  8
0
  6
Continuous
 62
     8
370
    25
100
AcDbLine
 10
120.9272624834
 20
116.88098494
 30
0.0
 11
120.9272624834
 21
116.8046760935
 31
0.0
  0
LINE
  5
1E5
330
1F
100
AcDbEntity
  8
0
  6
Continuous
 62
     8
370
    25
100
AcDbLine
 10
109.17726242
 20
130.5546764847
 30
0.0
 11
109.2243221497
 21
130.5546764847
 31
0.0
  0
LINE
  5
1E6
330
1F
100
AcDbEntity
  8
0
  6
Continuous
 62
     8
370
    25
100
AcDbLine
 10
121.1772625243
 20
130.5546764847
 30
0.0
 11
121.1302027946
 21
130.5546764847
 31
0.0
  0
LINE
  5
1E7
330
1F
100
AcDbEntity
  8
0
  6
Continuous
 62
     8
370
    25
100
AcDbLine
 10
121.1302027946
 20
117.0546761345
 30
0.0
 11
121.1772625243
 21
117.0546761345
 31
0.0
  0
LINE
  5
1E8
330
1F
100
AcDbEntity
  8
0
  6
Continuous
 62
     8
370
    25
100
AcDbLine
 10
109.2243221497
 20
117.0546761345
 30
0.0
 11
109.17726242
 21
117.0546761345
 31
0.0
  0
LINE
  5
1E9
330
1F
100
AcDbEntity
  8
0
  6
Continuous
 62
     8
370
    25
100
AcDbLine
 10
122.1772626883
 20
129.4615305591
 30
0.0
 11
122.1772626883
 21
130.5546764847
 31
0.0
  0
LINE
  5
1EA
330
1F
100
AcDbEntity
  8
0
  6
Continuous
 62
     8
370
    25
100
AcDbLine
 10
122.9272623455
 20
119.2289250534
 30
0.0
 11
122.9272623455
 21
117.2874350663
 31
0.0
  0
LINE
  5
1EB
330
1F
100
AcDbEntity
  8
0
  6
Continuous
 62
     8
370
    25
100
AcDbLine
 10
122.9272623455
 20
130.3219175529
 30
0.0
 11
122.9272623455
 21
128.3804275658
 31
0.0
  0
LINE
  5
1EC
330
1F
100
AcDbEntity
  8
0
  6
Continuous
 62
     8
370
    25
100
AcDbLine
 10
122.1772626883
 20
117.0546761345
 30
0.0
 11
122.1772626883
 21
118.1478220601
 31
0.0
  0
LINE
  5
1ED
330
1F
100
AcDbEntity
  8
0
  6
Continuous
 62
     8
370
    25
100
AcDbLine
 10
122.4272622636
 20
129.1373585913
 30
0.0
 11
122.4272622636
 21
130.5546764847
 31
0.0
  0
LINE
  5
1EE
330
1F
100
AcDbEntity
  8
0
  6
Continuous
 62
     8
370
    25
100
AcDbLine
 10
122.4272622636
 20
117.0546761345
 30
0.0
 11
122.4272622636
 21
118.4719940279
 31
0.0
  0
INSERT
  5
1FA
330
1F
100
AcDbEntity
  8
0
  6
Continuous
 62
     7
370
    18
100
AcDbBlockReference
  2
SW_CENTERMARKSYMBOL_1
 10
115.1772624722
 20
123.8046763096
 30
0.0
  0
ARC
  5
1FB
330
1F
100
AcDbEntity
  8
0
  6
Continuous
 62
     7
370
    18
100
AcDbCircle
 10
115.1772624722
 20
123.8046763096
 30
0.0
 40
6.574965237046074
100
AcDbArc
 50
75.0
 51
345.0
  0
ENDSEC
  0
SECTION
  2
OBJECTS
  0
DICTIONARY
  5
C
330
0
100
AcDbDictionary
281
     1
  3
ACAD_GROUP
350
D
  3
ACAD_LAYOUT
350
1A
  3
ACAD_MLINESTYLE
350
17
  3
ACAD_PLOTSETTINGS
350
19
  3
ACAD_PLOTSTYLENAME
350
E
  3
ACAD_SCALELIST
350
47
  0
DICTIONARY
  5
D
102
{ACAD_REACTORS
330
C
102
}
330
C
100
AcDbDictionary
281
     1
  0
DICTIONARY
  5
1A
102
{ACAD_REACTORS
330
C
102
}
330
C
100
AcDbDictionary
281
     1
  3
Layout1
350
1E
  3
Layout2
350
26
  3
Model
350
22
  0
DICTIONARY
  5
17
102
{ACAD_REACTORS
330
C
102
}
330
C
100
AcDbDictionary
281
     1
  3
Standard
350
18
  0
DICTIONARY
  5
19
102
{ACAD_REACTORS
330
C
102
}
330
C
100
AcDbDictionary
281
     1
  0
ACDBDICTIONARYWDFLT
  5
E
102
{ACAD_REACTORS
330
C
102
}
330
C
100
AcDbDictionary
281
     1
  3
Normal
350
F
100
AcDbDictionaryWithDefault
340
F
  0
DICTIONARY
  5
47
102
{ACAD_REACTORS
330
C
102
}
330
C
100
AcDbDictionary
281
     1
  3
A0
350
48
  3
A1
350
49
  3
A2
350
4A
  3
A3
350
4B
  3
A4
350
4C
  3
A5
350
4D
  3
A6
350
4E
  3
A7
350
4F
  3
A8
350
50
  3
A9
350
51
  3
B0
350
52
  3
B1
350
53
  3
B2
350
54
  3
B3
350
55
  3
B4
350
56
  3
B5
350
57
  3
B6
350
58
  3
B7
350
59
  3
B8
350
5A
  3
B9
350
5B
  3
C0
350
5C
  3
C1
350
5D
  3
C2
350
5E
  3
C3
350
5F
  3
C4
350
60
  3
C5
350
61
  3
C6
350
62
  3
C7
350
63
  3
C8
350
64
  3
C9
350
65
  3
D0
350
66
  3
D1
350
67
  3
D2
350
68
  0
LAYOUT
  5
1E
102
{ACAD_REACTORS
330
1A
102
}
330
1A
100
AcDbPlotSettings
  1

  2
none_device
  4

  6

 40
0.0
 41
0.0
 42
0.0
 43
0.0
 44
0.0
 45
0.0
 46
0.0
 47
0.0
 48
0.0
 49
0.0
140
0.0
141
0.0
142
1.0
143
1.0
 70
   688
 72
     1
 73
     0
 74
     5
  7

 75
    16
147
1.0
148
0.0
149
0.0
100
AcDbLayout
  1
Layout1
 70
     1
 71
     1
 10
0.0
 20
0.0
 11
420.0
 21
297.0
 12
0.0
 22
0.0
 32
0.0
 14
1.0000000000E+20
 24
1.0000000000E+20
 34
1.0000000000E+20
 15
-1.0000000000E+20
 25
-1.0000000000E+20
 35
-1.0000000000E+20
146
0.0
 13
0.0
 23
0.0
 33
0.0
 16
1.0
 26
0.0
 36
0.0
 17
0.0
 27
1.0
 37
0.0
 76
     0
330
1B
  0
LAYOUT
  5
26
102
{ACAD_REACTORS
330
1A
102
}
330
1A
100
AcDbPlotSettings
  1

  2
none_device
  4

  6

 40
0.0
 41
0.0
 42
0.0
 43
0.0
 44
0.0
 45
0.0
 46
0.0
 47
0.0
 48
0.0
 49
0.0
140
0.0
141
0.0
142
1.0
143
1.0
 70
   688
 72
     1
 73
     0
 74
     5
  7

 75
    16
147
1.0
148
0.0
149
0.0
100
AcDbLayout
  1
Layout2
 70
     1
 71
     2
 10
0.0
 20
0.0
 11
0.0
 21
0.0
 12
0.0
 22
0.0
 32
0.0
 14
0.0
 24
0.0
 34
0.0
 15
0.0
 25
0.0
 35
0.0
146
0.0
 13
0.0
 23
0.0
 33
0.0
 16
1.0
 26
0.0
 36
0.0
 17
0.0
 27
1.0
 37
0.0
 76
     0
330
23
  0
LAYOUT
  5
22
102
{ACAD_REACTORS
330
1A
102
}
330
1A
100
AcDbPlotSettings
  1

  2
none_device
  4
Letter_(8.50_x_11.00_Inches)
  6

 40
6.35
 41
6.35
 42
6.35000508
 43
6.35000508
 44
215.9
 45
279.4
 46
0.0
 47
0.0
 48
0.0
 49
0.0
140
0.0
141
0.0
142
1.0
143
1.0
 70
  1712
 72
     1
 73
     0
 74
     0
  7

 75
     0
147
1.0
148
0.0
149
0.0
100
AcDbLayout
  1
Model
 70
     1
 71
     0
 10
0.0
 20
0.0
 11
431.8
 21
279.4
 12
0.0
 22
0.0
 32
0.0
 14
0.0
 24
0.0
 34
0.0
 15
431.8
 25
279.4
 35
0.0
146
0.0
 13
0.0
 23
0.0
 33
0.0
 16
1.0
 26
0.0
 36
0.0
 17
0.0
 27
1.0
 37
0.0
 76
     0
330
1F
331
29
  0
MLINESTYLE
  5
18
102
{ACAD_REACTORS
330
17
102
}
330
17
100
AcDbMlineStyle
  2
Standard
 70
     0
  3

 62
   256
 51
90.0
 52
90.0
 71
     2
 49
0.5
 62
   256
  6
BYLAYER
 49
-0.5
 62
   256
  6
BYLAYER
  0
ACDBPLACEHOLDER
  5
F
102
{ACAD_REACTORS
330
E
102
}
330
E
  0
SCALE
  5
48
102
{ACAD_REACTORS
330
47
102
}
330
47
100
AcDbScale
 70
     0
300
1:1
140
1.0
141
1.0
290
     1
  0
SCALE
  5
49
102
{ACAD_REACTORS
330
47
102
}
330
47
100
AcDbScale
 70
     0
300
1:2
140
1.0
141
2.0
290
     0
  0
SCALE
  5
4A
102
{ACAD_REACTORS
330
47
102
}
330
47
100
AcDbScale
 70
     0
300
1:4
140
1.0
141
4.0
290
     0
  0
SCALE
  5
4B
102
{ACAD_REACTORS
330
47
102
}
330
47
100
AcDbScale
 70
     0
300
1:5
140
1.0
141
5.0
290
     0
  0
SCALE
  5
4C
102
{ACAD_REACTORS
330
47
102
}
330
47
100
AcDbScale
 70
     0
300
1:8
140
1.0
141
8.0
290
     0
  0
SCALE
  5
4D
102
{ACAD_REACTORS
330
47
102
}
330
47
100
AcDbScale
 70
     0
300
1:10
140
1.0
141
10.0
290
     0
  0
SCALE
  5
4E
102
{ACAD_REACTORS
330
47
102
}
330
47
100
AcDbScale
 70
     0
300
1:16
140
1.0
141
16.0
290
     0
  0
SCALE
  5
4F
102
{ACAD_REACTORS
330
47
102
}
330
47
100
AcDbScale
 70
     0
300
1:20
140
1.0
141
20.0
290
     0
  0
SCALE
  5
50
102
{ACAD_REACTORS
330
47
102
}
330
47
100
AcDbScale
 70
     0
300
1:30
140
1.0
141
30.0
290
     0
  0
SCALE
  5
51
102
{ACAD_REACTORS
330
47
102
}
330
47
100
AcDbScale
 70
     0
300
1:40
140
1.0
141
40.0
290
     0
  0
SCALE
  5
52
102
{ACAD_REACTORS
330
47
102
}
330
47
100
AcDbScale
 70
     0
300
1:50
140
1.0
141
50.0
290
     0
  0
SCALE
  5
53
102
{ACAD_REACTORS
330
47
102
}
330
47
100
AcDbScale
 70
     0
300
1:100
140
1.0
141
100.0
290
     0
  0
SCALE
  5
54
102
{ACAD_REACTORS
330
47
102
}
330
47
100
AcDbScale
 70
     0
300
2:1
140
2.0
141
1.0
290
     0
  0
SCALE
  5
55
102
{ACAD_REACTORS
330
47
102
}
330
47
100
AcDbScale
 70
     0
300
4:1
140
4.0
141
1.0
290
     0
  0
SCALE
  5
56
102
{ACAD_REACTORS
330
47
102
}
330
47
100
AcDbScale
 70
     0
300
8:1
140
8.0
141
1.0
290
     0
  0
SCALE
  5
57
102
{ACAD_REACTORS
330
47
102
}
330
47
100
AcDbScale
 70
     0
300
10:1
140
10.0
141
1.0
290
     0
  0
SCALE
  5
58
102
{ACAD_REACTORS
330
47
102
}
330
47
100
AcDbScale
 70
     0
300
100:1
140
100.0
141
1.0
290
     0
  0
SCALE
  5
59
102
{ACAD_REACTORS
330
47
102
}
330
47
100
AcDbScale
 70
     0
300
1/128" = 1'-0"
140
0.0078125
141
12.0
290
     0
  0
SCALE
  5
5A
102
{ACAD_REACTORS
330
47
102
}
330
47
100
AcDbScale
 70
     0
300
1/64" = 1'-0"
140
0.015625
141
12.0
290
     0
  0
SCALE
  5
5B
102
{ACAD_REACTORS
330
47
102
}
330
47
100
AcDbScale
 70
     0
300
1/32" = 1'-0"
140
0.03125
141
12.0
290
     0
  0
SCALE
  5
5C
102
{ACAD_REACTORS
330
47
102
}
330
47
100
AcDbScale
 70
     0
300
1/16" = 1'-0"
140
0.0625
141
12.0
290
     0
  0
SCALE
  5
5D
102
{ACAD_REACTORS
330
47
102
}
330
47
100
AcDbScale
 70
     0
300
3/32" = 1'-0"
140
0.09375
141
12.0
290
     0
  0
SCALE
  5
5E
102
{ACAD_REACTORS
330
47
102
}
330
47
100
AcDbScale
 70
     0
300
1/8" = 1'-0"
140
0.125
141
12.0
290
     0
  0
SCALE
  5
5F
102
{ACAD_REACTORS
330
47
102
}
330
47
100
AcDbScale
 70
     0
300
3/16" = 1'-0"
140
0.1875
141
12.0
290
     0
  0
SCALE
  5
60
102
{ACAD_REACTORS
330
47
102
}
330
47
100
AcDbScale
 70
     0
300
1/4" = 1'-0"
140
0.25
141
12.0
290
     0
  0
SCALE
  5
61
102
{ACAD_REACTORS
330
47
102
}
330
47
100
AcDbScale
 70
     0
300
3/8" = 1'-0"
140
0.375
141
12.0
290
     0
  0
SCALE
  5
62
102
{ACAD_REACTORS
330
47
102
}
330
47
100
AcDbScale
 70
     0
300
1/2" = 1'-0"
140
0.5
141
12.0
290
     0
  0
SCALE
  5
63
102
{ACAD_REACTORS
330
47
102
}
330
47
100
AcDbScale
 70
     0
300
3/4" = 1'-0"
140
0.75
141
12.0
290
     0
  0
SCALE
  5
64
102
{ACAD_REACTORS
330
47
102
}
330
47
100
AcDbScale
 70
     0
300
1" = 1'-0"
140
1.0
141
12.0
290
     0
  0
SCALE
  5
65
102
{ACAD_REACTORS
330
47
102
}
330
47
100
AcDbScale
 70
     0
300
1-1/2" = 1'-0"
140
1.5
141
12.0
290
     0
  0
SCALE
  5
66
102
{ACAD_REACTORS
330
47
102
}
330
47
100
AcDbScale
 70
     0
300
3" = 1'-0"
140
3.0
141
12.0
290
     0
  0
SCALE
  5
67
102
{ACAD_REACTORS
330
47
102
}
330
47
100
AcDbScale
 70
     0
300
6" = 1'-0"
140
6.0
141
12.0
290
     0
  0
SCALE
  5
68
102
{ACAD_REACTORS
330
47
102
}
330
47
100
AcDbScale
 70
     0
300
1'-0" = 1'-0"
140
12.0
141
12.0
290
     0
  0
ENDSEC
  0
EOF
