  0
SECTION
  2
HEADER
  9
$ACADVER
  1
AC1015
  9
$ACADMAINTVER
 70
     6
  9
$DWGCODEPAGE
  3
DOS932
  9
$INSBASE
 10
0.0
 20
0.0
 30
0.0
  9
$EXTMIN
 10
0.0
 20
0.0
 30
0.0
  9
$EXTMAX
 10
431.8
 20
279.4
 30
0.0
  9
$LIMMIN
 10
0.0
 20
0.0
  9
$LIMMAX
 10
431.8
 20
279.4
  9
$ORTHOMODE
 70
     0
  9
$REGENMODE
 70
     1
  9
$FILLMODE
 70
     1
  9
$QTEXTMODE
 70
     0
  9
$MIRRTEXT
 70
     1
  9
$LTSCALE
 40
1.0
  9
$ATTMODE
 70
     1
  9
$TEXTSIZE
 40
3.5
  9
$TRACEWID
 40
1.0
  9
$TEXTSTYLE
  7
Standard
  9
$CLAYER
  8
0
  9
$CELTYPE
  6
ByLayer
  9
$CECOLOR
 62
   256
  9
$CELTSCALE
 40
1.0
  9
$DISPSILH
 70
     0
  9
$DIMSCALE
 40
1.0
  9
$DIMASZ
 40
3.302
  9
$DIMEXO
 40
1.0
  9
$DIMDLI
 40
3.75
  9
$DIMRND
 40
0.0
  9
$DIMDLE
 40
0.0
  9
$DIMEXE
 40
1.0
  9
$DIMTP
 40
0.0
  9
$DIMTM
 40
0.0
  9
$DIMTXT
 40
3.5
  9
$DIMCEN
 40
2.5
  9
$DIMTSZ
 40
0.0
  9
$DIMTOL
 70
     0
  9
$DIMLIM
 70
     0
  9
$DIMTIH
 70
     1
  9
$DIMTOH
 70
     1
  9
$DIMSE1
 70
     0
  9
$DIMSE2
 70
     0
  9
$DIMTAD
 70
     1
  9
$DIMZIN
 70
     1
  9
$DIMBLK
  1

  9
$DIMASO
 70
     1
  9
$DIMSHO
 70
     1
  9
$DIMPOST
  1

  9
$DIMAPOST
  1

  9
$DIMALT
 70
     0
  9
$DIMALTD
 70
     3
  9
$DIMALTF
 40
0.0393700787
  9
$DIMLFAC
 40
1.0
  9
$DIMTOFL
 70
     1
  9
$DIMTVP
 40
0.0
  9
$DIMTIX
 70
     0
  9
$DIMSOXD
 70
     0
  9
$DIMSAH
 70
     0
  9
$DIMBLK1
  1

  9
$DIMBLK2
  1

  9
$DIMSTYLE
  2
ISO-25
  9
$DIMCLRD
 70
     0
  9
$DIMCLRE
 70
     0
  9
$DIMCLRT
 70
     0
  9
$DIMTFAC
 40
1.0
  9
$DIMGAP
 40
1.524
  9
$DIMJUST
 70
     0
  9
$DIMSD1
 70
     0
  9
$DIMSD2
 70
     0
  9
$DIMTOLJ
 70
     0
  9
$DIMTZIN
 70
     1
  9
$DIMALTZ
 70
     0
  9
$DIMALTTZ
 70
     0
  9
$DIMUPT
 70
     0
  9
$DIMDEC
 70
     2
  9
$DIMTDEC
 70
     2
  9
$DIMALTU
 70
     2
  9
$DIMALTTD
 70
     3
  9
$DIMTXSTY
  7
Standard
  9
$DIMAUNIT
 70
     0
  9
$DIMADEC
 70
     2
  9
$DIMALTRND
 40
0.0
  9
$DIMAZIN
 70
     0
  9
$DIMDSEP
 70
    44
  9
$DIMATFIT
 70
     3
  9
$DIMFRAC
 70
     0
  9
$DIMLDRBLK
  1

  9
$DIMLUNIT
 70
     2
  9
$DIMLWD
 70
    -2
  9
$DIMLWE
 70
    -2
  9
$DIMTMOVE
 70
     0
  9
$LUNITS
 70
     2
  9
$LUPREC
 70
     2
  9
$SKETCHINC
 40
1.0
  9
$FILLETRAD
 40
10.0
  9
$AUNITS
 70
     0
  9
$AUPREC
 70
     2
  9
$MENU
  1
.
  9
$ELEVATION
 40
0.0
  9
$PELEVATION
 40
0.0
  9
$THICKNESS
 40
0.0
  9
$LIMCHECK
 70
     0
  9
$CHAMFERA
 40
0.0
  9
$CHAMFERB
 40
0.0
  9
$CHAMFERC
 40
0.0
  9
$CHAMFERD
 40
0.0
  9
$SKPOLY
 70
     0
  9
$TDCREATE
 40
2459247.391751158
  9
$TDUCREATE
 40
2459247.016751158
  9
$TDUPDATE
 40
2459247.39175206
  9
$TDUUPDATE
 40
2459247.01675206
  9
$TDINDWG
 40
0.0000000116
  9
$TDUSRTIMER
 40
0.0000000116
  9
$USRTIMER
 70
     1
  9
$ANGBASE
 50
0.0
  9
$ANGDIR
 70
     0
  9
$PDMODE
 70
     0
  9
$PDSIZE
 40
-1.0
  9
$PLINEWID
 40
0.0
  9
$SPLFRAME
 70
     0
  9
$SPLINETYPE
 70
     6
  9
$SPLINESEGS
 70
     8
  9
$HANDSEED
  5
21B
  9
$SURFTAB1
 70
     6
  9
$SURFTAB2
 70
     6
  9
$SURFTYPE
 70
     6
  9
$SURFU
 70
     6
  9
$SURFV
 70
     6
  9
$UCSBASE
  2

  9
$UCSNAME
  2

  9
$UCSORG
 10
0.0
 20
0.0
 30
0.0
  9
$UCSXDIR
 10
1.0
 20
0.0
 30
0.0
  9
$UCSYDIR
 10
0.0
 20
1.0
 30
0.0
  9
$UCSORTHOREF
  2

  9
$UCSORTHOVIEW
 70
     0
  9
$UCSORGTOP
 10
0.0
 20
0.0
 30
0.0
  9
$UCSORGBOTTOM
 10
0.0
 20
0.0
 30
0.0
  9
$UCSORGLEFT
 10
0.0
 20
0.0
 30
0.0
  9
$UCSORGRIGHT
 10
0.0
 20
0.0
 30
0.0
  9
$UCSORGFRONT
 10
0.0
 20
0.0
 30
0.0
  9
$UCSORGBACK
 10
0.0
 20
0.0
 30
0.0
  9
$PUCSBASE
  2

  9
$PUCSNAME
  2

  9
$PUCSORG
 10
0.0
 20
0.0
 30
0.0
  9
$PUCSXDIR
 10
1.0
 20
0.0
 30
0.0
  9
$PUCSYDIR
 10
0.0
 20
1.0
 30
0.0
  9
$PUCSORTHOREF
  2

  9
$PUCSORTHOVIEW
 70
     0
  9
$PUCSORGTOP
 10
0.0
 20
0.0
 30
0.0
  9
$PUCSORGBOTTOM
 10
0.0
 20
0.0
 30
0.0
  9
$PUCSORGLEFT
 10
0.0
 20
0.0
 30
0.0
  9
$PUCSORGRIGHT
 10
0.0
 20
0.0
 30
0.0
  9
$PUCSORGFRONT
 10
0.0
 20
0.0
 30
0.0
  9
$PUCSORGBACK
 10
0.0
 20
0.0
 30
0.0
  9
$USERI1
 70
     0
  9
$USERI2
 70
     0
  9
$USERI3
 70
     0
  9
$USERI4
 70
     0
  9
$USERI5
 70
     0
  9
$USERR1
 40
0.0
  9
$USERR2
 40
0.0
  9
$USERR3
 40
0.0
  9
$USERR4
 40
0.0
  9
$USERR5
 40
0.0
  9
$WORLDVIEW
 70
     1
  9
$SHADEDGE
 70
     3
  9
$SHADEDIF
 70
    70
  9
$TILEMODE
 70
     1
  9
$MAXACTVP
 70
    64
  9
$PINSBASE
 10
0.0
 20
0.0
 30
0.0
  9
$PLIMCHECK
 70
     0
  9
$PEXTMIN
 10
1.0000000000E+20
 20
1.0000000000E+20
 30
1.0000000000E+20
  9
$PEXTMAX
 10
-1.0000000000E+20
 20
-1.0000000000E+20
 30
-1.0000000000E+20
  9
$PLIMMIN
 10
0.0
 20
0.0
  9
$PLIMMAX
 10
420.0
 20
297.0
  9
$UNITMODE
 70
     0
  9
$VISRETAIN
 70
     1
  9
$PLINEGEN
 70
     0
  9
$PSLTSCALE
 70
     1
  9
$TREEDEPTH
 70
  3020
  9
$CMLSTYLE
  2
Standard
  9
$CMLJUST
 70
     0
  9
$CMLSCALE
 40
20.0
  9
$PROXYGRAPHICS
 70
     1
  9
$MEASUREMENT
 70
     1
  9
$CELWEIGHT
370
    -1
  9
$ENDCAPS
280
     0
  9
$JOINSTYLE
280
     0
  9
$LWDISPLAY
290
     1
  9
$INSUNITS
 70
     4
  9
$HYPERLINKBASE
  1

  9
$STYLESHEET
  1

  9
$XEDIT
290
     1
  9
$CEPSNTYPE
380
     0
  9
$PSTYLEMODE
290
     1
  9
$FINGERPRINTGUID
  2
{6FC3B132-43A9-4C3C-94F5-35551A1B0481}
  9
$VERSIONGUID
  2
{FAEB1C32-E019-11D5-929B-00C0DF256EC4}
  9
$EXTNAMES
290
     1
  9
$PSVPSCALE
 40
0.0
  9
$OLESTARTUP
290
     0
  0
ENDSEC
  0
SECTION
  2
CLASSES
  0
CLASS
  1
ACDBDICTIONARYWDFLT
  2
AcDbDictionaryWithDefault
  3
ObjectDBX Classes
 90
        0
280
     0
281
     0
  0
CLASS
  1
VISUALSTYLE
  2
AcDbVisualStyle
  3
ObjectDBX Classes
 90
     4095
280
     0
281
     0
  0
CLASS
  1
MATERIAL
  2
AcDbMaterial
  3
ObjectDBX Classes
 90
     1153
280
     0
281
     0
  0
CLASS
  1
SCALE
  2
AcDbScale
  3
ObjectDBX Classes
 90
     1153
280
     0
281
     0
  0
CLASS
  1
TABLESTYLE
  2
AcDbTableStyle
  3
ObjectDBX Classes
 90
     4095
280
     0
281
     0
  0
CLASS
  1
MLEADERSTYLE
  2
AcDbMLeaderStyle
  3
ACDB_MLEADERSTYLE_CLASS
 90
     4095
280
     0
281
     0
  0
CLASS
  1
SUN
  2
AcDbSun
  3
SCENEOE
 90
     1153
280
     0
281
     0
  0
CLASS
  1
ACDBPLACEHOLDER
  2
AcDbPlaceHolder
  3
ObjectDBX Classes
 90
        0
280
     0
281
     0
  0
CLASS
  1
LAYOUT
  2
AcDbLayout
  3
ObjectDBX Classes
 90
        0
280
     0
281
     0
  0
ENDSEC
  0
SECTION
  2
TABLES
  0
TABLE
  2
VPORT
  5
8
330
0
100
AcDbSymbolTable
 70
     1
  0
VPORT
  5
29
330
8
100
AcDbSymbolTableRecord
100
AcDbViewportTableRecord
  2
*Active
 70
     0
 10
0.0
 20
0.0
 11
1.0
 21
1.0
 12
215.9
 22
139.7
 13
0.0
 23
0.0
 14
10.0
 24
10.0
 15
10.0
 25
10.0
 16
0.0
 26
0.0
 36
1.0
 17
0.0
 27
0.0
 37
0.0
 40
279.4
 41
1.5454545455
 42
50.0
 43
0.0
 44
0.0
 50
0.0
 51
0.0
 71
     0
 72
  2000
 73
     1
 74
     3
 75
     0
 76
     0
 77
     0
 78
     0
281
     0
 65
     1
110
0.0
120
0.0
130
0.0
111
1.0
121
0.0
131
0.0
112
0.0
122
1.0
132
0.0
 79
     0
146
0.0
  0
ENDTAB
  0
TABLE
  2
LTYPE
  5
5
330
0
100
AcDbSymbolTable
 70
     6
  0
LTYPE
  5
14
330
5
100
AcDbSymbolTableRecord
100
AcDbLinetypeTableRecord
  2
ByBlock
 70
     0
  3

 72
    65
 73
     0
 40
0.0
  0
LTYPE
  5
15
330
5
100
AcDbSymbolTableRecord
100
AcDbLinetypeTableRecord
  2
ByLayer
 70
     0
  3

 72
    65
 73
     0
 40
0.0
  0
LTYPE
  5
16
330
5
100
AcDbSymbolTableRecord
100
AcDbLinetypeTableRecord
  2
Continuous
 70
     0
  3
Solid line
 72
    65
 73
     0
 40
0.0
  0
LTYPE
  5
6E
330
5
100
AcDbSymbolTableRecord
100
AcDbLinetypeTableRecord
  2
HIDDEN
 70
     0
  3
Hidden __ __ __ __ __ __ __ __ __ __ __ __ __ __
 72
    65
 73
     2
 40
1.905
 49
1.27
 74
     0
 49
-0.635
 74
     0
  0
LTYPE
  5
6F
330
5
100
AcDbSymbolTableRecord
100
AcDbLinetypeTableRecord
  2
PHANTOM
 70
     0
  3
Phantom ______  __  __  ______  __  __  ______
 72
    65
 73
     6
 40
12.7
 49
6.35
 74
     0
 49
-1.27
 74
     0
 49
1.27
 74
     0
 49
-1.27
 74
     0
 49
1.27
 74
     0
 49
-1.27
 74
     0
  0
LTYPE
  5
70
330
5
100
AcDbSymbolTableRecord
100
AcDbLinetypeTableRecord
  2
CENTER
 70
     0
  3
Center ____ _ ____ _ ____ _ ____ _ ____ _ ____
 72
    65
 73
     4
 40
10.16
 49
6.35
 74
     0
 49
-1.27
 74
     0
 49
1.27
 74
     0
 49
-1.27
 74
     0
  0
LTYPE
  5
71
330
5
100
AcDbSymbolTableRecord
100
AcDbLinetypeTableRecord
  2
CENTERX2
 70
     0
  3
Center (2x) ________  __  ________  __  _____
 72
    65
 73
     4
 40
20.32
 49
12.7
 74
     0
 49
-2.54
 74
     0
 49
2.54
 74
     0
 49
-2.54
 74
     0
  0
LTYPE
  5
72
330
5
100
AcDbSymbolTableRecord
100
AcDbLinetypeTableRecord
  2
DOT2
 70
     0
  3
Dot (.5x) ........................................
 72
    65
 73
     2
 40
0.635
 49
0.0
 74
     0
 49
-0.635
 74
     0
  0
ENDTAB
  0
TABLE
  2
LAYER
  5
2
330
0
100
AcDbSymbolTable
 70
     1
  0
LAYER
  5
10
330
2
100
AcDbSymbolTableRecord
100
AcDbLayerTableRecord
  2
0
 70
     0
 62
     7
  6
Continuous
370
    -3
390
F
  0
ENDTAB
  0
TABLE
  2
STYLE
  5
3
330
0
100
AcDbSymbolTable
 70
     2
  0
STYLE
  5
11
330
3
100
AcDbSymbolTableRecord
100
AcDbTextStyleTableRecord
  2
Standard
 70
     0
 40
0.0
 41
1.0
 50
0.0
 71
     0
 42
3.5
  3
txt
  4
bigfont
  0
STYLE
  5
73
330
3
100
AcDbSymbolTableRecord
100
AcDbTextStyleTableRecord
  2
SLDTEXTSTYLE0
 70
     0
 40
0.0
 41
0.7
 50
0.0
 71
     0
 42
3.5
  3
TXT
  4
bigfont
  0
ENDTAB
  0
TABLE
  2
VIEW
  5
6
330
0
100
AcDbSymbolTable
 70
     0
  0
ENDTAB
  0
TABLE
  2
UCS
  5
7
330
0
100
AcDbSymbolTable
 70
     0
  0
ENDTAB
  0
TABLE
  2
APPID
  5
9
330
0
100
AcDbSymbolTable
 70
     1
  0
APPID
  5
12
330
9
100
AcDbSymbolTableRecord
100
AcDbRegAppTableRecord
  2
ACAD
 70
     0
  0
ENDTAB
  0
TABLE
  2
DIMSTYLE
  5
A
330
0
100
AcDbSymbolTable
 70
     1
100
AcDbDimStyleTable
  0
DIMSTYLE
105
27
330
A
100
AcDbSymbolTableRecord
100
AcDbDimStyleTableRecord
  2
ISO-25
 70
     0
 41
2.5
 42
0.625
 43
3.75
 44
1.25
 73
     0
 74
     0
 77
     1
 78
     8
140
2.5
141
2.5
143
0.0393700787
147
0.625
171
     3
172
     1
178
     0
271
     2
272
     2
274
     3
278
    44
283
     0
284
     8
340
11
  0
ENDTAB
  0
TABLE
  2
BLOCK_RECORD
  5
1
330
0
100
AcDbSymbolTable
 70
     3
  0
BLOCK_RECORD
  5
1F
330
1
100
AcDbSymbolTableRecord
100
AcDbBlockTableRecord
  2
*Model_Space
340
22
  0
BLOCK_RECORD
  5
1B
330
1
100
AcDbSymbolTableRecord
100
AcDbBlockTableRecord
  2
*Paper_Space
340
1E
  0
BLOCK_RECORD
  5
23
330
1
100
AcDbSymbolTableRecord
100
AcDbBlockTableRecord
  2
*Paper_Space0
340
26
  0
BLOCK_RECORD
  5
196
330
1
100
AcDbSymbolTableRecord
100
AcDbBlockTableRecord
  2
SW_CENTERMARKSYMBOL_0
340
0
102
{BLKREFS
331
1A1
102
}
  0
BLOCK_RECORD
  5
20E
330
1
100
AcDbSymbolTableRecord
100
AcDbBlockTableRecord
  2
SW_CENTERMARKSYMBOL_1
340
0
102
{BLKREFS
331
219
102
}
  0
ENDTAB
  0
ENDSEC
  0
SECTION
  2
BLOCKS
  0
BLOCK
  5
20
330
1F
100
AcDbEntity
  8
0
100
AcDbBlockBegin
  2
*Model_Space
 70
     0
 10
0.0
 20
0.0
 30
0.0
  3
*Model_Space
  1

  0
ENDBLK
  5
21
330
1F
100
AcDbEntity
  8
0
100
AcDbBlockEnd
  0
BLOCK
  5
1C
330
1B
100
AcDbEntity
 67
     1
  8
0
100
AcDbBlockBegin
  2
*Paper_Space
 70
     0
 10
0.0
 20
0.0
 30
0.0
  3
*Paper_Space
  1

  0
ENDBLK
  5
1D
330
1B
100
AcDbEntity
 67
     1
  8
0
100
AcDbBlockEnd
  0
BLOCK
  5
24
330
23
100
AcDbEntity
  8
0
100
AcDbBlockBegin
  2
*Paper_Space0
 70
     0
 10
0.0
 20
0.0
 30
0.0
  3
*Paper_Space0
  1

  0
ENDBLK
  5
25
330
23
100
AcDbEntity
  8
0
100
AcDbBlockEnd
  0
BLOCK
  5
197
330
196
100
AcDbEntity
  8
0
100
AcDbBlockBegin
  2
SW_CENTERMARKSYMBOL_0
 70
     0
 10
0.0
 20
0.0
 30
0.0
  3
SW_CENTERMARKSYMBOL_0
  1

  0
LINE
  5
199
330
196
100
AcDbEntity
  8
0
  6
Continuous
 62
     0
370
    18
100
AcDbLine
 10
0.0
 20
0.0
 30
0.0
 11
0.0
 21
2.5
 31
0.0
  0
LINE
  5
19A
330
196
100
AcDbEntity
  8
0
  6
Continuous
 62
     0
370
    18
100
AcDbLine
 10
0.0
 20
0.0
 30
0.0
 11
-2.5
 21
0.0
 31
0.0
  0
LINE
  5
19B
330
196
100
AcDbEntity
  8
0
  6
Continuous
 62
     0
370
    18
100
AcDbLine
 10
0.0
 20
0.0
 30
0.0
 11
0.0
 21
-2.5
 31
0.0
  0
LINE
  5
19C
330
196
100
AcDbEntity
  8
0
  6
Continuous
 62
     0
370
    18
100
AcDbLine
 10
0.0
 20
0.0
 30
0.0
 11
2.5
 21
0.0
 31
0.0
  0
LINE
  5
19D
330
196
100
AcDbEntity
  8
0
  6
Continuous
 62
     0
370
    18
100
AcDbLine
 10
0.0
 20
5.0
 30
0.0
 11
0.0
 21
23.6194022724
 31
0.0
  0
LINE
  5
19E
330
196
100
AcDbEntity
  8
0
  6
Continuous
 62
     0
370
    18
100
AcDbLine
 10
-5.0
 20
0.0
 30
0.0
 11
-9.75
 21
0.0
 31
0.0
  0
LINE
  5
19F
330
196
100
AcDbEntity
  8
0
  6
Continuous
 62
     0
370
    18
100
AcDbLine
 10
0.0
 20
-5.0
 30
0.0
 11
0.0
 21
-9.75
 31
0.0
  0
LINE
  5
1A0
330
196
100
AcDbEntity
  8
0
  6
Continuous
 62
     0
370
    18
100
AcDbLine
 10
5.0
 20
0.0
 30
0.0
 11
9.75
 21
0.0
 31
0.0
  0
ENDBLK
  5
198
330
196
100
AcDbEntity
  8
0
100
AcDbBlockEnd
  0
BLOCK
  5
20F
330
20E
100
AcDbEntity
  8
0
100
AcDbBlockBegin
  2
SW_CENTERMARKSYMBOL_1
 70
     0
 10
0.0
 20
0.0
 30
0.0
  3
SW_CENTERMARKSYMBOL_1
  1

  0
LINE
  5
211
330
20E
100
AcDbEntity
  8
0
  6
Continuous
 62
     0
370
    18
100
AcDbLine
 10
0.0
 20
0.0
 30
0.0
 11
0.0
 21
2.5
 31
0.0
  0
LINE
  5
212
330
20E
100
AcDbEntity
  8
0
  6
Continuous
 62
     0
370
    18
100
AcDbLine
 10
0.0
 20
0.0
 30
0.0
 11
-2.5
 21
0.0
 31
0.0
  0
LINE
  5
213
330
20E
100
AcDbEntity
  8
0
  6
Continuous
 62
     0
370
    18
100
AcDbLine
 10
0.0
 20
0.0
 30
0.0
 11
0.0
 21
-2.5
 31
0.0
  0
LINE
  5
214
330
20E
100
AcDbEntity
  8
0
  6
Continuous
 62
     0
370
    18
100
AcDbLine
 10
0.0
 20
0.0
 30
0.0
 11
2.5
 21
0.0
 31
0.0
  0
LINE
  5
215
330
20E
100
AcDbEntity
  8
0
  6
Continuous
 62
     0
370
    18
100
AcDbLine
 10
0.0
 20
5.0
 30
0.0
 11
0.0
 21
9.75
 31
0.0
  0
LINE
  5
216
330
20E
100
AcDbEntity
  8
0
  6
Continuous
 62
     0
370
    18
100
AcDbLine
 10
-5.0
 20
0.0
 30
0.0
 11
-9.75
 21
0.0
 31
0.0
  0
LINE
  5
217
330
20E
100
AcDbEntity
  8
0
  6
Continuous
 62
     0
370
    18
100
AcDbLine
 10
0.0
 20
-5.0
 30
0.0
 11
0.0
 21
-9.75
 31
0.0
  0
LINE
  5
218
330
20E
100
AcDbEntity
  8
0
  6
Continuous
 62
     0
370
    18
100
AcDbLine
 10
5.0
 20
0.0
 30
0.0
 11
23.6784176612
 21
0.0
 31
0.0
  0
ENDBLK
  5
210
330
20E
100
AcDbEntity
  8
0
100
AcDbBlockEnd
  0
ENDSEC
  0
SECTION
  2
ENTITIES
  0
MTEXT
  5
74
330
1F
100
AcDbEntity
  8
0
  6
Continuous
 62
     7
370
     0
100
AcDbMText
 10
138.8681184542
 20
109.1055508952
 30
0.0
 40
4.2333333333
 41
0.0
 71
     1
 72
     1
  1
5R-LF1011
  7
SLDTEXTSTYLE0
 73
     1
 44
1.0
  0
LINE
  5
75
330
1F
100
AcDbEntity
  8
0
  6
Continuous
 62
     7
370
    25
100
AcDbLine
 10
106.5535551219
 20
96.3332018862
 30
0.0
 11
106.5535551219
 21
85.3332010145
 31
0.0
  0
LINE
  5
76
330
1F
100
AcDbEntity
  8
0
  6
Continuous
 62
     7
370
    25
100
AcDbLine
 10
121.0535547047
 20
85.3332010145
 30
0.0
 11
121.0535547047
 21
96.3332018862
 31
0.0
  0
ARC
  5
77
330
1F
100
AcDbEntity
  8
0
  6
Continuous
 62
     7
370
    25
100
AcDbCircle
 10
107.0535549133
 20
85.3332011561
 30
0.0
 40
0.5000000000000142
100
AcDbArc
 50
180.0
 51
270.0
  0
ARC
  5
78
330
1F
100
AcDbEntity
  8
0
  6
Continuous
 62
     7
370
    25
100
AcDbCircle
 10
120.5535549133
 20
85.3332011561
 30
0.0
 40
0.5
100
AcDbArc
 50
270.0
 51
0.0
  0
LINE
  5
79
330
1F
100
AcDbEntity
  8
0
  6
Continuous
 62
     7
370
    25
100
AcDbLine
 10
121.0535547047
 20
96.3332018862
 30
0.0
 11
120.5535550884
 21
96.8332010369
 31
0.0
  0
LINE
  5
7A
330
1F
100
AcDbEntity
  8
0
  6
Continuous
 62
     7
370
    25
100
AcDbLine
 10
107.0535547382
 20
96.8332010369
 30
0.0
 11
106.5535551219
 21
96.3332018862
 31
0.0
  0
LINE
  5
7B
330
1F
100
AcDbEntity
  8
0
  6
Continuous
 62
     7
370
    25
100
AcDbLine
 10
135.3035556435
 20
82.0832009475
 30
0.0
 11
124.3035547717
 21
82.0832009475
 31
0.0
  0
LINE
  5
7C
330
1F
100
AcDbEntity
  8
0
  6
Continuous
 62
     7
370
    25
100
AcDbLine
 10
124.3035547717
 20
67.5832013647
 30
0.0
 11
135.3035556435
 21
67.5832013647
 31
0.0
  0
ARC
  5
7D
330
1F
100
AcDbEntity
  8
0
  6
Continuous
 62
     7
370
    25
100
AcDbCircle
 10
124.3035549133
 20
81.5832011561
 30
0.0
 40
0.5
100
AcDbArc
 50
90.0
 51
180.0
  0
ARC
  5
7E
330
1F
100
AcDbEntity
  8
0
  6
Continuous
 62
     7
370
    25
100
AcDbCircle
 10
124.3035549133
 20
68.0832011561
 30
0.0
 40
0.5
100
AcDbArc
 50
180.0
 51
270.0
  0
LINE
  5
7F
330
1F
100
AcDbEntity
  8
0
  6
Continuous
 62
     7
370
    25
100
AcDbLine
 10
135.3035556435
 20
67.5832013647
 30
0.0
 11
135.8035547941
 21
68.083200981
 31
0.0
  0
LINE
  5
80
330
1F
100
AcDbEntity
  8
0
  6
Continuous
 62
     7
370
    25
100
AcDbLine
 10
135.8035547941
 20
81.5832013312
 30
0.0
 11
135.3035556435
 21
82.0832009475
 31
0.0
  0
ARC
  5
81
330
1F
100
AcDbEntity
  8
0
  6
Continuous
 62
     7
370
    25
100
AcDbCircle
 10
107.3035549133
 20
84.3332011561
 30
0.0
 40
0.5
100
AcDbArc
 50
0.0
 51
90.0
  0
ARC
  5
82
330
1F
100
AcDbEntity
  8
0
  6
Continuous
 62
     7
370
    25
100
AcDbCircle
 10
120.3035549133
 20
84.3332011561
 30
0.0
 40
0.5
100
AcDbArc
 50
90.0
 51
180.0
  0
ARC
  5
83
330
1F
100
AcDbEntity
  8
0
  6
Continuous
 62
     7
370
    25
100
AcDbCircle
 10
123.3035549133
 20
81.3332011561
 30
0.0
 40
0.5
100
AcDbArc
 50
270.0
 51
0.0
  0
ARC
  5
84
330
1F
100
AcDbEntity
  8
0
  6
Continuous
 62
     7
370
    25
100
AcDbCircle
 10
123.3035549133
 20
68.3332011561
 30
0.0
 40
0.5
100
AcDbArc
 50
0.0
 51
90.0
  0
LINE
  5
85
330
1F
100
AcDbEntity
  8
0
  6
Continuous
 62
     7
370
    25
100
AcDbLine
 10
109.8035547233
 20
68.8332011039
 30
0.0
 11
123.3035546078
 21
68.8332011039
 31
0.0
  0
LINE
  5
86
330
1F
100
AcDbEntity
  8
0
  6
Continuous
 62
     7
370
    25
100
AcDbLine
 10
123.3035546078
 20
80.8332012082
 30
0.0
 11
119.8035549654
 21
80.8332012082
 31
0.0
  0
LINE
  5
87
330
1F
100
AcDbEntity
  8
0
  6
Continuous
 62
     7
370
    25
100
AcDbLine
 10
119.8035549654
 20
80.8332012082
 30
0.0
 11
119.8035549654
 21
84.3332008506
 31
0.0
  0
LINE
  5
88
330
1F
100
AcDbEntity
  8
0
  6
Continuous
 62
     7
370
    25
100
AcDbLine
 10
107.8035548611
 20
84.3332008506
 30
0.0
 11
107.8035548611
 21
70.8332009661
 31
0.0
  0
ARC
  5
89
330
1F
100
AcDbEntity
  8
0
  6
Continuous
 62
     7
370
    25
100
AcDbCircle
 10
109.8035549133
 20
70.8332011561
 30
0.0
 40
2.000000000000007
100
AcDbArc
 50
179.7688492912
 51
270.2188797966
  0
LINE
  5
8A
330
1F
100
AcDbEntity
  8
0
  6
Continuous
 62
     7
370
    25
100
AcDbLine
 10
121.0535547047
 20
96.3332018862
 30
0.0
 11
106.5535551219
 21
96.3332018862
 31
0.0
  0
LINE
  5
8B
330
1F
100
AcDbEntity
  8
0
  6
Continuous
 62
     7
370
    25
100
AcDbLine
 10
120.5535550884
 20
84.8332009326
 30
0.0
 11
107.0535547382
 21
84.8332009326
 31
0.0
  0
LINE
  5
8C
330
1F
100
AcDbEntity
  8
0
  6
Continuous
 62
     7
370
    25
100
AcDbLine
 10
107.0535547382
 20
96.8332010369
 30
0.0
 11
120.5535550884
 21
96.8332010369
 31
0.0
  0
LINE
  5
8D
330
1F
100
AcDbEntity
  8
0
  6
Continuous
 62
     7
370
    25
100
AcDbLine
 10
135.3035556435
 20
67.5832013647
 30
0.0
 11
135.3035556435
 21
82.0832009475
 31
0.0
  0
LINE
  5
8E
330
1F
100
AcDbEntity
  8
0
  6
Continuous
 62
     7
370
    25
100
AcDbLine
 10
123.8035546898
 20
68.083200981
 30
0.0
 11
123.8035546898
 21
81.5832013312
 31
0.0
  0
LINE
  5
8F
330
1F
100
AcDbEntity
  8
0
  6
Continuous
 62
     7
370
    25
100
AcDbLine
 10
135.8035547941
 20
81.5832013312
 30
0.0
 11
135.8035547941
 21
68.083200981
 31
0.0
  0
SPLINE
  5
90
330
1F
100
AcDbEntity
  8
0
  6
Continuous
 62
     7
370
    25
100
AcDbSpline
210
0.0
220
0.0
230
1.0
 70
     8
 71
     3
 72
     8
 73
     4
 74
     0
 42
0.000000001
 43
0.00000001
 40
0.0
 40
0.0
 40
0.0
 40
0.0
 40
1.0
 40
1.0
 40
1.0
 40
1.0
 10
110.8035549132948
 20
69.79320115606939
 30
0.0
 10
110.6870883260726
 20
69.79320115606939
 30
0.0
 10
110.5727767556105
 20
69.80182197919959
 30
0.0
 10
110.460400791665
 20
69.81846997362464
 30
0.0
  0
LINE
  5
91
330
1F
100
AcDbEntity
  8
0
  6
Continuous
 62
     7
370
    25
100
AcDbLine
 10
120.0535550064
 20
69.7932009632
 30
0.0
 11
110.8035548872
 21
69.7932009632
 31
0.0
  0
SPLINE
  5
92
330
1F
100
AcDbEntity
  8
0
  6
Continuous
 62
     7
370
    25
100
AcDbSpline
210
0.0
220
0.0
230
1.0
 70
     8
 71
     3
 72
    14
 73
    10
 74
     0
 42
0.000000001
 43
0.00000001
 40
0.0
 40
0.0
 40
0.0
 40
0.0
 40
0.25
 40
0.25
 40
0.5
 40
0.5
 40
0.75
 40
0.75
 40
1.0
 40
1.0
 40
1.0
 40
1.0
 10
120.0535549132948
 20
69.79320115606937
 30
0.0
 10
120.1408729423012
 20
69.79320115606937
 30
0.0
 10
120.2225010501228
 20
69.81615395485584
 30
0.0
 10
120.3502021682562
 20
69.88064955401751
 30
0.0
 10
120.3995929610818
 20
69.92188204082379
 30
0.0
 10
120.4769516286398
 20
70.01134388079288
 30
0.0
 10
120.5055204382117
 20
70.06081871815304
 30
0.0
 10
120.5435878071788
 20
70.16339097608524
 30
0.0
 10
120.5535549132948
 20
70.2170007373665
 30
0.0
 10
120.5535549132948
 20
70.27320115606939
 30
0.0
  0
LINE
  5
93
330
1F
100
AcDbEntity
  8
0
  6
Continuous
 62
     7
370
    25
100
AcDbLine
 10
120.5535550884
 20
72.4816910504
 30
0.0
 11
120.5535550884
 21
70.2732013586
 31
0.0
  0
SPLINE
  5
94
330
1F
100
AcDbEntity
  8
0
  6
Continuous
 62
     7
370
    25
100
AcDbSpline
210
0.0
220
0.0
230
1.0
 70
    24
 71
     3
 72
    14
 73
    10
 74
     0
 42
0.000000001
 43
0.00000001
 40
0.0
 40
0.0
 40
0.0
 40
0.0
 40
0.25
 40
0.25
 40
0.5
 40
0.5
 40
0.75
 40
0.75
 40
1.0
 40
1.0
 40
1.0
 40
1.0
 10
120.5535549132948
 20
74.83320115606938
 30
0.0
 10
120.5535549132948
 20
74.63466384148036
 30
0.0
 10
120.5535549132948
 20
74.43612511064701
 30
0.0
 10
120.5535549132948
 20
74.03995627437345
 30
0.0
 10
120.5535549132948
 20
73.84232332905216
 30
0.0
 10
120.5535549132948
 20
73.44895690016199
 30
0.0
 10
120.5535549132948
 20
73.25322055950569
 30
0.0
 10
120.5535549132948
 20
72.86480864661388
 30
0.0
 10
120.5535549132948
 20
72.67213020553504
 30
0.0
 10
120.5535549132948
 20
72.48169100299754
 30
0.0
  0
SPLINE
  5
95
330
1F
100
AcDbEntity
  8
0
  6
Continuous
 62
     7
370
    25
100
AcDbSpline
210
0.0
220
0.0
230
1.0
 70
    24
 71
     3
 72
    14
 73
    10
 74
     0
 42
0.000000001
 43
0.00000001
 40
0.0
 40
0.0
 40
0.0
 40
0.0
 40
0.25
 40
0.25
 40
0.5
 40
0.5
 40
0.75
 40
0.75
 40
1.0
 40
1.0
 40
1.0
 40
1.0
 10
120.5535549132948
 20
74.83320115606938
 30
0.0
 10
120.5535549132948
 20
75.03173847065841
 30
0.0
 10
120.5535549132948
 20
75.23027720149176
 30
0.0
 10
120.5535549132948
 20
75.6264460377653
 30
0.0
 10
120.5535549132948
 20
75.82407898308662
 30
0.0
 10
120.5535549132948
 20
76.2174454119768
 30
0.0
 10
120.5535549132948
 20
76.4131817526331
 30
0.0
 10
120.5535549132948
 20
76.80159366552489
 30
0.0
 10
120.5535549132948
 20
76.99427210660373
 30
0.0
 10
120.5535549132948
 20
77.18471130914125
 30
0.0
  0
LINE
  5
96
330
1F
100
AcDbEntity
  8
0
  6
Continuous
 62
     7
370
    25
100
AcDbLine
 10
120.5535550884
 20
79.3932009536
 30
0.0
 11
120.5535550884
 21
77.1847112617
 31
0.0
  0
SPLINE
  5
97
330
1F
100
AcDbEntity
  8
0
  6
Continuous
 62
     7
370
    25
100
AcDbSpline
210
0.0
220
0.0
230
1.0
 70
     8
 71
     3
 72
    14
 73
    10
 74
     0
 42
0.000000001
 43
0.00000001
 40
0.0
 40
0.0
 40
0.0
 40
0.0
 40
0.25
 40
0.25
 40
0.5
 40
0.5
 40
0.75
 40
0.75
 40
1.0
 40
1.0
 40
1.0
 40
1.0
 10
120.5535549132948
 20
79.3932011560694
 30
0.0
 10
120.5535549132948
 20
79.44935439640022
 30
0.0
 10
120.5436016067423
 20
79.50310798871877
 30
0.0
 10
120.5052299909263
 20
79.60623139712824
 30
0.0
 10
120.4766910589531
 20
79.6554093731359
 30
0.0
 10
120.399503511673
 20
79.74457388546166
 30
0.0
 10
120.3500748264851
 20
79.78582254973352
 30
0.0
 10
120.222566339308
 20
79.85020990273554
 30
0.0
 10
120.1409501292539
 20
79.87320115606938
 30
0.0
 10
120.0535549132948
 20
79.87320115606938
 30
0.0
  0
LINE
  5
98
330
1F
100
AcDbEntity
  8
0
  6
Continuous
 62
     7
370
    25
100
AcDbLine
 10
119.8035549654
 20
79.8732013489
 30
0.0
 11
120.0535550064
 21
79.8732013489
 31
0.0
  0
SPLINE
  5
99
330
1F
100
AcDbEntity
  8
0
  6
Continuous
 62
     7
370
    25
100
AcDbSpline
210
0.0
220
0.0
230
1.0
 70
     8
 71
     3
 72
    12
 73
     8
 74
     0
 42
0.000000001
 43
0.00000001
 40
0.0
 40
0.0
 40
0.0
 40
0.0
 40
0.5000000000000009
 40
0.5000000000000009
 40
0.7500000000000004
 40
0.7500000000000004
 40
1.0
 40
1.0
 40
1.0
 40
1.0
 10
119.1732886761564
 20
80.20293491893105
 30
0.0
 10
119.2203368307049
 20
80.13291072455871
 30
0.0
 10
119.2853750619145
 20
80.05946741979601
 30
0.0
 10
119.4388484149665
 20
79.9612993195298
 30
0.0
 10
119.4990081346915
 20
79.93137218817708
 30
0.0
 10
119.6402956562566
 20
79.88685076291382
 30
0.0
 10
119.7207359650803
 20
79.87320115606938
 30
0.0
 10
119.8035549132948
 20
79.87320115606938
 30
0.0
  0
LINE
  5
9A
330
1F
100
AcDbEntity
  8
0
  6
Continuous
 62
     7
370
    25
100
AcDbLine
 10
119.1732884667
 20
80.2029347094
 30
0.0
 11
119.8035549654
 21
80.8332012082
 31
0.0
  0
SPLINE
  5
9B
330
1F
100
AcDbEntity
  8
0
  6
Continuous
 62
     7
370
    25
100
AcDbSpline
210
0.0
220
0.0
230
1.0
 70
    24
 71
     3
 72
    14
 73
    10
 74
     0
 42
0.000000001
 43
0.00000001
 40
0.0
 40
0.0
 40
0.0
 40
0.0
 40
0.25
 40
0.25
 40
0.5
 40
0.5
 40
0.75
 40
0.75
 40
1.0
 40
1.0
 40
1.0
 40
1.0
 10
113.8035549132948
 20
81.58320115606939
 30
0.0
 10
114.0020922278838
 20
81.58320115606939
 30
0.0
 10
114.2006309587172
 20
81.58320115606939
 30
0.0
 10
114.5967997949907
 20
81.58320115606939
 30
0.0
 10
114.794432740312
 20
81.58320115606939
 30
0.0
 10
115.1877991692022
 20
81.58320115606939
 30
0.0
 10
115.3835355098585
 20
81.58320115606939
 30
0.0
 10
115.7719474227503
 20
81.58320115606939
 30
0.0
 10
115.9646258638291
 20
81.58320115606939
 30
0.0
 10
116.1550650663666
 20
81.58320115606939
 30
0.0
  0
SPLINE
  5
9C
330
1F
100
AcDbEntity
  8
0
  6
Continuous
 62
     7
370
    25
100
AcDbSpline
210
0.0
220
0.0
230
1.0
 70
    24
 71
     3
 72
    14
 73
    10
 74
     0
 42
0.000000001
 43
0.00000001
 40
0.0
 40
0.0
 40
0.0
 40
0.0
 40
0.25
 40
0.25
 40
0.5
 40
0.5
 40
0.75
 40
0.75
 40
1.0
 40
1.0
 40
1.0
 40
1.0
 10
113.8035549132948
 20
81.58320115606939
 30
0.0
 10
113.6050175987058
 20
81.58320115606939
 30
0.0
 10
113.4064788678724
 20
81.58320115606939
 30
0.0
 10
113.0103100315989
 20
81.58320115606939
 30
0.0
 10
112.8126770862776
 20
81.58320115606939
 30
0.0
 10
112.4193106573874
 20
81.58320115606939
 30
0.0
 10
112.2235743167311
 20
81.58320115606939
 30
0.0
 10
111.8351624038393
 20
81.58320115606939
 30
0.0
 10
111.6424839627604
 20
81.58320115606939
 30
0.0
 10
111.4520447602229
 20
81.58320115606939
 30
0.0
  0
LINE
  5
9D
330
1F
100
AcDbEntity
  8
0
  6
Continuous
 62
     7
370
    25
100
AcDbLine
 10
109.2435551158
 20
81.5832013312
 30
0.0
 11
111.4520448076
 21
81.5832013312
 31
0.0
  0
SPLINE
  5
9E
330
1F
100
AcDbEntity
  8
0
  6
Continuous
 62
     7
370
    25
100
AcDbSpline
210
0.0
220
0.0
230
1.0
 70
     8
 71
     3
 72
    14
 73
    10
 74
     0
 42
0.000000001
 43
0.00000001
 40
0.0
 40
0.0
 40
0.0
 40
0.0
 40
0.25
 40
0.25
 40
0.5
 40
0.5
 40
0.75
 40
0.75
 40
1.0
 40
1.0
 40
1.0
 40
1.0
 10
109.2435549132948
 20
81.58320115606939
 30
0.0
 10
109.187401672964
 20
81.58320115606939
 30
0.0
 10
109.1336480806454
 20
81.57324784951687
 30
0.0
 10
109.0305246722359
 20
81.53487623370087
 30
0.0
 10
108.9813466962283
 20
81.50633730172771
 30
0.0
 10
108.8921821839025
 20
81.4291497544476
 30
0.0
 10
108.8509335196306
 20
81.37972106925967
 30
0.0
 10
108.7865461666286
 20
81.2522125820826
 30
0.0
 10
108.7635549132948
 20
81.17059637202847
 30
0.0
 10
108.7635549132948
 20
81.08320115606939
 30
0.0
  0
LINE
  5
9F
330
1F
100
AcDbEntity
  8
0
  6
Continuous
 62
     7
370
    25
100
AcDbLine
 10
108.7635547205
 20
71.83320113
 30
0.0
 11
108.7635547205
 21
81.0832012492
 31
0.0
  0
SPLINE
  5
A0
330
1F
100
AcDbEntity
  8
0
  6
Continuous
 62
     7
370
    25
100
AcDbSpline
210
0.0
220
0.0
230
1.0
 70
     8
 71
     3
 72
     8
 73
     4
 74
     0
 42
0.000000001
 43
0.00000001
 40
0.0
 40
0.0
 40
0.0
 40
0.0
 40
1.0
 40
1.0
 40
1.0
 40
1.0
 10
108.7888237308501
 20
71.49004703443957
 30
0.0
 10
108.772175736425
 20
71.60242299838514
 30
0.0
 10
108.7635549132948
 20
71.7167345688472
 30
0.0
 10
108.7635549132948
 20
71.83320115606939
 30
0.0
  0
SPLINE
  5
A1
330
1F
100
AcDbEntity
  8
0
  6
Continuous
 62
     7
370
    25
100
AcDbSpline
210
0.0
220
0.0
230
1.0
 70
     8
 71
     3
 72
    12
 73
     8
 74
     0
 42
0.000000001
 43
0.00000001
 40
0.0
 40
0.0
 40
0.0
 40
0.0
 40
0.2499999999999999
 40
0.2499999999999999
 40
0.4999999999999998
 40
0.4999999999999998
 40
1.0
 40
1.0
 40
1.0
 40
1.0
 10
118.8435549132948
 20
80.8332011560694
 30
0.0
 10
118.8435549132948
 20
80.75038220785491
 30
0.0
 10
118.8572045201392
 20
80.66994189903124
 30
0.0
 10
118.9017259454025
 20
80.52865437746611
 30
0.0
 10
118.9316530767552
 20
80.46849465774108
 30
0.0
 10
119.0298211770214
 20
80.3150213046891
 30
0.0
 10
119.1032644817841
 20
80.24998307347913
 30
0.0
 10
119.1732886761564
 20
80.20293491893072
 30
0.0
  0
LINE
  5
A2
330
1F
100
AcDbEntity
  8
0
  6
Continuous
 62
     7
370
    25
100
AcDbLine
 10
118.8435551061
 20
81.0832012492
 30
0.0
 11
118.8435551061
 21
80.8332012082
 31
0.0
  0
SPLINE
  5
A3
330
1F
100
AcDbEntity
  8
0
  6
Continuous
 62
     7
370
    25
100
AcDbSpline
210
0.0
220
0.0
230
1.0
 70
     8
 71
     3
 72
    14
 73
    10
 74
     0
 42
0.000000001
 43
0.00000001
 40
0.0
 40
0.0
 40
0.0
 40
0.0
 40
0.25
 40
0.25
 40
0.5
 40
0.5
 40
0.75
 40
0.75
 40
1.0
 40
1.0
 40
1.0
 40
1.0
 10
118.8435549132948
 20
81.08320115606939
 30
0.0
 10
118.8435549132948
 20
81.17051918507578
 30
0.0
 10
118.8206021145083
 20
81.25214729289738
 30
0.0
 10
118.7561065153467
 20
81.3798484110308
 30
0.0
 10
118.7148740285404
 20
81.42923920385638
 30
0.0
 10
118.6254121885713
 20
81.50659787141441
 30
0.0
 10
118.5759373512111
 20
81.5351666809863
 30
0.0
 10
118.4733650932789
 20
81.5732340499534
 30
0.0
 10
118.4197553319977
 20
81.58320115606939
 30
0.0
 10
118.3635549132948
 20
81.58320115606939
 30
0.0
  0
LINE
  5
A4
330
1F
100
AcDbEntity
  8
0
  6
Continuous
 62
     7
370
    25
100
AcDbLine
 10
116.1550650189
 20
81.5832013312
 30
0.0
 11
118.3635547108
 21
81.5832013312
 31
0.0
  0
LINE
  5
A5
330
1F
100
AcDbEntity
  8
0
  6
Continuous
 62
     7
370
    25
100
AcDbLine
 10
109.053555066
 20
81.3332012902
 30
0.0
 11
111.354065249
 21
81.3332012902
 31
0.0
  0
SPLINE
  5
A6
330
1F
100
AcDbEntity
  8
0
  6
Continuous
 62
     7
370
    25
100
AcDbSpline
210
0.0
220
0.0
230
1.0
 70
     8
 71
     3
 72
    12
 73
     8
 74
     0
 42
0.000000001
 43
0.00000001
 40
0.0
 40
0.0
 40
0.0
 40
0.0
 40
0.25
 40
0.25
 40
0.5
 40
0.5
 40
1.0
 40
1.0
 40
1.0
 40
1.0
 10
111.3683212603239
 20
81.25997785136524
 30
0.0
 10
111.370116707524
 20
81.2741919967941
 30
0.0
 10
111.3721439673308
 20
81.28587552605254
 30
0.0
 10
111.3751955977411
 20
81.3049352002204
 30
0.0
 10
111.3762199683446
 20
81.31231134512981
 30
0.0
 10
111.375588974725
 20
81.32910947532223
 30
0.0
 10
111.3702295050719
 20
81.33320115606939
 30
0.0
 10
111.3540651705116
 20
81.33320115606939
 30
0.0
  0
SPLINE
  5
A7
330
1F
100
AcDbEntity
  8
0
  6
Continuous
 62
     7
370
    25
100
AcDbSpline
210
0.0
220
0.0
230
1.0
 70
     8
 71
     3
 72
    10
 73
     6
 74
     0
 42
0.000000001
 43
0.00000001
 40
0.0
 40
0.0
 40
0.0
 40
0.0
 40
0.5
 40
0.5
 40
1.0
 40
1.0
 40
1.0
 40
1.0
 10
111.3683212603239
 20
81.25997785136524
 30
0.0
 10
111.3647303659238
 20
81.2315495605075
 30
0.0
 10
111.3611663434708
 20
81.19861563207068
 30
0.0
 10
111.3558337457646
 20
81.13570167523879
 30
0.0
 10
111.3540651705116
 20
81.10572164684369
 30
0.0
 10
111.3540651705116
 20
81.08320115606939
 30
0.0
  0
LINE
  5
A8
330
1F
100
AcDbEntity
  8
0
  6
Continuous
 62
     7
370
    25
100
AcDbLine
 10
111.354065249
 20
81.0832012492
 30
0.0
 11
109.053555066
 21
81.0832012492
 31
0.0
  0
LINE
  5
A9
330
1F
100
AcDbEntity
  8
0
  6
Continuous
 62
     7
370
    25
100
AcDbLine
 10
109.053555066
 20
81.0832012492
 30
0.0
 11
109.053555066
 21
81.3332012902
 31
0.0
  0
SPLINE
  5
AA
330
1F
100
AcDbEntity
  8
0
  6
Continuous
 62
     7
370
    25
100
AcDbSpline
210
0.0
220
0.0
230
1.0
 70
     8
 71
     3
 72
    12
 73
     8
 74
     0
 42
0.000000001
 43
0.00000001
 40
0.0
 40
0.0
 40
0.0
 40
0.0
 40
0.25
 40
0.25
 40
0.5
 40
0.5
 40
1.0
 40
1.0
 40
1.0
 40
1.0
 10
120.2303316085906
 20
72.39796750309854
 30
0.0
 10
120.2445457540195
 20
72.3997629502986
 30
0.0
 10
120.2562292832779
 20
72.40179021010537
 30
0.0
 10
120.2752889574458
 20
72.40484184051566
 30
0.0
 10
120.2826651023552
 20
72.40586621111916
 30
0.0
 10
120.2994632325476
 20
72.4052352174996
 30
0.0
 10
120.3035549132948
 20
72.39987574784647
 30
0.0
 10
120.3035549132948
 20
72.3837114132862
 30
0.0
  0
LINE
  5
AB
330
1F
100
AcDbEntity
  8
0
  6
Continuous
 62
     7
370
    25
100
AcDbLine
 10
120.3035550474
 20
72.3837114918
 30
0.0
 11
120.3035550474
 21
70.0832013088
 31
0.0
  0
LINE
  5
AC
330
1F
100
AcDbEntity
  8
0
  6
Continuous
 62
     7
370
    25
100
AcDbLine
 10
120.3035550474
 20
70.0832013088
 30
0.0
 11
120.0535550064
 21
70.0832013088
 31
0.0
  0
LINE
  5
AD
330
1F
100
AcDbEntity
  8
0
  6
Continuous
 62
     7
370
    25
100
AcDbLine
 10
120.0535550064
 20
70.0832013088
 30
0.0
 11
120.0535550064
 21
72.3837114918
 31
0.0
  0
SPLINE
  5
AE
330
1F
100
AcDbEntity
  8
0
  6
Continuous
 62
     7
370
    25
100
AcDbSpline
210
0.0
220
0.0
230
1.0
 70
     8
 71
     3
 72
    10
 73
     6
 74
     0
 42
0.000000001
 43
0.00000001
 40
0.0
 40
0.0
 40
0.0
 40
0.0
 40
0.5
 40
0.5
 40
1.0
 40
1.0
 40
1.0
 40
1.0
 10
120.2303316085906
 20
72.39796750309854
 30
0.0
 10
120.2019033177329
 20
72.39437660869845
 30
0.0
 10
120.1689693892961
 20
72.39081258624536
 30
0.0
 10
120.1060554324642
 20
72.38547998853925
 30
0.0
 10
120.0760754040691
 20
72.3837114132862
 30
0.0
 10
120.0535549132948
 20
72.3837114132862
 30
0.0
  0
LINE
  5
AF
330
1F
100
AcDbEntity
  8
0
  6
Continuous
 62
     7
370
    25
100
AcDbLine
 10
118.5535547606
 20
81.0832012492
 30
0.0
 11
116.2530445776
 21
81.0832012492
 31
0.0
  0
SPLINE
  5
B0
330
1F
100
AcDbEntity
  8
0
  6
Continuous
 62
     7
370
    25
100
AcDbSpline
210
0.0
220
0.0
230
1.0
 70
     8
 71
     3
 72
    10
 73
     6
 74
     0
 42
0.000000001
 43
0.00000001
 40
0.0
 40
0.0
 40
0.0
 40
0.0
 40
0.5
 40
0.5
 40
1.0
 40
1.0
 40
1.0
 40
1.0
 10
116.2387885662656
 20
81.25997785136524
 30
0.0
 10
116.2423794606657
 20
81.2315495605075
 30
0.0
 10
116.2459434831188
 20
81.19861563207068
 30
0.0
 10
116.2512760808249
 20
81.13570167523879
 30
0.0
 10
116.253044656078
 20
81.10572164684369
 30
0.0
 10
116.253044656078
 20
81.08320115606939
 30
0.0
  0
SPLINE
  5
B1
330
1F
100
AcDbEntity
  8
0
  6
Continuous
 62
     7
370
    25
100
AcDbSpline
210
0.0
220
0.0
230
1.0
 70
     8
 71
     3
 72
    12
 73
     8
 74
     0
 42
0.000000001
 43
0.00000001
 40
0.0
 40
0.0
 40
0.0
 40
0.0
 40
0.25
 40
0.25
 40
0.5
 40
0.5
 40
1.0
 40
1.0
 40
1.0
 40
1.0
 10
116.2387885662656
 20
81.25997785136524
 30
0.0
 10
116.2369931190656
 20
81.2741919967941
 30
0.0
 10
116.2349658592588
 20
81.28587552605254
 30
0.0
 10
116.2319142288485
 20
81.3049352002204
 30
0.0
 10
116.230889858245
 20
81.31231134512981
 30
0.0
 10
116.2315208518646
 20
81.32910947532223
 30
0.0
 10
116.2368803215177
 20
81.33320115606939
 30
0.0
 10
116.253044656078
 20
81.33320115606939
 30
0.0
  0
LINE
  5
B2
330
1F
100
AcDbEntity
  8
0
  6
Continuous
 62
     7
370
    25
100
AcDbLine
 10
116.2530445776
 20
81.3332012902
 30
0.0
 11
118.5535547606
 21
81.3332012902
 31
0.0
  0
LINE
  5
B3
330
1F
100
AcDbEntity
  8
0
  6
Continuous
 62
     7
370
    25
100
AcDbLine
 10
118.5535547606
 20
81.0832012492
 30
0.0
 11
118.5535547606
 21
81.3332012902
 31
0.0
  0
LINE
  5
B4
330
1F
100
AcDbEntity
  8
0
  6
Continuous
 62
     7
370
    25
100
AcDbLine
 10
118.5535547606
 20
80.8332012082
 30
0.0
 11
118.5535547606
 21
81.0832012492
 31
0.0
  0
ARC
  5
B5
330
1F
100
AcDbEntity
  8
0
  6
Continuous
 62
     7
370
    25
100
AcDbCircle
 10
119.8035549133
 20
80.8332011561
 30
0.0
 40
1.25
100
AcDbArc
 50
180.0
 51
270.0
  0
LINE
  5
B6
330
1F
100
AcDbEntity
  8
0
  6
Continuous
 62
     7
370
    25
100
AcDbLine
 10
120.0535550064
 20
79.5832010033
 30
0.0
 11
119.8035549654
 21
79.5832010033
 31
0.0
  0
LINE
  5
B7
330
1F
100
AcDbEntity
  8
0
  6
Continuous
 62
     7
370
    25
100
AcDbLine
 10
120.0535550064
 20
77.2826908204
 30
0.0
 11
120.0535550064
 21
79.5832010033
 31
0.0
  0
LINE
  5
B8
330
1F
100
AcDbEntity
  8
0
  6
Continuous
 62
     7
370
    25
100
AcDbLine
 10
120.0535550064
 20
77.2826908204
 30
0.0
 11
120.0535550064
 21
74.8332011561
 31
0.0
  0
LINE
  5
B9
330
1F
100
AcDbEntity
  8
0
  6
Continuous
 62
     7
370
    25
100
AcDbLine
 10
120.0535550064
 20
74.8332011561
 30
0.0
 11
120.0535550064
 21
72.3837114918
 31
0.0
  0
LINE
  5
BA
330
1F
100
AcDbEntity
  8
0
  6
Continuous
 62
     7
370
    25
100
AcDbLine
 10
110.8035548872
 20
70.0832013088
 30
0.0
 11
120.0535550064
 21
70.0832013088
 31
0.0
  0
ARC
  5
BB
330
1F
100
AcDbEntity
  8
0
  6
Continuous
 62
     7
370
    25
100
AcDbCircle
 10
110.8035549133
 20
71.8332011561
 30
0.0
 40
1.75
100
AcDbArc
 50
180.0
 51
270.0
  0
LINE
  5
BC
330
1F
100
AcDbEntity
  8
0
  6
Continuous
 62
     7
370
    25
100
AcDbLine
 10
109.053555066
 20
81.0832012492
 30
0.0
 11
109.053555066
 21
71.83320113
 31
0.0
  0
LINE
  5
BD
330
1F
100
AcDbEntity
  8
0
  6
Continuous
 62
     7
370
    25
100
AcDbLine
 10
111.354065249
 20
81.0832012492
 30
0.0
 11
113.8035549133
 21
81.0832012492
 31
0.0
  0
LINE
  5
BE
330
1F
100
AcDbEntity
  8
0
  6
Continuous
 62
     7
370
    25
100
AcDbLine
 10
113.8035549133
 20
81.0832012492
 30
0.0
 11
116.2530445776
 21
81.0832012492
 31
0.0
  0
SPLINE
  5
BF
330
1F
100
AcDbEntity
  8
0
  6
Continuous
 62
     7
370
    25
100
AcDbSpline
210
0.0
220
0.0
230
1.0
 70
     8
 71
     3
 72
    14
 73
    10
 74
     0
 42
0.000000001
 43
0.00000001
 40
0.0
 40
0.0
 40
0.0
 40
0.0
 40
0.25
 40
0.25
 40
0.5
 40
0.5
 40
0.75
 40
0.75
 40
1.0
 40
1.0
 40
1.0
 40
1.0
 10
116.5104179106571
 20
75.11384846001297
 30
0.0
 10
116.5672439001681
 20
75.23722533766026
 30
0.0
 10
116.6598430178508
 20
75.34051355380008
 30
0.0
 10
116.8896171328573
 20
75.48361337706612
 30
0.0
 10
117.0231419038164
 20
75.52129843960512
 30
0.0
 10
117.2946021333515
 20
75.52105931470484
 30
0.0
 10
117.42797677719
 20
75.48289485616817
 30
0.0
 10
117.6554043441004
 20
75.3412739930135
 30
0.0
 10
117.7492056488652
 20
75.2372356353223
 30
0.0
 10
117.8060363813623
 20
75.1138484600135
 30
0.0
  0
LINE
  5
C0
330
1F
100
AcDbEntity
  8
0
  6
Continuous
 62
     7
370
    25
100
AcDbLine
 10
115.6186235652
 20
72.62043064
 30
0.0
 11
116.5104178994
 21
75.1138484618
 31
0.0
  0
SPLINE
  5
C1
330
1F
100
AcDbEntity
  8
0
  6
Continuous
 62
     7
370
    25
100
AcDbSpline
210
0.0
220
0.0
230
1.0
 70
     8
 71
     3
 72
    10
 73
     6
 74
     0
 42
0.000000001
 43
0.00000001
 40
0.0
 40
0.0
 40
0.0
 40
0.0
 40
0.5
 40
0.5
 40
1.0
 40
1.0
 40
1.0
 40
1.0
 10
115.2828652538256
 20
72.50761412712306
 30
0.0
 10
115.3419491336115
 20
72.47509961182382
 30
0.0
 10
115.4131605034567
 20
72.46899475497793
 30
0.0
 10
115.5401811622187
 20
72.50919516600364
 30
0.0
 10
115.5958704097645
 20
72.55681394299056
 30
0.0
 10
115.6186235354375
 20
72.62043067985758
 30
0.0
  0
LINE
  5
C2
330
1F
100
AcDbEntity
  8
0
  6
Continuous
 62
     7
370
    25
100
AcDbLine
 10
114.5186641419
 20
72.9281624361
 30
0.0
 11
115.2828652461
 21
72.5076141814
 31
0.0
  0
LINE
  5
C3
330
1F
100
AcDbEntity
  8
0
  6
Continuous
 62
     7
370
    25
100
AcDbLine
 10
115.4658346253
 20
71.1225396069
 30
0.0
 11
114.5186641419
 21
72.9281624361
 31
0.0
  0
SPLINE
  5
C4
330
1F
100
AcDbEntity
  8
0
  6
Continuous
 62
     7
370
    25
100
AcDbSpline
210
0.0
220
0.0
230
1.0
 70
     8
 71
     3
 72
    10
 73
     6
 74
     0
 42
0.000000001
 43
0.00000001
 40
0.0
 40
0.0
 40
0.0
 40
0.0
 40
0.5000000000000006
 40
0.5000000000000006
 40
1.0
 40
1.0
 40
1.0
 40
1.0
 10
115.9473756310484
 20
71.03548572027132
 30
0.0
 10
115.8765493837216
 20
70.97262029281312
 30
0.0
 10
115.7776754363666
 20
70.94559195948584
 30
0.0
 10
115.593554013655
 20
70.97854268778387
 30
0.0
 10
115.5098296996289
 20
71.03867030778657
 30
0.0
 10
115.4658346364199
 20
71.1225395747993
 30
0.0
  0
SPLINE
  5
C5
330
1F
100
AcDbEntity
  8
0
  6
Continuous
 62
     7
370
    25
100
AcDbSpline
210
0.0
220
0.0
230
1.0
 70
     8
 71
     3
 72
    14
 73
    10
 74
     0
 42
0.000000001
 43
0.00000001
 40
0.0
 40
0.0
 40
0.0
 40
0.0
 40
0.2500000000000001
 40
0.2500000000000001
 40
0.3750000000000003
 40
0.3750000000000003
 40
0.5000000000000004
 40
0.5000000000000004
 40
1.0
 40
1.0
 40
1.0
 40
1.0
 10
118.3690786609716
 20
71.03548572027098
 30
0.0
 10
118.2027784392656
 20
71.1830939152338
 30
0.0
 10
118.0126077044757
 20
71.29581161398757
 30
0.0
 10
117.7015308426883
 20
71.41145819855099
 30
0.0
 10
117.595632343162
 20
71.4402281597603
 30
0.0
 10
117.3795935058257
 20
71.47896639460205
 30
0.0
 10
117.2683461691908
 20
71.48887316824487
 30
0.0
 10
116.7173757805588
 20
71.48885104924643
 30
0.0
 10
116.2799387520638
 20
71.330668982811
 30
0.0
 10
115.9473756310484
 20
71.03548572027132
 30
0.0
  0
SPLINE
  5
C6
330
1F
100
AcDbEntity
  8
0
  6
Continuous
 62
     7
370
    25
100
AcDbSpline
210
0.0
220
0.0
230
1.0
 70
     8
 71
     3
 72
    10
 73
     6
 74
     0
 42
0.000000001
 43
0.00000001
 40
0.0
 40
0.0
 40
0.0
 40
0.0
 40
0.5
 40
0.5
 40
1.0
 40
1.0
 40
1.0
 40
1.0
 10
118.8506196555999
 20
71.12253957479932
 30
0.0
 10
118.8066276455492
 20
71.03867612812476
 30
0.0
 10
118.7233736270454
 20
70.97876503530556
 30
0.0
 10
118.5391937441017
 20
70.94552923469838
 30
0.0
 10
118.4398965921303
 20
70.97262767424989
 30
0.0
 10
118.3690786609717
 20
71.03548572027101
 30
0.0
  0
LINE
  5
C7
330
1F
100
AcDbEntity
  8
0
  6
Continuous
 62
     7
370
    25
100
AcDbLine
 10
119.8093496545
 20
72.9501989252
 30
0.0
 11
118.8506196535
 21
71.1225396069
 31
0.0
  0
LINE
  5
C8
330
1F
100
AcDbEntity
  8
0
  6
Continuous
 62
     7
370
    25
100
AcDbLine
 10
119.0370802118
 20
72.5088777534
 30
0.0
 11
119.8093496545
 21
72.9501989252
 31
0.0
  0
SPLINE
  5
C9
330
1F
100
AcDbEntity
  8
0
  6
Continuous
 62
     7
370
    25
100
AcDbSpline
210
0.0
220
0.0
230
1.0
 70
     8
 71
     3
 72
    10
 73
     6
 74
     0
 42
0.000000001
 43
0.00000001
 40
0.0
 40
0.0
 40
0.0
 40
0.0
 40
0.5
 40
0.5
 40
1.0
 40
1.0
 40
1.0
 40
1.0
 10
118.6980376610234
 20
72.61985218415394
 30
0.0
 10
118.7209537824372
 20
72.55577971837783
 30
0.0
 10
118.7770814332512
 20
72.50793814715838
 30
0.0
 10
118.9061630760199
 20
72.46807435528116
 30
0.0
 10
118.9781142407242
 20
72.47518083480847
 30
0.0
 10
119.0370804019345
 20
72.50887765680942
 30
0.0
  0
LINE
  5
CA
330
1F
100
AcDbEntity
  8
0
  6
Continuous
 62
     7
370
    25
100
AcDbLine
 10
117.8060366123
 20
75.1138484618
 30
0.0
 11
118.6980378165
 21
72.6198522887
 31
0.0
  0
LINE
  5
CB
330
1F
100
AcDbEntity
  8
0
  6
Continuous
 62
     7
370
    25
100
AcDbLine
 10
120.3035550474
 20
79.5832010033
 30
0.0
 11
120.3035550474
 21
77.2826908204
 31
0.0
  0
SPLINE
  5
CC
330
1F
100
AcDbEntity
  8
0
  6
Continuous
 62
     7
370
    25
100
AcDbSpline
210
0.0
220
0.0
230
1.0
 70
     8
 71
     3
 72
    12
 73
     8
 74
     0
 42
0.000000001
 43
0.00000001
 40
0.0
 40
0.0
 40
0.0
 40
0.0
 40
0.25
 40
0.25
 40
0.5
 40
0.5
 40
1.0
 40
1.0
 40
1.0
 40
1.0
 10
120.2303316085906
 20
77.26843480904023
 30
0.0
 10
120.2445457540195
 20
77.26663936184018
 30
0.0
 10
120.2562292832779
 20
77.26461210203341
 30
0.0
 10
120.2752889574458
 20
77.26156047162313
 30
0.0
 10
120.2826651023552
 20
77.26053610101961
 30
0.0
 10
120.2994632325476
 20
77.26116709463918
 30
0.0
 10
120.3035549132948
 20
77.2665265642923
 30
0.0
 10
120.3035549132948
 20
77.28269089885256
 30
0.0
  0
SPLINE
  5
CD
330
1F
100
AcDbEntity
  8
0
  6
Continuous
 62
     7
370
    25
100
AcDbSpline
210
0.0
220
0.0
230
1.0
 70
     8
 71
     3
 72
    10
 73
     6
 74
     0
 42
0.000000001
 43
0.00000001
 40
0.0
 40
0.0
 40
0.0
 40
0.0
 40
0.5
 40
0.5
 40
1.0
 40
1.0
 40
1.0
 40
1.0
 10
120.2303316085906
 20
77.26843480904023
 30
0.0
 10
120.2019033177329
 20
77.27202570344033
 30
0.0
 10
120.1689693892961
 20
77.27558972589341
 30
0.0
 10
120.1060554324642
 20
77.28092232359954
 30
0.0
 10
120.0760754040691
 20
77.28269089885256
 30
0.0
 10
120.0535549132948
 20
77.28269089885256
 30
0.0
  0
LINE
  5
CE
330
1F
100
AcDbEntity
  8
0
  6
Continuous
 62
     7
370
    25
100
AcDbLine
 10
120.3035550474
 20
79.5832010033
 30
0.0
 11
120.0535550064
 21
79.5832010033
 31
0.0
  0
SPLINE
  5
CF
330
1F
100
AcDbEntity
  8
0
  6
Continuous
 62
     7
370
    25
100
AcDbSpline
210
0.0
220
0.0
230
1.0
 70
     8
 71
     3
 72
    12
 73
     8
 74
     0
 42
0.000000001
 43
0.00000001
 40
0.0
 40
0.0
 40
0.0
 40
0.0
 40
0.25
 40
0.25
 40
0.5
 40
0.5
 40
1.0
 40
1.0
 40
1.0
 40
1.0
 10
120.3055625135845
 20
74.83320115606938
 30
0.0
 10
120.2952990542953
 20
74.63099373364909
 30
0.0
 10
120.2877202744986
 20
74.42910690954464
 30
0.0
 10
120.2733068190495
 20
74.02372972239642
 30
0.0
 10
120.2664721433972
 20
73.82023935935266
 30
0.0
 10
120.2401463903968
 20
73.2039958584558
 30
0.0
 10
120.2304794390358
 20
72.80400433259204
 30
0.0
 10
120.2303316085906
 20
72.39796750309854
 30
0.0
  0
SPLINE
  5
D0
330
1F
100
AcDbEntity
  8
0
  6
Continuous
 62
     7
370
    25
100
AcDbSpline
210
0.0
220
0.0
230
1.0
 70
    24
 71
     3
 72
    10
 73
     6
 74
     0
 42
0.000000001
 43
0.00000001
 40
0.0
 40
0.0
 40
0.0
 40
0.0
 40
0.5
 40
0.5
 40
1.0
 40
1.0
 40
1.0
 40
1.0
 10
120.3055625135845
 20
74.83320115606938
 30
0.0
 10
120.2645086764279
 20
74.83320115606938
 30
0.0
 10
120.2204343241149
 20
74.83320115606938
 30
0.0
 10
120.129083054603
 20
74.83320115606938
 30
0.0
 10
120.096333273106
 20
74.83320115606938
 30
0.0
 10
120.0535549132948
 20
74.83320115606938
 30
0.0
  0
SPLINE
  5
D1
330
1F
100
AcDbEntity
  8
0
  6
Continuous
 62
     7
370
    25
100
AcDbSpline
210
0.0
220
0.0
230
1.0
 70
     8
 71
     3
 72
    12
 73
     8
 74
     0
 42
0.000000001
 43
0.00000001
 40
0.0
 40
0.0
 40
0.0
 40
0.0
 40
0.25
 40
0.25
 40
0.5
 40
0.5
 40
1.0
 40
1.0
 40
1.0
 40
1.0
 10
113.8035549132948
 20
81.33520875635908
 30
0.0
 10
114.0057623357151
 20
81.32494529706993
 30
0.0
 10
114.2076491598195
 20
81.31736651727316
 30
0.0
 10
114.6130263469677
 20
81.30295306182408
 30
0.0
 10
114.8165167100115
 20
81.2961183861718
 30
0.0
 10
115.4327602109084
 20
81.26979263317136
 30
0.0
 10
115.8327517367721
 20
81.26012568181038
 30
0.0
 10
116.2387885662656
 20
81.25997785136524
 30
0.0
  0
SPLINE
  5
D2
330
1F
100
AcDbEntity
  8
0
  6
Continuous
 62
     7
370
    25
100
AcDbSpline
210
0.0
220
0.0
230
1.0
 70
    24
 71
     3
 72
    10
 73
     6
 74
     0
 42
0.000000001
 43
0.00000001
 40
0.0
 40
0.0
 40
0.0
 40
0.0
 40
0.5
 40
0.5
 40
1.0
 40
1.0
 40
1.0
 40
1.0
 10
113.8035549132948
 20
81.33520875635908
 30
0.0
 10
113.8035549132948
 20
81.29415491920254
 30
0.0
 10
113.8035549132948
 20
81.2500805668895
 30
0.0
 10
113.8035549132948
 20
81.15872929737756
 30
0.0
 10
113.8035549132948
 20
81.12597951588054
 30
0.0
 10
113.8035549132948
 20
81.08320115606939
 30
0.0
  0
SPLINE
  5
D3
330
1F
100
AcDbEntity
  8
0
  6
Continuous
 62
     7
370
    25
100
AcDbSpline
210
0.0
220
0.0
230
1.0
 70
     8
 71
     3
 72
    12
 73
     8
 74
     0
 42
0.000000001
 43
0.00000001
 40
0.0
 40
0.0
 40
0.0
 40
0.0
 40
0.25
 40
0.25
 40
0.5
 40
0.5
 40
1.0
 40
1.0
 40
1.0
 40
1.0
 10
120.3055625135845
 20
74.83320115606938
 30
0.0
 10
120.2952990542953
 20
75.03540857848968
 30
0.0
 10
120.2877202744986
 20
75.23729540259411
 30
0.0
 10
120.2733068190495
 20
75.64267258974235
 30
0.0
 10
120.2664721433972
 20
75.84616295278612
 30
0.0
 10
120.2401463903968
 20
76.46240645368297
 30
0.0
 10
120.2304794390358
 20
76.86239797954673
 30
0.0
 10
120.2303316085906
 20
77.26843480904023
 30
0.0
  0
SPLINE
  5
D4
330
1F
100
AcDbEntity
  8
0
  6
Continuous
 62
     7
370
    25
100
AcDbSpline
210
0.0
220
0.0
230
1.0
 70
     8
 71
     3
 72
    12
 73
     8
 74
     0
 42
0.000000001
 43
0.00000001
 40
0.0
 40
0.0
 40
0.0
 40
0.0
 40
0.25
 40
0.25
 40
0.5
 40
0.5
 40
1.0
 40
1.0
 40
1.0
 40
1.0
 10
113.8035549132948
 20
81.33520875635908
 30
0.0
 10
113.6013474908745
 20
81.32494529706993
 30
0.0
 10
113.3994606667701
 20
81.31736651727316
 30
0.0
 10
112.9940834796218
 20
81.30295306182408
 30
0.0
 10
112.7905931165781
 20
81.2961183861718
 30
0.0
 10
112.1743496156812
 20
81.26979263317136
 30
0.0
 10
111.7743580898174
 20
81.26012568181038
 30
0.0
 10
111.3683212603239
 20
81.25997785136524
 30
0.0
  0
SPLINE
  5
D5
330
1F
100
AcDbEntity
  8
0
  6
Continuous
 62
     7
370
    25
100
AcDbSpline
210
0.0
220
0.0
230
1.0
 70
     8
 71
     3
 72
    10
 73
     6
 74
     0
 42
0.000000001
 43
0.00000001
 40
0.0
 40
0.0
 40
0.0
 40
0.0
 40
0.5
 40
0.5
 40
1.0
 40
1.0
 40
1.0
 40
1.0
 10
117.5747784243073
 20
75.01808411866914
 30
0.0
 10
117.5747784243073
 20
75.01808411866914
 30
0.0
 10
117.599794471658
 20
75.02866678243008
 30
0.0
 10
117.6850207389572
 20
75.06417308165177
 30
0.0
 10
117.7457225587608
 20
75.08921621618269
 30
0.0
 10
117.8060363813623
 20
75.11384846001353
 30
0.0
  0
SPLINE
  5
D6
330
1F
100
AcDbEntity
  8
0
  6
Continuous
 62
     7
370
    25
100
AcDbSpline
210
0.0
220
0.0
230
1.0
 70
     8
 71
     3
 72
    14
 73
    10
 74
     0
 42
0.000000001
 43
0.00000001
 40
0.0
 40
0.0
 40
0.0
 40
0.0
 40
0.25
 40
0.25
 40
0.5
 40
0.5
 40
0.75
 40
0.75
 40
1.0
 40
1.0
 40
1.0
 40
1.0
 10
117.5747784243074
 20
75.01808411866915
 30
0.0
 10
117.5368767425587
 20
75.09566735144284
 30
0.0
 10
117.4757676305668
 20
75.1602568167557
 30
0.0
 10
117.3298339480141
 20
75.24771152135952
 30
0.0
 10
117.2449553278615
 20
75.27109123872086
 30
0.0
 10
117.0724791595798
 20
75.27126658539252
 30
0.0
 10
116.9878218051735
 20
75.24838633287048
 30
0.0
 10
116.8398422634718
 20
75.15979587607252
 30
0.0
 10
116.7795710850994
 20
75.09565411915212
 30
0.0
 10
116.7416758677124
 20
75.01808411866939
 30
0.0
  0
SPLINE
  5
D7
330
1F
100
AcDbEntity
  8
0
  6
Continuous
 62
     7
370
    25
100
AcDbSpline
210
0.0
220
0.0
230
1.0
 70
     8
 71
     3
 72
    10
 73
     6
 74
     0
 42
0.000000001
 43
0.00000001
 40
0.0
 40
0.0
 40
0.0
 40
0.0
 40
0.5
 40
0.5
 40
1.0
 40
1.0
 40
1.0
 40
1.0
 10
116.7416758677122
 20
75.01808411866907
 30
0.0
 10
116.7416758677122
 20
75.01808411866907
 30
0.0
 10
116.7166598203614
 20
75.02866678242958
 30
0.0
 10
116.6314335530622
 20
75.06417308165125
 30
0.0
 10
116.5707317332586
 20
75.08921621618207
 30
0.0
 10
116.5104179106571
 20
75.11384846001297
 30
0.0
  0
LWPOLYLINE
  5
D8
330
1F
100
AcDbEntity
  8
0
  6
Continuous
 62
     7
370
    25
100
AcDbPolyline
 90
        9
 70
   128
 43
0.0
 10
118.6980378165
 20
72.6198522887
 10
118.6521138347
 20
72.6034272509
 10
118.6079551748
 20
72.5876334171
 10
118.5672582409
 20
72.5730775437
 10
118.5315867237
 20
72.5603195886
 10
118.5023124612
 20
72.5498491945
 10
118.4805590941
 20
72.5420689258
 10
118.4671638816
 20
72.5372779696
 10
118.4626409135
 20
72.5356602623
  0
LINE
  5
D9
330
1F
100
AcDbEntity
  8
0
  6
Continuous
 62
     7
370
    25
100
AcDbLine
 10
118.4626409135
 20
72.5356602623
 30
0.0
 11
117.5747785068
 21
75.0180841122
 31
0.0
  0
LINE
  5
DA
330
1F
100
AcDbEntity
  8
0
  6
Continuous
 62
     7
370
    25
100
AcDbLine
 10
116.741675772
 20
75.0180841122
 30
0.0
 11
115.8540205846
 21
72.5362388464
 31
0.0
  0
LWPOLYLINE
  5
DB
330
1F
100
AcDbEntity
  8
0
  6
Continuous
 62
     7
370
    25
100
AcDbPolyline
 90
        9
 70
   128
 43
0.0
 10
115.6186235652
 20
72.62043064
 10
115.6645471978
 20
72.6040056023
 10
115.7087060905
 20
72.5882117684
 10
115.7494030244
 20
72.5736561279
 10
115.7850743088
 20
72.5608979399
 10
115.8143490369
 20
72.5504275459
 10
115.8361019383
 20
72.5426475099
 10
115.8494973837
 20
72.5378565538
 10
115.8540205846
 20
72.5362388464
  0
SPLINE
  5
DC
330
1F
100
AcDbEntity
  8
0
  6
Continuous
 62
     7
370
    25
100
AcDbSpline
210
0.0
220
0.0
230
1.0
 70
     8
 71
     3
 72
    14
 73
    10
 74
     0
 42
0.000000001
 43
0.00000001
 40
0.0
 40
0.0
 40
0.0
 40
0.0
 40
0.25
 40
0.25
 40
0.5
 40
0.5
 40
0.75
 40
0.75
 40
1.0
 40
1.0
 40
1.0
 40
1.0
 10
113.8035549132948
 20
81.33520875635908
 30
0.0
 10
113.6013474908745
 20
81.34547221564821
 30
0.0
 10
113.4007576583442
 20
81.36013710607897
 30
0.0
 10
113.0027836783903
 20
81.39187248426246
 30
0.0
 10
112.8053995309667
 20
81.40894297201523
 30
0.0
 10
112.4138074265526
 20
81.4390922798815
 30
0.0
 10
112.2169292511538
 20
81.4449237500314
 30
0.0
 10
111.8245721907133
 20
81.43881762680984
 30
0.0
 10
111.6290933056716
 20
81.42688003343838
 30
0.0
 10
111.4360958341787
 20
81.40641656032882
 30
0.0
  0
SPLINE
  5
DD
330
1F
100
AcDbEntity
  8
0
  6
Continuous
 62
     7
370
    25
100
AcDbSpline
210
0.0
220
0.0
230
1.0
 70
     8
 71
     3
 72
     8
 73
     4
 74
     0
 42
0.000000001
 43
0.00000001
 40
0.0
 40
0.0
 40
0.0
 40
0.0
 40
1.0
 40
1.0
 40
1.0
 40
1.0
 10
111.4360958341787
 20
81.40641656032882
 30
0.0
 10
111.4498858555218
 20
81.45269715593327
 30
0.0
 10
111.456242046859
 20
81.5177475847314
 30
0.0
 10
111.4520447602229
 20
81.58320115606939
 30
0.0
  0
SPLINE
  5
DE
330
1F
100
AcDbEntity
  8
0
  6
Continuous
 62
     7
370
    25
100
AcDbSpline
210
0.0
220
0.0
230
1.0
 70
    24
 71
     3
 72
    10
 73
     6
 74
     0
 42
0.000000001
 43
0.00000001
 40
0.0
 40
0.0
 40
0.0
 40
0.0
 40
0.5
 40
0.5
 40
1.0
 40
1.0
 40
1.0
 40
1.0
 10
113.8035549132948
 20
81.33520875635908
 30
0.0
 10
113.8035549132948
 20
81.37626259351562
 30
0.0
 10
113.8035549132948
 20
81.41973942389662
 30
0.0
 10
113.8035549132948
 20
81.50879812362096
 30
0.0
 10
113.8035549132948
 20
81.54090149314462
 30
0.0
 10
113.8035549132948
 20
81.58320115606939
 30
0.0
  0
SPLINE
  5
DF
330
1F
100
AcDbEntity
  8
0
  6
Continuous
 62
     7
370
    25
100
AcDbSpline
210
0.0
220
0.0
230
1.0
 70
     8
 71
     3
 72
    10
 73
     6
 74
     0
 42
0.000000001
 43
0.00000001
 40
0.0
 40
0.0
 40
0.0
 40
0.0
 40
0.5
 40
0.5
 40
1.0
 40
1.0
 40
1.0
 40
1.0
 10
116.1710139924109
 20
81.40641656032882
 30
0.0
 10
116.1631447600306
 20
81.4348438203961
 30
0.0
 10
116.1588779126457
 20
81.46907045856294
 30
0.0
 10
116.1549490763317
 20
81.53209250410052
 30
0.0
 10
116.1550650663666
 20
81.5606782233925
 30
0.0
 10
116.1550650663666
 20
81.58320115606939
 30
0.0
  0
SPLINE
  5
E0
330
1F
100
AcDbEntity
  8
0
  6
Continuous
 62
     7
370
    25
100
AcDbSpline
210
0.0
220
0.0
230
1.0
 70
     8
 71
     3
 72
    14
 73
    10
 74
     0
 42
0.000000001
 43
0.00000001
 40
0.0
 40
0.0
 40
0.0
 40
0.0
 40
0.25
 40
0.25
 40
0.5
 40
0.5
 40
0.75
 40
0.75
 40
1.0
 40
1.0
 40
1.0
 40
1.0
 10
113.8035549132948
 20
81.33520875635908
 30
0.0
 10
114.0057623357151
 20
81.34547221564821
 30
0.0
 10
114.2063521682454
 20
81.36013710607897
 30
0.0
 10
114.6043261481993
 20
81.39187248426246
 30
0.0
 10
114.8017102956229
 20
81.40894297201523
 30
0.0
 10
115.1933024000369
 20
81.4390922798815
 30
0.0
 10
115.3901805754357
 20
81.4449237500314
 30
0.0
 10
115.7825376358763
 20
81.43881762680984
 30
0.0
 10
115.978016520918
 20
81.42688003343838
 30
0.0
 10
116.1710139924109
 20
81.40641656032882
 30
0.0
  0
SPLINE
  5
E1
330
1F
100
AcDbEntity
  8
0
  6
Continuous
 62
     7
370
    25
100
AcDbSpline
210
0.0
220
0.0
230
1.0
 70
     8
 71
     3
 72
     8
 73
     4
 74
     0
 42
0.000000001
 43
0.00000001
 40
0.0
 40
0.0
 40
0.0
 40
0.0
 40
1.0
 40
1.0
 40
1.0
 40
1.0
 10
120.5535549132948
 20
72.48169100299754
 30
0.0
 10
120.4881013419568
 20
72.48588828963364
 30
0.0
 10
120.4230509131587
 20
72.47953209829639
 30
0.0
 10
120.3767703175542
 20
72.4657420769533
 30
0.0
  0
SPLINE
  5
E2
330
1F
100
AcDbEntity
  8
0
  6
Continuous
 62
     7
370
    25
100
AcDbSpline
210
0.0
220
0.0
230
1.0
 70
     8
 71
     3
 72
    12
 73
     8
 74
     0
 42
0.000000001
 43
0.00000001
 40
0.0
 40
0.0
 40
0.0
 40
0.0
 40
0.25
 40
0.25
 40
0.5
 40
0.5
 40
1.0
 40
1.0
 40
1.0
 40
1.0
 10
120.3055625135845
 20
74.83320115606938
 30
0.0
 10
120.3158259728736
 20
74.63099373364909
 30
0.0
 10
120.3304908633044
 20
74.43040390111881
 30
0.0
 10
120.3622262414879
 20
74.03242992116489
 30
0.0
 10
120.3792967292406
 20
73.83504577374126
 30
0.0
 10
120.4245206910401
 20
73.24765761712024
 30
0.0
 10
120.4176972637733
 20
72.85173701993902
 30
0.0
 10
120.3767703175542
 20
72.4657420769533
 30
0.0
  0
SPLINE
  5
E3
330
1F
100
AcDbEntity
  8
0
  6
Continuous
 62
     7
370
    25
100
AcDbSpline
210
0.0
220
0.0
230
1.0
 70
    24
 71
     3
 72
    10
 73
     6
 74
     0
 42
0.000000001
 43
0.00000001
 40
0.0
 40
0.0
 40
0.0
 40
0.0
 40
0.5
 40
0.5
 40
1.0
 40
1.0
 40
1.0
 40
1.0
 10
120.3055625135845
 20
74.83320115606938
 30
0.0
 10
120.346616350741
 20
74.83320115606938
 30
0.0
 10
120.390093181122
 20
74.83320115606938
 30
0.0
 10
120.4791518808464
 20
74.83320115606938
 30
0.0
 10
120.51125525037
 20
74.83320115606938
 30
0.0
 10
120.5535549132948
 20
74.83320115606938
 30
0.0
  0
SPLINE
  5
E4
330
1F
100
AcDbEntity
  8
0
  6
Continuous
 62
     7
370
    25
100
AcDbSpline
210
0.0
220
0.0
230
1.0
 70
     8
 71
     3
 72
    12
 73
     8
 74
     0
 42
0.000000001
 43
0.00000001
 40
0.0
 40
0.0
 40
0.0
 40
0.0
 40
0.25
 40
0.25
 40
0.5
 40
0.5
 40
1.0
 40
1.0
 40
1.0
 40
1.0
 10
120.3055625135845
 20
74.83320115606938
 30
0.0
 10
120.3158259728736
 20
75.03540857848968
 30
0.0
 10
120.3304908633044
 20
75.23599841101996
 30
0.0
 10
120.3622262414879
 20
75.63397239097388
 30
0.0
 10
120.3792967292406
 20
75.83135653839753
 30
0.0
 10
120.4245206910401
 20
76.41874469501855
 30
0.0
 10
120.4176972637733
 20
76.81466529219975
 30
0.0
 10
120.3767703175542
 20
77.20066023518547
 30
0.0
  0
SPLINE
  5
E5
330
1F
100
AcDbEntity
  8
0
  6
Continuous
 62
     7
370
    25
100
AcDbSpline
210
0.0
220
0.0
230
1.0
 70
     8
 71
     3
 72
    10
 73
     6
 74
     0
 42
0.000000001
 43
0.00000001
 40
0.0
 40
0.0
 40
0.0
 40
0.0
 40
0.5
 40
0.5
 40
1.0
 40
1.0
 40
1.0
 40
1.0
 10
120.3767703175542
 20
77.20066023518547
 30
0.0
 10
120.4051975776215
 20
77.19279100280522
 30
0.0
 10
120.4394242157883
 20
77.1885241554203
 30
0.0
 10
120.5024462613259
 20
77.18459531910632
 30
0.0
 10
120.5310319806179
 20
77.18471130914125
 30
0.0
 10
120.5535549132948
 20
77.18471130914125
 30
0.0
  0
SPLINE
  5
E6
330
1F
100
AcDbEntity
  8
0
  6
Continuous
 62
     7
370
    25
100
AcDbSpline
210
0.0
220
0.0
230
1.0
 70
     8
 71
     3
 72
    14
 73
    10
 74
     0
 42
0.000000001
 43
0.00000001
 40
0.0
 40
0.0
 40
0.0
 40
0.0
 40
0.0526822267945598
 40
0.1287456339724992
 40
0.2353187193853958
 40
0.3749156516620482
 40
0.5485969096886099
 40
0.7568720674016369
 40
0.9999999999999999
 40
0.9999999999999999
 40
0.9999999999999999
 40
0.9999999999999999
 10
111.3540651705116
 20
81.33320115606939
 30
0.0
 10
111.3575458551552
 20
81.33321195707718
 30
0.0
 10
111.3660520056802
 20
81.3332383527457
 30
0.0
 10
111.3766016645893
 20
81.33406525921208
 30
0.0
 10
111.3882452218429
 20
81.33676875960614
 30
0.0
 10
111.4005208156662
 20
81.3430692003631
 30
0.0
 10
111.4132681806413
 20
81.35524337933828
 30
0.0
 10
111.426012974637
 20
81.37534766861835
 30
0.0
 10
111.4325662225211
 20
81.39554056608159
 30
0.0
 10
111.4360958341787
 20
81.40641656032882
 30
0.0
  0
SPLINE
  5
E7
330
1F
100
AcDbEntity
  8
0
  6
Continuous
 62
     7
370
    25
100
AcDbSpline
210
0.0
220
0.0
230
1.0
 70
     8
 71
     3
 72
    14
 73
    10
 74
     0
 42
0.000000001
 43
0.00000001
 40
0.0
 40
0.0
 40
0.0
 40
0.0
 40
0.243127932598341
 40
0.4514030903113563
 40
0.6250843483379128
 40
0.7646812806145595
 40
0.8712543660274661
 40
0.9473177732054238
 40
1.0
 40
1.0
 40
1.0
 40
1.0
 10
120.3767703175542
 20
72.4657420769533
 30
0.0
 10
120.365894323307
 20
72.46221246529569
 30
0.0
 10
120.3457014258437
 20
72.45565921741165
 30
0.0
 10
120.3255971365637
 20
72.44291442341596
 30
0.0
 10
120.3134229575885
 20
72.43016705844083
 30
0.0
 10
120.3071225168315
 20
72.41789146461751
 30
0.0
 10
120.3044190164375
 20
72.40624790736388
 30
0.0
 10
120.3035921099711
 20
72.3956982484548
 30
0.0
 10
120.3035657143026
 20
72.38719209792984
 30
0.0
 10
120.3035549132948
 20
72.3837114132862
 30
0.0
  0
SPLINE
  5
E8
330
1F
100
AcDbEntity
  8
0
  6
Continuous
 62
     7
370
    25
100
AcDbSpline
210
0.0
220
0.0
230
1.0
 70
     8
 71
     3
 72
    12
 73
     8
 74
     0
 42
0.000000001
 43
0.00000001
 40
0.0
 40
0.0
 40
0.0
 40
0.0
 40
0.25
 40
0.25
 40
0.5
 40
0.5
 40
1.0
 40
1.0
 40
1.0
 40
1.0
 10
120.3767703175542
 20
77.20066023518547
 30
0.0
 10
120.3625566875206
 20
77.2045948513756
 30
0.0
 10
120.349855163768
 20
77.20949238519714
 30
0.0
 10
120.3287877344256
 20
77.22087901896204
 30
0.0
 10
120.3204218288357
 20
77.22736811890537
 30
0.0
 10
120.303794647711
 20
77.24872136420642
 30
0.0
 10
120.3035549132948
 20
77.26512232019515
 30
0.0
 10
120.3035549132948
 20
77.28269089885256
 30
0.0
  0
SPLINE
  5
E9
330
1F
100
AcDbEntity
  8
0
  6
Continuous
 62
     7
370
    25
100
AcDbSpline
210
0.0
220
0.0
230
1.0
 70
     8
 71
     3
 72
    12
 73
     8
 74
     0
 42
0.000000001
 43
0.00000001
 40
0.0
 40
0.0
 40
0.0
 40
0.0
 40
0.25
 40
0.25
 40
0.5
 40
0.5
 40
1.0
 40
1.0
 40
1.0
 40
1.0
 10
116.1710139924109
 20
81.40641656032882
 30
0.0
 10
116.174948608601
 20
81.39220293029518
 30
0.0
 10
116.1798461424225
 20
81.37950140654262
 30
0.0
 10
116.1912327761874
 20
81.35843397720018
 30
0.0
 10
116.1977218761308
 20
81.35006807161031
 30
0.0
 10
116.2190751214318
 20
81.33344089048565
 30
0.0
 10
116.2354760774205
 20
81.33320115606939
 30
0.0
 10
116.253044656078
 20
81.33320115606939
 30
0.0
  0
LWPOLYLINE
  5
EA
330
1F
100
AcDbEntity
  8
0
  6
Continuous
 62
     7
370
    25
100
AcDbPolyline
 90
        9
 70
   128
 43
0.0
 10
114.5186641419
 20
72.9281624361
 10
114.6371450208
 20
72.8072912014
 10
114.7510726636
 20
72.6910647052
 10
114.8560690976
 20
72.5839498034
 10
114.9480991348
 20
72.4900629419
 10
115.0236262523
 20
72.4130120641
 10
115.0797479835
 20
72.3557578447
 10
115.114307618
 20
72.3205009988
 10
115.1259768571
 20
72.3085961352
  0
LINE
  5
EB
330
1F
100
AcDbEntity
  8
0
  6
Continuous
 62
     7
370
    25
100
AcDbLine
 10
115.1259768571
 20
72.3085961352
 30
0.0
 11
115.6872235055
 21
71.2386729709
 31
0.0
  0
LWPOLYLINE
  5
EC
330
1F
100
AcDbEntity
  8
0
  6
Continuous
 62
     7
370
    25
100
AcDbPolyline
 90
        9
 70
   128
 43
0.0
 10
115.6872235055
 20
71.2386729709
 10
115.6829695732
 20
71.236441522
 10
115.6703713399
 20
71.229832857
 10
115.6499127441
 20
71.2191009941
 10
115.6223802877
 20
71.2046582765
 10
115.5888317202
 20
71.1870597723
 10
115.5505564579
 20
71.1669818545
 10
115.5090255246
 20
71.1451961241
 10
115.4658346253
 20
71.1225396069
  0
LWPOLYLINE
  5
ED
330
1F
100
AcDbEntity
  8
0
  6
Continuous
 62
     7
370
    25
100
AcDbPolyline
 90
        9
 70
   128
 43
0.0
 10
115.2828652461
 20
72.5076141814
 10
115.2593506317
 20
72.4648844032
 10
115.2367396329
 20
72.4237967795
 10
115.2159012903
 20
72.385930135
 10
115.1976363084
 20
72.3527398939
 10
115.1826465552
 20
72.3255012697
 10
115.17150817
 20
72.3052613019
 10
115.1646492121
 20
72.2927974119
 10
115.1623332457
 20
72.288588998
  0
LINE
  5
EE
330
1F
100
AcDbEntity
  8
0
  6
Continuous
 62
     7
370
    25
100
AcDbLine
 10
115.1623332457
 20
72.288588998
 30
0.0
 11
115.1259768571
 21
72.3085961352
 31
0.0
  0
LINE
  5
EF
330
1F
100
AcDbEntity
  8
0
  6
Continuous
 62
     7
370
    25
100
AcDbLine
 10
119.1904774218
 20
72.3085961352
 30
0.0
 11
119.1611202716
 21
72.291819756
 31
0.0
  0
LWPOLYLINE
  5
F0
330
1F
100
AcDbEntity
  8
0
  6
Continuous
 62
     7
370
    25
100
AcDbPolyline
 90
        9
 70
   128
 43
0.0
 10
119.1611202716
 20
72.291819756
 10
119.1587370171
 20
72.2959904513
 10
119.1516785233
 20
72.3083423498
 10
119.1402158051
 20
72.3284007097
 10
119.1247898436
 20
72.3553946289
 10
119.1059934257
 20
72.3882868468
 10
119.0845483265
 20
72.4258133258
 10
119.0612792319
 20
72.46653168
 10
119.0370802118
 20
72.5088777534
  0
LWPOLYLINE
  5
F1
330
1F
100
AcDbEntity
  8
0
  6
Continuous
 62
     7
370
    25
100
AcDbPolyline
 90
        9
 70
   128
 43
0.0
 10
119.1904774218
 20
72.3085961352
 10
119.2023690141
 20
72.3209245178
 10
119.2375860459
 20
72.3574353895
 10
119.2947762369
 20
72.4167257129
 10
119.3717407345
 20
72.4965172401
 10
119.4655225894
 20
72.5937435916
 10
119.5725175834
 20
72.7046683012
 10
119.6886139273
 20
72.8250284727
 10
119.8093496545
 20
72.9501989252
  0
ARC
  5
F2
330
1F
100
AcDbEntity
  8
0
  6
Continuous
 62
     7
370
    25
100
AcDbCircle
 10
118.5535549133
 20
81.0832011561
 30
0.0
 40
0.25
100
AcDbArc
 50
0.0
 51
90.0
  0
LINE
  5
F3
330
1F
100
AcDbEntity
  8
0
  6
Continuous
 62
     7
370
    25
100
AcDbLine
 10
118.5535547606
 20
81.0832012492
 30
0.0
 11
118.8035548015
 21
81.0832012492
 31
0.0
  0
ARC
  5
F4
330
1F
100
AcDbEntity
  8
0
  6
Continuous
 62
     7
370
    25
100
AcDbCircle
 10
110.8035549133
 20
71.8332011561
 30
0.0
 40
2.0
100
AcDbArc
 50
180.0
 51
270.0
  0
LINE
  5
F5
330
1F
100
AcDbEntity
  8
0
  6
Continuous
 62
     7
370
    25
100
AcDbLine
 10
108.8035550251
 20
71.83320113
 30
0.0
 11
109.053555066
 21
71.83320113
 31
0.0
  0
LINE
  5
F6
330
1F
100
AcDbEntity
  8
0
  6
Continuous
 62
     7
370
    25
100
AcDbLine
 10
110.8035548872
 20
70.0832013088
 30
0.0
 11
110.8035548872
 21
69.8332012678
 31
0.0
  0
SPLINE
  5
F7
330
1F
100
AcDbEntity
  8
0
  6
Continuous
 62
     7
370
    25
100
AcDbSpline
210
0.0
220
0.0
230
1.0
 70
     8
 71
     3
 72
    10
 73
     6
 74
     0
 42
0.000000001
 43
0.00000001
 40
0.0
 40
0.0
 40
0.0
 40
0.0
 40
0.5
 40
0.5
 40
1.0
 40
1.0
 40
1.0
 40
1.0
 10
119.1611203332438
 20
72.29181984091515
 30
0.0
 10
119.0384383482711
 20
72.22171195317931
 30
0.0
 10
118.8874497194887
 20
72.20831595520049
 30
0.0
 10
118.6220305438409
 20
72.2984609907941
 30
0.0
 10
118.5102687234791
 20
72.40249446040814
 30
0.0
 10
118.4626407233533
 20
72.53566025024358
 30
0.0
  0
LINE
  5
F8
330
1F
100
AcDbEntity
  8
0
  6
Continuous
 62
     7
370
    25
100
AcDbLine
 10
119.8035549654
 20
79.8332010443
 30
0.0
 11
120.0535550064
 21
79.8332010443
 31
0.0
  0
LINE
  5
F9
330
1F
100
AcDbEntity
  8
0
  6
Continuous
 62
     7
370
    25
100
AcDbLine
 10
120.0535550064
 20
79.8332010443
 30
0.0
 11
120.0535550064
 21
79.5832010033
 31
0.0
  0
LINE
  5
FA
330
1F
100
AcDbEntity
  8
0
  6
Continuous
 62
     7
370
    25
100
AcDbLine
 10
119.8035549654
 20
79.8332010443
 30
0.0
 11
119.8035549654
 21
79.5832010033
 31
0.0
  0
LINE
  5
FB
330
1F
100
AcDbEntity
  8
0
  6
Continuous
 62
     7
370
    25
100
AcDbLine
 10
117.372270562
 20
72.5364872767
 30
0.0
 11
116.9441837168
 21
72.5364872767
 31
0.0
  0
ELLIPSE
  5
FC
330
1F
100
AcDbEntity
  8
0
  6
Continuous
 62
     7
370
    25
100
AcDbEllipse
 10
117.3722706206
 20
72.5934599754
 30
0.0
 11
0.05977206589648176
 21
0.0
 31
0.0
210
0.0
220
0.0
230
1.0
 40
0.9531667975
 41
4.712388980384703
 42
6.626209245739648
  0
ELLIPSE
  5
FD
330
1F
100
AcDbEntity
  8
0
  6
Continuous
 62
     7
370
    25
100
AcDbEllipse
 10
116.9441836717
 20
72.5934599754
 30
0.0
 11
-0.05977206589648176
 21
0.0
 31
0.0
210
0.0
220
0.0
230
1.0
 40
0.9531667975
 41
5.940161364897937
 42
7.853981633974483
  0
LINE
  5
FE
330
1F
100
AcDbEntity
  8
0
  6
Continuous
 62
     7
370
    25
100
AcDbLine
 10
117.2145170907
 20
73.183875559
 30
0.0
 11
117.4285603969
 21
72.6126219659
 31
0.0
  0
ELLIPSE
  5
FF
330
1F
100
AcDbEntity
  8
0
  6
Continuous
 62
     7
370
    25
100
AcDbEllipse
 10
117.1582271474
 20
73.1647135481
 30
0.0
 11
0.05977206589648176
 21
0.0
 31
0.0
210
0.0
220
0.0
230
1.0
 40
0.9531667975
 41
0.3430239404214925
 42
2.79856871316924
  0
LINE
  5
100
330
1F
100
AcDbEntity
  8
0
  6
Continuous
 62
     7
370
    25
100
AcDbLine
 10
116.8878938819
 20
72.6126219659
 30
0.0
 11
117.1019371881
 21
73.183875559
 31
0.0
  0
LINE
  5
101
330
1F
100
AcDbEntity
  8
0
  6
Continuous
 62
     7
370
    25
100
AcDbLine
 10
108.8035550251
 20
71.83320113
 30
0.0
 11
108.8035550251
 21
81.0832012492
 31
0.0
  0
LINE
  5
102
330
1F
100
AcDbEntity
  8
0
  6
Continuous
 62
     7
370
    25
100
AcDbLine
 10
108.8035550251
 20
81.0832012492
 30
0.0
 11
109.053555066
 21
81.0832012492
 31
0.0
  0
ARC
  5
103
330
1F
100
AcDbEntity
  8
0
  6
Continuous
 62
     7
370
    25
100
AcDbCircle
 10
120.0535549133
 20
79.5832011561
 30
0.0
 40
0.25
100
AcDbArc
 50
0.0
 51
90.0
  0
SPLINE
  5
104
330
1F
100
AcDbEntity
  8
0
  6
Continuous
 62
     7
370
    25
100
AcDbSpline
210
0.0
220
0.0
230
1.0
 70
     8
 71
     3
 72
    23
 73
    19
 74
     0
 42
0.000000001
 43
0.00000001
 40
0.0
 40
0.0
 40
0.0
 40
0.0
 40
0.0000069464595966
 40
0.0000069464595966
 40
0.0000069464595966
 40
0.0000269173558753
 40
0.0000269173558753
 40
0.0000269173558753
 40
0.0000477420212559
 40
0.0000477420212559
 40
0.0000477420212559
 40
0.0000689844307043
 40
0.0000689844307043
 40
0.0000689844307043
 40
0.0000900350769267
 40
0.0000900350769267
 40
0.0000900350769267
 40
0.0001105259114901
 40
0.0001105259114901
 40
0.0001105259114901
 40
0.0001105259114901
 10
115.687223537802
 20
71.23867292205503
 30
0.0
 10
115.6882991586081
 20
71.23662242997692
 30
0.0
 10
115.689504563568
 20
71.2346351464017
 30
0.0
 10
115.6908242010543
 20
71.23273250750123
 30
0.0
 10
115.6945694895366
 20
71.22733259151371
 30
0.0
 10
115.6993277980948
 20
71.22252865871872
 30
0.0
 10
115.7046611358999
 20
71.21868915532053
 30
0.0
 10
115.7102207060441
 20
71.21468678583986
 30
0.0
 10
115.7165626254894
 20
71.21161436922951
 30
0.0
 10
115.7231371031641
 20
71.20968978487089
 30
0.0
 10
115.729843071196
 20
71.20772670858979
 30
0.0
 10
115.7369806637288
 20
71.2068998795683
 30
0.0
 10
115.7439585299308
 20
71.20726465209644
 30
0.0
 10
115.7508744938016
 20
71.20762618863964
 30
0.0
 10
115.7578255101348
 20
71.2091684338223
 30
0.0
 10
115.7642363638376
 20
71.2117880177083
 30
0.0
 10
115.7704774432949
 20
71.21433822894936
 30
0.0
 10
115.7763769975615
 20
71.21798208186786
 30
0.0
 10
115.7814192599268
 20
71.22245759752602
 30
0.0
  0
LWPOLYLINE
  5
105
330
1F
100
AcDbEntity
  8
0
  6
Continuous
 62
     7
370
    25
100
AcDbPolyline
 90
        9
 70
   128
 43
0.0
 10
115.7814193333
 20
71.2224577135
 10
115.784607949
 20
71.2188649039
 10
115.7940520256
 20
71.2082252419
 10
115.8093878816
 20
71.1909471127
 10
115.8300266883
 20
71.167694782
 10
115.8551751918
 20
71.139361621
 10
115.883866912
 20
71.1070368114
 10
115.914999163
 20
71.0719620391
 10
115.947375661
 20
71.0354856263
  0
ARC
  5
106
330
1F
100
AcDbEntity
  8
0
  6
Continuous
 62
     7
370
    25
100
AcDbCircle
 10
120.0535549133
 20
70.0832011561
 30
0.0
 40
0.25
100
AcDbArc
 50
270.0
 51
0.0
  0
LINE
  5
107
330
1F
100
AcDbEntity
  8
0
  6
Continuous
 62
     7
370
    25
100
AcDbLine
 10
120.0535550064
 20
70.0832013088
 30
0.0
 11
120.0535550064
 21
69.8332012678
 31
0.0
  0
LINE
  5
108
330
1F
100
AcDbEntity
  8
0
  6
Continuous
 62
     7
370
    25
100
AcDbLine
 10
118.6292307733
 20
71.2386729709
 30
0.0
 11
119.1904774218
 21
72.3085961352
 31
0.0
  0
LWPOLYLINE
  5
109
330
1F
100
AcDbEntity
  8
0
  6
Continuous
 62
     7
370
    25
100
AcDbPolyline
 90
        9
 70
   128
 43
0.0
 10
118.6292307733
 20
71.2386729709
 10
118.6334845892
 20
71.236441522
 10
118.6460830553
 20
71.229832857
 10
118.6665414183
 20
71.2191009941
 10
118.6940741076
 20
71.2046582765
 10
118.727622675
 20
71.1870597723
 10
118.7658977046
 20
71.1669818545
 10
118.8074286378
 20
71.1451961241
 10
118.8506196535
 20
71.1225396069
  0
ARC
  5
10A
330
1F
100
AcDbEntity
  8
0
  6
Continuous
 62
     7
370
    25
100
AcDbCircle
 10
109.0535549133
 20
81.0832011561
 30
0.0
 40
0.25
100
AcDbArc
 50
90.0
 51
180.0
  0
SPLINE
  5
10B
330
1F
100
AcDbEntity
  8
0
  6
Continuous
 62
     7
370
    25
100
AcDbSpline
210
0.0
220
0.0
230
1.0
 70
     8
 71
     3
 72
    14
 73
    10
 74
     0
 42
0.000000001
 43
0.00000001
 40
0.0
 40
0.0
 40
0.0
 40
0.0
 40
0.5000000000000003
 40
0.5000000000000003
 40
0.6250000000000006
 40
0.6250000000000006
 40
0.7500000000000008
 40
0.7500000000000008
 40
1.0
 40
1.0
 40
1.0
 40
1.0
 10
115.7814192599288
 20
71.22245759752776
 30
0.0
 10
116.1596316056336
 20
71.55815914434129
 30
0.0
 10
116.6568333608912
 20
71.73884992480458
 30
0.0
 10
117.2834761301769
 20
71.7388734493716
 30
0.0
 10
117.4099985686463
 20
71.72756864883846
 30
0.0
 10
117.6556780972979
 20
71.68338099097821
 30
0.0
 10
117.7760985779018
 20
71.6505676735339
 30
0.0
 10
118.1298208581106
 20
71.5187228106998
 30
0.0
 10
118.3459103182853
 20
71.39032482789774
 30
0.0
 10
118.535035032091
 20
71.22245759752768
 30
0.0
  0
LWPOLYLINE
  5
10C
330
1F
100
AcDbEntity
  8
0
  6
Continuous
 62
     7
370
    25
100
AcDbPolyline
 90
        9
 70
   128
 43
0.0
 10
118.5350349455
 20
71.2224577135
 10
118.531846097
 20
71.2188649039
 10
118.5224024861
 20
71.2082252419
 10
118.5070663973
 20
71.1909471127
 10
118.4864273577
 20
71.167694782
 10
118.4612788542
 20
71.139361621
 10
118.4325875996
 20
71.1070368114
 10
118.4014553486
 20
71.0719620391
 10
118.3690788506
 20
71.0354856263
  0
LINE
  5
10D
330
1F
100
AcDbEntity
  8
0
  6
Continuous
 62
     7
370
    25
100
AcDbLine
 10
118.5535547606
 20
80.8332012082
 30
0.0
 11
118.8035548015
 21
80.8332012082
 31
0.0
  0
ARC
  5
10E
330
1F
100
AcDbEntity
  8
0
  6
Continuous
 62
     7
370
    25
100
AcDbCircle
 10
119.8035549133
 20
80.8332011561
 30
0.0
 40
1.0
100
AcDbArc
 50
180.0
 51
270.0
  0
LINE
  5
10F
330
1F
100
AcDbEntity
  8
0
  6
Continuous
 62
     7
370
    25
100
AcDbLine
 10
120.0535550064
 20
69.8332012678
 30
0.0
 11
110.8035548872
 21
69.8332012678
 31
0.0
  0
SPLINE
  5
110
330
1F
100
AcDbEntity
  8
0
  6
Continuous
 62
     7
370
    25
100
AcDbSpline
210
0.0
220
0.0
230
1.0
 70
     8
 71
     3
 72
    23
 73
    19
 74
     0
 42
0.000000001
 43
0.00000001
 40
0.0
 40
0.0
 40
0.0
 40
0.0
 40
0.0000076769896581
 40
0.0000076769896581
 40
0.0000076769896581
 40
0.0000285420058146
 40
0.0000285420058146
 40
0.0000285420058146
 40
0.0000497754494318
 40
0.0000497754494318
 40
0.0000497754494318
 40
0.00007072706396
 40
0.00007072706396
 40
0.00007072706396
 40
0.0000909558732107
 40
0.0000909558732107
 40
0.0000909558732107
 40
0.0001104364738497
 40
0.0001104364738497
 40
0.0001104364738497
 40
0.0001104364738497
 10
118.535035032091
 20
71.22245759752772
 30
0.0
 10
118.5369488736484
 20
71.22075887040135
 30
0.0
 10
118.5389780625028
 20
71.21918219409287
 30
0.0
 10
118.5410953257818
 20
71.21774495383308
 30
0.0
 10
118.5467780955715
 20
71.21388737711598
 30
0.0
 10
118.5532184505875
 20
71.21098215617057
 30
0.0
 10
118.5598606626244
 20
71.20923407440263
 30
0.0
 10
118.5666199206055
 20
71.20745518875796
 30
0.0
 10
118.5737791770356
 20
71.20682208837314
 30
0.0
 10
118.5807465307994
 20
71.2073770515438
 30
0.0
 10
118.5876229714437
 20
71.20792477330907
 30
0.0
 10
118.5945023962027
 20
71.20964508704931
 30
0.0
 10
118.6008166356772
 20
71.2124228226244
 30
0.0
 10
118.6069149366327
 20
71.21510556336933
 30
0.0
 10
118.6126500226402
 20
71.21884940352847
 30
0.0
 10
118.6175269659685
 20
71.2233883236887
 30
0.0
 10
118.6222243160992
 20
71.22776009833787
 30
0.0
 10
118.6262498571107
 20
71.2329903377569
 30
0.0
 10
118.6292307542165
 20
71.2386729220526
 30
0.0
  0
SPLINE
  5
111
330
1F
100
AcDbEntity
  8
0
  6
Continuous
 62
     7
370
    25
100
AcDbSpline
210
0.0
220
0.0
230
1.0
 70
     8
 71
     3
 72
    10
 73
     6
 74
     0
 42
0.000000001
 43
0.00000001
 40
0.0
 40
0.0
 40
0.0
 40
0.0
 40
0.5
 40
0.5
 40
1.0
 40
1.0
 40
1.0
 40
1.0
 10
115.8540204731075
 20
72.53623874594712
 30
0.0
 10
115.8067857277863
 20
72.40417247921768
 30
0.0
 10
115.696114207405
 20
72.30072046322509
 30
0.0
 10
115.4351546630378
 20
72.20976881968846
 30
0.0
 10
115.2850892579947
 20
72.22103493743452
 30
0.0
 10
115.1623332548062
 20
72.28858892945765
 30
0.0
  0
LINE
  5
112
330
1F
100
AcDbEntity
  8
0
  6
Continuous
 62
     7
370
    25
100
AcDbLine
 10
118.8035548015
 20
81.0832012492
 30
0.0
 11
118.8035548015
 21
80.8332012082
 31
0.0
  0
ARC
  5
113
330
1F
100
AcDbEntity
  8
0
  6
Continuous
 62
     7
370
    25
100
AcDbCircle
 10
120.5271552661
 20
70.0484642435
 30
0.0
 40
0.2262823933024138
100
AcDbArc
 50
83.3001813581
 51
171.1694920169
  0
ARC
  5
114
330
1F
100
AcDbEntity
  8
0
  6
Continuous
 62
     7
370
    25
100
AcDbCircle
 10
118.5882918259
 20
81.5568015089
 30
0.0
 40
0.2262823933024138
100
AcDbArc
 50
173.3001813581
 51
261.1694920169
  0
ARC
  5
115
330
1F
100
AcDbEntity
  8
0
  6
Continuous
 62
     7
370
    25
100
AcDbCircle
 10
120.5271552661
 20
79.6179380687
 30
0.0
 40
0.2262823933024138
100
AcDbArc
 50
188.8305079831
 51
276.6998186419
  0
ARC
  5
116
330
1F
100
AcDbEntity
  8
0
  6
Continuous
 62
     7
370
    25
100
AcDbCircle
 10
109.0188180007
 20
81.5568015089
 30
0.0
 40
0.2262823933024138
100
AcDbArc
 50
278.8305079831
 51
6.6998186419
  0
LINE
  5
117
330
1F
100
AcDbEntity
  8
0
  6
Continuous
 62
     7
370
    25
100
AcDbLine
 10
118.8035548015
 20
81.0832012492
 30
0.0
 11
118.8435551061
 21
81.0832012492
 31
0.0
  0
LINE
  5
118
330
1F
100
AcDbEntity
  8
0
  6
Continuous
 62
     7
370
    25
100
AcDbLine
 10
120.0535550064
 20
69.7932009632
 30
0.0
 11
120.0535550064
 21
69.8332012678
 31
0.0
  0
LINE
  5
119
330
1F
100
AcDbEntity
  8
0
  6
Continuous
 62
     7
370
    25
100
AcDbLine
 10
108.8035550251
 20
81.0832012492
 30
0.0
 11
108.7635547205
 21
81.0832012492
 31
0.0
  0
LINE
  5
11A
330
1F
100
AcDbEntity
  8
0
  6
Continuous
 62
     7
370
    25
100
AcDbLine
 10
120.0535550064
 20
79.8732013489
 30
0.0
 11
120.0535550064
 21
79.8332010443
 31
0.0
  0
LWPOLYLINE
  5
11B
330
1F
100
AcDbEntity
  8
0
  6
Continuous
 62
     7
370
    25
100
AcDbPolyline
 90
        9
 70
   128
 43
0.0
 10
110.4604007027
 20
69.818470073
 10
110.4654594141
 20
69.8277665349
 10
110.4704894873
 20
69.8358411017
 10
110.4754632155
 20
69.8426481384
 10
110.4803524262
 20
69.8481499265
 10
110.485130111
 20
69.8523152667
 10
110.4897692616
 20
69.8551208759
 10
110.4942438009
 20
69.8565513874
 10
110.4985290489
 20
69.8565984192
  0
SPLINE
  5
11C
330
1F
100
AcDbEntity
  8
0
  6
Continuous
 62
     7
370
    25
100
AcDbSpline
210
0.0
220
0.0
230
1.0
 70
     8
 71
     3
 72
    14
 73
    10
 74
     0
 42
0.000000001
 43
0.00000001
 40
0.0
 40
0.0
 40
0.0
 40
0.0
 40
0.2500000000000003
 40
0.2500000000000003
 40
0.5000000000000002
 40
0.5000000000000002
 40
0.7500000000000001
 40
0.7500000000000001
 40
1.0
 40
1.0
 40
1.0
 40
1.0
 10
110.460400791665
 20
69.81846997362464
 30
0.0
 10
110.2523889019997
 20
69.8482238723502
 30
0.0
 10
110.0524298449222
 20
69.909579611894
 30
0.0
 10
109.6698759655235
 20
70.09933385307573
 30
0.0
 10
109.4975749986931
 20
70.22275050264642
 30
0.0
 10
109.1939033759297
 20
70.5262256269159
 30
0.0
 10
109.0700749450594
 20
70.69894296786781
 30
0.0
 10
108.8802795161564
 20
71.08117737086758
 30
0.0
 10
108.8185793112151
 20
71.28202338829773
 30
0.0
 10
108.7888237308501
 20
71.49004703443957
 30
0.0
  0
LWPOLYLINE
  5
11D
330
1F
100
AcDbEntity
  8
0
  6
Continuous
 62
     7
370
    25
100
AcDbPolyline
 90
        9
 70
   128
 43
0.0
 10
108.8269521764
 20
71.5281752917
 10
108.8269051446
 20
71.5238900437
 10
108.8254746332
 20
71.5194155044
 10
108.8226690239
 20
71.5147763538
 10
108.8185036837
 20
71.509998669
 10
108.8130018956
 20
71.5051094583
 10
108.8061948589
 20
71.5001357301
 10
108.7981202922
 20
71.4951056569
 10
108.7888238302
 20
71.4900469455
  0
LINE
  5
11E
330
1F
100
AcDbEntity
  8
0
  6
Continuous
 62
     7
370
    25
100
AcDbLine
 10
110.8035548872
 20
69.7932009632
 30
0.0
 11
110.8035548872
 21
69.8332012678
 31
0.0
  0
LINE
  5
11F
330
1F
100
AcDbEntity
  8
0
  6
Continuous
 62
     7
370
    25
100
AcDbLine
 10
108.8035550251
 20
71.83320113
 30
0.0
 11
108.7635547205
 21
71.83320113
 31
0.0
  0
SPLINE
  5
120
330
1F
100
AcDbEntity
  8
0
  6
Continuous
 62
     7
370
    25
100
AcDbSpline
210
0.0
220
0.0
230
1.0
 70
    24
 71
     3
 72
    10
 73
     6
 74
     0
 42
0.000000001
 43
0.00000001
 40
0.0
 40
0.0
 40
0.0
 40
0.0
 40
0.5
 40
0.5
 40
1.0
 40
1.0
 40
1.0
 40
1.0
 10
119.1732886761564
 20
80.20293491893105
 30
0.0
 10
119.1479766551381
 20
80.17762289791271
 30
0.0
 10
119.1296306568176
 20
80.15927689959217
 30
0.0
 10
119.1035324206004
 20
80.13317866337505
 30
0.0
 10
119.096448132109
 20
80.12609437488359
 30
0.0
 10
119.0964481321082
 20
80.12609437488284
 30
0.0
  0
LINE
  5
121
330
1F
100
AcDbEntity
  8
0
  6
Continuous
 62
     7
370
    25
100
AcDbLine
 10
118.8035548015
 20
80.8332012082
 30
0.0
 11
118.8435551061
 21
80.8332012082
 31
0.0
  0
LINE
  5
122
330
1F
100
AcDbEntity
  8
0
  6
Continuous
 62
     7
370
    25
100
AcDbLine
 10
119.8035549654
 20
79.8732013489
 30
0.0
 11
119.8035549654
 21
79.8332010443
 31
0.0
  0
LINE
  5
123
330
1F
100
AcDbEntity
  8
0
  6
Continuous
 62
     8
370
    25
100
AcDbLine
 10
106.5535551219
 20
85.3332010145
 30
0.0
 11
121.0535547047
 21
85.3332010145
 31
0.0
  0
LINE
  5
124
330
1F
100
AcDbEntity
  8
0
  6
Continuous
 62
     8
370
    25
100
AcDbLine
 10
124.3035547717
 20
82.0832009475
 30
0.0
 11
124.3035547717
 21
67.5832013647
 31
0.0
  0
LINE
  5
125
330
1F
100
AcDbEntity
  8
0
  6
Continuous
 62
     8
370
    25
100
AcDbLine
 10
119.8035549654
 20
84.3332008506
 30
0.0
 11
107.8035548611
 21
84.3332008506
 31
0.0
  0
LINE
  5
126
330
1F
100
AcDbEntity
  8
0
  6
Continuous
 62
     8
370
    25
100
AcDbLine
 10
123.3035546078
 20
68.8332011039
 30
0.0
 11
123.3035546078
 21
80.8332012082
 31
0.0
  0
LWPOLYLINE
  5
127
330
1F
100
AcDbEntity
  8
0
  6
Continuous
 62
     8
370
    25
100
AcDbPolyline
 90
       10
 70
   128
 43
0.0
 10
110.4604007027
 20
69.818470073
 10
110.3256355322
 20
69.6163218516
 10
110.2053703557
 20
69.4359242032
 10
110.100107156
 20
69.2780296366
 10
110.0102845861
 20
69.1432956653
 10
109.9362770378
 20
69.0322843428
 10
109.8783930114
 20
68.9454585361
 10
109.8368741854
 20
68.8831800642
 10
109.81189332
 20
68.8457087661
 10
109.8035547233
 20
68.8332011039
  0
LWPOLYLINE
  5
128
330
1F
100
AcDbEntity
  8
0
  6
Continuous
 62
     8
370
    25
100
AcDbPolyline
 90
       10
 70
   128
 43
0.0
 10
107.8035548611
 20
70.8332009661
 10
107.8160625233
 20
70.8415395628
 10
107.8535338214
 20
70.8665204282
 10
107.9158122933
 20
70.9080392542
 10
108.0026381
 20
70.9659232805
 10
108.1136494226
 20
71.0399308289
 10
108.2483833938
 20
71.1297533988
 10
108.4062779604
 20
71.2350165984
 10
108.5866756088
 20
71.355281775
 10
108.7888238302
 20
71.4900469455
  0
LINE
  5
129
330
1F
100
AcDbEntity
  8
0
  6
CENTERX2
 62
     7
370
    18
100
AcDbLine
 10
113.8035549133
 20
67.4682490456
 30
0.0
 11
113.8035549133
 21
98.8332011561
 31
0.0
  0
LINE
  5
12A
330
1F
100
AcDbEntity
  8
0
  6
CENTERX2
 62
     7
370
    18
100
AcDbLine
 10
105.8650406783
 20
74.8332011561
 30
0.0
 11
137.8035549133
 21
74.8332011561
 31
0.0
  0
LINE
  5
12B
330
1F
100
AcDbEntity
  8
0
  6
Continuous
 62
     7
370
    25
100
AcDbLine
 10
169.8309056007
 20
96.3332018862
 30
0.0
 11
169.3309059844
 21
96.8332010369
 31
0.0
  0
LINE
  5
12C
330
1F
100
AcDbEntity
  8
0
  6
Continuous
 62
     7
370
    25
100
AcDbLine
 10
155.8309056343
 20
96.8332010369
 30
0.0
 11
155.330906018
 21
96.3332018862
 31
0.0
  0
ARC
  5
12D
330
1F
100
AcDbEntity
  8
0
  6
Continuous
 62
     7
370
    25
100
AcDbCircle
 10
155.8309058094
 20
85.3332011561
 30
0.0
 40
0.5
100
AcDbArc
 50
180.0
 51
270.0
  0
ARC
  5
12E
330
1F
100
AcDbEntity
  8
0
  6
Continuous
 62
     7
370
    25
100
AcDbCircle
 10
169.3309058094
 20
85.3332011561
 30
0.0
 40
0.5
100
AcDbArc
 50
270.0
 51
0.0
  0
LINE
  5
12F
330
1F
100
AcDbEntity
  8
0
  6
Continuous
 62
     7
370
    25
100
AcDbLine
 10
155.330906018
 20
96.3332018862
 30
0.0
 11
155.330906018
 21
85.3332010145
 31
0.0
  0
LINE
  5
130
330
1F
100
AcDbEntity
  8
0
  6
Continuous
 62
     7
370
    25
100
AcDbLine
 10
169.8309056007
 20
85.3332010145
 30
0.0
 11
169.8309056007
 21
96.3332018862
 31
0.0
  0
ARC
  5
131
330
1F
100
AcDbEntity
  8
0
  6
Continuous
 62
     7
370
    25
100
AcDbCircle
 10
156.0809058094
 20
84.3332011561
 30
0.0
 40
0.5
100
AcDbArc
 50
0.0
 51
90.0
  0
ARC
  5
132
330
1F
100
AcDbEntity
  8
0
  6
Continuous
 62
     7
370
    25
100
AcDbCircle
 10
169.0809058094
 20
84.3332011561
 30
0.0
 40
0.5
100
AcDbArc
 50
90.0
 51
180.0
  0
LINE
  5
133
330
1F
100
AcDbEntity
  8
0
  6
Continuous
 62
     7
370
    25
100
AcDbLine
 10
168.5809058615
 20
81.5832013312
 30
0.0
 11
168.5809058615
 21
84.3332008506
 31
0.0
  0
LINE
  5
134
330
1F
100
AcDbEntity
  8
0
  6
Continuous
 62
     7
370
    25
100
AcDbLine
 10
156.5809057572
 20
84.3332008506
 30
0.0
 11
156.5809057572
 21
81.5832013312
 31
0.0
  0
CIRCLE
  5
135
330
1F
100
AcDbEntity
  8
0
  6
Continuous
 62
     7
370
    25
100
AcDbCircle
 10
162.5809058094
 20
74.8332011561
 30
0.0
 40
7.25
  0
CIRCLE
  5
136
330
1F
100
AcDbEntity
  8
0
  6
Continuous
 62
     7
370
    25
100
AcDbCircle
 10
162.5809058094
 20
74.8332011561
 30
0.0
 40
6.749999999999943
  0
CIRCLE
  5
137
330
1F
100
AcDbEntity
  8
0
  6
Continuous
 62
     7
370
    25
100
AcDbCircle
 10
162.5809058094
 20
74.8332011561
 30
0.0
 40
6.124999999999929
  0
CIRCLE
  5
138
330
1F
100
AcDbEntity
  8
0
  6
Continuous
 62
     7
370
    25
100
AcDbCircle
 10
162.5809058094
 20
74.8332011561
 30
0.0
 40
4.618423633796652
  0
CIRCLE
  5
139
330
1F
100
AcDbEntity
  8
0
  6
Continuous
 62
     7
370
    25
100
AcDbCircle
 10
162.5809058094
 20
74.8332011561
 30
0.0
 40
4.999999999999986
  0
CIRCLE
  5
13A
330
1F
100
AcDbEntity
  8
0
  6
Continuous
 62
     7
370
    25
100
AcDbCircle
 10
162.5809058094
 20
74.8332011561
 30
0.0
 40
5.999999999999929
  0
CIRCLE
  5
13B
330
1F
100
AcDbEntity
  8
0
  6
Continuous
 62
     7
370
    25
100
AcDbCircle
 10
162.5809058094
 20
74.8332011561
 30
0.0
 40
5.874999999999929
  0
CIRCLE
  5
13C
330
1F
100
AcDbEntity
  8
0
  6
Continuous
 62
     7
370
    25
100
AcDbCircle
 10
162.5809058094
 20
74.8332011561
 30
0.0
 40
4.342497099879523
  0
CIRCLE
  5
13D
330
1F
100
AcDbEntity
  8
0
  6
Continuous
 62
     7
370
    25
100
AcDbCircle
 10
162.5809058094
 20
74.8332011561
 30
0.0
 40
3.949999999999989
  0
CIRCLE
  5
13E
330
1F
100
AcDbEntity
  8
0
  6
Continuous
 62
     7
370
    25
100
AcDbCircle
 10
162.5809058094
 20
74.8332011561
 30
0.0
 40
2.0
  0
LINE
  5
13F
330
1F
100
AcDbEntity
  8
0
  6
Continuous
 62
     7
370
    25
100
AcDbLine
 10
162.5809058094
 20
96.3332018862
 30
0.0
 11
155.330906018
 21
96.3332018862
 31
0.0
  0
LINE
  5
140
330
1F
100
AcDbEntity
  8
0
  6
Continuous
 62
     7
370
    25
100
AcDbLine
 10
169.8309056007
 20
96.3332018862
 30
0.0
 11
162.5809058094
 21
96.3332018862
 31
0.0
  0
LINE
  5
141
330
1F
100
AcDbEntity
  8
0
  6
Continuous
 62
     7
370
    25
100
AcDbLine
 10
162.5809058094
 20
96.8332010369
 30
0.0
 11
169.3309059844
 21
96.8332010369
 31
0.0
  0
LINE
  5
142
330
1F
100
AcDbEntity
  8
0
  6
Continuous
 62
     7
370
    25
100
AcDbLine
 10
155.8309056343
 20
96.8332010369
 30
0.0
 11
162.5809058094
 21
96.8332010369
 31
0.0
  0
LINE
  5
143
330
1F
100
AcDbEntity
  8
0
  6
Continuous
 62
     7
370
    25
100
AcDbLine
 10
162.5809058094
 20
84.8332009326
 30
0.0
 11
155.8309056343
 21
84.8332009326
 31
0.0
  0
LINE
  5
144
330
1F
100
AcDbEntity
  8
0
  6
Continuous
 62
     7
370
    25
100
AcDbLine
 10
169.3309059844
 20
84.8332009326
 30
0.0
 11
162.5809058094
 21
84.8332009326
 31
0.0
  0
LINE
  5
145
330
1F
100
AcDbEntity
  8
0
  6
Continuous
 62
     7
370
    25
100
AcDbLine
 10
168.5809058615
 20
70.763496128
 30
0.0
 11
168.5809058615
 21
70.0832013088
 31
0.0
  0
LINE
  5
146
330
1F
100
AcDbEntity
  8
0
  6
Continuous
 62
     7
370
    25
100
AcDbLine
 10
168.3309058205
 20
70.0832013088
 30
0.0
 11
168.5809058615
 21
70.0832013088
 31
0.0
  0
LINE
  5
147
330
1F
100
AcDbEntity
  8
0
  6
Continuous
 62
     7
370
    25
100
AcDbLine
 10
156.5809057572
 20
78.9029061842
 30
0.0
 11
156.5809057572
 21
79.5832010033
 31
0.0
  0
LINE
  5
148
330
1F
100
AcDbEntity
  8
0
  6
Continuous
 62
     7
370
    25
100
AcDbLine
 10
156.8309057982
 20
79.5832010033
 30
0.0
 11
156.5809057572
 21
79.5832010033
 31
0.0
  0
LINE
  5
149
330
1F
100
AcDbEntity
  8
0
  6
Continuous
 62
     7
370
    25
100
AcDbLine
 10
156.8309057982
 20
70.0832013088
 30
0.0
 11
156.5809057572
 21
70.0832013088
 31
0.0
  0
LINE
  5
14A
330
1F
100
AcDbEntity
  8
0
  6
Continuous
 62
     7
370
    25
100
AcDbLine
 10
156.5809057572
 20
70.0832013088
 30
0.0
 11
156.5809057572
 21
70.763496128
 31
0.0
  0
LINE
  5
14B
330
1F
100
AcDbEntity
  8
0
  6
Continuous
 62
     7
370
    25
100
AcDbLine
 10
168.5809058615
 20
79.5832010033
 30
0.0
 11
168.5809058615
 21
78.9029061842
 31
0.0
  0
LINE
  5
14C
330
1F
100
AcDbEntity
  8
0
  6
Continuous
 62
     7
370
    25
100
AcDbLine
 10
168.5809058615
 20
79.5832010033
 30
0.0
 11
168.3309058205
 21
79.5832010033
 31
0.0
  0
ARC
  5
14D
330
1F
100
AcDbEntity
  8
0
  6
Continuous
 62
     7
370
    25
100
AcDbCircle
 10
168.3309058094
 20
70.0832011561
 30
0.0
 40
0.25
100
AcDbArc
 50
270.0
 51
0.0
  0
LINE
  5
14E
330
1F
100
AcDbEntity
  8
0
  6
Continuous
 62
     7
370
    25
100
AcDbLine
 10
168.3309058205
 20
69.8332012678
 30
0.0
 11
168.3309058205
 21
70.0832013088
 31
0.0
  0
ARC
  5
14F
330
1F
100
AcDbEntity
  8
0
  6
Continuous
 62
     7
370
    25
100
AcDbCircle
 10
156.8309058094
 20
79.5832011561
 30
0.0
 40
0.25
100
AcDbArc
 50
90.0
 51
180.0
  0
LINE
  5
150
330
1F
100
AcDbEntity
  8
0
  6
Continuous
 62
     7
370
    25
100
AcDbLine
 10
156.8309057982
 20
79.5832010033
 30
0.0
 11
156.8309057982
 21
79.8332010443
 31
0.0
  0
LINE
  5
151
330
1F
100
AcDbEntity
  8
0
  6
Continuous
 62
     7
370
    25
100
AcDbLine
 10
156.8309057982
 20
79.8332010443
 30
0.0
 11
157.3309058801
 21
79.8332010443
 31
0.0
  0
LINE
  5
152
330
1F
100
AcDbEntity
  8
0
  6
Continuous
 62
     7
370
    25
100
AcDbLine
 10
168.3309058205
 20
69.8332012678
 30
0.0
 11
167.8309057386
 21
69.8332012678
 31
0.0
  0
LINE
  5
153
330
1F
100
AcDbEntity
  8
0
  6
Continuous
 62
     7
370
    25
100
AcDbLine
 10
157.3309058801
 20
69.8332012678
 30
0.0
 11
156.8309057982
 21
69.8332012678
 31
0.0
  0
LINE
  5
154
330
1F
100
AcDbEntity
  8
0
  6
Continuous
 62
     7
370
    25
100
AcDbLine
 10
156.8309057982
 20
70.0832013088
 30
0.0
 11
156.8309057982
 21
69.8332012678
 31
0.0
  0
LINE
  5
155
330
1F
100
AcDbEntity
  8
0
  6
Continuous
 62
     7
370
    25
100
AcDbLine
 10
168.3309058205
 20
79.8332010443
 30
0.0
 11
168.3309058205
 21
79.5832010033
 31
0.0
  0
ARC
  5
156
330
1F
100
AcDbEntity
  8
0
  6
Continuous
 62
     7
370
    25
100
AcDbCircle
 10
168.3309058094
 20
79.5832011561
 30
0.0
 40
0.25
100
AcDbArc
 50
0.0
 51
90.0
  0
LINE
  5
157
330
1F
100
AcDbEntity
  8
0
  6
Continuous
 62
     7
370
    25
100
AcDbLine
 10
167.8309057386
 20
79.8332010443
 30
0.0
 11
168.3309058205
 21
79.8332010443
 31
0.0
  0
ARC
  5
158
330
1F
100
AcDbEntity
  8
0
  6
Continuous
 62
     7
370
    25
100
AcDbCircle
 10
156.8309058094
 20
70.0832011561
 30
0.0
 40
0.25
100
AcDbArc
 50
180.0
 51
270.0
  0
LINE
  5
159
330
1F
100
AcDbEntity
  8
0
  6
Continuous
 62
     7
370
    25
100
AcDbLine
 10
156.5809057572
 20
80.8332012082
 30
0.0
 11
156.8309057982
 21
80.8332012082
 31
0.0
  0
LINE
  5
15A
330
1F
100
AcDbEntity
  8
0
  6
Continuous
 62
     7
370
    25
100
AcDbLine
 10
156.8309057982
 20
80.8332012082
 30
0.0
 11
156.8309057982
 21
79.8332010443
 31
0.0
  0
LINE
  5
15B
330
1F
100
AcDbEntity
  8
0
  6
Continuous
 62
     7
370
    25
100
AcDbLine
 10
156.5809057572
 20
79.5832010033
 30
0.0
 11
156.5809057572
 21
80.8332012082
 31
0.0
  0
LINE
  5
15C
330
1F
100
AcDbEntity
  8
0
  6
Continuous
 62
     7
370
    25
100
AcDbLine
 10
168.3309058205
 20
79.8332010443
 30
0.0
 11
168.3309058205
 21
80.8332012082
 31
0.0
  0
LINE
  5
15D
330
1F
100
AcDbEntity
  8
0
  6
Continuous
 62
     7
370
    25
100
AcDbLine
 10
168.5809058615
 20
80.8332012082
 30
0.0
 11
168.3309058205
 21
80.8332012082
 31
0.0
  0
LINE
  5
15E
330
1F
100
AcDbEntity
  8
0
  6
Continuous
 62
     7
370
    25
100
AcDbLine
 10
168.5809058615
 20
80.8332012082
 30
0.0
 11
168.5809058615
 21
79.5832010033
 31
0.0
  0
SPLINE
  5
15F
330
1F
100
AcDbEntity
  8
0
  6
Continuous
 62
     7
370
    25
100
AcDbSpline
210
0.0
220
0.0
230
1.0
 70
    24
 71
     3
 72
    14
 73
    10
 74
     0
 42
0.000000001
 43
0.00000001
 40
0.0
 40
0.0
 40
0.0
 40
0.0
 40
0.25
 40
0.25
 40
0.5
 40
0.5
 40
0.75
 40
0.75
 40
1.0
 40
1.0
 40
1.0
 40
1.0
 10
156.58090580936
 20
81.58320115606939
 30
0.0
 10
156.58090580936
 20
81.58320115606939
 30
0.0
 10
156.5907507230976
 20
81.58320115606939
 30
0.0
 10
156.6302428294067
 20
81.58320115606939
 30
0.0
 10
156.6598904685819
 20
81.58320115606939
 30
0.0
 10
156.7393196057856
 20
81.58320115606939
 30
0.0
 10
156.7891020298549
 20
81.58320115606939
 30
0.0
 10
156.9093310161895
 20
81.58320115606939
 30
0.0
 10
156.9797790487966
 20
81.58320115606939
 30
0.0
 10
157.06090580936
 20
81.58320115606939
 30
0.0
  0
SPLINE
  5
160
330
1F
100
AcDbEntity
  8
0
  6
Continuous
 62
     7
370
    25
100
AcDbSpline
210
0.0
220
0.0
230
1.0
 70
    24
 71
     3
 72
    14
 73
    10
 74
     0
 42
0.000000001
 43
0.00000001
 40
0.0
 40
0.0
 40
0.0
 40
0.0
 40
0.25
 40
0.25
 40
0.5
 40
0.5
 40
0.75
 40
0.75
 40
1.0
 40
1.0
 40
1.0
 40
1.0
 10
168.58090580936
 20
81.58320115606939
 30
0.0
 10
168.58090580936
 20
81.58320115606939
 30
0.0
 10
168.5710608956224
 20
81.58320115606939
 30
0.0
 10
168.5315687893134
 20
81.58320115606939
 30
0.0
 10
168.5019211501381
 20
81.58320115606939
 30
0.0
 10
168.4224920129344
 20
81.58320115606939
 30
0.0
 10
168.3727095888651
 20
81.58320115606939
 30
0.0
 10
168.2524806025305
 20
81.58320115606939
 30
0.0
 10
168.1820325699234
 20
81.58320115606939
 30
0.0
 10
168.10090580936
 20
81.58320115606939
 30
0.0
  0
LINE
  5
161
330
1F
100
AcDbEntity
  8
0
  6
Continuous
 62
     7
370
    25
100
AcDbLine
 10
165.8364241955
 20
81.5832013312
 30
0.0
 11
168.1009059318
 21
81.5832013312
 31
0.0
  0
LINE
  5
162
330
1F
100
AcDbEntity
  8
0
  6
Continuous
 62
     7
370
    25
100
AcDbLine
 10
157.0609056869
 20
81.5832013312
 30
0.0
 11
158.6813673855
 21
81.5832013312
 31
0.0
  0
LWPOLYLINE
  5
163
330
1F
100
AcDbEntity
  8
0
  6
Continuous
 62
     7
370
    25
100
AcDbPolyline
 90
        9
 70
   128
 43
0.0
 10
158.5188865208
 20
81.3332012902
 10
158.550585016
 20
81.338005052
 10
158.5810653412
 20
81.35223147
 10
158.6091558927
 20
81.3753338578
 10
158.6337777333
 20
81.406424665
 10
158.6539846392
 20
81.444308539
 10
158.6689994217
 20
81.4875302884
 10
158.6782453594
 20
81.5344284336
 10
158.6813673855
 20
81.5832013312
  0
SPLINE
  5
164
330
1F
100
AcDbEntity
  8
0
  6
Continuous
 62
     7
370
    25
100
AcDbSpline
210
0.0
220
0.0
230
1.0
 70
     8
 71
     3
 72
    10
 73
     6
 74
     0
 42
0.000000001
 43
0.00000001
 40
0.0
 40
0.0
 40
0.0
 40
0.0
 40
0.5
 40
0.5
 40
1.0
 40
1.0
 40
1.0
 40
1.0
 10
166.33090580936
 20
81.33320115606939
 30
0.0
 10
166.2665557506544
 20
81.33320115606939
 30
0.0
 10
166.2036699254499
 20
81.34165308206192
 30
0.0
 10
166.0810926379623
 20
81.37699560450775
 30
0.0
 10
166.0215624521924
 20
81.40325042014008
 30
0.0
 10
165.9720708009227
 20
81.44522530685593
 30
0.0
  0
SPLINE
  5
165
330
1F
100
AcDbEntity
  8
0
  6
Continuous
 62
     7
370
    25
100
AcDbSpline
210
0.0
220
0.0
230
1.0
 70
     8
 71
     3
 72
     8
 73
     4
 74
     0
 42
0.000000001
 43
0.00000001
 40
0.0
 40
0.0
 40
0.0
 40
0.0
 40
1.0
 40
1.0
 40
1.0
 40
1.0
 10
165.9720708009227
 20
81.44522530685582
 30
0.0
 10
165.9211594998474
 20
81.48840422775187
 30
0.0
 10
165.8752448083816
 20
81.53603320148004
 30
0.0
 10
165.8364242012601
 20
81.58320115606939
 30
0.0
  0
SPLINE
  5
166
330
1F
100
AcDbEntity
  8
0
  6
Continuous
 62
     7
370
    25
100
AcDbSpline
210
0.0
220
0.0
230
1.0
 70
     8
 71
     3
 72
    10
 73
     6
 74
     0
 42
0.000000001
 43
0.00000001
 40
0.0
 40
0.0
 40
0.0
 40
0.0
 40
0.5
 40
0.5
 40
1.0
 40
1.0
 40
1.0
 40
1.0
 10
168.1736935564657
 20
81.40641656032882
 30
0.0
 10
168.1461526096436
 20
81.4348438203961
 30
0.0
 10
168.126539475754
 20
81.46907045856294
 30
0.0
 10
168.1042306024656
 20
81.53209250410052
 30
0.0
 10
168.10090580936
 20
81.56067822339249
 30
0.0
 10
168.10090580936
 20
81.58320115606939
 30
0.0
  0
SPLINE
  5
167
330
1F
100
AcDbEntity
  8
0
  6
Continuous
 62
     7
370
    25
100
AcDbSpline
210
0.0
220
0.0
230
1.0
 70
     8
 71
     3
 72
    12
 73
     8
 74
     0
 42
0.000000001
 43
0.00000001
 40
0.0
 40
0.0
 40
0.0
 40
0.0
 40
0.25
 40
0.25
 40
0.5
 40
0.5
 40
1.0
 40
1.0
 40
1.0
 40
1.0
 10
168.1736935564657
 20
81.40641656032882
 30
0.0
 10
168.1874640298767
 20
81.39220293029517
 30
0.0
 10
168.2035280497279
 20
81.37950140654262
 30
0.0
 10
168.2369193539232
 20
81.35843397720018
 30
0.0
 10
168.2542466382673
 20
81.35006807161031
 30
0.0
 10
168.3031376454576
 20
81.33344089048565
 30
0.0
 10
168.33090580936
 20
81.33320115606939
 30
0.0
 10
168.33090580936
 20
81.33320115606939
 30
0.0
  0
LINE
  5
168
330
1F
100
AcDbEntity
  8
0
  6
Continuous
 62
     7
370
    25
100
AcDbLine
 10
156.5809057572
 20
81.0832012492
 30
0.0
 11
156.8309057982
 21
81.0832012492
 31
0.0
  0
LINE
  5
169
330
1F
100
AcDbEntity
  8
0
  6
Continuous
 62
     7
370
    25
100
AcDbLine
 10
156.8309057982
 20
81.0832012492
 30
0.0
 11
156.8309057982
 21
80.8332012082
 31
0.0
  0
LINE
  5
16A
330
1F
100
AcDbEntity
  8
0
  6
Continuous
 62
     7
370
    25
100
AcDbLine
 10
156.5809057572
 20
80.8332012082
 30
0.0
 11
156.5809057572
 21
81.0832012492
 31
0.0
  0
LINE
  5
16B
330
1F
100
AcDbEntity
  8
0
  6
Continuous
 62
     7
370
    25
100
AcDbLine
 10
168.3309058205
 20
80.8332012082
 30
0.0
 11
168.3309058205
 21
81.3332012902
 31
0.0
  0
LINE
  5
16C
330
1F
100
AcDbEntity
  8
0
  6
Continuous
 62
     7
370
    25
100
AcDbLine
 10
166.3309057255
 20
81.3332012902
 30
0.0
 11
168.3309058205
 21
81.3332012902
 31
0.0
  0
LINE
  5
16D
330
1F
100
AcDbEntity
  8
0
  6
Continuous
 62
     7
370
    25
100
AcDbLine
 10
156.8309057982
 20
81.3332012902
 30
0.0
 11
158.5188865208
 21
81.3332012902
 31
0.0
  0
LINE
  5
16E
330
1F
100
AcDbEntity
  8
0
  6
Continuous
 62
     7
370
    25
100
AcDbLine
 10
156.8309057982
 20
81.0832012492
 30
0.0
 11
156.8309057982
 21
81.3332012902
 31
0.0
  0
ARC
  5
16F
330
1F
100
AcDbEntity
  8
0
  6
Continuous
 62
     7
370
    25
100
AcDbCircle
 10
168.3309058094
 20
81.0832011561
 30
0.0
 40
0.25
100
AcDbArc
 50
0.0
 51
90.0
  0
LINE
  5
170
330
1F
100
AcDbEntity
  8
0
  6
Continuous
 62
     7
370
    25
100
AcDbLine
 10
168.5809058615
 20
81.0832012492
 30
0.0
 11
168.5809058615
 21
80.8332012082
 31
0.0
  0
ARC
  5
171
330
1F
100
AcDbEntity
  8
0
  6
Continuous
 62
     7
370
    25
100
AcDbCircle
 10
156.8309058094
 20
81.0832011561
 30
0.0
 40
0.25
100
AcDbArc
 50
90.0
 51
180.0
  0
SPLINE
  5
172
330
1F
100
AcDbEntity
  8
0
  6
Continuous
 62
     7
370
    25
100
AcDbSpline
210
0.0
220
0.0
230
1.0
 70
     8
 71
     3
 72
    12
 73
     8
 74
     0
 42
0.000000001
 43
0.00000001
 40
0.0
 40
0.0
 40
0.0
 40
0.0
 40
0.25
 40
0.25
 40
0.5
 40
0.5
 40
1.0
 40
1.0
 40
1.0
 40
1.0
 10
156.9881180622544
 20
81.40641656032882
 30
0.0
 10
156.9743475888434
 20
81.39220293029518
 30
0.0
 10
156.9582835689922
 20
81.37950140654262
 30
0.0
 10
156.9248922647968
 20
81.35843397720018
 30
0.0
 10
156.9075649804527
 20
81.35006807161031
 30
0.0
 10
156.8586739732624
 20
81.33344089048565
 30
0.0
 10
156.83090580936
 20
81.33320115606939
 30
0.0
 10
156.83090580936
 20
81.33320115606939
 30
0.0
  0
SPLINE
  5
173
330
1F
100
AcDbEntity
  8
0
  6
Continuous
 62
     7
370
    25
100
AcDbSpline
210
0.0
220
0.0
230
1.0
 70
     8
 71
     3
 72
    10
 73
     6
 74
     0
 42
0.000000001
 43
0.00000001
 40
0.0
 40
0.0
 40
0.0
 40
0.0
 40
0.5
 40
0.5
 40
1.0
 40
1.0
 40
1.0
 40
1.0
 10
156.9881180622544
 20
81.40641656032882
 30
0.0
 10
157.0156590090764
 20
81.4348438203961
 30
0.0
 10
157.0352721429661
 20
81.46907045856294
 30
0.0
 10
157.0575810162544
 20
81.53209250410052
 30
0.0
 10
157.06090580936
 20
81.5606782233925
 30
0.0
 10
157.06090580936
 20
81.58320115606939
 30
0.0
  0
SPLINE
  5
174
330
1F
100
AcDbEntity
  8
0
  6
Continuous
 62
     7
370
    25
100
AcDbSpline
210
0.0
220
0.0
230
1.0
 70
     8
 71
     3
 72
    12
 73
     8
 74
     0
 42
0.000000001
 43
0.00000001
 40
0.0
 40
0.0
 40
0.0
 40
0.0
 40
0.25
 40
0.25
 40
0.5
 40
0.5
 40
1.0
 40
1.0
 40
1.0
 40
1.0
 10
168.5796125920315
 20
81.33520875635908
 30
0.0
 10
168.5796024346743
 20
81.32494529706995
 30
0.0
 10
168.5710460085629
 20
81.31736651727317
 30
0.0
 10
168.549672652328
 20
81.3029530618241
 30
0.0
 10
168.5368557222045
 20
81.2961183861718
 30
0.0
 10
168.5112622260609
 20
81.26979263317136
 30
0.0
 10
168.5075346742123
 20
81.2601256818104
 30
0.0
 10
168.5076825046575
 20
81.25997785136524
 30
0.0
  0
LINE
  5
175
330
1F
100
AcDbEntity
  8
0
  6
Continuous
 62
     7
370
    25
100
AcDbLine
 10
168.5812071444
 20
81.1413055333
 30
0.0
 11
168.5815345043
 21
81.2044096227
 31
0.0
  0
SPLINE
  5
176
330
1F
100
AcDbEntity
  8
0
  6
Continuous
 62
     7
370
    25
100
AcDbSpline
210
0.0
220
0.0
230
1.0
 70
     8
 71
     3
 72
    12
 73
     8
 74
     0
 42
0.000000001
 43
0.00000001
 40
0.0
 40
0.0
 40
0.0
 40
0.0
 40
0.25
 40
0.25
 40
0.5
 40
0.5
 40
1.0
 40
1.0
 40
1.0
 40
1.0
 10
168.5796125920315
 20
81.33520875635908
 30
0.0
 10
168.5796227493886
 20
81.34547221564821
 30
0.0
 10
168.5710883369956
 20
81.36013710607897
 30
0.0
 10
168.5350428488904
 20
81.39187248426248
 30
0.0
 10
168.5075317731782
 20
81.40894297201523
 30
0.0
 10
168.3937022653345
 20
81.45416693381466
 30
0.0
 10
168.2926407142912
 20
81.44734350654795
 30
0.0
 10
168.1736935564657
 20
81.40641656032882
 30
0.0
  0
SPLINE
  5
177
330
1F
100
AcDbEntity
  8
0
  6
Continuous
 62
     7
370
    25
100
AcDbSpline
210
0.0
220
0.0
230
1.0
 70
     8
 71
     3
 72
    12
 73
     8
 74
     0
 42
0.000000001
 43
0.00000001
 40
0.0
 40
0.0
 40
0.0
 40
0.0
 40
0.25
 40
0.25
 40
0.5
 40
0.5
 40
1.0
 40
1.0
 40
1.0
 40
1.0
 10
156.5821990266886
 20
81.33520875635908
 30
0.0
 10
156.5822091840457
 20
81.32494529706993
 30
0.0
 10
156.5907656101572
 20
81.31736651727316
 30
0.0
 10
156.6121389663921
 20
81.30295306182408
 30
0.0
 10
156.6249558965155
 20
81.2961183861718
 30
0.0
 10
156.6505493926591
 20
81.26979263317136
 30
0.0
 10
156.6542769445077
 20
81.26012568181038
 30
0.0
 10
156.6541291140626
 20
81.25997785136524
 30
0.0
  0
LINE
  5
178
330
1F
100
AcDbEntity
  8
0
  6
Continuous
 62
     7
370
    25
100
AcDbLine
 10
156.5806044744
 20
81.1413055333
 30
0.0
 11
156.5802771145
 21
81.2044096227
 31
0.0
  0
SPLINE
  5
179
330
1F
100
AcDbEntity
  8
0
  6
Continuous
 62
     7
370
    25
100
AcDbSpline
210
0.0
220
0.0
230
1.0
 70
     8
 71
     3
 72
    14
 73
    10
 74
     0
 42
0.000000001
 43
0.00000001
 40
0.0
 40
0.0
 40
0.0
 40
0.0
 40
0.25
 40
0.25
 40
0.5
 40
0.5
 40
0.75
 40
0.75
 40
1.0
 40
1.0
 40
1.0
 40
1.0
 10
156.5821990266886
 20
81.33520875635908
 30
0.0
 10
156.5821888693314
 20
81.34547221564821
 30
0.0
 10
156.5907232817245
 20
81.36013710607897
 30
0.0
 10
156.6267687698297
 20
81.39187248426246
 30
0.0
 10
156.6542798455419
 20
81.40894297201523
 30
0.0
 10
156.7301661841043
 20
81.4390922798815
 30
0.0
 10
156.7744031565058
 20
81.4449237500314
 30
0.0
 10
156.8736423061244
 20
81.43881762680984
 30
0.0
 10
156.9286444833416
 20
81.42688003343838
 30
0.0
 10
156.9881180622544
 20
81.40641656032882
 30
0.0
  0
SPLINE
  5
17A
330
1F
100
AcDbEntity
  8
0
  6
Continuous
 62
     7
370
    25
100
AcDbSpline
210
0.0
220
0.0
230
1.0
 70
     8
 71
     3
 72
    10
 73
     6
 74
     0
 42
0.000000001
 43
0.00000001
 40
0.0
 40
0.0
 40
0.0
 40
0.0
 40
0.5
 40
0.5
 40
1.0
 40
1.0
 40
1.0
 40
1.0
 10
168.5796125920315
 20
81.33520875635908
 30
0.0
 10
168.5796532214601
 20
81.37626259351562
 30
0.0
 10
168.5800984263083
 20
81.41973942389662
 30
0.0
 10
168.5765728253571
 20
81.50879812362096
 30
0.0
 10
168.58090580936
 20
81.54090149314462
 30
0.0
 10
168.58090580936
 20
81.58320115606939
 30
0.0
  0
SPLINE
  5
17B
330
1F
100
AcDbEntity
  8
0
  6
Continuous
 62
     7
370
    25
100
AcDbSpline
210
0.0
220
0.0
230
1.0
 70
     8
 71
     3
 72
     9
 73
     5
 74
     0
 42
0.000000001
 43
0.00000001
 40
0.0
 40
0.0
 40
0.0
 40
0.0
 40
0.1237681934257705
 40
1.0
 40
1.0
 40
1.0
 40
1.0
 10
156.5826924995654
 20
81.46425700287972
 30
0.0
 10
156.58277952198
 20
81.45893343803185
 30
0.0
 10
156.5834826300425
 20
81.41592105576682
 30
0.0
 10
156.5827984227728
 20
81.3729027573377
 30
0.0
 10
156.5821988986008
 20
81.33520875598941
 30
0.0
  0
SPLINE
  5
17C
330
1F
100
AcDbEntity
  8
0
  6
Continuous
 62
     7
370
    25
100
AcDbSpline
210
0.0
220
0.0
230
1.0
 70
     8
 71
     3
 72
    10
 73
     6
 74
     0
 42
0.000000001
 43
0.00000001
 40
0.0
 40
0.0
 40
0.0
 40
0.0
 40
0.5
 40
0.5
 40
1.0
 40
1.0
 40
1.0
 40
1.0
 10
164.5173974824637
 20
74.33320115606938
 30
0.0
 10
164.5098815634037
 20
74.49787436791911
 30
0.0
 10
164.5051047083603
 20
74.66351080611766
 30
0.0
 10
164.5050042473198
 20
74.99725052399168
 30
0.0
 10
164.5097991977594
 20
75.16672331925261
 30
0.0
 10
164.5173974824637
 20
75.33320115606945
 30
0.0
  0
LINE
  5
17D
330
1F
100
AcDbEntity
  8
0
  6
Continuous
 62
     7
370
    25
100
AcDbLine
 10
164.5173975046
 20
74.3332011323
 30
0.0
 11
160.6444141141
 21
74.3332011323
 31
0.0
  0
SPLINE
  5
17E
330
1F
100
AcDbEntity
  8
0
  6
Continuous
 62
     7
370
    25
100
AcDbSpline
210
0.0
220
0.0
230
1.0
 70
     8
 71
     3
 72
    10
 73
     6
 74
     0
 42
0.000000001
 43
0.00000001
 40
0.0
 40
0.0
 40
0.0
 40
0.0
 40
0.5
 40
0.5
 40
1.0
 40
1.0
 40
1.0
 40
1.0
 10
160.6444141362563
 20
75.33320115606945
 30
0.0
 10
160.6518728413135
 20
75.169781498648
 30
0.0
 10
160.6566862545931
 20
75.00461755926064
 30
0.0
 10
160.65682721662
 20
74.66967143297332
 30
0.0
 10
160.6520036089159
 20
74.49948592166047
 30
0.0
 10
160.6444141362563
 20
74.33320115606932
 30
0.0
  0
SPLINE
  5
17F
330
1F
100
AcDbEntity
  8
0
  6
Continuous
 62
     7
370
    25
100
AcDbSpline
210
0.0
220
0.0
230
1.0
 70
     8
 71
     3
 72
    18
 73
    14
 74
     0
 42
0.000000001
 43
0.00000001
 40
0.0
 40
0.0
 40
0.0
 40
0.0
 40
0.2500000000000001
 40
0.2500000000000001
 40
0.3750000000000001
 40
0.3750000000000001
 40
0.5000000000000001
 40
0.5000000000000001
 40
0.6250000000000001
 40
0.6250000000000001
 40
0.7500000000000002
 40
0.7500000000000002
 40
1.0
 40
1.0
 40
1.0
 40
1.0
 10
160.6444141362564
 20
74.33320115606936
 30
0.0
 10
160.9336184697754
 20
74.18692110949087
 30
0.0
 10
161.2318706231874
 20
74.05182162179801
 30
0.0
 10
161.7154629754394
 20
73.89392285277829
 30
0.0
 10
161.8836951526441
 20
73.84917853732529
 30
0.0
 10
162.2265011766854
 20
73.78739080649038
 30
0.0
 10
162.4048174262231
 20
73.77008800971682
 30
0.0
 10
162.7604878714854
 20
73.77030738412216
 30
0.0
 10
162.9352576654963
 20
73.78733865158176
 30
0.0
 10
163.2797056007774
 20
73.84950779773428
 30
0.0
 10
163.4474182758153
 20
73.89426506244206
 30
0.0
 10
163.9283125193723
 20
74.05130399246514
 30
0.0
 10
164.2282747867277
 20
74.18696240202115
 30
0.0
 10
164.5173974824637
 20
74.33320115606938
 30
0.0
  0
LINE
  5
180
330
1F
100
AcDbEntity
  8
0
  6
Continuous
 62
     8
370
    25
100
AcDbLine
 10
162.5809058094
 20
85.3332010145
 30
0.0
 11
169.8309056007
 21
85.3332010145
 31
0.0
  0
LINE
  5
181
330
1F
100
AcDbEntity
  8
0
  6
Continuous
 62
     8
370
    25
100
AcDbLine
 10
155.330906018
 20
85.3332010145
 30
0.0
 11
162.5809058094
 21
85.3332010145
 31
0.0
  0
LINE
  5
182
330
1F
100
AcDbEntity
  8
0
  6
Continuous
 62
     8
370
    25
100
AcDbLine
 10
156.8309057982
 20
70.0832013088
 30
0.0
 11
157.1036804014
 21
70.0832013088
 31
0.0
  0
LINE
  5
183
330
1F
100
AcDbEntity
  8
0
  6
Continuous
 62
     8
370
    25
100
AcDbLine
 10
156.8309057982
 20
70.417320733
 30
0.0
 11
156.8309057982
 21
70.0832013088
 31
0.0
  0
LINE
  5
184
330
1F
100
AcDbEntity
  8
0
  6
Continuous
 62
     8
370
    25
100
AcDbLine
 10
168.3309058205
 20
70.0832013088
 30
0.0
 11
168.3309058205
 21
70.417320733
 31
0.0
  0
LINE
  5
185
330
1F
100
AcDbEntity
  8
0
  6
Continuous
 62
     8
370
    25
100
AcDbLine
 10
156.8309057982
 20
79.5832010033
 30
0.0
 11
156.8309057982
 21
79.2490815791
 31
0.0
  0
LINE
  5
186
330
1F
100
AcDbEntity
  8
0
  6
Continuous
 62
     8
370
    25
100
AcDbLine
 10
157.1036804014
 20
79.5832010033
 30
0.0
 11
156.8309057982
 21
79.5832010033
 31
0.0
  0
LINE
  5
187
330
1F
100
AcDbEntity
  8
0
  6
Continuous
 62
     8
370
    25
100
AcDbLine
 10
168.0581312173
 20
70.0832013088
 30
0.0
 11
168.3309058205
 21
70.0832013088
 31
0.0
  0
LINE
  5
188
330
1F
100
AcDbEntity
  8
0
  6
Continuous
 62
     8
370
    25
100
AcDbLine
 10
168.3309058205
 20
79.5832010033
 30
0.0
 11
168.0581312173
 21
79.5832010033
 31
0.0
  0
LINE
  5
189
330
1F
100
AcDbEntity
  8
0
  6
Continuous
 62
     8
370
    25
100
AcDbLine
 10
168.3309058205
 20
79.2490815791
 30
0.0
 11
168.3309058205
 21
79.5832010033
 31
0.0
  0
LINE
  5
18A
330
1F
100
AcDbEntity
  8
0
  6
Continuous
 62
     8
370
    25
100
AcDbLine
 10
162.5809058094
 20
84.3332008506
 30
0.0
 11
156.5809057572
 21
84.3332008506
 31
0.0
  0
LINE
  5
18B
330
1F
100
AcDbEntity
  8
0
  6
Continuous
 62
     8
370
    25
100
AcDbLine
 10
168.5809058615
 20
84.3332008506
 30
0.0
 11
162.5809058094
 21
84.3332008506
 31
0.0
  0
LINE
  5
18C
330
1F
100
AcDbEntity
  8
0
  6
Continuous
 62
     8
370
    25
100
AcDbLine
 10
156.8309057982
 20
80.8332012082
 30
0.0
 11
158.5112007813
 21
80.8332012082
 31
0.0
  0
LINE
  5
18D
330
1F
100
AcDbEntity
  8
0
  6
Continuous
 62
     8
370
    25
100
AcDbLine
 10
166.6506108374
 20
80.8332012082
 30
0.0
 11
168.3309058205
 21
80.8332012082
 31
0.0
  0
LINE
  5
18E
330
1F
100
AcDbEntity
  8
0
  6
Continuous
 62
     8
370
    25
100
AcDbLine
 10
165.8364241955
 20
81.3111713203
 30
0.0
 11
165.8364241955
 21
81.5832013312
 31
0.0
  0
SPLINE
  5
18F
330
1F
100
AcDbEntity
  8
0
  6
Continuous
 62
     8
370
    25
100
AcDbSpline
210
0.0
220
0.0
230
1.0
 70
     8
 71
     3
 72
    12
 73
     8
 74
     0
 42
0.000000001
 43
0.00000001
 40
0.0
 40
0.0
 40
0.0
 40
0.0
 40
0.2398677990892992
 40
0.4797227044864434
 40
0.7945086171113718
 40
0.9892862483346374
 40
0.9999999999999999
 40
0.9999999999999999
 40
0.9999999999999999
 40
0.9999999999999999
 10
158.681367385494
 20
81.58320133115802
 30
0.0
 10
158.7314596321227
 20
81.57980873028937
 30
0.0
 10
158.8316414327552
 20
81.57302371091565
 30
0.0
 10
158.9990543249695
 20
81.51630131195445
 30
0.0
 10
159.1451112996303
 20
81.42116888781521
 30
0.0
 10
159.2415643933921
 20
81.33069611903272
 30
0.0
 10
159.264295873504
 20
81.28171503582955
 30
0.0
 10
159.26548102993
 20
81.27916129778777
 30
0.0
  0
SPLINE
  5
190
330
1F
100
AcDbEntity
  8
0
  6
Continuous
 62
     8
370
    25
100
AcDbSpline
210
0.0
220
0.0
230
1.0
 70
     8
 71
     3
 72
    10
 73
     6
 74
     0
 42
0.000000001
 43
0.00000001
 40
0.0
 40
0.0
 40
0.0
 40
0.0
 40
0.5130002434332804
 40
0.8362194556166225
 40
0.9999999999999999
 40
0.9999999999999999
 40
0.9999999999999999
 40
0.9999999999999999
 10
158.5188865208201
 20
81.33320129017983
 30
0.0
 10
158.623095083651
 20
81.32634861676654
 30
0.0
 10
158.7929609439435
 20
81.3151783709342
 30
0.0
 10
158.9965483969187
 20
81.26020112072362
 30
0.0
 10
159.0852135900415
 20
81.2074727273412
 30
0.0
 10
159.1150321544282
 20
81.18973989512477
 30
0.0
  0
LINE
  5
191
330
1F
100
AcDbEntity
  8
0
  6
Continuous
 62
     8
370
    25
100
AcDbLine
 10
165.9720708628
 20
81.4452254261
 30
0.0
 11
165.9720708628
 21
81.2412038493
 31
0.0
  0
LINE
  5
192
330
1F
100
AcDbEntity
  8
0
  6
Continuous
 62
     8
370
    25
100
AcDbLine
 10
158.9066710801
 20
81.0832012492
 30
0.0
 11
156.8309057982
 21
81.0832012492
 31
0.0
  0
SPLINE
  5
193
330
1F
100
AcDbEntity
  8
0
  6
Continuous
 62
     8
370
    25
100
AcDbSpline
210
0.0
220
0.0
230
1.0
 70
     8
 71
     3
 72
     9
 73
     5
 74
     0
 42
0.000000001
 43
0.00000001
 40
0.0
 40
0.0
 40
0.0
 40
0.0
 40
0.1251159292884992
 40
1.0
 40
1.0
 40
1.0
 40
1.0
 10
168.5815345042519
 20
81.20440962265883
 30
0.0
 10
168.581570671663
 20
81.20986535815659
 30
0.0
 10
168.5818597428569
 20
81.25347080095503
 30
0.0
 10
168.580661256629
 20
81.29706707248523
 30
0.0
 10
168.5796127201192
 20
81.33520875598941
 30
0.0
  0
SPLINE
  5
194
330
1F
100
AcDbEntity
  8
0
  6
Continuous
 62
     8
370
    25
100
AcDbSpline
210
0.0
220
0.0
230
1.0
 70
     8
 71
     3
 72
     9
 73
     5
 74
     0
 42
0.000000001
 43
0.00000001
 40
0.0
 40
0.0
 40
0.0
 40
0.0
 40
0.1251159292884992
 40
1.0
 40
1.0
 40
1.0
 40
1.0
 10
156.5802771144681
 20
81.20440962265883
 30
0.0
 10
156.5802409470571
 20
81.20986535815659
 30
0.0
 10
156.5799518758632
 20
81.25347080095503
 30
0.0
 10
156.5811503620911
 20
81.29706707248523
 30
0.0
 10
156.5821988986008
 20
81.33520875598941
 30
0.0
  0
LINE
  5
195
330
1F
100
AcDbEntity
  8
0
  6
Continuous
 62
     8
370
    25
100
AcDbLine
 10
156.5809057572
 20
81.5832013312
 30
0.0
 11
156.5826924996
 21
81.4642570029
 31
0.0
  0
INSERT
  5
1A1
330
1F
100
AcDbEntity
  8
0
  6
Continuous
 62
     7
370
    18
100
AcDbBlockReference
  2
SW_CENTERMARKSYMBOL_0
 10
162.5809058094
 20
74.8332011561
 30
0.0
  0
ARC
  5
1A2
330
1F
100
AcDbEntity
  8
0
  6
Continuous
 62
     7
370
    18
100
AcDbCircle
 10
162.5809058094
 20
74.8332011561
 30
0.0
 40
4.929413560516996
100
AcDbArc
 50
75.0
 51
345.0
  0
LINE
  5
1A3
330
1F
100
AcDbEntity
  8
0
  6
Continuous
 62
     7
370
    25
100
AcDbLine
 10
135.3035556435
 20
129.5102504977
 30
0.0
 11
124.3035547717
 21
129.5102504977
 31
0.0
  0
LINE
  5
1A4
330
1F
100
AcDbEntity
  8
0
  6
Continuous
 62
     7
370
    25
100
AcDbLine
 10
124.3035547717
 20
115.010250915
 30
0.0
 11
135.3035556435
 21
115.010250915
 31
0.0
  0
ARC
  5
1A5
330
1F
100
AcDbEntity
  8
0
  6
Continuous
 62
     7
370
    25
100
AcDbCircle
 10
124.3035549133
 20
129.0102507064
 30
0.0
 40
0.5
100
AcDbArc
 50
90.0
 51
180.0
  0
ARC
  5
1A6
330
1F
100
AcDbEntity
  8
0
  6
Continuous
 62
     7
370
    25
100
AcDbCircle
 10
124.3035549133
 20
115.5102507064
 30
0.0
 40
0.5
100
AcDbArc
 50
180.0
 51
270.0
  0
LINE
  5
1A7
330
1F
100
AcDbEntity
  8
0
  6
Continuous
 62
     7
370
    25
100
AcDbLine
 10
135.3035556435
 20
115.010250915
 30
0.0
 11
135.8035547941
 21
115.5102505313
 31
0.0
  0
LINE
  5
1A8
330
1F
100
AcDbEntity
  8
0
  6
Continuous
 62
     7
370
    25
100
AcDbLine
 10
135.8035547941
 20
129.0102508815
 30
0.0
 11
135.3035556435
 21
129.5102504977
 31
0.0
  0
ARC
  5
1A9
330
1F
100
AcDbEntity
  8
0
  6
Continuous
 62
     7
370
    25
100
AcDbCircle
 10
123.3035549133
 20
128.7602507064
 30
0.0
 40
0.5
100
AcDbArc
 50
270.0
 51
0.0
  0
ARC
  5
1AA
330
1F
100
AcDbEntity
  8
0
  6
Continuous
 62
     7
370
    25
100
AcDbCircle
 10
123.3035549133
 20
115.7602507064
 30
0.0
 40
0.5
100
AcDbArc
 50
0.0
 51
90.0
  0
LINE
  5
1AB
330
1F
100
AcDbEntity
  8
0
  6
Continuous
 62
     7
370
    25
100
AcDbLine
 10
120.5535550884
 20
116.2602506542
 30
0.0
 11
123.3035546078
 21
116.2602506542
 31
0.0
  0
LINE
  5
1AC
330
1F
100
AcDbEntity
  8
0
  6
Continuous
 62
     7
370
    25
100
AcDbLine
 10
120.8035551294
 20
128.2602507585
 30
0.0
 11
120.5535550884
 21
128.2602507585
 31
0.0
  0
LINE
  5
1AD
330
1F
100
AcDbEntity
  8
0
  6
Continuous
 62
     7
370
    25
100
AcDbLine
 10
123.3035546078
 20
128.2602507585
 30
0.0
 11
121.8035552933
 21
128.2602507585
 31
0.0
  0
SPLINE
  5
1AE
330
1F
100
AcDbEntity
  8
0
  6
Continuous
 62
     7
370
    25
100
AcDbSpline
210
0.0
220
0.0
230
1.0
 70
     8
 71
     3
 72
    11
 73
     7
 74
     0
 42
0.000000001
 43
0.00000001
 40
0.0
 40
0.0
 40
0.0
 40
0.0
 40
0.2499994831352932
 40
0.4999993123319953
 40
0.7499992070588263
 40
1.0
 40
1.0
 40
1.0
 40
1.0
 10
121.0535547046785
 20
128.5602507145585
 30
0.0
 10
121.0207955286544
 20
128.5564927938023
 30
0.0
 10
120.9552771312592
 20
128.548976947088
 30
0.0
 10
120.8726412361366
 20
128.4911645888478
 30
0.0
 10
120.8148287987512
 20
128.4085285675759
 30
0.0
 10
120.8073130236587
 20
128.3430100108119
 30
0.0
 10
120.8035551293616
 20
128.3102506735803
 30
0.0
  0
SPLINE
  5
1AF
330
1F
100
AcDbEntity
  8
0
  6
Continuous
 62
     7
370
    25
100
AcDbSpline
210
0.0
220
0.0
230
1.0
 70
     8
 71
     3
 72
    11
 73
     7
 74
     0
 42
0.000000001
 43
0.00000001
 40
0.0
 40
0.0
 40
0.0
 40
0.0
 40
0.2500005652301612
 40
0.4999992914041907
 40
0.7499996712703783
 40
1.0
 40
1.0
 40
1.0
 40
1.0
 10
121.8035552932744
 20
128.3102506735803
 30
0.0
 10
121.7997971722313
 20
128.3430099743508
 30
0.0
 10
121.7922809577905
 20
128.4085283349078
 30
0.0
 10
121.7344692277168
 20
128.4911649146239
 30
0.0
 10
121.6518327058058
 20
128.5489769225457
 30
0.0
 10
121.5863140907916
 20
128.5564927841438
 30
0.0
 10
121.5535547866349
 20
128.5602507145585
 30
0.0
  0
LINE
  5
1B0
330
1F
100
AcDbEntity
  8
0
  6
Continuous
 62
     7
370
    25
100
AcDbLine
 10
120.8035551294
 20
128.3105505594
 30
0.0
 11
120.8035551294
 21
128.2602507585
 31
0.0
  0
LINE
  5
1B1
330
1F
100
AcDbEntity
  8
0
  6
Continuous
 62
     7
370
    25
100
AcDbLine
 10
121.8035552933
 20
128.2602507585
 30
0.0
 11
121.8035552933
 21
128.3105505594
 31
0.0
  0
LINE
  5
1B2
330
1F
100
AcDbEntity
  8
0
  6
Continuous
 62
     7
370
    25
100
AcDbLine
 10
121.5535510613
 20
128.5602507146
 30
0.0
 11
121.0535547047
 21
128.5602507146
 31
0.0
  0
CIRCLE
  5
1B3
330
1F
100
AcDbEntity
  8
0
  6
Continuous
 62
     7
370
    25
100
AcDbCircle
 10
113.8035549133
 20
122.2602507064
 30
0.0
 40
6.749999999999972
  0
CIRCLE
  5
1B4
330
1F
100
AcDbEntity
  8
0
  6
Continuous
 62
     7
370
    25
100
AcDbCircle
 10
113.8035549133
 20
122.2602507064
 30
0.0
 40
6.124999999999929
  0
CIRCLE
  5
1B5
330
1F
100
AcDbEntity
  8
0
  6
Continuous
 62
     7
370
    25
100
AcDbCircle
 10
113.8035549133
 20
122.2602507064
 30
0.0
 40
5.999999999999929
  0
CIRCLE
  5
1B6
330
1F
100
AcDbEntity
  8
0
  6
Continuous
 62
     7
370
    25
100
AcDbCircle
 10
113.8035549133
 20
122.2602507064
 30
0.0
 40
7.249999999999986
  0
CIRCLE
  5
1B7
330
1F
100
AcDbEntity
  8
0
  6
Continuous
 62
     7
370
    25
100
AcDbCircle
 10
113.8035549133
 20
122.2602507064
 30
0.0
 40
5.874999999999915
  0
CIRCLE
  5
1B8
330
1F
100
AcDbEntity
  8
0
  6
Continuous
 62
     7
370
    25
100
AcDbCircle
 10
113.8035549133
 20
122.2602507064
 30
0.0
 40
4.999999999999986
  0
CIRCLE
  5
1B9
330
1F
100
AcDbEntity
  8
0
  6
Continuous
 62
     7
370
    25
100
AcDbCircle
 10
113.8035549133
 20
122.2602507064
 30
0.0
 40
4.618423633796652
  0
CIRCLE
  5
1BA
330
1F
100
AcDbEntity
  8
0
  6
Continuous
 62
     7
370
    25
100
AcDbCircle
 10
113.8035549133
 20
122.2602507064
 30
0.0
 40
4.342497099879523
  0
CIRCLE
  5
1BB
330
1F
100
AcDbEntity
  8
0
  6
Continuous
 62
     7
370
    25
100
AcDbCircle
 10
113.8035549133
 20
122.2602507064
 30
0.0
 40
3.949999999999989
  0
CIRCLE
  5
1BC
330
1F
100
AcDbEntity
  8
0
  6
Continuous
 62
     7
370
    25
100
AcDbCircle
 10
113.8035549133
 20
122.2602507064
 30
0.0
 40
2.0
  0
LINE
  5
1BD
330
1F
100
AcDbEntity
  8
0
  6
Continuous
 62
     7
370
    25
100
AcDbLine
 10
135.3035556435
 20
115.010250915
 30
0.0
 11
135.3035556435
 21
129.5102504977
 31
0.0
  0
LINE
  5
1BE
330
1F
100
AcDbEntity
  8
0
  6
Continuous
 62
     7
370
    25
100
AcDbLine
 10
123.8035546898
 20
115.5102505313
 30
0.0
 11
123.8035546898
 21
129.0102508815
 31
0.0
  0
LINE
  5
1BF
330
1F
100
AcDbEntity
  8
0
  6
Continuous
 62
     7
370
    25
100
AcDbLine
 10
135.8035547941
 20
129.0102508815
 30
0.0
 11
135.8035547941
 21
115.5102505313
 31
0.0
  0
LINE
  5
1C0
330
1F
100
AcDbEntity
  8
0
  6
Continuous
 62
     7
370
    25
100
AcDbLine
 10
109.053555066
 20
128.0102507175
 30
0.0
 11
109.053555066
 21
128.2602507585
 31
0.0
  0
LINE
  5
1C1
330
1F
100
AcDbEntity
  8
0
  6
Continuous
 62
     7
370
    25
100
AcDbLine
 10
109.053555066
 20
128.2602507585
 30
0.0
 11
109.7338498852
 21
128.2602507585
 31
0.0
  0
LINE
  5
1C2
330
1F
100
AcDbEntity
  8
0
  6
Continuous
 62
     7
370
    25
100
AcDbLine
 10
117.8732599414
 20
128.2602507585
 30
0.0
 11
118.5535547606
 21
128.2602507585
 31
0.0
  0
ARC
  5
1C3
330
1F
100
AcDbEntity
  8
0
  6
Continuous
 62
     7
370
    25
100
AcDbCircle
 10
118.5535549133
 20
128.0102507064
 30
0.0
 40
0.25
100
AcDbArc
 50
0.0
 51
90.0
  0
LINE
  5
1C4
330
1F
100
AcDbEntity
  8
0
  6
Continuous
 62
     7
370
    25
100
AcDbLine
 10
118.8035548015
 20
127.5102506356
 30
0.0
 11
118.8035548015
 21
128.0102507175
 31
0.0
  0
LINE
  5
1C5
330
1F
100
AcDbEntity
  8
0
  6
Continuous
 62
     7
370
    25
100
AcDbLine
 10
109.7338498852
 20
116.2602506542
 30
0.0
 11
109.053555066
 21
116.2602506542
 31
0.0
  0
LINE
  5
1C6
330
1F
100
AcDbEntity
  8
0
  6
Continuous
 62
     7
370
    25
100
AcDbLine
 10
109.053555066
 20
116.2602506542
 30
0.0
 11
109.053555066
 21
116.5102506952
 31
0.0
  0
LINE
  5
1C7
330
1F
100
AcDbEntity
  8
0
  6
Continuous
 62
     7
370
    25
100
AcDbLine
 10
118.5535547606
 20
116.2602506542
 30
0.0
 11
117.8732599414
 21
116.2602506542
 31
0.0
  0
LINE
  5
1C8
330
1F
100
AcDbEntity
  8
0
  6
Continuous
 62
     7
370
    25
100
AcDbLine
 10
118.5535547606
 20
116.2602506542
 30
0.0
 11
118.5535547606
 21
116.5102506952
 31
0.0
  0
ARC
  5
1C9
330
1F
100
AcDbEntity
  8
0
  6
Continuous
 62
     7
370
    25
100
AcDbCircle
 10
109.0535549133
 20
128.0102507064
 30
0.0
 40
0.25
100
AcDbArc
 50
90.0
 51
180.0
  0
LINE
  5
1CA
330
1F
100
AcDbEntity
  8
0
  6
Continuous
 62
     7
370
    25
100
AcDbLine
 10
108.8035550251
 20
128.0102507175
 30
0.0
 11
109.053555066
 21
128.0102507175
 31
0.0
  0
LINE
  5
1CB
330
1F
100
AcDbEntity
  8
0
  6
Continuous
 62
     7
370
    25
100
AcDbLine
 10
108.8035550251
 20
127.5102506356
 30
0.0
 11
108.8035550251
 21
128.0102507175
 31
0.0
  0
LINE
  5
1CC
330
1F
100
AcDbEntity
  8
0
  6
Continuous
 62
     7
370
    25
100
AcDbLine
 10
118.8035548015
 20
117.0102507771
 30
0.0
 11
118.8035548015
 21
116.5102506952
 31
0.0
  0
LINE
  5
1CD
330
1F
100
AcDbEntity
  8
0
  6
Continuous
 62
     7
370
    25
100
AcDbLine
 10
118.8035548015
 20
116.5102506952
 30
0.0
 11
118.5535547606
 21
116.5102506952
 31
0.0
  0
LINE
  5
1CE
330
1F
100
AcDbEntity
  8
0
  6
Continuous
 62
     7
370
    25
100
AcDbLine
 10
108.8035550251
 20
116.5102506952
 30
0.0
 11
108.8035550251
 21
117.0102507771
 31
0.0
  0
LINE
  5
1CF
330
1F
100
AcDbEntity
  8
0
  6
Continuous
 62
     7
370
    25
100
AcDbLine
 10
108.8035550251
 20
116.5102506952
 30
0.0
 11
109.053555066
 21
116.5102506952
 31
0.0
  0
ARC
  5
1D0
330
1F
100
AcDbEntity
  8
0
  6
Continuous
 62
     7
370
    25
100
AcDbCircle
 10
109.0535549133
 20
116.5102507064
 30
0.0
 40
0.25
100
AcDbArc
 50
180.0
 51
270.0
  0
ARC
  5
1D1
330
1F
100
AcDbEntity
  8
0
  6
Continuous
 62
     7
370
    25
100
AcDbCircle
 10
118.5535549133
 20
116.5102507064
 30
0.0
 40
0.25
100
AcDbArc
 50
270.0
 51
0.0
  0
LINE
  5
1D2
330
1F
100
AcDbEntity
  8
0
  6
Continuous
 62
     7
370
    25
100
AcDbLine
 10
119.8035549654
 20
128.2602507585
 30
0.0
 11
119.8035549654
 21
128.0102507175
 31
0.0
  0
LINE
  5
1D3
330
1F
100
AcDbEntity
  8
0
  6
Continuous
 62
     7
370
    25
100
AcDbLine
 10
119.8035549654
 20
128.0102507175
 30
0.0
 11
118.8035548015
 21
128.0102507175
 31
0.0
  0
LINE
  5
1D4
330
1F
100
AcDbEntity
  8
0
  6
Continuous
 62
     7
370
    25
100
AcDbLine
 10
118.5535547606
 20
128.2602507585
 30
0.0
 11
119.8035549654
 21
128.2602507585
 31
0.0
  0
SPLINE
  5
1D5
330
1F
100
AcDbEntity
  8
0
  6
Continuous
 62
     7
370
    25
100
AcDbSpline
210
0.0
220
0.0
230
1.0
 70
     8
 71
     3
 72
    22
 73
    18
 74
     0
 42
0.000000001
 43
0.00000001
 40
0.0
 40
0.0
 40
0.0
 40
0.0
 40
0.0625000000121793
 40
0.0625000000121793
 40
0.1250000000121793
 40
0.1250000000121793
 40
0.1875000000121793
 40
0.1875000000121793
 40
0.2500000000121793
 40
0.2500000000121793
 40
0.3125000000121793
 40
0.3125000000121793
 40
0.3750000000121793
 40
0.3750000000121793
 40
0.4375000000121793
 40
0.4375000000121793
 40
0.5000000000121793
 40
0.5000000000121793
 40
0.5000000000121793
 40
0.5000000000121793
 10
121.8035549132779
 20
128.2602507063629
 30
0.0
 10
121.8035482908042
 20
128.2602507065022
 30
0.0
 10
121.7908615393775
 20
128.259152104429
 30
0.0
 10
121.7401278185843
 20
128.2552478833015
 30
0.0
 10
121.7039735109677
 20
128.2525964621121
 30
0.0
 10
121.6102430896194
 20
128.2470776443363
 30
0.0
 10
121.5561253876789
 20
128.2444272488583
 30
0.0
 10
121.4336678702328
 20
128.240527003123
 30
0.0
 10
121.3696820417036
 20
128.2394239227925
 30
0.0
 10
121.2374277975056
 20
128.2394349303742
 30
0.0
 10
121.173292454168
 20
128.2405306642196
 30
0.0
 10
121.0511339643827
 20
128.2444235870127
 30
0.0
 10
120.9968573794493
 20
128.2470770916668
 30
0.0
 10
120.9031456910576
 20
128.2525970137349
 30
0.0
 10
120.8669697651017
 20
128.2552477213727
 30
0.0
 10
120.8162605397306
 20
128.2591522656137
 30
0.0
 10
120.803554918775
 20
128.2602507063629
 30
0.0
 10
120.8035549132948
 20
128.2602507063629
 30
0.0
  0
SPLINE
  5
1D6
330
1F
100
AcDbEntity
  8
0
  6
Continuous
 62
     7
370
    25
100
AcDbSpline
210
0.0
220
0.0
230
1.0
 70
    24
 71
     3
 72
    14
 73
    10
 74
     0
 42
0.000000001
 43
0.00000001
 40
0.0
 40
0.0
 40
0.0
 40
0.0
 40
0.25
 40
0.25
 40
0.5
 40
0.5
 40
0.75
 40
0.75
 40
1.0
 40
1.0
 40
1.0
 40
1.0
 10
120.5535549132948
 20
128.2602507063629
 30
0.0
 10
120.5535549132948
 20
128.2602507063629
 30
0.0
 10
120.5535549132948
 20
128.2504057926253
 30
0.0
 10
120.5535549132948
 20
128.2109136863162
 30
0.0
 10
120.5535549132948
 20
128.1812660471409
 30
0.0
 10
120.5535549132948
 20
128.1018369099373
 30
0.0
 10
120.5535549132948
 20
128.052054485868
 30
0.0
 10
120.5535549132948
 20
127.9318254995334
 30
0.0
 10
120.5535549132948
 20
127.8613774669262
 30
0.0
 10
120.5535549132948
 20
127.7802507063629
 30
0.0
  0
SPLINE
  5
1D7
330
1F
100
AcDbEntity
  8
0
  6
Continuous
 62
     7
370
    25
100
AcDbSpline
210
0.0
220
0.0
230
1.0
 70
    24
 71
     3
 72
    14
 73
    10
 74
     0
 42
0.000000001
 43
0.00000001
 40
0.0
 40
0.0
 40
0.0
 40
0.0
 40
0.25
 40
0.25
 40
0.5
 40
0.5
 40
0.75
 40
0.75
 40
1.0
 40
1.0
 40
1.0
 40
1.0
 10
120.5535549132948
 20
116.2602507063629
 30
0.0
 10
120.5535549132948
 20
116.2602507063629
 30
0.0
 10
120.5535549132948
 20
116.2700956201004
 30
0.0
 10
120.5535549132948
 20
116.3095877264095
 30
0.0
 10
120.5535549132948
 20
116.3392353655848
 30
0.0
 10
120.5535549132948
 20
116.4186645027884
 30
0.0
 10
120.5535549132948
 20
116.4684469268577
 30
0.0
 10
120.5535549132948
 20
116.5886759131923
 30
0.0
 10
120.5535549132948
 20
116.6591239457995
 30
0.0
 10
120.5535549132948
 20
116.7402507063629
 30
0.0
  0
LINE
  5
1D8
330
1F
100
AcDbEntity
  8
0
  6
Continuous
 62
     7
370
    25
100
AcDbLine
 10
120.5535550884
 20
118.3607122825
 30
0.0
 11
120.5535550884
 21
116.7402505839
 31
0.0
  0
LINE
  5
1D9
330
1F
100
AcDbEntity
  8
0
  6
Continuous
 62
     7
370
    25
100
AcDbLine
 10
120.5535550884
 20
127.7802508289
 30
0.0
 11
120.5535550884
 21
126.1597891302
 31
0.0
  0
LINE
  5
1DA
330
1F
100
AcDbEntity
  8
0
  6
Continuous
 62
     7
370
    25
100
AcDbLine
 10
118.8035548015
 20
116.5102506952
 30
0.0
 11
119.8035549654
 21
116.5102506952
 31
0.0
  0
LINE
  5
1DB
330
1F
100
AcDbEntity
  8
0
  6
Continuous
 62
     7
370
    25
100
AcDbLine
 10
119.8035549654
 20
116.5102506952
 30
0.0
 11
119.8035549654
 21
116.2602506542
 31
0.0
  0
LINE
  5
1DC
330
1F
100
AcDbEntity
  8
0
  6
Continuous
 62
     7
370
    25
100
AcDbLine
 10
119.8035549654
 20
116.2602506542
 30
0.0
 11
118.5535547606
 21
116.2602506542
 31
0.0
  0
LWPOLYLINE
  5
1DD
330
1F
100
AcDbEntity
  8
0
  6
Continuous
 62
     7
370
    25
100
AcDbPolyline
 90
        9
 70
   128
 43
0.0
 10
120.3035550474
 20
126.3222699949
 10
120.3083588092
 20
126.2905714998
 10
120.3225852272
 20
126.2600911745
 10
120.345687615
 20
126.232000623
 10
120.3767784222
 20
126.2073787825
 10
120.4146622962
 20
126.1871718766
 10
120.4578840456
 20
126.172157094
 10
120.5047821908
 20
126.1629111563
 10
120.5535550884
 20
126.1597891302
  0
LWPOLYLINE
  5
1DE
330
1F
100
AcDbEntity
  8
0
  6
Continuous
 62
     7
370
    25
100
AcDbPolyline
 90
        9
 70
   128
 43
0.0
 10
120.5535550884
 20
118.3607122825
 10
120.5047821908
 20
118.3575902564
 10
120.4578840456
 20
118.3483443187
 10
120.4146622962
 20
118.3333295362
 10
120.3767784222
 20
118.3131226303
 10
120.345687615
 20
118.2885007897
 10
120.3225852272
 20
118.2604102382
 10
120.3083588092
 20
118.229929913
 10
120.3035550474
 20
118.1982314178
  0
LINE
  5
1DF
330
1F
100
AcDbEntity
  8
0
  6
Continuous
 62
     7
370
    25
100
AcDbLine
 10
120.0535550064
 20
128.2602507585
 30
0.0
 11
120.0535550064
 21
128.0102507175
 31
0.0
  0
LINE
  5
1E0
330
1F
100
AcDbEntity
  8
0
  6
Continuous
 62
     7
370
    25
100
AcDbLine
 10
120.0535550064
 20
128.0102507175
 30
0.0
 11
119.8035549654
 21
128.0102507175
 31
0.0
  0
LINE
  5
1E1
330
1F
100
AcDbEntity
  8
0
  6
Continuous
 62
     7
370
    25
100
AcDbLine
 10
119.8035549654
 20
128.2602507585
 30
0.0
 11
120.0535550064
 21
128.2602507585
 31
0.0
  0
ARC
  5
1E2
330
1F
100
AcDbEntity
  8
0
  6
Continuous
 62
     7
370
    25
100
AcDbCircle
 10
120.0535549133
 20
128.0102507064
 30
0.0
 40
0.25
100
AcDbArc
 50
0.0
 51
90.0
  0
LINE
  5
1E3
330
1F
100
AcDbEntity
  8
0
  6
Continuous
 62
     7
370
    25
100
AcDbLine
 10
120.0535550064
 20
128.0102507175
 30
0.0
 11
120.3035550474
 21
128.0102507175
 31
0.0
  0
LINE
  5
1E4
330
1F
100
AcDbEntity
  8
0
  6
Continuous
 62
     7
370
    25
100
AcDbLine
 10
120.3035550474
 20
128.0102507175
 30
0.0
 11
120.3035550474
 21
126.3222699949
 31
0.0
  0
LINE
  5
1E5
330
1F
100
AcDbEntity
  8
0
  6
Continuous
 62
     7
370
    25
100
AcDbLine
 10
119.8035549654
 20
116.5102506952
 30
0.0
 11
120.0535550064
 21
116.5102506952
 31
0.0
  0
LINE
  5
1E6
330
1F
100
AcDbEntity
  8
0
  6
Continuous
 62
     7
370
    25
100
AcDbLine
 10
120.3035550474
 20
118.1982314178
 30
0.0
 11
120.3035550474
 21
116.5102506952
 31
0.0
  0
LINE
  5
1E7
330
1F
100
AcDbEntity
  8
0
  6
Continuous
 62
     7
370
    25
100
AcDbLine
 10
120.3035550474
 20
116.5102506952
 30
0.0
 11
120.0535550064
 21
116.5102506952
 31
0.0
  0
ARC
  5
1E8
330
1F
100
AcDbEntity
  8
0
  6
Continuous
 62
     7
370
    25
100
AcDbCircle
 10
120.0535549133
 20
116.5102507064
 30
0.0
 40
0.25
100
AcDbArc
 50
270.0
 51
0.0
  0
LINE
  5
1E9
330
1F
100
AcDbEntity
  8
0
  6
Continuous
 62
     7
370
    25
100
AcDbLine
 10
120.0535550064
 20
116.5102506952
 30
0.0
 11
120.0535550064
 21
116.2602506542
 31
0.0
  0
LINE
  5
1EA
330
1F
100
AcDbEntity
  8
0
  6
Continuous
 62
     7
370
    25
100
AcDbLine
 10
120.0535550064
 20
116.2602506542
 30
0.0
 11
119.8035549654
 21
116.2602506542
 31
0.0
  0
SPLINE
  5
1EB
330
1F
100
AcDbEntity
  8
0
  6
Continuous
 62
     7
370
    25
100
AcDbSpline
210
0.0
220
0.0
230
1.0
 70
     8
 71
     3
 72
    12
 73
     8
 74
     0
 42
0.000000001
 43
0.00000001
 40
0.0
 40
0.0
 40
0.0
 40
0.0
 40
0.25
 40
0.25
 40
0.5
 40
0.5
 40
1.0
 40
1.0
 40
1.0
 40
1.0
 10
120.3767703175542
 20
127.8530384534685
 30
0.0
 10
120.3625566875206
 20
127.8668089268795
 30
0.0
 10
120.349855163768
 20
127.8828729467307
 30
0.0
 10
120.3287877344256
 20
127.9162642509261
 30
0.0
 10
120.3204218288357
 20
127.9335915352702
 30
0.0
 10
120.303794647711
 20
127.9824825424605
 30
0.0
 10
120.3035549132948
 20
128.0102507063629
 30
0.0
 10
120.3035549132948
 20
128.0102507063629
 30
0.0
  0
SPLINE
  5
1EC
330
1F
100
AcDbEntity
  8
0
  6
Continuous
 62
     7
370
    25
100
AcDbSpline
210
0.0
220
0.0
230
1.0
 70
     8
 71
     3
 72
    10
 73
     6
 74
     0
 42
0.000000001
 43
0.00000001
 40
0.0
 40
0.0
 40
0.0
 40
0.0
 40
0.5
 40
0.5
 40
1.0
 40
1.0
 40
1.0
 40
1.0
 10
120.3767703175542
 20
127.8530384534685
 30
0.0
 10
120.4051975776215
 20
127.8254975066465
 30
0.0
 10
120.4394242157883
 20
127.8058843727568
 30
0.0
 10
120.5024462613259
 20
127.7835754994685
 30
0.0
 10
120.5310319806179
 20
127.7802507063629
 30
0.0
 10
120.5535549132948
 20
127.7802507063629
 30
0.0
  0
SPLINE
  5
1ED
330
1F
100
AcDbEntity
  8
0
  6
Continuous
 62
     7
370
    25
100
AcDbSpline
210
0.0
220
0.0
230
1.0
 70
     8
 71
     3
 72
    10
 73
     6
 74
     0
 42
0.000000001
 43
0.00000001
 40
0.0
 40
0.0
 40
0.0
 40
0.0
 40
0.5
 40
0.5
 40
1.0
 40
1.0
 40
1.0
 40
1.0
 10
120.3767703175542
 20
116.6674629592572
 30
0.0
 10
120.4051975776215
 20
116.6950039060793
 30
0.0
 10
120.4394242157883
 20
116.7146170399689
 30
0.0
 10
120.5024462613259
 20
116.7369259132573
 30
0.0
 10
120.5310319806179
 20
116.7402507063629
 30
0.0
 10
120.5535549132948
 20
116.7402507063629
 30
0.0
  0
SPLINE
  5
1EE
330
1F
100
AcDbEntity
  8
0
  6
Continuous
 62
     7
370
    25
100
AcDbSpline
210
0.0
220
0.0
230
1.0
 70
     8
 71
     3
 72
    12
 73
     8
 74
     0
 42
0.000000001
 43
0.00000001
 40
0.0
 40
0.0
 40
0.0
 40
0.0
 40
0.25
 40
0.25
 40
0.5
 40
0.5
 40
1.0
 40
1.0
 40
1.0
 40
1.0
 10
120.3767703175542
 20
116.6674629592572
 30
0.0
 10
120.3625566875206
 20
116.6536924858462
 30
0.0
 10
120.349855163768
 20
116.637628465995
 30
0.0
 10
120.3287877344256
 20
116.6042371617997
 30
0.0
 10
120.3204218288357
 20
116.5869098774555
 30
0.0
 10
120.303794647711
 20
116.5380188702652
 30
0.0
 10
120.3035549132948
 20
116.5102507063629
 30
0.0
 10
120.3035549132948
 20
116.5102507063629
 30
0.0
  0
SPLINE
  5
1EF
330
1F
100
AcDbEntity
  8
0
  6
Continuous
 62
     7
370
    25
100
AcDbSpline
210
0.0
220
0.0
230
1.0
 70
     8
 71
     3
 72
    14
 73
    10
 74
     0
 42
0.000000001
 43
0.00000001
 40
0.0
 40
0.0
 40
0.0
 40
0.0
 40
0.25
 40
0.25
 40
0.5
 40
0.5
 40
0.75
 40
0.75
 40
1.0
 40
1.0
 40
1.0
 40
1.0
 10
120.3055625135845
 20
128.2589574890343
 30
0.0
 10
120.3158259728736
 20
128.2589676463915
 30
0.0
 10
120.3304908633044
 20
128.2504332339985
 30
0.0
 10
120.3622262414879
 20
128.2143877458932
 30
0.0
 10
120.3792967292406
 20
128.186876670181
 30
0.0
 10
120.4094460371069
 20
128.1109903316186
 30
0.0
 10
120.4152775072568
 20
128.0667533592171
 30
0.0
 10
120.4091713840352
 20
127.9675142095984
 30
0.0
 10
120.3972337906638
 20
127.9125120323812
 30
0.0
 10
120.3767703175542
 20
127.8530384534685
 30
0.0
  0
SPLINE
  5
1F0
330
1F
100
AcDbEntity
  8
0
  6
Continuous
 62
     7
370
    25
100
AcDbSpline
210
0.0
220
0.0
230
1.0
 70
     8
 71
     3
 72
    12
 73
     8
 74
     0
 42
0.000000001
 43
0.00000001
 40
0.0
 40
0.0
 40
0.0
 40
0.0
 40
0.25
 40
0.25
 40
0.5
 40
0.5
 40
1.0
 40
1.0
 40
1.0
 40
1.0
 10
120.3055625135845
 20
128.2589574890343
 30
0.0
 10
120.2952990542953
 20
128.2589473316772
 30
0.0
 10
120.2877202744986
 20
128.2503909055657
 30
0.0
 10
120.2733068190495
 20
128.2290175493308
 30
0.0
 10
120.2664721433972
 20
128.2162006192073
 30
0.0
 10
120.2401463903968
 20
128.1906071230638
 30
0.0
 10
120.2304794390358
 20
128.1868795712151
 30
0.0
 10
120.2303316085906
 20
128.1870274016603
 30
0.0
  0
SPLINE
  5
1F1
330
1F
100
AcDbEntity
  8
0
  6
Continuous
 62
     7
370
    25
100
AcDbSpline
210
0.0
220
0.0
230
1.0
 70
     8
 71
     3
 72
    10
 73
     6
 74
     0
 42
0.000000001
 43
0.00000001
 40
0.0
 40
0.0
 40
0.0
 40
0.0
 40
0.5
 40
0.5
 40
1.0
 40
1.0
 40
1.0
 40
1.0
 10
120.3055625135845
 20
128.2589574890343
 30
0.0
 10
120.2645086764279
 20
128.2589168596057
 30
0.0
 10
120.2204343241149
 20
128.2592754183625
 30
0.0
 10
120.129083054603
 20
128.2642739729453
 30
0.0
 10
120.096333273106
 20
128.2602507063629
 30
0.0
 10
120.0535549132948
 20
128.2602507063629
 30
0.0
  0
SPLINE
  5
1F2
330
1F
100
AcDbEntity
  8
0
  6
Continuous
 62
     7
370
    25
100
AcDbSpline
210
0.0
220
0.0
230
1.0
 70
     8
 71
     3
 72
    12
 73
     8
 74
     0
 42
0.000000001
 43
0.00000001
 40
0.0
 40
0.0
 40
0.0
 40
0.0
 40
0.25
 40
0.25
 40
0.5
 40
0.5
 40
1.0
 40
1.0
 40
1.0
 40
1.0
 10
120.3055625135845
 20
116.2615439236914
 30
0.0
 10
120.2952990542953
 20
116.2615540810486
 30
0.0
 10
120.2877202744986
 20
116.27011050716
 30
0.0
 10
120.2733068190495
 20
116.2914838633949
 30
0.0
 10
120.2664721433972
 20
116.3043007935184
 30
0.0
 10
120.2401463903968
 20
116.329894289662
 30
0.0
 10
120.2304794390358
 20
116.3336218415106
 30
0.0
 10
120.2303316085906
 20
116.3334740110654
 30
0.0
  0
SPLINE
  5
1F3
330
1F
100
AcDbEntity
  8
0
  6
Continuous
 62
     7
370
    25
100
AcDbSpline
210
0.0
220
0.0
230
1.0
 70
     8
 71
     3
 72
    12
 73
     8
 74
     0
 42
0.000000001
 43
0.00000001
 40
0.0
 40
0.0
 40
0.0
 40
0.0
 40
0.25
 40
0.25
 40
0.5
 40
0.5
 40
1.0
 40
1.0
 40
1.0
 40
1.0
 10
120.3055625135845
 20
116.2615439236914
 30
0.0
 10
120.3158259728736
 20
116.2615337663343
 30
0.0
 10
120.3304908633044
 20
116.2700681787273
 30
0.0
 10
120.3622262414879
 20
116.3061136668325
 30
0.0
 10
120.3792967292406
 20
116.3336247425447
 30
0.0
 10
120.4245206910401
 20
116.4474542503884
 30
0.0
 10
120.4176972637733
 20
116.5485158014317
 30
0.0
 10
120.3767703175542
 20
116.6674629592572
 30
0.0
  0
SPLINE
  5
1F4
330
1F
100
AcDbEntity
  8
0
  6
Continuous
 62
     7
370
    25
100
AcDbSpline
210
0.0
220
0.0
230
1.0
 70
     8
 71
     3
 72
    10
 73
     6
 74
     0
 42
0.000000001
 43
0.00000001
 40
0.0
 40
0.0
 40
0.0
 40
0.0
 40
0.5
 40
0.5
 40
1.0
 40
1.0
 40
1.0
 40
1.0
 10
120.3055625135845
 20
116.2615439236914
 30
0.0
 10
120.2645086764279
 20
116.26158455312
 30
0.0
 10
120.2204343241149
 20
116.2612259943632
 30
0.0
 10
120.129083054603
 20
116.2562274397804
 30
0.0
 10
120.096333273106
 20
116.2602507063629
 30
0.0
 10
120.0535549132948
 20
116.2602507063629
 30
0.0
  0
SPLINE
  5
1F5
330
1F
100
AcDbEntity
  8
0
  6
Continuous
 62
     7
370
    25
100
AcDbSpline
210
0.0
220
0.0
230
1.0
 70
     8
 71
     3
 72
    10
 73
     6
 74
     0
 42
0.000000001
 43
0.00000001
 40
0.0
 40
0.0
 40
0.0
 40
0.0
 40
0.5
 40
0.5
 40
1.0
 40
1.0
 40
1.0
 40
1.0
 10
120.3055625135845
 20
128.2589574890343
 30
0.0
 10
120.346616350741
 20
128.258998118463
 30
0.0
 10
120.390093181122
 20
128.2594433233112
 30
0.0
 10
120.4791518808464
 20
128.2559177223599
 30
0.0
 10
120.51125525037
 20
128.2602507063629
 30
0.0
 10
120.5535549132948
 20
128.2602507063629
 30
0.0
  0
SPLINE
  5
1F6
330
1F
100
AcDbEntity
  8
0
  6
Continuous
 62
     7
370
    25
100
AcDbSpline
210
0.0
220
0.0
230
1.0
 70
     8
 71
     3
 72
    10
 73
     6
 74
     0
 42
0.000000001
 43
0.00000001
 40
0.0
 40
0.0
 40
0.0
 40
0.0
 40
0.5
 40
0.5
 40
1.0
 40
1.0
 40
1.0
 40
1.0
 10
120.3055625135845
 20
116.2615439236914
 30
0.0
 10
120.346616350741
 20
116.2615032942628
 30
0.0
 10
120.390093181122
 20
116.2610580894145
 30
0.0
 10
120.4791518808464
 20
116.2645836903658
 30
0.0
 10
120.51125525037
 20
116.2602507063629
 30
0.0
 10
120.5535549132948
 20
116.2602507063629
 30
0.0
  0
SPLINE
  5
1F7
330
1F
100
AcDbEntity
  8
0
  6
Continuous
 62
     7
370
    25
100
AcDbSpline
210
0.0
220
0.0
230
1.0
 70
     8
 71
     3
 72
    10
 73
     6
 74
     0
 42
0.000000001
 43
0.00000001
 40
0.0
 40
0.0
 40
0.0
 40
0.0
 40
0.5
 40
0.5
 40
1.0
 40
1.0
 40
1.0
 40
1.0
 10
114.3035549132948
 20
120.3237590332592
 30
0.0
 10
114.1401352558734
 20
120.3312177383163
 30
0.0
 10
113.974971316486
 20
120.3360311515959
 30
0.0
 10
113.6400251901988
 20
120.3361721136228
 30
0.0
 10
113.4698396788859
 20
120.3313485059188
 30
0.0
 10
113.3035549132948
 20
120.3237590332592
 30
0.0
  0
LINE
  5
1F8
330
1F
100
AcDbEntity
  8
0
  6
Continuous
 62
     7
370
    25
100
AcDbLine
 10
113.3035548895
 20
120.3237590111
 30
0.0
 11
113.3035548895
 21
124.1967424016
 31
0.0
  0
SPLINE
  5
1F9
330
1F
100
AcDbEntity
  8
0
  6
Continuous
 62
     7
370
    25
100
AcDbSpline
210
0.0
220
0.0
230
1.0
 70
     8
 71
     3
 72
    10
 73
     6
 74
     0
 42
0.000000001
 43
0.00000001
 40
0.0
 40
0.0
 40
0.0
 40
0.0
 40
0.5
 40
0.5
 40
1.0
 40
1.0
 40
1.0
 40
1.0
 10
113.3035549132948
 20
124.1967423794666
 30
0.0
 10
113.4682281251445
 20
124.1892264604065
 30
0.0
 10
113.6338645633431
 20
124.1844496053632
 30
0.0
 10
113.9676042812171
 20
124.1843491443227
 30
0.0
 10
114.137077076478
 20
124.1891440947622
 30
0.0
 10
114.3035549132948
 20
124.1967423794666
 30
0.0
  0
SPLINE
  5
1FA
330
1F
100
AcDbEntity
  8
0
  6
Continuous
 62
     7
370
    25
100
AcDbSpline
210
0.0
220
0.0
230
1.0
 70
     8
 71
     3
 72
    18
 73
    14
 74
     0
 42
0.000000001
 43
0.00000001
 40
0.0
 40
0.0
 40
0.0
 40
0.0
 40
0.2500000000000001
 40
0.2500000000000001
 40
0.3750000000000001
 40
0.3750000000000001
 40
0.5000000000000001
 40
0.5000000000000001
 40
0.6250000000000001
 40
0.6250000000000001
 40
0.7500000000000002
 40
0.7500000000000002
 40
1.0
 40
1.0
 40
1.0
 40
1.0
 10
113.3035549132948
 20
120.3237590332592
 30
0.0
 10
113.1572748667163
 20
120.6129633667782
 30
0.0
 10
113.0221753790234
 20
120.9112155201903
 30
0.0
 10
112.8642766100037
 20
121.3948078724423
 30
0.0
 10
112.8195322945507
 20
121.5630400496469
 30
0.0
 10
112.7577445637158
 20
121.9058460736883
 30
0.0
 10
112.7404417669422
 20
122.084162323226
 30
0.0
 10
112.7406611413475
 20
122.4398327684883
 30
0.0
 10
112.7576924088072
 20
122.6146025624992
 30
0.0
 10
112.8198615549597
 20
122.9590504977802
 30
0.0
 10
112.8646188196675
 20
123.1267631728181
 30
0.0
 10
113.0216577496905
 20
123.6076574163751
 30
0.0
 10
113.1573161592465
 20
123.9076196837305
 30
0.0
 10
113.3035549132948
 20
124.1967423794666
 30
0.0
  0
LINE
  5
1FB
330
1F
100
AcDbEntity
  8
0
  6
Continuous
 62
     8
370
    25
100
AcDbLine
 10
124.3035547717
 20
129.5102504977
 30
0.0
 11
124.3035547717
 21
115.010250915
 31
0.0
  0
LINE
  5
1FC
330
1F
100
AcDbEntity
  8
0
  6
Continuous
 62
     8
370
    25
100
AcDbLine
 10
109.3876744903
 20
128.0102507175
 30
0.0
 11
109.053555066
 21
128.0102507175
 31
0.0
  0
LINE
  5
1FD
330
1F
100
AcDbEntity
  8
0
  6
Continuous
 62
     8
370
    25
100
AcDbLine
 10
118.8035548015
 20
128.0102507175
 30
0.0
 11
118.2194353363
 21
128.0102507175
 31
0.0
  0
LINE
  5
1FE
330
1F
100
AcDbEntity
  8
0
  6
Continuous
 62
     8
370
    25
100
AcDbLine
 10
109.053555066
 20
128.0102507175
 30
0.0
 11
109.053555066
 21
127.7374761143
 31
0.0
  0
LINE
  5
1FF
330
1F
100
AcDbEntity
  8
0
  6
Continuous
 62
     8
370
    25
100
AcDbLine
 10
109.053555066
 20
116.5102506952
 30
0.0
 11
109.3876744903
 21
116.5102506952
 31
0.0
  0
LINE
  5
200
330
1F
100
AcDbEntity
  8
0
  6
Continuous
 62
     8
370
    25
100
AcDbLine
 10
109.053555066
 20
116.7830252984
 30
0.0
 11
109.053555066
 21
116.5102506952
 31
0.0
  0
LINE
  5
201
330
1F
100
AcDbEntity
  8
0
  6
Continuous
 62
     8
370
    25
100
AcDbLine
 10
118.5535547606
 20
116.5102506952
 30
0.0
 11
118.5535547606
 21
116.7830252984
 31
0.0
  0
LINE
  5
202
330
1F
100
AcDbEntity
  8
0
  6
Continuous
 62
     8
370
    25
100
AcDbLine
 10
118.2194353363
 20
116.5102506952
 30
0.0
 11
118.5535547606
 21
116.5102506952
 31
0.0
  0
LINE
  5
203
330
1F
100
AcDbEntity
  8
0
  6
Continuous
 62
     8
370
    25
100
AcDbLine
 10
123.3035546078
 20
116.2602506542
 30
0.0
 11
123.3035546078
 21
128.2602507585
 31
0.0
  0
LINE
  5
204
330
1F
100
AcDbEntity
  8
0
  6
Continuous
 62
     8
370
    25
100
AcDbLine
 10
119.8035549654
 20
126.3299557344
 30
0.0
 11
119.8035549654
 21
128.0102507175
 31
0.0
  0
SPLINE
  5
205
330
1F
100
AcDbEntity
  8
0
  6
Continuous
 62
     8
370
    25
100
AcDbSpline
210
0.0
220
0.0
230
1.0
 70
     8
 71
     3
 72
    11
 73
     7
 74
     0
 42
0.000000001
 43
0.00000001
 40
0.0
 40
0.0
 40
0.0
 40
0.0
 40
0.0198807223120858
 40
0.2381996199571697
 40
0.6022427489375669
 40
1.0
 40
1.0
 40
1.0
 40
1.0
 10
120.2394632904654
 20
118.9498855696501
 30
0.0
 10
120.2443171108587
 20
118.9477334770498
 30
0.0
 10
120.302472853638
 20
118.9219483153513
 30
0.0
 10
120.4068330827075
 20
118.8075307247654
 30
0.0
 10
120.5272848579633
 20
118.6091901007132
 30
0.0
 10
120.5445437427147
 20
118.4459463849446
 30
0.0
 10
120.5535550883834
 20
118.3607122824968
 30
0.0
  0
SPLINE
  5
206
330
1F
100
AcDbEntity
  8
0
  6
Continuous
 62
     8
370
    25
100
AcDbSpline
210
0.0
220
0.0
230
1.0
 70
     8
 71
     3
 72
    12
 73
     8
 74
     0
 42
0.000000001
 43
0.00000001
 40
0.0
 40
0.0
 40
0.0
 40
0.0
 40
0.2373883613728205
 40
0.4747639623315115
 40
0.786296032350881
 40
0.9790603086886017
 40
1.0
 40
1.0
 40
1.0
 40
1.0
 10
120.5535550883834
 20
126.1597891302289
 30
0.0
 10
120.5501675623981
 20
126.1096910083864
 30
0.0
 10
120.5433926925184
 20
126.0094974576422
 30
0.0
 10
120.4865862491681
 20
125.8421818639695
 30
0.0
 10
120.3918145084237
 20
125.6957073246305
 30
0.0
 10
120.2988267271859
 20
125.5981268746675
 30
0.0
 10
120.2471452277098
 20
125.5744855420982
 30
0.0
 10
120.2420812382226
 20
125.5721690562994
 30
0.0
  0
LINE
  5
207
330
1F
100
AcDbEntity
  8
0
  6
Continuous
 62
     8
370
    25
100
AcDbLine
 10
119.8035549654
 20
116.5102506952
 30
0.0
 11
119.8035549654
 21
118.1905456783
 31
0.0
  0
SPLINE
  5
208
330
1F
100
AcDbEntity
  8
0
  6
Continuous
 62
     8
370
    25
100
AcDbSpline
210
0.0
220
0.0
230
1.0
 70
     8
 71
     3
 72
    10
 73
     6
 74
     0
 42
0.000000001
 43
0.00000001
 40
0.0
 40
0.0
 40
0.0
 40
0.0
 40
0.522377149816045
 40
0.8515043441739575
 40
1.0
 40
1.0
 40
1.0
 40
1.0
 10
120.3035550474052
 20
126.3222699949027
 30
0.0
 10
120.2966262951176
 20
126.2180921634553
 30
0.0
 10
120.2853320364107
 20
126.0482763970585
 30
0.0
 10
120.2319082160893
 20
125.8481145728346
 30
0.0
 10
120.1813280776031
 20
125.7626348960281
 30
0.0
 10
120.165602425379
 20
125.736058779198
 30
0.0
  0
SPLINE
  5
209
330
1F
100
AcDbEntity
  8
0
  6
Continuous
 62
     8
370
    25
100
AcDbSpline
210
0.0
220
0.0
230
1.0
 70
     8
 71
     3
 72
    10
 73
     6
 74
     0
 42
0.000000001
 43
0.00000001
 40
0.0
 40
0.0
 40
0.0
 40
0.0
 40
0.1781720047841645
 40
0.5638570233305712
 40
1.0
 40
1.0
 40
1.0
 40
1.0
 10
120.1621174163048
 20
118.7896599025906
 30
0.0
 10
120.1810077582341
 20
118.7573457596114
 30
0.0
 10
120.2407896077052
 20
118.6550819023135
 30
0.0
 10
120.2885092641481
 20
118.4512262560924
 30
0.0
 10
120.2983386212374
 20
118.2859456213387
 30
0.0
 10
120.3035550474052
 20
118.198231417823
 30
0.0
  0
LINE
  5
20A
330
1F
100
AcDbEntity
  8
0
  6
Continuous
 62
     8
370
    25
100
AcDbLine
 10
120.0535550064
 20
125.9344854356
 30
0.0
 11
120.0535550064
 21
128.0102507175
 31
0.0
  0
LINE
  5
20B
330
1F
100
AcDbEntity
  8
0
  6
Continuous
 62
     8
370
    25
100
AcDbLine
 10
120.0535550064
 20
116.5102506952
 30
0.0
 11
120.0535550064
 21
118.5860159771
 31
0.0
  0
SPLINE
  5
20C
330
1F
100
AcDbEntity
  8
0
  6
Continuous
 62
     8
370
    25
100
AcDbSpline
210
0.0
220
0.0
230
1.0
 70
     8
 71
     3
 72
    14
 73
    10
 74
     0
 42
0.000000001
 43
0.00000001
 40
0.0
 40
0.0
 40
0.0
 40
0.0
 40
0.25
 40
0.25
 40
0.5
 40
0.5
 40
0.75
 40
0.75
 40
1.0
 40
1.0
 40
1.0
 40
1.0
 10
121.0535549132948
 20
128.5602507063628
 30
0.0
 10
121.0535549190223
 20
128.5602507065753
 30
0.0
 10
121.0783532962111
 20
128.55901128278
 30
0.0
 10
121.1704205717339
 20
128.5560840889931
 30
0.0
 10
121.2366123112565
 20
128.5546990591337
 30
0.0
 10
121.370823780733
 20
128.5546911817581
 30
0.0
 10
121.4373352615757
 20
128.5561040261996
 30
0.0
 10
121.5284936657647
 20
128.5590033936364
 30
0.0
 10
121.5535455526526
 20
128.5602508456081
 30
0.0
 10
121.5535549130039
 20
128.5602507063496
 30
0.0
  0
LWPOLYLINE
  5
20D
330
1F
100
AcDbEntity
  8
0
  6
Continuous
 62
     8
370
    25
100
AcDbPolyline
 90
       13
 70
   128
 43
0.0
 10
121.803551568
 20
128.3102502079
 10
121.8035552933
 20
128.3102506736
 10
121.774605131
 20
128.3073104882
 10
121.690638019
 20
128.2997765542
 10
121.5622407666
 20
128.2911040784
 10
121.404630719
 20
128.2851692253
 10
121.2360650583
 20
128.2845801638
 10
121.0772480166
 20
128.2894630881
 10
120.9436511903
 20
128.2976629177
 10
120.8499685212
 20
128.3056331763
 10
120.8061171978
 20
128.3099801244
 10
120.8035551294
 20
128.3102506736
 10
120.8035551294
 20
128.3102506736
  0
INSERT
  5
219
330
1F
100
AcDbEntity
  8
0
  6
Continuous
 62
     7
370
    18
100
AcDbBlockReference
  2
SW_CENTERMARKSYMBOL_1
 10
113.8035549133
 20
122.2602507064
 30
0.0
  0
ARC
  5
21A
330
1F
100
AcDbEntity
  8
0
  6
Continuous
 62
     7
370
    18
100
AcDbCircle
 10
113.8035549133
 20
122.2602507064
 30
0.0
 40
4.929413560516982
100
AcDbArc
 50
75.0
 51
345.0
  0
ENDSEC
  0
SECTION
  2
OBJECTS
  0
DICTIONARY
  5
C
330
0
100
AcDbDictionary
281
     1
  3
ACAD_GROUP
350
D
  3
ACAD_LAYOUT
350
1A
  3
ACAD_MLINESTYLE
350
17
  3
ACAD_PLOTSETTINGS
350
19
  3
ACAD_PLOTSTYLENAME
350
E
  3
ACAD_SCALELIST
350
47
  0
DICTIONARY
  5
D
102
{ACAD_REACTORS
330
C
102
}
330
C
100
AcDbDictionary
281
     1
  0
DICTIONARY
  5
1A
102
{ACAD_REACTORS
330
C
102
}
330
C
100
AcDbDictionary
281
     1
  3
Layout1
350
1E
  3
Layout2
350
26
  3
Model
350
22
  0
DICTIONARY
  5
17
102
{ACAD_REACTORS
330
C
102
}
330
C
100
AcDbDictionary
281
     1
  3
Standard
350
18
  0
DICTIONARY
  5
19
102
{ACAD_REACTORS
330
C
102
}
330
C
100
AcDbDictionary
281
     1
  0
ACDBDICTIONARYWDFLT
  5
E
102
{ACAD_REACTORS
330
C
102
}
330
C
100
AcDbDictionary
281
     1
  3
Normal
350
F
100
AcDbDictionaryWithDefault
340
F
  0
DICTIONARY
  5
47
102
{ACAD_REACTORS
330
C
102
}
330
C
100
AcDbDictionary
281
     1
  3
A0
350
48
  3
A1
350
49
  3
A2
350
4A
  3
A3
350
4B
  3
A4
350
4C
  3
A5
350
4D
  3
A6
350
4E
  3
A7
350
4F
  3
A8
350
50
  3
A9
350
51
  3
B0
350
52
  3
B1
350
53
  3
B2
350
54
  3
B3
350
55
  3
B4
350
56
  3
B5
350
57
  3
B6
350
58
  3
B7
350
59
  3
B8
350
5A
  3
B9
350
5B
  3
C0
350
5C
  3
C1
350
5D
  3
C2
350
5E
  3
C3
350
5F
  3
C4
350
60
  3
C5
350
61
  3
C6
350
62
  3
C7
350
63
  3
C8
350
64
  3
C9
350
65
  3
D0
350
66
  3
D1
350
67
  3
D2
350
68
  0
LAYOUT
  5
1E
102
{ACAD_REACTORS
330
1A
102
}
330
1A
100
AcDbPlotSettings
  1

  2
none_device
  4

  6

 40
0.0
 41
0.0
 42
0.0
 43
0.0
 44
0.0
 45
0.0
 46
0.0
 47
0.0
 48
0.0
 49
0.0
140
0.0
141
0.0
142
1.0
143
1.0
 70
   688
 72
     1
 73
     0
 74
     5
  7

 75
    16
147
1.0
148
0.0
149
0.0
100
AcDbLayout
  1
Layout1
 70
     1
 71
     1
 10
0.0
 20
0.0
 11
420.0
 21
297.0
 12
0.0
 22
0.0
 32
0.0
 14
1.0000000000E+20
 24
1.0000000000E+20
 34
1.0000000000E+20
 15
-1.0000000000E+20
 25
-1.0000000000E+20
 35
-1.0000000000E+20
146
0.0
 13
0.0
 23
0.0
 33
0.0
 16
1.0
 26
0.0
 36
0.0
 17
0.0
 27
1.0
 37
0.0
 76
     0
330
1B
  0
LAYOUT
  5
26
102
{ACAD_REACTORS
330
1A
102
}
330
1A
100
AcDbPlotSettings
  1

  2
none_device
  4

  6

 40
0.0
 41
0.0
 42
0.0
 43
0.0
 44
0.0
 45
0.0
 46
0.0
 47
0.0
 48
0.0
 49
0.0
140
0.0
141
0.0
142
1.0
143
1.0
 70
   688
 72
     1
 73
     0
 74
     5
  7

 75
    16
147
1.0
148
0.0
149
0.0
100
AcDbLayout
  1
Layout2
 70
     1
 71
     2
 10
0.0
 20
0.0
 11
0.0
 21
0.0
 12
0.0
 22
0.0
 32
0.0
 14
0.0
 24
0.0
 34
0.0
 15
0.0
 25
0.0
 35
0.0
146
0.0
 13
0.0
 23
0.0
 33
0.0
 16
1.0
 26
0.0
 36
0.0
 17
0.0
 27
1.0
 37
0.0
 76
     0
330
23
  0
LAYOUT
  5
22
102
{ACAD_REACTORS
330
1A
102
}
330
1A
100
AcDbPlotSettings
  1

  2
none_device
  4
Letter_(8.50_x_11.00_Inches)
  6

 40
6.35
 41
6.35
 42
6.35000508
 43
6.35000508
 44
215.9
 45
279.4
 46
0.0
 47
0.0
 48
0.0
 49
0.0
140
0.0
141
0.0
142
1.0
143
1.0
 70
  1712
 72
     1
 73
     0
 74
     0
  7

 75
     0
147
1.0
148
0.0
149
0.0
100
AcDbLayout
  1
Model
 70
     1
 71
     0
 10
0.0
 20
0.0
 11
431.8
 21
279.4
 12
0.0
 22
0.0
 32
0.0
 14
0.0
 24
0.0
 34
0.0
 15
431.8
 25
279.4
 35
0.0
146
0.0
 13
0.0
 23
0.0
 33
0.0
 16
1.0
 26
0.0
 36
0.0
 17
0.0
 27
1.0
 37
0.0
 76
     0
330
1F
331
29
  0
MLINESTYLE
  5
18
102
{ACAD_REACTORS
330
17
102
}
330
17
100
AcDbMlineStyle
  2
Standard
 70
     0
  3

 62
   256
 51
90.0
 52
90.0
 71
     2
 49
0.5
 62
   256
  6
BYLAYER
 49
-0.5
 62
   256
  6
BYLAYER
  0
ACDBPLACEHOLDER
  5
F
102
{ACAD_REACTORS
330
E
102
}
330
E
  0
SCALE
  5
48
102
{ACAD_REACTORS
330
47
102
}
330
47
100
AcDbScale
 70
     0
300
1:1
140
1.0
141
1.0
290
     1
  0
SCALE
  5
49
102
{ACAD_REACTORS
330
47
102
}
330
47
100
AcDbScale
 70
     0
300
1:2
140
1.0
141
2.0
290
     0
  0
SCALE
  5
4A
102
{ACAD_REACTORS
330
47
102
}
330
47
100
AcDbScale
 70
     0
300
1:4
140
1.0
141
4.0
290
     0
  0
SCALE
  5
4B
102
{ACAD_REACTORS
330
47
102
}
330
47
100
AcDbScale
 70
     0
300
1:5
140
1.0
141
5.0
290
     0
  0
SCALE
  5
4C
102
{ACAD_REACTORS
330
47
102
}
330
47
100
AcDbScale
 70
     0
300
1:8
140
1.0
141
8.0
290
     0
  0
SCALE
  5
4D
102
{ACAD_REACTORS
330
47
102
}
330
47
100
AcDbScale
 70
     0
300
1:10
140
1.0
141
10.0
290
     0
  0
SCALE
  5
4E
102
{ACAD_REACTORS
330
47
102
}
330
47
100
AcDbScale
 70
     0
300
1:16
140
1.0
141
16.0
290
     0
  0
SCALE
  5
4F
102
{ACAD_REACTORS
330
47
102
}
330
47
100
AcDbScale
 70
     0
300
1:20
140
1.0
141
20.0
290
     0
  0
SCALE
  5
50
102
{ACAD_REACTORS
330
47
102
}
330
47
100
AcDbScale
 70
     0
300
1:30
140
1.0
141
30.0
290
     0
  0
SCALE
  5
51
102
{ACAD_REACTORS
330
47
102
}
330
47
100
AcDbScale
 70
     0
300
1:40
140
1.0
141
40.0
290
     0
  0
SCALE
  5
52
102
{ACAD_REACTORS
330
47
102
}
330
47
100
AcDbScale
 70
     0
300
1:50
140
1.0
141
50.0
290
     0
  0
SCALE
  5
53
102
{ACAD_REACTORS
330
47
102
}
330
47
100
AcDbScale
 70
     0
300
1:100
140
1.0
141
100.0
290
     0
  0
SCALE
  5
54
102
{ACAD_REACTORS
330
47
102
}
330
47
100
AcDbScale
 70
     0
300
2:1
140
2.0
141
1.0
290
     0
  0
SCALE
  5
55
102
{ACAD_REACTORS
330
47
102
}
330
47
100
AcDbScale
 70
     0
300
4:1
140
4.0
141
1.0
290
     0
  0
SCALE
  5
56
102
{ACAD_REACTORS
330
47
102
}
330
47
100
AcDbScale
 70
     0
300
8:1
140
8.0
141
1.0
290
     0
  0
SCALE
  5
57
102
{ACAD_REACTORS
330
47
102
}
330
47
100
AcDbScale
 70
     0
300
10:1
140
10.0
141
1.0
290
     0
  0
SCALE
  5
58
102
{ACAD_REACTORS
330
47
102
}
330
47
100
AcDbScale
 70
     0
300
100:1
140
100.0
141
1.0
290
     0
  0
SCALE
  5
59
102
{ACAD_REACTORS
330
47
102
}
330
47
100
AcDbScale
 70
     0
300
1/128" = 1'-0"
140
0.0078125
141
12.0
290
     0
  0
SCALE
  5
5A
102
{ACAD_REACTORS
330
47
102
}
330
47
100
AcDbScale
 70
     0
300
1/64" = 1'-0"
140
0.015625
141
12.0
290
     0
  0
SCALE
  5
5B
102
{ACAD_REACTORS
330
47
102
}
330
47
100
AcDbScale
 70
     0
300
1/32" = 1'-0"
140
0.03125
141
12.0
290
     0
  0
SCALE
  5
5C
102
{ACAD_REACTORS
330
47
102
}
330
47
100
AcDbScale
 70
     0
300
1/16" = 1'-0"
140
0.0625
141
12.0
290
     0
  0
SCALE
  5
5D
102
{ACAD_REACTORS
330
47
102
}
330
47
100
AcDbScale
 70
     0
300
3/32" = 1'-0"
140
0.09375
141
12.0
290
     0
  0
SCALE
  5
5E
102
{ACAD_REACTORS
330
47
102
}
330
47
100
AcDbScale
 70
     0
300
1/8" = 1'-0"
140
0.125
141
12.0
290
     0
  0
SCALE
  5
5F
102
{ACAD_REACTORS
330
47
102
}
330
47
100
AcDbScale
 70
     0
300
3/16" = 1'-0"
140
0.1875
141
12.0
290
     0
  0
SCALE
  5
60
102
{ACAD_REACTORS
330
47
102
}
330
47
100
AcDbScale
 70
     0
300
1/4" = 1'-0"
140
0.25
141
12.0
290
     0
  0
SCALE
  5
61
102
{ACAD_REACTORS
330
47
102
}
330
47
100
AcDbScale
 70
     0
300
3/8" = 1'-0"
140
0.375
141
12.0
290
     0
  0
SCALE
  5
62
102
{ACAD_REACTORS
330
47
102
}
330
47
100
AcDbScale
 70
     0
300
1/2" = 1'-0"
140
0.5
141
12.0
290
     0
  0
SCALE
  5
63
102
{ACAD_REACTORS
330
47
102
}
330
47
100
AcDbScale
 70
     0
300
3/4" = 1'-0"
140
0.75
141
12.0
290
     0
  0
SCALE
  5
64
102
{ACAD_REACTORS
330
47
102
}
330
47
100
AcDbScale
 70
     0
300
1" = 1'-0"
140
1.0
141
12.0
290
     0
  0
SCALE
  5
65
102
{ACAD_REACTORS
330
47
102
}
330
47
100
AcDbScale
 70
     0
300
1-1/2" = 1'-0"
140
1.5
141
12.0
290
     0
  0
SCALE
  5
66
102
{ACAD_REACTORS
330
47
102
}
330
47
100
AcDbScale
 70
     0
300
3" = 1'-0"
140
3.0
141
12.0
290
     0
  0
SCALE
  5
67
102
{ACAD_REACTORS
330
47
102
}
330
47
100
AcDbScale
 70
     0
300
6" = 1'-0"
140
6.0
141
12.0
290
     0
  0
SCALE
  5
68
102
{ACAD_REACTORS
330
47
102
}
330
47
100
AcDbScale
 70
     0
300
1'-0" = 1'-0"
140
12.0
141
12.0
290
     0
  0
ENDSEC
  0
EOF
