  0
SECTION
  2
HEADER
  9
$ACADVER
  1
AC1015
  9
$ACADMAINTVER
 70
     6
  9
$DWGCODEPAGE
  3
DOS932
  9
$INSBASE
 10
0.0
 20
0.0
 30
0.0
  9
$EXTMIN
 10
0.0
 20
0.0
 30
0.0
  9
$EXTMAX
 10
431.8
 20
279.4
 30
0.0
  9
$LIMMIN
 10
0.0
 20
0.0
  9
$LIMMAX
 10
431.8
 20
279.4
  9
$ORTHOMODE
 70
     0
  9
$REGENMODE
 70
     1
  9
$FILLMODE
 70
     1
  9
$QTEXTMODE
 70
     0
  9
$MIRRTEXT
 70
     1
  9
$LTSCALE
 40
1.0
  9
$ATTMODE
 70
     1
  9
$TEXTSIZE
 40
3.5
  9
$TRACEWID
 40
1.0
  9
$TEXTSTYLE
  7
Standard
  9
$CLAYER
  8
0
  9
$CELTYPE
  6
ByLayer
  9
$CECOLOR
 62
   256
  9
$CELTSCALE
 40
1.0
  9
$DISPSILH
 70
     0
  9
$DIMSCALE
 40
1.0
  9
$DIMASZ
 40
3.302
  9
$DIMEXO
 40
1.0
  9
$DIMDLI
 40
3.75
  9
$DIMRND
 40
0.0
  9
$DIMDLE
 40
0.0
  9
$DIMEXE
 40
1.0
  9
$DIMTP
 40
0.0
  9
$DIMTM
 40
0.0
  9
$DIMTXT
 40
3.5
  9
$DIMCEN
 40
2.5
  9
$DIMTSZ
 40
0.0
  9
$DIMTOL
 70
     0
  9
$DIMLIM
 70
     0
  9
$DIMTIH
 70
     1
  9
$DIMTOH
 70
     1
  9
$DIMSE1
 70
     0
  9
$DIMSE2
 70
     0
  9
$DIMTAD
 70
     1
  9
$DIMZIN
 70
     1
  9
$DIMBLK
  1

  9
$DIMASO
 70
     1
  9
$DIMSHO
 70
     1
  9
$DIMPOST
  1

  9
$DIMAPOST
  1

  9
$DIMALT
 70
     0
  9
$DIMALTD
 70
     3
  9
$DIMALTF
 40
0.0393700787
  9
$DIMLFAC
 40
1.0
  9
$DIMTOFL
 70
     1
  9
$DIMTVP
 40
0.0
  9
$DIMTIX
 70
     0
  9
$DIMSOXD
 70
     0
  9
$DIMSAH
 70
     0
  9
$DIMBLK1
  1

  9
$DIMBLK2
  1

  9
$DIMSTYLE
  2
ISO-25
  9
$DIMCLRD
 70
     0
  9
$DIMCLRE
 70
     0
  9
$DIMCLRT
 70
     0
  9
$DIMTFAC
 40
1.0
  9
$DIMGAP
 40
1.524
  9
$DIMJUST
 70
     0
  9
$DIMSD1
 70
     0
  9
$DIMSD2
 70
     0
  9
$DIMTOLJ
 70
     0
  9
$DIMTZIN
 70
     1
  9
$DIMALTZ
 70
     0
  9
$DIMALTTZ
 70
     0
  9
$DIMUPT
 70
     0
  9
$DIMDEC
 70
     2
  9
$DIMTDEC
 70
     2
  9
$DIMALTU
 70
     2
  9
$DIMALTTD
 70
     3
  9
$DIMTXSTY
  7
Standard
  9
$DIMAUNIT
 70
     0
  9
$DIMADEC
 70
     2
  9
$DIMALTRND
 40
0.0
  9
$DIMAZIN
 70
     0
  9
$DIMDSEP
 70
    44
  9
$DIMATFIT
 70
     3
  9
$DIMFRAC
 70
     0
  9
$DIMLDRBLK
  1

  9
$DIMLUNIT
 70
     2
  9
$DIMLWD
 70
    -2
  9
$DIMLWE
 70
    -2
  9
$DIMTMOVE
 70
     0
  9
$LUNITS
 70
     2
  9
$LUPREC
 70
     2
  9
$SKETCHINC
 40
1.0
  9
$FILLETRAD
 40
10.0
  9
$AUNITS
 70
     0
  9
$AUPREC
 70
     2
  9
$MENU
  1
.
  9
$ELEVATION
 40
0.0
  9
$PELEVATION
 40
0.0
  9
$THICKNESS
 40
0.0
  9
$LIMCHECK
 70
     0
  9
$CHAMFERA
 40
0.0
  9
$CHAMFERB
 40
0.0
  9
$CHAMFERC
 40
0.0
  9
$CHAMFERD
 40
0.0
  9
$SKPOLY
 70
     0
  9
$TDCREATE
 40
2459486.646573194
  9
$TDUCREATE
 40
2459486.271573194
  9
$TDUPDATE
 40
2459486.646573831
  9
$TDUUPDATE
 40
2459486.271573831
  9
$TDINDWG
 40
0.0000000116
  9
$TDUSRTIMER
 40
0.0000000116
  9
$USRTIMER
 70
     1
  9
$ANGBASE
 50
0.0
  9
$ANGDIR
 70
     0
  9
$PDMODE
 70
     0
  9
$PDSIZE
 40
-1.0
  9
$PLINEWID
 40
0.0
  9
$SPLFRAME
 70
     0
  9
$SPLINETYPE
 70
     6
  9
$SPLINESEGS
 70
     8
  9
$HANDSEED
  5
235
  9
$SURFTAB1
 70
     6
  9
$SURFTAB2
 70
     6
  9
$SURFTYPE
 70
     6
  9
$SURFU
 70
     6
  9
$SURFV
 70
     6
  9
$UCSBASE
  2

  9
$UCSNAME
  2

  9
$UCSORG
 10
0.0
 20
0.0
 30
0.0
  9
$UCSXDIR
 10
1.0
 20
0.0
 30
0.0
  9
$UCSYDIR
 10
0.0
 20
1.0
 30
0.0
  9
$UCSORTHOREF
  2

  9
$UCSORTHOVIEW
 70
     0
  9
$UCSORGTOP
 10
0.0
 20
0.0
 30
0.0
  9
$UCSORGBOTTOM
 10
0.0
 20
0.0
 30
0.0
  9
$UCSORGLEFT
 10
0.0
 20
0.0
 30
0.0
  9
$UCSORGRIGHT
 10
0.0
 20
0.0
 30
0.0
  9
$UCSORGFRONT
 10
0.0
 20
0.0
 30
0.0
  9
$UCSORGBACK
 10
0.0
 20
0.0
 30
0.0
  9
$PUCSBASE
  2

  9
$PUCSNAME
  2

  9
$PUCSORG
 10
0.0
 20
0.0
 30
0.0
  9
$PUCSXDIR
 10
1.0
 20
0.0
 30
0.0
  9
$PUCSYDIR
 10
0.0
 20
1.0
 30
0.0
  9
$PUCSORTHOREF
  2

  9
$PUCSORTHOVIEW
 70
     0
  9
$PUCSORGTOP
 10
0.0
 20
0.0
 30
0.0
  9
$PUCSORGBOTTOM
 10
0.0
 20
0.0
 30
0.0
  9
$PUCSORGLEFT
 10
0.0
 20
0.0
 30
0.0
  9
$PUCSORGRIGHT
 10
0.0
 20
0.0
 30
0.0
  9
$PUCSORGFRONT
 10
0.0
 20
0.0
 30
0.0
  9
$PUCSORGBACK
 10
0.0
 20
0.0
 30
0.0
  9
$USERI1
 70
     0
  9
$USERI2
 70
     0
  9
$USERI3
 70
     0
  9
$USERI4
 70
     0
  9
$USERI5
 70
     0
  9
$USERR1
 40
0.0
  9
$USERR2
 40
0.0
  9
$USERR3
 40
0.0
  9
$USERR4
 40
0.0
  9
$USERR5
 40
0.0
  9
$WORLDVIEW
 70
     1
  9
$SHADEDGE
 70
     3
  9
$SHADEDIF
 70
    70
  9
$TILEMODE
 70
     1
  9
$MAXACTVP
 70
    64
  9
$PINSBASE
 10
0.0
 20
0.0
 30
0.0
  9
$PLIMCHECK
 70
     0
  9
$PEXTMIN
 10
1.0000000000E+20
 20
1.0000000000E+20
 30
1.0000000000E+20
  9
$PEXTMAX
 10
-1.0000000000E+20
 20
-1.0000000000E+20
 30
-1.0000000000E+20
  9
$PLIMMIN
 10
0.0
 20
0.0
  9
$PLIMMAX
 10
420.0
 20
297.0
  9
$UNITMODE
 70
     0
  9
$VISRETAIN
 70
     1
  9
$PLINEGEN
 70
     0
  9
$PSLTSCALE
 70
     1
  9
$TREEDEPTH
 70
  3020
  9
$CMLSTYLE
  2
Standard
  9
$CMLJUST
 70
     0
  9
$CMLSCALE
 40
20.0
  9
$PROXYGRAPHICS
 70
     1
  9
$MEASUREMENT
 70
     1
  9
$CELWEIGHT
370
    -1
  9
$ENDCAPS
280
     0
  9
$JOINSTYLE
280
     0
  9
$LWDISPLAY
290
     1
  9
$INSUNITS
 70
     4
  9
$HYPERLINKBASE
  1

  9
$STYLESHEET
  1

  9
$XEDIT
290
     1
  9
$CEPSNTYPE
380
     0
  9
$PSTYLEMODE
290
     1
  9
$FINGERPRINTGUID
  2
{01FBC641-1E71-41E6-802E-7DAC36F10641}
  9
$VERSIONGUID
  2
{FAEB1C32-E019-11D5-929B-00C0DF256EC4}
  9
$EXTNAMES
290
     1
  9
$PSVPSCALE
 40
0.0
  9
$OLESTARTUP
290
     0
  0
ENDSEC
  0
SECTION
  2
CLASSES
  0
CLASS
  1
ACDBDICTIONARYWDFLT
  2
AcDbDictionaryWithDefault
  3
ObjectDBX Classes
 90
        0
280
     0
281
     0
  0
CLASS
  1
VISUALSTYLE
  2
AcDbVisualStyle
  3
ObjectDBX Classes
 90
     4095
280
     0
281
     0
  0
CLASS
  1
MATERIAL
  2
AcDbMaterial
  3
ObjectDBX Classes
 90
     1153
280
     0
281
     0
  0
CLASS
  1
SCALE
  2
AcDbScale
  3
ObjectDBX Classes
 90
     1153
280
     0
281
     0
  0
CLASS
  1
TABLESTYLE
  2
AcDbTableStyle
  3
ObjectDBX Classes
 90
     4095
280
     0
281
     0
  0
CLASS
  1
MLEADERSTYLE
  2
AcDbMLeaderStyle
  3
ACDB_MLEADERSTYLE_CLASS
 90
     4095
280
     0
281
     0
  0
CLASS
  1
SUN
  2
AcDbSun
  3
SCENEOE
 90
     1153
280
     0
281
     0
  0
CLASS
  1
ACDBPLACEHOLDER
  2
AcDbPlaceHolder
  3
ObjectDBX Classes
 90
        0
280
     0
281
     0
  0
CLASS
  1
LAYOUT
  2
AcDbLayout
  3
ObjectDBX Classes
 90
        0
280
     0
281
     0
  0
ENDSEC
  0
SECTION
  2
TABLES
  0
TABLE
  2
VPORT
  5
8
330
0
100
AcDbSymbolTable
 70
     1
  0
VPORT
  5
29
330
8
100
AcDbSymbolTableRecord
100
AcDbViewportTableRecord
  2
*Active
 70
     0
 10
0.0
 20
0.0
 11
1.0
 21
1.0
 12
215.9
 22
139.7
 13
0.0
 23
0.0
 14
10.0
 24
10.0
 15
10.0
 25
10.0
 16
0.0
 26
0.0
 36
1.0
 17
0.0
 27
0.0
 37
0.0
 40
279.4
 41
1.5454545455
 42
50.0
 43
0.0
 44
0.0
 50
0.0
 51
0.0
 71
     0
 72
  2000
 73
     1
 74
     3
 75
     0
 76
     0
 77
     0
 78
     0
281
     0
 65
     1
110
0.0
120
0.0
130
0.0
111
1.0
121
0.0
131
0.0
112
0.0
122
1.0
132
0.0
 79
     0
146
0.0
  0
ENDTAB
  0
TABLE
  2
LTYPE
  5
5
330
0
100
AcDbSymbolTable
 70
     6
  0
LTYPE
  5
14
330
5
100
AcDbSymbolTableRecord
100
AcDbLinetypeTableRecord
  2
ByBlock
 70
     0
  3

 72
    65
 73
     0
 40
0.0
  0
LTYPE
  5
15
330
5
100
AcDbSymbolTableRecord
100
AcDbLinetypeTableRecord
  2
ByLayer
 70
     0
  3

 72
    65
 73
     0
 40
0.0
  0
LTYPE
  5
16
330
5
100
AcDbSymbolTableRecord
100
AcDbLinetypeTableRecord
  2
Continuous
 70
     0
  3
Solid line
 72
    65
 73
     0
 40
0.0
  0
LTYPE
  5
6E
330
5
100
AcDbSymbolTableRecord
100
AcDbLinetypeTableRecord
  2
HIDDEN
 70
     0
  3
Hidden __ __ __ __ __ __ __ __ __ __ __ __ __ __
 72
    65
 73
     2
 40
1.905
 49
1.27
 74
     0
 49
-0.635
 74
     0
  0
LTYPE
  5
6F
330
5
100
AcDbSymbolTableRecord
100
AcDbLinetypeTableRecord
  2
PHANTOM
 70
     0
  3
Phantom ______  __  __  ______  __  __  ______
 72
    65
 73
     6
 40
12.7
 49
6.35
 74
     0
 49
-1.27
 74
     0
 49
1.27
 74
     0
 49
-1.27
 74
     0
 49
1.27
 74
     0
 49
-1.27
 74
     0
  0
LTYPE
  5
70
330
5
100
AcDbSymbolTableRecord
100
AcDbLinetypeTableRecord
  2
CENTER
 70
     0
  3
Center ____ _ ____ _ ____ _ ____ _ ____ _ ____
 72
    65
 73
     4
 40
10.16
 49
6.35
 74
     0
 49
-1.27
 74
     0
 49
1.27
 74
     0
 49
-1.27
 74
     0
  0
LTYPE
  5
71
330
5
100
AcDbSymbolTableRecord
100
AcDbLinetypeTableRecord
  2
CENTERX2
 70
     0
  3
Center (2x) ________  __  ________  __  _____
 72
    65
 73
     4
 40
20.32
 49
12.7
 74
     0
 49
-2.54
 74
     0
 49
2.54
 74
     0
 49
-2.54
 74
     0
  0
LTYPE
  5
72
330
5
100
AcDbSymbolTableRecord
100
AcDbLinetypeTableRecord
  2
DOT2
 70
     0
  3
Dot (.5x) ........................................
 72
    65
 73
     2
 40
0.635
 49
0.0
 74
     0
 49
-0.635
 74
     0
  0
ENDTAB
  0
TABLE
  2
LAYER
  5
2
330
0
100
AcDbSymbolTable
 70
     1
  0
LAYER
  5
10
330
2
100
AcDbSymbolTableRecord
100
AcDbLayerTableRecord
  2
0
 70
     0
 62
     7
  6
Continuous
370
    -3
390
F
  0
ENDTAB
  0
TABLE
  2
STYLE
  5
3
330
0
100
AcDbSymbolTable
 70
     2
  0
STYLE
  5
11
330
3
100
AcDbSymbolTableRecord
100
AcDbTextStyleTableRecord
  2
Standard
 70
     0
 40
0.0
 41
1.0
 50
0.0
 71
     0
 42
3.5
  3
txt
  4
bigfont
  0
STYLE
  5
73
330
3
100
AcDbSymbolTableRecord
100
AcDbTextStyleTableRecord
  2
SLDTEXTSTYLE0
 70
     0
 40
0.0
 41
0.7
 50
0.0
 71
     0
 42
3.5
  3
TXT
  4
bigfont
  0
ENDTAB
  0
TABLE
  2
VIEW
  5
6
330
0
100
AcDbSymbolTable
 70
     0
  0
ENDTAB
  0
TABLE
  2
UCS
  5
7
330
0
100
AcDbSymbolTable
 70
     0
  0
ENDTAB
  0
TABLE
  2
APPID
  5
9
330
0
100
AcDbSymbolTable
 70
     1
  0
APPID
  5
12
330
9
100
AcDbSymbolTableRecord
100
AcDbRegAppTableRecord
  2
ACAD
 70
     0
  0
ENDTAB
  0
TABLE
  2
DIMSTYLE
  5
A
330
0
100
AcDbSymbolTable
 70
     1
100
AcDbDimStyleTable
  0
DIMSTYLE
105
27
330
A
100
AcDbSymbolTableRecord
100
AcDbDimStyleTableRecord
  2
ISO-25
 70
     0
 41
2.5
 42
0.625
 43
3.75
 44
1.25
 73
     0
 74
     0
 77
     1
 78
     8
140
2.5
141
2.5
143
0.0393700787
147
0.625
171
     3
172
     1
178
     0
271
     2
272
     2
274
     3
278
    44
283
     0
284
     8
340
11
  0
ENDTAB
  0
TABLE
  2
BLOCK_RECORD
  5
1
330
0
100
AcDbSymbolTable
 70
     2
  0
BLOCK_RECORD
  5
1F
330
1
100
AcDbSymbolTableRecord
100
AcDbBlockTableRecord
  2
*Model_Space
340
22
  0
BLOCK_RECORD
  5
1B
330
1
100
AcDbSymbolTableRecord
100
AcDbBlockTableRecord
  2
*Paper_Space
340
1E
  0
BLOCK_RECORD
  5
23
330
1
100
AcDbSymbolTableRecord
100
AcDbBlockTableRecord
  2
*Paper_Space0
340
26
  0
BLOCK_RECORD
  5
160
330
1
100
AcDbSymbolTableRecord
100
AcDbBlockTableRecord
  2
SW_CENTERMARKSYMBOL_0
340
0
102
{BLKREFS
331
16B
102
}
  0
ENDTAB
  0
ENDSEC
  0
SECTION
  2
BLOCKS
  0
BLOCK
  5
20
330
1F
100
AcDbEntity
  8
0
100
AcDbBlockBegin
  2
*Model_Space
 70
     0
 10
0.0
 20
0.0
 30
0.0
  3
*Model_Space
  1

  0
ENDBLK
  5
21
330
1F
100
AcDbEntity
  8
0
100
AcDbBlockEnd
  0
BLOCK
  5
1C
330
1B
100
AcDbEntity
 67
     1
  8
0
100
AcDbBlockBegin
  2
*Paper_Space
 70
     0
 10
0.0
 20
0.0
 30
0.0
  3
*Paper_Space
  1

  0
ENDBLK
  5
1D
330
1B
100
AcDbEntity
 67
     1
  8
0
100
AcDbBlockEnd
  0
BLOCK
  5
24
330
23
100
AcDbEntity
  8
0
100
AcDbBlockBegin
  2
*Paper_Space0
 70
     0
 10
0.0
 20
0.0
 30
0.0
  3
*Paper_Space0
  1

  0
ENDBLK
  5
25
330
23
100
AcDbEntity
  8
0
100
AcDbBlockEnd
  0
BLOCK
  5
161
330
160
100
AcDbEntity
  8
0
100
AcDbBlockBegin
  2
SW_CENTERMARKSYMBOL_0
 70
     0
 10
0.0
 20
0.0
 30
0.0
  3
SW_CENTERMARKSYMBOL_0
  1

  0
LINE
  5
163
330
160
100
AcDbEntity
  8
0
  6
Continuous
 62
     0
370
    18
100
AcDbLine
 10
0.0
 20
0.0
 30
0.0
 11
0.0
 21
2.5
 31
0.0
  0
LINE
  5
164
330
160
100
AcDbEntity
  8
0
  6
Continuous
 62
     0
370
    18
100
AcDbLine
 10
0.0
 20
0.0
 30
0.0
 11
-2.5
 21
0.0
 31
0.0
  0
LINE
  5
165
330
160
100
AcDbEntity
  8
0
  6
Continuous
 62
     0
370
    18
100
AcDbLine
 10
0.0
 20
0.0
 30
0.0
 11
0.0
 21
-2.5
 31
0.0
  0
LINE
  5
166
330
160
100
AcDbEntity
  8
0
  6
Continuous
 62
     0
370
    18
100
AcDbLine
 10
0.0
 20
0.0
 30
0.0
 11
2.5
 21
0.0
 31
0.0
  0
LINE
  5
167
330
160
100
AcDbEntity
  8
0
  6
Continuous
 62
     0
370
    18
100
AcDbLine
 10
0.0
 20
5.0
 30
0.0
 11
0.0
 21
14.25
 31
0.0
  0
LINE
  5
168
330
160
100
AcDbEntity
  8
0
  6
Continuous
 62
     0
370
    18
100
AcDbLine
 10
-5.0
 20
0.0
 30
0.0
 11
-14.25
 21
0.0
 31
0.0
  0
LINE
  5
169
330
160
100
AcDbEntity
  8
0
  6
Continuous
 62
     0
370
    18
100
AcDbLine
 10
0.0
 20
-5.0
 30
0.0
 11
0.0
 21
-14.25
 31
0.0
  0
LINE
  5
16A
330
160
100
AcDbEntity
  8
0
  6
Continuous
 62
     0
370
    18
100
AcDbLine
 10
5.0
 20
0.0
 30
0.0
 11
14.25
 21
0.0
 31
0.0
  0
ENDBLK
  5
162
330
160
100
AcDbEntity
  8
0
100
AcDbBlockEnd
  0
ENDSEC
  0
SECTION
  2
ENTITIES
  0
MTEXT
  5
74
330
1F
100
AcDbEntity
  8
0
  6
Continuous
 62
     7
370
     0
100
AcDbMText
 10
192.2098391137
 20
107.6937709852
 30
0.0
 40
4.7625
 41
0.0
 71
     1
 72
     1
  1
HS-2414R
  7
SLDTEXTSTYLE0
 73
     1
 44
1.0
  0
LINE
  5
75
330
1F
100
AcDbEntity
  8
0
  6
Continuous
 62
     7
370
    25
100
AcDbLine
 10
106.8813146507
 20
85.116004214
 30
0.0
 11
106.3813146507
 21
85.116004214
 31
0.0
  0
LINE
  5
76
330
1F
100
AcDbEntity
  8
0
  6
Continuous
 62
     7
370
    25
100
AcDbLine
 10
106.3813146507
 20
69.116004214
 30
0.0
 11
106.8813146507
 21
69.116004214
 31
0.0
  0
LINE
  5
77
330
1F
100
AcDbEntity
  8
0
  6
Continuous
 62
     7
370
    25
100
AcDbLine
 10
100.3813146507
 20
84.116004214
 30
0.0
 11
95.8813146507
 21
83.366004214
 31
0.0
  0
LINE
  5
78
330
1F
100
AcDbEntity
  8
0
  6
Continuous
 62
     7
370
    25
100
AcDbLine
 10
95.8813146507
 20
70.866004214
 30
0.0
 11
100.3813146507
 21
70.116004214
 31
0.0
  0
LINE
  5
79
330
1F
100
AcDbEntity
  8
0
  6
Continuous
 62
     7
370
    25
100
AcDbLine
 10
100.3813146507
 20
70.116004214
 30
0.0
 11
106.3813146507
 21
70.116004214
 31
0.0
  0
LINE
  5
7A
330
1F
100
AcDbEntity
  8
0
  6
Continuous
 62
     7
370
    25
100
AcDbLine
 10
106.3813146507
 20
84.116004214
 30
0.0
 11
100.3813146507
 21
84.116004214
 31
0.0
  0
LINE
  5
7B
330
1F
100
AcDbEntity
  8
0
  6
Continuous
 62
     7
370
    25
100
AcDbLine
 10
95.8813146507
 20
84.116004214
 30
0.0
 11
91.3813146507
 21
83.366004214
 31
0.0
  0
LINE
  5
7C
330
1F
100
AcDbEntity
  8
0
  6
Continuous
 62
     7
370
    25
100
AcDbLine
 10
91.3813146507
 20
70.866004214
 30
0.0
 11
95.8813146507
 21
70.116004214
 31
0.0
  0
LINE
  5
7D
330
1F
100
AcDbEntity
  8
0
  6
Continuous
 62
     7
370
    25
100
AcDbLine
 10
86.8813146507
 20
84.116004214
 30
0.0
 11
82.3813146507
 21
83.366004214
 31
0.0
  0
LINE
  5
7E
330
1F
100
AcDbEntity
  8
0
  6
Continuous
 62
     7
370
    25
100
AcDbLine
 10
82.3813146507
 20
70.866004214
 30
0.0
 11
86.8813146507
 21
70.116004214
 31
0.0
  0
LINE
  5
7F
330
1F
100
AcDbEntity
  8
0
  6
Continuous
 62
     7
370
    25
100
AcDbLine
 10
82.3813146507
 20
84.116004214
 30
0.0
 11
76.5767009058
 21
83.4462410896
 31
0.0
  0
LINE
  5
80
330
1F
100
AcDbEntity
  8
0
  6
Continuous
 62
     7
370
    25
100
AcDbLine
 10
76.5767009058
 20
70.7857673384
 30
0.0
 11
82.3813146507
 21
70.116004214
 31
0.0
  0
LINE
  5
81
330
1F
100
AcDbEntity
  8
0
  6
Continuous
 62
     7
370
    25
100
AcDbLine
 10
91.3813146507
 20
84.116004214
 30
0.0
 11
86.8813146507
 21
83.366004214
 31
0.0
  0
LINE
  5
82
330
1F
100
AcDbEntity
  8
0
  6
Continuous
 62
     7
370
    25
100
AcDbLine
 10
86.8813146507
 20
70.866004214
 30
0.0
 11
91.3813146507
 21
70.116004214
 31
0.0
  0
LINE
  5
83
330
1F
100
AcDbEntity
  8
0
  6
Continuous
 62
     7
370
    25
100
AcDbLine
 10
76.5767009058
 20
83.4462410896
 30
0.0
 11
75.8813146507
 21
82.5694497244
 31
0.0
  0
LINE
  5
84
330
1F
100
AcDbEntity
  8
0
  6
Continuous
 62
     7
370
    25
100
AcDbLine
 10
75.8813146507
 20
71.6625587035
 30
0.0
 11
76.5767009058
 21
70.7857673384
 31
0.0
  0
LINE
  5
85
330
1F
100
AcDbEntity
  8
0
  6
Continuous
 62
     7
370
    25
100
AcDbLine
 10
156.685162228
 20
69.116004214
 30
0.0
 11
157.185162228
 21
69.116004214
 31
0.0
  0
LINE
  5
86
330
1F
100
AcDbEntity
  8
0
  6
Continuous
 62
     7
370
    25
100
AcDbLine
 10
157.185162228
 20
85.116004214
 30
0.0
 11
156.685162228
 21
85.116004214
 31
0.0
  0
LINE
  5
87
330
1F
100
AcDbEntity
  8
0
  6
Continuous
 62
     7
370
    25
100
AcDbLine
 10
163.185162228
 20
84.116004214
 30
0.0
 11
157.185162228
 21
84.116004214
 31
0.0
  0
LINE
  5
88
330
1F
100
AcDbEntity
  8
0
  6
Continuous
 62
     7
370
    25
100
AcDbLine
 10
157.185162228
 20
70.116004214
 30
0.0
 11
163.185162228
 21
70.116004214
 31
0.0
  0
LINE
  5
89
330
1F
100
AcDbEntity
  8
0
  6
Continuous
 62
     7
370
    25
100
AcDbLine
 10
163.185162228
 20
70.116004214
 30
0.0
 11
167.685162228
 21
70.866004214
 31
0.0
  0
LINE
  5
8A
330
1F
100
AcDbEntity
  8
0
  6
Continuous
 62
     7
370
    25
100
AcDbLine
 10
167.685162228
 20
83.366004214
 30
0.0
 11
163.185162228
 21
84.116004214
 31
0.0
  0
LINE
  5
8B
330
1F
100
AcDbEntity
  8
0
  6
Continuous
 62
     7
370
    25
100
AcDbLine
 10
176.685162228
 20
70.116004214
 30
0.0
 11
181.185162228
 21
70.866004214
 31
0.0
  0
LINE
  5
8C
330
1F
100
AcDbEntity
  8
0
  6
Continuous
 62
     7
370
    25
100
AcDbLine
 10
181.185162228
 20
83.366004214
 30
0.0
 11
176.685162228
 21
84.116004214
 31
0.0
  0
LINE
  5
8D
330
1F
100
AcDbEntity
  8
0
  6
Continuous
 62
     7
370
    25
100
AcDbLine
 10
172.185162228
 20
70.116004214
 30
0.0
 11
176.685162228
 21
70.866004214
 31
0.0
  0
LINE
  5
8E
330
1F
100
AcDbEntity
  8
0
  6
Continuous
 62
     7
370
    25
100
AcDbLine
 10
176.685162228
 20
83.366004214
 30
0.0
 11
172.185162228
 21
84.116004214
 31
0.0
  0
LINE
  5
8F
330
1F
100
AcDbEntity
  8
0
  6
Continuous
 62
     7
370
    25
100
AcDbLine
 10
181.185162228
 20
70.116004214
 30
0.0
 11
186.9897759728
 21
70.7857673384
 31
0.0
  0
LINE
  5
90
330
1F
100
AcDbEntity
  8
0
  6
Continuous
 62
     7
370
    25
100
AcDbLine
 10
186.9897759728
 20
83.4462410896
 30
0.0
 11
181.185162228
 21
84.116004214
 31
0.0
  0
LINE
  5
91
330
1F
100
AcDbEntity
  8
0
  6
Continuous
 62
     7
370
    25
100
AcDbLine
 10
167.685162228
 20
70.116004214
 30
0.0
 11
172.185162228
 21
70.866004214
 31
0.0
  0
LINE
  5
92
330
1F
100
AcDbEntity
  8
0
  6
Continuous
 62
     7
370
    25
100
AcDbLine
 10
172.185162228
 20
83.366004214
 30
0.0
 11
167.685162228
 21
84.116004214
 31
0.0
  0
LINE
  5
93
330
1F
100
AcDbEntity
  8
0
  6
Continuous
 62
     7
370
    25
100
AcDbLine
 10
186.9897759728
 20
70.7857673384
 30
0.0
 11
187.685162228
 21
71.6625587035
 31
0.0
  0
LINE
  5
94
330
1F
100
AcDbEntity
  8
0
  6
Continuous
 62
     7
370
    25
100
AcDbLine
 10
187.685162228
 20
82.5694497244
 30
0.0
 11
186.9897759728
 21
83.4462410896
 31
0.0
  0
LINE
  5
95
330
1F
100
AcDbEntity
  8
0
  6
Continuous
 62
     7
370
    25
100
AcDbLine
 10
143.901296565
 20
90.9724106745
 30
0.0
 11
142.685162228
 21
88.866004214
 31
0.0
  0
LINE
  5
96
330
1F
100
AcDbEntity
  8
0
  6
Continuous
 62
     7
370
    25
100
AcDbLine
 10
142.685162228
 20
65.366004214
 30
0.0
 11
143.901296565
 21
63.2595977534
 31
0.0
  0
LINE
  5
97
330
1F
100
AcDbEntity
  8
0
  6
Continuous
 62
     7
370
    25
100
AcDbLine
 10
153.4690278909
 20
63.2595977534
 30
0.0
 11
154.685162228
 21
65.366004214
 31
0.0
  0
LINE
  5
98
330
1F
100
AcDbEntity
  8
0
  6
Continuous
 62
     7
370
    25
100
AcDbLine
 10
154.685162228
 20
88.866004214
 30
0.0
 11
153.4690278909
 21
90.9724106745
 31
0.0
  0
LINE
  5
99
330
1F
100
AcDbEntity
  8
0
  6
Continuous
 62
     7
370
    25
100
AcDbLine
 10
154.685162228
 20
65.366004214
 30
0.0
 11
156.185162228
 21
65.366004214
 31
0.0
  0
LINE
  5
9A
330
1F
100
AcDbEntity
  8
0
  6
Continuous
 62
     7
370
    25
100
AcDbLine
 10
156.185162228
 20
88.866004214
 30
0.0
 11
154.685162228
 21
88.866004214
 31
0.0
  0
LINE
  5
9B
330
1F
100
AcDbEntity
  8
0
  6
Continuous
 62
     7
370
    25
100
AcDbLine
 10
156.185162228
 20
65.366004214
 30
0.0
 11
156.685162228
 21
65.866004214
 31
0.0
  0
LINE
  5
9C
330
1F
100
AcDbEntity
  8
0
  6
Continuous
 62
     7
370
    25
100
AcDbLine
 10
156.685162228
 20
88.366004214
 30
0.0
 11
156.185162228
 21
88.866004214
 31
0.0
  0
LINE
  5
9D
330
1F
100
AcDbEntity
  8
0
  6
Continuous
 62
     7
370
    25
100
AcDbLine
 10
142.685162228
 20
88.866004214
 30
0.0
 11
141.185162228
 21
88.866004214
 31
0.0
  0
LINE
  5
9E
330
1F
100
AcDbEntity
  8
0
  6
Continuous
 62
     7
370
    25
100
AcDbLine
 10
141.185162228
 20
65.366004214
 30
0.0
 11
142.685162228
 21
65.366004214
 31
0.0
  0
LINE
  5
9F
330
1F
100
AcDbEntity
  8
0
  6
Continuous
 62
     7
370
    25
100
AcDbLine
 10
141.185162228
 20
88.866004214
 30
0.0
 11
140.685162228
 21
88.366004214
 31
0.0
  0
LINE
  5
A0
330
1F
100
AcDbEntity
  8
0
  6
Continuous
 62
     7
370
    25
100
AcDbLine
 10
140.685162228
 20
65.866004214
 30
0.0
 11
141.185162228
 21
65.366004214
 31
0.0
  0
LINE
  5
A1
330
1F
100
AcDbEntity
  8
0
  6
Continuous
 62
     7
370
    25
100
AcDbLine
 10
148.685162228
 20
90.4724106745
 30
0.0
 11
148.5511876317
 21
90.9724106745
 31
0.0
  0
LINE
  5
A2
330
1F
100
AcDbEntity
  8
0
  6
Continuous
 62
     7
370
    25
100
AcDbLine
 10
148.8191368242
 20
90.9724106745
 30
0.0
 11
148.685162228
 21
90.4724106745
 31
0.0
  0
LINE
  5
A3
330
1F
100
AcDbEntity
  8
0
  6
Continuous
 62
     7
370
    25
100
AcDbLine
 10
148.5511876317
 20
63.2595977534
 30
0.0
 11
148.685162228
 21
63.7595977534
 31
0.0
  0
LINE
  5
A4
330
1F
100
AcDbEntity
  8
0
  6
Continuous
 62
     7
370
    25
100
AcDbLine
 10
148.685162228
 20
63.7595977534
 30
0.0
 11
148.8191368242
 21
63.2595977534
 31
0.0
  0
LINE
  5
A5
330
1F
100
AcDbEntity
  8
0
  6
Continuous
 62
     7
370
    25
100
AcDbLine
 10
119.6651803136
 20
63.2595977534
 30
0.0
 11
120.8813146507
 21
65.366004214
 31
0.0
  0
LINE
  5
A6
330
1F
100
AcDbEntity
  8
0
  6
Continuous
 62
     7
370
    25
100
AcDbLine
 10
120.8813146507
 20
88.866004214
 30
0.0
 11
119.6651803136
 21
90.9724106745
 31
0.0
  0
LINE
  5
A7
330
1F
100
AcDbEntity
  8
0
  6
Continuous
 62
     7
370
    25
100
AcDbLine
 10
110.0974489877
 20
90.9724106745
 30
0.0
 11
108.8813146507
 21
88.866004214
 31
0.0
  0
LINE
  5
A8
330
1F
100
AcDbEntity
  8
0
  6
Continuous
 62
     7
370
    25
100
AcDbLine
 10
108.8813146507
 20
65.366004214
 30
0.0
 11
110.0974489877
 21
63.2595977534
 31
0.0
  0
LINE
  5
A9
330
1F
100
AcDbEntity
  8
0
  6
Continuous
 62
     7
370
    25
100
AcDbLine
 10
108.8813146507
 20
88.866004214
 30
0.0
 11
107.3813146507
 21
88.866004214
 31
0.0
  0
LINE
  5
AA
330
1F
100
AcDbEntity
  8
0
  6
Continuous
 62
     7
370
    25
100
AcDbLine
 10
107.3813146507
 20
65.366004214
 30
0.0
 11
108.8813146507
 21
65.366004214
 31
0.0
  0
LINE
  5
AB
330
1F
100
AcDbEntity
  8
0
  6
Continuous
 62
     7
370
    25
100
AcDbLine
 10
120.8813146507
 20
65.366004214
 30
0.0
 11
122.3813146507
 21
65.366004214
 31
0.0
  0
LINE
  5
AC
330
1F
100
AcDbEntity
  8
0
  6
Continuous
 62
     7
370
    25
100
AcDbLine
 10
122.3813146507
 20
88.866004214
 30
0.0
 11
120.8813146507
 21
88.866004214
 31
0.0
  0
LINE
  5
AD
330
1F
100
AcDbEntity
  8
0
  6
Continuous
 62
     7
370
    25
100
AcDbLine
 10
122.3813146507
 20
65.366004214
 30
0.0
 11
122.8813146507
 21
65.866004214
 31
0.0
  0
LINE
  5
AE
330
1F
100
AcDbEntity
  8
0
  6
Continuous
 62
     7
370
    25
100
AcDbLine
 10
122.8813146507
 20
88.366004214
 30
0.0
 11
122.3813146507
 21
88.866004214
 31
0.0
  0
LINE
  5
AF
330
1F
100
AcDbEntity
  8
0
  6
Continuous
 62
     7
370
    25
100
AcDbLine
 10
107.3813146507
 20
88.866004214
 30
0.0
 11
106.8813146507
 21
88.366004214
 31
0.0
  0
LINE
  5
B0
330
1F
100
AcDbEntity
  8
0
  6
Continuous
 62
     7
370
    25
100
AcDbLine
 10
106.8813146507
 20
65.866004214
 30
0.0
 11
107.3813146507
 21
65.366004214
 31
0.0
  0
LINE
  5
B1
330
1F
100
AcDbEntity
  8
0
  6
Continuous
 62
     7
370
    25
100
AcDbLine
 10
114.8813146507
 20
63.7595977534
 30
0.0
 11
115.0152892469
 21
63.2595977534
 31
0.0
  0
LINE
  5
B2
330
1F
100
AcDbEntity
  8
0
  6
Continuous
 62
     7
370
    25
100
AcDbLine
 10
114.7473400544
 20
63.2595977534
 30
0.0
 11
114.8813146507
 21
63.7595977534
 31
0.0
  0
LINE
  5
B3
330
1F
100
AcDbEntity
  8
0
  6
Continuous
 62
     7
370
    25
100
AcDbLine
 10
115.0152892469
 20
90.9724106745
 30
0.0
 11
114.8813146507
 21
90.4724106745
 31
0.0
  0
LINE
  5
B4
330
1F
100
AcDbEntity
  8
0
  6
Continuous
 62
     7
370
    25
100
AcDbLine
 10
114.8813146507
 20
90.4724106745
 30
0.0
 11
114.7473400544
 21
90.9724106745
 31
0.0
  0
LINE
  5
B5
330
1F
100
AcDbEntity
  8
0
  6
Continuous
 62
     7
370
    25
100
AcDbLine
 10
129.4100563789
 20
89.8177101361
 30
0.0
 11
128.2832384393
 21
87.866004214
 31
0.0
  0
LINE
  5
B6
330
1F
100
AcDbEntity
  8
0
  6
Continuous
 62
     7
370
    25
100
AcDbLine
 10
128.2832384393
 20
66.366004214
 30
0.0
 11
129.4100563789
 21
64.4142982918
 31
0.0
  0
LINE
  5
B7
330
1F
100
AcDbEntity
  8
0
  6
Continuous
 62
     7
370
    25
100
AcDbLine
 10
134.1564204998
 20
64.4142982918
 30
0.0
 11
135.2832384393
 21
66.366004214
 31
0.0
  0
LINE
  5
B8
330
1F
100
AcDbEntity
  8
0
  6
Continuous
 62
     7
370
    25
100
AcDbLine
 10
135.2832384393
 20
87.866004214
 30
0.0
 11
134.1564204998
 21
89.8177101361
 31
0.0
  0
LINE
  5
B9
330
1F
100
AcDbEntity
  8
0
  6
Continuous
 62
     7
370
    25
100
AcDbLine
 10
124.3832384393
 20
87.593504214
 30
0.0
 11
122.8813146507
 21
87.593504214
 31
0.0
  0
LINE
  5
BA
330
1F
100
AcDbEntity
  8
0
  6
Continuous
 62
     7
370
    25
100
AcDbLine
 10
122.8813146507
 20
66.638504214
 30
0.0
 11
124.3832384393
 21
66.638504214
 31
0.0
  0
LINE
  5
BB
330
1F
100
AcDbEntity
  8
0
  6
Continuous
 62
     7
370
    25
100
AcDbLine
 10
139.1832384393
 20
66.638504214
 30
0.0
 11
140.685162228
 21
66.638504214
 31
0.0
  0
LINE
  5
BC
330
1F
100
AcDbEntity
  8
0
  6
Continuous
 62
     7
370
    25
100
AcDbLine
 10
140.685162228
 20
87.593504214
 30
0.0
 11
139.1832384393
 21
87.593504214
 31
0.0
  0
LINE
  5
BD
330
1F
100
AcDbEntity
  8
0
  6
Continuous
 62
     7
370
    25
100
AcDbLine
 10
124.3832384393
 20
66.638504214
 30
0.0
 11
125.7832384393
 21
68.038504214
 31
0.0
  0
LINE
  5
BE
330
1F
100
AcDbEntity
  8
0
  6
Continuous
 62
     7
370
    25
100
AcDbLine
 10
125.7832384393
 20
86.193504214
 30
0.0
 11
124.3832384393
 21
87.593504214
 31
0.0
  0
LINE
  5
BF
330
1F
100
AcDbEntity
  8
0
  6
Continuous
 62
     7
370
    25
100
AcDbLine
 10
139.1832384393
 20
87.593504214
 30
0.0
 11
137.7832384393
 21
86.193504214
 31
0.0
  0
LINE
  5
C0
330
1F
100
AcDbEntity
  8
0
  6
Continuous
 62
     7
370
    25
100
AcDbLine
 10
137.7832384393
 20
68.038504214
 30
0.0
 11
139.1832384393
 21
66.638504214
 31
0.0
  0
LINE
  5
C1
330
1F
100
AcDbEntity
  8
0
  6
Continuous
 62
     7
370
    25
100
AcDbLine
 10
135.2832384393
 20
68.116004214
 30
0.0
 11
137.7832384393
 21
68.116004214
 31
0.0
  0
LINE
  5
C2
330
1F
100
AcDbEntity
  8
0
  6
Continuous
 62
     7
370
    25
100
AcDbLine
 10
137.7832384393
 20
86.116004214
 30
0.0
 11
135.2832384393
 21
86.116004214
 31
0.0
  0
LINE
  5
C3
330
1F
100
AcDbEntity
  8
0
  6
Continuous
 62
     7
370
    25
100
AcDbLine
 10
128.2832384393
 20
86.116004214
 30
0.0
 11
125.7832384393
 21
86.116004214
 31
0.0
  0
LINE
  5
C4
330
1F
100
AcDbEntity
  8
0
  6
Continuous
 62
     7
370
    25
100
AcDbLine
 10
125.7832384393
 20
68.116004214
 30
0.0
 11
128.2832384393
 21
68.116004214
 31
0.0
  0
LINE
  5
C5
330
1F
100
AcDbEntity
  8
0
  6
Continuous
 62
     7
370
    25
100
AcDbLine
 10
131.7028536816
 20
64.4142982918
 30
0.0
 11
131.7832384393
 21
64.7142982918
 31
0.0
  0
LINE
  5
C6
330
1F
100
AcDbEntity
  8
0
  6
Continuous
 62
     7
370
    25
100
AcDbLine
 10
131.7832384393
 20
64.7142982918
 30
0.0
 11
131.863623197
 21
64.4142982918
 31
0.0
  0
LINE
  5
C7
330
1F
100
AcDbEntity
  8
0
  6
Continuous
 62
     7
370
    25
100
AcDbLine
 10
131.7832384393
 20
89.5177101361
 30
0.0
 11
131.7028536816
 21
89.8177101361
 31
0.0
  0
LINE
  5
C8
330
1F
100
AcDbEntity
  8
0
  6
Continuous
 62
     7
370
    25
100
AcDbLine
 10
131.863623197
 20
89.8177101361
 30
0.0
 11
131.7832384393
 21
89.5177101361
 31
0.0
  0
LINE
  5
C9
330
1F
100
AcDbEntity
  8
0
  6
Continuous
 62
     7
370
    25
100
AcDbLine
 10
106.3813146507
 20
69.116004214
 30
0.0
 11
106.3813146507
 21
85.116004214
 31
0.0
  0
LINE
  5
CA
330
1F
100
AcDbEntity
  8
0
  6
Continuous
 62
     7
370
    25
100
AcDbLine
 10
100.3813146507
 20
70.116004214
 30
0.0
 11
100.3813146507
 21
84.116004214
 31
0.0
  0
LINE
  5
CB
330
1F
100
AcDbEntity
  8
0
  6
Continuous
 62
     7
370
    25
100
AcDbLine
 10
95.8813146507
 20
70.116004214
 30
0.0
 11
95.8813146507
 21
84.116004214
 31
0.0
  0
LINE
  5
CC
330
1F
100
AcDbEntity
  8
0
  6
Continuous
 62
     7
370
    25
100
AcDbLine
 10
86.8813146507
 20
70.116004214
 30
0.0
 11
86.8813146507
 21
84.116004214
 31
0.0
  0
LINE
  5
CD
330
1F
100
AcDbEntity
  8
0
  6
Continuous
 62
     7
370
    25
100
AcDbLine
 10
76.5767009058
 20
83.4462410896
 30
0.0
 11
76.5767009058
 21
70.7857673384
 31
0.0
  0
LINE
  5
CE
330
1F
100
AcDbEntity
  8
0
  6
Continuous
 62
     7
370
    25
100
AcDbLine
 10
82.3813146507
 20
70.116004214
 30
0.0
 11
82.3813146507
 21
84.116004214
 31
0.0
  0
LINE
  5
CF
330
1F
100
AcDbEntity
  8
0
  6
Continuous
 62
     7
370
    25
100
AcDbLine
 10
91.3813146507
 20
70.116004214
 30
0.0
 11
91.3813146507
 21
84.116004214
 31
0.0
  0
LINE
  5
D0
330
1F
100
AcDbEntity
  8
0
  6
Continuous
 62
     7
370
    25
100
AcDbLine
 10
75.8813146507
 20
71.6625587035
 30
0.0
 11
75.8813146507
 21
82.5694497244
 31
0.0
  0
LINE
  5
D1
330
1F
100
AcDbEntity
  8
0
  6
Continuous
 62
     7
370
    25
100
AcDbLine
 10
157.185162228
 20
85.116004214
 30
0.0
 11
157.185162228
 21
69.116004214
 31
0.0
  0
LINE
  5
D2
330
1F
100
AcDbEntity
  8
0
  6
Continuous
 62
     7
370
    25
100
AcDbLine
 10
163.185162228
 20
84.116004214
 30
0.0
 11
163.185162228
 21
70.116004214
 31
0.0
  0
LINE
  5
D3
330
1F
100
AcDbEntity
  8
0
  6
Continuous
 62
     7
370
    25
100
AcDbLine
 10
176.685162228
 20
84.116004214
 30
0.0
 11
176.685162228
 21
70.116004214
 31
0.0
  0
LINE
  5
D4
330
1F
100
AcDbEntity
  8
0
  6
Continuous
 62
     7
370
    25
100
AcDbLine
 10
172.185162228
 20
84.116004214
 30
0.0
 11
172.185162228
 21
70.116004214
 31
0.0
  0
LINE
  5
D5
330
1F
100
AcDbEntity
  8
0
  6
Continuous
 62
     7
370
    25
100
AcDbLine
 10
181.185162228
 20
84.116004214
 30
0.0
 11
181.185162228
 21
70.116004214
 31
0.0
  0
LINE
  5
D6
330
1F
100
AcDbEntity
  8
0
  6
Continuous
 62
     7
370
    25
100
AcDbLine
 10
186.9897759728
 20
70.7857673384
 30
0.0
 11
186.9897759728
 21
83.4462410896
 31
0.0
  0
LINE
  5
D7
330
1F
100
AcDbEntity
  8
0
  6
Continuous
 62
     7
370
    25
100
AcDbLine
 10
167.685162228
 20
84.116004214
 30
0.0
 11
167.685162228
 21
70.116004214
 31
0.0
  0
LINE
  5
D8
330
1F
100
AcDbEntity
  8
0
  6
Continuous
 62
     7
370
    25
100
AcDbLine
 10
187.685162228
 20
82.5694497244
 30
0.0
 11
187.685162228
 21
71.6625587035
 31
0.0
  0
LINE
  5
D9
330
1F
100
AcDbEntity
  8
0
  6
Continuous
 62
     7
370
    25
100
AcDbLine
 10
148.8191368242
 20
84.0442074443
 30
0.0
 11
148.685162228
 21
82.9806093618
 31
0.0
  0
LINE
  5
DA
330
1F
100
AcDbEntity
  8
0
  6
Continuous
 62
     7
370
    25
100
AcDbLine
 10
153.4690278909
 20
84.0442074443
 30
0.0
 11
148.8191368242
 21
84.0442074443
 31
0.0
  0
SPLINE
  5
DB
330
1F
100
AcDbEntity
  8
0
  6
Continuous
 62
     7
370
    25
100
AcDbSpline
210
0.0
220
0.0
230
1.0
 70
     8
 71
     3
 72
    14
 73
    10
 74
     0
 42
0.000000001
 43
0.00000001
 40
0.0
 40
0.0
 40
0.0
 40
0.0
 40
0.1830431512383958
 40
0.3676579742160951
 40
0.4925153642934578
 40
0.6173713255910025
 40
0.7455555889528352
 40
0.8737745622886145
 40
1.0
 40
1.0
 40
1.0
 40
1.0
 10
153.4690278909311
 20
84.04420744425157
 30
0.0
 10
153.6902160374768
 20
83.21457082526399
 30
0.0
 10
154.1344915284164
 20
81.54817404063259
 30
0.0
 10
154.4677044793006
 20
79.25676049952992
 30
0.0
 10
154.5645797206615
 20
77.22105003590052
 30
0.0
 10
154.4995908657633
 20
75.44825217017937
 30
0.0
 10
154.2822095723715
 20
73.67242511750439
 30
0.0
 10
153.9398902060285
 20
71.90969447713704
 30
0.0
 10
153.6251600406635
 20
70.75875967824972
 30
0.0
 10
153.4690278909311
 20
70.18780098370055
 30
0.0
  0
LINE
  5
DC
330
1F
100
AcDbEntity
  8
0
  6
Continuous
 62
     7
370
    25
100
AcDbLine
 10
153.4690278909
 20
70.1878009837
 30
0.0
 11
148.8191368242
 21
70.1878009837
 31
0.0
  0
LINE
  5
DD
330
1F
100
AcDbEntity
  8
0
  6
Continuous
 62
     7
370
    25
100
AcDbLine
 10
148.685162228
 20
71.2513990662
 30
0.0
 11
148.8191368242
 21
70.1878009837
 31
0.0
  0
LINE
  5
DE
330
1F
100
AcDbEntity
  8
0
  6
Continuous
 62
     7
370
    25
100
AcDbLine
 10
148.685162228
 20
71.2513990662
 30
0.0
 11
148.5511876317
 21
70.1878009837
 31
0.0
  0
LINE
  5
DF
330
1F
100
AcDbEntity
  8
0
  6
Continuous
 62
     7
370
    25
100
AcDbLine
 10
148.5511876317
 20
70.1878009837
 30
0.0
 11
143.901296565
 21
70.1878009837
 31
0.0
  0
SPLINE
  5
E0
330
1F
100
AcDbEntity
  8
0
  6
Continuous
 62
     7
370
    25
100
AcDbSpline
210
0.0
220
0.0
230
1.0
 70
     8
 71
     3
 72
    14
 73
    10
 74
     0
 42
0.000000001
 43
0.00000001
 40
0.0
 40
0.0
 40
0.0
 40
0.0
 40
0.1830431512383958
 40
0.3676579742160951
 40
0.4925153642934577
 40
0.6173713255910025
 40
0.7455555889528354
 40
0.8737745622886146
 40
1.0
 40
1.0
 40
1.0
 40
1.0
 10
143.901296564975
 20
84.04420744425157
 30
0.0
 10
143.6801084184293
 20
83.21457082526399
 30
0.0
 10
143.2358329274897
 20
81.54817404063259
 30
0.0
 10
142.9026199766055
 20
79.25676049952992
 30
0.0
 10
142.8057447352446
 20
77.22105003590052
 30
0.0
 10
142.8707335901428
 20
75.44825217017937
 30
0.0
 10
143.0881148835346
 20
73.67242511750439
 30
0.0
 10
143.4304342498776
 20
71.90969447713704
 30
0.0
 10
143.7451644152426
 20
70.75875967824972
 30
0.0
 10
143.9012965649749
 20
70.18780098370055
 30
0.0
  0
LINE
  5
E1
330
1F
100
AcDbEntity
  8
0
  6
Continuous
 62
     7
370
    25
100
AcDbLine
 10
148.5511876317
 20
84.0442074443
 30
0.0
 11
143.901296565
 21
84.0442074443
 31
0.0
  0
LINE
  5
E2
330
1F
100
AcDbEntity
  8
0
  6
Continuous
 62
     7
370
    25
100
AcDbLine
 10
148.5511876317
 20
84.0442074443
 30
0.0
 11
148.685162228
 21
82.9806093618
 31
0.0
  0
LINE
  5
E3
330
1F
100
AcDbEntity
  8
0
  6
Continuous
 62
     7
370
    25
100
AcDbLine
 10
148.685162228
 20
84.5760064855
 30
0.0
 11
148.5511876317
 21
84.0442074443
 31
0.0
  0
LINE
  5
E4
330
1F
100
AcDbEntity
  8
0
  6
Continuous
 62
     7
370
    25
100
AcDbLine
 10
148.685162228
 20
84.5760064855
 30
0.0
 11
148.685162228
 21
82.9806093618
 31
0.0
  0
LINE
  5
E5
330
1F
100
AcDbEntity
  8
0
  6
Continuous
 62
     7
370
    25
100
AcDbLine
 10
148.8191368242
 20
90.9724106745
 30
0.0
 11
148.685162228
 21
90.4406116333
 31
0.0
  0
LINE
  5
E6
330
1F
100
AcDbEntity
  8
0
  6
Continuous
 62
     7
370
    25
100
AcDbLine
 10
153.4690278909
 20
90.9724106745
 30
0.0
 11
148.8191368242
 21
90.9724106745
 31
0.0
  0
SPLINE
  5
E7
330
1F
100
AcDbEntity
  8
0
  6
Continuous
 62
     7
370
    25
100
AcDbSpline
210
0.0
220
0.0
230
1.0
 70
     8
 71
     3
 72
    15
 73
    11
 74
     0
 42
0.000000001
 43
0.00000001
 40
0.0
 40
0.0
 40
0.0
 40
0.0
 40
0.1323065044264402
 40
0.2645755999739297
 40
0.3998036789671094
 40
0.5350073556765895
 40
0.6501969475405022
 40
0.7654045076453766
 40
0.8826909144168968
 40
1.0
 40
1.0
 40
1.0
 40
1.0
 10
153.4690278909311
 20
90.9724106745271
 30
0.0
 10
153.6321869728489
 20
90.67308185175649
 30
0.0
 10
153.9584590044222
 20
90.07450883966355
 30
0.0
 10
154.3095137074421
 20
89.15275906287076
 30
0.0
 10
154.5205904929712
 20
88.2136339491202
 30
0.0
 10
154.5623878032568
 20
87.30853305107699
 30
0.0
 10
154.453929170556
 20
86.45233634629244
 30
0.0
 10
154.2317032614952
 20
85.64430383748295
 30
0.0
 10
153.9057254882089
 20
84.83992476837301
 30
0.0
 10
153.6146031378154
 20
84.30946364586836
 30
0.0
 10
153.4690278909311
 20
84.04420744425157
 30
0.0
  0
LINE
  5
E8
330
1F
100
AcDbEntity
  8
0
  6
Continuous
 62
     7
370
    25
100
AcDbLine
 10
148.685162228
 20
84.5760064855
 30
0.0
 11
148.8191368242
 21
84.0442074443
 31
0.0
  0
SPLINE
  5
E9
330
1F
100
AcDbEntity
  8
0
  6
Continuous
 62
     7
370
    25
100
AcDbSpline
210
0.0
220
0.0
230
1.0
 70
     8
 71
     3
 72
    15
 73
    11
 74
     0
 42
0.000000001
 43
0.00000001
 40
0.0
 40
0.0
 40
0.0
 40
0.0
 40
0.1323065044264402
 40
0.2645755999739297
 40
0.3998036789671093
 40
0.5350073556765895
 40
0.6501969475405022
 40
0.7654045076453766
 40
0.8826909144168968
 40
1.0
 40
1.0
 40
1.0
 40
1.0
 10
143.901296564975
 20
90.9724106745271
 30
0.0
 10
143.7381374830572
 20
90.67308185175649
 30
0.0
 10
143.4118654514839
 20
90.07450883966355
 30
0.0
 10
143.060810748464
 20
89.15275906287076
 30
0.0
 10
142.8497339629349
 20
88.2136339491202
 30
0.0
 10
142.8079366526493
 20
87.30853305107699
 30
0.0
 10
142.9163952853501
 20
86.45233634629244
 30
0.0
 10
143.1386211944109
 20
85.64430383748295
 30
0.0
 10
143.4645989676972
 20
84.83992476837301
 30
0.0
 10
143.7557213180907
 20
84.30946364586836
 30
0.0
 10
143.901296564975
 20
84.04420744425157
 30
0.0
  0
LINE
  5
EA
330
1F
100
AcDbEntity
  8
0
  6
Continuous
 62
     7
370
    25
100
AcDbLine
 10
148.5511876317
 20
90.9724106745
 30
0.0
 11
143.901296565
 21
90.9724106745
 31
0.0
  0
LINE
  5
EB
330
1F
100
AcDbEntity
  8
0
  6
Continuous
 62
     7
370
    25
100
AcDbLine
 10
148.5511876317
 20
90.9724106745
 30
0.0
 11
148.685162228
 21
90.4406116333
 31
0.0
  0
SPLINE
  5
EC
330
1F
100
AcDbEntity
  8
0
  6
Continuous
 62
     7
370
    25
100
AcDbSpline
210
0.0
220
0.0
230
1.0
 70
     8
 71
     3
 72
    15
 73
    11
 74
     0
 42
0.000000001
 43
0.00000001
 40
0.0
 40
0.0
 40
0.0
 40
0.0
 40
0.1323065044264403
 40
0.2645755999739298
 40
0.3998036789671094
 40
0.5350073556765895
 40
0.6501969475405022
 40
0.7654045076453765
 40
0.8826909144168967
 40
1.0
 40
1.0
 40
1.0
 40
1.0
 10
143.9012965649749
 20
70.18780098370055
 30
0.0
 10
143.7381374830572
 20
69.88847216092995
 30
0.0
 10
143.4118654514839
 20
69.28989914883701
 30
0.0
 10
143.060810748464
 20
68.36814937204423
 30
0.0
 10
142.8497339629349
 20
67.42902425829367
 30
0.0
 10
142.8079366526493
 20
66.52392336025046
 30
0.0
 10
142.9163952853501
 20
65.66772665546593
 30
0.0
 10
143.1386211944109
 20
64.85969414665642
 30
0.0
 10
143.4645989676972
 20
64.0553150775465
 30
0.0
 10
143.7557213180907
 20
63.52485395504184
 30
0.0
 10
143.9012965649749
 20
63.25959775342506
 30
0.0
  0
LINE
  5
ED
330
1F
100
AcDbEntity
  8
0
  6
Continuous
 62
     7
370
    25
100
AcDbLine
 10
142.685162228
 20
88.866004214
 30
0.0
 11
142.685162228
 21
65.366004214
 31
0.0
  0
SPLINE
  5
EE
330
1F
100
AcDbEntity
  8
0
  6
Continuous
 62
     7
370
    25
100
AcDbSpline
210
0.0
220
0.0
230
1.0
 70
     8
 71
     3
 72
    15
 73
    11
 74
     0
 42
0.000000001
 43
0.00000001
 40
0.0
 40
0.0
 40
0.0
 40
0.0
 40
0.1323065044264403
 40
0.2645755999739298
 40
0.3998036789671094
 40
0.5350073556765896
 40
0.6501969475405022
 40
0.7654045076453765
 40
0.8826909144168967
 40
1.0
 40
1.0
 40
1.0
 40
1.0
 10
153.4690278909311
 20
70.18780098370055
 30
0.0
 10
153.6321869728489
 20
69.88847216092995
 30
0.0
 10
153.9584590044222
 20
69.28989914883701
 30
0.0
 10
154.3095137074421
 20
68.36814937204423
 30
0.0
 10
154.5205904929712
 20
67.42902425829367
 30
0.0
 10
154.5623878032568
 20
66.52392336025046
 30
0.0
 10
154.453929170556
 20
65.66772665546593
 30
0.0
 10
154.2317032614952
 20
64.85969414665644
 30
0.0
 10
153.9057254882089
 20
64.0553150775465
 30
0.0
 10
153.6146031378154
 20
63.52485395504184
 30
0.0
 10
153.4690278909312
 20
63.25959775342506
 30
0.0
  0
LINE
  5
EF
330
1F
100
AcDbEntity
  8
0
  6
Continuous
 62
     7
370
    25
100
AcDbLine
 10
154.685162228
 20
88.866004214
 30
0.0
 11
154.685162228
 21
65.366004214
 31
0.0
  0
LINE
  5
F0
330
1F
100
AcDbEntity
  8
0
  6
Continuous
 62
     7
370
    25
100
AcDbLine
 10
148.685162228
 20
71.2513990662
 30
0.0
 11
148.685162228
 21
69.6560019425
 31
0.0
  0
LINE
  5
F1
330
1F
100
AcDbEntity
  8
0
  6
Continuous
 62
     7
370
    25
100
AcDbLine
 10
148.5511876317
 20
70.1878009837
 30
0.0
 11
148.685162228
 21
69.6560019425
 31
0.0
  0
LINE
  5
F2
330
1F
100
AcDbEntity
  8
0
  6
Continuous
 62
     7
370
    25
100
AcDbLine
 10
148.8191368242
 20
70.1878009837
 30
0.0
 11
148.685162228
 21
69.6560019425
 31
0.0
  0
LINE
  5
F3
330
1F
100
AcDbEntity
  8
0
  6
Continuous
 62
     7
370
    25
100
AcDbLine
 10
153.4690278909
 20
63.2595977534
 30
0.0
 11
148.8191368242
 21
63.2595977534
 31
0.0
  0
LINE
  5
F4
330
1F
100
AcDbEntity
  8
0
  6
Continuous
 62
     7
370
    25
100
AcDbLine
 10
148.685162228
 20
63.7913967947
 30
0.0
 11
148.8191368242
 21
63.2595977534
 31
0.0
  0
LINE
  5
F5
330
1F
100
AcDbEntity
  8
0
  6
Continuous
 62
     7
370
    25
100
AcDbLine
 10
148.685162228
 20
63.7913967947
 30
0.0
 11
148.5511876317
 21
63.2595977534
 31
0.0
  0
LINE
  5
F6
330
1F
100
AcDbEntity
  8
0
  6
Continuous
 62
     7
370
    25
100
AcDbLine
 10
148.5511876317
 20
63.2595977534
 30
0.0
 11
143.901296565
 21
63.2595977534
 31
0.0
  0
LINE
  5
F7
330
1F
100
AcDbEntity
  8
0
  6
Continuous
 62
     7
370
    25
100
AcDbLine
 10
156.185162228
 20
65.366004214
 30
0.0
 11
156.185162228
 21
88.866004214
 31
0.0
  0
LINE
  5
F8
330
1F
100
AcDbEntity
  8
0
  6
Continuous
 62
     7
370
    25
100
AcDbLine
 10
156.685162228
 20
88.366004214
 30
0.0
 11
156.685162228
 21
65.866004214
 31
0.0
  0
LINE
  5
F9
330
1F
100
AcDbEntity
  8
0
  6
Continuous
 62
     7
370
    25
100
AcDbLine
 10
141.185162228
 20
77.116004214
 30
0.0
 11
141.185162228
 21
65.366004214
 31
0.0
  0
LINE
  5
FA
330
1F
100
AcDbEntity
  8
0
  6
Continuous
 62
     7
370
    25
100
AcDbLine
 10
141.185162228
 20
88.866004214
 30
0.0
 11
141.185162228
 21
77.116004214
 31
0.0
  0
LINE
  5
FB
330
1F
100
AcDbEntity
  8
0
  6
Continuous
 62
     7
370
    25
100
AcDbLine
 10
140.685162228
 20
77.116004214
 30
0.0
 11
140.685162228
 21
88.366004214
 31
0.0
  0
LINE
  5
FC
330
1F
100
AcDbEntity
  8
0
  6
Continuous
 62
     7
370
    25
100
AcDbLine
 10
140.685162228
 20
65.866004214
 30
0.0
 11
140.685162228
 21
77.116004214
 31
0.0
  0
LINE
  5
FD
330
1F
100
AcDbEntity
  8
0
  6
Continuous
 62
     7
370
    25
100
AcDbLine
 10
148.685162228
 20
90.4724106745
 30
0.0
 11
148.685162228
 21
90.4406116333
 31
0.0
  0
LINE
  5
FE
330
1F
100
AcDbEntity
  8
0
  6
Continuous
 62
     7
370
    25
100
AcDbLine
 10
148.685162228
 20
63.7913967947
 30
0.0
 11
148.685162228
 21
63.7595977534
 31
0.0
  0
LINE
  5
FF
330
1F
100
AcDbEntity
  8
0
  6
Continuous
 62
     7
370
    25
100
AcDbLine
 10
114.8813146507
 20
69.6560019425
 30
0.0
 11
115.0152892469
 21
70.1878009837
 31
0.0
  0
LINE
  5
100
330
1F
100
AcDbEntity
  8
0
  6
Continuous
 62
     7
370
    25
100
AcDbLine
 10
114.8813146507
 20
69.6560019425
 30
0.0
 11
114.8813146507
 21
71.2513990662
 31
0.0
  0
LINE
  5
101
330
1F
100
AcDbEntity
  8
0
  6
Continuous
 62
     7
370
    25
100
AcDbLine
 10
115.0152892469
 20
70.1878009837
 30
0.0
 11
114.8813146507
 21
71.2513990662
 31
0.0
  0
LINE
  5
102
330
1F
100
AcDbEntity
  8
0
  6
Continuous
 62
     7
370
    25
100
AcDbLine
 10
114.7473400544
 20
70.1878009837
 30
0.0
 11
114.8813146507
 21
71.2513990662
 31
0.0
  0
LINE
  5
103
330
1F
100
AcDbEntity
  8
0
  6
Continuous
 62
     7
370
    25
100
AcDbLine
 10
110.0974489877
 20
70.1878009837
 30
0.0
 11
114.7473400544
 21
70.1878009837
 31
0.0
  0
SPLINE
  5
104
330
1F
100
AcDbEntity
  8
0
  6
Continuous
 62
     7
370
    25
100
AcDbSpline
210
0.0
220
0.0
230
1.0
 70
     8
 71
     3
 72
    14
 73
    10
 74
     0
 42
0.000000001
 43
0.00000001
 40
0.0
 40
0.0
 40
0.0
 40
0.0
 40
0.1262255091143315
 40
0.2512292489859025
 40
0.3762014819581575
 40
0.5042708573048457
 40
0.6323411290100946
 40
0.8152386614365866
 40
1.0
 40
1.0
 40
1.0
 40
1.0
 10
110.0974489876816
 20
70.18780098370055
 30
0.0
 10
109.9413052304503
 20
70.75875754845227
 30
0.0
 10
109.6305290716669
 20
71.89514424217685
 30
0.0
 10
109.2925048045669
 20
73.62789875800446
 30
0.0
 10
109.0718477625768
 20
75.38800191137467
 30
0.0
 10
109.0005059869737
 20
77.17577442419051
 30
0.0
 10
109.0961758221115
 20
79.23378291659623
 30
0.0
 10
109.4303316997593
 20
81.54021622889464
 30
0.0
 10
109.8743262978094
 20
83.2067276404724
 30
0.0
 10
110.0974489876816
 20
84.04420744425158
 30
0.0
  0
LINE
  5
105
330
1F
100
AcDbEntity
  8
0
  6
Continuous
 62
     7
370
    25
100
AcDbLine
 10
110.0974489877
 20
84.0442074443
 30
0.0
 11
114.7473400544
 21
84.0442074443
 31
0.0
  0
LINE
  5
106
330
1F
100
AcDbEntity
  8
0
  6
Continuous
 62
     7
370
    25
100
AcDbLine
 10
114.8813146507
 20
82.9806093618
 30
0.0
 11
114.7473400544
 21
84.0442074443
 31
0.0
  0
LINE
  5
107
330
1F
100
AcDbEntity
  8
0
  6
Continuous
 62
     7
370
    25
100
AcDbLine
 10
114.8813146507
 20
82.9806093618
 30
0.0
 11
115.0152892469
 21
84.0442074443
 31
0.0
  0
LINE
  5
108
330
1F
100
AcDbEntity
  8
0
  6
Continuous
 62
     7
370
    25
100
AcDbLine
 10
115.0152892469
 20
84.0442074443
 30
0.0
 11
119.6651803136
 21
84.0442074443
 31
0.0
  0
SPLINE
  5
109
330
1F
100
AcDbEntity
  8
0
  6
Continuous
 62
     7
370
    25
100
AcDbSpline
210
0.0
220
0.0
230
1.0
 70
     8
 71
     3
 72
    14
 73
    10
 74
     0
 42
0.000000001
 43
0.00000001
 40
0.0
 40
0.0
 40
0.0
 40
0.0
 40
0.1262255091143316
 40
0.2512292489859026
 40
0.3762014819581577
 40
0.5042708573048458
 40
0.6323411290100946
 40
0.8152386614365866
 40
1.0
 40
1.0
 40
1.0
 40
1.0
 10
119.6651803136378
 20
70.18780098370055
 30
0.0
 10
119.821324070869
 20
70.75875754845227
 30
0.0
 10
120.1321002296525
 20
71.89514424217685
 30
0.0
 10
120.4701244967524
 20
73.62789875800446
 30
0.0
 10
120.6907815387425
 20
75.38800191137467
 30
0.0
 10
120.7621233143456
 20
77.17577442419051
 30
0.0
 10
120.6664534792079
 20
79.23378291659623
 30
0.0
 10
120.33229760156
 20
81.54021622889465
 30
0.0
 10
119.88830300351
 20
83.2067276404724
 30
0.0
 10
119.6651803136378
 20
84.04420744425158
 30
0.0
  0
LINE
  5
10A
330
1F
100
AcDbEntity
  8
0
  6
Continuous
 62
     7
370
    25
100
AcDbLine
 10
115.0152892469
 20
70.1878009837
 30
0.0
 11
119.6651803136
 21
70.1878009837
 31
0.0
  0
LINE
  5
10B
330
1F
100
AcDbEntity
  8
0
  6
Continuous
 62
     7
370
    25
100
AcDbLine
 10
114.7473400544
 20
63.2595977534
 30
0.0
 11
114.8813146507
 21
63.7913967947
 31
0.0
  0
LINE
  5
10C
330
1F
100
AcDbEntity
  8
0
  6
Continuous
 62
     7
370
    25
100
AcDbLine
 10
110.0974489877
 20
63.2595977534
 30
0.0
 11
114.7473400544
 21
63.2595977534
 31
0.0
  0
SPLINE
  5
10D
330
1F
100
AcDbEntity
  8
0
  6
Continuous
 62
     7
370
    25
100
AcDbSpline
210
0.0
220
0.0
230
1.0
 70
     8
 71
     3
 72
    15
 73
    11
 74
     0
 42
0.000000001
 43
0.00000001
 40
0.0
 40
0.0
 40
0.0
 40
0.0
 40
0.1323065044264402
 40
0.2645755999739297
 40
0.3998036789671092
 40
0.5350073556765894
 40
0.6501969475405021
 40
0.7654045076453765
 40
0.8826909144168968
 40
1.0
 40
1.0
 40
1.0
 40
1.0
 10
110.0974489876816
 20
63.25959775342506
 30
0.0
 10
109.9342899057639
 20
63.55892657619566
 30
0.0
 10
109.6080178741906
 20
64.1574995882886
 30
0.0
 10
109.2569631711706
 20
65.07924936508138
 30
0.0
 10
109.0458863856415
 20
66.01837447883194
 30
0.0
 10
109.0040890753559
 20
66.92347537687515
 30
0.0
 10
109.1125477080567
 20
67.7796720816597
 30
0.0
 10
109.3347736171176
 20
68.5877045904692
 30
0.0
 10
109.6607513904038
 20
69.39208365957913
 30
0.0
 10
109.9518737407973
 20
69.92254478208378
 30
0.0
 10
110.0974489876816
 20
70.18780098370055
 30
0.0
  0
LINE
  5
10E
330
1F
100
AcDbEntity
  8
0
  6
Continuous
 62
     7
370
    25
100
AcDbLine
 10
114.8813146507
 20
69.6560019425
 30
0.0
 11
114.7473400544
 21
70.1878009837
 31
0.0
  0
SPLINE
  5
10F
330
1F
100
AcDbEntity
  8
0
  6
Continuous
 62
     7
370
    25
100
AcDbSpline
210
0.0
220
0.0
230
1.0
 70
     8
 71
     3
 72
    15
 73
    11
 74
     0
 42
0.000000001
 43
0.00000001
 40
0.0
 40
0.0
 40
0.0
 40
0.0
 40
0.1323065044264402
 40
0.2645755999739296
 40
0.3998036789671092
 40
0.5350073556765893
 40
0.650196947540502
 40
0.7654045076453764
 40
0.8826909144168966
 40
1.0
 40
1.0
 40
1.0
 40
1.0
 10
119.6651803136378
 20
63.25959775342506
 30
0.0
 10
119.8283393955555
 20
63.55892657619566
 30
0.0
 10
120.1546114271288
 20
64.1574995882886
 30
0.0
 10
120.5056661301487
 20
65.07924936508138
 30
0.0
 10
120.7167429156778
 20
66.01837447883194
 30
0.0
 10
120.7585402259634
 20
66.92347537687515
 30
0.0
 10
120.6500815932627
 20
67.7796720816597
 30
0.0
 10
120.4278556842018
 20
68.58770459046919
 30
0.0
 10
120.1018779109155
 20
69.39208365957913
 30
0.0
 10
119.810755560522
 20
69.92254478208378
 30
0.0
 10
119.6651803136378
 20
70.18780098370055
 30
0.0
  0
LINE
  5
110
330
1F
100
AcDbEntity
  8
0
  6
Continuous
 62
     7
370
    25
100
AcDbLine
 10
115.0152892469
 20
63.2595977534
 30
0.0
 11
119.6651803136
 21
63.2595977534
 31
0.0
  0
LINE
  5
111
330
1F
100
AcDbEntity
  8
0
  6
Continuous
 62
     7
370
    25
100
AcDbLine
 10
115.0152892469
 20
63.2595977534
 30
0.0
 11
114.8813146507
 21
63.7913967947
 31
0.0
  0
LINE
  5
112
330
1F
100
AcDbEntity
  8
0
  6
Continuous
 62
     7
370
    25
100
AcDbLine
 10
114.7473400544
 20
84.0442074443
 30
0.0
 11
114.8813146507
 21
84.5760064855
 31
0.0
  0
LINE
  5
113
330
1F
100
AcDbEntity
  8
0
  6
Continuous
 62
     7
370
    25
100
AcDbLine
 10
114.8813146507
 20
82.9806093618
 30
0.0
 11
114.8813146507
 21
84.5760064855
 31
0.0
  0
SPLINE
  5
114
330
1F
100
AcDbEntity
  8
0
  6
Continuous
 62
     7
370
    25
100
AcDbSpline
210
0.0
220
0.0
230
1.0
 70
     8
 71
     3
 72
    15
 73
    11
 74
     0
 42
0.000000001
 43
0.00000001
 40
0.0
 40
0.0
 40
0.0
 40
0.0
 40
0.1323065044264401
 40
0.2645755999739294
 40
0.3998036789671087
 40
0.5350073556765889
 40
0.6501969475405016
 40
0.7654045076453762
 40
0.8826909144168965
 40
1.0
 40
1.0
 40
1.0
 40
1.0
 10
119.6651803136378
 20
84.04420744425158
 30
0.0
 10
119.8283393955555
 20
84.34353626702219
 30
0.0
 10
120.1546114271288
 20
84.94210927911512
 30
0.0
 10
120.5056661301487
 20
85.86385905590792
 30
0.0
 10
120.7167429156778
 20
86.80298416965849
 30
0.0
 10
120.7585402259634
 20
87.70808506770167
 30
0.0
 10
120.6500815932627
 20
88.56428177248623
 30
0.0
 10
120.4278556842018
 20
89.37231428129571
 30
0.0
 10
120.1018779109155
 20
90.17669335040566
 30
0.0
 10
119.8107555605221
 20
90.7071544729103
 30
0.0
 10
119.6651803136378
 20
90.97241067452711
 30
0.0
  0
LINE
  5
115
330
1F
100
AcDbEntity
  8
0
  6
Continuous
 62
     7
370
    25
100
AcDbLine
 10
120.8813146507
 20
77.116004214
 30
0.0
 11
120.8813146507
 21
88.866004214
 31
0.0
  0
LINE
  5
116
330
1F
100
AcDbEntity
  8
0
  6
Continuous
 62
     7
370
    25
100
AcDbLine
 10
120.8813146507
 20
65.366004214
 30
0.0
 11
120.8813146507
 21
77.116004214
 31
0.0
  0
SPLINE
  5
117
330
1F
100
AcDbEntity
  8
0
  6
Continuous
 62
     7
370
    25
100
AcDbSpline
210
0.0
220
0.0
230
1.0
 70
     8
 71
     3
 72
    15
 73
    11
 74
     0
 42
0.000000001
 43
0.00000001
 40
0.0
 40
0.0
 40
0.0
 40
0.0
 40
0.1323065044264402
 40
0.2645755999739294
 40
0.3998036789671088
 40
0.535007355676589
 40
0.6501969475405016
 40
0.7654045076453762
 40
0.8826909144168965
 40
1.0
 40
1.0
 40
1.0
 40
1.0
 10
110.0974489876816
 20
84.04420744425158
 30
0.0
 10
109.9342899057639
 20
84.34353626702219
 30
0.0
 10
109.6080178741905
 20
84.94210927911512
 30
0.0
 10
109.2569631711706
 20
85.86385905590792
 30
0.0
 10
109.0458863856415
 20
86.80298416965849
 30
0.0
 10
109.0040890753559
 20
87.70808506770167
 30
0.0
 10
109.1125477080567
 20
88.56428177248623
 30
0.0
 10
109.3347736171175
 20
89.37231428129571
 30
0.0
 10
109.6607513904039
 20
90.17669335040566
 30
0.0
 10
109.9518737407973
 20
90.7071544729103
 30
0.0
 10
110.0974489876816
 20
90.97241067452711
 30
0.0
  0
LINE
  5
118
330
1F
100
AcDbEntity
  8
0
  6
Continuous
 62
     7
370
    25
100
AcDbLine
 10
110.0974489877
 20
90.9724106745
 30
0.0
 11
114.7473400544
 21
90.9724106745
 31
0.0
  0
LINE
  5
119
330
1F
100
AcDbEntity
  8
0
  6
Continuous
 62
     7
370
    25
100
AcDbLine
 10
114.8813146507
 20
90.4406116333
 30
0.0
 11
114.7473400544
 21
90.9724106745
 31
0.0
  0
LINE
  5
11A
330
1F
100
AcDbEntity
  8
0
  6
Continuous
 62
     7
370
    25
100
AcDbLine
 10
114.8813146507
 20
90.4406116333
 30
0.0
 11
115.0152892469
 21
90.9724106745
 31
0.0
  0
LINE
  5
11B
330
1F
100
AcDbEntity
  8
0
  6
Continuous
 62
     7
370
    25
100
AcDbLine
 10
115.0152892469
 20
90.9724106745
 30
0.0
 11
119.6651803136
 21
90.9724106745
 31
0.0
  0
LINE
  5
11C
330
1F
100
AcDbEntity
  8
0
  6
Continuous
 62
     7
370
    25
100
AcDbLine
 10
115.0152892469
 20
84.0442074443
 30
0.0
 11
114.8813146507
 21
84.5760064855
 31
0.0
  0
LINE
  5
11D
330
1F
100
AcDbEntity
  8
0
  6
Continuous
 62
     7
370
    25
100
AcDbLine
 10
108.8813146507
 20
77.116004214
 30
0.0
 11
108.8813146507
 21
88.866004214
 31
0.0
  0
LINE
  5
11E
330
1F
100
AcDbEntity
  8
0
  6
Continuous
 62
     7
370
    25
100
AcDbLine
 10
108.8813146507
 20
65.366004214
 30
0.0
 11
108.8813146507
 21
77.116004214
 31
0.0
  0
LINE
  5
11F
330
1F
100
AcDbEntity
  8
0
  6
Continuous
 62
     7
370
    25
100
AcDbLine
 10
107.3813146507
 20
77.116004214
 30
0.0
 11
107.3813146507
 21
65.366004214
 31
0.0
  0
LINE
  5
120
330
1F
100
AcDbEntity
  8
0
  6
Continuous
 62
     7
370
    25
100
AcDbLine
 10
107.3813146507
 20
88.866004214
 30
0.0
 11
107.3813146507
 21
77.116004214
 31
0.0
  0
LINE
  5
121
330
1F
100
AcDbEntity
  8
0
  6
Continuous
 62
     7
370
    25
100
AcDbLine
 10
122.3813146507
 20
65.366004214
 30
0.0
 11
122.3813146507
 21
88.866004214
 31
0.0
  0
LINE
  5
122
330
1F
100
AcDbEntity
  8
0
  6
Continuous
 62
     7
370
    25
100
AcDbLine
 10
122.8813146507
 20
88.366004214
 30
0.0
 11
122.8813146507
 21
65.866004214
 31
0.0
  0
LINE
  5
123
330
1F
100
AcDbEntity
  8
0
  6
Continuous
 62
     7
370
    25
100
AcDbLine
 10
106.8813146507
 20
77.116004214
 30
0.0
 11
106.8813146507
 21
88.366004214
 31
0.0
  0
LINE
  5
124
330
1F
100
AcDbEntity
  8
0
  6
Continuous
 62
     7
370
    25
100
AcDbLine
 10
106.8813146507
 20
65.866004214
 30
0.0
 11
106.8813146507
 21
77.116004214
 31
0.0
  0
LINE
  5
125
330
1F
100
AcDbEntity
  8
0
  6
Continuous
 62
     7
370
    25
100
AcDbLine
 10
114.8813146507
 20
63.7595977534
 30
0.0
 11
114.8813146507
 21
63.7913967947
 31
0.0
  0
LINE
  5
126
330
1F
100
AcDbEntity
  8
0
  6
Continuous
 62
     7
370
    25
100
AcDbLine
 10
114.8813146507
 20
90.4406116333
 30
0.0
 11
114.8813146507
 21
90.4724106745
 31
0.0
  0
SPLINE
  5
127
330
1F
100
AcDbEntity
  8
0
  6
Continuous
 62
     7
370
    25
100
AcDbSpline
210
0.0
220
0.0
230
1.0
 70
     8
 71
     3
 72
    16
 73
    12
 74
     0
 42
0.000000001
 43
0.00000001
 40
0.0
 40
0.0
 40
0.0
 40
0.0
 40
0.25
 40
0.25
 40
0.5
 40
0.5
 40
0.625
 40
0.625
 40
0.75
 40
0.75
 40
1.0
 40
1.0
 40
1.0
 40
1.0
 10
129.4100563788512
 20
70.76515125289028
 30
0.0
 10
129.1114472219053
 20
71.79956371576134
 30
0.0
 10
128.8615293676071
 20
72.85731596395495
 30
0.0
 10
128.5198045553003
 20
74.9769546233437
 30
0.0
 10
128.4274418654917
 20
76.04363028148342
 30
0.0
 10
128.427643300251
 20
77.65576208648197
 30
0.0
 10
128.4506507488778
 20
78.19608602302074
 30
0.0
 10
128.5415702091771
 20
79.27666618653632
 30
0.0
 10
128.608848271178
 20
79.81124548911825
 30
0.0
 10
128.8669472744507
 20
81.40025651723865
 30
0.0
 10
129.1136463121699
 20
82.44006258432832
 30
0.0
 10
129.4100563788512
 20
83.46685717506209
 30
0.0
  0
SPLINE
  5
128
330
1F
100
AcDbEntity
  8
0
  6
Continuous
 62
     7
370
    25
100
AcDbSpline
210
0.0
220
0.0
230
1.0
 70
     8
 71
     3
 72
    16
 73
    12
 74
     0
 42
0.000000001
 43
0.00000001
 40
0.0
 40
0.0
 40
0.0
 40
0.0
 40
0.2500000000000002
 40
0.2500000000000002
 40
0.5000000000000004
 40
0.5000000000000004
 40
0.6250000000000003
 40
0.6250000000000003
 40
0.7500000000000002
 40
0.7500000000000002
 40
1.0
 40
1.0
 40
1.0
 40
1.0
 10
129.4100563788509
 20
64.41429829180429
 30
0.0
 10
129.1107078206679
 20
64.93278520374976
 30
0.0
 10
128.8639903938063
 20
65.4550522740664
 30
0.0
 10
128.52220666145
 20
66.51047854719879
 30
0.0
 10
128.428267753065
 20
67.04371872375599
 30
0.0
 10
128.4272359315855
 20
67.85362542811313
 30
0.0
 10
128.4502003384419
 20
68.12486478315522
 30
0.0
 10
128.5397494647275
 20
68.66140480862448
 30
0.0
 10
128.606243298795
 20
68.92787600277545
 30
0.0
 10
128.8630065956088
 20
69.7225454316603
 30
0.0
 10
129.1103346546293
 20
70.24601799840596
 30
0.0
 10
129.4100563788511
 20
70.7651512528903
 30
0.0
  0
SPLINE
  5
129
330
1F
100
AcDbEntity
  8
0
  6
Continuous
 62
     7
370
    25
100
AcDbSpline
210
0.0
220
0.0
230
1.0
 70
     8
 71
     3
 72
    16
 73
    12
 74
     0
 42
0.000000001
 43
0.00000001
 40
0.0
 40
0.0
 40
0.0
 40
0.0
 40
0.2500000000000002
 40
0.2500000000000002
 40
0.5000000000000003
 40
0.5000000000000003
 40
0.6250000000000003
 40
0.6250000000000003
 40
0.7500000000000002
 40
0.7500000000000002
 40
1.0
 40
1.0
 40
1.0
 40
1.0
 10
129.4100563788509
 20
83.46685717506207
 30
0.0
 10
129.1107078206679
 20
83.98534408700755
 30
0.0
 10
128.8639903938063
 20
84.50761115732416
 30
0.0
 10
128.52220666145
 20
85.56303743045649
 30
0.0
 10
128.4282677530651
 20
86.09627760701369
 30
0.0
 10
128.4272359315856
 20
86.9061843113708
 30
0.0
 10
128.4502003384419
 20
87.17742366641288
 30
0.0
 10
128.5397494647275
 20
87.71396369188213
 30
0.0
 10
128.6062432987951
 20
87.98043488603308
 30
0.0
 10
128.8630065956089
 20
88.77510431491791
 30
0.0
 10
129.1103346546293
 20
89.29857688166355
 30
0.0
 10
129.4100563788511
 20
89.81771013614787
 30
0.0
  0
LINE
  5
12A
330
1F
100
AcDbEntity
  8
0
  6
Continuous
 62
     7
370
    25
100
AcDbLine
 10
128.2832384393
 20
77.116004214
 30
0.0
 11
128.2832384393
 21
87.866004214
 31
0.0
  0
LINE
  5
12B
330
1F
100
AcDbEntity
  8
0
  6
Continuous
 62
     7
370
    25
100
AcDbLine
 10
128.2832384393
 20
66.366004214
 30
0.0
 11
128.2832384393
 21
77.116004214
 31
0.0
  0
LINE
  5
12C
330
1F
100
AcDbEntity
  8
0
  6
Continuous
 62
     7
370
    25
100
AcDbLine
 10
129.4100563789
 20
70.7651512529
 30
0.0
 11
131.7028536816
 21
70.7651512529
 31
0.0
  0
LINE
  5
12D
330
1F
100
AcDbEntity
  8
0
  6
Continuous
 62
     7
370
    25
100
AcDbLine
 10
129.4100563789
 20
83.4668571751
 30
0.0
 11
131.7028536816
 21
83.4668571751
 31
0.0
  0
SPLINE
  5
12E
330
1F
100
AcDbEntity
  8
0
  6
Continuous
 62
     7
370
    25
100
AcDbSpline
210
0.0
220
0.0
230
1.0
 70
     8
 71
     3
 72
     8
 73
     4
 74
     0
 42
0.000000001
 43
0.00000001
 40
0.0
 40
0.0
 40
0.0
 40
0.0
 40
1.0
 40
1.0
 40
1.0
 40
1.0
 10
131.7832384393064
 20
82.84333428828049
 30
0.0
 10
131.7574979487368
 20
83.0513487757477
 30
0.0
 10
131.7306764290873
 20
83.25918536043285
 30
0.0
 10
131.702853681577
 20
83.46685717506209
 30
0.0
  0
SPLINE
  5
12F
330
1F
100
AcDbEntity
  8
0
  6
Continuous
 62
     7
370
    25
100
AcDbSpline
210
0.0
220
0.0
230
1.0
 70
     8
 71
     3
 72
     8
 73
     4
 74
     0
 42
0.000000001
 43
0.00000001
 40
0.0
 40
0.0
 40
0.0
 40
0.0
 40
1.0
 40
1.0
 40
1.0
 40
1.0
 10
131.8636231970357
 20
83.46685717506209
 30
0.0
 10
131.8357901434798
 20
83.25910843506131
 30
0.0
 10
131.8089691557095
 20
83.05126978858829
 30
0.0
 10
131.7832384393064
 20
82.84333428828049
 30
0.0
  0
LINE
  5
130
330
1F
100
AcDbEntity
  8
0
  6
Continuous
 62
     7
370
    25
100
AcDbLine
 10
131.863623197
 20
83.4668571751
 30
0.0
 11
134.1564204998
 21
83.4668571751
 31
0.0
  0
SPLINE
  5
131
330
1F
100
AcDbEntity
  8
0
  6
Continuous
 62
     7
370
    25
100
AcDbSpline
210
0.0
220
0.0
230
1.0
 70
     8
 71
     3
 72
    16
 73
    12
 74
     0
 42
0.000000001
 43
0.00000001
 40
0.0
 40
0.0
 40
0.0
 40
0.0
 40
0.2499999999999999
 40
0.2499999999999999
 40
0.4999999999999999
 40
0.4999999999999999
 40
0.6249999999999999
 40
0.6249999999999999
 40
0.7499999999999998
 40
0.7499999999999998
 40
1.0
 40
1.0
 40
1.0
 40
1.0
 10
134.1564204997615
 20
70.76515125289028
 30
0.0
 10
134.4550296567074
 20
71.79956371576134
 30
0.0
 10
134.7049475110057
 20
72.85731596395495
 30
0.0
 10
135.0466723233124
 20
74.9769546233437
 30
0.0
 10
135.1390350131211
 20
76.04363028148342
 30
0.0
 10
135.1388335783618
 20
77.65576208648197
 30
0.0
 10
135.1158261297349
 20
78.19608602302074
 30
0.0
 10
135.0249066694356
 20
79.27666618653632
 30
0.0
 10
134.9576286074347
 20
79.81124548911825
 30
0.0
 10
134.6995296041621
 20
81.40025651723866
 30
0.0
 10
134.4528305664428
 20
82.44006258432832
 30
0.0
 10
134.1564204997615
 20
83.46685717506209
 30
0.0
  0
LINE
  5
132
330
1F
100
AcDbEntity
  8
0
  6
Continuous
 62
     7
370
    25
100
AcDbLine
 10
131.863623197
 20
70.7651512529
 30
0.0
 11
134.1564204998
 21
70.7651512529
 31
0.0
  0
SPLINE
  5
133
330
1F
100
AcDbEntity
  8
0
  6
Continuous
 62
     7
370
    25
100
AcDbSpline
210
0.0
220
0.0
230
1.0
 70
     8
 71
     3
 72
     8
 73
     4
 74
     0
 42
0.000000001
 43
0.00000001
 40
0.0
 40
0.0
 40
0.0
 40
0.0
 40
1.0
 40
1.0
 40
1.0
 40
1.0
 10
131.7832384393064
 20
71.38867413967188
 30
0.0
 10
131.808978929876
 20
71.18065965220467
 30
0.0
 10
131.8358004495254
 20
70.97282306751953
 30
0.0
 10
131.8636231970357
 20
70.76515125289028
 30
0.0
  0
SPLINE
  5
134
330
1F
100
AcDbEntity
  8
0
  6
Continuous
 62
     7
370
    25
100
AcDbSpline
210
0.0
220
0.0
230
1.0
 70
     8
 71
     3
 72
     8
 73
     4
 74
     0
 42
0.000000001
 43
0.00000001
 40
0.0
 40
0.0
 40
0.0
 40
0.0
 40
1.0
 40
1.0
 40
1.0
 40
1.0
 10
131.702853681577
 20
70.76515125289029
 30
0.0
 10
131.7306867351329
 20
70.97289999289109
 30
0.0
 10
131.7575077229032
 20
71.18073863936408
 30
0.0
 10
131.7832384393064
 20
71.38867413967188
 30
0.0
  0
SPLINE
  5
135
330
1F
100
AcDbEntity
  8
0
  6
Continuous
 62
     7
370
    25
100
AcDbSpline
210
0.0
220
0.0
230
1.0
 70
     8
 71
     3
 72
     8
 73
     4
 74
     0
 42
0.000000001
 43
0.00000001
 40
0.0
 40
0.0
 40
0.0
 40
0.0
 40
1.0
 40
1.0
 40
1.0
 40
1.0
 10
131.702853681577
 20
83.46685717506209
 30
0.0
 10
131.7306853546341
 20
83.57072639297084
 30
0.0
 10
131.7575064145002
 20
83.67464558155457
 30
0.0
 10
131.7832384393064
 20
83.77861861845288
 30
0.0
  0
LINE
  5
136
330
1F
100
AcDbEntity
  8
0
  6
Continuous
 62
     7
370
    25
100
AcDbLine
 10
131.7832384393
 20
82.8433342883
 30
0.0
 11
131.7832384393
 21
83.7786186185
 31
0.0
  0
LINE
  5
137
330
1F
100
AcDbEntity
  8
0
  6
Continuous
 62
     7
370
    25
100
AcDbLine
 10
129.4100563789
 20
64.4142982918
 30
0.0
 11
131.7028536816
 21
64.4142982918
 31
0.0
  0
SPLINE
  5
138
330
1F
100
AcDbEntity
  8
0
  6
Continuous
 62
     7
370
    25
100
AcDbSpline
210
0.0
220
0.0
230
1.0
 70
     8
 71
     3
 72
     8
 73
     4
 74
     0
 42
0.000000001
 43
0.00000001
 40
0.0
 40
0.0
 40
0.0
 40
0.0
 40
1.0
 40
1.0
 40
1.0
 40
1.0
 10
131.7832384393064
 20
70.45338980949948
 30
0.0
 10
131.7574974894731
 20
70.55739890893784
 30
0.0
 10
131.7306759452121
 20
70.66131715142247
 30
0.0
 10
131.702853681577
 20
70.76515125289029
 30
0.0
  0
SPLINE
  5
139
330
1F
100
AcDbEntity
  8
0
  6
Continuous
 62
     7
370
    25
100
AcDbSpline
210
0.0
220
0.0
230
1.0
 70
     8
 71
     3
 72
     8
 73
     4
 74
     0
 42
0.000000001
 43
0.00000001
 40
0.0
 40
0.0
 40
0.0
 40
0.0
 40
1.0
 40
1.0
 40
1.0
 40
1.0
 10
131.8636231970357
 20
70.76515125289029
 30
0.0
 10
131.8357915239786
 20
70.66128203498154
 30
0.0
 10
131.8089704641125
 20
70.5573628463978
 30
0.0
 10
131.7832384393064
 20
70.45338980949948
 30
0.0
  0
SPLINE
  5
13A
330
1F
100
AcDbEntity
  8
0
  6
Continuous
 62
     7
370
    25
100
AcDbSpline
210
0.0
220
0.0
230
1.0
 70
     8
 71
     3
 72
    16
 73
    12
 74
     0
 42
0.000000001
 43
0.00000001
 40
0.0
 40
0.0
 40
0.0
 40
0.0
 40
0.2500000000000002
 40
0.2500000000000002
 40
0.5000000000000004
 40
0.5000000000000004
 40
0.6250000000000003
 40
0.6250000000000003
 40
0.7500000000000002
 40
0.7500000000000002
 40
1.0
 40
1.0
 40
1.0
 40
1.0
 10
134.1564204997618
 20
64.41429829180429
 30
0.0
 10
134.4557690579448
 20
64.93278520374976
 30
0.0
 10
134.7024864848064
 20
65.4550522740664
 30
0.0
 10
135.0442702171627
 20
66.51047854719879
 30
0.0
 10
135.1382091255477
 20
67.04371872375599
 30
0.0
 10
135.1392409470272
 20
67.85362542811313
 30
0.0
 10
135.1162765401709
 20
68.12486478315522
 30
0.0
 10
135.0267274138853
 20
68.66140480862448
 30
0.0
 10
134.9602335798177
 20
68.92787600277545
 30
0.0
 10
134.7034702830039
 20
69.7225454316603
 30
0.0
 10
134.4561422239835
 20
70.24601799840596
 30
0.0
 10
134.1564204997617
 20
70.7651512528903
 30
0.0
  0
LINE
  5
13B
330
1F
100
AcDbEntity
  8
0
  6
Continuous
 62
     7
370
    25
100
AcDbLine
 10
131.863623197
 20
64.4142982918
 30
0.0
 11
134.1564204998
 21
64.4142982918
 31
0.0
  0
SPLINE
  5
13C
330
1F
100
AcDbEntity
  8
0
  6
Continuous
 62
     7
370
    25
100
AcDbSpline
210
0.0
220
0.0
230
1.0
 70
     8
 71
     3
 72
     8
 73
     4
 74
     0
 42
0.000000001
 43
0.00000001
 40
0.0
 40
0.0
 40
0.0
 40
0.0
 40
1.0
 40
1.0
 40
1.0
 40
1.0
 10
131.7832384393064
 20
64.72605973519511
 30
0.0
 10
131.8089793891397
 20
64.62205063575675
 30
0.0
 10
131.8358009334006
 20
64.51813239327213
 30
0.0
 10
131.8636231970357
 20
64.4142982918043
 30
0.0
  0
SPLINE
  5
13D
330
1F
100
AcDbEntity
  8
0
  6
Continuous
 62
     7
370
    25
100
AcDbSpline
210
0.0
220
0.0
230
1.0
 70
     8
 71
     3
 72
     8
 73
     4
 74
     0
 42
0.000000001
 43
0.00000001
 40
0.0
 40
0.0
 40
0.0
 40
0.0
 40
1.0
 40
1.0
 40
1.0
 40
1.0
 10
131.702853681577
 20
64.4142982918043
 30
0.0
 10
131.7306853546341
 20
64.51816750971305
 30
0.0
 10
131.7575064145002
 20
64.6220866982968
 30
0.0
 10
131.7832384393064
 20
64.72605973519511
 30
0.0
  0
SPLINE
  5
13E
330
1F
100
AcDbEntity
  8
0
  6
Continuous
 62
     7
370
    25
100
AcDbSpline
210
0.0
220
0.0
230
1.0
 70
     8
 71
     3
 72
    16
 73
    12
 74
     0
 42
0.000000001
 43
0.00000001
 40
0.0
 40
0.0
 40
0.0
 40
0.0
 40
0.2500000000000002
 40
0.2500000000000002
 40
0.5000000000000003
 40
0.5000000000000003
 40
0.6250000000000003
 40
0.6250000000000003
 40
0.7500000000000002
 40
0.7500000000000002
 40
1.0
 40
1.0
 40
1.0
 40
1.0
 10
134.1564204997618
 20
83.46685717506207
 30
0.0
 10
134.4557690579448
 20
83.98534408700755
 30
0.0
 10
134.7024864848064
 20
84.50761115732416
 30
0.0
 10
135.0442702171627
 20
85.56303743045649
 30
0.0
 10
135.1382091255477
 20
86.09627760701369
 30
0.0
 10
135.1392409470272
 20
86.9061843113708
 30
0.0
 10
135.1162765401708
 20
87.17742366641288
 30
0.0
 10
135.0267274138852
 20
87.71396369188213
 30
0.0
 10
134.9602335798177
 20
87.98043488603308
 30
0.0
 10
134.7034702830039
 20
88.77510431491791
 30
0.0
 10
134.4561422239835
 20
89.29857688166355
 30
0.0
 10
134.1564204997617
 20
89.81771013614787
 30
0.0
  0
LINE
  5
13F
330
1F
100
AcDbEntity
  8
0
  6
Continuous
 62
     7
370
    25
100
AcDbLine
 10
135.2832384393
 20
77.116004214
 30
0.0
 11
135.2832384393
 21
87.866004214
 31
0.0
  0
LINE
  5
140
330
1F
100
AcDbEntity
  8
0
  6
Continuous
 62
     7
370
    25
100
AcDbLine
 10
135.2832384393
 20
66.366004214
 30
0.0
 11
135.2832384393
 21
77.116004214
 31
0.0
  0
LINE
  5
141
330
1F
100
AcDbEntity
  8
0
  6
Continuous
 62
     7
370
    25
100
AcDbLine
 10
131.7832384393
 20
70.4533898095
 30
0.0
 11
131.7832384393
 21
71.3886741397
 31
0.0
  0
SPLINE
  5
142
330
1F
100
AcDbEntity
  8
0
  6
Continuous
 62
     7
370
    25
100
AcDbSpline
210
0.0
220
0.0
230
1.0
 70
     8
 71
     3
 72
     8
 73
     4
 74
     0
 42
0.000000001
 43
0.00000001
 40
0.0
 40
0.0
 40
0.0
 40
0.0
 40
1.0
 40
1.0
 40
1.0
 40
1.0
 10
131.7832384393064
 20
83.77861861845288
 30
0.0
 10
131.8089793891397
 20
83.67460951901454
 30
0.0
 10
131.8358009334006
 20
83.57069127652991
 30
0.0
 10
131.8636231970357
 20
83.46685717506209
 30
0.0
  0
LINE
  5
143
330
1F
100
AcDbEntity
  8
0
  6
Continuous
 62
     7
370
    25
100
AcDbLine
 10
129.4100563789
 20
89.8177101361
 30
0.0
 11
131.7028536816
 21
89.8177101361
 31
0.0
  0
SPLINE
  5
144
330
1F
100
AcDbEntity
  8
0
  6
Continuous
 62
     7
370
    25
100
AcDbSpline
210
0.0
220
0.0
230
1.0
 70
     8
 71
     3
 72
     8
 73
     4
 74
     0
 42
0.000000001
 43
0.00000001
 40
0.0
 40
0.0
 40
0.0
 40
0.0
 40
1.0
 40
1.0
 40
1.0
 40
1.0
 10
131.7832384393064
 20
89.50594869275704
 30
0.0
 10
131.7574974894731
 20
89.6099577921954
 30
0.0
 10
131.7306759452121
 20
89.71387603468003
 30
0.0
 10
131.702853681577
 20
89.81771013614785
 30
0.0
  0
SPLINE
  5
145
330
1F
100
AcDbEntity
  8
0
  6
Continuous
 62
     7
370
    25
100
AcDbSpline
210
0.0
220
0.0
230
1.0
 70
     8
 71
     3
 72
     8
 73
     4
 74
     0
 42
0.000000001
 43
0.00000001
 40
0.0
 40
0.0
 40
0.0
 40
0.0
 40
1.0
 40
1.0
 40
1.0
 40
1.0
 10
131.8636231970357
 20
89.81771013614785
 30
0.0
 10
131.8357915239786
 20
89.7138409182391
 30
0.0
 10
131.8089704641125
 20
89.60992172965535
 30
0.0
 10
131.7832384393064
 20
89.50594869275704
 30
0.0
  0
LINE
  5
146
330
1F
100
AcDbEntity
  8
0
  6
Continuous
 62
     7
370
    25
100
AcDbLine
 10
131.863623197
 20
89.8177101361
 30
0.0
 11
134.1564204998
 21
89.8177101361
 31
0.0
  0
LINE
  5
147
330
1F
100
AcDbEntity
  8
0
  6
Continuous
 62
     7
370
    25
100
AcDbLine
 10
124.3832384393
 20
77.116004214
 30
0.0
 11
124.3832384393
 21
87.593504214
 31
0.0
  0
LINE
  5
148
330
1F
100
AcDbEntity
  8
0
  6
Continuous
 62
     7
370
    25
100
AcDbLine
 10
124.3832384393
 20
66.638504214
 30
0.0
 11
124.3832384393
 21
77.116004214
 31
0.0
  0
LINE
  5
149
330
1F
100
AcDbEntity
  8
0
  6
Continuous
 62
     7
370
    25
100
AcDbLine
 10
139.1832384393
 20
87.593504214
 30
0.0
 11
139.1832384393
 21
66.638504214
 31
0.0
  0
LINE
  5
14A
330
1F
100
AcDbEntity
  8
0
  6
Continuous
 62
     7
370
    25
100
AcDbLine
 10
125.7832384393
 20
77.116004214
 30
0.0
 11
125.7832384393
 21
68.038504214
 31
0.0
  0
LINE
  5
14B
330
1F
100
AcDbEntity
  8
0
  6
Continuous
 62
     7
370
    25
100
AcDbLine
 10
125.7832384393
 20
86.193504214
 30
0.0
 11
125.7832384393
 21
77.116004214
 31
0.0
  0
LINE
  5
14C
330
1F
100
AcDbEntity
  8
0
  6
Continuous
 62
     7
370
    25
100
AcDbLine
 10
137.7832384393
 20
68.038504214
 30
0.0
 11
137.7832384393
 21
86.193504214
 31
0.0
  0
LINE
  5
14D
330
1F
100
AcDbEntity
  8
0
  6
Continuous
 62
     7
370
    25
100
AcDbLine
 10
131.7832384393
 20
64.7142982918
 30
0.0
 11
131.7832384393
 21
64.7260597352
 31
0.0
  0
LINE
  5
14E
330
1F
100
AcDbEntity
  8
0
  6
Continuous
 62
     7
370
    25
100
AcDbLine
 10
131.7832384393
 20
89.5059486928
 30
0.0
 11
131.7832384393
 21
89.5177101361
 31
0.0
  0
LINE
  5
14F
330
1F
100
AcDbEntity
  8
0
  6
CENTERX2
 62
     7
370
    18
100
AcDbLine
 10
189.685162228
 20
77.116004214
 30
0.0
 11
73.233253252
 21
77.116004214
 31
0.0
  0
CIRCLE
  5
150
330
1F
100
AcDbEntity
  8
0
  6
Continuous
 62
     7
370
    25
100
AcDbCircle
 10
223.4159407514
 20
77.116004214
 30
0.0
 40
5.199999999999989
  0
CIRCLE
  5
151
330
1F
100
AcDbEntity
  8
0
  6
Continuous
 62
     7
370
    25
100
AcDbCircle
 10
223.4159407514
 20
77.116004214
 30
0.0
 40
5.0
  0
CIRCLE
  5
152
330
1F
100
AcDbEntity
  8
0
  6
Continuous
 62
     7
370
    25
100
AcDbCircle
 10
223.4159407514
 20
77.116004214
 30
0.0
 40
5.453445510451175
  0
CIRCLE
  5
153
330
1F
100
AcDbEntity
  8
0
  6
Continuous
 62
     7
370
    25
100
AcDbCircle
 10
223.4159407514
 20
77.116004214
 30
0.0
 40
6.330236875589591
  0
CIRCLE
  5
154
330
1F
100
AcDbEntity
  8
0
  6
Continuous
 62
     7
370
    25
100
AcDbCircle
 10
223.4159407514
 20
77.116004214
 30
0.0
 40
7.0
  0
CIRCLE
  5
155
330
1F
100
AcDbEntity
  8
0
  6
Continuous
 62
     7
370
    25
100
AcDbCircle
 10
223.4159407514
 20
77.116004214
 30
0.0
 40
8.0
  0
CIRCLE
  5
156
330
1F
100
AcDbEntity
  8
0
  6
Continuous
 62
     7
370
    25
100
AcDbCircle
 10
223.4159407514
 20
77.116004214
 30
0.0
 40
11.25
  0
CIRCLE
  5
157
330
1F
100
AcDbEntity
  8
0
  6
Continuous
 62
     7
370
    25
100
AcDbCircle
 10
223.4159407514
 20
77.116004214
 30
0.0
 40
11.75
  0
CIRCLE
  5
158
330
1F
100
AcDbEntity
  8
0
  6
Continuous
 62
     7
370
    25
100
AcDbCircle
 10
223.4159407514
 20
77.116004214
 30
0.0
 40
8.349999999999994
  0
CIRCLE
  5
159
330
1F
100
AcDbEntity
  8
0
  6
Continuous
 62
     7
370
    25
100
AcDbCircle
 10
223.4159407514
 20
77.116004214
 30
0.0
 40
8.25
  0
SPLINE
  5
15A
330
1F
100
AcDbEntity
  8
0
  6
Continuous
 62
     7
370
    25
100
AcDbSpline
210
0.0
220
0.0
230
1.0
 70
    24
 71
     3
 72
    15
 73
    11
 74
     0
 42
0.000000001
 43
0.00000001
 40
0.0
 40
0.0
 40
0.0
 40
0.0
 40
0.13230650442644
 40
0.2645755999739294
 40
0.3998036789671088
 40
0.535007355676589
 40
0.6501969475405016
 40
0.7654045076453762
 40
0.8826909144168965
 40
1.0
 40
1.0
 40
1.0
 40
1.0
 10
235.4159407514451
 20
84.04420744425158
 30
0.0
 10
234.8974880222366
 20
84.34353626702219
 30
0.0
 10
233.8607291532521
 20
84.94210927911513
 30
0.0
 10
232.2642117079817
 20
85.86385905590792
 30
0.0
 10
230.6375992963018
 20
86.80298416965849
 30
0.0
 10
229.0699185549148
 20
87.70808506770167
 30
0.0
 10
227.5869423609549
 20
88.56428177248623
 30
0.0
 10
226.1873890015295
 20
89.37231428129571
 30
0.0
 10
224.7941635852862
 20
90.17669335040566
 30
0.0
 10
223.8753779696681
 20
90.7071544729103
 30
0.0
 10
223.4159407514451
 20
90.97241067452711
 30
0.0
  0
SPLINE
  5
15B
330
1F
100
AcDbEntity
  8
0
  6
Continuous
 62
     7
370
    25
100
AcDbSpline
210
0.0
220
0.0
230
1.0
 70
    24
 71
     3
 72
    14
 73
    10
 74
     0
 42
0.000000001
 43
0.00000001
 40
0.0
 40
0.0
 40
0.0
 40
0.0
 40
0.1262255091143315
 40
0.2512292489859027
 40
0.3762014819581576
 40
0.5042708573048458
 40
0.6323411290100946
 40
0.8152386614365866
 40
1.0
 40
1.0
 40
1.0
 40
1.0
 10
235.4159407514451
 20
70.18780098370057
 30
0.0
 10
235.4159407514451
 20
70.75875754845227
 30
0.0
 10
235.4159407514451
 20
71.89514424217685
 30
0.0
 10
235.4159407514451
 20
73.62789875800446
 30
0.0
 10
235.4159407514451
 20
75.38800191137467
 30
0.0
 10
235.4159407514451
 20
77.17577442419052
 30
0.0
 10
235.4159407514451
 20
79.23378291659623
 30
0.0
 10
235.4159407514451
 20
81.54021622889465
 30
0.0
 10
235.4159407514451
 20
83.2067276404724
 30
0.0
 10
235.4159407514451
 20
84.04420744425158
 30
0.0
  0
SPLINE
  5
15C
330
1F
100
AcDbEntity
  8
0
  6
Continuous
 62
     7
370
    25
100
AcDbSpline
210
0.0
220
0.0
230
1.0
 70
    24
 71
     3
 72
    15
 73
    11
 74
     0
 42
0.000000001
 43
0.00000001
 40
0.0
 40
0.0
 40
0.0
 40
0.0
 40
0.1323065044264402
 40
0.2645755999739297
 40
0.3998036789671093
 40
0.5350073556765896
 40
0.6501969475405022
 40
0.7654045076453767
 40
0.8826909144168968
 40
1.0
 40
1.0
 40
1.0
 40
1.0
 10
223.4159407514451
 20
63.25959775342506
 30
0.0
 10
223.9343934806535
 20
63.55892657619566
 30
0.0
 10
224.9711523496381
 20
64.1574995882886
 30
0.0
 10
226.5676697949085
 20
65.07924936508138
 30
0.0
 10
228.1942822065883
 20
66.01837447883194
 30
0.0
 10
229.7619629479753
 20
66.92347537687515
 30
0.0
 10
231.2449391419352
 20
67.7796720816597
 30
0.0
 10
232.6444925013606
 20
68.5877045904692
 30
0.0
 10
234.037717917604
 20
69.39208365957913
 30
0.0
 10
234.9565035332221
 20
69.92254478208378
 30
0.0
 10
235.4159407514451
 20
70.18780098370057
 30
0.0
  0
SPLINE
  5
15D
330
1F
100
AcDbEntity
  8
0
  6
Continuous
 62
     7
370
    25
100
AcDbSpline
210
0.0
220
0.0
230
1.0
 70
    24
 71
     3
 72
    15
 73
    11
 74
     0
 42
0.000000001
 43
0.00000001
 40
0.0
 40
0.0
 40
0.0
 40
0.0
 40
0.1323065044264403
 40
0.2645755999739298
 40
0.3998036789671096
 40
0.5350073556765896
 40
0.6501969475405022
 40
0.7654045076453765
 40
0.8826909144168967
 40
1.0
 40
1.0
 40
1.0
 40
1.0
 10
211.4159407514451
 20
70.18780098370055
 30
0.0
 10
211.9343934806535
 20
69.88847216092995
 30
0.0
 10
212.9711523496381
 20
69.28989914883701
 30
0.0
 10
214.5676697949084
 20
68.36814937204421
 30
0.0
 10
216.1942822065883
 20
67.42902425829367
 30
0.0
 10
217.7619629479753
 20
66.52392336025046
 30
0.0
 10
219.2449391419352
 20
65.66772665546593
 30
0.0
 10
220.6444925013606
 20
64.85969414665644
 30
0.0
 10
222.037717917604
 20
64.0553150775465
 30
0.0
 10
222.9565035332221
 20
63.52485395504184
 30
0.0
 10
223.4159407514451
 20
63.25959775342506
 30
0.0
  0
SPLINE
  5
15E
330
1F
100
AcDbEntity
  8
0
  6
Continuous
 62
     7
370
    25
100
AcDbSpline
210
0.0
220
0.0
230
1.0
 70
    24
 71
     3
 72
    14
 73
    10
 74
     0
 42
0.000000001
 43
0.00000001
 40
0.0
 40
0.0
 40
0.0
 40
0.0
 40
0.1830431512383958
 40
0.3676579742160951
 40
0.4925153642934578
 40
0.6173713255910025
 40
0.7455555889528352
 40
0.8737745622886145
 40
1.0
 40
1.0
 40
1.0
 40
1.0
 10
211.4159407514451
 20
84.04420744425157
 30
0.0
 10
211.4159407514451
 20
83.21457082526399
 30
0.0
 10
211.4159407514451
 20
81.54817404063259
 30
0.0
 10
211.4159407514451
 20
79.25676049952992
 30
0.0
 10
211.4159407514451
 20
77.22105003590052
 30
0.0
 10
211.4159407514451
 20
75.44825217017937
 30
0.0
 10
211.4159407514451
 20
73.67242511750439
 30
0.0
 10
211.4159407514451
 20
71.90969447713702
 30
0.0
 10
211.4159407514451
 20
70.75875967824972
 30
0.0
 10
211.4159407514451
 20
70.18780098370055
 30
0.0
  0
SPLINE
  5
15F
330
1F
100
AcDbEntity
  8
0
  6
Continuous
 62
     7
370
    25
100
AcDbSpline
210
0.0
220
0.0
230
1.0
 70
    24
 71
     3
 72
    15
 73
    11
 74
     0
 42
0.000000001
 43
0.00000001
 40
0.0
 40
0.0
 40
0.0
 40
0.0
 40
0.1323065044264403
 40
0.2645755999739297
 40
0.3998036789671093
 40
0.5350073556765896
 40
0.6501969475405022
 40
0.7654045076453766
 40
0.8826909144168967
 40
1.0
 40
1.0
 40
1.0
 40
1.0
 10
223.4159407514451
 20
90.9724106745271
 30
0.0
 10
222.8974880222366
 20
90.67308185175649
 30
0.0
 10
221.8607291532521
 20
90.07450883966355
 30
0.0
 10
220.2642117079817
 20
89.15275906287076
 30
0.0
 10
218.6375992963018
 20
88.2136339491202
 30
0.0
 10
217.0699185549148
 20
87.30853305107699
 30
0.0
 10
215.5869423609549
 20
86.45233634629244
 30
0.0
 10
214.1873890015295
 20
85.64430383748295
 30
0.0
 10
212.7941635852862
 20
84.839924768373
 30
0.0
 10
211.8753779696681
 20
84.30946364586836
 30
0.0
 10
211.4159407514451
 20
84.04420744425157
 30
0.0
  0
INSERT
  5
16B
330
1F
100
AcDbEntity
  8
0
  6
Continuous
 62
     7
370
    18
100
AcDbBlockReference
  2
SW_CENTERMARKSYMBOL_0
 10
223.4159407514
 20
77.116004214
 30
0.0
  0
LINE
  5
16C
330
1F
100
AcDbEntity
  8
0
  6
Continuous
 62
     7
370
    25
100
AcDbLine
 10
106.8813146507
 20
138.7461391748
 30
0.0
 11
106.3813146507
 21
138.7461391748
 31
0.0
  0
LINE
  5
16D
330
1F
100
AcDbEntity
  8
0
  6
Continuous
 62
     7
370
    25
100
AcDbLine
 10
106.3813146507
 20
122.7461391748
 30
0.0
 11
106.8813146507
 21
122.7461391748
 31
0.0
  0
LINE
  5
16E
330
1F
100
AcDbEntity
  8
0
  6
Continuous
 62
     7
370
    25
100
AcDbLine
 10
100.3813146507
 20
123.7461391748
 30
0.0
 11
106.3813146507
 21
123.7461391748
 31
0.0
  0
LINE
  5
16F
330
1F
100
AcDbEntity
  8
0
  6
Continuous
 62
     7
370
    25
100
AcDbLine
 10
106.3813146507
 20
137.7461391748
 30
0.0
 11
100.3813146507
 21
137.7461391748
 31
0.0
  0
LINE
  5
170
330
1F
100
AcDbEntity
  8
0
  6
Continuous
 62
     7
370
    25
100
AcDbLine
 10
100.3813146507
 20
137.7461391748
 30
0.0
 11
95.8813146507
 21
136.9961391748
 31
0.0
  0
LINE
  5
171
330
1F
100
AcDbEntity
  8
0
  6
Continuous
 62
     7
370
    25
100
AcDbLine
 10
95.8813146507
 20
124.4961391748
 30
0.0
 11
100.3813146507
 21
123.7461391748
 31
0.0
  0
LINE
  5
172
330
1F
100
AcDbEntity
  8
0
  6
Continuous
 62
     7
370
    25
100
AcDbLine
 10
95.8813146507
 20
137.7461391748
 30
0.0
 11
91.3813146507
 21
136.9961391748
 31
0.0
  0
LINE
  5
173
330
1F
100
AcDbEntity
  8
0
  6
Continuous
 62
     7
370
    25
100
AcDbLine
 10
91.3813146507
 20
124.4961391748
 30
0.0
 11
95.8813146507
 21
123.7461391748
 31
0.0
  0
LINE
  5
174
330
1F
100
AcDbEntity
  8
0
  6
Continuous
 62
     7
370
    25
100
AcDbLine
 10
91.3813146507
 20
137.7461391748
 30
0.0
 11
86.8813146507
 21
136.9961391748
 31
0.0
  0
LINE
  5
175
330
1F
100
AcDbEntity
  8
0
  6
Continuous
 62
     7
370
    25
100
AcDbLine
 10
86.8813146507
 20
124.4961391748
 30
0.0
 11
91.3813146507
 21
123.7461391748
 31
0.0
  0
LINE
  5
176
330
1F
100
AcDbEntity
  8
0
  6
Continuous
 62
     7
370
    25
100
AcDbLine
 10
86.8813146507
 20
137.7461391748
 30
0.0
 11
82.3813146507
 21
136.9961391748
 31
0.0
  0
LINE
  5
177
330
1F
100
AcDbEntity
  8
0
  6
Continuous
 62
     7
370
    25
100
AcDbLine
 10
82.3813146507
 20
124.4961391748
 30
0.0
 11
86.8813146507
 21
123.7461391748
 31
0.0
  0
LINE
  5
178
330
1F
100
AcDbEntity
  8
0
  6
Continuous
 62
     7
370
    25
100
AcDbLine
 10
82.3813146507
 20
137.7461391748
 30
0.0
 11
76.5767009058
 21
137.0763760503
 31
0.0
  0
LINE
  5
179
330
1F
100
AcDbEntity
  8
0
  6
Continuous
 62
     7
370
    25
100
AcDbLine
 10
76.5767009058
 20
124.4159022992
 30
0.0
 11
82.3813146507
 21
123.7461391748
 31
0.0
  0
LINE
  5
17A
330
1F
100
AcDbEntity
  8
0
  6
Continuous
 62
     7
370
    25
100
AcDbLine
 10
76.5767009058
 20
137.0763760503
 30
0.0
 11
75.8813146507
 21
136.1995846852
 31
0.0
  0
LINE
  5
17B
330
1F
100
AcDbEntity
  8
0
  6
Continuous
 62
     7
370
    25
100
AcDbLine
 10
75.8813146507
 20
125.2926936643
 30
0.0
 11
76.5767009058
 21
124.4159022992
 31
0.0
  0
LINE
  5
17C
330
1F
100
AcDbEntity
  8
0
  6
Continuous
 62
     7
370
    25
100
AcDbLine
 10
156.685162228
 20
122.7461391748
 30
0.0
 11
157.185162228
 21
122.7461391748
 31
0.0
  0
LINE
  5
17D
330
1F
100
AcDbEntity
  8
0
  6
Continuous
 62
     7
370
    25
100
AcDbLine
 10
157.185162228
 20
138.7461391748
 30
0.0
 11
156.685162228
 21
138.7461391748
 31
0.0
  0
LINE
  5
17E
330
1F
100
AcDbEntity
  8
0
  6
Continuous
 62
     7
370
    25
100
AcDbLine
 10
163.185162228
 20
123.7461391748
 30
0.0
 11
167.685162228
 21
124.4961391748
 31
0.0
  0
LINE
  5
17F
330
1F
100
AcDbEntity
  8
0
  6
Continuous
 62
     7
370
    25
100
AcDbLine
 10
167.685162228
 20
136.9961391748
 30
0.0
 11
163.185162228
 21
137.7461391748
 31
0.0
  0
LINE
  5
180
330
1F
100
AcDbEntity
  8
0
  6
Continuous
 62
     7
370
    25
100
AcDbLine
 10
163.185162228
 20
137.7461391748
 30
0.0
 11
157.185162228
 21
137.7461391748
 31
0.0
  0
LINE
  5
181
330
1F
100
AcDbEntity
  8
0
  6
Continuous
 62
     7
370
    25
100
AcDbLine
 10
157.185162228
 20
123.7461391748
 30
0.0
 11
163.185162228
 21
123.7461391748
 31
0.0
  0
LINE
  5
182
330
1F
100
AcDbEntity
  8
0
  6
Continuous
 62
     7
370
    25
100
AcDbLine
 10
176.685162228
 20
123.7461391748
 30
0.0
 11
181.185162228
 21
124.4961391748
 31
0.0
  0
LINE
  5
183
330
1F
100
AcDbEntity
  8
0
  6
Continuous
 62
     7
370
    25
100
AcDbLine
 10
181.185162228
 20
136.9961391748
 30
0.0
 11
176.685162228
 21
137.7461391748
 31
0.0
  0
LINE
  5
184
330
1F
100
AcDbEntity
  8
0
  6
Continuous
 62
     7
370
    25
100
AcDbLine
 10
167.685162228
 20
123.7461391748
 30
0.0
 11
172.185162228
 21
124.4961391748
 31
0.0
  0
LINE
  5
185
330
1F
100
AcDbEntity
  8
0
  6
Continuous
 62
     7
370
    25
100
AcDbLine
 10
172.185162228
 20
136.9961391748
 30
0.0
 11
167.685162228
 21
137.7461391748
 31
0.0
  0
LINE
  5
186
330
1F
100
AcDbEntity
  8
0
  6
Continuous
 62
     7
370
    25
100
AcDbLine
 10
181.185162228
 20
123.7461391748
 30
0.0
 11
186.9897759728
 21
124.4159022992
 31
0.0
  0
LINE
  5
187
330
1F
100
AcDbEntity
  8
0
  6
Continuous
 62
     7
370
    25
100
AcDbLine
 10
186.9897759728
 20
137.0763760503
 30
0.0
 11
181.185162228
 21
137.7461391748
 31
0.0
  0
LINE
  5
188
330
1F
100
AcDbEntity
  8
0
  6
Continuous
 62
     7
370
    25
100
AcDbLine
 10
172.185162228
 20
123.7461391748
 30
0.0
 11
176.685162228
 21
124.4961391748
 31
0.0
  0
LINE
  5
189
330
1F
100
AcDbEntity
  8
0
  6
Continuous
 62
     7
370
    25
100
AcDbLine
 10
176.685162228
 20
136.9961391748
 30
0.0
 11
172.185162228
 21
137.7461391748
 31
0.0
  0
LINE
  5
18A
330
1F
100
AcDbEntity
  8
0
  6
Continuous
 62
     7
370
    25
100
AcDbLine
 10
186.9897759728
 20
124.4159022992
 30
0.0
 11
187.685162228
 21
125.2926936643
 31
0.0
  0
LINE
  5
18B
330
1F
100
AcDbEntity
  8
0
  6
Continuous
 62
     7
370
    25
100
AcDbLine
 10
187.685162228
 20
136.1995846852
 30
0.0
 11
186.9897759728
 21
137.0763760503
 31
0.0
  0
LINE
  5
18C
330
1F
100
AcDbEntity
  8
0
  6
Continuous
 62
     7
370
    25
100
AcDbLine
 10
142.8294997953
 20
142.7461391748
 30
0.0
 11
142.685162228
 21
142.4961391748
 31
0.0
  0
LINE
  5
18D
330
1F
100
AcDbEntity
  8
0
  6
Continuous
 62
     7
370
    25
100
AcDbLine
 10
142.685162228
 20
118.9961391748
 30
0.0
 11
142.8294997953
 21
118.7461391748
 31
0.0
  0
LINE
  5
18E
330
1F
100
AcDbEntity
  8
0
  6
Continuous
 62
     7
370
    25
100
AcDbLine
 10
154.5408246607
 20
118.7461391748
 30
0.0
 11
154.685162228
 21
118.9961391748
 31
0.0
  0
LINE
  5
18F
330
1F
100
AcDbEntity
  8
0
  6
Continuous
 62
     7
370
    25
100
AcDbLine
 10
154.685162228
 20
142.4961391748
 30
0.0
 11
154.5408246607
 21
142.7461391748
 31
0.0
  0
LINE
  5
190
330
1F
100
AcDbEntity
  8
0
  6
Continuous
 62
     7
370
    25
100
AcDbLine
 10
156.185162228
 20
118.9961391748
 30
0.0
 11
156.685162228
 21
119.4961391748
 31
0.0
  0
LINE
  5
191
330
1F
100
AcDbEntity
  8
0
  6
Continuous
 62
     7
370
    25
100
AcDbLine
 10
156.685162228
 20
141.9961391748
 30
0.0
 11
156.185162228
 21
142.4961391748
 31
0.0
  0
LINE
  5
192
330
1F
100
AcDbEntity
  8
0
  6
Continuous
 62
     7
370
    25
100
AcDbLine
 10
141.185162228
 20
142.4961391748
 30
0.0
 11
140.685162228
 21
141.9961391748
 31
0.0
  0
LINE
  5
193
330
1F
100
AcDbEntity
  8
0
  6
Continuous
 62
     7
370
    25
100
AcDbLine
 10
140.685162228
 20
119.4961391748
 30
0.0
 11
141.185162228
 21
118.9961391748
 31
0.0
  0
LINE
  5
194
330
1F
100
AcDbEntity
  8
0
  6
Continuous
 62
     7
370
    25
100
AcDbLine
 10
154.685162228
 20
118.9961391748
 30
0.0
 11
156.185162228
 21
118.9961391748
 31
0.0
  0
LINE
  5
195
330
1F
100
AcDbEntity
  8
0
  6
Continuous
 62
     7
370
    25
100
AcDbLine
 10
156.185162228
 20
142.4961391748
 30
0.0
 11
154.685162228
 21
142.4961391748
 31
0.0
  0
LINE
  5
196
330
1F
100
AcDbEntity
  8
0
  6
Continuous
 62
     7
370
    25
100
AcDbLine
 10
142.685162228
 20
142.4961391748
 30
0.0
 11
141.185162228
 21
142.4961391748
 31
0.0
  0
LINE
  5
197
330
1F
100
AcDbEntity
  8
0
  6
Continuous
 62
     7
370
    25
100
AcDbLine
 10
141.185162228
 20
118.9961391748
 30
0.0
 11
142.685162228
 21
118.9961391748
 31
0.0
  0
LINE
  5
198
330
1F
100
AcDbEntity
  8
0
  6
Continuous
 62
     7
370
    25
100
AcDbLine
 10
109.025652218
 20
142.7461391748
 30
0.0
 11
108.8813146507
 21
142.4961391748
 31
0.0
  0
LINE
  5
199
330
1F
100
AcDbEntity
  8
0
  6
Continuous
 62
     7
370
    25
100
AcDbLine
 10
108.8813146507
 20
118.9961391748
 30
0.0
 11
109.025652218
 21
118.7461391748
 31
0.0
  0
LINE
  5
19A
330
1F
100
AcDbEntity
  8
0
  6
Continuous
 62
     7
370
    25
100
AcDbLine
 10
120.7369770834
 20
118.7461391748
 30
0.0
 11
120.8813146507
 21
118.9961391748
 31
0.0
  0
LINE
  5
19B
330
1F
100
AcDbEntity
  8
0
  6
Continuous
 62
     7
370
    25
100
AcDbLine
 10
120.8813146507
 20
142.4961391748
 30
0.0
 11
120.7369770834
 21
142.7461391748
 31
0.0
  0
LINE
  5
19C
330
1F
100
AcDbEntity
  8
0
  6
Continuous
 62
     7
370
    25
100
AcDbLine
 10
107.3813146507
 20
142.4961391748
 30
0.0
 11
106.8813146507
 21
141.9961391748
 31
0.0
  0
LINE
  5
19D
330
1F
100
AcDbEntity
  8
0
  6
Continuous
 62
     7
370
    25
100
AcDbLine
 10
106.8813146507
 20
119.4961391748
 30
0.0
 11
107.3813146507
 21
118.9961391748
 31
0.0
  0
LINE
  5
19E
330
1F
100
AcDbEntity
  8
0
  6
Continuous
 62
     7
370
    25
100
AcDbLine
 10
120.8813146507
 20
118.9961391748
 30
0.0
 11
122.3813146507
 21
118.9961391748
 31
0.0
  0
LINE
  5
19F
330
1F
100
AcDbEntity
  8
0
  6
Continuous
 62
     7
370
    25
100
AcDbLine
 10
122.3813146507
 20
142.4961391748
 30
0.0
 11
120.8813146507
 21
142.4961391748
 31
0.0
  0
LINE
  5
1A0
330
1F
100
AcDbEntity
  8
0
  6
Continuous
 62
     7
370
    25
100
AcDbLine
 10
108.8813146507
 20
142.4961391748
 30
0.0
 11
107.3813146507
 21
142.4961391748
 31
0.0
  0
LINE
  5
1A1
330
1F
100
AcDbEntity
  8
0
  6
Continuous
 62
     7
370
    25
100
AcDbLine
 10
107.3813146507
 20
118.9961391748
 30
0.0
 11
108.8813146507
 21
118.9961391748
 31
0.0
  0
LINE
  5
1A2
330
1F
100
AcDbEntity
  8
0
  6
Continuous
 62
     7
370
    25
100
AcDbLine
 10
122.3813146507
 20
118.9961391748
 30
0.0
 11
122.8813146507
 21
119.4961391748
 31
0.0
  0
LINE
  5
1A3
330
1F
100
AcDbEntity
  8
0
  6
Continuous
 62
     7
370
    25
100
AcDbLine
 10
122.8813146507
 20
141.9961391748
 30
0.0
 11
122.3813146507
 21
142.4961391748
 31
0.0
  0
LINE
  5
1A4
330
1F
100
AcDbEntity
  8
0
  6
Continuous
 62
     7
370
    25
100
AcDbLine
 10
128.4275760066
 20
141.7461391748
 30
0.0
 11
128.2832384393
 21
141.4961391748
 31
0.0
  0
LINE
  5
1A5
330
1F
100
AcDbEntity
  8
0
  6
Continuous
 62
     7
370
    25
100
AcDbLine
 10
128.2832384393
 20
119.9961391748
 30
0.0
 11
128.4275760066
 21
119.7461391748
 31
0.0
  0
LINE
  5
1A6
330
1F
100
AcDbEntity
  8
0
  6
Continuous
 62
     7
370
    25
100
AcDbLine
 10
135.138900872
 20
119.7461391748
 30
0.0
 11
135.2832384393
 21
119.9961391748
 31
0.0
  0
LINE
  5
1A7
330
1F
100
AcDbEntity
  8
0
  6
Continuous
 62
     7
370
    25
100
AcDbLine
 10
135.2832384393
 20
141.4961391748
 30
0.0
 11
135.138900872
 21
141.7461391748
 31
0.0
  0
LINE
  5
1A8
330
1F
100
AcDbEntity
  8
0
  6
Continuous
 62
     7
370
    25
100
AcDbLine
 10
139.1832384393
 20
120.2686391748
 30
0.0
 11
140.685162228
 21
120.2686391748
 31
0.0
  0
LINE
  5
1A9
330
1F
100
AcDbEntity
  8
0
  6
Continuous
 62
     7
370
    25
100
AcDbLine
 10
140.685162228
 20
141.2236391748
 30
0.0
 11
139.1832384393
 21
141.2236391748
 31
0.0
  0
LINE
  5
1AA
330
1F
100
AcDbEntity
  8
0
  6
Continuous
 62
     7
370
    25
100
AcDbLine
 10
124.3832384393
 20
120.2686391748
 30
0.0
 11
125.7832384393
 21
121.6686391748
 31
0.0
  0
LINE
  5
1AB
330
1F
100
AcDbEntity
  8
0
  6
Continuous
 62
     7
370
    25
100
AcDbLine
 10
125.7832384393
 20
139.8236391748
 30
0.0
 11
124.3832384393
 21
141.2236391748
 31
0.0
  0
LINE
  5
1AC
330
1F
100
AcDbEntity
  8
0
  6
Continuous
 62
     7
370
    25
100
AcDbLine
 10
124.3832384393
 20
141.2236391748
 30
0.0
 11
122.8813146507
 21
141.2236391748
 31
0.0
  0
LINE
  5
1AD
330
1F
100
AcDbEntity
  8
0
  6
Continuous
 62
     7
370
    25
100
AcDbLine
 10
122.8813146507
 20
120.2686391748
 30
0.0
 11
124.3832384393
 21
120.2686391748
 31
0.0
  0
LINE
  5
1AE
330
1F
100
AcDbEntity
  8
0
  6
Continuous
 62
     7
370
    25
100
AcDbLine
 10
139.1832384393
 20
141.2236391748
 30
0.0
 11
137.7832384393
 21
139.8236391748
 31
0.0
  0
LINE
  5
1AF
330
1F
100
AcDbEntity
  8
0
  6
Continuous
 62
     7
370
    25
100
AcDbLine
 10
137.7832384393
 20
121.6686391748
 30
0.0
 11
139.1832384393
 21
120.2686391748
 31
0.0
  0
LINE
  5
1B0
330
1F
100
AcDbEntity
  8
0
  6
Continuous
 62
     7
370
    25
100
AcDbLine
 10
128.2832384393
 20
139.7461391748
 30
0.0
 11
125.7832384393
 21
139.7461391748
 31
0.0
  0
LINE
  5
1B1
330
1F
100
AcDbEntity
  8
0
  6
Continuous
 62
     7
370
    25
100
AcDbLine
 10
125.7832384393
 20
121.7461391748
 30
0.0
 11
128.2832384393
 21
121.7461391748
 31
0.0
  0
LINE
  5
1B2
330
1F
100
AcDbEntity
  8
0
  6
Continuous
 62
     7
370
    25
100
AcDbLine
 10
135.2832384393
 20
121.7461391748
 30
0.0
 11
137.7832384393
 21
121.7461391748
 31
0.0
  0
LINE
  5
1B3
330
1F
100
AcDbEntity
  8
0
  6
Continuous
 62
     7
370
    25
100
AcDbLine
 10
137.7832384393
 20
139.7461391748
 30
0.0
 11
135.2832384393
 21
139.7461391748
 31
0.0
  0
LINE
  5
1B4
330
1F
100
AcDbEntity
  8
0
  6
Continuous
 62
     7
370
    25
100
AcDbLine
 10
106.3813146507
 20
122.7461391748
 30
0.0
 11
106.3813146507
 21
138.7461391748
 31
0.0
  0
LINE
  5
1B5
330
1F
100
AcDbEntity
  8
0
  6
Continuous
 62
     7
370
    25
100
AcDbLine
 10
100.3813146507
 20
123.7461391748
 30
0.0
 11
100.3813146507
 21
137.7461391748
 31
0.0
  0
LINE
  5
1B6
330
1F
100
AcDbEntity
  8
0
  6
Continuous
 62
     7
370
    25
100
AcDbLine
 10
95.8813146507
 20
123.7461391748
 30
0.0
 11
95.8813146507
 21
137.7461391748
 31
0.0
  0
LINE
  5
1B7
330
1F
100
AcDbEntity
  8
0
  6
Continuous
 62
     7
370
    25
100
AcDbLine
 10
91.3813146507
 20
123.7461391748
 30
0.0
 11
91.3813146507
 21
137.7461391748
 31
0.0
  0
LINE
  5
1B8
330
1F
100
AcDbEntity
  8
0
  6
Continuous
 62
     7
370
    25
100
AcDbLine
 10
86.8813146507
 20
123.7461391748
 30
0.0
 11
86.8813146507
 21
137.7461391748
 31
0.0
  0
LINE
  5
1B9
330
1F
100
AcDbEntity
  8
0
  6
Continuous
 62
     7
370
    25
100
AcDbLine
 10
82.3813146507
 20
123.7461391748
 30
0.0
 11
82.3813146507
 21
137.7461391748
 31
0.0
  0
LINE
  5
1BA
330
1F
100
AcDbEntity
  8
0
  6
Continuous
 62
     7
370
    25
100
AcDbLine
 10
76.5767009058
 20
137.0763760503
 30
0.0
 11
76.5767009058
 21
124.4159022992
 31
0.0
  0
LINE
  5
1BB
330
1F
100
AcDbEntity
  8
0
  6
Continuous
 62
     7
370
    25
100
AcDbLine
 10
75.8813146507
 20
125.2926936643
 30
0.0
 11
75.8813146507
 21
136.1995846852
 31
0.0
  0
LINE
  5
1BC
330
1F
100
AcDbEntity
  8
0
  6
Continuous
 62
     7
370
    25
100
AcDbLine
 10
157.185162228
 20
138.7461391748
 30
0.0
 11
157.185162228
 21
122.7461391748
 31
0.0
  0
LINE
  5
1BD
330
1F
100
AcDbEntity
  8
0
  6
Continuous
 62
     7
370
    25
100
AcDbLine
 10
163.185162228
 20
130.7461391748
 30
0.0
 11
163.185162228
 21
123.7461391748
 31
0.0
  0
LINE
  5
1BE
330
1F
100
AcDbEntity
  8
0
  6
Continuous
 62
     7
370
    25
100
AcDbLine
 10
163.185162228
 20
137.7461391748
 30
0.0
 11
163.185162228
 21
130.7461391748
 31
0.0
  0
LINE
  5
1BF
330
1F
100
AcDbEntity
  8
0
  6
Continuous
 62
     7
370
    25
100
AcDbLine
 10
176.685162228
 20
130.7461391748
 30
0.0
 11
176.685162228
 21
123.7461391748
 31
0.0
  0
LINE
  5
1C0
330
1F
100
AcDbEntity
  8
0
  6
Continuous
 62
     7
370
    25
100
AcDbLine
 10
176.685162228
 20
137.7461391748
 30
0.0
 11
176.685162228
 21
130.7461391748
 31
0.0
  0
LINE
  5
1C1
330
1F
100
AcDbEntity
  8
0
  6
Continuous
 62
     7
370
    25
100
AcDbLine
 10
167.685162228
 20
130.7461391748
 30
0.0
 11
167.685162228
 21
123.7461391748
 31
0.0
  0
LINE
  5
1C2
330
1F
100
AcDbEntity
  8
0
  6
Continuous
 62
     7
370
    25
100
AcDbLine
 10
167.685162228
 20
137.7461391748
 30
0.0
 11
167.685162228
 21
130.7461391748
 31
0.0
  0
LINE
  5
1C3
330
1F
100
AcDbEntity
  8
0
  6
Continuous
 62
     7
370
    25
100
AcDbLine
 10
181.185162228
 20
130.7461391748
 30
0.0
 11
181.185162228
 21
123.7461391748
 31
0.0
  0
LINE
  5
1C4
330
1F
100
AcDbEntity
  8
0
  6
Continuous
 62
     7
370
    25
100
AcDbLine
 10
181.185162228
 20
137.7461391748
 30
0.0
 11
181.185162228
 21
130.7461391748
 31
0.0
  0
LINE
  5
1C5
330
1F
100
AcDbEntity
  8
0
  6
Continuous
 62
     7
370
    25
100
AcDbLine
 10
186.9897759728
 20
130.7461391748
 30
0.0
 11
186.9897759728
 21
137.0763760503
 31
0.0
  0
LINE
  5
1C6
330
1F
100
AcDbEntity
  8
0
  6
Continuous
 62
     7
370
    25
100
AcDbLine
 10
186.9897759728
 20
124.4159022992
 30
0.0
 11
186.9897759728
 21
130.7461391748
 31
0.0
  0
LINE
  5
1C7
330
1F
100
AcDbEntity
  8
0
  6
Continuous
 62
     7
370
    25
100
AcDbLine
 10
172.185162228
 20
130.7461391748
 30
0.0
 11
172.185162228
 21
123.7461391748
 31
0.0
  0
LINE
  5
1C8
330
1F
100
AcDbEntity
  8
0
  6
Continuous
 62
     7
370
    25
100
AcDbLine
 10
172.185162228
 20
137.7461391748
 30
0.0
 11
172.185162228
 21
130.7461391748
 31
0.0
  0
LINE
  5
1C9
330
1F
100
AcDbEntity
  8
0
  6
Continuous
 62
     7
370
    25
100
AcDbLine
 10
187.685162228
 20
130.7461391748
 30
0.0
 11
187.685162228
 21
125.2926936643
 31
0.0
  0
LINE
  5
1CA
330
1F
100
AcDbEntity
  8
0
  6
Continuous
 62
     7
370
    25
100
AcDbLine
 10
187.685162228
 20
136.1995846852
 30
0.0
 11
187.685162228
 21
130.7461391748
 31
0.0
  0
LINE
  5
1CB
330
1F
100
AcDbEntity
  8
0
  6
Continuous
 62
     7
370
    25
100
AcDbLine
 10
148.8191368242
 20
142.7461391748
 30
0.0
 11
148.685162228
 21
141.8250362159
 31
0.0
  0
LINE
  5
1CC
330
1F
100
AcDbEntity
  8
0
  6
Continuous
 62
     7
370
    25
100
AcDbLine
 10
153.4690278909
 20
142.7461391748
 30
0.0
 11
148.8191368242
 21
142.7461391748
 31
0.0
  0
SPLINE
  5
1CD
330
1F
100
AcDbEntity
  8
0
  6
Continuous
 62
     7
370
    25
100
AcDbSpline
210
0.0
220
0.0
230
1.0
 70
     8
 71
     3
 72
    15
 73
    11
 74
     0
 42
0.000000001
 43
0.00000001
 40
0.0
 40
0.0
 40
0.0
 40
0.0
 40
0.1323065044264402
 40
0.2645755999739294
 40
0.3998036789671089
 40
0.5350073556765891
 40
0.6501969475405016
 40
0.7654045076453762
 40
0.8826909144168965
 40
1.0
 40
1.0
 40
1.0
 40
1.0
 10
153.4690278909311
 20
142.7461391747523
 30
0.0
 10
153.6321869728489
 20
142.2276864455438
 30
0.0
 10
153.9584590044222
 20
141.1909275765593
 30
0.0
 10
154.3095137074421
 20
139.5944101312889
 30
0.0
 10
154.5205904929712
 20
137.9677977196091
 30
0.0
 10
154.5623878032568
 20
136.400116978222
 30
0.0
 10
154.453929170556
 20
134.9171407842621
 30
0.0
 10
154.2317032614952
 20
133.5175874248367
 30
0.0
 10
153.9057254882088
 20
132.1243620085934
 30
0.0
 10
153.6146031378154
 20
131.2055763929753
 30
0.0
 10
153.4690278909311
 20
130.7461391747523
 30
0.0
  0
LINE
  5
1CE
330
1F
100
AcDbEntity
  8
0
  6
Continuous
 62
     7
370
    25
100
AcDbLine
 10
153.4690278909
 20
130.7461391748
 30
0.0
 11
148.8191368242
 21
130.7461391748
 31
0.0
  0
LINE
  5
1CF
330
1F
100
AcDbEntity
  8
0
  6
Continuous
 62
     7
370
    25
100
AcDbLine
 10
148.685162228
 20
131.6672421336
 30
0.0
 11
148.8191368242
 21
130.7461391748
 31
0.0
  0
LINE
  5
1D0
330
1F
100
AcDbEntity
  8
0
  6
Continuous
 62
     7
370
    25
100
AcDbLine
 10
148.685162228
 20
131.6672421336
 30
0.0
 11
148.5511876317
 21
130.7461391748
 31
0.0
  0
LINE
  5
1D1
330
1F
100
AcDbEntity
  8
0
  6
Continuous
 62
     7
370
    25
100
AcDbLine
 10
148.5511876317
 20
130.7461391748
 30
0.0
 11
143.901296565
 21
130.7461391748
 31
0.0
  0
SPLINE
  5
1D2
330
1F
100
AcDbEntity
  8
0
  6
Continuous
 62
     7
370
    25
100
AcDbSpline
210
0.0
220
0.0
230
1.0
 70
     8
 71
     3
 72
    15
 73
    11
 74
     0
 42
0.000000001
 43
0.00000001
 40
0.0
 40
0.0
 40
0.0
 40
0.0
 40
0.1323065044264402
 40
0.2645755999739294
 40
0.3998036789671089
 40
0.5350073556765891
 40
0.6501969475405017
 40
0.7654045076453762
 40
0.8826909144168965
 40
1.0
 40
1.0
 40
1.0
 40
1.0
 10
143.9012965649749
 20
142.7461391747523
 30
0.0
 10
143.7381374830572
 20
142.2276864455438
 30
0.0
 10
143.4118654514839
 20
141.1909275765593
 30
0.0
 10
143.060810748464
 20
139.5944101312889
 30
0.0
 10
142.8497339629349
 20
137.9677977196091
 30
0.0
 10
142.8079366526493
 20
136.400116978222
 30
0.0
 10
142.9163952853501
 20
134.9171407842621
 30
0.0
 10
143.1386211944109
 20
133.5175874248367
 30
0.0
 10
143.4645989676972
 20
132.1243620085934
 30
0.0
 10
143.7557213180907
 20
131.2055763929753
 30
0.0
 10
143.9012965649749
 20
130.7461391747523
 30
0.0
  0
LINE
  5
1D3
330
1F
100
AcDbEntity
  8
0
  6
Continuous
 62
     7
370
    25
100
AcDbLine
 10
148.5511876317
 20
142.7461391748
 30
0.0
 11
143.901296565
 21
142.7461391748
 31
0.0
  0
LINE
  5
1D4
330
1F
100
AcDbEntity
  8
0
  6
Continuous
 62
     7
370
    25
100
AcDbLine
 10
148.5511876317
 20
142.7461391748
 30
0.0
 11
148.685162228
 21
141.8250362159
 31
0.0
  0
SPLINE
  5
1D5
330
1F
100
AcDbEntity
  8
0
  6
Continuous
 62
     7
370
    25
100
AcDbSpline
210
0.0
220
0.0
230
1.0
 70
     8
 71
     3
 72
    15
 73
    11
 74
     0
 42
0.000000001
 43
0.00000001
 40
0.0
 40
0.0
 40
0.0
 40
0.0
 40
0.1323065044264403
 40
0.2645755999739298
 40
0.3998036789671094
 40
0.5350073556765897
 40
0.6501969475405023
 40
0.7654045076453768
 40
0.882690914416897
 40
1.0
 40
1.0
 40
1.0
 40
1.0
 10
143.9012965649749
 20
130.7461391747523
 30
0.0
 10
143.7381374830572
 20
130.2276864455438
 30
0.0
 10
143.4118654514839
 20
129.1909275765593
 30
0.0
 10
143.060810748464
 20
127.5944101312889
 30
0.0
 10
142.8497339629349
 20
125.967797719609
 30
0.0
 10
142.8079366526493
 20
124.400116978222
 30
0.0
 10
142.9163952853501
 20
122.9171407842621
 30
0.0
 10
143.1386211944109
 20
121.5175874248367
 30
0.0
 10
143.4645989676972
 20
120.1243620085934
 30
0.0
 10
143.7557213180907
 20
119.2055763929753
 30
0.0
 10
143.9012965649749
 20
118.7461391747523
 30
0.0
  0
SPLINE
  5
1D6
330
1F
100
AcDbEntity
  8
0
  6
Continuous
 62
     7
370
    25
100
AcDbSpline
210
0.0
220
0.0
230
1.0
 70
    24
 71
     3
 72
    11
 73
     7
 74
     0
 42
0.000000001
 43
0.00000001
 40
0.0
 40
0.0
 40
0.0
 40
0.0
 40
0.3661325478993189
 40
0.735408836356421
 40
0.9842849824267613
 40
1.0
 40
1.0
 40
1.0
 40
1.0
 10
143.9012965649749
 20
118.7461391747523
 30
0.0
 10
143.6785923459896
 20
118.7461391747523
 30
0.0
 10
143.2312716926486
 20
118.7461391747523
 30
0.0
 10
142.9188365644603
 20
118.7461391747523
 30
0.0
 10
142.8081937321163
 20
118.7461391747523
 30
0.0
 10
142.8324258894248
 20
118.7461391747523
 30
0.0
 10
142.8338651241018
 20
118.7461391747523
 30
0.0
  0
SPLINE
  5
1D7
330
1F
100
AcDbEntity
  8
0
  6
Continuous
 62
     7
370
    25
100
AcDbSpline
210
0.0
220
0.0
230
1.0
 70
    24
 71
     3
 72
    11
 73
     7
 74
     0
 42
0.000000001
 43
0.00000001
 40
0.0
 40
0.0
 40
0.0
 40
0.0
 40
0.0074635275420287
 40
0.2645848334313395
 40
0.630428363637139
 40
1.0
 40
1.0
 40
1.0
 40
1.0
 10
142.8316844880285
 20
142.7461391747523
 30
0.0
 10
142.8309594905519
 20
142.7461391747523
 30
0.0
 10
142.8052580597588
 20
142.7461391747523
 30
0.0
 10
142.9166888065398
 20
142.7461391747523
 30
0.0
 10
143.2292761165435
 20
142.7461391747523
 30
0.0
 10
143.6765339740216
 20
142.7461391747523
 30
0.0
 10
143.9012965649749
 20
142.7461391747523
 30
0.0
  0
LINE
  5
1D8
330
1F
100
AcDbEntity
  8
0
  6
Continuous
 62
     7
370
    25
100
AcDbLine
 10
142.685162228
 20
142.4961391748
 30
0.0
 11
142.685162228
 21
118.9961391748
 31
0.0
  0
SPLINE
  5
1D9
330
1F
100
AcDbEntity
  8
0
  6
Continuous
 62
     7
370
    25
100
AcDbSpline
210
0.0
220
0.0
230
1.0
 70
    24
 71
     3
 72
    11
 73
     7
 74
     0
 42
0.000000001
 43
0.00000001
 40
0.0
 40
0.0
 40
0.0
 40
0.0
 40
0.0074635275420287
 40
0.2645848334313396
 40
0.630428363637139
 40
1.0
 40
1.0
 40
1.0
 40
1.0
 10
154.5386399678776
 20
142.7461391747523
 30
0.0
 10
154.5393649653542
 20
142.7461391747523
 30
0.0
 10
154.5650663961472
 20
142.7461391747523
 30
0.0
 10
154.4536356493662
 20
142.7461391747523
 30
0.0
 10
154.1410483393626
 20
142.7461391747523
 30
0.0
 10
153.6937904818844
 20
142.7461391747523
 30
0.0
 10
153.4690278909311
 20
142.7461391747523
 30
0.0
  0
SPLINE
  5
1DA
330
1F
100
AcDbEntity
  8
0
  6
Continuous
 62
     7
370
    25
100
AcDbSpline
210
0.0
220
0.0
230
1.0
 70
    24
 71
     3
 72
    11
 73
     7
 74
     0
 42
0.000000001
 43
0.00000001
 40
0.0
 40
0.0
 40
0.0
 40
0.0
 40
0.3661325478993188
 40
0.735408836356421
 40
0.9842849824267613
 40
1.0
 40
1.0
 40
1.0
 40
1.0
 10
153.4690278909311
 20
118.7461391747523
 30
0.0
 10
153.6917321099165
 20
118.7461391747523
 30
0.0
 10
154.1390527632574
 20
118.7461391747523
 30
0.0
 10
154.4514878914458
 20
118.7461391747523
 30
0.0
 10
154.5621307237897
 20
118.7461391747523
 30
0.0
 10
154.5378985664813
 20
118.7461391747523
 30
0.0
 10
154.5364593318043
 20
118.7461391747523
 30
0.0
  0
SPLINE
  5
1DB
330
1F
100
AcDbEntity
  8
0
  6
Continuous
 62
     7
370
    25
100
AcDbSpline
210
0.0
220
0.0
230
1.0
 70
     8
 71
     3
 72
    15
 73
    11
 74
     0
 42
0.000000001
 43
0.00000001
 40
0.0
 40
0.0
 40
0.0
 40
0.0
 40
0.1323065044264403
 40
0.2645755999739298
 40
0.3998036789671094
 40
0.5350073556765897
 40
0.6501969475405023
 40
0.7654045076453768
 40
0.882690914416897
 40
1.0
 40
1.0
 40
1.0
 40
1.0
 10
153.4690278909311
 20
130.7461391747523
 30
0.0
 10
153.6321869728489
 20
130.2276864455438
 30
0.0
 10
153.9584590044221
 20
129.1909275765593
 30
0.0
 10
154.3095137074421
 20
127.5944101312889
 30
0.0
 10
154.5205904929712
 20
125.967797719609
 30
0.0
 10
154.5623878032568
 20
124.400116978222
 30
0.0
 10
154.453929170556
 20
122.9171407842621
 30
0.0
 10
154.2317032614952
 20
121.5175874248367
 30
0.0
 10
153.9057254882088
 20
120.1243620085934
 30
0.0
 10
153.6146031378154
 20
119.2055763929753
 30
0.0
 10
153.4690278909311
 20
118.7461391747523
 30
0.0
  0
LINE
  5
1DC
330
1F
100
AcDbEntity
  8
0
  6
Continuous
 62
     7
370
    25
100
AcDbLine
 10
154.685162228
 20
142.4961391748
 30
0.0
 11
154.685162228
 21
118.9961391748
 31
0.0
  0
LINE
  5
1DD
330
1F
100
AcDbEntity
  8
0
  6
Continuous
 62
     7
370
    25
100
AcDbLine
 10
148.8191368242
 20
130.7461391748
 30
0.0
 11
148.685162228
 21
129.8250362159
 31
0.0
  0
LINE
  5
1DE
330
1F
100
AcDbEntity
  8
0
  6
Continuous
 62
     7
370
    25
100
AcDbLine
 10
148.685162228
 20
131.6672421336
 30
0.0
 11
148.685162228
 21
129.8250362159
 31
0.0
  0
LINE
  5
1DF
330
1F
100
AcDbEntity
  8
0
  6
Continuous
 62
     7
370
    25
100
AcDbLine
 10
148.5511876317
 20
130.7461391748
 30
0.0
 11
148.685162228
 21
129.8250362159
 31
0.0
  0
LINE
  5
1E0
330
1F
100
AcDbEntity
  8
0
  6
Continuous
 62
     7
370
    25
100
AcDbLine
 10
153.4690278909
 20
118.7461391748
 30
0.0
 11
148.8191368242
 21
118.7461391748
 31
0.0
  0
LINE
  5
1E1
330
1F
100
AcDbEntity
  8
0
  6
Continuous
 62
     7
370
    25
100
AcDbLine
 10
148.685162228
 20
119.6672421336
 30
0.0
 11
148.8191368242
 21
118.7461391748
 31
0.0
  0
LINE
  5
1E2
330
1F
100
AcDbEntity
  8
0
  6
Continuous
 62
     7
370
    25
100
AcDbLine
 10
148.685162228
 20
119.6672421336
 30
0.0
 11
148.5511876317
 21
118.7461391748
 31
0.0
  0
LINE
  5
1E3
330
1F
100
AcDbEntity
  8
0
  6
Continuous
 62
     7
370
    25
100
AcDbLine
 10
148.5511876317
 20
118.7461391748
 30
0.0
 11
143.901296565
 21
118.7461391748
 31
0.0
  0
LINE
  5
1E4
330
1F
100
AcDbEntity
  8
0
  6
Continuous
 62
     7
370
    25
100
AcDbLine
 10
156.685162228
 20
141.9961391748
 30
0.0
 11
156.685162228
 21
119.4961391748
 31
0.0
  0
LINE
  5
1E5
330
1F
100
AcDbEntity
  8
0
  6
Continuous
 62
     7
370
    25
100
AcDbLine
 10
156.185162228
 20
118.9961391748
 30
0.0
 11
156.185162228
 21
142.4961391748
 31
0.0
  0
LINE
  5
1E6
330
1F
100
AcDbEntity
  8
0
  6
Continuous
 62
     7
370
    25
100
AcDbLine
 10
141.185162228
 20
142.4961391748
 30
0.0
 11
141.185162228
 21
118.9961391748
 31
0.0
  0
LINE
  5
1E7
330
1F
100
AcDbEntity
  8
0
  6
Continuous
 62
     7
370
    25
100
AcDbLine
 10
140.685162228
 20
119.4961391748
 30
0.0
 11
140.685162228
 21
141.9961391748
 31
0.0
  0
LINE
  5
1E8
330
1F
100
AcDbEntity
  8
0
  6
Continuous
 62
     7
370
    25
100
AcDbLine
 10
148.685162228
 20
142.7461391748
 30
0.0
 11
148.5511876317
 21
142.7461391748
 31
0.0
  0
LINE
  5
1E9
330
1F
100
AcDbEntity
  8
0
  6
Continuous
 62
     7
370
    25
100
AcDbLine
 10
148.685162228
 20
142.7461391748
 30
0.0
 11
148.685162228
 21
141.8250362159
 31
0.0
  0
LINE
  5
1EA
330
1F
100
AcDbEntity
  8
0
  6
Continuous
 62
     7
370
    25
100
AcDbLine
 10
148.685162228
 20
142.7461391748
 30
0.0
 11
148.8191368242
 21
142.7461391748
 31
0.0
  0
LINE
  5
1EB
330
1F
100
AcDbEntity
  8
0
  6
Continuous
 62
     7
370
    25
100
AcDbLine
 10
148.8191368242
 20
118.7461391748
 30
0.0
 11
148.685162228
 21
118.7461391748
 31
0.0
  0
LINE
  5
1EC
330
1F
100
AcDbEntity
  8
0
  6
Continuous
 62
     7
370
    25
100
AcDbLine
 10
148.685162228
 20
119.6672421336
 30
0.0
 11
148.685162228
 21
118.7461391748
 31
0.0
  0
LINE
  5
1ED
330
1F
100
AcDbEntity
  8
0
  6
Continuous
 62
     7
370
    25
100
AcDbLine
 10
148.5511876317
 20
118.7461391748
 30
0.0
 11
148.685162228
 21
118.7461391748
 31
0.0
  0
LINE
  5
1EE
330
1F
100
AcDbEntity
  8
0
  6
Continuous
 62
     7
370
    25
100
AcDbLine
 10
114.7473400544
 20
130.7461391748
 30
0.0
 11
114.8813146507
 21
131.6672421336
 31
0.0
  0
LINE
  5
1EF
330
1F
100
AcDbEntity
  8
0
  6
Continuous
 62
     7
370
    25
100
AcDbLine
 10
110.0974489877
 20
130.7461391748
 30
0.0
 11
114.7473400544
 21
130.7461391748
 31
0.0
  0
SPLINE
  5
1F0
330
1F
100
AcDbEntity
  8
0
  6
Continuous
 62
     7
370
    25
100
AcDbSpline
210
0.0
220
0.0
230
1.0
 70
     8
 71
     3
 72
    15
 73
    11
 74
     0
 42
0.000000001
 43
0.00000001
 40
0.0
 40
0.0
 40
0.0
 40
0.0
 40
0.1323065044264403
 40
0.2645755999739298
 40
0.3998036789671094
 40
0.5350073556765897
 40
0.6501969475405023
 40
0.7654045076453768
 40
0.882690914416897
 40
1.0
 40
1.0
 40
1.0
 40
1.0
 10
110.0974489876815
 20
130.7461391747523
 30
0.0
 10
109.9342899057638
 20
131.2645919039608
 30
0.0
 10
109.6080178741905
 20
132.3013507729453
 30
0.0
 10
109.2569631711706
 20
133.8978682182156
 30
0.0
 10
109.0458863856415
 20
135.5244806298955
 30
0.0
 10
109.0040890753559
 20
137.0921613712825
 30
0.0
 10
109.1125477080567
 20
138.5751375652424
 30
0.0
 10
109.3347736171175
 20
139.9746909246678
 30
0.0
 10
109.6607513904038
 20
141.3679163409112
 30
0.0
 10
109.9518737407973
 20
142.2867019565293
 30
0.0
 10
110.0974489876815
 20
142.7461391747523
 30
0.0
  0
LINE
  5
1F1
330
1F
100
AcDbEntity
  8
0
  6
Continuous
 62
     7
370
    25
100
AcDbLine
 10
110.0974489877
 20
142.7461391748
 30
0.0
 11
114.7473400544
 21
142.7461391748
 31
0.0
  0
LINE
  5
1F2
330
1F
100
AcDbEntity
  8
0
  6
Continuous
 62
     7
370
    25
100
AcDbLine
 10
114.8813146507
 20
141.8250362159
 30
0.0
 11
114.7473400544
 21
142.7461391748
 31
0.0
  0
LINE
  5
1F3
330
1F
100
AcDbEntity
  8
0
  6
Continuous
 62
     7
370
    25
100
AcDbLine
 10
114.8813146507
 20
141.8250362159
 30
0.0
 11
115.0152892469
 21
142.7461391748
 31
0.0
  0
LINE
  5
1F4
330
1F
100
AcDbEntity
  8
0
  6
Continuous
 62
     7
370
    25
100
AcDbLine
 10
115.0152892469
 20
142.7461391748
 30
0.0
 11
119.6651803136
 21
142.7461391748
 31
0.0
  0
SPLINE
  5
1F5
330
1F
100
AcDbEntity
  8
0
  6
Continuous
 62
     7
370
    25
100
AcDbSpline
210
0.0
220
0.0
230
1.0
 70
     8
 71
     3
 72
    15
 73
    11
 74
     0
 42
0.000000001
 43
0.00000001
 40
0.0
 40
0.0
 40
0.0
 40
0.0
 40
0.1323065044264403
 40
0.2645755999739298
 40
0.3998036789671094
 40
0.5350073556765897
 40
0.6501969475405023
 40
0.7654045076453768
 40
0.882690914416897
 40
1.0
 40
1.0
 40
1.0
 40
1.0
 10
119.6651803136377
 20
130.7461391747523
 30
0.0
 10
119.8283393955555
 20
131.2645919039608
 30
0.0
 10
120.1546114271288
 20
132.3013507729453
 30
0.0
 10
120.5056661301487
 20
133.8978682182156
 30
0.0
 10
120.7167429156778
 20
135.5244806298955
 30
0.0
 10
120.7585402259634
 20
137.0921613712825
 30
0.0
 10
120.6500815932626
 20
138.5751375652424
 30
0.0
 10
120.4278556842018
 20
139.9746909246678
 30
0.0
 10
120.1018779109155
 20
141.3679163409112
 30
0.0
 10
119.810755560522
 20
142.2867019565293
 30
0.0
 10
119.6651803136377
 20
142.7461391747523
 30
0.0
  0
LINE
  5
1F6
330
1F
100
AcDbEntity
  8
0
  6
Continuous
 62
     7
370
    25
100
AcDbLine
 10
115.0152892469
 20
130.7461391748
 30
0.0
 11
119.6651803136
 21
130.7461391748
 31
0.0
  0
LINE
  5
1F7
330
1F
100
AcDbEntity
  8
0
  6
Continuous
 62
     7
370
    25
100
AcDbLine
 10
115.0152892469
 20
130.7461391748
 30
0.0
 11
114.8813146507
 21
131.6672421336
 31
0.0
  0
SPLINE
  5
1F8
330
1F
100
AcDbEntity
  8
0
  6
Continuous
 62
     7
370
    25
100
AcDbSpline
210
0.0
220
0.0
230
1.0
 70
     8
 71
     3
 72
    15
 73
    11
 74
     0
 42
0.000000001
 43
0.00000001
 40
0.0
 40
0.0
 40
0.0
 40
0.0
 40
0.1323065044264402
 40
0.2645755999739294
 40
0.3998036789671089
 40
0.535007355676589
 40
0.6501969475405016
 40
0.7654045076453762
 40
0.8826909144168965
 40
1.0
 40
1.0
 40
1.0
 40
1.0
 10
110.0974489876815
 20
118.7461391747523
 30
0.0
 10
109.9342899057638
 20
119.2645919039607
 30
0.0
 10
109.6080178741905
 20
120.3013507729453
 30
0.0
 10
109.2569631711706
 20
121.8978682182156
 30
0.0
 10
109.0458863856415
 20
123.5244806298955
 30
0.0
 10
109.0040890753559
 20
125.0921613712825
 30
0.0
 10
109.1125477080567
 20
126.5751375652424
 30
0.0
 10
109.3347736171175
 20
127.9746909246678
 30
0.0
 10
109.6607513904038
 20
129.3679163409112
 30
0.0
 10
109.9518737407973
 20
130.2867019565293
 30
0.0
 10
110.0974489876815
 20
130.7461391747523
 30
0.0
  0
SPLINE
  5
1F9
330
1F
100
AcDbEntity
  8
0
  6
Continuous
 62
     7
370
    25
100
AcDbSpline
210
0.0
220
0.0
230
1.0
 70
    24
 71
     3
 72
    11
 73
     7
 74
     0
 42
0.000000001
 43
0.00000001
 40
0.0
 40
0.0
 40
0.0
 40
0.0
 40
0.0074635275420167
 40
0.2645848334313307
 40
0.6304283636371346
 40
1.0
 40
1.0
 40
1.0
 40
1.0
 10
109.0278369107351
 20
118.7461391747523
 30
0.0
 10
109.0271119132585
 20
118.7461391747523
 30
0.0
 10
109.0014104824655
 20
118.7461391747523
 30
0.0
 10
109.1128412292464
 20
118.7461391747523
 30
0.0
 10
109.4254285392501
 20
118.7461391747523
 30
0.0
 10
109.8726863967282
 20
118.7461391747523
 30
0.0
 10
110.0974489876815
 20
118.7461391747523
 30
0.0
  0
SPLINE
  5
1FA
330
1F
100
AcDbEntity
  8
0
  6
Continuous
 62
     7
370
    25
100
AcDbSpline
210
0.0
220
0.0
230
1.0
 70
    24
 71
     3
 72
    11
 73
     7
 74
     0
 42
0.000000001
 43
0.00000001
 40
0.0
 40
0.0
 40
0.0
 40
0.0
 40
0.3661325478993145
 40
0.7354088363564123
 40
0.9842849824267497
 40
1.0
 40
1.0
 40
1.0
 40
1.0
 10
110.0974489876815
 20
142.7461391747523
 30
0.0
 10
109.8747447686962
 20
142.7461391747523
 30
0.0
 10
109.4274241153553
 20
142.7461391747523
 30
0.0
 10
109.1149889871669
 20
142.7461391747523
 30
0.0
 10
109.004346154823
 20
142.7461391747523
 30
0.0
 10
109.0285783121314
 20
142.7461391747523
 30
0.0
 10
109.0300175468084
 20
142.7461391747523
 30
0.0
  0
LINE
  5
1FB
330
1F
100
AcDbEntity
  8
0
  6
Continuous
 62
     7
370
    25
100
AcDbLine
 10
108.8813146507
 20
118.9961391748
 30
0.0
 11
108.8813146507
 21
142.4961391748
 31
0.0
  0
SPLINE
  5
1FC
330
1F
100
AcDbEntity
  8
0
  6
Continuous
 62
     7
370
    25
100
AcDbSpline
210
0.0
220
0.0
230
1.0
 70
     8
 71
     3
 72
    15
 73
    11
 74
     0
 42
0.000000001
 43
0.00000001
 40
0.0
 40
0.0
 40
0.0
 40
0.0
 40
0.1323065044264402
 40
0.2645755999739294
 40
0.3998036789671089
 40
0.5350073556765891
 40
0.6501969475405017
 40
0.7654045076453762
 40
0.8826909144168965
 40
1.0
 40
1.0
 40
1.0
 40
1.0
 10
119.6651803136377
 20
118.7461391747523
 30
0.0
 10
119.8283393955555
 20
119.2645919039607
 30
0.0
 10
120.1546114271288
 20
120.3013507729453
 30
0.0
 10
120.5056661301487
 20
121.8978682182156
 30
0.0
 10
120.7167429156778
 20
123.5244806298955
 30
0.0
 10
120.7585402259634
 20
125.0921613712825
 30
0.0
 10
120.6500815932626
 20
126.5751375652424
 30
0.0
 10
120.4278556842018
 20
127.9746909246678
 30
0.0
 10
120.1018779109155
 20
129.3679163409112
 30
0.0
 10
119.810755560522
 20
130.2867019565293
 30
0.0
 10
119.6651803136377
 20
130.7461391747523
 30
0.0
  0
SPLINE
  5
1FD
330
1F
100
AcDbEntity
  8
0
  6
Continuous
 62
     7
370
    25
100
AcDbSpline
210
0.0
220
0.0
230
1.0
 70
    24
 71
     3
 72
    11
 73
     7
 74
     0
 42
0.000000001
 43
0.00000001
 40
0.0
 40
0.0
 40
0.0
 40
0.0
 40
0.3661325478993146
 40
0.7354088363564123
 40
0.9842849824267497
 40
1.0
 40
1.0
 40
1.0
 40
1.0
 10
119.6651803136377
 20
142.7461391747523
 30
0.0
 10
119.8878845326231
 20
142.7461391747523
 30
0.0
 10
120.335205185964
 20
142.7461391747523
 30
0.0
 10
120.6476403141524
 20
142.7461391747523
 30
0.0
 10
120.7582831464964
 20
142.7461391747523
 30
0.0
 10
120.7340509891879
 20
142.7461391747523
 30
0.0
 10
120.7326117545109
 20
142.7461391747523
 30
0.0
  0
SPLINE
  5
1FE
330
1F
100
AcDbEntity
  8
0
  6
Continuous
 62
     7
370
    25
100
AcDbSpline
210
0.0
220
0.0
230
1.0
 70
    24
 71
     3
 72
    11
 73
     7
 74
     0
 42
0.000000001
 43
0.00000001
 40
0.0
 40
0.0
 40
0.0
 40
0.0
 40
0.0074635275420166
 40
0.2645848334313307
 40
0.6304283636371346
 40
1.0
 40
1.0
 40
1.0
 40
1.0
 10
120.7347923905842
 20
118.7461391747523
 30
0.0
 10
120.7355173880608
 20
118.7461391747523
 30
0.0
 10
120.7612188188539
 20
118.7461391747523
 30
0.0
 10
120.6497880720728
 20
118.7461391747523
 30
0.0
 10
120.3372007620692
 20
118.7461391747523
 30
0.0
 10
119.8899429045911
 20
118.7461391747523
 30
0.0
 10
119.6651803136377
 20
118.7461391747523
 30
0.0
  0
LINE
  5
1FF
330
1F
100
AcDbEntity
  8
0
  6
Continuous
 62
     7
370
    25
100
AcDbLine
 10
120.8813146507
 20
118.9961391748
 30
0.0
 11
120.8813146507
 21
142.4961391748
 31
0.0
  0
LINE
  5
200
330
1F
100
AcDbEntity
  8
0
  6
Continuous
 62
     7
370
    25
100
AcDbLine
 10
114.8813146507
 20
129.8250362159
 30
0.0
 11
114.7473400544
 21
130.7461391748
 31
0.0
  0
LINE
  5
201
330
1F
100
AcDbEntity
  8
0
  6
Continuous
 62
     7
370
    25
100
AcDbLine
 10
114.8813146507
 20
129.8250362159
 30
0.0
 11
114.8813146507
 21
131.6672421336
 31
0.0
  0
LINE
  5
202
330
1F
100
AcDbEntity
  8
0
  6
Continuous
 62
     7
370
    25
100
AcDbLine
 10
114.8813146507
 20
129.8250362159
 30
0.0
 11
115.0152892469
 21
130.7461391748
 31
0.0
  0
LINE
  5
203
330
1F
100
AcDbEntity
  8
0
  6
Continuous
 62
     7
370
    25
100
AcDbLine
 10
114.7473400544
 20
118.7461391748
 30
0.0
 11
114.8813146507
 21
119.6672421336
 31
0.0
  0
LINE
  5
204
330
1F
100
AcDbEntity
  8
0
  6
Continuous
 62
     7
370
    25
100
AcDbLine
 10
110.0974489877
 20
118.7461391748
 30
0.0
 11
114.7473400544
 21
118.7461391748
 31
0.0
  0
LINE
  5
205
330
1F
100
AcDbEntity
  8
0
  6
Continuous
 62
     7
370
    25
100
AcDbLine
 10
115.0152892469
 20
118.7461391748
 30
0.0
 11
119.6651803136
 21
118.7461391748
 31
0.0
  0
LINE
  5
206
330
1F
100
AcDbEntity
  8
0
  6
Continuous
 62
     7
370
    25
100
AcDbLine
 10
115.0152892469
 20
118.7461391748
 30
0.0
 11
114.8813146507
 21
119.6672421336
 31
0.0
  0
LINE
  5
207
330
1F
100
AcDbEntity
  8
0
  6
Continuous
 62
     7
370
    25
100
AcDbLine
 10
106.8813146507
 20
119.4961391748
 30
0.0
 11
106.8813146507
 21
141.9961391748
 31
0.0
  0
LINE
  5
208
330
1F
100
AcDbEntity
  8
0
  6
Continuous
 62
     7
370
    25
100
AcDbLine
 10
107.3813146507
 20
142.4961391748
 30
0.0
 11
107.3813146507
 21
118.9961391748
 31
0.0
  0
LINE
  5
209
330
1F
100
AcDbEntity
  8
0
  6
Continuous
 62
     7
370
    25
100
AcDbLine
 10
122.3813146507
 20
118.9961391748
 30
0.0
 11
122.3813146507
 21
142.4961391748
 31
0.0
  0
LINE
  5
20A
330
1F
100
AcDbEntity
  8
0
  6
Continuous
 62
     7
370
    25
100
AcDbLine
 10
122.8813146507
 20
141.9961391748
 30
0.0
 11
122.8813146507
 21
119.4961391748
 31
0.0
  0
LINE
  5
20B
330
1F
100
AcDbEntity
  8
0
  6
Continuous
 62
     7
370
    25
100
AcDbLine
 10
114.8813146507
 20
141.8250362159
 30
0.0
 11
114.8813146507
 21
142.7461391748
 31
0.0
  0
LINE
  5
20C
330
1F
100
AcDbEntity
  8
0
  6
Continuous
 62
     7
370
    25
100
AcDbLine
 10
115.0152892469
 20
142.7461391748
 30
0.0
 11
114.8813146507
 21
142.7461391748
 31
0.0
  0
LINE
  5
20D
330
1F
100
AcDbEntity
  8
0
  6
Continuous
 62
     7
370
    25
100
AcDbLine
 10
114.7473400544
 20
142.7461391748
 30
0.0
 11
114.8813146507
 21
142.7461391748
 31
0.0
  0
LINE
  5
20E
330
1F
100
AcDbEntity
  8
0
  6
Continuous
 62
     7
370
    25
100
AcDbLine
 10
114.8813146507
 20
118.7461391748
 30
0.0
 11
115.0152892469
 21
118.7461391748
 31
0.0
  0
LINE
  5
20F
330
1F
100
AcDbEntity
  8
0
  6
Continuous
 62
     7
370
    25
100
AcDbLine
 10
114.8813146507
 20
118.7461391748
 30
0.0
 11
114.8813146507
 21
119.6672421336
 31
0.0
  0
LINE
  5
210
330
1F
100
AcDbEntity
  8
0
  6
Continuous
 62
     7
370
    25
100
AcDbLine
 10
114.8813146507
 20
118.7461391748
 30
0.0
 11
114.7473400544
 21
118.7461391748
 31
0.0
  0
LINE
  5
211
330
1F
100
AcDbEntity
  8
0
  6
Continuous
 62
     7
370
    25
100
AcDbLine
 10
129.4100563789
 20
130.7461391748
 30
0.0
 11
131.7028536816
 21
130.7461391748
 31
0.0
  0
SPLINE
  5
212
330
1F
100
AcDbEntity
  8
0
  6
Continuous
 62
     7
370
    25
100
AcDbSpline
210
0.0
220
0.0
230
1.0
 70
     8
 71
     3
 72
    16
 73
    12
 74
     0
 42
0.000000001
 43
0.00000001
 40
0.0
 40
0.0
 40
0.0
 40
0.0
 40
0.2500000000000002
 40
0.2500000000000002
 40
0.5000000000000004
 40
0.5000000000000004
 40
0.6250000000000003
 40
0.6250000000000003
 40
0.7500000000000002
 40
0.7500000000000002
 40
1.0
 40
1.0
 40
1.0
 40
1.0
 10
129.4100563788509
 20
130.7461391747522
 30
0.0
 10
129.1107078206679
 20
131.6441848493013
 30
0.0
 10
128.8639903938063
 20
132.5487779502099
 30
0.0
 10
128.52220666145
 20
134.3768298789182
 30
0.0
 10
128.428267753065
 20
135.3004289573523
 30
0.0
 10
128.4272359315855
 20
136.7032285186894
 30
0.0
 10
128.4502003384418
 20
137.1730288626346
 30
0.0
 10
128.5397494647275
 20
138.1023434470416
 30
0.0
 10
128.606243298795
 20
138.5638850940646
 30
0.0
 10
128.8630065956088
 20
139.9402929201149
 30
0.0
 10
129.1103346546292
 20
140.8469740020869
 30
0.0
 10
129.410056378851
 20
141.7461391747523
 30
0.0
  0
LINE
  5
213
330
1F
100
AcDbEntity
  8
0
  6
Continuous
 62
     7
370
    25
100
AcDbLine
 10
129.4100563789
 20
141.7461391748
 30
0.0
 11
131.7028536816
 21
141.7461391748
 31
0.0
  0
SPLINE
  5
214
330
1F
100
AcDbEntity
  8
0
  6
Continuous
 62
     7
370
    25
100
AcDbSpline
210
0.0
220
0.0
230
1.0
 70
     8
 71
     3
 72
     8
 73
     4
 74
     0
 42
0.000000001
 43
0.00000001
 40
0.0
 40
0.0
 40
0.0
 40
0.0
 40
1.0
 40
1.0
 40
1.0
 40
1.0
 10
131.7832384393063
 20
141.2061525149584
 30
0.0
 10
131.757497489473
 20
141.3863015596351
 30
0.0
 10
131.7306759452121
 20
141.5662932354518
 30
0.0
 10
131.702853681577
 20
141.7461391747523
 30
0.0
  0
SPLINE
  5
215
330
1F
100
AcDbEntity
  8
0
  6
Continuous
 62
     7
370
    25
100
AcDbSpline
210
0.0
220
0.0
230
1.0
 70
     8
 71
     3
 72
     8
 73
     4
 74
     0
 42
0.000000001
 43
0.00000001
 40
0.0
 40
0.0
 40
0.0
 40
0.0
 40
1.0
 40
1.0
 40
1.0
 40
1.0
 10
131.8636231970357
 20
141.7461391747523
 30
0.0
 10
131.8357915239786
 20
141.5662324119919
 30
0.0
 10
131.8089704641125
 20
141.3862390974836
 30
0.0
 10
131.7832384393063
 20
141.2061525149584
 30
0.0
  0
LINE
  5
216
330
1F
100
AcDbEntity
  8
0
  6
Continuous
 62
     7
370
    25
100
AcDbLine
 10
131.863623197
 20
141.7461391748
 30
0.0
 11
134.1564204998
 21
141.7461391748
 31
0.0
  0
SPLINE
  5
217
330
1F
100
AcDbEntity
  8
0
  6
Continuous
 62
     7
370
    25
100
AcDbSpline
210
0.0
220
0.0
230
1.0
 70
     8
 71
     3
 72
    16
 73
    12
 74
     0
 42
0.000000001
 43
0.00000001
 40
0.0
 40
0.0
 40
0.0
 40
0.0
 40
0.2500000000000002
 40
0.2500000000000002
 40
0.5000000000000004
 40
0.5000000000000004
 40
0.6250000000000003
 40
0.6250000000000003
 40
0.7500000000000002
 40
0.7500000000000002
 40
1.0
 40
1.0
 40
1.0
 40
1.0
 10
134.1564204997618
 20
130.7461391747522
 30
0.0
 10
134.4557690579448
 20
131.6441848493013
 30
0.0
 10
134.7024864848064
 20
132.5487779502099
 30
0.0
 10
135.0442702171627
 20
134.3768298789182
 30
0.0
 10
135.1382091255476
 20
135.3004289573523
 30
0.0
 10
135.1392409470272
 20
136.7032285186894
 30
0.0
 10
135.1162765401708
 20
137.1730288626346
 30
0.0
 10
135.0267274138852
 20
138.1023434470416
 30
0.0
 10
134.9602335798177
 20
138.5638850940646
 30
0.0
 10
134.7034702830039
 20
139.9402929201149
 30
0.0
 10
134.4561422239834
 20
140.8469740020869
 30
0.0
 10
134.1564204997617
 20
141.7461391747523
 30
0.0
  0
LINE
  5
218
330
1F
100
AcDbEntity
  8
0
  6
Continuous
 62
     7
370
    25
100
AcDbLine
 10
131.863623197
 20
130.7461391748
 30
0.0
 11
134.1564204998
 21
130.7461391748
 31
0.0
  0
SPLINE
  5
219
330
1F
100
AcDbEntity
  8
0
  6
Continuous
 62
     7
370
    25
100
AcDbSpline
210
0.0
220
0.0
230
1.0
 70
     8
 71
     3
 72
     8
 73
     4
 74
     0
 42
0.000000001
 43
0.00000001
 40
0.0
 40
0.0
 40
0.0
 40
0.0
 40
1.0
 40
1.0
 40
1.0
 40
1.0
 10
131.7832384393063
 20
131.2861258345462
 30
0.0
 10
131.8089793891397
 20
131.1059767898694
 30
0.0
 10
131.8358009334005
 20
130.9259851140528
 30
0.0
 10
131.8636231970357
 20
130.7461391747523
 30
0.0
  0
SPLINE
  5
21A
330
1F
100
AcDbEntity
  8
0
  6
Continuous
 62
     7
370
    25
100
AcDbSpline
210
0.0
220
0.0
230
1.0
 70
     8
 71
     3
 72
     8
 73
     4
 74
     0
 42
0.000000001
 43
0.00000001
 40
0.0
 40
0.0
 40
0.0
 40
0.0
 40
1.0
 40
1.0
 40
1.0
 40
1.0
 10
131.702853681577
 20
130.7461391747523
 30
0.0
 10
131.7306853546341
 20
130.9260459375127
 30
0.0
 10
131.7575064145001
 20
131.106039252021
 30
0.0
 10
131.7832384393063
 20
131.2861258345462
 30
0.0
  0
SPLINE
  5
21B
330
1F
100
AcDbEntity
  8
0
  6
Continuous
 62
     7
370
    25
100
AcDbSpline
210
0.0
220
0.0
230
1.0
 70
    24
 71
     3
 72
    10
 73
     6
 74
     0
 42
0.000000001
 43
0.00000001
 40
0.0
 40
0.0
 40
0.0
 40
0.0
 40
0.234273131644454
 40
0.6149864780052532
 40
0.9999999999999999
 40
0.9999999999999999
 40
0.9999999999999999
 40
0.9999999999999999
 10
128.4338882637277
 20
119.7461391747523
 30
0.0
 10
128.4436335965711
 20
119.7461391747523
 30
0.0
 10
128.4692159067591
 20
119.7461391747523
 30
0.0
 10
128.7786375686473
 20
119.7461391747523
 30
0.0
 10
129.1987969305787
 20
119.7461391747523
 30
0.0
 10
129.4100563788512
 20
119.7461391747524
 30
0.0
  0
SPLINE
  5
21C
330
1F
100
AcDbEntity
  8
0
  6
Continuous
 62
     7
370
    25
100
AcDbSpline
210
0.0
220
0.0
230
1.0
 70
    24
 71
     3
 72
    10
 73
     6
 74
     0
 42
0.000000001
 43
0.00000001
 40
0.0
 40
0.0
 40
0.0
 40
0.0
 40
0.3810548970659027
 40
0.7657226776321222
 40
1.0
 40
1.0
 40
1.0
 40
1.0
 10
129.4100563788512
 20
141.7461391747523
 30
0.0
 10
129.2007180394338
 20
141.7461391747523
 30
0.0
 10
128.780056567756
 20
141.7461391747523
 30
0.0
 10
128.4703818404305
 20
141.7461391747523
 30
0.0
 10
128.4423771649208
 20
141.7461391747523
 30
0.0
 10
128.431777096577
 20
141.7461391747523
 30
0.0
  0
SPLINE
  5
21D
330
1F
100
AcDbEntity
  8
0
  6
Continuous
 62
     7
370
    25
100
AcDbSpline
210
0.0
220
0.0
230
1.0
 70
     8
 71
     3
 72
    16
 73
    12
 74
     0
 42
0.000000001
 43
0.00000001
 40
0.0
 40
0.0
 40
0.0
 40
0.0
 40
0.2500000000000002
 40
0.2500000000000002
 40
0.5000000000000003
 40
0.5000000000000003
 40
0.6250000000000003
 40
0.6250000000000003
 40
0.7500000000000002
 40
0.7500000000000002
 40
1.0
 40
1.0
 40
1.0
 40
1.0
 10
129.4100563788509
 20
119.7461391747523
 30
0.0
 10
129.1107078206679
 20
120.6441848493014
 30
0.0
 10
128.8639903938063
 20
121.5487779502099
 30
0.0
 10
128.52220666145
 20
123.3768298789182
 30
0.0
 10
128.428267753065
 20
124.3004289573523
 30
0.0
 10
128.4272359315855
 20
125.7032285186895
 30
0.0
 10
128.4502003384419
 20
126.1730288626346
 30
0.0
 10
128.5397494647275
 20
127.1023434470416
 30
0.0
 10
128.606243298795
 20
127.5638850940646
 30
0.0
 10
128.8630065956088
 20
128.9402929201149
 30
0.0
 10
129.1103346546292
 20
129.8469740020869
 30
0.0
 10
129.410056378851
 20
130.7461391747523
 30
0.0
  0
LINE
  5
21E
330
1F
100
AcDbEntity
  8
0
  6
Continuous
 62
     7
370
    25
100
AcDbLine
 10
128.2832384393
 20
119.9961391748
 30
0.0
 11
128.2832384393
 21
141.4961391748
 31
0.0
  0
SPLINE
  5
21F
330
1F
100
AcDbEntity
  8
0
  6
Continuous
 62
     7
370
    25
100
AcDbSpline
210
0.0
220
0.0
230
1.0
 70
     8
 71
     3
 72
    16
 73
    12
 74
     0
 42
0.000000001
 43
0.00000001
 40
0.0
 40
0.0
 40
0.0
 40
0.0
 40
0.2500000000000002
 40
0.2500000000000002
 40
0.5000000000000003
 40
0.5000000000000003
 40
0.6250000000000003
 40
0.6250000000000003
 40
0.7500000000000002
 40
0.7500000000000002
 40
1.0
 40
1.0
 40
1.0
 40
1.0
 10
134.1564204997618
 20
119.7461391747523
 30
0.0
 10
134.4557690579448
 20
120.6441848493014
 30
0.0
 10
134.7024864848064
 20
121.5487779502099
 30
0.0
 10
135.0442702171627
 20
123.3768298789182
 30
0.0
 10
135.1382091255476
 20
124.3004289573523
 30
0.0
 10
135.1392409470271
 20
125.7032285186895
 30
0.0
 10
135.1162765401708
 20
126.1730288626346
 30
0.0
 10
135.0267274138852
 20
127.1023434470416
 30
0.0
 10
134.9602335798176
 20
127.5638850940646
 30
0.0
 10
134.7034702830039
 20
128.9402929201149
 30
0.0
 10
134.4561422239834
 20
129.8469740020869
 30
0.0
 10
134.1564204997617
 20
130.7461391747523
 30
0.0
  0
SPLINE
  5
220
330
1F
100
AcDbEntity
  8
0
  6
Continuous
 62
     7
370
    25
100
AcDbSpline
210
0.0
220
0.0
230
1.0
 70
    24
 71
     3
 72
    10
 73
     6
 74
     0
 42
0.000000001
 43
0.00000001
 40
0.0
 40
0.0
 40
0.0
 40
0.0
 40
0.3810548970659027
 40
0.7657226776321222
 40
1.0
 40
1.0
 40
1.0
 40
1.0
 10
134.1564204997615
 20
141.7461391747523
 30
0.0
 10
134.3657588391789
 20
141.7461391747523
 30
0.0
 10
134.7864203108567
 20
141.7461391747523
 30
0.0
 10
135.0960950381822
 20
141.7461391747523
 30
0.0
 10
135.1240997136919
 20
141.7461391747523
 30
0.0
 10
135.1346997820357
 20
141.7461391747523
 30
0.0
  0
SPLINE
  5
221
330
1F
100
AcDbEntity
  8
0
  6
Continuous
 62
     7
370
    25
100
AcDbSpline
210
0.0
220
0.0
230
1.0
 70
    24
 71
     3
 72
    10
 73
     6
 74
     0
 42
0.000000001
 43
0.00000001
 40
0.0
 40
0.0
 40
0.0
 40
0.0
 40
0.2342731316444541
 40
0.6149864780052532
 40
0.9999999999999999
 40
0.9999999999999999
 40
0.9999999999999999
 40
0.9999999999999999
 10
135.132588614885
 20
119.7461391747523
 30
0.0
 10
135.1228432820415
 20
119.7461391747523
 30
0.0
 10
135.0972609718536
 20
119.7461391747523
 30
0.0
 10
134.7878393099654
 20
119.7461391747523
 30
0.0
 10
134.367679948034
 20
119.7461391747523
 30
0.0
 10
134.1564204997615
 20
119.7461391747524
 30
0.0
  0
LINE
  5
222
330
1F
100
AcDbEntity
  8
0
  6
Continuous
 62
     7
370
    25
100
AcDbLine
 10
135.2832384393
 20
119.9961391748
 30
0.0
 11
135.2832384393
 21
141.4961391748
 31
0.0
  0
SPLINE
  5
223
330
1F
100
AcDbEntity
  8
0
  6
Continuous
 62
     7
370
    25
100
AcDbSpline
210
0.0
220
0.0
230
1.0
 70
     8
 71
     3
 72
     8
 73
     4
 74
     0
 42
0.000000001
 43
0.00000001
 40
0.0
 40
0.0
 40
0.0
 40
0.0
 40
1.0
 40
1.0
 40
1.0
 40
1.0
 10
131.7832384393063
 20
130.2061525149584
 30
0.0
 10
131.757497489473
 20
130.3863015596351
 30
0.0
 10
131.7306759452121
 20
130.5662932354518
 30
0.0
 10
131.702853681577
 20
130.7461391747523
 30
0.0
  0
LINE
  5
224
330
1F
100
AcDbEntity
  8
0
  6
Continuous
 62
     7
370
    25
100
AcDbLine
 10
131.7832384393
 20
130.206152515
 30
0.0
 11
131.7832384393
 21
131.2861258345
 31
0.0
  0
SPLINE
  5
225
330
1F
100
AcDbEntity
  8
0
  6
Continuous
 62
     7
370
    25
100
AcDbSpline
210
0.0
220
0.0
230
1.0
 70
     8
 71
     3
 72
     8
 73
     4
 74
     0
 42
0.000000001
 43
0.00000001
 40
0.0
 40
0.0
 40
0.0
 40
0.0
 40
1.0
 40
1.0
 40
1.0
 40
1.0
 10
131.8636231970357
 20
130.7461391747523
 30
0.0
 10
131.8357915239786
 20
130.5662324119918
 30
0.0
 10
131.8089704641125
 20
130.3862390974835
 30
0.0
 10
131.7832384393063
 20
130.2061525149584
 30
0.0
  0
LINE
  5
226
330
1F
100
AcDbEntity
  8
0
  6
Continuous
 62
     7
370
    25
100
AcDbLine
 10
129.4100563789
 20
119.7461391748
 30
0.0
 11
131.7028536816
 21
119.7461391748
 31
0.0
  0
LINE
  5
227
330
1F
100
AcDbEntity
  8
0
  6
Continuous
 62
     7
370
    25
100
AcDbLine
 10
131.863623197
 20
119.7461391748
 30
0.0
 11
134.1564204998
 21
119.7461391748
 31
0.0
  0
SPLINE
  5
228
330
1F
100
AcDbEntity
  8
0
  6
Continuous
 62
     7
370
    25
100
AcDbSpline
210
0.0
220
0.0
230
1.0
 70
     8
 71
     3
 72
     8
 73
     4
 74
     0
 42
0.000000001
 43
0.00000001
 40
0.0
 40
0.0
 40
0.0
 40
0.0
 40
1.0
 40
1.0
 40
1.0
 40
1.0
 10
131.7832384393063
 20
120.2861258345462
 30
0.0
 10
131.8089793891397
 20
120.1059767898695
 30
0.0
 10
131.8358009334005
 20
119.9259851140529
 30
0.0
 10
131.8636231970357
 20
119.7461391747524
 30
0.0
  0
SPLINE
  5
229
330
1F
100
AcDbEntity
  8
0
  6
Continuous
 62
     7
370
    25
100
AcDbSpline
210
0.0
220
0.0
230
1.0
 70
     8
 71
     3
 72
     8
 73
     4
 74
     0
 42
0.000000001
 43
0.00000001
 40
0.0
 40
0.0
 40
0.0
 40
0.0
 40
1.0
 40
1.0
 40
1.0
 40
1.0
 10
131.702853681577
 20
119.7461391747523
 30
0.0
 10
131.7306853546341
 20
119.9260459375127
 30
0.0
 10
131.7575064145001
 20
120.1060392520211
 30
0.0
 10
131.7832384393063
 20
120.2861258345462
 30
0.0
  0
LINE
  5
22A
330
1F
100
AcDbEntity
  8
0
  6
Continuous
 62
     7
370
    25
100
AcDbLine
 10
139.1832384393
 20
141.2236391748
 30
0.0
 11
139.1832384393
 21
120.2686391748
 31
0.0
  0
LINE
  5
22B
330
1F
100
AcDbEntity
  8
0
  6
Continuous
 62
     7
370
    25
100
AcDbLine
 10
124.3832384393
 20
120.2686391748
 30
0.0
 11
124.3832384393
 21
141.2236391748
 31
0.0
  0
LINE
  5
22C
330
1F
100
AcDbEntity
  8
0
  6
Continuous
 62
     7
370
    25
100
AcDbLine
 10
125.7832384393
 20
139.8236391748
 30
0.0
 11
125.7832384393
 21
121.6686391748
 31
0.0
  0
LINE
  5
22D
330
1F
100
AcDbEntity
  8
0
  6
Continuous
 62
     7
370
    25
100
AcDbLine
 10
137.7832384393
 20
121.6686391748
 30
0.0
 11
137.7832384393
 21
139.8236391748
 31
0.0
  0
LINE
  5
22E
330
1F
100
AcDbEntity
  8
0
  6
Continuous
 62
     7
370
    25
100
AcDbLine
 10
131.7832384393
 20
119.7461391748
 30
0.0
 11
131.7832384393
 21
120.2861258345
 31
0.0
  0
SPLINE
  5
22F
330
1F
100
AcDbEntity
  8
0
  6
Continuous
 62
     7
370
    25
100
AcDbSpline
210
0.0
220
0.0
230
1.0
 70
    24
 71
     3
 72
     8
 73
     4
 74
     0
 42
0.000000001
 43
0.00000001
 40
0.0
 40
0.0
 40
0.0
 40
0.0
 40
1.0
 40
1.0
 40
1.0
 40
1.0
 10
131.7832384393063
 20
119.7461391747523
 30
0.0
 10
131.7574979487367
 20
119.7461391747523
 30
0.0
 10
131.7306764290873
 20
119.7461391747523
 30
0.0
 10
131.702853681577
 20
119.7461391747524
 30
0.0
  0
SPLINE
  5
230
330
1F
100
AcDbEntity
  8
0
  6
Continuous
 62
     7
370
    25
100
AcDbSpline
210
0.0
220
0.0
230
1.0
 70
    24
 71
     3
 72
     8
 73
     4
 74
     0
 42
0.000000001
 43
0.00000001
 40
0.0
 40
0.0
 40
0.0
 40
0.0
 40
1.0
 40
1.0
 40
1.0
 40
1.0
 10
131.8636231970357
 20
119.7461391747524
 30
0.0
 10
131.8357901434798
 20
119.7461391747523
 30
0.0
 10
131.8089691557095
 20
119.7461391747523
 30
0.0
 10
131.7832384393063
 20
119.7461391747523
 30
0.0
  0
SPLINE
  5
231
330
1F
100
AcDbEntity
  8
0
  6
Continuous
 62
     7
370
    25
100
AcDbSpline
210
0.0
220
0.0
230
1.0
 70
    24
 71
     3
 72
     8
 73
     4
 74
     0
 42
0.000000001
 43
0.00000001
 40
0.0
 40
0.0
 40
0.0
 40
0.0
 40
1.0
 40
1.0
 40
1.0
 40
1.0
 10
131.702853681577
 20
141.7461391747523
 30
0.0
 10
131.7306867351329
 20
141.7461391747523
 30
0.0
 10
131.7575077229032
 20
141.7461391747523
 30
0.0
 10
131.7832384393063
 20
141.7461391747523
 30
0.0
  0
LINE
  5
232
330
1F
100
AcDbEntity
  8
0
  6
Continuous
 62
     7
370
    25
100
AcDbLine
 10
131.7832384393
 20
141.206152515
 30
0.0
 11
131.7832384393
 21
141.7461391748
 31
0.0
  0
SPLINE
  5
233
330
1F
100
AcDbEntity
  8
0
  6
Continuous
 62
     7
370
    25
100
AcDbSpline
210
0.0
220
0.0
230
1.0
 70
    24
 71
     3
 72
     8
 73
     4
 74
     0
 42
0.000000001
 43
0.00000001
 40
0.0
 40
0.0
 40
0.0
 40
0.0
 40
1.0
 40
1.0
 40
1.0
 40
1.0
 10
131.7832384393063
 20
141.7461391747523
 30
0.0
 10
131.8089789298759
 20
141.7461391747523
 30
0.0
 10
131.8358004495254
 20
141.7461391747523
 30
0.0
 10
131.8636231970357
 20
141.7461391747523
 30
0.0
  0
LINE
  5
234
330
1F
100
AcDbEntity
  8
0
  6
CENTERX2
 62
     7
370
    18
100
AcDbLine
 10
189.685162228
 20
130.7461391748
 30
0.0
 11
73.3684565698
 21
130.7461391748
 31
0.0
  0
ENDSEC
  0
SECTION
  2
OBJECTS
  0
DICTIONARY
  5
C
330
0
100
AcDbDictionary
281
     1
  3
ACAD_GROUP
350
D
  3
ACAD_LAYOUT
350
1A
  3
ACAD_MLINESTYLE
350
17
  3
ACAD_PLOTSETTINGS
350
19
  3
ACAD_PLOTSTYLENAME
350
E
  3
ACAD_SCALELIST
350
47
  0
DICTIONARY
  5
D
102
{ACAD_REACTORS
330
C
102
}
330
C
100
AcDbDictionary
281
     1
  0
DICTIONARY
  5
1A
102
{ACAD_REACTORS
330
C
102
}
330
C
100
AcDbDictionary
281
     1
  3
Layout1
350
1E
  3
Layout2
350
26
  3
Model
350
22
  0
DICTIONARY
  5
17
102
{ACAD_REACTORS
330
C
102
}
330
C
100
AcDbDictionary
281
     1
  3
Standard
350
18
  0
DICTIONARY
  5
19
102
{ACAD_REACTORS
330
C
102
}
330
C
100
AcDbDictionary
281
     1
  0
ACDBDICTIONARYWDFLT
  5
E
102
{ACAD_REACTORS
330
C
102
}
330
C
100
AcDbDictionary
281
     1
  3
Normal
350
F
100
AcDbDictionaryWithDefault
340
F
  0
DICTIONARY
  5
47
102
{ACAD_REACTORS
330
C
102
}
330
C
100
AcDbDictionary
281
     1
  3
A0
350
48
  3
A1
350
49
  3
A2
350
4A
  3
A3
350
4B
  3
A4
350
4C
  3
A5
350
4D
  3
A6
350
4E
  3
A7
350
4F
  3
A8
350
50
  3
A9
350
51
  3
B0
350
52
  3
B1
350
53
  3
B2
350
54
  3
B3
350
55
  3
B4
350
56
  3
B5
350
57
  3
B6
350
58
  3
B7
350
59
  3
B8
350
5A
  3
B9
350
5B
  3
C0
350
5C
  3
C1
350
5D
  3
C2
350
5E
  3
C3
350
5F
  3
C4
350
60
  3
C5
350
61
  3
C6
350
62
  3
C7
350
63
  3
C8
350
64
  3
C9
350
65
  3
D0
350
66
  3
D1
350
67
  3
D2
350
68
  0
LAYOUT
  5
1E
102
{ACAD_REACTORS
330
1A
102
}
330
1A
100
AcDbPlotSettings
  1

  2
none_device
  4

  6

 40
0.0
 41
0.0
 42
0.0
 43
0.0
 44
0.0
 45
0.0
 46
0.0
 47
0.0
 48
0.0
 49
0.0
140
0.0
141
0.0
142
1.0
143
1.0
 70
   688
 72
     1
 73
     0
 74
     5
  7

 75
    16
147
1.0
148
0.0
149
0.0
100
AcDbLayout
  1
Layout1
 70
     1
 71
     1
 10
0.0
 20
0.0
 11
420.0
 21
297.0
 12
0.0
 22
0.0
 32
0.0
 14
1.0000000000E+20
 24
1.0000000000E+20
 34
1.0000000000E+20
 15
-1.0000000000E+20
 25
-1.0000000000E+20
 35
-1.0000000000E+20
146
0.0
 13
0.0
 23
0.0
 33
0.0
 16
1.0
 26
0.0
 36
0.0
 17
0.0
 27
1.0
 37
0.0
 76
     0
330
1B
  0
LAYOUT
  5
26
102
{ACAD_REACTORS
330
1A
102
}
330
1A
100
AcDbPlotSettings
  1

  2
none_device
  4

  6

 40
0.0
 41
0.0
 42
0.0
 43
0.0
 44
0.0
 45
0.0
 46
0.0
 47
0.0
 48
0.0
 49
0.0
140
0.0
141
0.0
142
1.0
143
1.0
 70
   688
 72
     1
 73
     0
 74
     5
  7

 75
    16
147
1.0
148
0.0
149
0.0
100
AcDbLayout
  1
Layout2
 70
     1
 71
     2
 10
0.0
 20
0.0
 11
0.0
 21
0.0
 12
0.0
 22
0.0
 32
0.0
 14
0.0
 24
0.0
 34
0.0
 15
0.0
 25
0.0
 35
0.0
146
0.0
 13
0.0
 23
0.0
 33
0.0
 16
1.0
 26
0.0
 36
0.0
 17
0.0
 27
1.0
 37
0.0
 76
     0
330
23
  0
LAYOUT
  5
22
102
{ACAD_REACTORS
330
1A
102
}
330
1A
100
AcDbPlotSettings
  1

  2
none_device
  4
Letter_(8.50_x_11.00_Inches)
  6

 40
6.35
 41
6.35
 42
6.35000508
 43
6.35000508
 44
215.9
 45
279.4
 46
0.0
 47
0.0
 48
0.0
 49
0.0
140
0.0
141
0.0
142
1.0
143
1.0
 70
  1712
 72
     1
 73
     0
 74
     0
  7

 75
     0
147
1.0
148
0.0
149
0.0
100
AcDbLayout
  1
Model
 70
     1
 71
     0
 10
0.0
 20
0.0
 11
431.8
 21
279.4
 12
0.0
 22
0.0
 32
0.0
 14
0.0
 24
0.0
 34
0.0
 15
431.8
 25
279.4
 35
0.0
146
0.0
 13
0.0
 23
0.0
 33
0.0
 16
1.0
 26
0.0
 36
0.0
 17
0.0
 27
1.0
 37
0.0
 76
     0
330
1F
331
29
  0
MLINESTYLE
  5
18
102
{ACAD_REACTORS
330
17
102
}
330
17
100
AcDbMlineStyle
  2
Standard
 70
     0
  3

 62
   256
 51
90.0
 52
90.0
 71
     2
 49
0.5
 62
   256
  6
BYLAYER
 49
-0.5
 62
   256
  6
BYLAYER
  0
ACDBPLACEHOLDER
  5
F
102
{ACAD_REACTORS
330
E
102
}
330
E
  0
SCALE
  5
48
102
{ACAD_REACTORS
330
47
102
}
330
47
100
AcDbScale
 70
     0
300
1:1
140
1.0
141
1.0
290
     1
  0
SCALE
  5
49
102
{ACAD_REACTORS
330
47
102
}
330
47
100
AcDbScale
 70
     0
300
1:2
140
1.0
141
2.0
290
     0
  0
SCALE
  5
4A
102
{ACAD_REACTORS
330
47
102
}
330
47
100
AcDbScale
 70
     0
300
1:4
140
1.0
141
4.0
290
     0
  0
SCALE
  5
4B
102
{ACAD_REACTORS
330
47
102
}
330
47
100
AcDbScale
 70
     0
300
1:5
140
1.0
141
5.0
290
     0
  0
SCALE
  5
4C
102
{ACAD_REACTORS
330
47
102
}
330
47
100
AcDbScale
 70
     0
300
1:8
140
1.0
141
8.0
290
     0
  0
SCALE
  5
4D
102
{ACAD_REACTORS
330
47
102
}
330
47
100
AcDbScale
 70
     0
300
1:10
140
1.0
141
10.0
290
     0
  0
SCALE
  5
4E
102
{ACAD_REACTORS
330
47
102
}
330
47
100
AcDbScale
 70
     0
300
1:16
140
1.0
141
16.0
290
     0
  0
SCALE
  5
4F
102
{ACAD_REACTORS
330
47
102
}
330
47
100
AcDbScale
 70
     0
300
1:20
140
1.0
141
20.0
290
     0
  0
SCALE
  5
50
102
{ACAD_REACTORS
330
47
102
}
330
47
100
AcDbScale
 70
     0
300
1:30
140
1.0
141
30.0
290
     0
  0
SCALE
  5
51
102
{ACAD_REACTORS
330
47
102
}
330
47
100
AcDbScale
 70
     0
300
1:40
140
1.0
141
40.0
290
     0
  0
SCALE
  5
52
102
{ACAD_REACTORS
330
47
102
}
330
47
100
AcDbScale
 70
     0
300
1:50
140
1.0
141
50.0
290
     0
  0
SCALE
  5
53
102
{ACAD_REACTORS
330
47
102
}
330
47
100
AcDbScale
 70
     0
300
1:100
140
1.0
141
100.0
290
     0
  0
SCALE
  5
54
102
{ACAD_REACTORS
330
47
102
}
330
47
100
AcDbScale
 70
     0
300
2:1
140
2.0
141
1.0
290
     0
  0
SCALE
  5
55
102
{ACAD_REACTORS
330
47
102
}
330
47
100
AcDbScale
 70
     0
300
4:1
140
4.0
141
1.0
290
     0
  0
SCALE
  5
56
102
{ACAD_REACTORS
330
47
102
}
330
47
100
AcDbScale
 70
     0
300
8:1
140
8.0
141
1.0
290
     0
  0
SCALE
  5
57
102
{ACAD_REACTORS
330
47
102
}
330
47
100
AcDbScale
 70
     0
300
10:1
140
10.0
141
1.0
290
     0
  0
SCALE
  5
58
102
{ACAD_REACTORS
330
47
102
}
330
47
100
AcDbScale
 70
     0
300
100:1
140
100.0
141
1.0
290
     0
  0
SCALE
  5
59
102
{ACAD_REACTORS
330
47
102
}
330
47
100
AcDbScale
 70
     0
300
1/128" = 1'-0"
140
0.0078125
141
12.0
290
     0
  0
SCALE
  5
5A
102
{ACAD_REACTORS
330
47
102
}
330
47
100
AcDbScale
 70
     0
300
1/64" = 1'-0"
140
0.015625
141
12.0
290
     0
  0
SCALE
  5
5B
102
{ACAD_REACTORS
330
47
102
}
330
47
100
AcDbScale
 70
     0
300
1/32" = 1'-0"
140
0.03125
141
12.0
290
     0
  0
SCALE
  5
5C
102
{ACAD_REACTORS
330
47
102
}
330
47
100
AcDbScale
 70
     0
300
1/16" = 1'-0"
140
0.0625
141
12.0
290
     0
  0
SCALE
  5
5D
102
{ACAD_REACTORS
330
47
102
}
330
47
100
AcDbScale
 70
     0
300
3/32" = 1'-0"
140
0.09375
141
12.0
290
     0
  0
SCALE
  5
5E
102
{ACAD_REACTORS
330
47
102
}
330
47
100
AcDbScale
 70
     0
300
1/8" = 1'-0"
140
0.125
141
12.0
290
     0
  0
SCALE
  5
5F
102
{ACAD_REACTORS
330
47
102
}
330
47
100
AcDbScale
 70
     0
300
3/16" = 1'-0"
140
0.1875
141
12.0
290
     0
  0
SCALE
  5
60
102
{ACAD_REACTORS
330
47
102
}
330
47
100
AcDbScale
 70
     0
300
1/4" = 1'-0"
140
0.25
141
12.0
290
     0
  0
SCALE
  5
61
102
{ACAD_REACTORS
330
47
102
}
330
47
100
AcDbScale
 70
     0
300
3/8" = 1'-0"
140
0.375
141
12.0
290
     0
  0
SCALE
  5
62
102
{ACAD_REACTORS
330
47
102
}
330
47
100
AcDbScale
 70
     0
300
1/2" = 1'-0"
140
0.5
141
12.0
290
     0
  0
SCALE
  5
63
102
{ACAD_REACTORS
330
47
102
}
330
47
100
AcDbScale
 70
     0
300
3/4" = 1'-0"
140
0.75
141
12.0
290
     0
  0
SCALE
  5
64
102
{ACAD_REACTORS
330
47
102
}
330
47
100
AcDbScale
 70
     0
300
1" = 1'-0"
140
1.0
141
12.0
290
     0
  0
SCALE
  5
65
102
{ACAD_REACTORS
330
47
102
}
330
47
100
AcDbScale
 70
     0
300
1-1/2" = 1'-0"
140
1.5
141
12.0
290
     0
  0
SCALE
  5
66
102
{ACAD_REACTORS
330
47
102
}
330
47
100
AcDbScale
 70
     0
300
3" = 1'-0"
140
3.0
141
12.0
290
     0
  0
SCALE
  5
67
102
{ACAD_REACTORS
330
47
102
}
330
47
100
AcDbScale
 70
     0
300
6" = 1'-0"
140
6.0
141
12.0
290
     0
  0
SCALE
  5
68
102
{ACAD_REACTORS
330
47
102
}
330
47
100
AcDbScale
 70
     0
300
1'-0" = 1'-0"
140
12.0
141
12.0
290
     0
  0
ENDSEC
  0
EOF
