  0
SECTION
  2
HEADER
  9
$ACADVER
  1
AC1015
  9
$ACADMAINTVER
 70
     6
  9
$DWGCODEPAGE
  3
DOS932
  9
$INSBASE
 10
0.0
 20
0.0
 30
0.0
  9
$EXTMIN
 10
0.0
 20
0.0
 30
0.0
  9
$EXTMAX
 10
431.8
 20
279.4
 30
0.0
  9
$LIMMIN
 10
0.0
 20
0.0
  9
$LIMMAX
 10
431.8
 20
279.4
  9
$ORTHOMODE
 70
     0
  9
$REGENMODE
 70
     1
  9
$FILLMODE
 70
     1
  9
$QTEXTMODE
 70
     0
  9
$MIRRTEXT
 70
     1
  9
$LTSCALE
 40
1.0
  9
$ATTMODE
 70
     1
  9
$TEXTSIZE
 40
3.5
  9
$TRACEWID
 40
1.0
  9
$TEXTSTYLE
  7
Standard
  9
$CLAYER
  8
0
  9
$CELTYPE
  6
ByLayer
  9
$CECOLOR
 62
   256
  9
$CELTSCALE
 40
1.0
  9
$DISPSILH
 70
     0
  9
$DIMSCALE
 40
1.0
  9
$DIMASZ
 40
3.302
  9
$DIMEXO
 40
1.0
  9
$DIMDLI
 40
3.75
  9
$DIMRND
 40
0.0
  9
$DIMDLE
 40
0.0
  9
$DIMEXE
 40
1.0
  9
$DIMTP
 40
0.0
  9
$DIMTM
 40
0.0
  9
$DIMTXT
 40
3.5
  9
$DIMCEN
 40
2.5
  9
$DIMTSZ
 40
0.0
  9
$DIMTOL
 70
     0
  9
$DIMLIM
 70
     0
  9
$DIMTIH
 70
     1
  9
$DIMTOH
 70
     1
  9
$DIMSE1
 70
     0
  9
$DIMSE2
 70
     0
  9
$DIMTAD
 70
     1
  9
$DIMZIN
 70
     1
  9
$DIMBLK
  1

  9
$DIMASO
 70
     1
  9
$DIMSHO
 70
     1
  9
$DIMPOST
  1

  9
$DIMAPOST
  1

  9
$DIMALT
 70
     0
  9
$DIMALTD
 70
     3
  9
$DIMALTF
 40
0.0393700787
  9
$DIMLFAC
 40
1.0
  9
$DIMTOFL
 70
     1
  9
$DIMTVP
 40
0.0
  9
$DIMTIX
 70
     0
  9
$DIMSOXD
 70
     0
  9
$DIMSAH
 70
     0
  9
$DIMBLK1
  1

  9
$DIMBLK2
  1

  9
$DIMSTYLE
  2
ISO-25
  9
$DIMCLRD
 70
     0
  9
$DIMCLRE
 70
     0
  9
$DIMCLRT
 70
     0
  9
$DIMTFAC
 40
1.0
  9
$DIMGAP
 40
1.524
  9
$DIMJUST
 70
     0
  9
$DIMSD1
 70
     0
  9
$DIMSD2
 70
     0
  9
$DIMTOLJ
 70
     0
  9
$DIMTZIN
 70
     1
  9
$DIMALTZ
 70
     0
  9
$DIMALTTZ
 70
     0
  9
$DIMUPT
 70
     0
  9
$DIMDEC
 70
     2
  9
$DIMTDEC
 70
     2
  9
$DIMALTU
 70
     2
  9
$DIMALTTD
 70
     3
  9
$DIMTXSTY
  7
Standard
  9
$DIMAUNIT
 70
     0
  9
$DIMADEC
 70
     2
  9
$DIMALTRND
 40
0.0
  9
$DIMAZIN
 70
     0
  9
$DIMDSEP
 70
    44
  9
$DIMATFIT
 70
     3
  9
$DIMFRAC
 70
     0
  9
$DIMLDRBLK
  1

  9
$DIMLUNIT
 70
     2
  9
$DIMLWD
 70
    -2
  9
$DIMLWE
 70
    -2
  9
$DIMTMOVE
 70
     0
  9
$LUNITS
 70
     2
  9
$LUPREC
 70
     2
  9
$SKETCHINC
 40
1.0
  9
$FILLETRAD
 40
10.0
  9
$AUNITS
 70
     0
  9
$AUPREC
 70
     2
  9
$MENU
  1
.
  9
$ELEVATION
 40
0.0
  9
$PELEVATION
 40
0.0
  9
$THICKNESS
 40
0.0
  9
$LIMCHECK
 70
     0
  9
$CHAMFERA
 40
0.0
  9
$CHAMFERB
 40
0.0
  9
$CHAMFERC
 40
0.0
  9
$CHAMFERD
 40
0.0
  9
$SKPOLY
 70
     0
  9
$TDCREATE
 40
2459486.644515116
  9
$TDUCREATE
 40
2459486.269515116
  9
$TDUPDATE
 40
2459486.644515706
  9
$TDUUPDATE
 40
2459486.269515706
  9
$TDINDWG
 40
0.0000000116
  9
$TDUSRTIMER
 40
0.0000000116
  9
$USRTIMER
 70
     1
  9
$ANGBASE
 50
0.0
  9
$ANGDIR
 70
     0
  9
$PDMODE
 70
     0
  9
$PDSIZE
 40
-1.0
  9
$PLINEWID
 40
0.0
  9
$SPLFRAME
 70
     0
  9
$SPLINETYPE
 70
     6
  9
$SPLINESEGS
 70
     8
  9
$HANDSEED
  5
235
  9
$SURFTAB1
 70
     6
  9
$SURFTAB2
 70
     6
  9
$SURFTYPE
 70
     6
  9
$SURFU
 70
     6
  9
$SURFV
 70
     6
  9
$UCSBASE
  2

  9
$UCSNAME
  2

  9
$UCSORG
 10
0.0
 20
0.0
 30
0.0
  9
$UCSXDIR
 10
1.0
 20
0.0
 30
0.0
  9
$UCSYDIR
 10
0.0
 20
1.0
 30
0.0
  9
$UCSORTHOREF
  2

  9
$UCSORTHOVIEW
 70
     0
  9
$UCSORGTOP
 10
0.0
 20
0.0
 30
0.0
  9
$UCSORGBOTTOM
 10
0.0
 20
0.0
 30
0.0
  9
$UCSORGLEFT
 10
0.0
 20
0.0
 30
0.0
  9
$UCSORGRIGHT
 10
0.0
 20
0.0
 30
0.0
  9
$UCSORGFRONT
 10
0.0
 20
0.0
 30
0.0
  9
$UCSORGBACK
 10
0.0
 20
0.0
 30
0.0
  9
$PUCSBASE
  2

  9
$PUCSNAME
  2

  9
$PUCSORG
 10
0.0
 20
0.0
 30
0.0
  9
$PUCSXDIR
 10
1.0
 20
0.0
 30
0.0
  9
$PUCSYDIR
 10
0.0
 20
1.0
 30
0.0
  9
$PUCSORTHOREF
  2

  9
$PUCSORTHOVIEW
 70
     0
  9
$PUCSORGTOP
 10
0.0
 20
0.0
 30
0.0
  9
$PUCSORGBOTTOM
 10
0.0
 20
0.0
 30
0.0
  9
$PUCSORGLEFT
 10
0.0
 20
0.0
 30
0.0
  9
$PUCSORGRIGHT
 10
0.0
 20
0.0
 30
0.0
  9
$PUCSORGFRONT
 10
0.0
 20
0.0
 30
0.0
  9
$PUCSORGBACK
 10
0.0
 20
0.0
 30
0.0
  9
$USERI1
 70
     0
  9
$USERI2
 70
     0
  9
$USERI3
 70
     0
  9
$USERI4
 70
     0
  9
$USERI5
 70
     0
  9
$USERR1
 40
0.0
  9
$USERR2
 40
0.0
  9
$USERR3
 40
0.0
  9
$USERR4
 40
0.0
  9
$USERR5
 40
0.0
  9
$WORLDVIEW
 70
     1
  9
$SHADEDGE
 70
     3
  9
$SHADEDIF
 70
    70
  9
$TILEMODE
 70
     1
  9
$MAXACTVP
 70
    64
  9
$PINSBASE
 10
0.0
 20
0.0
 30
0.0
  9
$PLIMCHECK
 70
     0
  9
$PEXTMIN
 10
1.0000000000E+20
 20
1.0000000000E+20
 30
1.0000000000E+20
  9
$PEXTMAX
 10
-1.0000000000E+20
 20
-1.0000000000E+20
 30
-1.0000000000E+20
  9
$PLIMMIN
 10
0.0
 20
0.0
  9
$PLIMMAX
 10
420.0
 20
297.0
  9
$UNITMODE
 70
     0
  9
$VISRETAIN
 70
     1
  9
$PLINEGEN
 70
     0
  9
$PSLTSCALE
 70
     1
  9
$TREEDEPTH
 70
  3020
  9
$CMLSTYLE
  2
Standard
  9
$CMLJUST
 70
     0
  9
$CMLSCALE
 40
20.0
  9
$PROXYGRAPHICS
 70
     1
  9
$MEASUREMENT
 70
     1
  9
$CELWEIGHT
370
    -1
  9
$ENDCAPS
280
     0
  9
$JOINSTYLE
280
     0
  9
$LWDISPLAY
290
     1
  9
$INSUNITS
 70
     4
  9
$HYPERLINKBASE
  1

  9
$STYLESHEET
  1

  9
$XEDIT
290
     1
  9
$CEPSNTYPE
380
     0
  9
$PSTYLEMODE
290
     1
  9
$FINGERPRINTGUID
  2
{8F99CBEA-3D38-4E88-84E9-2A26EA24139B}
  9
$VERSIONGUID
  2
{FAEB1C32-E019-11D5-929B-00C0DF256EC4}
  9
$EXTNAMES
290
     1
  9
$PSVPSCALE
 40
0.0
  9
$OLESTARTUP
290
     0
  0
ENDSEC
  0
SECTION
  2
CLASSES
  0
CLASS
  1
ACDBDICTIONARYWDFLT
  2
AcDbDictionaryWithDefault
  3
ObjectDBX Classes
 90
        0
280
     0
281
     0
  0
CLASS
  1
VISUALSTYLE
  2
AcDbVisualStyle
  3
ObjectDBX Classes
 90
     4095
280
     0
281
     0
  0
CLASS
  1
MATERIAL
  2
AcDbMaterial
  3
ObjectDBX Classes
 90
     1153
280
     0
281
     0
  0
CLASS
  1
SCALE
  2
AcDbScale
  3
ObjectDBX Classes
 90
     1153
280
     0
281
     0
  0
CLASS
  1
TABLESTYLE
  2
AcDbTableStyle
  3
ObjectDBX Classes
 90
     4095
280
     0
281
     0
  0
CLASS
  1
MLEADERSTYLE
  2
AcDbMLeaderStyle
  3
ACDB_MLEADERSTYLE_CLASS
 90
     4095
280
     0
281
     0
  0
CLASS
  1
SUN
  2
AcDbSun
  3
SCENEOE
 90
     1153
280
     0
281
     0
  0
CLASS
  1
ACDBPLACEHOLDER
  2
AcDbPlaceHolder
  3
ObjectDBX Classes
 90
        0
280
     0
281
     0
  0
CLASS
  1
LAYOUT
  2
AcDbLayout
  3
ObjectDBX Classes
 90
        0
280
     0
281
     0
  0
ENDSEC
  0
SECTION
  2
TABLES
  0
TABLE
  2
VPORT
  5
8
330
0
100
AcDbSymbolTable
 70
     1
  0
VPORT
  5
29
330
8
100
AcDbSymbolTableRecord
100
AcDbViewportTableRecord
  2
*Active
 70
     0
 10
0.0
 20
0.0
 11
1.0
 21
1.0
 12
215.9
 22
139.7
 13
0.0
 23
0.0
 14
10.0
 24
10.0
 15
10.0
 25
10.0
 16
0.0
 26
0.0
 36
1.0
 17
0.0
 27
0.0
 37
0.0
 40
279.4
 41
1.5454545455
 42
50.0
 43
0.0
 44
0.0
 50
0.0
 51
0.0
 71
     0
 72
  2000
 73
     1
 74
     3
 75
     0
 76
     0
 77
     0
 78
     0
281
     0
 65
     1
110
0.0
120
0.0
130
0.0
111
1.0
121
0.0
131
0.0
112
0.0
122
1.0
132
0.0
 79
     0
146
0.0
  0
ENDTAB
  0
TABLE
  2
LTYPE
  5
5
330
0
100
AcDbSymbolTable
 70
     6
  0
LTYPE
  5
14
330
5
100
AcDbSymbolTableRecord
100
AcDbLinetypeTableRecord
  2
ByBlock
 70
     0
  3

 72
    65
 73
     0
 40
0.0
  0
LTYPE
  5
15
330
5
100
AcDbSymbolTableRecord
100
AcDbLinetypeTableRecord
  2
ByLayer
 70
     0
  3

 72
    65
 73
     0
 40
0.0
  0
LTYPE
  5
16
330
5
100
AcDbSymbolTableRecord
100
AcDbLinetypeTableRecord
  2
Continuous
 70
     0
  3
Solid line
 72
    65
 73
     0
 40
0.0
  0
LTYPE
  5
6E
330
5
100
AcDbSymbolTableRecord
100
AcDbLinetypeTableRecord
  2
HIDDEN
 70
     0
  3
Hidden __ __ __ __ __ __ __ __ __ __ __ __ __ __
 72
    65
 73
     2
 40
1.905
 49
1.27
 74
     0
 49
-0.635
 74
     0
  0
LTYPE
  5
6F
330
5
100
AcDbSymbolTableRecord
100
AcDbLinetypeTableRecord
  2
PHANTOM
 70
     0
  3
Phantom ______  __  __  ______  __  __  ______
 72
    65
 73
     6
 40
12.7
 49
6.35
 74
     0
 49
-1.27
 74
     0
 49
1.27
 74
     0
 49
-1.27
 74
     0
 49
1.27
 74
     0
 49
-1.27
 74
     0
  0
LTYPE
  5
70
330
5
100
AcDbSymbolTableRecord
100
AcDbLinetypeTableRecord
  2
CENTER
 70
     0
  3
Center ____ _ ____ _ ____ _ ____ _ ____ _ ____
 72
    65
 73
     4
 40
10.16
 49
6.35
 74
     0
 49
-1.27
 74
     0
 49
1.27
 74
     0
 49
-1.27
 74
     0
  0
LTYPE
  5
71
330
5
100
AcDbSymbolTableRecord
100
AcDbLinetypeTableRecord
  2
CENTERX2
 70
     0
  3
Center (2x) ________  __  ________  __  _____
 72
    65
 73
     4
 40
20.32
 49
12.7
 74
     0
 49
-2.54
 74
     0
 49
2.54
 74
     0
 49
-2.54
 74
     0
  0
LTYPE
  5
72
330
5
100
AcDbSymbolTableRecord
100
AcDbLinetypeTableRecord
  2
DOT2
 70
     0
  3
Dot (.5x) ........................................
 72
    65
 73
     2
 40
0.635
 49
0.0
 74
     0
 49
-0.635
 74
     0
  0
ENDTAB
  0
TABLE
  2
LAYER
  5
2
330
0
100
AcDbSymbolTable
 70
     1
  0
LAYER
  5
10
330
2
100
AcDbSymbolTableRecord
100
AcDbLayerTableRecord
  2
0
 70
     0
 62
     7
  6
Continuous
370
    -3
390
F
  0
ENDTAB
  0
TABLE
  2
STYLE
  5
3
330
0
100
AcDbSymbolTable
 70
     2
  0
STYLE
  5
11
330
3
100
AcDbSymbolTableRecord
100
AcDbTextStyleTableRecord
  2
Standard
 70
     0
 40
0.0
 41
1.0
 50
0.0
 71
     0
 42
3.5
  3
txt
  4
bigfont
  0
STYLE
  5
73
330
3
100
AcDbSymbolTableRecord
100
AcDbTextStyleTableRecord
  2
SLDTEXTSTYLE0
 70
     0
 40
0.0
 41
0.7
 50
0.0
 71
     0
 42
3.5
  3
TXT
  4
bigfont
  0
ENDTAB
  0
TABLE
  2
VIEW
  5
6
330
0
100
AcDbSymbolTable
 70
     0
  0
ENDTAB
  0
TABLE
  2
UCS
  5
7
330
0
100
AcDbSymbolTable
 70
     0
  0
ENDTAB
  0
TABLE
  2
APPID
  5
9
330
0
100
AcDbSymbolTable
 70
     1
  0
APPID
  5
12
330
9
100
AcDbSymbolTableRecord
100
AcDbRegAppTableRecord
  2
ACAD
 70
     0
  0
ENDTAB
  0
TABLE
  2
DIMSTYLE
  5
A
330
0
100
AcDbSymbolTable
 70
     1
100
AcDbDimStyleTable
  0
DIMSTYLE
105
27
330
A
100
AcDbSymbolTableRecord
100
AcDbDimStyleTableRecord
  2
ISO-25
 70
     0
 41
2.5
 42
0.625
 43
3.75
 44
1.25
 73
     0
 74
     0
 77
     1
 78
     8
140
2.5
141
2.5
143
0.0393700787
147
0.625
171
     3
172
     1
178
     0
271
     2
272
     2
274
     3
278
    44
283
     0
284
     8
340
11
  0
ENDTAB
  0
TABLE
  2
BLOCK_RECORD
  5
1
330
0
100
AcDbSymbolTable
 70
     2
  0
BLOCK_RECORD
  5
1F
330
1
100
AcDbSymbolTableRecord
100
AcDbBlockTableRecord
  2
*Model_Space
340
22
  0
BLOCK_RECORD
  5
1B
330
1
100
AcDbSymbolTableRecord
100
AcDbBlockTableRecord
  2
*Paper_Space
340
1E
  0
BLOCK_RECORD
  5
23
330
1
100
AcDbSymbolTableRecord
100
AcDbBlockTableRecord
  2
*Paper_Space0
340
26
  0
BLOCK_RECORD
  5
167
330
1
100
AcDbSymbolTableRecord
100
AcDbBlockTableRecord
  2
SW_CENTERMARKSYMBOL_0
340
0
102
{BLKREFS
331
172
102
}
  0
ENDTAB
  0
ENDSEC
  0
SECTION
  2
BLOCKS
  0
BLOCK
  5
20
330
1F
100
AcDbEntity
  8
0
100
AcDbBlockBegin
  2
*Model_Space
 70
     0
 10
0.0
 20
0.0
 30
0.0
  3
*Model_Space
  1

  0
ENDBLK
  5
21
330
1F
100
AcDbEntity
  8
0
100
AcDbBlockEnd
  0
BLOCK
  5
1C
330
1B
100
AcDbEntity
 67
     1
  8
0
100
AcDbBlockBegin
  2
*Paper_Space
 70
     0
 10
0.0
 20
0.0
 30
0.0
  3
*Paper_Space
  1

  0
ENDBLK
  5
1D
330
1B
100
AcDbEntity
 67
     1
  8
0
100
AcDbBlockEnd
  0
BLOCK
  5
24
330
23
100
AcDbEntity
  8
0
100
AcDbBlockBegin
  2
*Paper_Space0
 70
     0
 10
0.0
 20
0.0
 30
0.0
  3
*Paper_Space0
  1

  0
ENDBLK
  5
25
330
23
100
AcDbEntity
  8
0
100
AcDbBlockEnd
  0
BLOCK
  5
168
330
167
100
AcDbEntity
  8
0
100
AcDbBlockBegin
  2
SW_CENTERMARKSYMBOL_0
 70
     0
 10
0.0
 20
0.0
 30
0.0
  3
SW_CENTERMARKSYMBOL_0
  1

  0
LINE
  5
16A
330
167
100
AcDbEntity
  8
0
  6
Continuous
 62
     0
370
    18
100
AcDbLine
 10
0.0
 20
0.0
 30
0.0
 11
0.0
 21
2.5
 31
0.0
  0
LINE
  5
16B
330
167
100
AcDbEntity
  8
0
  6
Continuous
 62
     0
370
    18
100
AcDbLine
 10
0.0
 20
0.0
 30
0.0
 11
-2.5
 21
0.0
 31
0.0
  0
LINE
  5
16C
330
167
100
AcDbEntity
  8
0
  6
Continuous
 62
     0
370
    18
100
AcDbLine
 10
0.0
 20
0.0
 30
0.0
 11
0.0
 21
-2.5
 31
0.0
  0
LINE
  5
16D
330
167
100
AcDbEntity
  8
0
  6
Continuous
 62
     0
370
    18
100
AcDbLine
 10
0.0
 20
0.0
 30
0.0
 11
2.5
 21
0.0
 31
0.0
  0
LINE
  5
16E
330
167
100
AcDbEntity
  8
0
  6
Continuous
 62
     0
370
    18
100
AcDbLine
 10
0.0
 20
5.0
 30
0.0
 11
0.0
 21
10.35
 31
0.0
  0
LINE
  5
16F
330
167
100
AcDbEntity
  8
0
  6
Continuous
 62
     0
370
    18
100
AcDbLine
 10
-5.0
 20
0.0
 30
0.0
 11
-10.35
 21
0.0
 31
0.0
  0
LINE
  5
170
330
167
100
AcDbEntity
  8
0
  6
Continuous
 62
     0
370
    18
100
AcDbLine
 10
0.0
 20
-5.0
 30
0.0
 11
0.0
 21
-10.35
 31
0.0
  0
LINE
  5
171
330
167
100
AcDbEntity
  8
0
  6
Continuous
 62
     0
370
    18
100
AcDbLine
 10
5.0
 20
0.0
 30
0.0
 11
10.35
 21
0.0
 31
0.0
  0
ENDBLK
  5
169
330
167
100
AcDbEntity
  8
0
100
AcDbBlockEnd
  0
ENDSEC
  0
SECTION
  2
ENTITIES
  0
MTEXT
  5
74
330
1F
100
AcDbEntity
  8
0
  6
Continuous
 62
     7
370
     0
100
AcDbMText
 10
192.2098391137
 20
107.7171946204
 30
0.0
 40
4.2333333333
 41
0.0
 71
     1
 72
     1
  1
HS-2209R
  7
SLDTEXTSTYLE0
 73
     1
 44
1.0
  0
LINE
  5
75
330
1F
100
AcDbEntity
  8
0
  6
Continuous
 62
     7
370
    25
100
AcDbLine
 10
114.0946718443
 20
89.1356649885
 30
0.0
 11
110.0946718443
 21
88.4856649885
 31
0.0
  0
LINE
  5
76
330
1F
100
AcDbEntity
  8
0
  6
Continuous
 62
     7
370
    25
100
AcDbLine
 10
110.0946718443
 20
80.7856649885
 30
0.0
 11
114.0946718443
 21
80.1356649885
 31
0.0
  0
LINE
  5
77
330
1F
100
AcDbEntity
  8
0
  6
Continuous
 62
     7
370
    25
100
AcDbLine
 10
110.0946718443
 20
89.1356649885
 30
0.0
 11
105.3007798084
 21
88.5691141115
 31
0.0
  0
LINE
  5
78
330
1F
100
AcDbEntity
  8
0
  6
Continuous
 62
     7
370
    25
100
AcDbLine
 10
105.3007798084
 20
80.7022158655
 30
0.0
 11
110.0946718443
 21
80.1356649885
 31
0.0
  0
LINE
  5
79
330
1F
100
AcDbEntity
  8
0
  6
Continuous
 62
     7
370
    25
100
AcDbLine
 10
118.0946718443
 20
89.1356649885
 30
0.0
 11
114.0946718443
 21
88.4856649885
 31
0.0
  0
LINE
  5
7A
330
1F
100
AcDbEntity
  8
0
  6
Continuous
 62
     7
370
    25
100
AcDbLine
 10
114.0946718443
 20
80.7856649885
 30
0.0
 11
118.0946718443
 21
80.1356649885
 31
0.0
  0
LINE
  5
7B
330
1F
100
AcDbEntity
  8
0
  6
Continuous
 62
     7
370
    25
100
AcDbLine
 10
122.0946718443
 20
89.1356649885
 30
0.0
 11
118.0946718443
 21
88.4856649885
 31
0.0
  0
LINE
  5
7C
330
1F
100
AcDbEntity
  8
0
  6
Continuous
 62
     7
370
    25
100
AcDbLine
 10
118.0946718443
 20
80.7856649885
 30
0.0
 11
122.0946718443
 21
80.1356649885
 31
0.0
  0
LINE
  5
7D
330
1F
100
AcDbEntity
  8
0
  6
Continuous
 62
     7
370
    25
100
AcDbLine
 10
126.0946718443
 20
89.1356649885
 30
0.0
 11
122.0946718443
 21
88.4856649885
 31
0.0
  0
LINE
  5
7E
330
1F
100
AcDbEntity
  8
0
  6
Continuous
 62
     7
370
    25
100
AcDbLine
 10
122.0946718443
 20
80.7856649885
 30
0.0
 11
126.0946718443
 21
80.1356649885
 31
0.0
  0
LINE
  5
7F
330
1F
100
AcDbEntity
  8
0
  6
Continuous
 62
     7
370
    25
100
AcDbLine
 10
130.5142870866
 20
80.1356649885
 30
0.0
 11
130.5946718443
 21
80.4356649885
 31
0.0
  0
LINE
  5
80
330
1F
100
AcDbEntity
  8
0
  6
Continuous
 62
     7
370
    25
100
AcDbLine
 10
130.5946718443
 20
88.8356649885
 30
0.0
 11
130.5142870866
 21
89.1356649885
 31
0.0
  0
LINE
  5
81
330
1F
100
AcDbEntity
  8
0
  6
Continuous
 62
     7
370
    25
100
AcDbLine
 10
130.5142870866
 20
89.1356649885
 30
0.0
 11
126.0946718443
 21
89.1356649885
 31
0.0
  0
LINE
  5
82
330
1F
100
AcDbEntity
  8
0
  6
Continuous
 62
     7
370
    25
100
AcDbLine
 10
126.0946718443
 20
80.1356649885
 30
0.0
 11
130.5142870866
 21
80.1356649885
 31
0.0
  0
ARC
  5
83
330
1F
100
AcDbEntity
  8
0
  6
Continuous
 62
     7
370
    25
100
AcDbCircle
 10
105.3946718443
 20
87.7746430387
 30
0.0
 40
0.8000000000000009
100
AcDbArc
 50
96.7400560979
 51
180.0
  0
ARC
  5
84
330
1F
100
AcDbEntity
  8
0
  6
Continuous
 62
     7
370
    25
100
AcDbCircle
 10
105.3946718443
 20
81.4966869383
 30
0.0
 40
0.8000000000000009
100
AcDbArc
 50
180.0
 51
263.2599439021
  0
LINE
  5
85
330
1F
100
AcDbEntity
  8
0
  6
Continuous
 62
     7
370
    25
100
AcDbLine
 10
188.603241681
 20
80.1356649885
 30
0.0
 11
193.3971337169
 21
80.7022158655
 31
0.0
  0
LINE
  5
86
330
1F
100
AcDbEntity
  8
0
  6
Continuous
 62
     7
370
    25
100
AcDbLine
 10
193.3971337169
 20
88.5691141115
 30
0.0
 11
188.603241681
 21
89.1356649885
 31
0.0
  0
LINE
  5
87
330
1F
100
AcDbEntity
  8
0
  6
Continuous
 62
     7
370
    25
100
AcDbLine
 10
184.603241681
 20
80.1356649885
 30
0.0
 11
188.603241681
 21
80.7856649885
 31
0.0
  0
LINE
  5
88
330
1F
100
AcDbEntity
  8
0
  6
Continuous
 62
     7
370
    25
100
AcDbLine
 10
188.603241681
 20
88.4856649885
 30
0.0
 11
184.603241681
 21
89.1356649885
 31
0.0
  0
LINE
  5
89
330
1F
100
AcDbEntity
  8
0
  6
Continuous
 62
     7
370
    25
100
AcDbLine
 10
180.603241681
 20
80.1356649885
 30
0.0
 11
184.603241681
 21
80.7856649885
 31
0.0
  0
LINE
  5
8A
330
1F
100
AcDbEntity
  8
0
  6
Continuous
 62
     7
370
    25
100
AcDbLine
 10
184.603241681
 20
88.4856649885
 30
0.0
 11
180.603241681
 21
89.1356649885
 31
0.0
  0
LINE
  5
8B
330
1F
100
AcDbEntity
  8
0
  6
Continuous
 62
     7
370
    25
100
AcDbLine
 10
176.603241681
 20
80.1356649885
 30
0.0
 11
180.603241681
 21
80.7856649885
 31
0.0
  0
LINE
  5
8C
330
1F
100
AcDbEntity
  8
0
  6
Continuous
 62
     7
370
    25
100
AcDbLine
 10
180.603241681
 20
88.4856649885
 30
0.0
 11
176.603241681
 21
89.1356649885
 31
0.0
  0
LINE
  5
8D
330
1F
100
AcDbEntity
  8
0
  6
Continuous
 62
     7
370
    25
100
AcDbLine
 10
172.603241681
 20
80.1356649885
 30
0.0
 11
176.603241681
 21
80.7856649885
 31
0.0
  0
LINE
  5
8E
330
1F
100
AcDbEntity
  8
0
  6
Continuous
 62
     7
370
    25
100
AcDbLine
 10
176.603241681
 20
88.4856649885
 30
0.0
 11
172.603241681
 21
89.1356649885
 31
0.0
  0
LINE
  5
8F
330
1F
100
AcDbEntity
  8
0
  6
Continuous
 62
     7
370
    25
100
AcDbLine
 10
168.1836264387
 20
80.1356649885
 30
0.0
 11
172.603241681
 21
80.1356649885
 31
0.0
  0
LINE
  5
90
330
1F
100
AcDbEntity
  8
0
  6
Continuous
 62
     7
370
    25
100
AcDbLine
 10
172.603241681
 20
89.1356649885
 30
0.0
 11
168.1836264387
 21
89.1356649885
 31
0.0
  0
LINE
  5
91
330
1F
100
AcDbEntity
  8
0
  6
Continuous
 62
     7
370
    25
100
AcDbLine
 10
168.1836264387
 20
89.1356649885
 30
0.0
 11
168.103241681
 21
88.8356649885
 31
0.0
  0
LINE
  5
92
330
1F
100
AcDbEntity
  8
0
  6
Continuous
 62
     7
370
    25
100
AcDbLine
 10
168.103241681
 20
80.4356649885
 30
0.0
 11
168.1836264387
 21
80.1356649885
 31
0.0
  0
ARC
  5
93
330
1F
100
AcDbEntity
  8
0
  6
Continuous
 62
     7
370
    25
100
AcDbCircle
 10
193.303241681
 20
81.4966869383
 30
0.0
 40
0.8000000000000114
100
AcDbArc
 50
276.7400560979
 51
0.0
  0
ARC
  5
94
330
1F
100
AcDbEntity
  8
0
  6
Continuous
 62
     7
370
    25
100
AcDbCircle
 10
193.303241681
 20
87.7746430387
 30
0.0
 40
0.8000000000000114
100
AcDbArc
 50
0.0
 51
83.2599439021
  0
LINE
  5
95
330
1F
100
AcDbEntity
  8
0
  6
Continuous
 62
     7
370
    25
100
AcDbLine
 10
133.3958055645
 20
93.8732692955
 30
0.0
 11
132.5946718443
 21
92.4856649885
 31
0.0
  0
LINE
  5
96
330
1F
100
AcDbEntity
  8
0
  6
Continuous
 62
     7
370
    25
100
AcDbLine
 10
132.5946718443
 20
76.7856649885
 30
0.0
 11
133.3958055645
 21
75.3980606815
 31
0.0
  0
LINE
  5
97
330
1F
100
AcDbEntity
  8
0
  6
Continuous
 62
     7
370
    25
100
AcDbLine
 10
140.7935381241
 20
75.3980606815
 30
0.0
 11
141.5946718443
 21
76.7856649885
 31
0.0
  0
LINE
  5
98
330
1F
100
AcDbEntity
  8
0
  6
Continuous
 62
     7
370
    25
100
AcDbLine
 10
141.5946718443
 20
92.4856649885
 30
0.0
 11
140.7935381241
 21
93.8732692955
 31
0.0
  0
LINE
  5
99
330
1F
100
AcDbEntity
  8
0
  6
Continuous
 62
     7
370
    25
100
AcDbLine
 10
141.5946718443
 20
76.7856649885
 30
0.0
 11
143.2946718443
 21
76.7856649885
 31
0.0
  0
LINE
  5
9A
330
1F
100
AcDbEntity
  8
0
  6
Continuous
 62
     7
370
    25
100
AcDbLine
 10
143.2946718443
 20
92.4856649885
 30
0.0
 11
141.5946718443
 21
92.4856649885
 31
0.0
  0
ARC
  5
9B
330
1F
100
AcDbEntity
  8
0
  6
Continuous
 62
     7
370
    25
100
AcDbCircle
 10
130.8946718443
 20
77.0856649885
 30
0.0
 40
0.3000000000000114
100
AcDbArc
 50
180.0
 51
270.0
  0
ARC
  5
9C
330
1F
100
AcDbEntity
  8
0
  6
Continuous
 62
     7
370
    25
100
AcDbCircle
 10
130.8946718443
 20
92.1856649885
 30
0.0
 40
0.3000000000000114
100
AcDbArc
 50
90.0
 51
180.0
  0
LINE
  5
9D
330
1F
100
AcDbEntity
  8
0
  6
Continuous
 62
     7
370
    25
100
AcDbLine
 10
132.5946718443
 20
92.4856649885
 30
0.0
 11
130.8946718443
 21
92.4856649885
 31
0.0
  0
LINE
  5
9E
330
1F
100
AcDbEntity
  8
0
  6
Continuous
 62
     7
370
    25
100
AcDbLine
 10
130.8946718443
 20
76.7856649885
 30
0.0
 11
132.5946718443
 21
76.7856649885
 31
0.0
  0
ARC
  5
9F
330
1F
100
AcDbEntity
  8
0
  6
Continuous
 62
     7
370
    25
100
AcDbCircle
 10
143.2946718443
 20
92.1856649885
 30
0.0
 40
0.3000000000000114
100
AcDbArc
 50
0.0
 51
90.0
  0
ARC
  5
A0
330
1F
100
AcDbEntity
  8
0
  6
Continuous
 62
     7
370
    25
100
AcDbCircle
 10
143.2946718443
 20
77.0856649885
 30
0.0
 40
0.3000000000000114
100
AcDbArc
 50
270.0
 51
0.0
  0
LINE
  5
A1
330
1F
100
AcDbEntity
  8
0
  6
Continuous
 62
     7
370
    25
100
AcDbLine
 10
137.1482616828
 20
93.8732692955
 30
0.0
 11
137.0946718443
 21
93.6732692955
 31
0.0
  0
LINE
  5
A2
330
1F
100
AcDbEntity
  8
0
  6
Continuous
 62
     7
370
    25
100
AcDbLine
 10
137.0946718443
 20
93.6732692955
 30
0.0
 11
137.0410820058
 21
93.8732692955
 31
0.0
  0
LINE
  5
A3
330
1F
100
AcDbEntity
  8
0
  6
Continuous
 62
     7
370
    25
100
AcDbLine
 10
137.0946718443
 20
75.5980606815
 30
0.0
 11
137.1482616828
 21
75.3980606815
 31
0.0
  0
LINE
  5
A4
330
1F
100
AcDbEntity
  8
0
  6
Continuous
 62
     7
370
    25
100
AcDbLine
 10
137.0410820058
 20
75.3980606815
 30
0.0
 11
137.0946718443
 21
75.5980606815
 31
0.0
  0
LINE
  5
A5
330
1F
100
AcDbEntity
  8
0
  6
Continuous
 62
     7
370
    25
100
AcDbLine
 10
157.9043754012
 20
93.8732692955
 30
0.0
 11
157.103241681
 21
92.4856649885
 31
0.0
  0
LINE
  5
A6
330
1F
100
AcDbEntity
  8
0
  6
Continuous
 62
     7
370
    25
100
AcDbLine
 10
157.103241681
 20
76.7856649885
 30
0.0
 11
157.9043754012
 21
75.3980606815
 31
0.0
  0
LINE
  5
A7
330
1F
100
AcDbEntity
  8
0
  6
Continuous
 62
     7
370
    25
100
AcDbLine
 10
165.3021079608
 20
75.3980606815
 30
0.0
 11
166.103241681
 21
76.7856649885
 31
0.0
  0
LINE
  5
A8
330
1F
100
AcDbEntity
  8
0
  6
Continuous
 62
     7
370
    25
100
AcDbLine
 10
166.103241681
 20
92.4856649885
 30
0.0
 11
165.3021079608
 21
93.8732692955
 31
0.0
  0
ARC
  5
A9
330
1F
100
AcDbEntity
  8
0
  6
Continuous
 62
     7
370
    25
100
AcDbCircle
 10
155.403241681
 20
77.0856649885
 30
0.0
 40
0.2999999999999972
100
AcDbArc
 50
180.0
 51
270.0
  0
ARC
  5
AA
330
1F
100
AcDbEntity
  8
0
  6
Continuous
 62
     7
370
    25
100
AcDbCircle
 10
155.403241681
 20
92.1856649885
 30
0.0
 40
0.2999999999999972
100
AcDbArc
 50
90.0
 51
180.0
  0
LINE
  5
AB
330
1F
100
AcDbEntity
  8
0
  6
Continuous
 62
     7
370
    25
100
AcDbLine
 10
166.103241681
 20
76.7856649885
 30
0.0
 11
167.803241681
 21
76.7856649885
 31
0.0
  0
LINE
  5
AC
330
1F
100
AcDbEntity
  8
0
  6
Continuous
 62
     7
370
    25
100
AcDbLine
 10
167.803241681
 20
92.4856649885
 30
0.0
 11
166.103241681
 21
92.4856649885
 31
0.0
  0
LINE
  5
AD
330
1F
100
AcDbEntity
  8
0
  6
Continuous
 62
     7
370
    25
100
AcDbLine
 10
157.103241681
 20
92.4856649885
 30
0.0
 11
155.403241681
 21
92.4856649885
 31
0.0
  0
LINE
  5
AE
330
1F
100
AcDbEntity
  8
0
  6
Continuous
 62
     7
370
    25
100
AcDbLine
 10
155.403241681
 20
76.7856649885
 30
0.0
 11
157.103241681
 21
76.7856649885
 31
0.0
  0
ARC
  5
AF
330
1F
100
AcDbEntity
  8
0
  6
Continuous
 62
     7
370
    25
100
AcDbCircle
 10
167.803241681
 20
92.1856649885
 30
0.0
 40
0.2999999999999972
100
AcDbArc
 50
0.0
 51
90.0
  0
ARC
  5
B0
330
1F
100
AcDbEntity
  8
0
  6
Continuous
 62
     7
370
    25
100
AcDbCircle
 10
167.803241681
 20
77.0856649885
 30
0.0
 40
0.2999999999999972
100
AcDbArc
 50
270.0
 51
0.0
  0
LINE
  5
B1
330
1F
100
AcDbEntity
  8
0
  6
Continuous
 62
     7
370
    25
100
AcDbLine
 10
161.603241681
 20
75.5980606815
 30
0.0
 11
161.6568315195
 21
75.3980606815
 31
0.0
  0
LINE
  5
B2
330
1F
100
AcDbEntity
  8
0
  6
Continuous
 62
     7
370
    25
100
AcDbLine
 10
161.5496518425
 20
75.3980606815
 30
0.0
 11
161.603241681
 21
75.5980606815
 31
0.0
  0
LINE
  5
B3
330
1F
100
AcDbEntity
  8
0
  6
Continuous
 62
     7
370
    25
100
AcDbLine
 10
161.6568315195
 20
93.8732692955
 30
0.0
 11
161.603241681
 21
93.6732692955
 31
0.0
  0
LINE
  5
B4
330
1F
100
AcDbEntity
  8
0
  6
Continuous
 62
     7
370
    25
100
AcDbLine
 10
161.603241681
 20
93.6732692955
 30
0.0
 11
161.5496518425
 21
93.8732692955
 31
0.0
  0
LINE
  5
B5
330
1F
100
AcDbEntity
  8
0
  6
Continuous
 62
     7
370
    25
100
AcDbLine
 10
151.079404413
 20
76.5527612198
 30
0.0
 11
151.8489567627
 21
77.8856649885
 31
0.0
  0
LINE
  5
B6
330
1F
100
AcDbEntity
  8
0
  6
Continuous
 62
     7
370
    25
100
AcDbLine
 10
151.8489567627
 20
91.3856649885
 30
0.0
 11
151.079404413
 21
92.7185687571
 31
0.0
  0
LINE
  5
B7
330
1F
100
AcDbEntity
  8
0
  6
Continuous
 62
     7
370
    25
100
AcDbLine
 10
147.6185091123
 20
92.7185687571
 30
0.0
 11
146.8489567627
 21
91.3856649885
 31
0.0
  0
LINE
  5
B8
330
1F
100
AcDbEntity
  8
0
  6
Continuous
 62
     7
370
    25
100
AcDbLine
 10
146.8489567627
 20
77.8856649885
 30
0.0
 11
147.6185091123
 21
76.5527612198
 31
0.0
  0
LINE
  5
B9
330
1F
100
AcDbEntity
  8
0
  6
Continuous
 62
     7
370
    25
100
AcDbLine
 10
143.8489567627
 20
91.2141649885
 30
0.0
 11
143.5946718443
 21
91.2141649885
 31
0.0
  0
LINE
  5
BA
330
1F
100
AcDbEntity
  8
0
  6
Continuous
 62
     7
370
    25
100
AcDbLine
 10
143.5946718443
 20
78.0571649885
 30
0.0
 11
143.8489567627
 21
78.0571649885
 31
0.0
  0
LINE
  5
BB
330
1F
100
AcDbEntity
  8
0
  6
Continuous
 62
     7
370
    25
100
AcDbLine
 10
154.8489567627
 20
91.2141649885
 30
0.0
 11
153.8489567627
 21
90.2141649885
 31
0.0
  0
LINE
  5
BC
330
1F
100
AcDbEntity
  8
0
  6
Continuous
 62
     7
370
    25
100
AcDbLine
 10
153.8489567627
 20
79.0571649885
 30
0.0
 11
154.8489567627
 21
78.0571649885
 31
0.0
  0
LINE
  5
BD
330
1F
100
AcDbEntity
  8
0
  6
Continuous
 62
     7
370
    25
100
AcDbLine
 10
143.8489567627
 20
78.0571649885
 30
0.0
 11
144.8489567627
 21
79.0571649885
 31
0.0
  0
LINE
  5
BE
330
1F
100
AcDbEntity
  8
0
  6
Continuous
 62
     7
370
    25
100
AcDbLine
 10
144.8489567627
 20
90.2141649885
 30
0.0
 11
143.8489567627
 21
91.2141649885
 31
0.0
  0
LINE
  5
BF
330
1F
100
AcDbEntity
  8
0
  6
Continuous
 62
     7
370
    25
100
AcDbLine
 10
154.8489567627
 20
78.0571649885
 30
0.0
 11
155.103241681
 21
78.0571649885
 31
0.0
  0
LINE
  5
C0
330
1F
100
AcDbEntity
  8
0
  6
Continuous
 62
     7
370
    25
100
AcDbLine
 10
155.103241681
 20
91.2141649885
 30
0.0
 11
154.8489567627
 21
91.2141649885
 31
0.0
  0
LINE
  5
C1
330
1F
100
AcDbEntity
  8
0
  6
Continuous
 62
     7
370
    25
100
AcDbLine
 10
146.8489567627
 20
90.1356649885
 30
0.0
 11
144.8489567627
 21
90.1356649885
 31
0.0
  0
LINE
  5
C2
330
1F
100
AcDbEntity
  8
0
  6
Continuous
 62
     7
370
    25
100
AcDbLine
 10
144.8489567627
 20
79.1356649885
 30
0.0
 11
146.8489567627
 21
79.1356649885
 31
0.0
  0
LINE
  5
C3
330
1F
100
AcDbEntity
  8
0
  6
Continuous
 62
     7
370
    25
100
AcDbLine
 10
151.8489567627
 20
79.1356649885
 30
0.0
 11
153.8489567627
 21
79.1356649885
 31
0.0
  0
LINE
  5
C4
330
1F
100
AcDbEntity
  8
0
  6
Continuous
 62
     7
370
    25
100
AcDbLine
 10
153.8489567627
 20
90.1356649885
 30
0.0
 11
151.8489567627
 21
90.1356649885
 31
0.0
  0
LINE
  5
C5
330
1F
100
AcDbEntity
  8
0
  6
Continuous
 62
     7
370
    25
100
AcDbLine
 10
149.3489567627
 20
76.8527612198
 30
0.0
 11
149.4293415204
 21
76.5527612198
 31
0.0
  0
LINE
  5
C6
330
1F
100
AcDbEntity
  8
0
  6
Continuous
 62
     7
370
    25
100
AcDbLine
 10
149.2685720049
 20
76.5527612198
 30
0.0
 11
149.3489567627
 21
76.8527612198
 31
0.0
  0
LINE
  5
C7
330
1F
100
AcDbEntity
  8
0
  6
Continuous
 62
     7
370
    25
100
AcDbLine
 10
149.4293415204
 20
92.7185687571
 30
0.0
 11
149.3489567627
 21
92.4185687571
 31
0.0
  0
LINE
  5
C8
330
1F
100
AcDbEntity
  8
0
  6
Continuous
 62
     7
370
    25
100
AcDbLine
 10
149.3489567627
 20
92.4185687571
 30
0.0
 11
149.2685720049
 21
92.7185687571
 31
0.0
  0
LINE
  5
C9
330
1F
100
AcDbEntity
  8
0
  6
Continuous
 62
     7
370
    25
100
AcDbLine
 10
114.0946718443
 20
89.1356649885
 30
0.0
 11
114.0946718443
 21
80.1356649885
 31
0.0
  0
LINE
  5
CA
330
1F
100
AcDbEntity
  8
0
  6
Continuous
 62
     7
370
    25
100
AcDbLine
 10
110.0946718443
 20
89.1356649885
 30
0.0
 11
110.0946718443
 21
80.1356649885
 31
0.0
  0
LINE
  5
CB
330
1F
100
AcDbEntity
  8
0
  6
Continuous
 62
     7
370
    25
100
AcDbLine
 10
118.0946718443
 20
89.1356649885
 30
0.0
 11
118.0946718443
 21
80.1356649885
 31
0.0
  0
LINE
  5
CC
330
1F
100
AcDbEntity
  8
0
  6
Continuous
 62
     7
370
    25
100
AcDbLine
 10
122.0946718443
 20
89.1356649885
 30
0.0
 11
122.0946718443
 21
80.1356649885
 31
0.0
  0
LINE
  5
CD
330
1F
100
AcDbEntity
  8
0
  6
Continuous
 62
     7
370
    25
100
AcDbLine
 10
126.0946718443
 20
89.1356649885
 30
0.0
 11
126.0946718443
 21
80.1356649885
 31
0.0
  0
LINE
  5
CE
330
1F
100
AcDbEntity
  8
0
  6
Continuous
 62
     7
370
    25
100
AcDbLine
 10
130.5142870866
 20
89.1356649885
 30
0.0
 11
130.5142870866
 21
80.1356649885
 31
0.0
  0
LINE
  5
CF
330
1F
100
AcDbEntity
  8
0
  6
Continuous
 62
     7
370
    25
100
AcDbLine
 10
104.5946718443
 20
81.4966869383
 30
0.0
 11
104.5946718443
 21
87.7746430387
 31
0.0
  0
LINE
  5
D0
330
1F
100
AcDbEntity
  8
0
  6
Continuous
 62
     7
370
    25
100
AcDbLine
 10
188.603241681
 20
84.6356649885
 30
0.0
 11
188.603241681
 21
89.1356649885
 31
0.0
  0
LINE
  5
D1
330
1F
100
AcDbEntity
  8
0
  6
Continuous
 62
     7
370
    25
100
AcDbLine
 10
188.603241681
 20
80.1356649885
 30
0.0
 11
188.603241681
 21
84.6356649885
 31
0.0
  0
LINE
  5
D2
330
1F
100
AcDbEntity
  8
0
  6
Continuous
 62
     7
370
    25
100
AcDbLine
 10
184.603241681
 20
84.6356649885
 30
0.0
 11
184.603241681
 21
89.1356649885
 31
0.0
  0
LINE
  5
D3
330
1F
100
AcDbEntity
  8
0
  6
Continuous
 62
     7
370
    25
100
AcDbLine
 10
184.603241681
 20
80.1356649885
 30
0.0
 11
184.603241681
 21
84.6356649885
 31
0.0
  0
LINE
  5
D4
330
1F
100
AcDbEntity
  8
0
  6
Continuous
 62
     7
370
    25
100
AcDbLine
 10
180.603241681
 20
84.6356649885
 30
0.0
 11
180.603241681
 21
89.1356649885
 31
0.0
  0
LINE
  5
D5
330
1F
100
AcDbEntity
  8
0
  6
Continuous
 62
     7
370
    25
100
AcDbLine
 10
180.603241681
 20
80.1356649885
 30
0.0
 11
180.603241681
 21
84.6356649885
 31
0.0
  0
LINE
  5
D6
330
1F
100
AcDbEntity
  8
0
  6
Continuous
 62
     7
370
    25
100
AcDbLine
 10
176.603241681
 20
84.6356649885
 30
0.0
 11
176.603241681
 21
89.1356649885
 31
0.0
  0
LINE
  5
D7
330
1F
100
AcDbEntity
  8
0
  6
Continuous
 62
     7
370
    25
100
AcDbLine
 10
176.603241681
 20
80.1356649885
 30
0.0
 11
176.603241681
 21
84.6356649885
 31
0.0
  0
LINE
  5
D8
330
1F
100
AcDbEntity
  8
0
  6
Continuous
 62
     7
370
    25
100
AcDbLine
 10
172.603241681
 20
84.6356649885
 30
0.0
 11
172.603241681
 21
89.1356649885
 31
0.0
  0
LINE
  5
D9
330
1F
100
AcDbEntity
  8
0
  6
Continuous
 62
     7
370
    25
100
AcDbLine
 10
172.603241681
 20
80.1356649885
 30
0.0
 11
172.603241681
 21
84.6356649885
 31
0.0
  0
LINE
  5
DA
330
1F
100
AcDbEntity
  8
0
  6
Continuous
 62
     7
370
    25
100
AcDbLine
 10
168.1836264387
 20
84.6356649885
 30
0.0
 11
168.1836264387
 21
89.1356649885
 31
0.0
  0
LINE
  5
DB
330
1F
100
AcDbEntity
  8
0
  6
Continuous
 62
     7
370
    25
100
AcDbLine
 10
168.1836264387
 20
80.1356649885
 30
0.0
 11
168.1836264387
 21
84.6356649885
 31
0.0
  0
LINE
  5
DC
330
1F
100
AcDbEntity
  8
0
  6
Continuous
 62
     7
370
    25
100
AcDbLine
 10
194.103241681
 20
84.6356649885
 30
0.0
 11
194.103241681
 21
81.4966869383
 31
0.0
  0
LINE
  5
DD
330
1F
100
AcDbEntity
  8
0
  6
Continuous
 62
     7
370
    25
100
AcDbLine
 10
194.103241681
 20
87.7746430387
 30
0.0
 11
194.103241681
 21
84.6356649885
 31
0.0
  0
LINE
  5
DE
330
1F
100
AcDbEntity
  8
0
  6
Continuous
 62
     7
370
    25
100
AcDbLine
 10
140.7935381241
 20
93.8732692955
 30
0.0
 11
137.1482616828
 21
93.8732692955
 31
0.0
  0
SPLINE
  5
DF
330
1F
100
AcDbEntity
  8
0
  6
Continuous
 62
     7
370
    25
100
AcDbSpline
210
0.0
220
0.0
230
1.0
 70
     8
 71
     3
 72
    15
 73
    11
 74
     0
 42
0.000000001
 43
0.00000001
 40
0.0
 40
0.0
 40
0.0
 40
0.0
 40
0.13230496641634
 40
0.264572525757654
 40
0.3997989469058927
 40
0.5350009659368332
 40
0.6501921044151404
 40
0.7654012116808012
 40
0.8826892657702319
 40
1.0
 40
1.0
 40
1.0
 40
1.0
 10
140.7935381241376
 20
93.87326929552687
 30
0.0
 10
140.9023096516808
 20
93.67371907745772
 30
0.0
 10
141.1198219533889
 20
93.27467506089448
 30
0.0
 10
141.3538571461844
 20
92.66018264539996
 30
0.0
 10
141.4945764021335
 20
92.03410697339305
 30
0.0
 10
141.522445685857
 20
91.430709220202
 30
0.0
 10
141.4501438875025
 20
90.85990901818592
 30
0.0
 10
141.3019939075234
 20
90.32121313687206
 30
0.0
 10
141.0846737488188
 20
89.7849528435985
 30
0.0
 10
140.8905895868102
 20
89.43130710559196
 30
0.0
 10
140.7935381241376
 20
89.25446714200984
 30
0.0
  0
LINE
  5
E0
330
1F
100
AcDbEntity
  8
0
  6
Continuous
 62
     7
370
    25
100
AcDbLine
 10
140.7935381241
 20
89.254467142
 30
0.0
 11
137.1482616828
 21
89.254467142
 31
0.0
  0
LINE
  5
E1
330
1F
100
AcDbEntity
  8
0
  6
Continuous
 62
     7
370
    25
100
AcDbLine
 10
137.0946718443
 20
89.4615901918
 30
0.0
 11
137.1482616828
 21
89.254467142
 31
0.0
  0
LINE
  5
E2
330
1F
100
AcDbEntity
  8
0
  6
Continuous
 62
     7
370
    25
100
AcDbLine
 10
137.0410820058
 20
89.254467142
 30
0.0
 11
137.0946718443
 21
89.4615901918
 31
0.0
  0
LINE
  5
E3
330
1F
100
AcDbEntity
  8
0
  6
Continuous
 62
     7
370
    25
100
AcDbLine
 10
137.0410820058
 20
89.254467142
 30
0.0
 11
133.3958055645
 21
89.254467142
 31
0.0
  0
SPLINE
  5
E4
330
1F
100
AcDbEntity
  8
0
  6
Continuous
 62
     7
370
    25
100
AcDbSpline
210
0.0
220
0.0
230
1.0
 70
     8
 71
     3
 72
    15
 73
    11
 74
     0
 42
0.000000001
 43
0.00000001
 40
0.0
 40
0.0
 40
0.0
 40
0.0
 40
0.13230496641634
 40
0.264572525757654
 40
0.3997989469058927
 40
0.5350009659368332
 40
0.6501921044151404
 40
0.7654012116808012
 40
0.8826892657702319
 40
1.0
 40
1.0
 40
1.0
 40
1.0
 10
133.3958055645271
 20
93.87326929552687
 30
0.0
 10
133.2870340369839
 20
93.67371907745772
 30
0.0
 10
133.0695217352759
 20
93.27467506089448
 30
0.0
 10
132.8354865424803
 20
92.66018264539996
 30
0.0
 10
132.6947672865313
 20
92.03410697339305
 30
0.0
 10
132.6668980028077
 20
91.430709220202
 30
0.0
 10
132.7391998011622
 20
90.85990901818592
 30
0.0
 10
132.8873497811413
 20
90.32121313687206
 30
0.0
 10
133.1046699398459
 20
89.7849528435985
 30
0.0
 10
133.2987541018545
 20
89.43130710559196
 30
0.0
 10
133.3958055645271
 20
89.25446714200984
 30
0.0
  0
LINE
  5
E5
330
1F
100
AcDbEntity
  8
0
  6
Continuous
 62
     7
370
    25
100
AcDbLine
 10
137.0410820058
 20
93.8732692955
 30
0.0
 11
133.3958055645
 21
93.8732692955
 31
0.0
  0
LINE
  5
E6
330
1F
100
AcDbEntity
  8
0
  6
Continuous
 62
     7
370
    25
100
AcDbLine
 10
137.0946718443
 20
93.6661462457
 30
0.0
 11
137.0410820058
 21
93.8732692955
 31
0.0
  0
LINE
  5
E7
330
1F
100
AcDbEntity
  8
0
  6
Continuous
 62
     7
370
    25
100
AcDbLine
 10
137.1482616828
 20
93.8732692955
 30
0.0
 11
137.0946718443
 21
93.6661462457
 31
0.0
  0
SPLINE
  5
E8
330
1F
100
AcDbEntity
  8
0
  6
Continuous
 62
     7
370
    25
100
AcDbSpline
210
0.0
220
0.0
230
1.0
 70
     8
 71
     3
 72
    14
 73
    10
 74
     0
 42
0.000000001
 43
0.00000001
 40
0.0
 40
0.0
 40
0.0
 40
0.0
 40
0.1912156890565411
 40
0.3842607734904397
 40
0.5102055247845747
 40
0.6361523096967547
 40
0.765454570798929
 40
0.8947932191925944
 40
1.0
 40
1.0
 40
1.0
 40
1.0
 10
133.3958055645271
 20
89.25446714200984
 30
0.0
 10
133.2422730091801
 20
88.67651961680765
 30
0.0
 10
132.9337390245226
 20
87.51509523700476
 30
0.0
 10
132.7153231604991
 20
85.93042517737955
 30
0.0
 10
132.6653207510913
 20
84.53946586724123
 30
0.0
 10
132.7237503955936
 20
83.34793935673186
 30
0.0
 10
132.8841299495017
 20
82.15557329498448
 30
0.0
 10
133.1134424343232
 20
81.04066672714505
 30
0.0
 10
133.3083697360841
 20
80.33389127070114
 30
0.0
 10
133.3958055645271
 20
80.0168628349758
 30
0.0
  0
SPLINE
  5
E9
330
1F
100
AcDbEntity
  8
0
  6
Continuous
 62
     7
370
    25
100
AcDbSpline
210
0.0
220
0.0
230
1.0
 70
     8
 71
     3
 72
    15
 73
    11
 74
     0
 42
0.000000001
 43
0.00000001
 40
0.0
 40
0.0
 40
0.0
 40
0.0
 40
0.13230496641634
 40
0.2645725257576541
 40
0.3997989469058927
 40
0.5350009659368333
 40
0.6501921044151404
 40
0.765401211680801
 40
0.8826892657702317
 40
1.0
 40
1.0
 40
1.0
 40
1.0
 10
133.3958055645271
 20
80.0168628349758
 30
0.0
 10
133.287034036984
 20
79.81731261690666
 30
0.0
 10
133.0695217352759
 20
79.41826860034342
 30
0.0
 10
132.8354865424803
 20
78.80377618484891
 30
0.0
 10
132.6947672865313
 20
78.17770051284201
 30
0.0
 10
132.6668980028077
 20
77.57430275965096
 30
0.0
 10
132.7391998011622
 20
77.00350255763489
 30
0.0
 10
132.8873497811413
 20
76.46480667632105
 30
0.0
 10
133.1046699398459
 20
75.92854638304749
 30
0.0
 10
133.2987541018545
 20
75.57490064504094
 30
0.0
 10
133.3958055645271
 20
75.39806068145882
 30
0.0
  0
LINE
  5
EA
330
1F
100
AcDbEntity
  8
0
  6
Continuous
 62
     7
370
    25
100
AcDbLine
 10
132.5946718443
 20
92.4856649885
 30
0.0
 11
132.5946718443
 21
76.7856649885
 31
0.0
  0
SPLINE
  5
EB
330
1F
100
AcDbEntity
  8
0
  6
Continuous
 62
     7
370
    25
100
AcDbSpline
210
0.0
220
0.0
230
1.0
 70
     8
 71
     3
 72
    15
 73
    11
 74
     0
 42
0.000000001
 43
0.00000001
 40
0.0
 40
0.0
 40
0.0
 40
0.0
 40
0.13230496641634
 40
0.264572525757654
 40
0.3997989469058927
 40
0.5350009659368332
 40
0.6501921044151403
 40
0.7654012116808009
 40
0.8826892657702315
 40
1.0
 40
1.0
 40
1.0
 40
1.0
 10
140.7935381241376
 20
80.0168628349758
 30
0.0
 10
140.9023096516808
 20
79.81731261690666
 30
0.0
 10
141.1198219533889
 20
79.41826860034342
 30
0.0
 10
141.3538571461844
 20
78.80377618484891
 30
0.0
 10
141.4945764021335
 20
78.17770051284201
 30
0.0
 10
141.522445685857
 20
77.57430275965096
 30
0.0
 10
141.4501438875025
 20
77.00350255763489
 30
0.0
 10
141.3019939075234
 20
76.46480667632105
 30
0.0
 10
141.0846737488188
 20
75.92854638304748
 30
0.0
 10
140.8905895868102
 20
75.57490064504094
 30
0.0
 10
140.7935381241376
 20
75.39806068145882
 30
0.0
  0
SPLINE
  5
EC
330
1F
100
AcDbEntity
  8
0
  6
Continuous
 62
     7
370
    25
100
AcDbSpline
210
0.0
220
0.0
230
1.0
 70
     8
 71
     3
 72
    14
 73
    10
 74
     0
 42
0.000000001
 43
0.00000001
 40
0.0
 40
0.0
 40
0.0
 40
0.0
 40
0.1912156890565411
 40
0.3842607734904396
 40
0.5102055247845747
 40
0.6361523096967547
 40
0.765454570798929
 40
0.8947932191925944
 40
1.0
 40
1.0
 40
1.0
 40
1.0
 10
140.7935381241376
 20
89.25446714200984
 30
0.0
 10
140.9470706794847
 20
88.67651961680765
 30
0.0
 10
141.2556046641422
 20
87.51509523700476
 30
0.0
 10
141.4740205281656
 20
85.93042517737955
 30
0.0
 10
141.5240229375734
 20
84.53946586724123
 30
0.0
 10
141.4655932930711
 20
83.34793935673186
 30
0.0
 10
141.3052137391631
 20
82.15557329498448
 30
0.0
 10
141.0759012543415
 20
81.04066672714505
 30
0.0
 10
140.8809739525806
 20
80.33389127070114
 30
0.0
 10
140.7935381241376
 20
80.0168628349758
 30
0.0
  0
LINE
  5
ED
330
1F
100
AcDbEntity
  8
0
  6
Continuous
 62
     7
370
    25
100
AcDbLine
 10
141.5946718443
 20
92.4856649885
 30
0.0
 11
141.5946718443
 21
76.7856649885
 31
0.0
  0
LINE
  5
EE
330
1F
100
AcDbEntity
  8
0
  6
Continuous
 62
     7
370
    25
100
AcDbLine
 10
137.0946718443
 20
89.4615901918
 30
0.0
 11
137.0946718443
 21
88.8402210424
 31
0.0
  0
LINE
  5
EF
330
1F
100
AcDbEntity
  8
0
  6
Continuous
 62
     7
370
    25
100
AcDbLine
 10
137.0946718443
 20
88.8402210424
 30
0.0
 11
137.0410820058
 21
89.254467142
 31
0.0
  0
LINE
  5
F0
330
1F
100
AcDbEntity
  8
0
  6
Continuous
 62
     7
370
    25
100
AcDbLine
 10
140.7935381241
 20
80.016862835
 30
0.0
 11
137.1482616828
 21
80.016862835
 31
0.0
  0
LINE
  5
F1
330
1F
100
AcDbEntity
  8
0
  6
Continuous
 62
     7
370
    25
100
AcDbLine
 10
137.0946718443
 20
80.4311089346
 30
0.0
 11
137.1482616828
 21
80.016862835
 31
0.0
  0
LINE
  5
F2
330
1F
100
AcDbEntity
  8
0
  6
Continuous
 62
     7
370
    25
100
AcDbLine
 10
137.0410820058
 20
80.016862835
 30
0.0
 11
137.0946718443
 21
80.4311089346
 31
0.0
  0
LINE
  5
F3
330
1F
100
AcDbEntity
  8
0
  6
Continuous
 62
     7
370
    25
100
AcDbLine
 10
137.0410820058
 20
80.016862835
 30
0.0
 11
133.3958055645
 21
80.016862835
 31
0.0
  0
LINE
  5
F4
330
1F
100
AcDbEntity
  8
0
  6
Continuous
 62
     7
370
    25
100
AcDbLine
 10
137.1482616828
 20
89.254467142
 30
0.0
 11
137.0946718443
 21
88.8402210424
 31
0.0
  0
LINE
  5
F5
330
1F
100
AcDbEntity
  8
0
  6
Continuous
 62
     7
370
    25
100
AcDbLine
 10
137.1482616828
 20
80.016862835
 30
0.0
 11
137.0946718443
 21
79.8097397852
 31
0.0
  0
LINE
  5
F6
330
1F
100
AcDbEntity
  8
0
  6
Continuous
 62
     7
370
    25
100
AcDbLine
 10
137.0946718443
 20
80.4311089346
 30
0.0
 11
137.0946718443
 21
79.8097397852
 31
0.0
  0
LINE
  5
F7
330
1F
100
AcDbEntity
  8
0
  6
Continuous
 62
     7
370
    25
100
AcDbLine
 10
137.0946718443
 20
79.8097397852
 30
0.0
 11
137.0410820058
 21
80.016862835
 31
0.0
  0
LINE
  5
F8
330
1F
100
AcDbEntity
  8
0
  6
Continuous
 62
     7
370
    25
100
AcDbLine
 10
140.7935381241
 20
75.3980606815
 30
0.0
 11
137.1482616828
 21
75.3980606815
 31
0.0
  0
LINE
  5
F9
330
1F
100
AcDbEntity
  8
0
  6
Continuous
 62
     7
370
    25
100
AcDbLine
 10
137.0946718443
 20
75.6051837313
 30
0.0
 11
137.1482616828
 21
75.3980606815
 31
0.0
  0
LINE
  5
FA
330
1F
100
AcDbEntity
  8
0
  6
Continuous
 62
     7
370
    25
100
AcDbLine
 10
137.0410820058
 20
75.3980606815
 30
0.0
 11
137.0946718443
 21
75.6051837313
 31
0.0
  0
LINE
  5
FB
330
1F
100
AcDbEntity
  8
0
  6
Continuous
 62
     7
370
    25
100
AcDbLine
 10
137.0410820058
 20
75.3980606815
 30
0.0
 11
133.3958055645
 21
75.3980606815
 31
0.0
  0
LINE
  5
FC
330
1F
100
AcDbEntity
  8
0
  6
Continuous
 62
     7
370
    25
100
AcDbLine
 10
130.5946718443
 20
84.6356649885
 30
0.0
 11
130.5946718443
 21
92.1856649885
 31
0.0
  0
LINE
  5
FD
330
1F
100
AcDbEntity
  8
0
  6
Continuous
 62
     7
370
    25
100
AcDbLine
 10
130.5946718443
 20
77.0856649885
 30
0.0
 11
130.5946718443
 21
84.6356649885
 31
0.0
  0
LINE
  5
FE
330
1F
100
AcDbEntity
  8
0
  6
Continuous
 62
     7
370
    25
100
AcDbLine
 10
143.5946718443
 20
92.1856649885
 30
0.0
 11
143.5946718443
 21
77.0856649885
 31
0.0
  0
LINE
  5
FF
330
1F
100
AcDbEntity
  8
0
  6
Continuous
 62
     7
370
    25
100
AcDbLine
 10
137.0946718443
 20
93.6732692955
 30
0.0
 11
137.0946718443
 21
93.6661462457
 31
0.0
  0
LINE
  5
100
330
1F
100
AcDbEntity
  8
0
  6
Continuous
 62
     7
370
    25
100
AcDbLine
 10
137.0946718443
 20
75.6051837313
 30
0.0
 11
137.0946718443
 21
75.5980606815
 31
0.0
  0
LINE
  5
101
330
1F
100
AcDbEntity
  8
0
  6
Continuous
 62
     7
370
    25
100
AcDbLine
 10
161.603241681
 20
89.4615901918
 30
0.0
 11
161.6568315195
 21
89.254467142
 31
0.0
  0
LINE
  5
102
330
1F
100
AcDbEntity
  8
0
  6
Continuous
 62
     7
370
    25
100
AcDbLine
 10
161.6568315195
 20
89.254467142
 30
0.0
 11
161.603241681
 21
88.8402210424
 31
0.0
  0
LINE
  5
103
330
1F
100
AcDbEntity
  8
0
  6
Continuous
 62
     7
370
    25
100
AcDbLine
 10
161.603241681
 20
88.8402210424
 30
0.0
 11
161.603241681
 21
89.4615901918
 31
0.0
  0
SPLINE
  5
104
330
1F
100
AcDbEntity
  8
0
  6
Continuous
 62
     7
370
    25
100
AcDbSpline
210
0.0
220
0.0
230
1.0
 70
     8
 71
     3
 72
    14
 73
    10
 74
     0
 42
0.000000001
 43
0.00000001
 40
0.0
 40
0.0
 40
0.0
 40
0.0
 40
0.1052068357133045
 40
0.2313210752448397
 40
0.3574023224982446
 40
0.4865716879238012
 40
0.6157381069695573
 40
0.8067800019191284
 40
0.9999999999999999
 40
0.9999999999999999
 40
0.9999999999999999
 40
0.9999999999999999
 10
157.9043754011759
 20
80.0168628349759
 30
0.0
 10
157.8169340780344
 20
80.33389028532731
 30
0.0
 10
157.6246745090362
 20
81.03094699462002
 30
0.0
 10
157.3985419141499
 20
82.12587200779132
 30
0.0
 10
157.2361367368444
 20
83.30770603631126
 30
0.0
 10
157.173321730557
 20
84.5091880662473
 30
0.0
 10
157.222262485206
 20
85.91416989715412
 30
0.0
 10
157.4410417449215
 20
87.50889633386839
 30
0.0
 10
157.7493483266472
 20
88.67041560136325
 30
0.0
 10
157.9043754011759
 20
89.25446714200994
 30
0.0
  0
SPLINE
  5
105
330
1F
100
AcDbEntity
  8
0
  6
Continuous
 62
     7
370
    25
100
AcDbSpline
210
0.0
220
0.0
230
1.0
 70
     8
 71
     3
 72
    15
 73
    11
 74
     0
 42
0.000000001
 43
0.00000001
 40
0.0
 40
0.0
 40
0.0
 40
0.0
 40
0.13230496641634
 40
0.2645725257576541
 40
0.3997989469058928
 40
0.5350009659368333
 40
0.6501921044151404
 40
0.765401211680801
 40
0.8826892657702317
 40
1.0
 40
1.0
 40
1.0
 40
1.0
 10
157.9043754011759
 20
75.39806068145882
 30
0.0
 10
157.7956038736326
 20
75.59761089952796
 30
0.0
 10
157.5780915719246
 20
75.99665491609122
 30
0.0
 10
157.344056379129
 20
76.61114733158574
 30
0.0
 10
157.20333712318
 20
77.23722300359266
 30
0.0
 10
157.1754678394565
 20
77.84062075678371
 30
0.0
 10
157.2477696378109
 20
78.4114209587998
 30
0.0
 10
157.39591961779
 20
78.95011684011367
 30
0.0
 10
157.6132397764946
 20
79.48637713338722
 30
0.0
 10
157.8073239385033
 20
79.84002287139378
 30
0.0
 10
157.9043754011759
 20
80.0168628349759
 30
0.0
  0
SPLINE
  5
106
330
1F
100
AcDbEntity
  8
0
  6
Continuous
 62
     7
370
    25
100
AcDbSpline
210
0.0
220
0.0
230
1.0
 70
     8
 71
     3
 72
    15
 73
    11
 74
     0
 42
0.000000001
 43
0.00000001
 40
0.0
 40
0.0
 40
0.0
 40
0.0
 40
0.1323049664163416
 40
0.2645725257576573
 40
0.3997989469058977
 40
0.5350009659368399
 40
0.6501921044151454
 40
0.7654012116808045
 40
0.8826892657702334
 40
1.0
 40
1.0
 40
1.0
 40
1.0
 10
157.9043754011759
 20
89.25446714200994
 30
0.0
 10
157.7956038736326
 20
89.45401736007908
 30
0.0
 10
157.5780915719246
 20
89.85306137664232
 30
0.0
 10
157.344056379129
 20
90.46755379213683
 30
0.0
 10
157.20333712318
 20
91.09362946414373
 30
0.0
 10
157.1754678394565
 20
91.69702721733478
 30
0.0
 10
157.247769637811
 20
92.26782741935084
 30
0.0
 10
157.39591961779
 20
92.80652330066467
 30
0.0
 10
157.6132397764946
 20
93.34278359393822
 30
0.0
 10
157.8073239385033
 20
93.69642933194474
 30
0.0
 10
157.9043754011759
 20
93.87326929552687
 30
0.0
  0
LINE
  5
107
330
1F
100
AcDbEntity
  8
0
  6
Continuous
 62
     7
370
    25
100
AcDbLine
 10
157.103241681
 20
84.6356649885
 30
0.0
 11
157.103241681
 21
92.4856649885
 31
0.0
  0
LINE
  5
108
330
1F
100
AcDbEntity
  8
0
  6
Continuous
 62
     7
370
    25
100
AcDbLine
 10
157.103241681
 20
76.7856649885
 30
0.0
 11
157.103241681
 21
84.6356649885
 31
0.0
  0
SPLINE
  5
109
330
1F
100
AcDbEntity
  8
0
  6
Continuous
 62
     7
370
    25
100
AcDbSpline
210
0.0
220
0.0
230
1.0
 70
     8
 71
     3
 72
    15
 73
    11
 74
     0
 42
0.000000001
 43
0.00000001
 40
0.0
 40
0.0
 40
0.0
 40
0.0
 40
0.1323049664163416
 40
0.2645725257576573
 40
0.3997989469058977
 40
0.5350009659368399
 40
0.6501921044151454
 40
0.7654012116808045
 40
0.8826892657702333
 40
1.0
 40
1.0
 40
1.0
 40
1.0
 10
165.3021079607863
 20
89.25446714200994
 30
0.0
 10
165.4108794883295
 20
89.45401736007908
 30
0.0
 10
165.6283917900375
 20
89.85306137664233
 30
0.0
 10
165.8624269828331
 20
90.46755379213683
 30
0.0
 10
166.0031462387822
 20
91.09362946414373
 30
0.0
 10
166.0310155225057
 20
91.69702721733478
 30
0.0
 10
165.9587137241512
 20
92.26782741935084
 30
0.0
 10
165.8105637441721
 20
92.80652330066467
 30
0.0
 10
165.5932435854675
 20
93.34278359393822
 30
0.0
 10
165.3991594234589
 20
93.69642933194474
 30
0.0
 10
165.3021079607863
 20
93.87326929552687
 30
0.0
  0
SPLINE
  5
10A
330
1F
100
AcDbEntity
  8
0
  6
Continuous
 62
     7
370
    25
100
AcDbSpline
210
0.0
220
0.0
230
1.0
 70
     8
 71
     3
 72
    15
 73
    11
 74
     0
 42
0.000000001
 43
0.00000001
 40
0.0
 40
0.0
 40
0.0
 40
0.0
 40
0.13230496641634
 40
0.264572525757654
 40
0.3997989469058927
 40
0.5350009659368333
 40
0.6501921044151404
 40
0.765401211680801
 40
0.8826892657702317
 40
1.0
 40
1.0
 40
1.0
 40
1.0
 10
165.3021079607863
 20
75.39806068145882
 30
0.0
 10
165.4108794883295
 20
75.59761089952796
 30
0.0
 10
165.6283917900375
 20
75.99665491609122
 30
0.0
 10
165.8624269828331
 20
76.61114733158574
 30
0.0
 10
166.0031462387822
 20
77.23722300359266
 30
0.0
 10
166.0310155225057
 20
77.84062075678371
 30
0.0
 10
165.9587137241512
 20
78.41142095879981
 30
0.0
 10
165.8105637441722
 20
78.95011684011367
 30
0.0
 10
165.5932435854675
 20
79.48637713338722
 30
0.0
 10
165.3991594234589
 20
79.84002287139378
 30
0.0
 10
165.3021079607863
 20
80.0168628349759
 30
0.0
  0
SPLINE
  5
10B
330
1F
100
AcDbEntity
  8
0
  6
Continuous
 62
     7
370
    25
100
AcDbSpline
210
0.0
220
0.0
230
1.0
 70
     8
 71
     3
 72
    14
 73
    10
 74
     0
 42
0.000000001
 43
0.00000001
 40
0.0
 40
0.0
 40
0.0
 40
0.0
 40
0.1052068357133045
 40
0.2313210752448397
 40
0.3574023224982446
 40
0.4865716879238012
 40
0.6157381069695573
 40
0.8067800019191284
 40
0.9999999999999999
 40
0.9999999999999999
 40
0.9999999999999999
 40
0.9999999999999999
 10
165.3021079607863
 20
80.0168628349759
 30
0.0
 10
165.3895492839277
 20
80.33389028532731
 30
0.0
 10
165.581808852926
 20
81.03094699462002
 30
0.0
 10
165.8079414478123
 20
82.12587200779132
 30
0.0
 10
165.9703466251178
 20
83.30770603631126
 30
0.0
 10
166.0331616314051
 20
84.5091880662473
 30
0.0
 10
165.9842208767562
 20
85.91416989715412
 30
0.0
 10
165.7654416170406
 20
87.50889633386839
 30
0.0
 10
165.457135035315
 20
88.67041560136325
 30
0.0
 10
165.3021079607863
 20
89.25446714200994
 30
0.0
  0
LINE
  5
10C
330
1F
100
AcDbEntity
  8
0
  6
Continuous
 62
     7
370
    25
100
AcDbLine
 10
166.103241681
 20
84.6356649885
 30
0.0
 11
166.103241681
 21
92.4856649885
 31
0.0
  0
LINE
  5
10D
330
1F
100
AcDbEntity
  8
0
  6
Continuous
 62
     7
370
    25
100
AcDbLine
 10
166.103241681
 20
76.7856649885
 30
0.0
 11
166.103241681
 21
84.6356649885
 31
0.0
  0
LINE
  5
10E
330
1F
100
AcDbEntity
  8
0
  6
Continuous
 62
     7
370
    25
100
AcDbLine
 10
161.5496518425
 20
89.254467142
 30
0.0
 11
161.603241681
 21
89.4615901918
 31
0.0
  0
LINE
  5
10F
330
1F
100
AcDbEntity
  8
0
  6
Continuous
 62
     7
370
    25
100
AcDbLine
 10
161.603241681
 20
88.8402210424
 30
0.0
 11
161.5496518425
 21
89.254467142
 31
0.0
  0
LINE
  5
110
330
1F
100
AcDbEntity
  8
0
  6
Continuous
 62
     7
370
    25
100
AcDbLine
 10
157.9043754012
 20
75.3980606815
 30
0.0
 11
161.5496518425
 21
75.3980606815
 31
0.0
  0
LINE
  5
111
330
1F
100
AcDbEntity
  8
0
  6
Continuous
 62
     7
370
    25
100
AcDbLine
 10
157.9043754012
 20
80.016862835
 30
0.0
 11
161.5496518425
 21
80.016862835
 31
0.0
  0
LINE
  5
112
330
1F
100
AcDbEntity
  8
0
  6
Continuous
 62
     7
370
    25
100
AcDbLine
 10
161.603241681
 20
79.8097397852
 30
0.0
 11
161.5496518425
 21
80.016862835
 31
0.0
  0
LINE
  5
113
330
1F
100
AcDbEntity
  8
0
  6
Continuous
 62
     7
370
    25
100
AcDbLine
 10
161.6568315195
 20
80.016862835
 30
0.0
 11
161.603241681
 21
79.8097397852
 31
0.0
  0
LINE
  5
114
330
1F
100
AcDbEntity
  8
0
  6
Continuous
 62
     7
370
    25
100
AcDbLine
 10
161.6568315195
 20
80.016862835
 30
0.0
 11
165.3021079608
 21
80.016862835
 31
0.0
  0
LINE
  5
115
330
1F
100
AcDbEntity
  8
0
  6
Continuous
 62
     7
370
    25
100
AcDbLine
 10
161.6568315195
 20
75.3980606815
 30
0.0
 11
165.3021079608
 21
75.3980606815
 31
0.0
  0
LINE
  5
116
330
1F
100
AcDbEntity
  8
0
  6
Continuous
 62
     7
370
    25
100
AcDbLine
 10
161.603241681
 20
75.6051837313
 30
0.0
 11
161.6568315195
 21
75.3980606815
 31
0.0
  0
LINE
  5
117
330
1F
100
AcDbEntity
  8
0
  6
Continuous
 62
     7
370
    25
100
AcDbLine
 10
161.5496518425
 20
75.3980606815
 30
0.0
 11
161.603241681
 21
75.6051837313
 31
0.0
  0
LINE
  5
118
330
1F
100
AcDbEntity
  8
0
  6
Continuous
 62
     7
370
    25
100
AcDbLine
 10
161.5496518425
 20
80.016862835
 30
0.0
 11
161.603241681
 21
80.4311089346
 31
0.0
  0
LINE
  5
119
330
1F
100
AcDbEntity
  8
0
  6
Continuous
 62
     7
370
    25
100
AcDbLine
 10
161.603241681
 20
79.8097397852
 30
0.0
 11
161.603241681
 21
80.4311089346
 31
0.0
  0
LINE
  5
11A
330
1F
100
AcDbEntity
  8
0
  6
Continuous
 62
     7
370
    25
100
AcDbLine
 10
157.9043754012
 20
89.254467142
 30
0.0
 11
161.5496518425
 21
89.254467142
 31
0.0
  0
LINE
  5
11B
330
1F
100
AcDbEntity
  8
0
  6
Continuous
 62
     7
370
    25
100
AcDbLine
 10
161.6568315195
 20
89.254467142
 30
0.0
 11
165.3021079608
 21
89.254467142
 31
0.0
  0
LINE
  5
11C
330
1F
100
AcDbEntity
  8
0
  6
Continuous
 62
     7
370
    25
100
AcDbLine
 10
161.603241681
 20
80.4311089346
 30
0.0
 11
161.6568315195
 21
80.016862835
 31
0.0
  0
LINE
  5
11D
330
1F
100
AcDbEntity
  8
0
  6
Continuous
 62
     7
370
    25
100
AcDbLine
 10
157.9043754012
 20
93.8732692955
 30
0.0
 11
161.5496518425
 21
93.8732692955
 31
0.0
  0
LINE
  5
11E
330
1F
100
AcDbEntity
  8
0
  6
Continuous
 62
     7
370
    25
100
AcDbLine
 10
161.603241681
 20
93.6661462457
 30
0.0
 11
161.5496518425
 21
93.8732692955
 31
0.0
  0
LINE
  5
11F
330
1F
100
AcDbEntity
  8
0
  6
Continuous
 62
     7
370
    25
100
AcDbLine
 10
161.6568315195
 20
93.8732692955
 30
0.0
 11
161.603241681
 21
93.6661462457
 31
0.0
  0
LINE
  5
120
330
1F
100
AcDbEntity
  8
0
  6
Continuous
 62
     7
370
    25
100
AcDbLine
 10
161.6568315195
 20
93.8732692955
 30
0.0
 11
165.3021079608
 21
93.8732692955
 31
0.0
  0
LINE
  5
121
330
1F
100
AcDbEntity
  8
0
  6
Continuous
 62
     7
370
    25
100
AcDbLine
 10
155.103241681
 20
84.6356649885
 30
0.0
 11
155.103241681
 21
92.1856649885
 31
0.0
  0
LINE
  5
122
330
1F
100
AcDbEntity
  8
0
  6
Continuous
 62
     7
370
    25
100
AcDbLine
 10
155.103241681
 20
77.0856649885
 30
0.0
 11
155.103241681
 21
84.6356649885
 31
0.0
  0
LINE
  5
123
330
1F
100
AcDbEntity
  8
0
  6
Continuous
 62
     7
370
    25
100
AcDbLine
 10
168.103241681
 20
92.1856649885
 30
0.0
 11
168.103241681
 21
77.0856649885
 31
0.0
  0
LINE
  5
124
330
1F
100
AcDbEntity
  8
0
  6
Continuous
 62
     7
370
    25
100
AcDbLine
 10
161.603241681
 20
75.5980606815
 30
0.0
 11
161.603241681
 21
75.6051837313
 31
0.0
  0
LINE
  5
125
330
1F
100
AcDbEntity
  8
0
  6
Continuous
 62
     7
370
    25
100
AcDbLine
 10
161.603241681
 20
93.6661462457
 30
0.0
 11
161.603241681
 21
93.6732692955
 31
0.0
  0
LINE
  5
126
330
1F
100
AcDbEntity
  8
0
  6
Continuous
 62
     7
370
    25
100
AcDbLine
 10
147.6185091123
 20
76.5527612198
 30
0.0
 11
149.2685720049
 21
76.5527612198
 31
0.0
  0
SPLINE
  5
127
330
1F
100
AcDbEntity
  8
0
  6
Continuous
 62
     7
370
    25
100
AcDbSpline
210
0.0
220
0.0
230
1.0
 70
     8
 71
     3
 72
    16
 73
    12
 74
     0
 42
0.000000001
 43
0.00000001
 40
0.0
 40
0.0
 40
0.0
 40
0.0
 40
0.2499999999999998
 40
0.2499999999999998
 40
0.4999999999999997
 40
0.4999999999999997
 40
0.6249999999999997
 40
0.6249999999999997
 40
0.7499999999999997
 40
0.7499999999999997
 40
1.0
 40
1.0
 40
1.0
 40
1.0
 10
147.6185091122929
 20
76.55276121983803
 30
0.0
 10
147.4280146413082
 20
76.88270732214464
 30
0.0
 10
147.271012628095
 20
77.21505906345436
 30
0.0
 10
147.053513817257
 20
77.8866941577281
 30
0.0
 10
146.993734456187
 20
78.22602904149858
 30
0.0
 10
146.993077955333
 20
78.74142480776877
 30
0.0
 10
147.0076917218165
 20
78.91403156826927
 30
0.0
 10
147.0646775796933
 20
79.25546598078779
 30
0.0
 10
147.1069918489525
 20
79.4250384835318
 30
0.0
 10
147.2703866688427
 20
79.93073698308328
 30
0.0
 10
147.4277771961561
 20
80.26385573479129
 30
0.0
 10
147.6185091122932
 20
80.59421310416555
 30
0.0
  0
LINE
  5
128
330
1F
100
AcDbEntity
  8
0
  6
Continuous
 62
     7
370
    25
100
AcDbLine
 10
147.6185091123
 20
80.5942131042
 30
0.0
 11
149.2685720049
 21
80.5942131042
 31
0.0
  0
SPLINE
  5
129
330
1F
100
AcDbEntity
  8
0
  6
Continuous
 62
     7
370
    25
100
AcDbSpline
210
0.0
220
0.0
230
1.0
 70
     8
 71
     3
 72
     8
 73
     4
 74
     0
 42
0.000000001
 43
0.00000001
 40
0.0
 40
0.0
 40
0.0
 40
0.0
 40
1.0
 40
1.0
 40
1.0
 40
1.0
 10
149.3489567626567
 20
80.27448621198249
 30
0.0
 10
149.323956349734
 20
80.38121272679393
 30
0.0
 10
149.2970900382738
 20
80.48778235478474
 30
0.0
 10
149.2685720049274
 20
80.59421310416552
 30
0.0
  0
SPLINE
  5
12A
330
1F
100
AcDbEntity
  8
0
  6
Continuous
 62
     7
370
    25
100
AcDbSpline
210
0.0
220
0.0
230
1.0
 70
     8
 71
     3
 72
     8
 73
     4
 74
     0
 42
0.000000001
 43
0.00000001
 40
0.0
 40
0.0
 40
0.0
 40
0.0
 40
1.0
 40
1.0
 40
1.0
 40
1.0
 10
149.4293415203861
 20
80.59421310416552
 30
0.0
 10
149.4008077055479
 20
80.487723457456
 30
0.0
 10
149.3739427837412
 20
80.38115128817921
 30
0.0
 10
149.3489567626567
 20
80.27448621198249
 30
0.0
  0
LINE
  5
12B
330
1F
100
AcDbEntity
  8
0
  6
Continuous
 62
     7
370
    25
100
AcDbLine
 10
149.4293415204
 20
80.5942131042
 30
0.0
 11
151.079404413
 21
80.5942131042
 31
0.0
  0
SPLINE
  5
12C
330
1F
100
AcDbEntity
  8
0
  6
Continuous
 62
     7
370
    25
100
AcDbSpline
210
0.0
220
0.0
230
1.0
 70
     8
 71
     3
 72
    16
 73
    12
 74
     0
 42
0.000000001
 43
0.00000001
 40
0.0
 40
0.0
 40
0.0
 40
0.0
 40
0.2500000000000001
 40
0.2500000000000001
 40
0.5000000000000001
 40
0.5000000000000001
 40
0.6250000000000001
 40
0.6250000000000001
 40
0.7500000000000002
 40
0.7500000000000002
 40
1.0
 40
1.0
 40
1.0
 40
1.0
 10
151.0794044130205
 20
76.55276121983803
 30
0.0
 10
151.2698988840053
 20
76.88270732214464
 30
0.0
 10
151.4269008972184
 20
77.21505906345433
 30
0.0
 10
151.6443997080564
 20
77.88669415772806
 30
0.0
 10
151.7041790691265
 20
78.22602904149852
 30
0.0
 10
151.7048355699805
 20
78.74142480776871
 30
0.0
 10
151.690221803497
 20
78.9140315682692
 30
0.0
 10
151.6332359456201
 20
79.25546598078772
 30
0.0
 10
151.5909216763609
 20
79.4250384835317
 30
0.0
 10
151.4275268564708
 20
79.93073698308318
 30
0.0
 10
151.2701363291573
 20
80.26385573479118
 30
0.0
 10
151.0794044130203
 20
80.59421310416542
 30
0.0
  0
LINE
  5
12D
330
1F
100
AcDbEntity
  8
0
  6
Continuous
 62
     7
370
    25
100
AcDbLine
 10
149.4293415204
 20
76.5527612198
 30
0.0
 11
151.079404413
 21
76.5527612198
 31
0.0
  0
SPLINE
  5
12E
330
1F
100
AcDbEntity
  8
0
  6
Continuous
 62
     7
370
    25
100
AcDbSpline
210
0.0
220
0.0
230
1.0
 70
     8
 71
     3
 72
     8
 73
     4
 74
     0
 42
0.000000001
 43
0.00000001
 40
0.0
 40
0.0
 40
0.0
 40
0.0
 40
1.0
 40
1.0
 40
1.0
 40
1.0
 10
149.3489567626567
 20
76.8724881120211
 30
0.0
 10
149.3739571755794
 20
76.76576159720966
 30
0.0
 10
149.4008234870396
 20
76.65919196921885
 30
0.0
 10
149.4293415203861
 20
76.55276121983808
 30
0.0
  0
SPLINE
  5
12F
330
1F
100
AcDbEntity
  8
0
  6
Continuous
 62
     7
370
    25
100
AcDbSpline
210
0.0
220
0.0
230
1.0
 70
     8
 71
     3
 72
     8
 73
     4
 74
     0
 42
0.000000001
 43
0.00000001
 40
0.0
 40
0.0
 40
0.0
 40
0.0
 40
1.0
 40
1.0
 40
1.0
 40
1.0
 10
149.2685720049274
 20
76.55276121983808
 30
0.0
 10
149.2971058197655
 20
76.65925086654761
 30
0.0
 10
149.3239707415723
 20
76.7658230358244
 30
0.0
 10
149.3489567626567
 20
76.8724881120211
 30
0.0
  0
SPLINE
  5
130
330
1F
100
AcDbEntity
  8
0
  6
Continuous
 62
     7
370
    25
100
AcDbSpline
210
0.0
220
0.0
230
1.0
 70
     8
 71
     3
 72
    14
 73
    10
 74
     0
 42
0.000000001
 43
0.00000001
 40
0.0
 40
0.0
 40
0.0
 40
0.0
 40
0.2500000000000001
 40
0.2500000000000001
 40
0.5000000000000001
 40
0.5000000000000001
 40
0.7500000000000001
 40
0.7500000000000001
 40
1.0
 40
1.0
 40
1.0
 40
1.0
 10
147.6185091122934
 20
80.59421310416552
 30
0.0
 10
147.4284373067
 20
81.2526411529138
 30
0.0
 10
147.2694423791618
 20
81.92563209018297
 30
0.0
 10
147.0520062843698
 20
83.27430490925441
 30
0.0
 10
146.9932047394319
 20
83.95313119069979
 30
0.0
 10
146.9933841288888
 20
85.32137801038665
 30
0.0
 10
147.0539357556924
 20
86.01400465494955
 30
0.0
 10
147.2728981955797
 20
87.36199586446469
 30
0.0
 10
147.4298737591898
 20
88.02366484146192
 30
0.0
 10
147.6185091122934
 20
88.6771168728203
 30
0.0
  0
LINE
  5
131
330
1F
100
AcDbEntity
  8
0
  6
Continuous
 62
     7
370
    25
100
AcDbLine
 10
147.6185091123
 20
88.6771168728
 30
0.0
 11
149.2685720049
 21
88.6771168728
 31
0.0
  0
SPLINE
  5
132
330
1F
100
AcDbEntity
  8
0
  6
Continuous
 62
     7
370
    25
100
AcDbSpline
210
0.0
220
0.0
230
1.0
 70
     8
 71
     3
 72
     8
 73
     4
 74
     0
 42
0.000000001
 43
0.00000001
 40
0.0
 40
0.0
 40
0.0
 40
0.0
 40
1.0
 40
1.0
 40
1.0
 40
1.0
 10
149.3489567626567
 20
88.03766308845425
 30
0.0
 10
149.3239570906625
 20
88.25110979204456
 30
0.0
 10
149.2970908498755
 20
88.46424931618115
 30
0.0
 10
149.2685720049274
 20
88.6771168728203
 30
0.0
  0
SPLINE
  5
133
330
1F
100
AcDbEntity
  8
0
  6
Continuous
 62
     7
370
    25
100
AcDbSpline
210
0.0
220
0.0
230
1.0
 70
     8
 71
     3
 72
     8
 73
     4
 74
     0
 42
0.000000001
 43
0.00000001
 40
0.0
 40
0.0
 40
0.0
 40
0.0
 40
1.0
 40
1.0
 40
1.0
 40
1.0
 10
149.4293415203861
 20
88.6771168728203
 30
0.0
 10
149.4008053900704
 20
88.46412029644155
 30
0.0
 10
149.373940674887
 20
88.25097523549258
 30
0.0
 10
149.3489567626567
 20
88.03766308845425
 30
0.0
  0
LINE
  5
134
330
1F
100
AcDbEntity
  8
0
  6
Continuous
 62
     7
370
    25
100
AcDbLine
 10
149.4293415204
 20
88.6771168728
 30
0.0
 11
151.079404413
 21
88.6771168728
 31
0.0
  0
SPLINE
  5
135
330
1F
100
AcDbEntity
  8
0
  6
Continuous
 62
     7
370
    25
100
AcDbSpline
210
0.0
220
0.0
230
1.0
 70
     8
 71
     3
 72
    14
 73
    10
 74
     0
 42
0.000000001
 43
0.00000001
 40
0.0
 40
0.0
 40
0.0
 40
0.0
 40
0.25
 40
0.25
 40
0.5
 40
0.5
 40
0.75
 40
0.75
 40
1.0
 40
1.0
 40
1.0
 40
1.0
 10
151.0794044130199
 20
80.59421310416525
 30
0.0
 10
151.2694762186134
 20
81.25264115291353
 30
0.0
 10
151.4284711461516
 20
81.92563209018273
 30
0.0
 10
151.6459072409436
 20
83.27430490925423
 30
0.0
 10
151.7047087858815
 20
83.95313119069962
 30
0.0
 10
151.7045293964246
 20
85.32137801038652
 30
0.0
 10
151.643977769621
 20
86.01400465494945
 30
0.0
 10
151.4250153297337
 20
87.36199586446463
 30
0.0
 10
151.2680397661237
 20
88.0236648414619
 30
0.0
 10
151.07940441302
 20
88.6771168728203
 30
0.0
  0
SPLINE
  5
136
330
1F
100
AcDbEntity
  8
0
  6
Continuous
 62
     7
370
    25
100
AcDbSpline
210
0.0
220
0.0
230
1.0
 70
     8
 71
     3
 72
     8
 73
     4
 74
     0
 42
0.000000001
 43
0.00000001
 40
0.0
 40
0.0
 40
0.0
 40
0.0
 40
1.0
 40
1.0
 40
1.0
 40
1.0
 10
149.3489567626567
 20
81.23366688853157
 30
0.0
 10
149.3739564346509
 20
81.02022018494128
 30
0.0
 10
149.400822675438
 20
80.80708066080466
 30
0.0
 10
149.4293415203861
 20
80.59421310416552
 30
0.0
  0
SPLINE
  5
137
330
1F
100
AcDbEntity
  8
0
  6
Continuous
 62
     7
370
    25
100
AcDbSpline
210
0.0
220
0.0
230
1.0
 70
     8
 71
     3
 72
     8
 73
     4
 74
     0
 42
0.000000001
 43
0.00000001
 40
0.0
 40
0.0
 40
0.0
 40
0.0
 40
1.0
 40
1.0
 40
1.0
 40
1.0
 10
149.2685720049274
 20
80.59421310416552
 30
0.0
 10
149.297108135243
 20
80.80720968054429
 30
0.0
 10
149.3239728504265
 20
81.02035474149326
 30
0.0
 10
149.3489567626567
 20
81.23366688853157
 30
0.0
  0
LINE
  5
138
330
1F
100
AcDbEntity
  8
0
  6
Continuous
 62
     7
370
    25
100
AcDbLine
 10
149.3489567627
 20
80.274486212
 30
0.0
 11
149.3489567627
 21
81.2336668885
 31
0.0
  0
SPLINE
  5
139
330
1F
100
AcDbEntity
  8
0
  6
Continuous
 62
     7
370
    25
100
AcDbSpline
210
0.0
220
0.0
230
1.0
 70
     8
 71
     3
 72
     8
 73
     4
 74
     0
 42
0.000000001
 43
0.00000001
 40
0.0
 40
0.0
 40
0.0
 40
0.0
 40
1.0
 40
1.0
 40
1.0
 40
1.0
 10
149.2685720049274
 20
88.6771168728203
 30
0.0
 10
149.2971058197655
 20
88.78360651952984
 30
0.0
 10
149.3239707415723
 20
88.89017868880663
 30
0.0
 10
149.3489567626567
 20
88.99684376500333
 30
0.0
  0
LINE
  5
13A
330
1F
100
AcDbEntity
  8
0
  6
Continuous
 62
     7
370
    25
100
AcDbLine
 10
149.3489567627
 20
88.0376630885
 30
0.0
 11
149.3489567627
 21
88.996843765
 31
0.0
  0
SPLINE
  5
13B
330
1F
100
AcDbEntity
  8
0
  6
Continuous
 62
     7
370
    25
100
AcDbSpline
210
0.0
220
0.0
230
1.0
 70
     8
 71
     3
 72
    16
 73
    12
 74
     0
 42
0.000000001
 43
0.00000001
 40
0.0
 40
0.0
 40
0.0
 40
0.0
 40
0.2499999999999999
 40
0.2499999999999999
 40
0.4999999999999998
 40
0.4999999999999998
 40
0.6249999999999998
 40
0.6249999999999998
 40
0.7499999999999999
 40
0.7499999999999999
 40
1.0
 40
1.0
 40
1.0
 40
1.0
 10
151.0794044130205
 20
88.67711687282028
 30
0.0
 10
151.2698988840053
 20
89.00706297512687
 30
0.0
 10
151.4269008972184
 20
89.33941471643655
 30
0.0
 10
151.6443997080564
 20
90.01104981071028
 30
0.0
 10
151.7041790691265
 20
90.35038469448074
 30
0.0
 10
151.7048355699804
 20
90.86578046075091
 30
0.0
 10
151.6902218034969
 20
91.0383872212514
 30
0.0
 10
151.6332359456201
 20
91.37982163376992
 30
0.0
 10
151.5909216763609
 20
91.54939413651391
 30
0.0
 10
151.4275268564707
 20
92.05509263606538
 30
0.0
 10
151.2701363291573
 20
92.3882113877734
 30
0.0
 10
151.0794044130203
 20
92.71856875714762
 30
0.0
  0
LINE
  5
13C
330
1F
100
AcDbEntity
  8
0
  6
Continuous
 62
     7
370
    25
100
AcDbLine
 10
151.8489567627
 20
84.6356649885
 30
0.0
 11
151.8489567627
 21
91.3856649885
 31
0.0
  0
LINE
  5
13D
330
1F
100
AcDbEntity
  8
0
  6
Continuous
 62
     7
370
    25
100
AcDbLine
 10
151.8489567627
 20
77.8856649885
 30
0.0
 11
151.8489567627
 21
84.6356649885
 31
0.0
  0
SPLINE
  5
13E
330
1F
100
AcDbEntity
  8
0
  6
Continuous
 62
     7
370
    25
100
AcDbSpline
210
0.0
220
0.0
230
1.0
 70
     8
 71
     3
 72
     8
 73
     4
 74
     0
 42
0.000000001
 43
0.00000001
 40
0.0
 40
0.0
 40
0.0
 40
0.0
 40
1.0
 40
1.0
 40
1.0
 40
1.0
 10
149.3489567626567
 20
88.99684376500333
 30
0.0
 10
149.3739571755794
 20
88.89011725019189
 30
0.0
 10
149.4008234870396
 20
88.78354762220108
 30
0.0
 10
149.4293415203861
 20
88.6771168728203
 30
0.0
  0
SPLINE
  5
13F
330
1F
100
AcDbEntity
  8
0
  6
Continuous
 62
     7
370
    25
100
AcDbSpline
210
0.0
220
0.0
230
1.0
 70
     8
 71
     3
 72
    16
 73
    12
 74
     0
 42
0.000000001
 43
0.00000001
 40
0.0
 40
0.0
 40
0.0
 40
0.0
 40
0.2499999999999999
 40
0.2499999999999999
 40
0.4999999999999998
 40
0.4999999999999998
 40
0.6249999999999998
 40
0.6249999999999998
 40
0.7499999999999999
 40
0.7499999999999999
 40
1.0
 40
1.0
 40
1.0
 40
1.0
 10
147.6185091122929
 20
88.67711687282028
 30
0.0
 10
147.4280146413082
 20
89.00706297512687
 30
0.0
 10
147.2710126280951
 20
89.33941471643655
 30
0.0
 10
147.053513817257
 20
90.01104981071028
 30
0.0
 10
146.993734456187
 20
90.35038469448074
 30
0.0
 10
146.993077955333
 20
90.86578046075091
 30
0.0
 10
147.0076917218165
 20
91.0383872212514
 30
0.0
 10
147.0646775796933
 20
91.37982163376992
 30
0.0
 10
147.1069918489526
 20
91.54939413651391
 30
0.0
 10
147.2703866688427
 20
92.05509263606538
 30
0.0
 10
147.4277771961561
 20
92.3882113877734
 30
0.0
 10
147.6185091122932
 20
92.71856875714762
 30
0.0
  0
LINE
  5
140
330
1F
100
AcDbEntity
  8
0
  6
Continuous
 62
     7
370
    25
100
AcDbLine
 10
146.8489567627
 20
84.6356649885
 30
0.0
 11
146.8489567627
 21
91.3856649885
 31
0.0
  0
LINE
  5
141
330
1F
100
AcDbEntity
  8
0
  6
Continuous
 62
     7
370
    25
100
AcDbLine
 10
146.8489567627
 20
77.8856649885
 30
0.0
 11
146.8489567627
 21
84.6356649885
 31
0.0
  0
LINE
  5
142
330
1F
100
AcDbEntity
  8
0
  6
Continuous
 62
     7
370
    25
100
AcDbLine
 10
147.6185091123
 20
92.7185687571
 30
0.0
 11
149.2685720049
 21
92.7185687571
 31
0.0
  0
SPLINE
  5
143
330
1F
100
AcDbEntity
  8
0
  6
Continuous
 62
     7
370
    25
100
AcDbSpline
210
0.0
220
0.0
230
1.0
 70
     8
 71
     3
 72
     8
 73
     4
 74
     0
 42
0.000000001
 43
0.00000001
 40
0.0
 40
0.0
 40
0.0
 40
0.0
 40
1.0
 40
1.0
 40
1.0
 40
1.0
 10
149.3489567626567
 20
92.39884186496458
 30
0.0
 10
149.323956349734
 20
92.50556837977602
 30
0.0
 10
149.2970900382738
 20
92.61213800776683
 30
0.0
 10
149.2685720049274
 20
92.71856875714761
 30
0.0
  0
SPLINE
  5
144
330
1F
100
AcDbEntity
  8
0
  6
Continuous
 62
     7
370
    25
100
AcDbSpline
210
0.0
220
0.0
230
1.0
 70
     8
 71
     3
 72
     8
 73
     4
 74
     0
 42
0.000000001
 43
0.00000001
 40
0.0
 40
0.0
 40
0.0
 40
0.0
 40
1.0
 40
1.0
 40
1.0
 40
1.0
 10
149.4293415203861
 20
92.71856875714761
 30
0.0
 10
149.4008077055479
 20
92.61207911043807
 30
0.0
 10
149.3739427837412
 20
92.50550694116129
 30
0.0
 10
149.3489567626567
 20
92.39884186496458
 30
0.0
  0
LINE
  5
145
330
1F
100
AcDbEntity
  8
0
  6
Continuous
 62
     7
370
    25
100
AcDbLine
 10
149.4293415204
 20
92.7185687571
 30
0.0
 11
151.079404413
 21
92.7185687571
 31
0.0
  0
LINE
  5
146
330
1F
100
AcDbEntity
  8
0
  6
Continuous
 62
     7
370
    25
100
AcDbLine
 10
143.8489567627
 20
84.6356649885
 30
0.0
 11
143.8489567627
 21
91.2141649885
 31
0.0
  0
LINE
  5
147
330
1F
100
AcDbEntity
  8
0
  6
Continuous
 62
     7
370
    25
100
AcDbLine
 10
143.8489567627
 20
78.0571649885
 30
0.0
 11
143.8489567627
 21
84.6356649885
 31
0.0
  0
LINE
  5
148
330
1F
100
AcDbEntity
  8
0
  6
Continuous
 62
     7
370
    25
100
AcDbLine
 10
153.8489567627
 20
79.0571649885
 30
0.0
 11
153.8489567627
 21
90.2141649885
 31
0.0
  0
LINE
  5
149
330
1F
100
AcDbEntity
  8
0
  6
Continuous
 62
     7
370
    25
100
AcDbLine
 10
154.8489567627
 20
91.2141649885
 30
0.0
 11
154.8489567627
 21
78.0571649885
 31
0.0
  0
LINE
  5
14A
330
1F
100
AcDbEntity
  8
0
  6
Continuous
 62
     7
370
    25
100
AcDbLine
 10
144.8489567627
 20
84.6356649885
 30
0.0
 11
144.8489567627
 21
79.0571649885
 31
0.0
  0
LINE
  5
14B
330
1F
100
AcDbEntity
  8
0
  6
Continuous
 62
     7
370
    25
100
AcDbLine
 10
144.8489567627
 20
90.2141649885
 30
0.0
 11
144.8489567627
 21
84.6356649885
 31
0.0
  0
LINE
  5
14C
330
1F
100
AcDbEntity
  8
0
  6
Continuous
 62
     7
370
    25
100
AcDbLine
 10
149.3489567627
 20
76.8527612198
 30
0.0
 11
149.3489567627
 21
76.872488112
 31
0.0
  0
LINE
  5
14D
330
1F
100
AcDbEntity
  8
0
  6
Continuous
 62
     7
370
    25
100
AcDbLine
 10
149.3489567627
 20
92.398841865
 30
0.0
 11
149.3489567627
 21
92.4185687571
 31
0.0
  0
LINE
  5
14E
330
1F
100
AcDbEntity
  8
0
  6
Continuous
 62
     8
370
    25
100
AcDbLine
 10
105.3007798084
 20
84.6356649885
 30
0.0
 11
105.3007798084
 21
80.7022158655
 31
0.0
  0
LINE
  5
14F
330
1F
100
AcDbEntity
  8
0
  6
Continuous
 62
     8
370
    25
100
AcDbLine
 10
105.3007798084
 20
88.5691141115
 30
0.0
 11
105.3007798084
 21
84.6356649885
 31
0.0
  0
LINE
  5
150
330
1F
100
AcDbEntity
  8
0
  6
Continuous
 62
     8
370
    25
100
AcDbLine
 10
193.3971337169
 20
80.7022158655
 30
0.0
 11
193.3971337169
 21
88.5691141115
 31
0.0
  0
LINE
  5
151
330
1F
100
AcDbEntity
  8
0
  6
Continuous
 62
     8
370
    25
100
AcDbLine
 10
143.2946718443
 20
76.7856649885
 30
0.0
 11
143.2946718443
 21
92.4856649885
 31
0.0
  0
LINE
  5
152
330
1F
100
AcDbEntity
  8
0
  6
Continuous
 62
     8
370
    25
100
AcDbLine
 10
130.8946718443
 20
84.6356649885
 30
0.0
 11
130.8946718443
 21
76.7856649885
 31
0.0
  0
LINE
  5
153
330
1F
100
AcDbEntity
  8
0
  6
Continuous
 62
     8
370
    25
100
AcDbLine
 10
130.8946718443
 20
92.4856649885
 30
0.0
 11
130.8946718443
 21
84.6356649885
 31
0.0
  0
LINE
  5
154
330
1F
100
AcDbEntity
  8
0
  6
Continuous
 62
     8
370
    25
100
AcDbLine
 10
155.403241681
 20
84.6356649885
 30
0.0
 11
155.403241681
 21
76.7856649885
 31
0.0
  0
LINE
  5
155
330
1F
100
AcDbEntity
  8
0
  6
Continuous
 62
     8
370
    25
100
AcDbLine
 10
155.403241681
 20
92.4856649885
 30
0.0
 11
155.403241681
 21
84.6356649885
 31
0.0
  0
LINE
  5
156
330
1F
100
AcDbEntity
  8
0
  6
Continuous
 62
     8
370
    25
100
AcDbLine
 10
167.803241681
 20
76.7856649885
 30
0.0
 11
167.803241681
 21
92.4856649885
 31
0.0
  0
LINE
  5
157
330
1F
100
AcDbEntity
  8
0
  6
CENTERX2
 62
     7
370
    18
100
AcDbLine
 10
102.5166257112
 20
84.6356649885
 30
0.0
 11
196.103241681
 21
84.6356649885
 31
0.0
  0
CIRCLE
  5
158
330
1F
100
AcDbEntity
  8
0
  6
Continuous
 62
     7
370
    25
100
AcDbCircle
 10
217.8167180852
 20
84.6356649885
 30
0.0
 40
3.933449123032062
  0
CIRCLE
  5
159
330
1F
100
AcDbEntity
  8
0
  6
Continuous
 62
     7
370
    25
100
AcDbCircle
 10
217.8167180852
 20
84.6356649885
 30
0.0
 40
3.138978050180555
  0
CIRCLE
  5
15A
330
1F
100
AcDbEntity
  8
0
  6
Continuous
 62
     7
370
    25
100
AcDbCircle
 10
217.8167180852
 20
84.6356649885
 30
0.0
 40
2.699999999999989
  0
CIRCLE
  5
15B
330
1F
100
AcDbEntity
  8
0
  6
Continuous
 62
     7
370
    25
100
AcDbCircle
 10
217.8167180852
 20
84.6356649885
 30
0.0
 40
2.5
  0
CIRCLE
  5
15C
330
1F
100
AcDbEntity
  8
0
  6
Continuous
 62
     7
370
    25
100
AcDbCircle
 10
217.8167180852
 20
84.6356649885
 30
0.0
 40
4.5
  0
CIRCLE
  5
15D
330
1F
100
AcDbEntity
  8
0
  6
Continuous
 62
     7
370
    25
100
AcDbCircle
 10
217.8167180852
 20
84.6356649885
 30
0.0
 40
7.849999999999994
  0
CIRCLE
  5
15E
330
1F
100
AcDbEntity
  8
0
  6
Continuous
 62
     7
370
    25
100
AcDbCircle
 10
217.8167180852
 20
84.6356649885
 30
0.0
 40
7.549999999999983
  0
CIRCLE
  5
15F
330
1F
100
AcDbEntity
  8
0
  6
Continuous
 62
     7
370
    25
100
AcDbCircle
 10
217.8167180852
 20
84.6356649885
 30
0.0
 40
4.849999999999994
  0
CIRCLE
  5
160
330
1F
100
AcDbEntity
  8
0
  6
Continuous
 62
     7
370
    25
100
AcDbCircle
 10
217.8167180852
 20
84.6356649885
 30
0.0
 40
4.75
  0
SPLINE
  5
161
330
1F
100
AcDbEntity
  8
0
  6
Continuous
 62
     7
370
    25
100
AcDbSpline
210
0.0
220
0.0
230
1.0
 70
    24
 71
     3
 72
    15
 73
    11
 74
     0
 42
0.000000001
 43
0.00000001
 40
0.0
 40
0.0
 40
0.0
 40
0.0
 40
0.1323049664163417
 40
0.2645725257576575
 40
0.3997989469058978
 40
0.53500096593684
 40
0.6501921044151455
 40
0.7654012116808045
 40
0.8826892657702334
 40
1.0
 40
1.0
 40
1.0
 40
1.0
 10
209.8167180851985
 20
89.25446714200994
 30
0.0
 10
210.1623492015557
 20
89.45401736007908
 30
0.0
 10
210.8535137126996
 20
89.85306137664232
 30
0.0
 10
211.9178457972018
 20
90.46755379213683
 30
0.0
 10
213.0022406705006
 20
91.09362946414373
 30
0.0
 10
214.0473562362004
 20
91.69702721733478
 30
0.0
 10
215.0360111870628
 20
92.26782741935084
 30
0.0
 10
215.9690598233265
 20
92.80652330066468
 30
0.0
 10
216.897889897358
 20
93.34278359393822
 30
0.0
 10
217.5104222834656
 20
93.69642933194474
 30
0.0
 10
217.8167180851984
 20
93.87326929552687
 30
0.0
  0
SPLINE
  5
162
330
1F
100
AcDbEntity
  8
0
  6
Continuous
 62
     7
370
    25
100
AcDbSpline
210
0.0
220
0.0
230
1.0
 70
    24
 71
     3
 72
    15
 73
    11
 74
     0
 42
0.000000001
 43
0.00000001
 40
0.0
 40
0.0
 40
0.0
 40
0.0
 40
0.1323049664163399
 40
0.264572525757654
 40
0.3997989469058927
 40
0.5350009659368332
 40
0.6501921044151404
 40
0.7654012116808012
 40
0.8826892657702317
 40
1.0
 40
1.0
 40
1.0
 40
1.0
 10
217.8167180851984
 20
93.87326929552687
 30
0.0
 10
218.1623492015556
 20
93.67371907745772
 30
0.0
 10
218.8535137126995
 20
93.27467506089448
 30
0.0
 10
219.9178457972017
 20
92.66018264539997
 30
0.0
 10
221.0022406705005
 20
92.03410697339305
 30
0.0
 10
222.0473562362003
 20
91.430709220202
 30
0.0
 10
223.0360111870628
 20
90.85990901818592
 30
0.0
 10
223.9690598233264
 20
90.32121313687206
 30
0.0
 10
224.897889897358
 20
89.7849528435985
 30
0.0
 10
225.5104222834656
 20
89.43130710559196
 30
0.0
 10
225.8167180851984
 20
89.25446714200984
 30
0.0
  0
SPLINE
  5
163
330
1F
100
AcDbEntity
  8
0
  6
Continuous
 62
     7
370
    25
100
AcDbSpline
210
0.0
220
0.0
230
1.0
 70
    24
 71
     3
 72
    14
 73
    10
 74
     0
 42
0.000000001
 43
0.00000001
 40
0.0
 40
0.0
 40
0.0
 40
0.0
 40
0.1912156890565411
 40
0.3842607734904397
 40
0.5102055247845748
 40
0.6361523096967548
 40
0.7654545707989291
 40
0.8947932191925945
 40
1.0
 40
1.0
 40
1.0
 40
1.0
 10
225.8167180851984
 20
89.25446714200984
 30
0.0
 10
225.8167180851984
 20
88.67651961680765
 30
0.0
 10
225.8167180851984
 20
87.51509523700476
 30
0.0
 10
225.8167180851984
 20
85.93042517737955
 30
0.0
 10
225.8167180851984
 20
84.53946586724123
 30
0.0
 10
225.8167180851984
 20
83.34793935673186
 30
0.0
 10
225.8167180851984
 20
82.15557329498448
 30
0.0
 10
225.8167180851984
 20
81.04066672714505
 30
0.0
 10
225.8167180851984
 20
80.33389127070114
 30
0.0
 10
225.8167180851984
 20
80.0168628349758
 30
0.0
  0
SPLINE
  5
164
330
1F
100
AcDbEntity
  8
0
  6
Continuous
 62
     7
370
    25
100
AcDbSpline
210
0.0
220
0.0
230
1.0
 70
    24
 71
     3
 72
    15
 73
    11
 74
     0
 42
0.000000001
 43
0.00000001
 40
0.0
 40
0.0
 40
0.0
 40
0.0
 40
0.1323049664163399
 40
0.264572525757654
 40
0.3997989469058927
 40
0.5350009659368332
 40
0.6501921044151404
 40
0.7654012116808009
 40
0.8826892657702315
 40
1.0
 40
1.0
 40
1.0
 40
1.0
 10
225.8167180851984
 20
80.0168628349758
 30
0.0
 10
225.4710869688412
 20
79.81731261690666
 30
0.0
 10
224.7799224576973
 20
79.41826860034342
 30
0.0
 10
223.7155903731951
 20
78.80377618484891
 30
0.0
 10
222.6311954998963
 20
78.17770051284201
 30
0.0
 10
221.5860799341965
 20
77.57430275965096
 30
0.0
 10
220.597424983334
 20
77.00350255763489
 30
0.0
 10
219.6643763470704
 20
76.46480667632105
 30
0.0
 10
218.7355462730388
 20
75.92854638304748
 30
0.0
 10
218.1230138869312
 20
75.57490064504094
 30
0.0
 10
217.8167180851984
 20
75.39806068145882
 30
0.0
  0
SPLINE
  5
165
330
1F
100
AcDbEntity
  8
0
  6
Continuous
 62
     7
370
    25
100
AcDbSpline
210
0.0
220
0.0
230
1.0
 70
    24
 71
     3
 72
    15
 73
    11
 74
     0
 42
0.000000001
 43
0.00000001
 40
0.0
 40
0.0
 40
0.0
 40
0.0
 40
0.13230496641634
 40
0.2645725257576541
 40
0.3997989469058927
 40
0.5350009659368333
 40
0.6501921044151405
 40
0.7654012116808012
 40
0.8826892657702317
 40
1.0
 40
1.0
 40
1.0
 40
1.0
 10
217.8167180851984
 20
75.39806068145882
 30
0.0
 10
217.4710869688412
 20
75.59761089952796
 30
0.0
 10
216.7799224576973
 20
75.99665491609122
 30
0.0
 10
215.7155903731951
 20
76.61114733158573
 30
0.0
 10
214.6311954998963
 20
77.23722300359265
 30
0.0
 10
213.5860799341965
 20
77.84062075678371
 30
0.0
 10
212.597424983334
 20
78.4114209587998
 30
0.0
 10
211.6643763470704
 20
78.95011684011365
 30
0.0
 10
210.7355462730388
 20
79.48637713338722
 30
0.0
 10
210.1230138869313
 20
79.84002287139378
 30
0.0
 10
209.8167180851984
 20
80.0168628349759
 30
0.0
  0
SPLINE
  5
166
330
1F
100
AcDbEntity
  8
0
  6
Continuous
 62
     7
370
    25
100
AcDbSpline
210
0.0
220
0.0
230
1.0
 70
    24
 71
     3
 72
    14
 73
    10
 74
     0
 42
0.000000001
 43
0.00000001
 40
0.0
 40
0.0
 40
0.0
 40
0.0
 40
0.1052068357133045
 40
0.2313210752448398
 40
0.3574023224982446
 40
0.4865716879238012
 40
0.6157381069695574
 40
0.8067800019191284
 40
1.0
 40
1.0
 40
1.0
 40
1.0
 10
209.8167180851984
 20
80.0168628349759
 30
0.0
 10
209.8167180851984
 20
80.33389028532731
 30
0.0
 10
209.8167180851984
 20
81.03094699462002
 30
0.0
 10
209.8167180851984
 20
82.12587200779132
 30
0.0
 10
209.8167180851984
 20
83.30770603631126
 30
0.0
 10
209.8167180851984
 20
84.5091880662473
 30
0.0
 10
209.8167180851984
 20
85.91416989715412
 30
0.0
 10
209.8167180851984
 20
87.50889633386839
 30
0.0
 10
209.8167180851985
 20
88.67041560136325
 30
0.0
 10
209.8167180851985
 20
89.25446714200994
 30
0.0
  0
INSERT
  5
172
330
1F
100
AcDbEntity
  8
0
  6
Continuous
 62
     7
370
    18
100
AcDbBlockReference
  2
SW_CENTERMARKSYMBOL_0
 10
217.8167180852
 20
84.6356649885
 30
0.0
  0
LINE
  5
173
330
1F
100
AcDbEntity
  8
0
  6
Continuous
 62
     7
370
    25
100
AcDbLine
 10
118.0946718443
 20
127.243104012
 30
0.0
 11
114.0946718443
 21
126.593104012
 31
0.0
  0
LINE
  5
174
330
1F
100
AcDbEntity
  8
0
  6
Continuous
 62
     7
370
    25
100
AcDbLine
 10
114.0946718443
 20
118.893104012
 30
0.0
 11
118.0946718443
 21
118.243104012
 31
0.0
  0
LINE
  5
175
330
1F
100
AcDbEntity
  8
0
  6
Continuous
 62
     7
370
    25
100
AcDbLine
 10
122.0946718443
 20
127.243104012
 30
0.0
 11
118.0946718443
 21
126.593104012
 31
0.0
  0
LINE
  5
176
330
1F
100
AcDbEntity
  8
0
  6
Continuous
 62
     7
370
    25
100
AcDbLine
 10
118.0946718443
 20
118.893104012
 30
0.0
 11
122.0946718443
 21
118.243104012
 31
0.0
  0
LINE
  5
177
330
1F
100
AcDbEntity
  8
0
  6
Continuous
 62
     7
370
    25
100
AcDbLine
 10
114.0946718443
 20
127.243104012
 30
0.0
 11
110.0946718443
 21
126.593104012
 31
0.0
  0
LINE
  5
178
330
1F
100
AcDbEntity
  8
0
  6
Continuous
 62
     7
370
    25
100
AcDbLine
 10
110.0946718443
 20
118.893104012
 30
0.0
 11
114.0946718443
 21
118.243104012
 31
0.0
  0
LINE
  5
179
330
1F
100
AcDbEntity
  8
0
  6
Continuous
 62
     7
370
    25
100
AcDbLine
 10
110.0946718443
 20
127.243104012
 30
0.0
 11
105.3007798084
 21
126.6765531351
 31
0.0
  0
LINE
  5
17A
330
1F
100
AcDbEntity
  8
0
  6
Continuous
 62
     7
370
    25
100
AcDbLine
 10
105.3007798084
 20
118.809654889
 30
0.0
 11
110.0946718443
 21
118.243104012
 31
0.0
  0
LINE
  5
17B
330
1F
100
AcDbEntity
  8
0
  6
Continuous
 62
     7
370
    25
100
AcDbLine
 10
130.5142870866
 20
118.243104012
 30
0.0
 11
130.5946718443
 21
118.543104012
 31
0.0
  0
LINE
  5
17C
330
1F
100
AcDbEntity
  8
0
  6
Continuous
 62
     7
370
    25
100
AcDbLine
 10
130.5946718443
 20
126.943104012
 30
0.0
 11
130.5142870866
 21
127.243104012
 31
0.0
  0
LINE
  5
17D
330
1F
100
AcDbEntity
  8
0
  6
Continuous
 62
     7
370
    25
100
AcDbLine
 10
126.0946718443
 20
127.243104012
 30
0.0
 11
122.0946718443
 21
126.593104012
 31
0.0
  0
LINE
  5
17E
330
1F
100
AcDbEntity
  8
0
  6
Continuous
 62
     7
370
    25
100
AcDbLine
 10
122.0946718443
 20
118.893104012
 30
0.0
 11
126.0946718443
 21
118.243104012
 31
0.0
  0
LINE
  5
17F
330
1F
100
AcDbEntity
  8
0
  6
Continuous
 62
     7
370
    25
100
AcDbLine
 10
130.5142870866
 20
127.243104012
 30
0.0
 11
126.0946718443
 21
127.243104012
 31
0.0
  0
LINE
  5
180
330
1F
100
AcDbEntity
  8
0
  6
Continuous
 62
     7
370
    25
100
AcDbLine
 10
126.0946718443
 20
118.243104012
 30
0.0
 11
130.5142870866
 21
118.243104012
 31
0.0
  0
ARC
  5
181
330
1F
100
AcDbEntity
  8
0
  6
Continuous
 62
     7
370
    25
100
AcDbCircle
 10
105.3946718443
 20
125.8820820622
 30
0.0
 40
0.8000000000000009
100
AcDbArc
 50
96.7400560979
 51
180.0
  0
ARC
  5
182
330
1F
100
AcDbEntity
  8
0
  6
Continuous
 62
     7
370
    25
100
AcDbCircle
 10
105.3946718443
 20
119.6041259619
 30
0.0
 40
0.8000000000000009
100
AcDbArc
 50
180.0
 51
263.2599439021
  0
LINE
  5
183
330
1F
100
AcDbEntity
  8
0
  6
Continuous
 62
     7
370
    25
100
AcDbLine
 10
184.603241681
 20
118.243104012
 30
0.0
 11
188.603241681
 21
118.893104012
 31
0.0
  0
LINE
  5
184
330
1F
100
AcDbEntity
  8
0
  6
Continuous
 62
     7
370
    25
100
AcDbLine
 10
188.603241681
 20
126.593104012
 30
0.0
 11
184.603241681
 21
127.243104012
 31
0.0
  0
LINE
  5
185
330
1F
100
AcDbEntity
  8
0
  6
Continuous
 62
     7
370
    25
100
AcDbLine
 10
176.603241681
 20
118.243104012
 30
0.0
 11
180.603241681
 21
118.893104012
 31
0.0
  0
LINE
  5
186
330
1F
100
AcDbEntity
  8
0
  6
Continuous
 62
     7
370
    25
100
AcDbLine
 10
180.603241681
 20
126.593104012
 30
0.0
 11
176.603241681
 21
127.243104012
 31
0.0
  0
LINE
  5
187
330
1F
100
AcDbEntity
  8
0
  6
Continuous
 62
     7
370
    25
100
AcDbLine
 10
188.603241681
 20
118.243104012
 30
0.0
 11
193.3971337169
 21
118.809654889
 31
0.0
  0
LINE
  5
188
330
1F
100
AcDbEntity
  8
0
  6
Continuous
 62
     7
370
    25
100
AcDbLine
 10
193.3971337169
 20
126.6765531351
 30
0.0
 11
188.603241681
 21
127.243104012
 31
0.0
  0
LINE
  5
189
330
1F
100
AcDbEntity
  8
0
  6
Continuous
 62
     7
370
    25
100
AcDbLine
 10
180.603241681
 20
118.243104012
 30
0.0
 11
184.603241681
 21
118.893104012
 31
0.0
  0
LINE
  5
18A
330
1F
100
AcDbEntity
  8
0
  6
Continuous
 62
     7
370
    25
100
AcDbLine
 10
184.603241681
 20
126.593104012
 30
0.0
 11
180.603241681
 21
127.243104012
 31
0.0
  0
LINE
  5
18B
330
1F
100
AcDbEntity
  8
0
  6
Continuous
 62
     7
370
    25
100
AcDbLine
 10
172.603241681
 20
118.243104012
 30
0.0
 11
176.603241681
 21
118.893104012
 31
0.0
  0
LINE
  5
18C
330
1F
100
AcDbEntity
  8
0
  6
Continuous
 62
     7
370
    25
100
AcDbLine
 10
176.603241681
 20
126.593104012
 30
0.0
 11
172.603241681
 21
127.243104012
 31
0.0
  0
LINE
  5
18D
330
1F
100
AcDbEntity
  8
0
  6
Continuous
 62
     7
370
    25
100
AcDbLine
 10
168.1836264387
 20
127.243104012
 30
0.0
 11
168.103241681
 21
126.943104012
 31
0.0
  0
LINE
  5
18E
330
1F
100
AcDbEntity
  8
0
  6
Continuous
 62
     7
370
    25
100
AcDbLine
 10
168.103241681
 20
118.543104012
 30
0.0
 11
168.1836264387
 21
118.243104012
 31
0.0
  0
LINE
  5
18F
330
1F
100
AcDbEntity
  8
0
  6
Continuous
 62
     7
370
    25
100
AcDbLine
 10
168.1836264387
 20
118.243104012
 30
0.0
 11
172.603241681
 21
118.243104012
 31
0.0
  0
LINE
  5
190
330
1F
100
AcDbEntity
  8
0
  6
Continuous
 62
     7
370
    25
100
AcDbLine
 10
172.603241681
 20
127.243104012
 30
0.0
 11
168.1836264387
 21
127.243104012
 31
0.0
  0
ARC
  5
191
330
1F
100
AcDbEntity
  8
0
  6
Continuous
 62
     7
370
    25
100
AcDbCircle
 10
193.303241681
 20
119.6041259619
 30
0.0
 40
0.8000000000000114
100
AcDbArc
 50
276.7400560979
 51
0.0
  0
ARC
  5
192
330
1F
100
AcDbEntity
  8
0
  6
Continuous
 62
     7
370
    25
100
AcDbCircle
 10
193.303241681
 20
125.8820820622
 30
0.0
 40
0.8000000000000114
100
AcDbArc
 50
0.0
 51
83.2599439021
  0
LINE
  5
193
330
1F
100
AcDbEntity
  8
0
  6
Continuous
 62
     7
370
    25
100
AcDbLine
 10
132.6812743847
 20
130.743104012
 30
0.0
 11
132.5946718443
 21
130.593104012
 31
0.0
  0
LINE
  5
194
330
1F
100
AcDbEntity
  8
0
  6
Continuous
 62
     7
370
    25
100
AcDbLine
 10
132.5946718443
 20
114.893104012
 30
0.0
 11
132.6812743847
 21
114.743104012
 31
0.0
  0
LINE
  5
195
330
1F
100
AcDbEntity
  8
0
  6
Continuous
 62
     7
370
    25
100
AcDbLine
 10
141.508069304
 20
114.743104012
 30
0.0
 11
141.5946718443
 21
114.893104012
 31
0.0
  0
LINE
  5
196
330
1F
100
AcDbEntity
  8
0
  6
Continuous
 62
     7
370
    25
100
AcDbLine
 10
141.5946718443
 20
130.593104012
 30
0.0
 11
141.508069304
 21
130.743104012
 31
0.0
  0
LINE
  5
197
330
1F
100
AcDbEntity
  8
0
  6
Continuous
 62
     7
370
    25
100
AcDbLine
 10
132.5946718443
 20
130.593104012
 30
0.0
 11
130.8946718443
 21
130.593104012
 31
0.0
  0
LINE
  5
198
330
1F
100
AcDbEntity
  8
0
  6
Continuous
 62
     7
370
    25
100
AcDbLine
 10
130.8946718443
 20
114.893104012
 30
0.0
 11
132.5946718443
 21
114.893104012
 31
0.0
  0
ARC
  5
199
330
1F
100
AcDbEntity
  8
0
  6
Continuous
 62
     7
370
    25
100
AcDbCircle
 10
143.2946718443
 20
130.293104012
 30
0.0
 40
0.3000000000000114
100
AcDbArc
 50
360.0
 51
90.0
  0
ARC
  5
19A
330
1F
100
AcDbEntity
  8
0
  6
Continuous
 62
     7
370
    25
100
AcDbCircle
 10
143.2946718443
 20
115.193104012
 30
0.0
 40
0.3000000000000114
100
AcDbArc
 50
270.0
 51
0.0
  0
ARC
  5
19B
330
1F
100
AcDbEntity
  8
0
  6
Continuous
 62
     7
370
    25
100
AcDbCircle
 10
130.8946718443
 20
115.193104012
 30
0.0
 40
0.3000000000000114
100
AcDbArc
 50
180.0
 51
270.0
  0
ARC
  5
19C
330
1F
100
AcDbEntity
  8
0
  6
Continuous
 62
     7
370
    25
100
AcDbCircle
 10
130.8946718443
 20
130.293104012
 30
0.0
 40
0.3000000000000114
100
AcDbArc
 50
90.0
 51
180.0
  0
LINE
  5
19D
330
1F
100
AcDbEntity
  8
0
  6
Continuous
 62
     7
370
    25
100
AcDbLine
 10
141.5946718443
 20
114.893104012
 30
0.0
 11
143.2946718443
 21
114.893104012
 31
0.0
  0
LINE
  5
19E
330
1F
100
AcDbEntity
  8
0
  6
Continuous
 62
     7
370
    25
100
AcDbLine
 10
143.2946718443
 20
130.593104012
 30
0.0
 11
141.5946718443
 21
130.593104012
 31
0.0
  0
LINE
  5
19F
330
1F
100
AcDbEntity
  8
0
  6
Continuous
 62
     7
370
    25
100
AcDbLine
 10
166.0166391406
 20
114.743104012
 30
0.0
 11
166.103241681
 21
114.893104012
 31
0.0
  0
LINE
  5
1A0
330
1F
100
AcDbEntity
  8
0
  6
Continuous
 62
     7
370
    25
100
AcDbLine
 10
166.103241681
 20
130.593104012
 30
0.0
 11
166.0166391406
 21
130.743104012
 31
0.0
  0
LINE
  5
1A1
330
1F
100
AcDbEntity
  8
0
  6
Continuous
 62
     7
370
    25
100
AcDbLine
 10
157.1898442214
 20
130.743104012
 30
0.0
 11
157.103241681
 21
130.593104012
 31
0.0
  0
LINE
  5
1A2
330
1F
100
AcDbEntity
  8
0
  6
Continuous
 62
     7
370
    25
100
AcDbLine
 10
157.103241681
 20
114.893104012
 30
0.0
 11
157.1898442214
 21
114.743104012
 31
0.0
  0
LINE
  5
1A3
330
1F
100
AcDbEntity
  8
0
  6
Continuous
 62
     7
370
    25
100
AcDbLine
 10
166.103241681
 20
114.893104012
 30
0.0
 11
167.803241681
 21
114.893104012
 31
0.0
  0
LINE
  5
1A4
330
1F
100
AcDbEntity
  8
0
  6
Continuous
 62
     7
370
    25
100
AcDbLine
 10
167.803241681
 20
130.593104012
 30
0.0
 11
166.103241681
 21
130.593104012
 31
0.0
  0
ARC
  5
1A5
330
1F
100
AcDbEntity
  8
0
  6
Continuous
 62
     7
370
    25
100
AcDbCircle
 10
167.803241681
 20
130.293104012
 30
0.0
 40
0.3000000000000114
100
AcDbArc
 50
0.0
 51
90.0
  0
ARC
  5
1A6
330
1F
100
AcDbEntity
  8
0
  6
Continuous
 62
     7
370
    25
100
AcDbCircle
 10
167.803241681
 20
115.193104012
 30
0.0
 40
0.2999999999999829
100
AcDbArc
 50
270.0
 51
0.0
  0
ARC
  5
1A7
330
1F
100
AcDbEntity
  8
0
  6
Continuous
 62
     7
370
    25
100
AcDbCircle
 10
155.403241681
 20
115.193104012
 30
0.0
 40
0.2999999999999829
100
AcDbArc
 50
180.0
 51
270.0
  0
ARC
  5
1A8
330
1F
100
AcDbEntity
  8
0
  6
Continuous
 62
     7
370
    25
100
AcDbCircle
 10
155.403241681
 20
130.293104012
 30
0.0
 40
0.3000000000000114
100
AcDbArc
 50
90.0
 51
180.0
  0
LINE
  5
1A9
330
1F
100
AcDbEntity
  8
0
  6
Continuous
 62
     7
370
    25
100
AcDbLine
 10
157.103241681
 20
130.593104012
 30
0.0
 11
155.403241681
 21
130.593104012
 31
0.0
  0
LINE
  5
1AA
330
1F
100
AcDbEntity
  8
0
  6
Continuous
 62
     7
370
    25
100
AcDbLine
 10
155.403241681
 20
114.893104012
 30
0.0
 11
157.103241681
 21
114.893104012
 31
0.0
  0
LINE
  5
1AB
330
1F
100
AcDbEntity
  8
0
  6
Continuous
 62
     7
370
    25
100
AcDbLine
 10
146.99329433
 20
129.743104012
 30
0.0
 11
146.8489567627
 21
129.493104012
 31
0.0
  0
LINE
  5
1AC
330
1F
100
AcDbEntity
  8
0
  6
Continuous
 62
     7
370
    25
100
AcDbLine
 10
146.8489567627
 20
115.993104012
 30
0.0
 11
146.99329433
 21
115.743104012
 31
0.0
  0
LINE
  5
1AD
330
1F
100
AcDbEntity
  8
0
  6
Continuous
 62
     7
370
    25
100
AcDbLine
 10
151.7046191954
 20
115.743104012
 30
0.0
 11
151.8489567627
 21
115.993104012
 31
0.0
  0
LINE
  5
1AE
330
1F
100
AcDbEntity
  8
0
  6
Continuous
 62
     7
370
    25
100
AcDbLine
 10
151.8489567627
 20
129.493104012
 30
0.0
 11
151.7046191954
 21
129.743104012
 31
0.0
  0
LINE
  5
1AF
330
1F
100
AcDbEntity
  8
0
  6
Continuous
 62
     7
370
    25
100
AcDbLine
 10
143.8489567627
 20
129.321604012
 30
0.0
 11
143.5946718443
 21
129.321604012
 31
0.0
  0
LINE
  5
1B0
330
1F
100
AcDbEntity
  8
0
  6
Continuous
 62
     7
370
    25
100
AcDbLine
 10
143.5946718443
 20
116.164604012
 30
0.0
 11
143.8489567627
 21
116.164604012
 31
0.0
  0
LINE
  5
1B1
330
1F
100
AcDbEntity
  8
0
  6
Continuous
 62
     7
370
    25
100
AcDbLine
 10
154.8489567627
 20
116.164604012
 30
0.0
 11
155.103241681
 21
116.164604012
 31
0.0
  0
LINE
  5
1B2
330
1F
100
AcDbEntity
  8
0
  6
Continuous
 62
     7
370
    25
100
AcDbLine
 10
155.103241681
 20
129.321604012
 30
0.0
 11
154.8489567627
 21
129.321604012
 31
0.0
  0
LINE
  5
1B3
330
1F
100
AcDbEntity
  8
0
  6
Continuous
 62
     7
370
    25
100
AcDbLine
 10
154.8489567627
 20
129.321604012
 30
0.0
 11
153.8489567627
 21
128.321604012
 31
0.0
  0
LINE
  5
1B4
330
1F
100
AcDbEntity
  8
0
  6
Continuous
 62
     7
370
    25
100
AcDbLine
 10
153.8489567627
 20
117.164604012
 30
0.0
 11
154.8489567627
 21
116.164604012
 31
0.0
  0
LINE
  5
1B5
330
1F
100
AcDbEntity
  8
0
  6
Continuous
 62
     7
370
    25
100
AcDbLine
 10
143.8489567627
 20
116.164604012
 30
0.0
 11
144.8489567627
 21
117.164604012
 31
0.0
  0
LINE
  5
1B6
330
1F
100
AcDbEntity
  8
0
  6
Continuous
 62
     7
370
    25
100
AcDbLine
 10
144.8489567627
 20
128.321604012
 30
0.0
 11
143.8489567627
 21
129.321604012
 31
0.0
  0
LINE
  5
1B7
330
1F
100
AcDbEntity
  8
0
  6
Continuous
 62
     7
370
    25
100
AcDbLine
 10
146.8489567627
 20
128.243104012
 30
0.0
 11
144.8489567627
 21
128.243104012
 31
0.0
  0
LINE
  5
1B8
330
1F
100
AcDbEntity
  8
0
  6
Continuous
 62
     7
370
    25
100
AcDbLine
 10
144.8489567627
 20
117.243104012
 30
0.0
 11
146.8489567627
 21
117.243104012
 31
0.0
  0
LINE
  5
1B9
330
1F
100
AcDbEntity
  8
0
  6
Continuous
 62
     7
370
    25
100
AcDbLine
 10
151.8489567627
 20
117.243104012
 30
0.0
 11
153.8489567627
 21
117.243104012
 31
0.0
  0
LINE
  5
1BA
330
1F
100
AcDbEntity
  8
0
  6
Continuous
 62
     7
370
    25
100
AcDbLine
 10
153.8489567627
 20
128.243104012
 30
0.0
 11
151.8489567627
 21
128.243104012
 31
0.0
  0
LINE
  5
1BB
330
1F
100
AcDbEntity
  8
0
  6
Continuous
 62
     7
370
    25
100
AcDbLine
 10
118.0946718443
 20
127.243104012
 30
0.0
 11
118.0946718443
 21
118.243104012
 31
0.0
  0
LINE
  5
1BC
330
1F
100
AcDbEntity
  8
0
  6
Continuous
 62
     7
370
    25
100
AcDbLine
 10
122.0946718443
 20
127.243104012
 30
0.0
 11
122.0946718443
 21
118.243104012
 31
0.0
  0
LINE
  5
1BD
330
1F
100
AcDbEntity
  8
0
  6
Continuous
 62
     7
370
    25
100
AcDbLine
 10
114.0946718443
 20
127.243104012
 30
0.0
 11
114.0946718443
 21
118.243104012
 31
0.0
  0
LINE
  5
1BE
330
1F
100
AcDbEntity
  8
0
  6
Continuous
 62
     7
370
    25
100
AcDbLine
 10
110.0946718443
 20
127.243104012
 30
0.0
 11
110.0946718443
 21
118.243104012
 31
0.0
  0
LINE
  5
1BF
330
1F
100
AcDbEntity
  8
0
  6
Continuous
 62
     7
370
    25
100
AcDbLine
 10
130.5142870866
 20
127.243104012
 30
0.0
 11
130.5142870866
 21
118.243104012
 31
0.0
  0
LINE
  5
1C0
330
1F
100
AcDbEntity
  8
0
  6
Continuous
 62
     7
370
    25
100
AcDbLine
 10
126.0946718443
 20
127.243104012
 30
0.0
 11
126.0946718443
 21
118.243104012
 31
0.0
  0
LINE
  5
1C1
330
1F
100
AcDbEntity
  8
0
  6
Continuous
 62
     7
370
    25
100
AcDbLine
 10
104.5946718443
 20
125.8820820622
 30
0.0
 11
104.5946718443
 21
119.6041259619
 31
0.0
  0
LINE
  5
1C2
330
1F
100
AcDbEntity
  8
0
  6
Continuous
 62
     7
370
    25
100
AcDbLine
 10
184.603241681
 20
118.243104012
 30
0.0
 11
184.603241681
 21
127.243104012
 31
0.0
  0
LINE
  5
1C3
330
1F
100
AcDbEntity
  8
0
  6
Continuous
 62
     7
370
    25
100
AcDbLine
 10
176.603241681
 20
118.243104012
 30
0.0
 11
176.603241681
 21
127.243104012
 31
0.0
  0
LINE
  5
1C4
330
1F
100
AcDbEntity
  8
0
  6
Continuous
 62
     7
370
    25
100
AcDbLine
 10
188.603241681
 20
118.243104012
 30
0.0
 11
188.603241681
 21
127.243104012
 31
0.0
  0
LINE
  5
1C5
330
1F
100
AcDbEntity
  8
0
  6
Continuous
 62
     7
370
    25
100
AcDbLine
 10
180.603241681
 20
118.243104012
 30
0.0
 11
180.603241681
 21
127.243104012
 31
0.0
  0
LINE
  5
1C6
330
1F
100
AcDbEntity
  8
0
  6
Continuous
 62
     7
370
    25
100
AcDbLine
 10
172.603241681
 20
118.243104012
 30
0.0
 11
172.603241681
 21
127.243104012
 31
0.0
  0
LINE
  5
1C7
330
1F
100
AcDbEntity
  8
0
  6
Continuous
 62
     7
370
    25
100
AcDbLine
 10
168.1836264387
 20
118.243104012
 30
0.0
 11
168.1836264387
 21
127.243104012
 31
0.0
  0
LINE
  5
1C8
330
1F
100
AcDbEntity
  8
0
  6
Continuous
 62
     7
370
    25
100
AcDbLine
 10
194.103241681
 20
119.6041259619
 30
0.0
 11
194.103241681
 21
125.8820820622
 31
0.0
  0
LINE
  5
1C9
330
1F
100
AcDbEntity
  8
0
  6
Continuous
 62
     7
370
    25
100
AcDbLine
 10
140.7935381241
 20
130.743104012
 30
0.0
 11
137.1482616828
 21
130.743104012
 31
0.0
  0
SPLINE
  5
1CA
330
1F
100
AcDbEntity
  8
0
  6
Continuous
 62
     7
370
    25
100
AcDbSpline
210
0.0
220
0.0
230
1.0
 70
     8
 71
     3
 72
    15
 73
    11
 74
     0
 42
0.000000001
 43
0.00000001
 40
0.0
 40
0.0
 40
0.0
 40
0.0
 40
0.1323049664163419
 40
0.2645725257576577
 40
0.3997989469058979
 40
0.5350009659368401
 40
0.6501921044151456
 40
0.7654012116808045
 40
0.8826892657702334
 40
1.0
 40
1.0
 40
1.0
 40
1.0
 10
140.7935381241376
 20
130.7431040120481
 30
0.0
 10
140.9023096516808
 20
130.3974728956909
 30
0.0
 10
141.1198219533889
 20
129.706308384547
 30
0.0
 10
141.3538571461844
 20
128.6419763000448
 30
0.0
 10
141.4945764021334
 20
127.557581426746
 30
0.0
 10
141.522445685857
 20
126.5124658610462
 30
0.0
 10
141.4501438875025
 20
125.5238109101838
 30
0.0
 10
141.3019939075234
 20
124.5907622739201
 30
0.0
 10
141.0846737488188
 20
123.6619321998886
 30
0.0
 10
140.8905895868102
 20
123.049399813781
 30
0.0
 10
140.7935381241376
 20
122.7431040120482
 30
0.0
  0
LINE
  5
1CB
330
1F
100
AcDbEntity
  8
0
  6
Continuous
 62
     7
370
    25
100
AcDbLine
 10
140.7935381241
 20
122.743104012
 30
0.0
 11
137.1482616828
 21
122.743104012
 31
0.0
  0
LINE
  5
1CC
330
1F
100
AcDbEntity
  8
0
  6
Continuous
 62
     7
370
    25
100
AcDbLine
 10
137.0946718443
 20
123.1018516577
 30
0.0
 11
137.1482616828
 21
122.743104012
 31
0.0
  0
LINE
  5
1CD
330
1F
100
AcDbEntity
  8
0
  6
Continuous
 62
     7
370
    25
100
AcDbLine
 10
137.0410820058
 20
122.743104012
 30
0.0
 11
137.0946718443
 21
123.1018516577
 31
0.0
  0
LINE
  5
1CE
330
1F
100
AcDbEntity
  8
0
  6
Continuous
 62
     7
370
    25
100
AcDbLine
 10
137.0410820058
 20
122.743104012
 30
0.0
 11
133.3958055645
 21
122.743104012
 31
0.0
  0
SPLINE
  5
1CF
330
1F
100
AcDbEntity
  8
0
  6
Continuous
 62
     7
370
    25
100
AcDbSpline
210
0.0
220
0.0
230
1.0
 70
     8
 71
     3
 72
    15
 73
    11
 74
     0
 42
0.000000001
 43
0.00000001
 40
0.0
 40
0.0
 40
0.0
 40
0.0
 40
0.1323049664163419
 40
0.2645725257576577
 40
0.399798946905898
 40
0.5350009659368402
 40
0.6501921044151457
 40
0.7654012116808047
 40
0.8826892657702335
 40
1.0
 40
1.0
 40
1.0
 40
1.0
 10
133.3958055645271
 20
130.7431040120481
 30
0.0
 10
133.287034036984
 20
130.3974728956909
 30
0.0
 10
133.0695217352759
 20
129.706308384547
 30
0.0
 10
132.8354865424803
 20
128.6419763000448
 30
0.0
 10
132.6947672865313
 20
127.557581426746
 30
0.0
 10
132.6668980028078
 20
126.5124658610462
 30
0.0
 10
132.7391998011622
 20
125.5238109101838
 30
0.0
 10
132.8873497811413
 20
124.5907622739201
 30
0.0
 10
133.1046699398459
 20
123.6619321998886
 30
0.0
 10
133.2987541018545
 20
123.049399813781
 30
0.0
 10
133.3958055645271
 20
122.7431040120482
 30
0.0
  0
LINE
  5
1D0
330
1F
100
AcDbEntity
  8
0
  6
Continuous
 62
     7
370
    25
100
AcDbLine
 10
137.0410820058
 20
130.743104012
 30
0.0
 11
133.3958055645
 21
130.743104012
 31
0.0
  0
LINE
  5
1D1
330
1F
100
AcDbEntity
  8
0
  6
Continuous
 62
     7
370
    25
100
AcDbLine
 10
137.0946718443
 20
130.3843563664
 30
0.0
 11
137.0410820058
 21
130.743104012
 31
0.0
  0
LINE
  5
1D2
330
1F
100
AcDbEntity
  8
0
  6
Continuous
 62
     7
370
    25
100
AcDbLine
 10
137.1482616828
 20
130.743104012
 30
0.0
 11
137.0946718443
 21
130.3843563664
 31
0.0
  0
SPLINE
  5
1D3
330
1F
100
AcDbEntity
  8
0
  6
Continuous
 62
     7
370
    25
100
AcDbSpline
210
0.0
220
0.0
230
1.0
 70
     8
 71
     3
 72
    15
 73
    11
 74
     0
 42
0.000000001
 43
0.00000001
 40
0.0
 40
0.0
 40
0.0
 40
0.0
 40
0.13230496641634
 40
0.264572525757654
 40
0.3997989469058927
 40
0.5350009659368332
 40
0.6501921044151406
 40
0.7654012116808016
 40
0.8826892657702319
 40
1.0
 40
1.0
 40
1.0
 40
1.0
 10
133.3958055645271
 20
122.7431040120482
 30
0.0
 10
133.2870340369839
 20
122.397472895691
 30
0.0
 10
133.0695217352759
 20
121.7063083845471
 30
0.0
 10
132.8354865424803
 20
120.6419763000449
 30
0.0
 10
132.6947672865313
 20
119.5575814267461
 30
0.0
 10
132.6668980028077
 20
118.5124658610463
 30
0.0
 10
132.7391998011622
 20
117.5238109101838
 30
0.0
 10
132.8873497811413
 20
116.5907622739202
 30
0.0
 10
133.1046699398459
 20
115.6619321998885
 30
0.0
 10
133.2987541018545
 20
115.049399813781
 30
0.0
 10
133.3958055645271
 20
114.7431040120481
 30
0.0
  0
SPLINE
  5
1D4
330
1F
100
AcDbEntity
  8
0
  6
Continuous
 62
     7
370
    25
100
AcDbSpline
210
0.0
220
0.0
230
1.0
 70
    24
 71
     3
 72
    10
 73
     6
 74
     0
 42
0.000000001
 43
0.00000001
 40
0.0
 40
0.0
 40
0.0
 40
0.0
 40
0.3824415361703843
 40
0.7685419602794705
 40
1.0
 40
1.0
 40
1.0
 40
1.0
 10
133.3958055645271
 20
114.7431040120481
 30
0.0
 10
133.243069979937
 20
114.7431040120481
 30
0.0
 10
132.9361375615579
 20
114.7431040120482
 30
0.0
 10
132.7116169833844
 20
114.7431040120482
 30
0.0
 10
132.6921416984997
 20
114.7431040120482
 30
0.0
 10
132.6848424523126
 20
114.7431040120482
 30
0.0
  0
SPLINE
  5
1D5
330
1F
100
AcDbEntity
  8
0
  6
Continuous
 62
     7
370
    25
100
AcDbSpline
210
0.0
220
0.0
230
1.0
 70
    24
 71
     3
 72
    10
 73
     6
 74
     0
 42
0.000000001
 43
0.00000001
 40
0.0
 40
0.0
 40
0.0
 40
0.0
 40
0.2314536293865702
 40
0.6135486475542262
 40
1.0
 40
1.0
 40
1.0
 40
1.0
 10
132.6863606944265
 20
130.7431040120482
 30
0.0
 10
132.6930460912161
 20
130.7431040120482
 30
0.0
 10
132.7107680693485
 20
130.7431040120482
 30
0.0
 10
132.9350941926977
 20
130.7431040120481
 30
0.0
 10
133.2416558816524
 20
130.7431040120481
 30
0.0
 10
133.3958055645271
 20
130.7431040120481
 30
0.0
  0
LINE
  5
1D6
330
1F
100
AcDbEntity
  8
0
  6
Continuous
 62
     7
370
    25
100
AcDbLine
 10
132.5946718443
 20
130.593104012
 30
0.0
 11
132.5946718443
 21
114.893104012
 31
0.0
  0
SPLINE
  5
1D7
330
1F
100
AcDbEntity
  8
0
  6
Continuous
 62
     7
370
    25
100
AcDbSpline
210
0.0
220
0.0
230
1.0
 70
    24
 71
     3
 72
    10
 73
     6
 74
     0
 42
0.000000001
 43
0.00000001
 40
0.0
 40
0.0
 40
0.0
 40
0.0
 40
0.2314536293865702
 40
0.6135486475542262
 40
1.0
 40
1.0
 40
1.0
 40
1.0
 10
141.5029829942382
 20
130.7431040120482
 30
0.0
 10
141.4962975974486
 20
130.7431040120482
 30
0.0
 10
141.4785756193163
 20
130.7431040120482
 30
0.0
 10
141.254249495967
 20
130.7431040120481
 30
0.0
 10
140.9476878070123
 20
130.7431040120481
 30
0.0
 10
140.7935381241376
 20
130.7431040120481
 30
0.0
  0
SPLINE
  5
1D8
330
1F
100
AcDbEntity
  8
0
  6
Continuous
 62
     7
370
    25
100
AcDbSpline
210
0.0
220
0.0
230
1.0
 70
    24
 71
     3
 72
    10
 73
     6
 74
     0
 42
0.000000001
 43
0.00000001
 40
0.0
 40
0.0
 40
0.0
 40
0.0
 40
0.3824415361703842
 40
0.7685419602794704
 40
1.0
 40
1.0
 40
1.0
 40
1.0
 10
140.7935381241376
 20
114.7431040120481
 30
0.0
 10
140.9462737087278
 20
114.7431040120482
 30
0.0
 10
141.2532061271068
 20
114.7431040120482
 30
0.0
 10
141.4777267052804
 20
114.7431040120482
 30
0.0
 10
141.497201990165
 20
114.7431040120482
 30
0.0
 10
141.5045012363521
 20
114.7431040120482
 30
0.0
  0
SPLINE
  5
1D9
330
1F
100
AcDbEntity
  8
0
  6
Continuous
 62
     7
370
    25
100
AcDbSpline
210
0.0
220
0.0
230
1.0
 70
     8
 71
     3
 72
    15
 73
    11
 74
     0
 42
0.000000001
 43
0.00000001
 40
0.0
 40
0.0
 40
0.0
 40
0.0
 40
0.13230496641634
 40
0.264572525757654
 40
0.3997989469058927
 40
0.5350009659368332
 40
0.6501921044151406
 40
0.7654012116808016
 40
0.8826892657702319
 40
1.0
 40
1.0
 40
1.0
 40
1.0
 10
140.7935381241376
 20
122.7431040120482
 30
0.0
 10
140.9023096516808
 20
122.397472895691
 30
0.0
 10
141.1198219533889
 20
121.7063083845471
 30
0.0
 10
141.3538571461844
 20
120.6419763000449
 30
0.0
 10
141.4945764021334
 20
119.5575814267461
 30
0.0
 10
141.522445685857
 20
118.5124658610463
 30
0.0
 10
141.4501438875025
 20
117.5238109101838
 30
0.0
 10
141.3019939075234
 20
116.5907622739202
 30
0.0
 10
141.0846737488188
 20
115.6619321998885
 30
0.0
 10
140.8905895868102
 20
115.049399813781
 30
0.0
 10
140.7935381241376
 20
114.7431040120481
 30
0.0
  0
LINE
  5
1DA
330
1F
100
AcDbEntity
  8
0
  6
Continuous
 62
     7
370
    25
100
AcDbLine
 10
141.5946718443
 20
130.593104012
 30
0.0
 11
141.5946718443
 21
114.893104012
 31
0.0
  0
LINE
  5
1DB
330
1F
100
AcDbEntity
  8
0
  6
Continuous
 62
     7
370
    25
100
AcDbLine
 10
137.0946718443
 20
123.1018516577
 30
0.0
 11
137.0946718443
 21
122.3843563664
 31
0.0
  0
LINE
  5
1DC
330
1F
100
AcDbEntity
  8
0
  6
Continuous
 62
     7
370
    25
100
AcDbLine
 10
137.0946718443
 20
122.3843563664
 30
0.0
 11
137.0410820058
 21
122.743104012
 31
0.0
  0
LINE
  5
1DD
330
1F
100
AcDbEntity
  8
0
  6
Continuous
 62
     7
370
    25
100
AcDbLine
 10
137.1482616828
 20
122.743104012
 30
0.0
 11
137.0946718443
 21
122.3843563664
 31
0.0
  0
LINE
  5
1DE
330
1F
100
AcDbEntity
  8
0
  6
Continuous
 62
     7
370
    25
100
AcDbLine
 10
140.7935381241
 20
114.743104012
 30
0.0
 11
137.1482616828
 21
114.743104012
 31
0.0
  0
LINE
  5
1DF
330
1F
100
AcDbEntity
  8
0
  6
Continuous
 62
     7
370
    25
100
AcDbLine
 10
137.0946718443
 20
115.1018516577
 30
0.0
 11
137.1482616828
 21
114.743104012
 31
0.0
  0
LINE
  5
1E0
330
1F
100
AcDbEntity
  8
0
  6
Continuous
 62
     7
370
    25
100
AcDbLine
 10
137.0410820058
 20
114.743104012
 30
0.0
 11
137.0946718443
 21
115.1018516577
 31
0.0
  0
LINE
  5
1E1
330
1F
100
AcDbEntity
  8
0
  6
Continuous
 62
     7
370
    25
100
AcDbLine
 10
137.0410820058
 20
114.743104012
 30
0.0
 11
133.3958055645
 21
114.743104012
 31
0.0
  0
LINE
  5
1E2
330
1F
100
AcDbEntity
  8
0
  6
Continuous
 62
     7
370
    25
100
AcDbLine
 10
143.5946718443
 20
130.293104012
 30
0.0
 11
143.5946718443
 21
115.1931040198
 31
0.0
  0
LINE
  5
1E3
330
1F
100
AcDbEntity
  8
0
  6
Continuous
 62
     7
370
    25
100
AcDbLine
 10
130.5946718443
 20
115.193104012
 30
0.0
 11
130.5946718443
 21
130.2931040043
 31
0.0
  0
LINE
  5
1E4
330
1F
100
AcDbEntity
  8
0
  6
Continuous
 62
     7
370
    25
100
AcDbLine
 10
137.0410820058
 20
130.743104012
 30
0.0
 11
137.0946718443
 21
130.743104012
 31
0.0
  0
LINE
  5
1E5
330
1F
100
AcDbEntity
  8
0
  6
Continuous
 62
     7
370
    25
100
AcDbLine
 10
137.0946718443
 20
130.743104012
 30
0.0
 11
137.0946718443
 21
130.3843563664
 31
0.0
  0
LINE
  5
1E6
330
1F
100
AcDbEntity
  8
0
  6
Continuous
 62
     7
370
    25
100
AcDbLine
 10
137.0946718443
 20
130.743104012
 30
0.0
 11
137.1482616828
 21
130.743104012
 31
0.0
  0
LINE
  5
1E7
330
1F
100
AcDbEntity
  8
0
  6
Continuous
 62
     7
370
    25
100
AcDbLine
 10
137.0946718443
 20
115.1018516577
 30
0.0
 11
137.0946718443
 21
114.743104012
 31
0.0
  0
LINE
  5
1E8
330
1F
100
AcDbEntity
  8
0
  6
Continuous
 62
     7
370
    25
100
AcDbLine
 10
137.0946718443
 20
114.743104012
 30
0.0
 11
137.0410820058
 21
114.743104012
 31
0.0
  0
LINE
  5
1E9
330
1F
100
AcDbEntity
  8
0
  6
Continuous
 62
     7
370
    25
100
AcDbLine
 10
137.1482616828
 20
114.743104012
 30
0.0
 11
137.0946718443
 21
114.743104012
 31
0.0
  0
SPLINE
  5
1EA
330
1F
100
AcDbEntity
  8
0
  6
Continuous
 62
     7
370
    25
100
AcDbSpline
210
0.0
220
0.0
230
1.0
 70
     8
 71
     3
 72
    15
 73
    11
 74
     0
 42
0.000000001
 43
0.00000001
 40
0.0
 40
0.0
 40
0.0
 40
0.0
 40
0.1323049664163419
 40
0.2645725257576577
 40
0.399798946905898
 40
0.5350009659368402
 40
0.6501921044151457
 40
0.7654012116808047
 40
0.8826892657702335
 40
1.0
 40
1.0
 40
1.0
 40
1.0
 10
165.3021079607863
 20
114.7431040120482
 30
0.0
 10
165.4108794883295
 20
115.0887351284054
 30
0.0
 10
165.6283917900375
 20
115.7798996395493
 30
0.0
 10
165.8624269828331
 20
116.8442317240515
 30
0.0
 10
166.0031462387822
 20
117.9286265973503
 30
0.0
 10
166.0310155225057
 20
118.9737421630501
 30
0.0
 10
165.9587137241512
 20
119.9623971139126
 30
0.0
 10
165.8105637441721
 20
120.8954457501762
 30
0.0
 10
165.5932435854675
 20
121.8242758242078
 30
0.0
 10
165.3991594234589
 20
122.4368082103153
 30
0.0
 10
165.3021079607863
 20
122.7431040120482
 30
0.0
  0
SPLINE
  5
1EB
330
1F
100
AcDbEntity
  8
0
  6
Continuous
 62
     7
370
    25
100
AcDbSpline
210
0.0
220
0.0
230
1.0
 70
     8
 71
     3
 72
    15
 73
    11
 74
     0
 42
0.000000001
 43
0.00000001
 40
0.0
 40
0.0
 40
0.0
 40
0.0
 40
0.13230496641634
 40
0.264572525757654
 40
0.3997989469058927
 40
0.5350009659368332
 40
0.6501921044151406
 40
0.7654012116808014
 40
0.8826892657702319
 40
1.0
 40
1.0
 40
1.0
 40
1.0
 10
165.3021079607863
 20
122.7431040120482
 30
0.0
 10
165.4108794883295
 20
123.0887351284054
 30
0.0
 10
165.6283917900375
 20
123.7798996395493
 30
0.0
 10
165.8624269828331
 20
124.8442317240515
 30
0.0
 10
166.0031462387822
 20
125.9286265973503
 30
0.0
 10
166.0310155225057
 20
126.9737421630501
 30
0.0
 10
165.9587137241512
 20
127.9623971139125
 30
0.0
 10
165.8105637441722
 20
128.8954457501762
 30
0.0
 10
165.5932435854675
 20
129.8242758242078
 30
0.0
 10
165.3991594234589
 20
130.4368082103153
 30
0.0
 10
165.3021079607863
 20
130.7431040120482
 30
0.0
  0
SPLINE
  5
1EC
330
1F
100
AcDbEntity
  8
0
  6
Continuous
 62
     7
370
    25
100
AcDbSpline
210
0.0
220
0.0
230
1.0
 70
    24
 71
     3
 72
    10
 73
     6
 74
     0
 42
0.000000001
 43
0.00000001
 40
0.0
 40
0.0
 40
0.0
 40
0.0
 40
0.3824415361703795
 40
0.7685419602794609
 40
1.0
 40
1.0
 40
1.0
 40
1.0
 10
165.3021079607863
 20
130.7431040120482
 30
0.0
 10
165.4548435453765
 20
130.7431040120482
 30
0.0
 10
165.7617759637556
 20
130.7431040120482
 30
0.0
 10
165.9862965419291
 20
130.7431040120482
 30
0.0
 10
166.0057718268137
 20
130.7431040120482
 30
0.0
 10
166.0130710730008
 20
130.7431040120482
 30
0.0
  0
SPLINE
  5
1ED
330
1F
100
AcDbEntity
  8
0
  6
Continuous
 62
     7
370
    25
100
AcDbSpline
210
0.0
220
0.0
230
1.0
 70
    24
 71
     3
 72
    10
 73
     6
 74
     0
 42
0.000000001
 43
0.00000001
 40
0.0
 40
0.0
 40
0.0
 40
0.0
 40
0.2314536293865608
 40
0.6135486475542216
 40
1.0
 40
1.0
 40
1.0
 40
1.0
 10
166.011552830887
 20
114.7431040120482
 30
0.0
 10
166.0048674340973
 20
114.7431040120482
 30
0.0
 10
165.987145455965
 20
114.7431040120482
 30
0.0
 10
165.7628193326157
 20
114.7431040120482
 30
0.0
 10
165.4562576436611
 20
114.7431040120482
 30
0.0
 10
165.3021079607863
 20
114.7431040120482
 30
0.0
  0
LINE
  5
1EE
330
1F
100
AcDbEntity
  8
0
  6
Continuous
 62
     7
370
    25
100
AcDbLine
 10
166.103241681
 20
114.893104012
 30
0.0
 11
166.103241681
 21
130.593104012
 31
0.0
  0
SPLINE
  5
1EF
330
1F
100
AcDbEntity
  8
0
  6
Continuous
 62
     7
370
    25
100
AcDbSpline
210
0.0
220
0.0
230
1.0
 70
    24
 71
     3
 72
    10
 73
     6
 74
     0
 42
0.000000001
 43
0.00000001
 40
0.0
 40
0.0
 40
0.0
 40
0.0
 40
0.2314536293865608
 40
0.6135486475542216
 40
1.0
 40
1.0
 40
1.0
 40
1.0
 10
157.1949305310752
 20
114.7431040120482
 30
0.0
 10
157.2016159278648
 20
114.7431040120482
 30
0.0
 10
157.2193379059972
 20
114.7431040120482
 30
0.0
 10
157.4436640293464
 20
114.7431040120482
 30
0.0
 10
157.7502257183011
 20
114.7431040120482
 30
0.0
 10
157.9043754011759
 20
114.7431040120482
 30
0.0
  0
SPLINE
  5
1F0
330
1F
100
AcDbEntity
  8
0
  6
Continuous
 62
     7
370
    25
100
AcDbSpline
210
0.0
220
0.0
230
1.0
 70
    24
 71
     3
 72
    10
 73
     6
 74
     0
 42
0.000000001
 43
0.00000001
 40
0.0
 40
0.0
 40
0.0
 40
0.0
 40
0.3824415361703794
 40
0.7685419602794608
 40
1.0
 40
1.0
 40
1.0
 40
1.0
 10
157.9043754011759
 20
130.7431040120482
 30
0.0
 10
157.7516398165857
 20
130.7431040120482
 30
0.0
 10
157.4447073982066
 20
130.7431040120482
 30
0.0
 10
157.2201868200331
 20
130.7431040120482
 30
0.0
 10
157.2007115351484
 20
130.7431040120482
 30
0.0
 10
157.1934122889613
 20
130.7431040120482
 30
0.0
  0
SPLINE
  5
1F1
330
1F
100
AcDbEntity
  8
0
  6
Continuous
 62
     7
370
    25
100
AcDbSpline
210
0.0
220
0.0
230
1.0
 70
     8
 71
     3
 72
    15
 73
    11
 74
     0
 42
0.000000001
 43
0.00000001
 40
0.0
 40
0.0
 40
0.0
 40
0.0
 40
0.13230496641634
 40
0.264572525757654
 40
0.3997989469058927
 40
0.5350009659368332
 40
0.6501921044151406
 40
0.7654012116808014
 40
0.8826892657702319
 40
1.0
 40
1.0
 40
1.0
 40
1.0
 10
157.9043754011759
 20
122.7431040120482
 30
0.0
 10
157.7956038736326
 20
123.0887351284054
 30
0.0
 10
157.5780915719246
 20
123.7798996395493
 30
0.0
 10
157.344056379129
 20
124.8442317240515
 30
0.0
 10
157.20333712318
 20
125.9286265973503
 30
0.0
 10
157.1754678394565
 20
126.9737421630501
 30
0.0
 10
157.2477696378109
 20
127.9623971139125
 30
0.0
 10
157.39591961779
 20
128.8954457501762
 30
0.0
 10
157.6132397764946
 20
129.8242758242078
 30
0.0
 10
157.8073239385033
 20
130.4368082103153
 30
0.0
 10
157.9043754011759
 20
130.7431040120482
 30
0.0
  0
SPLINE
  5
1F2
330
1F
100
AcDbEntity
  8
0
  6
Continuous
 62
     7
370
    25
100
AcDbSpline
210
0.0
220
0.0
230
1.0
 70
     8
 71
     3
 72
    15
 73
    11
 74
     0
 42
0.000000001
 43
0.00000001
 40
0.0
 40
0.0
 40
0.0
 40
0.0
 40
0.1323049664163418
 40
0.2645725257576576
 40
0.3997989469058979
 40
0.5350009659368401
 40
0.6501921044151456
 40
0.7654012116808045
 40
0.8826892657702334
 40
1.0
 40
1.0
 40
1.0
 40
1.0
 10
157.9043754011759
 20
114.7431040120482
 30
0.0
 10
157.7956038736326
 20
115.0887351284054
 30
0.0
 10
157.5780915719246
 20
115.7798996395493
 30
0.0
 10
157.344056379129
 20
116.8442317240515
 30
0.0
 10
157.20333712318
 20
117.9286265973503
 30
0.0
 10
157.1754678394565
 20
118.9737421630501
 30
0.0
 10
157.247769637811
 20
119.9623971139126
 30
0.0
 10
157.39591961779
 20
120.8954457501762
 30
0.0
 10
157.6132397764946
 20
121.8242758242078
 30
0.0
 10
157.8073239385033
 20
122.4368082103153
 30
0.0
 10
157.9043754011759
 20
122.7431040120482
 30
0.0
  0
LINE
  5
1F3
330
1F
100
AcDbEntity
  8
0
  6
Continuous
 62
     7
370
    25
100
AcDbLine
 10
157.103241681
 20
114.893104012
 30
0.0
 11
157.103241681
 21
130.593104012
 31
0.0
  0
LINE
  5
1F4
330
1F
100
AcDbEntity
  8
0
  6
Continuous
 62
     7
370
    25
100
AcDbLine
 10
157.9043754012
 20
122.743104012
 30
0.0
 11
161.5496518425
 21
122.743104012
 31
0.0
  0
LINE
  5
1F5
330
1F
100
AcDbEntity
  8
0
  6
Continuous
 62
     7
370
    25
100
AcDbLine
 10
157.9043754012
 20
130.743104012
 30
0.0
 11
161.5496518425
 21
130.743104012
 31
0.0
  0
LINE
  5
1F6
330
1F
100
AcDbEntity
  8
0
  6
Continuous
 62
     7
370
    25
100
AcDbLine
 10
161.603241681
 20
130.3843563664
 30
0.0
 11
161.5496518425
 21
130.743104012
 31
0.0
  0
LINE
  5
1F7
330
1F
100
AcDbEntity
  8
0
  6
Continuous
 62
     7
370
    25
100
AcDbLine
 10
161.6568315195
 20
130.743104012
 30
0.0
 11
161.603241681
 21
130.3843563664
 31
0.0
  0
LINE
  5
1F8
330
1F
100
AcDbEntity
  8
0
  6
Continuous
 62
     7
370
    25
100
AcDbLine
 10
161.6568315195
 20
130.743104012
 30
0.0
 11
165.3021079608
 21
130.743104012
 31
0.0
  0
LINE
  5
1F9
330
1F
100
AcDbEntity
  8
0
  6
Continuous
 62
     7
370
    25
100
AcDbLine
 10
161.6568315195
 20
122.743104012
 30
0.0
 11
165.3021079608
 21
122.743104012
 31
0.0
  0
LINE
  5
1FA
330
1F
100
AcDbEntity
  8
0
  6
Continuous
 62
     7
370
    25
100
AcDbLine
 10
161.603241681
 20
123.1018516577
 30
0.0
 11
161.6568315195
 21
122.743104012
 31
0.0
  0
LINE
  5
1FB
330
1F
100
AcDbEntity
  8
0
  6
Continuous
 62
     7
370
    25
100
AcDbLine
 10
161.5496518425
 20
122.743104012
 30
0.0
 11
161.603241681
 21
123.1018516577
 31
0.0
  0
LINE
  5
1FC
330
1F
100
AcDbEntity
  8
0
  6
Continuous
 62
     7
370
    25
100
AcDbLine
 10
161.6568315195
 20
122.743104012
 30
0.0
 11
161.603241681
 21
122.3843563664
 31
0.0
  0
LINE
  5
1FD
330
1F
100
AcDbEntity
  8
0
  6
Continuous
 62
     7
370
    25
100
AcDbLine
 10
161.603241681
 20
122.3843563664
 30
0.0
 11
161.603241681
 21
123.1018516577
 31
0.0
  0
LINE
  5
1FE
330
1F
100
AcDbEntity
  8
0
  6
Continuous
 62
     7
370
    25
100
AcDbLine
 10
161.603241681
 20
122.3843563664
 30
0.0
 11
161.5496518425
 21
122.743104012
 31
0.0
  0
LINE
  5
1FF
330
1F
100
AcDbEntity
  8
0
  6
Continuous
 62
     7
370
    25
100
AcDbLine
 10
157.9043754012
 20
114.743104012
 30
0.0
 11
161.5496518425
 21
114.743104012
 31
0.0
  0
LINE
  5
200
330
1F
100
AcDbEntity
  8
0
  6
Continuous
 62
     7
370
    25
100
AcDbLine
 10
161.6568315195
 20
114.743104012
 30
0.0
 11
165.3021079608
 21
114.743104012
 31
0.0
  0
LINE
  5
201
330
1F
100
AcDbEntity
  8
0
  6
Continuous
 62
     7
370
    25
100
AcDbLine
 10
161.603241681
 20
115.1018516577
 30
0.0
 11
161.6568315195
 21
114.743104012
 31
0.0
  0
LINE
  5
202
330
1F
100
AcDbEntity
  8
0
  6
Continuous
 62
     7
370
    25
100
AcDbLine
 10
161.5496518425
 20
114.743104012
 30
0.0
 11
161.603241681
 21
115.1018516577
 31
0.0
  0
LINE
  5
203
330
1F
100
AcDbEntity
  8
0
  6
Continuous
 62
     7
370
    25
100
AcDbLine
 10
168.103241681
 20
130.293104012
 30
0.0
 11
168.103241681
 21
115.1931040198
 31
0.0
  0
LINE
  5
204
330
1F
100
AcDbEntity
  8
0
  6
Continuous
 62
     7
370
    25
100
AcDbLine
 10
155.103241681
 20
115.193104012
 30
0.0
 11
155.103241681
 21
130.2931040043
 31
0.0
  0
LINE
  5
205
330
1F
100
AcDbEntity
  8
0
  6
Continuous
 62
     7
370
    25
100
AcDbLine
 10
161.603241681
 20
114.743104012
 30
0.0
 11
161.603241681
 21
115.1018516577
 31
0.0
  0
LINE
  5
206
330
1F
100
AcDbEntity
  8
0
  6
Continuous
 62
     7
370
    25
100
AcDbLine
 10
161.603241681
 20
114.743104012
 30
0.0
 11
161.5496518425
 21
114.743104012
 31
0.0
  0
LINE
  5
207
330
1F
100
AcDbEntity
  8
0
  6
Continuous
 62
     7
370
    25
100
AcDbLine
 10
161.6568315195
 20
114.743104012
 30
0.0
 11
161.603241681
 21
114.743104012
 31
0.0
  0
LINE
  5
208
330
1F
100
AcDbEntity
  8
0
  6
Continuous
 62
     7
370
    25
100
AcDbLine
 10
161.603241681
 20
130.3843563664
 30
0.0
 11
161.603241681
 21
130.743104012
 31
0.0
  0
LINE
  5
209
330
1F
100
AcDbEntity
  8
0
  6
Continuous
 62
     7
370
    25
100
AcDbLine
 10
161.603241681
 20
130.743104012
 30
0.0
 11
161.6568315195
 21
130.743104012
 31
0.0
  0
LINE
  5
20A
330
1F
100
AcDbEntity
  8
0
  6
Continuous
 62
     7
370
    25
100
AcDbLine
 10
161.5496518425
 20
130.743104012
 30
0.0
 11
161.603241681
 21
130.743104012
 31
0.0
  0
LINE
  5
20B
330
1F
100
AcDbEntity
  8
0
  6
Continuous
 62
     7
370
    25
100
AcDbLine
 10
147.6185091123
 20
122.743104012
 30
0.0
 11
149.2685720049
 21
122.743104012
 31
0.0
  0
SPLINE
  5
20C
330
1F
100
AcDbEntity
  8
0
  6
Continuous
 62
     7
370
    25
100
AcDbSpline
210
0.0
220
0.0
230
1.0
 70
     8
 71
     3
 72
    16
 73
    12
 74
     0
 42
0.000000001
 43
0.00000001
 40
0.0
 40
0.0
 40
0.0
 40
0.0
 40
0.2499999999999999
 40
0.2499999999999999
 40
0.4999999999999999
 40
0.4999999999999999
 40
0.6249999999999999
 40
0.6249999999999999
 40
0.7499999999999999
 40
0.7499999999999999
 40
1.0
 40
1.0
 40
1.0
 40
1.0
 10
147.6185091122929
 20
122.7431040120481
 30
0.0
 10
147.4280146413082
 20
123.3145874250025
 30
0.0
 10
147.271012628095
 20
123.8902375269349
 30
0.0
 10
147.053513817257
 20
125.0535436343633
 30
0.0
 10
146.993734456187
 20
125.6412888938342
 30
0.0
 10
146.993077955333
 20
126.5339805470201
 30
0.0
 10
147.0076917218165
 20
126.8329442259368
 30
0.0
 10
147.0646775796933
 20
127.4243259758713
 30
0.0
 10
147.1069918489525
 20
127.7180341661905
 30
0.0
 10
147.2703866688427
 20
128.593929660725
 30
0.0
 10
147.4277771961561
 20
129.1709082636372
 30
0.0
 10
147.6185091122932
 20
129.7431040120482
 30
0.0
  0
LINE
  5
20D
330
1F
100
AcDbEntity
  8
0
  6
Continuous
 62
     7
370
    25
100
AcDbLine
 10
147.6185091123
 20
129.743104012
 30
0.0
 11
149.2685720049
 21
129.743104012
 31
0.0
  0
SPLINE
  5
20E
330
1F
100
AcDbEntity
  8
0
  6
Continuous
 62
     7
370
    25
100
AcDbSpline
210
0.0
220
0.0
230
1.0
 70
     8
 71
     3
 72
     8
 73
     4
 74
     0
 42
0.000000001
 43
0.00000001
 40
0.0
 40
0.0
 40
0.0
 40
0.0
 40
1.0
 40
1.0
 40
1.0
 40
1.0
 10
149.3489567626567
 20
129.1893207902411
 30
0.0
 10
149.323956349734
 20
129.3741765364093
 30
0.0
 10
149.2970900382738
 20
129.558760546633
 30
0.0
 10
149.2685720049274
 20
129.7431040120482
 30
0.0
  0
SPLINE
  5
20F
330
1F
100
AcDbEntity
  8
0
  6
Continuous
 62
     7
370
    25
100
AcDbSpline
210
0.0
220
0.0
230
1.0
 70
     8
 71
     3
 72
     8
 73
     4
 74
     0
 42
0.000000001
 43
0.00000001
 40
0.0
 40
0.0
 40
0.0
 40
0.0
 40
1.0
 40
1.0
 40
1.0
 40
1.0
 10
149.4293415203861
 20
129.7431040120482
 30
0.0
 10
149.4008077055479
 20
129.5586585334672
 30
0.0
 10
149.3739427837412
 20
129.374070121607
 30
0.0
 10
149.3489567626567
 20
129.1893207902411
 30
0.0
  0
LINE
  5
210
330
1F
100
AcDbEntity
  8
0
  6
Continuous
 62
     7
370
    25
100
AcDbLine
 10
149.4293415204
 20
129.743104012
 30
0.0
 11
151.079404413
 21
129.743104012
 31
0.0
  0
SPLINE
  5
211
330
1F
100
AcDbEntity
  8
0
  6
Continuous
 62
     7
370
    25
100
AcDbSpline
210
0.0
220
0.0
230
1.0
 70
     8
 71
     3
 72
    16
 73
    12
 74
     0
 42
0.000000001
 43
0.00000001
 40
0.0
 40
0.0
 40
0.0
 40
0.0
 40
0.2499999999999999
 40
0.2499999999999999
 40
0.4999999999999999
 40
0.4999999999999999
 40
0.6249999999999999
 40
0.6249999999999999
 40
0.7499999999999999
 40
0.7499999999999999
 40
1.0
 40
1.0
 40
1.0
 40
1.0
 10
151.0794044130205
 20
122.7431040120481
 30
0.0
 10
151.2698988840053
 20
123.3145874250025
 30
0.0
 10
151.4269008972184
 20
123.8902375269349
 30
0.0
 10
151.6443997080564
 20
125.0535436343633
 30
0.0
 10
151.7041790691265
 20
125.6412888938342
 30
0.0
 10
151.7048355699805
 20
126.5339805470201
 30
0.0
 10
151.690221803497
 20
126.8329442259368
 30
0.0
 10
151.6332359456201
 20
127.4243259758713
 30
0.0
 10
151.5909216763609
 20
127.7180341661905
 30
0.0
 10
151.4275268564707
 20
128.593929660725
 30
0.0
 10
151.2701363291573
 20
129.1709082636372
 30
0.0
 10
151.0794044130203
 20
129.7431040120482
 30
0.0
  0
LINE
  5
212
330
1F
100
AcDbEntity
  8
0
  6
Continuous
 62
     7
370
    25
100
AcDbLine
 10
149.4293415204
 20
122.743104012
 30
0.0
 11
151.079404413
 21
122.743104012
 31
0.0
  0
SPLINE
  5
213
330
1F
100
AcDbEntity
  8
0
  6
Continuous
 62
     7
370
    25
100
AcDbSpline
210
0.0
220
0.0
230
1.0
 70
     8
 71
     3
 72
     8
 73
     4
 74
     0
 42
0.000000001
 43
0.00000001
 40
0.0
 40
0.0
 40
0.0
 40
0.0
 40
1.0
 40
1.0
 40
1.0
 40
1.0
 10
149.3489567626567
 20
123.2968872338553
 30
0.0
 10
149.3739571755794
 20
123.1120314876871
 30
0.0
 10
149.4008234870396
 20
122.9274474774633
 30
0.0
 10
149.4293415203861
 20
122.7431040120482
 30
0.0
  0
SPLINE
  5
214
330
1F
100
AcDbEntity
  8
0
  6
Continuous
 62
     7
370
    25
100
AcDbSpline
210
0.0
220
0.0
230
1.0
 70
     8
 71
     3
 72
     8
 73
     4
 74
     0
 42
0.000000001
 43
0.00000001
 40
0.0
 40
0.0
 40
0.0
 40
0.0
 40
1.0
 40
1.0
 40
1.0
 40
1.0
 10
149.2685720049274
 20
122.7431040120482
 30
0.0
 10
149.2971058197655
 20
122.9275494906291
 30
0.0
 10
149.3239707415723
 20
123.1121379024894
 30
0.0
 10
149.3489567626567
 20
123.2968872338553
 30
0.0
  0
SPLINE
  5
215
330
1F
100
AcDbEntity
  8
0
  6
Continuous
 62
     7
370
    25
100
AcDbSpline
210
0.0
220
0.0
230
1.0
 70
    24
 71
     3
 72
    10
 73
     6
 74
     0
 42
0.000000001
 43
0.00000001
 40
0.0
 40
0.0
 40
0.0
 40
0.0
 40
0.2268163306113477
 40
0.6111832424638556
 40
1.0
 40
1.0
 40
1.0
 40
1.0
 10
146.9984331457055
 20
115.7431040120482
 30
0.0
 10
147.0037196640266
 20
115.7431040120482
 30
0.0
 10
147.0179648085456
 20
115.7431040120482
 30
0.0
 10
147.2132354476128
 20
115.7431040120482
 30
0.0
 10
147.4829005629636
 20
115.7431040120482
 30
0.0
 10
147.6185091122934
 20
115.7431040120482
 30
0.0
  0
SPLINE
  5
216
330
1F
100
AcDbEntity
  8
0
  6
Continuous
 62
     7
370
    25
100
AcDbSpline
210
0.0
220
0.0
230
1.0
 70
    24
 71
     3
 72
    10
 73
     6
 74
     0
 42
0.000000001
 43
0.00000001
 40
0.0
 40
0.0
 40
0.0
 40
0.0
 40
0.384721702322122
 40
0.7731788796556208
 40
1.0
 40
1.0
 40
1.0
 40
1.0
 10
147.6185091122934
 20
129.7431040120482
 30
0.0
 10
147.4841625135142
 20
129.7431040120482
 30
0.0
 10
147.2141648707957
 20
129.7431040120482
 30
0.0
 10
147.0187087674747
 20
129.7431040120482
 30
0.0
 10
147.0029419213109
 20
129.7431040120482
 30
0.0
 10
146.9971295048408
 20
129.7431040120482
 30
0.0
  0
SPLINE
  5
217
330
1F
100
AcDbEntity
  8
0
  6
Continuous
 62
     7
370
    25
100
AcDbSpline
210
0.0
220
0.0
230
1.0
 70
     8
 71
     3
 72
    16
 73
    12
 74
     0
 42
0.000000001
 43
0.00000001
 40
0.0
 40
0.0
 40
0.0
 40
0.0
 40
0.2499999999999999
 40
0.2499999999999999
 40
0.4999999999999998
 40
0.4999999999999998
 40
0.6249999999999998
 40
0.6249999999999998
 40
0.7499999999999999
 40
0.7499999999999999
 40
1.0
 40
1.0
 40
1.0
 40
1.0
 10
147.6185091122929
 20
115.7431040120481
 30
0.0
 10
147.4280146413082
 20
116.3145874250025
 30
0.0
 10
147.2710126280951
 20
116.8902375269349
 30
0.0
 10
147.053513817257
 20
118.0535436343633
 30
0.0
 10
146.993734456187
 20
118.6412888938342
 30
0.0
 10
146.993077955333
 20
119.5339805470201
 30
0.0
 10
147.0076917218165
 20
119.8329442259368
 30
0.0
 10
147.0646775796933
 20
120.4243259758713
 30
0.0
 10
147.1069918489526
 20
120.7180341661905
 30
0.0
 10
147.2703866688427
 20
121.593929660725
 30
0.0
 10
147.4277771961561
 20
122.1709082636372
 30
0.0
 10
147.6185091122932
 20
122.7431040120482
 30
0.0
  0
LINE
  5
218
330
1F
100
AcDbEntity
  8
0
  6
Continuous
 62
     7
370
    25
100
AcDbLine
 10
146.8489567627
 20
115.993104012
 30
0.0
 11
146.8489567627
 21
129.493104012
 31
0.0
  0
SPLINE
  5
219
330
1F
100
AcDbEntity
  8
0
  6
Continuous
 62
     7
370
    25
100
AcDbSpline
210
0.0
220
0.0
230
1.0
 70
     8
 71
     3
 72
    16
 73
    12
 74
     0
 42
0.000000001
 43
0.00000001
 40
0.0
 40
0.0
 40
0.0
 40
0.0
 40
0.2499999999999999
 40
0.2499999999999999
 40
0.4999999999999998
 40
0.4999999999999998
 40
0.6249999999999998
 40
0.6249999999999998
 40
0.7499999999999999
 40
0.7499999999999999
 40
1.0
 40
1.0
 40
1.0
 40
1.0
 10
151.0794044130205
 20
115.7431040120481
 30
0.0
 10
151.2698988840053
 20
116.3145874250025
 30
0.0
 10
151.4269008972184
 20
116.8902375269349
 30
0.0
 10
151.6443997080564
 20
118.0535436343633
 30
0.0
 10
151.7041790691265
 20
118.6412888938342
 30
0.0
 10
151.7048355699804
 20
119.5339805470201
 30
0.0
 10
151.6902218034969
 20
119.8329442259368
 30
0.0
 10
151.6332359456201
 20
120.4243259758713
 30
0.0
 10
151.5909216763609
 20
120.7180341661905
 30
0.0
 10
151.4275268564707
 20
121.593929660725
 30
0.0
 10
151.2701363291573
 20
122.1709082636372
 30
0.0
 10
151.0794044130203
 20
122.7431040120482
 30
0.0
  0
SPLINE
  5
21A
330
1F
100
AcDbEntity
  8
0
  6
Continuous
 62
     7
370
    25
100
AcDbSpline
210
0.0
220
0.0
230
1.0
 70
    24
 71
     3
 72
    10
 73
     6
 74
     0
 42
0.000000001
 43
0.00000001
 40
0.0
 40
0.0
 40
0.0
 40
0.0
 40
0.3847217023221219
 40
0.7731788796556208
 40
1.0
 40
1.0
 40
1.0
 40
1.0
 10
151.07940441302
 20
129.7431040120482
 30
0.0
 10
151.2137510117992
 20
129.7431040120482
 30
0.0
 10
151.4837486545177
 20
129.7431040120482
 30
0.0
 10
151.6792047578387
 20
129.7431040120482
 30
0.0
 10
151.6949716040025
 20
129.7431040120482
 30
0.0
 10
151.7007840204727
 20
129.7431040120482
 30
0.0
  0
SPLINE
  5
21B
330
1F
100
AcDbEntity
  8
0
  6
Continuous
 62
     7
370
    25
100
AcDbSpline
210
0.0
220
0.0
230
1.0
 70
    24
 71
     3
 72
    10
 73
     6
 74
     0
 42
0.000000001
 43
0.00000001
 40
0.0
 40
0.0
 40
0.0
 40
0.0
 40
0.2268163306113477
 40
0.6111832424638556
 40
1.0
 40
1.0
 40
1.0
 40
1.0
 10
151.699480379608
 20
115.7431040120482
 30
0.0
 10
151.6941938612869
 20
115.7431040120482
 30
0.0
 10
151.6799487167679
 20
115.7431040120482
 30
0.0
 10
151.4846780777007
 20
115.7431040120482
 30
0.0
 10
151.2150129623499
 20
115.7431040120482
 30
0.0
 10
151.07940441302
 20
115.7431040120482
 30
0.0
  0
LINE
  5
21C
330
1F
100
AcDbEntity
  8
0
  6
Continuous
 62
     7
370
    25
100
AcDbLine
 10
151.8489567627
 20
115.993104012
 30
0.0
 11
151.8489567627
 21
129.493104012
 31
0.0
  0
SPLINE
  5
21D
330
1F
100
AcDbEntity
  8
0
  6
Continuous
 62
     7
370
    25
100
AcDbSpline
210
0.0
220
0.0
230
1.0
 70
     8
 71
     3
 72
     8
 73
     4
 74
     0
 42
0.000000001
 43
0.00000001
 40
0.0
 40
0.0
 40
0.0
 40
0.0
 40
1.0
 40
1.0
 40
1.0
 40
1.0
 10
149.3489567626567
 20
122.1893207902411
 30
0.0
 10
149.323956349734
 20
122.3741765364093
 30
0.0
 10
149.2970900382738
 20
122.558760546633
 30
0.0
 10
149.2685720049274
 20
122.7431040120482
 30
0.0
  0
LINE
  5
21E
330
1F
100
AcDbEntity
  8
0
  6
Continuous
 62
     7
370
    25
100
AcDbLine
 10
149.3489567627
 20
122.1893207902
 30
0.0
 11
149.3489567627
 21
123.2968872339
 31
0.0
  0
SPLINE
  5
21F
330
1F
100
AcDbEntity
  8
0
  6
Continuous
 62
     7
370
    25
100
AcDbSpline
210
0.0
220
0.0
230
1.0
 70
     8
 71
     3
 72
     8
 73
     4
 74
     0
 42
0.000000001
 43
0.00000001
 40
0.0
 40
0.0
 40
0.0
 40
0.0
 40
1.0
 40
1.0
 40
1.0
 40
1.0
 10
149.4293415203861
 20
122.7431040120482
 30
0.0
 10
149.4008077055479
 20
122.5586585334672
 30
0.0
 10
149.3739427837412
 20
122.374070121607
 30
0.0
 10
149.3489567626567
 20
122.1893207902411
 30
0.0
  0
LINE
  5
220
330
1F
100
AcDbEntity
  8
0
  6
Continuous
 62
     7
370
    25
100
AcDbLine
 10
147.6185091123
 20
115.743104012
 30
0.0
 11
149.2685720049
 21
115.743104012
 31
0.0
  0
LINE
  5
221
330
1F
100
AcDbEntity
  8
0
  6
Continuous
 62
     7
370
    25
100
AcDbLine
 10
149.4293415204
 20
115.743104012
 30
0.0
 11
151.079404413
 21
115.743104012
 31
0.0
  0
SPLINE
  5
222
330
1F
100
AcDbEntity
  8
0
  6
Continuous
 62
     7
370
    25
100
AcDbSpline
210
0.0
220
0.0
230
1.0
 70
     8
 71
     3
 72
     8
 73
     4
 74
     0
 42
0.000000001
 43
0.00000001
 40
0.0
 40
0.0
 40
0.0
 40
0.0
 40
1.0
 40
1.0
 40
1.0
 40
1.0
 10
149.3489567626567
 20
116.2968872338553
 30
0.0
 10
149.3739571755794
 20
116.1120314876871
 30
0.0
 10
149.4008234870396
 20
115.9274474774634
 30
0.0
 10
149.4293415203861
 20
115.7431040120482
 30
0.0
  0
SPLINE
  5
223
330
1F
100
AcDbEntity
  8
0
  6
Continuous
 62
     7
370
    25
100
AcDbSpline
210
0.0
220
0.0
230
1.0
 70
     8
 71
     3
 72
     8
 73
     4
 74
     0
 42
0.000000001
 43
0.00000001
 40
0.0
 40
0.0
 40
0.0
 40
0.0
 40
1.0
 40
1.0
 40
1.0
 40
1.0
 10
149.2685720049274
 20
115.7431040120482
 30
0.0
 10
149.2971058197655
 20
115.9275494906292
 30
0.0
 10
149.3239707415723
 20
116.1121379024894
 30
0.0
 10
149.3489567626567
 20
116.2968872338553
 30
0.0
  0
LINE
  5
224
330
1F
100
AcDbEntity
  8
0
  6
Continuous
 62
     7
370
    25
100
AcDbLine
 10
143.8489567627
 20
116.164604012
 30
0.0
 11
143.8489567627
 21
129.321604012
 31
0.0
  0
LINE
  5
225
330
1F
100
AcDbEntity
  8
0
  6
Continuous
 62
     7
370
    25
100
AcDbLine
 10
154.8489567627
 20
129.321604012
 30
0.0
 11
154.8489567627
 21
116.164604012
 31
0.0
  0
LINE
  5
226
330
1F
100
AcDbEntity
  8
0
  6
Continuous
 62
     7
370
    25
100
AcDbLine
 10
153.8489567627
 20
117.164604012
 30
0.0
 11
153.8489567627
 21
128.321604012
 31
0.0
  0
LINE
  5
227
330
1F
100
AcDbEntity
  8
0
  6
Continuous
 62
     7
370
    25
100
AcDbLine
 10
144.8489567627
 20
128.321604012
 30
0.0
 11
144.8489567627
 21
117.164604012
 31
0.0
  0
LINE
  5
228
330
1F
100
AcDbEntity
  8
0
  6
Continuous
 62
     7
370
    25
100
AcDbLine
 10
149.3489567627
 20
115.743104012
 30
0.0
 11
149.3489567627
 21
116.2968872339
 31
0.0
  0
SPLINE
  5
229
330
1F
100
AcDbEntity
  8
0
  6
Continuous
 62
     7
370
    25
100
AcDbSpline
210
0.0
220
0.0
230
1.0
 70
    24
 71
     3
 72
     8
 73
     4
 74
     0
 42
0.000000001
 43
0.00000001
 40
0.0
 40
0.0
 40
0.0
 40
0.0
 40
1.0
 40
1.0
 40
1.0
 40
1.0
 10
149.3489567626567
 20
115.7431040120482
 30
0.0
 10
149.3239570906625
 20
115.7431040120482
 30
0.0
 10
149.2970908498755
 20
115.7431040120482
 30
0.0
 10
149.2685720049274
 20
115.7431040120482
 30
0.0
  0
SPLINE
  5
22A
330
1F
100
AcDbEntity
  8
0
  6
Continuous
 62
     7
370
    25
100
AcDbSpline
210
0.0
220
0.0
230
1.0
 70
    24
 71
     3
 72
     8
 73
     4
 74
     0
 42
0.000000001
 43
0.00000001
 40
0.0
 40
0.0
 40
0.0
 40
0.0
 40
1.0
 40
1.0
 40
1.0
 40
1.0
 10
149.4293415203861
 20
115.7431040120482
 30
0.0
 10
149.4008053900704
 20
115.7431040120482
 30
0.0
 10
149.373940674887
 20
115.7431040120482
 30
0.0
 10
149.3489567626567
 20
115.7431040120482
 30
0.0
  0
SPLINE
  5
22B
330
1F
100
AcDbEntity
  8
0
  6
Continuous
 62
     7
370
    25
100
AcDbSpline
210
0.0
220
0.0
230
1.0
 70
    24
 71
     3
 72
     8
 73
     4
 74
     0
 42
0.000000001
 43
0.00000001
 40
0.0
 40
0.0
 40
0.0
 40
0.0
 40
1.0
 40
1.0
 40
1.0
 40
1.0
 10
149.2685720049274
 20
129.7431040120482
 30
0.0
 10
149.297108135243
 20
129.7431040120482
 30
0.0
 10
149.3239728504265
 20
129.7431040120482
 30
0.0
 10
149.3489567626567
 20
129.7431040120482
 30
0.0
  0
LINE
  5
22C
330
1F
100
AcDbEntity
  8
0
  6
Continuous
 62
     7
370
    25
100
AcDbLine
 10
149.3489567627
 20
129.1893207902
 30
0.0
 11
149.3489567627
 21
129.743104012
 31
0.0
  0
SPLINE
  5
22D
330
1F
100
AcDbEntity
  8
0
  6
Continuous
 62
     7
370
    25
100
AcDbSpline
210
0.0
220
0.0
230
1.0
 70
    24
 71
     3
 72
     8
 73
     4
 74
     0
 42
0.000000001
 43
0.00000001
 40
0.0
 40
0.0
 40
0.0
 40
0.0
 40
1.0
 40
1.0
 40
1.0
 40
1.0
 10
149.3489567626567
 20
129.7431040120482
 30
0.0
 10
149.3739564346509
 20
129.7431040120482
 30
0.0
 10
149.400822675438
 20
129.7431040120482
 30
0.0
 10
149.4293415203861
 20
129.7431040120482
 30
0.0
  0
LINE
  5
22E
330
1F
100
AcDbEntity
  8
0
  6
Continuous
 62
     8
370
    25
100
AcDbLine
 10
105.3007798084
 20
126.6765531351
 30
0.0
 11
105.3007798084
 21
118.809654889
 31
0.0
  0
LINE
  5
22F
330
1F
100
AcDbEntity
  8
0
  6
Continuous
 62
     8
370
    25
100
AcDbLine
 10
193.3971337169
 20
118.809654889
 30
0.0
 11
193.3971337169
 21
126.6765531351
 31
0.0
  0
LINE
  5
230
330
1F
100
AcDbEntity
  8
0
  6
Continuous
 62
     8
370
    25
100
AcDbLine
 10
130.8946718443
 20
130.593104012
 30
0.0
 11
130.8946718443
 21
114.893104012
 31
0.0
  0
LINE
  5
231
330
1F
100
AcDbEntity
  8
0
  6
Continuous
 62
     8
370
    25
100
AcDbLine
 10
143.2946718443
 20
114.893104012
 30
0.0
 11
143.2946718443
 21
130.593104012
 31
0.0
  0
LINE
  5
232
330
1F
100
AcDbEntity
  8
0
  6
Continuous
 62
     8
370
    25
100
AcDbLine
 10
167.803241681
 20
114.893104012
 30
0.0
 11
167.803241681
 21
130.593104012
 31
0.0
  0
LINE
  5
233
330
1F
100
AcDbEntity
  8
0
  6
Continuous
 62
     8
370
    25
100
AcDbLine
 10
155.403241681
 20
130.593104012
 30
0.0
 11
155.403241681
 21
114.893104012
 31
0.0
  0
LINE
  5
234
330
1F
100
AcDbEntity
  8
0
  6
CENTERX2
 62
     7
370
    18
100
AcDbLine
 10
102.3978170062
 20
122.743104012
 30
0.0
 11
196.103241681
 21
122.743104012
 31
0.0
  0
ENDSEC
  0
SECTION
  2
OBJECTS
  0
DICTIONARY
  5
C
330
0
100
AcDbDictionary
281
     1
  3
ACAD_GROUP
350
D
  3
ACAD_LAYOUT
350
1A
  3
ACAD_MLINESTYLE
350
17
  3
ACAD_PLOTSETTINGS
350
19
  3
ACAD_PLOTSTYLENAME
350
E
  3
ACAD_SCALELIST
350
47
  0
DICTIONARY
  5
D
102
{ACAD_REACTORS
330
C
102
}
330
C
100
AcDbDictionary
281
     1
  0
DICTIONARY
  5
1A
102
{ACAD_REACTORS
330
C
102
}
330
C
100
AcDbDictionary
281
     1
  3
Layout1
350
1E
  3
Layout2
350
26
  3
Model
350
22
  0
DICTIONARY
  5
17
102
{ACAD_REACTORS
330
C
102
}
330
C
100
AcDbDictionary
281
     1
  3
Standard
350
18
  0
DICTIONARY
  5
19
102
{ACAD_REACTORS
330
C
102
}
330
C
100
AcDbDictionary
281
     1
  0
ACDBDICTIONARYWDFLT
  5
E
102
{ACAD_REACTORS
330
C
102
}
330
C
100
AcDbDictionary
281
     1
  3
Normal
350
F
100
AcDbDictionaryWithDefault
340
F
  0
DICTIONARY
  5
47
102
{ACAD_REACTORS
330
C
102
}
330
C
100
AcDbDictionary
281
     1
  3
A0
350
48
  3
A1
350
49
  3
A2
350
4A
  3
A3
350
4B
  3
A4
350
4C
  3
A5
350
4D
  3
A6
350
4E
  3
A7
350
4F
  3
A8
350
50
  3
A9
350
51
  3
B0
350
52
  3
B1
350
53
  3
B2
350
54
  3
B3
350
55
  3
B4
350
56
  3
B5
350
57
  3
B6
350
58
  3
B7
350
59
  3
B8
350
5A
  3
B9
350
5B
  3
C0
350
5C
  3
C1
350
5D
  3
C2
350
5E
  3
C3
350
5F
  3
C4
350
60
  3
C5
350
61
  3
C6
350
62
  3
C7
350
63
  3
C8
350
64
  3
C9
350
65
  3
D0
350
66
  3
D1
350
67
  3
D2
350
68
  0
LAYOUT
  5
1E
102
{ACAD_REACTORS
330
1A
102
}
330
1A
100
AcDbPlotSettings
  1

  2
none_device
  4

  6

 40
0.0
 41
0.0
 42
0.0
 43
0.0
 44
0.0
 45
0.0
 46
0.0
 47
0.0
 48
0.0
 49
0.0
140
0.0
141
0.0
142
1.0
143
1.0
 70
   688
 72
     1
 73
     0
 74
     5
  7

 75
    16
147
1.0
148
0.0
149
0.0
100
AcDbLayout
  1
Layout1
 70
     1
 71
     1
 10
0.0
 20
0.0
 11
420.0
 21
297.0
 12
0.0
 22
0.0
 32
0.0
 14
1.0000000000E+20
 24
1.0000000000E+20
 34
1.0000000000E+20
 15
-1.0000000000E+20
 25
-1.0000000000E+20
 35
-1.0000000000E+20
146
0.0
 13
0.0
 23
0.0
 33
0.0
 16
1.0
 26
0.0
 36
0.0
 17
0.0
 27
1.0
 37
0.0
 76
     0
330
1B
  0
LAYOUT
  5
26
102
{ACAD_REACTORS
330
1A
102
}
330
1A
100
AcDbPlotSettings
  1

  2
none_device
  4

  6

 40
0.0
 41
0.0
 42
0.0
 43
0.0
 44
0.0
 45
0.0
 46
0.0
 47
0.0
 48
0.0
 49
0.0
140
0.0
141
0.0
142
1.0
143
1.0
 70
   688
 72
     1
 73
     0
 74
     5
  7

 75
    16
147
1.0
148
0.0
149
0.0
100
AcDbLayout
  1
Layout2
 70
     1
 71
     2
 10
0.0
 20
0.0
 11
0.0
 21
0.0
 12
0.0
 22
0.0
 32
0.0
 14
0.0
 24
0.0
 34
0.0
 15
0.0
 25
0.0
 35
0.0
146
0.0
 13
0.0
 23
0.0
 33
0.0
 16
1.0
 26
0.0
 36
0.0
 17
0.0
 27
1.0
 37
0.0
 76
     0
330
23
  0
LAYOUT
  5
22
102
{ACAD_REACTORS
330
1A
102
}
330
1A
100
AcDbPlotSettings
  1

  2
none_device
  4
Letter_(8.50_x_11.00_Inches)
  6

 40
6.35
 41
6.35
 42
6.35000508
 43
6.35000508
 44
215.9
 45
279.4
 46
0.0
 47
0.0
 48
0.0
 49
0.0
140
0.0
141
0.0
142
1.0
143
1.0
 70
  1712
 72
     1
 73
     0
 74
     0
  7

 75
     0
147
1.0
148
0.0
149
0.0
100
AcDbLayout
  1
Model
 70
     1
 71
     0
 10
0.0
 20
0.0
 11
431.8
 21
279.4
 12
0.0
 22
0.0
 32
0.0
 14
0.0
 24
0.0
 34
0.0
 15
431.8
 25
279.4
 35
0.0
146
0.0
 13
0.0
 23
0.0
 33
0.0
 16
1.0
 26
0.0
 36
0.0
 17
0.0
 27
1.0
 37
0.0
 76
     0
330
1F
331
29
  0
MLINESTYLE
  5
18
102
{ACAD_REACTORS
330
17
102
}
330
17
100
AcDbMlineStyle
  2
Standard
 70
     0
  3

 62
   256
 51
90.0
 52
90.0
 71
     2
 49
0.5
 62
   256
  6
BYLAYER
 49
-0.5
 62
   256
  6
BYLAYER
  0
ACDBPLACEHOLDER
  5
F
102
{ACAD_REACTORS
330
E
102
}
330
E
  0
SCALE
  5
48
102
{ACAD_REACTORS
330
47
102
}
330
47
100
AcDbScale
 70
     0
300
1:1
140
1.0
141
1.0
290
     1
  0
SCALE
  5
49
102
{ACAD_REACTORS
330
47
102
}
330
47
100
AcDbScale
 70
     0
300
1:2
140
1.0
141
2.0
290
     0
  0
SCALE
  5
4A
102
{ACAD_REACTORS
330
47
102
}
330
47
100
AcDbScale
 70
     0
300
1:4
140
1.0
141
4.0
290
     0
  0
SCALE
  5
4B
102
{ACAD_REACTORS
330
47
102
}
330
47
100
AcDbScale
 70
     0
300
1:5
140
1.0
141
5.0
290
     0
  0
SCALE
  5
4C
102
{ACAD_REACTORS
330
47
102
}
330
47
100
AcDbScale
 70
     0
300
1:8
140
1.0
141
8.0
290
     0
  0
SCALE
  5
4D
102
{ACAD_REACTORS
330
47
102
}
330
47
100
AcDbScale
 70
     0
300
1:10
140
1.0
141
10.0
290
     0
  0
SCALE
  5
4E
102
{ACAD_REACTORS
330
47
102
}
330
47
100
AcDbScale
 70
     0
300
1:16
140
1.0
141
16.0
290
     0
  0
SCALE
  5
4F
102
{ACAD_REACTORS
330
47
102
}
330
47
100
AcDbScale
 70
     0
300
1:20
140
1.0
141
20.0
290
     0
  0
SCALE
  5
50
102
{ACAD_REACTORS
330
47
102
}
330
47
100
AcDbScale
 70
     0
300
1:30
140
1.0
141
30.0
290
     0
  0
SCALE
  5
51
102
{ACAD_REACTORS
330
47
102
}
330
47
100
AcDbScale
 70
     0
300
1:40
140
1.0
141
40.0
290
     0
  0
SCALE
  5
52
102
{ACAD_REACTORS
330
47
102
}
330
47
100
AcDbScale
 70
     0
300
1:50
140
1.0
141
50.0
290
     0
  0
SCALE
  5
53
102
{ACAD_REACTORS
330
47
102
}
330
47
100
AcDbScale
 70
     0
300
1:100
140
1.0
141
100.0
290
     0
  0
SCALE
  5
54
102
{ACAD_REACTORS
330
47
102
}
330
47
100
AcDbScale
 70
     0
300
2:1
140
2.0
141
1.0
290
     0
  0
SCALE
  5
55
102
{ACAD_REACTORS
330
47
102
}
330
47
100
AcDbScale
 70
     0
300
4:1
140
4.0
141
1.0
290
     0
  0
SCALE
  5
56
102
{ACAD_REACTORS
330
47
102
}
330
47
100
AcDbScale
 70
     0
300
8:1
140
8.0
141
1.0
290
     0
  0
SCALE
  5
57
102
{ACAD_REACTORS
330
47
102
}
330
47
100
AcDbScale
 70
     0
300
10:1
140
10.0
141
1.0
290
     0
  0
SCALE
  5
58
102
{ACAD_REACTORS
330
47
102
}
330
47
100
AcDbScale
 70
     0
300
100:1
140
100.0
141
1.0
290
     0
  0
SCALE
  5
59
102
{ACAD_REACTORS
330
47
102
}
330
47
100
AcDbScale
 70
     0
300
1/128" = 1'-0"
140
0.0078125
141
12.0
290
     0
  0
SCALE
  5
5A
102
{ACAD_REACTORS
330
47
102
}
330
47
100
AcDbScale
 70
     0
300
1/64" = 1'-0"
140
0.015625
141
12.0
290
     0
  0
SCALE
  5
5B
102
{ACAD_REACTORS
330
47
102
}
330
47
100
AcDbScale
 70
     0
300
1/32" = 1'-0"
140
0.03125
141
12.0
290
     0
  0
SCALE
  5
5C
102
{ACAD_REACTORS
330
47
102
}
330
47
100
AcDbScale
 70
     0
300
1/16" = 1'-0"
140
0.0625
141
12.0
290
     0
  0
SCALE
  5
5D
102
{ACAD_REACTORS
330
47
102
}
330
47
100
AcDbScale
 70
     0
300
3/32" = 1'-0"
140
0.09375
141
12.0
290
     0
  0
SCALE
  5
5E
102
{ACAD_REACTORS
330
47
102
}
330
47
100
AcDbScale
 70
     0
300
1/8" = 1'-0"
140
0.125
141
12.0
290
     0
  0
SCALE
  5
5F
102
{ACAD_REACTORS
330
47
102
}
330
47
100
AcDbScale
 70
     0
300
3/16" = 1'-0"
140
0.1875
141
12.0
290
     0
  0
SCALE
  5
60
102
{ACAD_REACTORS
330
47
102
}
330
47
100
AcDbScale
 70
     0
300
1/4" = 1'-0"
140
0.25
141
12.0
290
     0
  0
SCALE
  5
61
102
{ACAD_REACTORS
330
47
102
}
330
47
100
AcDbScale
 70
     0
300
3/8" = 1'-0"
140
0.375
141
12.0
290
     0
  0
SCALE
  5
62
102
{ACAD_REACTORS
330
47
102
}
330
47
100
AcDbScale
 70
     0
300
1/2" = 1'-0"
140
0.5
141
12.0
290
     0
  0
SCALE
  5
63
102
{ACAD_REACTORS
330
47
102
}
330
47
100
AcDbScale
 70
     0
300
3/4" = 1'-0"
140
0.75
141
12.0
290
     0
  0
SCALE
  5
64
102
{ACAD_REACTORS
330
47
102
}
330
47
100
AcDbScale
 70
     0
300
1" = 1'-0"
140
1.0
141
12.0
290
     0
  0
SCALE
  5
65
102
{ACAD_REACTORS
330
47
102
}
330
47
100
AcDbScale
 70
     0
300
1-1/2" = 1'-0"
140
1.5
141
12.0
290
     0
  0
SCALE
  5
66
102
{ACAD_REACTORS
330
47
102
}
330
47
100
AcDbScale
 70
     0
300
3" = 1'-0"
140
3.0
141
12.0
290
     0
  0
SCALE
  5
67
102
{ACAD_REACTORS
330
47
102
}
330
47
100
AcDbScale
 70
     0
300
6" = 1'-0"
140
6.0
141
12.0
290
     0
  0
SCALE
  5
68
102
{ACAD_REACTORS
330
47
102
}
330
47
100
AcDbScale
 70
     0
300
1'-0" = 1'-0"
140
12.0
141
12.0
290
     0
  0
ENDSEC
  0
EOF
