  0
SECTION
  2
HEADER
  9
$ACADVER
  1
AC1015
  9
$ACADMAINTVER
 70
     6
  9
$DWGCODEPAGE
  3
DOS932
  9
$INSBASE
 10
0.0
 20
0.0
 30
0.0
  9
$EXTMIN
 10
0.0
 20
0.0
 30
0.0
  9
$EXTMAX
 10
431.8
 20
279.4
 30
0.0
  9
$LIMMIN
 10
0.0
 20
0.0
  9
$LIMMAX
 10
431.8
 20
279.4
  9
$ORTHOMODE
 70
     0
  9
$REGENMODE
 70
     1
  9
$FILLMODE
 70
     1
  9
$QTEXTMODE
 70
     0
  9
$MIRRTEXT
 70
     1
  9
$LTSCALE
 40
1.0
  9
$ATTMODE
 70
     1
  9
$TEXTSIZE
 40
3.5
  9
$TRACEWID
 40
1.0
  9
$TEXTSTYLE
  7
Standard
  9
$CLAYER
  8
0
  9
$CELTYPE
  6
ByLayer
  9
$CECOLOR
 62
   256
  9
$CELTSCALE
 40
1.0
  9
$DISPSILH
 70
     0
  9
$DIMSCALE
 40
1.0
  9
$DIMASZ
 40
3.302
  9
$DIMEXO
 40
1.0
  9
$DIMDLI
 40
3.75
  9
$DIMRND
 40
0.0
  9
$DIMDLE
 40
0.0
  9
$DIMEXE
 40
1.0
  9
$DIMTP
 40
0.0
  9
$DIMTM
 40
0.0
  9
$DIMTXT
 40
3.5
  9
$DIMCEN
 40
2.5
  9
$DIMTSZ
 40
0.0
  9
$DIMTOL
 70
     0
  9
$DIMLIM
 70
     0
  9
$DIMTIH
 70
     1
  9
$DIMTOH
 70
     1
  9
$DIMSE1
 70
     0
  9
$DIMSE2
 70
     0
  9
$DIMTAD
 70
     1
  9
$DIMZIN
 70
     1
  9
$DIMBLK
  1

  9
$DIMASO
 70
     1
  9
$DIMSHO
 70
     1
  9
$DIMPOST
  1

  9
$DIMAPOST
  1

  9
$DIMALT
 70
     0
  9
$DIMALTD
 70
     3
  9
$DIMALTF
 40
0.0393700787
  9
$DIMLFAC
 40
1.0
  9
$DIMTOFL
 70
     1
  9
$DIMTVP
 40
0.0
  9
$DIMTIX
 70
     0
  9
$DIMSOXD
 70
     0
  9
$DIMSAH
 70
     0
  9
$DIMBLK1
  1

  9
$DIMBLK2
  1

  9
$DIMSTYLE
  2
ISO-25
  9
$DIMCLRD
 70
     0
  9
$DIMCLRE
 70
     0
  9
$DIMCLRT
 70
     0
  9
$DIMTFAC
 40
1.0
  9
$DIMGAP
 40
1.524
  9
$DIMJUST
 70
     0
  9
$DIMSD1
 70
     0
  9
$DIMSD2
 70
     0
  9
$DIMTOLJ
 70
     0
  9
$DIMTZIN
 70
     1
  9
$DIMALTZ
 70
     0
  9
$DIMALTTZ
 70
     0
  9
$DIMUPT
 70
     0
  9
$DIMDEC
 70
     2
  9
$DIMTDEC
 70
     2
  9
$DIMALTU
 70
     2
  9
$DIMALTTD
 70
     3
  9
$DIMTXSTY
  7
Standard
  9
$DIMAUNIT
 70
     0
  9
$DIMADEC
 70
     2
  9
$DIMALTRND
 40
0.0
  9
$DIMAZIN
 70
     0
  9
$DIMDSEP
 70
    44
  9
$DIMATFIT
 70
     3
  9
$DIMFRAC
 70
     0
  9
$DIMLDRBLK
  1

  9
$DIMLUNIT
 70
     2
  9
$DIMLWD
 70
    -2
  9
$DIMLWE
 70
    -2
  9
$DIMTMOVE
 70
     0
  9
$LUNITS
 70
     2
  9
$LUPREC
 70
     2
  9
$SKETCHINC
 40
1.0
  9
$FILLETRAD
 40
10.0
  9
$AUNITS
 70
     0
  9
$AUPREC
 70
     2
  9
$MENU
  1
.
  9
$ELEVATION
 40
0.0
  9
$PELEVATION
 40
0.0
  9
$THICKNESS
 40
0.0
  9
$LIMCHECK
 70
     0
  9
$CHAMFERA
 40
0.0
  9
$CHAMFERB
 40
0.0
  9
$CHAMFERC
 40
0.0
  9
$CHAMFERD
 40
0.0
  9
$SKPOLY
 70
     0
  9
$TDCREATE
 40
2459486.642027894
  9
$TDUCREATE
 40
2459486.267027894
  9
$TDUPDATE
 40
2459486.642028484
  9
$TDUUPDATE
 40
2459486.267028484
  9
$TDINDWG
 40
0.0000000116
  9
$TDUSRTIMER
 40
0.0000000116
  9
$USRTIMER
 70
     1
  9
$ANGBASE
 50
0.0
  9
$ANGDIR
 70
     0
  9
$PDMODE
 70
     0
  9
$PDSIZE
 40
-1.0
  9
$PLINEWID
 40
0.0
  9
$SPLFRAME
 70
     0
  9
$SPLINETYPE
 70
     6
  9
$SPLINESEGS
 70
     8
  9
$HANDSEED
  5
235
  9
$SURFTAB1
 70
     6
  9
$SURFTAB2
 70
     6
  9
$SURFTYPE
 70
     6
  9
$SURFU
 70
     6
  9
$SURFV
 70
     6
  9
$UCSBASE
  2

  9
$UCSNAME
  2

  9
$UCSORG
 10
0.0
 20
0.0
 30
0.0
  9
$UCSXDIR
 10
1.0
 20
0.0
 30
0.0
  9
$UCSYDIR
 10
0.0
 20
1.0
 30
0.0
  9
$UCSORTHOREF
  2

  9
$UCSORTHOVIEW
 70
     0
  9
$UCSORGTOP
 10
0.0
 20
0.0
 30
0.0
  9
$UCSORGBOTTOM
 10
0.0
 20
0.0
 30
0.0
  9
$UCSORGLEFT
 10
0.0
 20
0.0
 30
0.0
  9
$UCSORGRIGHT
 10
0.0
 20
0.0
 30
0.0
  9
$UCSORGFRONT
 10
0.0
 20
0.0
 30
0.0
  9
$UCSORGBACK
 10
0.0
 20
0.0
 30
0.0
  9
$PUCSBASE
  2

  9
$PUCSNAME
  2

  9
$PUCSORG
 10
0.0
 20
0.0
 30
0.0
  9
$PUCSXDIR
 10
1.0
 20
0.0
 30
0.0
  9
$PUCSYDIR
 10
0.0
 20
1.0
 30
0.0
  9
$PUCSORTHOREF
  2

  9
$PUCSORTHOVIEW
 70
     0
  9
$PUCSORGTOP
 10
0.0
 20
0.0
 30
0.0
  9
$PUCSORGBOTTOM
 10
0.0
 20
0.0
 30
0.0
  9
$PUCSORGLEFT
 10
0.0
 20
0.0
 30
0.0
  9
$PUCSORGRIGHT
 10
0.0
 20
0.0
 30
0.0
  9
$PUCSORGFRONT
 10
0.0
 20
0.0
 30
0.0
  9
$PUCSORGBACK
 10
0.0
 20
0.0
 30
0.0
  9
$USERI1
 70
     0
  9
$USERI2
 70
     0
  9
$USERI3
 70
     0
  9
$USERI4
 70
     0
  9
$USERI5
 70
     0
  9
$USERR1
 40
0.0
  9
$USERR2
 40
0.0
  9
$USERR3
 40
0.0
  9
$USERR4
 40
0.0
  9
$USERR5
 40
0.0
  9
$WORLDVIEW
 70
     1
  9
$SHADEDGE
 70
     3
  9
$SHADEDIF
 70
    70
  9
$TILEMODE
 70
     1
  9
$MAXACTVP
 70
    64
  9
$PINSBASE
 10
0.0
 20
0.0
 30
0.0
  9
$PLIMCHECK
 70
     0
  9
$PEXTMIN
 10
1.0000000000E+20
 20
1.0000000000E+20
 30
1.0000000000E+20
  9
$PEXTMAX
 10
-1.0000000000E+20
 20
-1.0000000000E+20
 30
-1.0000000000E+20
  9
$PLIMMIN
 10
0.0
 20
0.0
  9
$PLIMMAX
 10
420.0
 20
297.0
  9
$UNITMODE
 70
     0
  9
$VISRETAIN
 70
     1
  9
$PLINEGEN
 70
     0
  9
$PSLTSCALE
 70
     1
  9
$TREEDEPTH
 70
  3020
  9
$CMLSTYLE
  2
Standard
  9
$CMLJUST
 70
     0
  9
$CMLSCALE
 40
20.0
  9
$PROXYGRAPHICS
 70
     1
  9
$MEASUREMENT
 70
     1
  9
$CELWEIGHT
370
    -1
  9
$ENDCAPS
280
     0
  9
$JOINSTYLE
280
     0
  9
$LWDISPLAY
290
     1
  9
$INSUNITS
 70
     4
  9
$HYPERLINKBASE
  1

  9
$STYLESHEET
  1

  9
$XEDIT
290
     1
  9
$CEPSNTYPE
380
     0
  9
$PSTYLEMODE
290
     1
  9
$FINGERPRINTGUID
  2
{138663DF-596D-4AF0-9F7C-91C2652DE603}
  9
$VERSIONGUID
  2
{FAEB1C32-E019-11D5-929B-00C0DF256EC4}
  9
$EXTNAMES
290
     1
  9
$PSVPSCALE
 40
0.0
  9
$OLESTARTUP
290
     0
  0
ENDSEC
  0
SECTION
  2
CLASSES
  0
CLASS
  1
ACDBDICTIONARYWDFLT
  2
AcDbDictionaryWithDefault
  3
ObjectDBX Classes
 90
        0
280
     0
281
     0
  0
CLASS
  1
VISUALSTYLE
  2
AcDbVisualStyle
  3
ObjectDBX Classes
 90
     4095
280
     0
281
     0
  0
CLASS
  1
MATERIAL
  2
AcDbMaterial
  3
ObjectDBX Classes
 90
     1153
280
     0
281
     0
  0
CLASS
  1
SCALE
  2
AcDbScale
  3
ObjectDBX Classes
 90
     1153
280
     0
281
     0
  0
CLASS
  1
TABLESTYLE
  2
AcDbTableStyle
  3
ObjectDBX Classes
 90
     4095
280
     0
281
     0
  0
CLASS
  1
MLEADERSTYLE
  2
AcDbMLeaderStyle
  3
ACDB_MLEADERSTYLE_CLASS
 90
     4095
280
     0
281
     0
  0
CLASS
  1
SUN
  2
AcDbSun
  3
SCENEOE
 90
     1153
280
     0
281
     0
  0
CLASS
  1
ACDBPLACEHOLDER
  2
AcDbPlaceHolder
  3
ObjectDBX Classes
 90
        0
280
     0
281
     0
  0
CLASS
  1
LAYOUT
  2
AcDbLayout
  3
ObjectDBX Classes
 90
        0
280
     0
281
     0
  0
ENDSEC
  0
SECTION
  2
TABLES
  0
TABLE
  2
VPORT
  5
8
330
0
100
AcDbSymbolTable
 70
     1
  0
VPORT
  5
29
330
8
100
AcDbSymbolTableRecord
100
AcDbViewportTableRecord
  2
*Active
 70
     0
 10
0.0
 20
0.0
 11
1.0
 21
1.0
 12
215.9
 22
139.7
 13
0.0
 23
0.0
 14
10.0
 24
10.0
 15
10.0
 25
10.0
 16
0.0
 26
0.0
 36
1.0
 17
0.0
 27
0.0
 37
0.0
 40
279.4
 41
1.5454545455
 42
50.0
 43
0.0
 44
0.0
 50
0.0
 51
0.0
 71
     0
 72
  2000
 73
     1
 74
     3
 75
     0
 76
     0
 77
     0
 78
     0
281
     0
 65
     1
110
0.0
120
0.0
130
0.0
111
1.0
121
0.0
131
0.0
112
0.0
122
1.0
132
0.0
 79
     0
146
0.0
  0
ENDTAB
  0
TABLE
  2
LTYPE
  5
5
330
0
100
AcDbSymbolTable
 70
     6
  0
LTYPE
  5
14
330
5
100
AcDbSymbolTableRecord
100
AcDbLinetypeTableRecord
  2
ByBlock
 70
     0
  3

 72
    65
 73
     0
 40
0.0
  0
LTYPE
  5
15
330
5
100
AcDbSymbolTableRecord
100
AcDbLinetypeTableRecord
  2
ByLayer
 70
     0
  3

 72
    65
 73
     0
 40
0.0
  0
LTYPE
  5
16
330
5
100
AcDbSymbolTableRecord
100
AcDbLinetypeTableRecord
  2
Continuous
 70
     0
  3
Solid line
 72
    65
 73
     0
 40
0.0
  0
LTYPE
  5
6E
330
5
100
AcDbSymbolTableRecord
100
AcDbLinetypeTableRecord
  2
HIDDEN
 70
     0
  3
Hidden __ __ __ __ __ __ __ __ __ __ __ __ __ __
 72
    65
 73
     2
 40
1.905
 49
1.27
 74
     0
 49
-0.635
 74
     0
  0
LTYPE
  5
6F
330
5
100
AcDbSymbolTableRecord
100
AcDbLinetypeTableRecord
  2
PHANTOM
 70
     0
  3
Phantom ______  __  __  ______  __  __  ______
 72
    65
 73
     6
 40
12.7
 49
6.35
 74
     0
 49
-1.27
 74
     0
 49
1.27
 74
     0
 49
-1.27
 74
     0
 49
1.27
 74
     0
 49
-1.27
 74
     0
  0
LTYPE
  5
70
330
5
100
AcDbSymbolTableRecord
100
AcDbLinetypeTableRecord
  2
CENTER
 70
     0
  3
Center ____ _ ____ _ ____ _ ____ _ ____ _ ____
 72
    65
 73
     4
 40
10.16
 49
6.35
 74
     0
 49
-1.27
 74
     0
 49
1.27
 74
     0
 49
-1.27
 74
     0
  0
LTYPE
  5
71
330
5
100
AcDbSymbolTableRecord
100
AcDbLinetypeTableRecord
  2
CENTERX2
 70
     0
  3
Center (2x) ________  __  ________  __  _____
 72
    65
 73
     4
 40
20.32
 49
12.7
 74
     0
 49
-2.54
 74
     0
 49
2.54
 74
     0
 49
-2.54
 74
     0
  0
LTYPE
  5
72
330
5
100
AcDbSymbolTableRecord
100
AcDbLinetypeTableRecord
  2
DOT2
 70
     0
  3
Dot (.5x) ........................................
 72
    65
 73
     2
 40
0.635
 49
0.0
 74
     0
 49
-0.635
 74
     0
  0
ENDTAB
  0
TABLE
  2
LAYER
  5
2
330
0
100
AcDbSymbolTable
 70
     1
  0
LAYER
  5
10
330
2
100
AcDbSymbolTableRecord
100
AcDbLayerTableRecord
  2
0
 70
     0
 62
     7
  6
Continuous
370
    -3
390
F
  0
ENDTAB
  0
TABLE
  2
STYLE
  5
3
330
0
100
AcDbSymbolTable
 70
     2
  0
STYLE
  5
11
330
3
100
AcDbSymbolTableRecord
100
AcDbTextStyleTableRecord
  2
Standard
 70
     0
 40
0.0
 41
1.0
 50
0.0
 71
     0
 42
3.5
  3
txt
  4
bigfont
  0
STYLE
  5
73
330
3
100
AcDbSymbolTableRecord
100
AcDbTextStyleTableRecord
  2
SLDTEXTSTYLE0
 70
     0
 40
0.0
 41
0.7
 50
0.0
 71
     0
 42
3.5
  3
TXT
  4
bigfont
  0
ENDTAB
  0
TABLE
  2
VIEW
  5
6
330
0
100
AcDbSymbolTable
 70
     0
  0
ENDTAB
  0
TABLE
  2
UCS
  5
7
330
0
100
AcDbSymbolTable
 70
     0
  0
ENDTAB
  0
TABLE
  2
APPID
  5
9
330
0
100
AcDbSymbolTable
 70
     1
  0
APPID
  5
12
330
9
100
AcDbSymbolTableRecord
100
AcDbRegAppTableRecord
  2
ACAD
 70
     0
  0
ENDTAB
  0
TABLE
  2
DIMSTYLE
  5
A
330
0
100
AcDbSymbolTable
 70
     1
100
AcDbDimStyleTable
  0
DIMSTYLE
105
27
330
A
100
AcDbSymbolTableRecord
100
AcDbDimStyleTableRecord
  2
ISO-25
 70
     0
 41
2.5
 42
0.625
 43
3.75
 44
1.25
 73
     0
 74
     0
 77
     1
 78
     8
140
2.5
141
2.5
143
0.0393700787
147
0.625
171
     3
172
     1
178
     0
271
     2
272
     2
274
     3
278
    44
283
     0
284
     8
340
11
  0
ENDTAB
  0
TABLE
  2
BLOCK_RECORD
  5
1
330
0
100
AcDbSymbolTable
 70
     2
  0
BLOCK_RECORD
  5
1F
330
1
100
AcDbSymbolTableRecord
100
AcDbBlockTableRecord
  2
*Model_Space
340
22
  0
BLOCK_RECORD
  5
1B
330
1
100
AcDbSymbolTableRecord
100
AcDbBlockTableRecord
  2
*Paper_Space
340
1E
  0
BLOCK_RECORD
  5
23
330
1
100
AcDbSymbolTableRecord
100
AcDbBlockTableRecord
  2
*Paper_Space0
340
26
  0
BLOCK_RECORD
  5
167
330
1
100
AcDbSymbolTableRecord
100
AcDbBlockTableRecord
  2
SW_CENTERMARKSYMBOL_0
340
0
102
{BLKREFS
331
172
102
}
  0
ENDTAB
  0
ENDSEC
  0
SECTION
  2
BLOCKS
  0
BLOCK
  5
20
330
1F
100
AcDbEntity
  8
0
100
AcDbBlockBegin
  2
*Model_Space
 70
     0
 10
0.0
 20
0.0
 30
0.0
  3
*Model_Space
  1

  0
ENDBLK
  5
21
330
1F
100
AcDbEntity
  8
0
100
AcDbBlockEnd
  0
BLOCK
  5
1C
330
1B
100
AcDbEntity
 67
     1
  8
0
100
AcDbBlockBegin
  2
*Paper_Space
 70
     0
 10
0.0
 20
0.0
 30
0.0
  3
*Paper_Space
  1

  0
ENDBLK
  5
1D
330
1B
100
AcDbEntity
 67
     1
  8
0
100
AcDbBlockEnd
  0
BLOCK
  5
24
330
23
100
AcDbEntity
  8
0
100
AcDbBlockBegin
  2
*Paper_Space0
 70
     0
 10
0.0
 20
0.0
 30
0.0
  3
*Paper_Space0
  1

  0
ENDBLK
  5
25
330
23
100
AcDbEntity
  8
0
100
AcDbBlockEnd
  0
BLOCK
  5
168
330
167
100
AcDbEntity
  8
0
100
AcDbBlockBegin
  2
SW_CENTERMARKSYMBOL_0
 70
     0
 10
0.0
 20
0.0
 30
0.0
  3
SW_CENTERMARKSYMBOL_0
  1

  0
LINE
  5
16A
330
167
100
AcDbEntity
  8
0
  6
Continuous
 62
     0
370
    18
100
AcDbLine
 10
0.0
 20
0.0
 30
0.0
 11
0.0
 21
2.5
 31
0.0
  0
LINE
  5
16B
330
167
100
AcDbEntity
  8
0
  6
Continuous
 62
     0
370
    18
100
AcDbLine
 10
0.0
 20
0.0
 30
0.0
 11
-2.5
 21
0.0
 31
0.0
  0
LINE
  5
16C
330
167
100
AcDbEntity
  8
0
  6
Continuous
 62
     0
370
    18
100
AcDbLine
 10
0.0
 20
0.0
 30
0.0
 11
0.0
 21
-2.5
 31
0.0
  0
LINE
  5
16D
330
167
100
AcDbEntity
  8
0
  6
Continuous
 62
     0
370
    18
100
AcDbLine
 10
0.0
 20
0.0
 30
0.0
 11
2.5
 21
0.0
 31
0.0
  0
LINE
  5
16E
330
167
100
AcDbEntity
  8
0
  6
Continuous
 62
     0
370
    18
100
AcDbLine
 10
0.0
 20
5.0
 30
0.0
 11
0.0
 21
10.35
 31
0.0
  0
LINE
  5
16F
330
167
100
AcDbEntity
  8
0
  6
Continuous
 62
     0
370
    18
100
AcDbLine
 10
-5.0
 20
0.0
 30
0.0
 11
-10.35
 21
0.0
 31
0.0
  0
LINE
  5
170
330
167
100
AcDbEntity
  8
0
  6
Continuous
 62
     0
370
    18
100
AcDbLine
 10
0.0
 20
-5.0
 30
0.0
 11
0.0
 21
-10.35
 31
0.0
  0
LINE
  5
171
330
167
100
AcDbEntity
  8
0
  6
Continuous
 62
     0
370
    18
100
AcDbLine
 10
5.0
 20
0.0
 30
0.0
 11
10.35
 21
0.0
 31
0.0
  0
ENDBLK
  5
169
330
167
100
AcDbEntity
  8
0
100
AcDbBlockEnd
  0
ENDSEC
  0
SECTION
  2
ENTITIES
  0
MTEXT
  5
74
330
1F
100
AcDbEntity
  8
0
  6
Continuous
 62
     7
370
     0
100
AcDbMText
 10
191.0257164223
 20
109.1973479847
 30
0.0
 40
4.2333333333
 41
0.0
 71
     1
 72
     1
  1
HS-2207R
  7
SLDTEXTSTYLE0
 73
     1
 44
1.0
  0
LINE
  5
75
330
1F
100
AcDbEntity
  8
0
  6
Continuous
 62
     7
370
    25
100
AcDbLine
 10
162.3592968997
 20
78.7476494411
 30
0.0
 11
162.8592968997
 21
78.7476494411
 31
0.0
  0
LINE
  5
76
330
1F
100
AcDbEntity
  8
0
  6
Continuous
 62
     7
370
    25
100
AcDbLine
 10
162.8592968997
 20
87.7476494411
 30
0.0
 11
162.3592968997
 21
87.7476494411
 31
0.0
  0
LINE
  5
77
330
1F
100
AcDbEntity
  8
0
  6
Continuous
 62
     7
370
    25
100
AcDbLine
 10
166.8592968997
 20
79.7476494411
 30
0.0
 11
170.8592968997
 21
80.3976494411
 31
0.0
  0
LINE
  5
78
330
1F
100
AcDbEntity
  8
0
  6
Continuous
 62
     7
370
    25
100
AcDbLine
 10
170.8592968997
 20
86.0976494411
 30
0.0
 11
166.8592968997
 21
86.7476494411
 31
0.0
  0
LINE
  5
79
330
1F
100
AcDbEntity
  8
0
  6
Continuous
 62
     7
370
    25
100
AcDbLine
 10
162.8592968997
 20
79.7476494411
 30
0.0
 11
166.8592968997
 21
79.7476494411
 31
0.0
  0
LINE
  5
7A
330
1F
100
AcDbEntity
  8
0
  6
Continuous
 62
     7
370
    25
100
AcDbLine
 10
166.8592968997
 20
86.7476494411
 30
0.0
 11
162.8592968997
 21
86.7476494411
 31
0.0
  0
LINE
  5
7B
330
1F
100
AcDbEntity
  8
0
  6
Continuous
 62
     7
370
    25
100
AcDbLine
 10
182.8592968997
 20
79.7476494411
 30
0.0
 11
187.6555409427
 21
80.3144782826
 31
0.0
  0
LINE
  5
7C
330
1F
100
AcDbEntity
  8
0
  6
Continuous
 62
     7
370
    25
100
AcDbLine
 10
187.6555409427
 20
86.1808205997
 30
0.0
 11
182.8592968997
 21
86.7476494411
 31
0.0
  0
LINE
  5
7D
330
1F
100
AcDbEntity
  8
0
  6
Continuous
 62
     7
370
    25
100
AcDbLine
 10
174.8592968997
 20
79.7476494411
 30
0.0
 11
178.8592968997
 21
80.3976494411
 31
0.0
  0
LINE
  5
7E
330
1F
100
AcDbEntity
  8
0
  6
Continuous
 62
     7
370
    25
100
AcDbLine
 10
178.8592968997
 20
86.0976494411
 30
0.0
 11
174.8592968997
 21
86.7476494411
 31
0.0
  0
LINE
  5
7F
330
1F
100
AcDbEntity
  8
0
  6
Continuous
 62
     7
370
    25
100
AcDbLine
 10
178.8592968997
 20
79.7476494411
 30
0.0
 11
182.8592968997
 21
80.3976494411
 31
0.0
  0
LINE
  5
80
330
1F
100
AcDbEntity
  8
0
  6
Continuous
 62
     7
370
    25
100
AcDbLine
 10
182.8592968997
 20
86.0976494411
 30
0.0
 11
178.8592968997
 21
86.7476494411
 31
0.0
  0
LINE
  5
81
330
1F
100
AcDbEntity
  8
0
  6
Continuous
 62
     7
370
    25
100
AcDbLine
 10
170.8592968997
 20
79.7476494411
 30
0.0
 11
174.8592968997
 21
80.3976494411
 31
0.0
  0
LINE
  5
82
330
1F
100
AcDbEntity
  8
0
  6
Continuous
 62
     7
370
    25
100
AcDbLine
 10
174.8592968997
 20
86.0976494411
 30
0.0
 11
170.8592968997
 21
86.7476494411
 31
0.0
  0
ARC
  5
83
330
1F
100
AcDbEntity
  8
0
  6
Continuous
 62
     7
370
    25
100
AcDbCircle
 10
187.5616489068
 20
85.3863495268
 30
0.0
 40
0.8000000000000026
100
AcDbArc
 50
4.3945905239
 51
83.2599439021
  0
ARC
  5
84
330
1F
100
AcDbEntity
  8
0
  6
Continuous
 62
     7
370
    25
100
AcDbCircle
 10
187.5616489068
 20
81.1089493554
 30
0.0
 40
0.8000000000000026
100
AcDbArc
 50
276.7400560979
 51
355.6054094761
  0
LINE
  5
85
330
1F
100
AcDbEntity
  8
0
  6
Continuous
 62
     7
370
    25
100
AcDbLine
 10
124.850727063
 20
87.7476494411
 30
0.0
 11
124.350727063
 21
87.7476494411
 31
0.0
  0
LINE
  5
86
330
1F
100
AcDbEntity
  8
0
  6
Continuous
 62
     7
370
    25
100
AcDbLine
 10
124.350727063
 20
78.7476494411
 30
0.0
 11
124.850727063
 21
78.7476494411
 31
0.0
  0
LINE
  5
87
330
1F
100
AcDbEntity
  8
0
  6
Continuous
 62
     7
370
    25
100
AcDbLine
 10
124.350727063
 20
86.7476494411
 30
0.0
 11
120.350727063
 21
86.7476494411
 31
0.0
  0
LINE
  5
88
330
1F
100
AcDbEntity
  8
0
  6
Continuous
 62
     7
370
    25
100
AcDbLine
 10
120.350727063
 20
79.7476494411
 30
0.0
 11
124.350727063
 21
79.7476494411
 31
0.0
  0
LINE
  5
89
330
1F
100
AcDbEntity
  8
0
  6
Continuous
 62
     7
370
    25
100
AcDbLine
 10
120.350727063
 20
86.7476494411
 30
0.0
 11
116.350727063
 21
86.0976494411
 31
0.0
  0
LINE
  5
8A
330
1F
100
AcDbEntity
  8
0
  6
Continuous
 62
     7
370
    25
100
AcDbLine
 10
116.350727063
 20
80.3976494411
 30
0.0
 11
120.350727063
 21
79.7476494411
 31
0.0
  0
LINE
  5
8B
330
1F
100
AcDbEntity
  8
0
  6
Continuous
 62
     7
370
    25
100
AcDbLine
 10
104.350727063
 20
86.7476494411
 30
0.0
 11
99.55448302
 21
86.1808205997
 31
0.0
  0
LINE
  5
8C
330
1F
100
AcDbEntity
  8
0
  6
Continuous
 62
     7
370
    25
100
AcDbLine
 10
99.55448302
 20
80.3144782826
 30
0.0
 11
104.350727063
 21
79.7476494411
 31
0.0
  0
LINE
  5
8D
330
1F
100
AcDbEntity
  8
0
  6
Continuous
 62
     7
370
    25
100
AcDbLine
 10
112.350727063
 20
86.7476494411
 30
0.0
 11
108.350727063
 21
86.0976494411
 31
0.0
  0
LINE
  5
8E
330
1F
100
AcDbEntity
  8
0
  6
Continuous
 62
     7
370
    25
100
AcDbLine
 10
108.350727063
 20
80.3976494411
 30
0.0
 11
112.350727063
 21
79.7476494411
 31
0.0
  0
LINE
  5
8F
330
1F
100
AcDbEntity
  8
0
  6
Continuous
 62
     7
370
    25
100
AcDbLine
 10
108.350727063
 20
86.7476494411
 30
0.0
 11
104.350727063
 21
86.0976494411
 31
0.0
  0
LINE
  5
90
330
1F
100
AcDbEntity
  8
0
  6
Continuous
 62
     7
370
    25
100
AcDbLine
 10
104.350727063
 20
80.3976494411
 30
0.0
 11
108.350727063
 21
79.7476494411
 31
0.0
  0
LINE
  5
91
330
1F
100
AcDbEntity
  8
0
  6
Continuous
 62
     7
370
    25
100
AcDbLine
 10
116.350727063
 20
86.7476494411
 30
0.0
 11
112.350727063
 21
86.0976494411
 31
0.0
  0
LINE
  5
92
330
1F
100
AcDbEntity
  8
0
  6
Continuous
 62
     7
370
    25
100
AcDbLine
 10
112.350727063
 20
80.3976494411
 30
0.0
 11
116.350727063
 21
79.7476494411
 31
0.0
  0
ARC
  5
93
330
1F
100
AcDbEntity
  8
0
  6
Continuous
 62
     7
370
    25
100
AcDbCircle
 10
99.6483750559
 20
81.1089493554
 30
0.0
 40
0.8000000000000157
100
AcDbArc
 50
184.3945905239
 51
263.2599439021
  0
ARC
  5
94
330
1F
100
AcDbEntity
  8
0
  6
Continuous
 62
     7
370
    25
100
AcDbCircle
 10
99.6483750559
 20
85.3863495268
 30
0.0
 40
0.8000000000000157
100
AcDbArc
 50
96.7400560979
 51
175.6054094761
  0
LINE
  5
95
330
1F
100
AcDbEntity
  8
0
  6
Continuous
 62
     7
370
    25
100
AcDbLine
 10
159.5581631795
 20
74.0100451341
 30
0.0
 11
160.3592968997
 21
75.3976494411
 31
0.0
  0
LINE
  5
96
330
1F
100
AcDbEntity
  8
0
  6
Continuous
 62
     7
370
    25
100
AcDbLine
 10
160.3592968997
 20
91.0976494411
 30
0.0
 11
159.5581631795
 21
92.4852537482
 31
0.0
  0
LINE
  5
97
330
1F
100
AcDbEntity
  8
0
  6
Continuous
 62
     7
370
    25
100
AcDbLine
 10
152.1604306199
 20
92.4852537482
 30
0.0
 11
151.3592968997
 21
91.0976494411
 31
0.0
  0
LINE
  5
98
330
1F
100
AcDbEntity
  8
0
  6
Continuous
 62
     7
370
    25
100
AcDbLine
 10
151.3592968997
 20
75.3976494411
 30
0.0
 11
152.1604306199
 21
74.0100451341
 31
0.0
  0
ARC
  5
99
330
1F
100
AcDbEntity
  8
0
  6
Continuous
 62
     7
370
    25
100
AcDbCircle
 10
149.6592968997
 20
75.6976494411
 30
0.0
 40
0.3000000000000398
100
AcDbArc
 50
180.0
 51
270.0
  0
ARC
  5
9A
330
1F
100
AcDbEntity
  8
0
  6
Continuous
 62
     7
370
    25
100
AcDbCircle
 10
149.6592968997
 20
90.7976494411
 30
0.0
 40
0.3000000000000398
100
AcDbArc
 50
90.0
 51
180.0
  0
ARC
  5
9B
330
1F
100
AcDbEntity
  8
0
  6
Continuous
 62
     7
370
    25
100
AcDbCircle
 10
162.0592968997
 20
90.7976494411
 30
0.0
 40
0.3000000000000114
100
AcDbArc
 50
0.0
 51
90.0
  0
ARC
  5
9C
330
1F
100
AcDbEntity
  8
0
  6
Continuous
 62
     7
370
    25
100
AcDbCircle
 10
162.0592968997
 20
75.6976494411
 30
0.0
 40
0.3000000000000114
100
AcDbArc
 50
270.0
 51
0.0
  0
LINE
  5
9D
330
1F
100
AcDbEntity
  8
0
  6
Continuous
 62
     7
370
    25
100
AcDbLine
 10
160.3592968997
 20
75.3976494411
 30
0.0
 11
162.0592968997
 21
75.3976494411
 31
0.0
  0
LINE
  5
9E
330
1F
100
AcDbEntity
  8
0
  6
Continuous
 62
     7
370
    25
100
AcDbLine
 10
162.0592968997
 20
91.0976494411
 30
0.0
 11
160.3592968997
 21
91.0976494411
 31
0.0
  0
LINE
  5
9F
330
1F
100
AcDbEntity
  8
0
  6
Continuous
 62
     7
370
    25
100
AcDbLine
 10
151.3592968997
 20
91.0976494411
 30
0.0
 11
149.6592968997
 21
91.0976494411
 31
0.0
  0
LINE
  5
A0
330
1F
100
AcDbEntity
  8
0
  6
Continuous
 62
     7
370
    25
100
AcDbLine
 10
149.6592968997
 20
75.3976494411
 30
0.0
 11
151.3592968997
 21
75.3976494411
 31
0.0
  0
LINE
  5
A1
330
1F
100
AcDbEntity
  8
0
  6
Continuous
 62
     7
370
    25
100
AcDbLine
 10
155.8592968997
 20
74.2100451341
 30
0.0
 11
155.9128867382
 21
74.0100451341
 31
0.0
  0
LINE
  5
A2
330
1F
100
AcDbEntity
  8
0
  6
Continuous
 62
     7
370
    25
100
AcDbLine
 10
155.8057070612
 20
74.0100451341
 30
0.0
 11
155.8592968997
 21
74.2100451341
 31
0.0
  0
LINE
  5
A3
330
1F
100
AcDbEntity
  8
0
  6
Continuous
 62
     7
370
    25
100
AcDbLine
 10
155.9128867382
 20
92.4852537482
 30
0.0
 11
155.8592968997
 21
92.2852537482
 31
0.0
  0
LINE
  5
A4
330
1F
100
AcDbEntity
  8
0
  6
Continuous
 62
     7
370
    25
100
AcDbLine
 10
155.8592968997
 20
92.2852537482
 30
0.0
 11
155.8057070612
 21
92.4852537482
 31
0.0
  0
LINE
  5
A5
330
1F
100
AcDbEntity
  8
0
  6
Continuous
 62
     7
370
    25
100
AcDbLine
 10
135.0495933429
 20
74.0100451341
 30
0.0
 11
135.850727063
 21
75.3976494411
 31
0.0
  0
LINE
  5
A6
330
1F
100
AcDbEntity
  8
0
  6
Continuous
 62
     7
370
    25
100
AcDbLine
 10
135.850727063
 20
91.0976494411
 30
0.0
 11
135.0495933429
 21
92.4852537482
 31
0.0
  0
LINE
  5
A7
330
1F
100
AcDbEntity
  8
0
  6
Continuous
 62
     7
370
    25
100
AcDbLine
 10
127.6518607832
 20
92.4852537482
 30
0.0
 11
126.850727063
 21
91.0976494411
 31
0.0
  0
LINE
  5
A8
330
1F
100
AcDbEntity
  8
0
  6
Continuous
 62
     7
370
    25
100
AcDbLine
 10
126.850727063
 20
75.3976494411
 30
0.0
 11
127.6518607832
 21
74.0100451341
 31
0.0
  0
ARC
  5
A9
330
1F
100
AcDbEntity
  8
0
  6
Continuous
 62
     7
370
    25
100
AcDbCircle
 10
137.550727063
 20
90.7976494411
 30
0.0
 40
0.3000000000000114
100
AcDbArc
 50
0.0
 51
90.0
  0
ARC
  5
AA
330
1F
100
AcDbEntity
  8
0
  6
Continuous
 62
     7
370
    25
100
AcDbCircle
 10
137.550727063
 20
75.6976494411
 30
0.0
 40
0.2999999999999972
100
AcDbArc
 50
270.0
 51
0.0
  0
ARC
  5
AB
330
1F
100
AcDbEntity
  8
0
  6
Continuous
 62
     7
370
    25
100
AcDbCircle
 10
125.150727063
 20
75.6976494411
 30
0.0
 40
0.2999999999999972
100
AcDbArc
 50
180.0
 51
270.0
  0
ARC
  5
AC
330
1F
100
AcDbEntity
  8
0
  6
Continuous
 62
     7
370
    25
100
AcDbCircle
 10
125.150727063
 20
90.7976494411
 30
0.0
 40
0.3000000000000114
100
AcDbArc
 50
90.0
 51
180.0
  0
LINE
  5
AD
330
1F
100
AcDbEntity
  8
0
  6
Continuous
 62
     7
370
    25
100
AcDbLine
 10
126.850727063
 20
91.0976494411
 30
0.0
 11
125.150727063
 21
91.0976494411
 31
0.0
  0
LINE
  5
AE
330
1F
100
AcDbEntity
  8
0
  6
Continuous
 62
     7
370
    25
100
AcDbLine
 10
125.150727063
 20
75.3976494411
 30
0.0
 11
126.850727063
 21
75.3976494411
 31
0.0
  0
LINE
  5
AF
330
1F
100
AcDbEntity
  8
0
  6
Continuous
 62
     7
370
    25
100
AcDbLine
 10
135.850727063
 20
75.3976494411
 30
0.0
 11
137.550727063
 21
75.3976494411
 31
0.0
  0
LINE
  5
B0
330
1F
100
AcDbEntity
  8
0
  6
Continuous
 62
     7
370
    25
100
AcDbLine
 10
137.550727063
 20
91.0976494411
 30
0.0
 11
135.850727063
 21
91.0976494411
 31
0.0
  0
LINE
  5
B1
330
1F
100
AcDbEntity
  8
0
  6
Continuous
 62
     7
370
    25
100
AcDbLine
 10
131.4043169015
 20
92.4852537482
 30
0.0
 11
131.350727063
 21
92.2852537482
 31
0.0
  0
LINE
  5
B2
330
1F
100
AcDbEntity
  8
0
  6
Continuous
 62
     7
370
    25
100
AcDbLine
 10
131.350727063
 20
92.2852537482
 30
0.0
 11
131.2971372246
 21
92.4852537482
 31
0.0
  0
LINE
  5
B3
330
1F
100
AcDbEntity
  8
0
  6
Continuous
 62
     7
370
    25
100
AcDbLine
 10
131.350727063
 20
74.2100451341
 30
0.0
 11
131.4043169015
 21
74.0100451341
 31
0.0
  0
LINE
  5
B4
330
1F
100
AcDbEntity
  8
0
  6
Continuous
 62
     7
370
    25
100
AcDbLine
 10
131.2971372246
 20
74.0100451341
 30
0.0
 11
131.350727063
 21
74.2100451341
 31
0.0
  0
LINE
  5
B5
330
1F
100
AcDbEntity
  8
0
  6
Continuous
 62
     7
370
    25
100
AcDbLine
 10
145.3354596317
 20
75.1647456725
 30
0.0
 11
146.1050119814
 21
76.4976494411
 31
0.0
  0
LINE
  5
B6
330
1F
100
AcDbEntity
  8
0
  6
Continuous
 62
     7
370
    25
100
AcDbLine
 10
146.1050119814
 20
89.9976494411
 30
0.0
 11
145.3354596317
 21
91.3305532098
 31
0.0
  0
LINE
  5
B7
330
1F
100
AcDbEntity
  8
0
  6
Continuous
 62
     7
370
    25
100
AcDbLine
 10
141.874564331
 20
91.3305532098
 30
0.0
 11
141.1050119814
 21
89.9976494411
 31
0.0
  0
LINE
  5
B8
330
1F
100
AcDbEntity
  8
0
  6
Continuous
 62
     7
370
    25
100
AcDbLine
 10
141.1050119814
 20
76.4976494411
 30
0.0
 11
141.874564331
 21
75.1647456725
 31
0.0
  0
LINE
  5
B9
330
1F
100
AcDbEntity
  8
0
  6
Continuous
 62
     7
370
    25
100
AcDbLine
 10
138.1050119814
 20
89.8261494411
 30
0.0
 11
137.850727063
 21
89.8261494411
 31
0.0
  0
LINE
  5
BA
330
1F
100
AcDbEntity
  8
0
  6
Continuous
 62
     7
370
    25
100
AcDbLine
 10
137.850727063
 20
76.6691494411
 30
0.0
 11
138.1050119814
 21
76.6691494411
 31
0.0
  0
LINE
  5
BB
330
1F
100
AcDbEntity
  8
0
  6
Continuous
 62
     7
370
    25
100
AcDbLine
 10
138.1050119814
 20
76.6691494411
 30
0.0
 11
139.1050119814
 21
77.6691494411
 31
0.0
  0
LINE
  5
BC
330
1F
100
AcDbEntity
  8
0
  6
Continuous
 62
     7
370
    25
100
AcDbLine
 10
139.1050119814
 20
88.8261494411
 30
0.0
 11
138.1050119814
 21
89.8261494411
 31
0.0
  0
LINE
  5
BD
330
1F
100
AcDbEntity
  8
0
  6
Continuous
 62
     7
370
    25
100
AcDbLine
 10
149.1050119814
 20
76.6691494411
 30
0.0
 11
149.3592968997
 21
76.6691494411
 31
0.0
  0
LINE
  5
BE
330
1F
100
AcDbEntity
  8
0
  6
Continuous
 62
     7
370
    25
100
AcDbLine
 10
149.3592968997
 20
89.8261494411
 30
0.0
 11
149.1050119814
 21
89.8261494411
 31
0.0
  0
LINE
  5
BF
330
1F
100
AcDbEntity
  8
0
  6
Continuous
 62
     7
370
    25
100
AcDbLine
 10
149.1050119814
 20
89.8261494411
 30
0.0
 11
148.1050119814
 21
88.8261494411
 31
0.0
  0
LINE
  5
C0
330
1F
100
AcDbEntity
  8
0
  6
Continuous
 62
     7
370
    25
100
AcDbLine
 10
148.1050119814
 20
77.6691494411
 30
0.0
 11
149.1050119814
 21
76.6691494411
 31
0.0
  0
LINE
  5
C1
330
1F
100
AcDbEntity
  8
0
  6
Continuous
 62
     7
370
    25
100
AcDbLine
 10
141.1050119814
 20
88.7476494411
 30
0.0
 11
139.1050119814
 21
88.7476494411
 31
0.0
  0
LINE
  5
C2
330
1F
100
AcDbEntity
  8
0
  6
Continuous
 62
     7
370
    25
100
AcDbLine
 10
139.1050119814
 20
77.7476494411
 30
0.0
 11
141.1050119814
 21
77.7476494411
 31
0.0
  0
LINE
  5
C3
330
1F
100
AcDbEntity
  8
0
  6
Continuous
 62
     7
370
    25
100
AcDbLine
 10
146.1050119814
 20
77.7476494411
 30
0.0
 11
148.1050119814
 21
77.7476494411
 31
0.0
  0
LINE
  5
C4
330
1F
100
AcDbEntity
  8
0
  6
Continuous
 62
     7
370
    25
100
AcDbLine
 10
148.1050119814
 20
88.7476494411
 30
0.0
 11
146.1050119814
 21
88.7476494411
 31
0.0
  0
LINE
  5
C5
330
1F
100
AcDbEntity
  8
0
  6
Continuous
 62
     7
370
    25
100
AcDbLine
 10
143.5246272236
 20
75.1647456725
 30
0.0
 11
143.6050119814
 21
75.4647456725
 31
0.0
  0
LINE
  5
C6
330
1F
100
AcDbEntity
  8
0
  6
Continuous
 62
     7
370
    25
100
AcDbLine
 10
143.6050119814
 20
75.4647456725
 30
0.0
 11
143.6853967391
 21
75.1647456725
 31
0.0
  0
LINE
  5
C7
330
1F
100
AcDbEntity
  8
0
  6
Continuous
 62
     7
370
    25
100
AcDbLine
 10
143.6050119814
 20
91.0305532098
 30
0.0
 11
143.5246272236
 21
91.3305532098
 31
0.0
  0
LINE
  5
C8
330
1F
100
AcDbEntity
  8
0
  6
Continuous
 62
     7
370
    25
100
AcDbLine
 10
143.6853967391
 20
91.3305532098
 30
0.0
 11
143.6050119814
 21
91.0305532098
 31
0.0
  0
LINE
  5
C9
330
1F
100
AcDbEntity
  8
0
  6
Continuous
 62
     7
370
    25
100
AcDbLine
 10
162.8592968997
 20
87.7476494411
 30
0.0
 11
162.8592968997
 21
78.7476494411
 31
0.0
  0
LINE
  5
CA
330
1F
100
AcDbEntity
  8
0
  6
Continuous
 62
     7
370
    25
100
AcDbLine
 10
166.8592968997
 20
83.2476494411
 30
0.0
 11
166.8592968997
 21
86.7476494411
 31
0.0
  0
LINE
  5
CB
330
1F
100
AcDbEntity
  8
0
  6
Continuous
 62
     7
370
    25
100
AcDbLine
 10
166.8592968997
 20
79.7476494411
 30
0.0
 11
166.8592968997
 21
83.2476494411
 31
0.0
  0
LINE
  5
CC
330
1F
100
AcDbEntity
  8
0
  6
Continuous
 62
     7
370
    25
100
AcDbLine
 10
182.8592968997
 20
83.2476494411
 30
0.0
 11
182.8592968997
 21
86.7476494411
 31
0.0
  0
LINE
  5
CD
330
1F
100
AcDbEntity
  8
0
  6
Continuous
 62
     7
370
    25
100
AcDbLine
 10
182.8592968997
 20
79.7476494411
 30
0.0
 11
182.8592968997
 21
83.2476494411
 31
0.0
  0
LINE
  5
CE
330
1F
100
AcDbEntity
  8
0
  6
Continuous
 62
     7
370
    25
100
AcDbLine
 10
174.8592968997
 20
83.2476494411
 30
0.0
 11
174.8592968997
 21
86.7476494411
 31
0.0
  0
LINE
  5
CF
330
1F
100
AcDbEntity
  8
0
  6
Continuous
 62
     7
370
    25
100
AcDbLine
 10
174.8592968997
 20
79.7476494411
 30
0.0
 11
174.8592968997
 21
83.2476494411
 31
0.0
  0
LINE
  5
D0
330
1F
100
AcDbEntity
  8
0
  6
Continuous
 62
     7
370
    25
100
AcDbLine
 10
178.8592968997
 20
83.2476494411
 30
0.0
 11
178.8592968997
 21
86.7476494411
 31
0.0
  0
LINE
  5
D1
330
1F
100
AcDbEntity
  8
0
  6
Continuous
 62
     7
370
    25
100
AcDbLine
 10
178.8592968997
 20
79.7476494411
 30
0.0
 11
178.8592968997
 21
83.2476494411
 31
0.0
  0
LINE
  5
D2
330
1F
100
AcDbEntity
  8
0
  6
Continuous
 62
     7
370
    25
100
AcDbLine
 10
170.8592968997
 20
83.2476494411
 30
0.0
 11
170.8592968997
 21
86.7476494411
 31
0.0
  0
LINE
  5
D3
330
1F
100
AcDbEntity
  8
0
  6
Continuous
 62
     7
370
    25
100
AcDbLine
 10
170.8592968997
 20
79.7476494411
 30
0.0
 11
170.8592968997
 21
83.2476494411
 31
0.0
  0
LINE
  5
D4
330
1F
100
AcDbEntity
  8
0
  6
Continuous
 62
     7
370
    25
100
AcDbLine
 10
188.3592968997
 20
83.2476494411
 30
0.0
 11
188.3592968997
 21
85.4476494411
 31
0.0
  0
LINE
  5
D5
330
1F
100
AcDbEntity
  8
0
  6
Continuous
 62
     7
370
    25
100
AcDbLine
 10
188.3592968997
 20
81.0476494411
 30
0.0
 11
188.3592968997
 21
83.2476494411
 31
0.0
  0
LINE
  5
D6
330
1F
100
AcDbEntity
  8
0
  6
Continuous
 62
     7
370
    25
100
AcDbLine
 10
124.350727063
 20
83.2476494411
 30
0.0
 11
124.350727063
 21
87.7476494411
 31
0.0
  0
LINE
  5
D7
330
1F
100
AcDbEntity
  8
0
  6
Continuous
 62
     7
370
    25
100
AcDbLine
 10
124.350727063
 20
78.7476494411
 30
0.0
 11
124.350727063
 21
83.2476494411
 31
0.0
  0
LINE
  5
D8
330
1F
100
AcDbEntity
  8
0
  6
Continuous
 62
     7
370
    25
100
AcDbLine
 10
120.350727063
 20
86.7476494411
 30
0.0
 11
120.350727063
 21
79.7476494411
 31
0.0
  0
LINE
  5
D9
330
1F
100
AcDbEntity
  8
0
  6
Continuous
 62
     7
370
    25
100
AcDbLine
 10
104.350727063
 20
86.7476494411
 30
0.0
 11
104.350727063
 21
79.7476494411
 31
0.0
  0
LINE
  5
DA
330
1F
100
AcDbEntity
  8
0
  6
Continuous
 62
     7
370
    25
100
AcDbLine
 10
112.350727063
 20
86.7476494411
 30
0.0
 11
112.350727063
 21
79.7476494411
 31
0.0
  0
LINE
  5
DB
330
1F
100
AcDbEntity
  8
0
  6
Continuous
 62
     7
370
    25
100
AcDbLine
 10
108.350727063
 20
86.7476494411
 30
0.0
 11
108.350727063
 21
79.7476494411
 31
0.0
  0
LINE
  5
DC
330
1F
100
AcDbEntity
  8
0
  6
Continuous
 62
     7
370
    25
100
AcDbLine
 10
116.350727063
 20
86.7476494411
 30
0.0
 11
116.350727063
 21
79.7476494411
 31
0.0
  0
LINE
  5
DD
330
1F
100
AcDbEntity
  8
0
  6
Continuous
 62
     7
370
    25
100
AcDbLine
 10
98.850727063
 20
85.4476494411
 30
0.0
 11
98.850727063
 21
81.0476494411
 31
0.0
  0
SPLINE
  5
DE
330
1F
100
AcDbEntity
  8
0
  6
Continuous
 62
     7
370
    25
100
AcDbSpline
210
0.0
220
0.0
230
1.0
 70
     8
 71
     3
 72
    15
 73
    11
 74
     0
 42
0.000000001
 43
0.00000001
 40
0.0
 40
0.0
 40
0.0
 40
0.0
 40
0.1323049664163416
 40
0.2645725257576573
 40
0.3997989469058977
 40
0.5350009659368399
 40
0.6501921044151454
 40
0.7654012116808045
 40
0.8826892657702333
 40
1.0
 40
1.0
 40
1.0
 40
1.0
 10
159.558163179499
 20
87.86645159464376
 30
0.0
 10
159.6669347070422
 20
88.06600181271288
 30
0.0
 10
159.8844470087502
 20
88.46504582927614
 30
0.0
 10
160.1184822015458
 20
89.07953824477063
 30
0.0
 10
160.2592014574948
 20
89.70561391677755
 30
0.0
 10
160.2870707412184
 20
90.30901166996858
 30
0.0
 10
160.2147689428639
 20
90.87981187198466
 30
0.0
 10
160.0666189628848
 20
91.41850775329847
 30
0.0
 10
159.8492988041802
 20
91.95476804657203
 30
0.0
 10
159.6552146421716
 20
92.30841378457856
 30
0.0
 10
159.558163179499
 20
92.48525374816067
 30
0.0
  0
SPLINE
  5
DF
330
1F
100
AcDbEntity
  8
0
  6
Continuous
 62
     7
370
    25
100
AcDbSpline
210
0.0
220
0.0
230
1.0
 70
     8
 71
     3
 72
    15
 73
    11
 74
     0
 42
0.000000001
 43
0.00000001
 40
0.0
 40
0.0
 40
0.0
 40
0.0
 40
0.13230496641634
 40
0.264572525757654
 40
0.3997989469058927
 40
0.5350009659368333
 40
0.6501921044151404
 40
0.765401211680801
 40
0.8826892657702317
 40
1.0
 40
1.0
 40
1.0
 40
1.0
 10
159.558163179499
 20
74.01004513409264
 30
0.0
 10
159.6669347070422
 20
74.20959535216177
 30
0.0
 10
159.8844470087502
 20
74.60863936872502
 30
0.0
 10
160.1184822015458
 20
75.22313178421955
 30
0.0
 10
160.2592014574948
 20
75.84920745622648
 30
0.0
 10
160.2870707412184
 20
76.45260520941751
 30
0.0
 10
160.2147689428639
 20
77.02340541143363
 30
0.0
 10
160.0666189628848
 20
77.56210129274747
 30
0.0
 10
159.8492988041802
 20
78.09836158602104
 30
0.0
 10
159.6552146421716
 20
78.4520073240276
 30
0.0
 10
159.558163179499
 20
78.62884728760972
 30
0.0
  0
SPLINE
  5
E0
330
1F
100
AcDbEntity
  8
0
  6
Continuous
 62
     7
370
    25
100
AcDbSpline
210
0.0
220
0.0
230
1.0
 70
     8
 71
     3
 72
    14
 73
    10
 74
     0
 42
0.000000001
 43
0.00000001
 40
0.0
 40
0.0
 40
0.0
 40
0.0
 40
0.1052068357133045
 40
0.2313210752448397
 40
0.3574023224982446
 40
0.4865716879238012
 40
0.6157381069695573
 40
0.8067800019191284
 40
0.9999999999999999
 40
0.9999999999999999
 40
0.9999999999999999
 40
0.9999999999999999
 10
159.558163179499
 20
78.62884728760972
 30
0.0
 10
159.6456045026404
 20
78.94587473796112
 30
0.0
 10
159.8378640716387
 20
79.64293144725383
 30
0.0
 10
160.0639966665249
 20
80.73785646042512
 30
0.0
 10
160.2264018438305
 20
81.91969048894506
 30
0.0
 10
160.2892168501178
 20
83.12117251888111
 30
0.0
 10
160.2402760954689
 20
84.52615434978794
 30
0.0
 10
160.0214968357533
 20
86.12088078650221
 30
0.0
 10
159.7131902540276
 20
87.28240005399705
 30
0.0
 10
159.558163179499
 20
87.86645159464376
 30
0.0
  0
LINE
  5
E1
330
1F
100
AcDbEntity
  8
0
  6
Continuous
 62
     7
370
    25
100
AcDbLine
 10
160.3592968997
 20
83.2476494411
 30
0.0
 11
160.3592968997
 21
91.0976494411
 31
0.0
  0
LINE
  5
E2
330
1F
100
AcDbEntity
  8
0
  6
Continuous
 62
     7
370
    25
100
AcDbLine
 10
160.3592968997
 20
75.3976494411
 30
0.0
 11
160.3592968997
 21
83.2476494411
 31
0.0
  0
LINE
  5
E3
330
1F
100
AcDbEntity
  8
0
  6
Continuous
 62
     7
370
    25
100
AcDbLine
 10
155.8057070612
 20
87.8664515946
 30
0.0
 11
155.8592968997
 21
88.0735746444
 31
0.0
  0
LINE
  5
E4
330
1F
100
AcDbEntity
  8
0
  6
Continuous
 62
     7
370
    25
100
AcDbLine
 10
155.8592968997
 20
87.452205495
 30
0.0
 11
155.8592968997
 21
88.0735746444
 31
0.0
  0
LINE
  5
E5
330
1F
100
AcDbEntity
  8
0
  6
Continuous
 62
     7
370
    25
100
AcDbLine
 10
155.8592968997
 20
87.452205495
 30
0.0
 11
155.8057070612
 21
87.8664515946
 31
0.0
  0
LINE
  5
E6
330
1F
100
AcDbEntity
  8
0
  6
Continuous
 62
     7
370
    25
100
AcDbLine
 10
155.8592968997
 20
88.0735746444
 30
0.0
 11
155.9128867382
 21
87.8664515946
 31
0.0
  0
LINE
  5
E7
330
1F
100
AcDbEntity
  8
0
  6
Continuous
 62
     7
370
    25
100
AcDbLine
 10
155.9128867382
 20
87.8664515946
 30
0.0
 11
155.8592968997
 21
87.452205495
 31
0.0
  0
LINE
  5
E8
330
1F
100
AcDbEntity
  8
0
  6
Continuous
 62
     7
370
    25
100
AcDbLine
 10
155.8592968997
 20
78.4217242378
 30
0.0
 11
155.8057070612
 21
78.6288472876
 31
0.0
  0
LINE
  5
E9
330
1F
100
AcDbEntity
  8
0
  6
Continuous
 62
     7
370
    25
100
AcDbLine
 10
155.8057070612
 20
78.6288472876
 30
0.0
 11
155.8592968997
 21
79.0430933872
 31
0.0
  0
LINE
  5
EA
330
1F
100
AcDbEntity
  8
0
  6
Continuous
 62
     7
370
    25
100
AcDbLine
 10
155.8592968997
 20
78.4217242378
 30
0.0
 11
155.8592968997
 21
79.0430933872
 31
0.0
  0
LINE
  5
EB
330
1F
100
AcDbEntity
  8
0
  6
Continuous
 62
     7
370
    25
100
AcDbLine
 10
152.1604306199
 20
74.0100451341
 30
0.0
 11
155.8057070612
 21
74.0100451341
 31
0.0
  0
SPLINE
  5
EC
330
1F
100
AcDbEntity
  8
0
  6
Continuous
 62
     7
370
    25
100
AcDbSpline
210
0.0
220
0.0
230
1.0
 70
     8
 71
     3
 72
    15
 73
    11
 74
     0
 42
0.000000001
 43
0.00000001
 40
0.0
 40
0.0
 40
0.0
 40
0.0
 40
0.13230496641634
 40
0.2645725257576541
 40
0.3997989469058928
 40
0.5350009659368333
 40
0.6501921044151404
 40
0.765401211680801
 40
0.8826892657702317
 40
1.0
 40
1.0
 40
1.0
 40
1.0
 10
152.1604306198885
 20
74.01004513409264
 30
0.0
 10
152.0516590923453
 20
74.20959535216177
 30
0.0
 10
151.8341467906373
 20
74.60863936872502
 30
0.0
 10
151.6001115978417
 20
75.22313178421955
 30
0.0
 10
151.4593923418927
 20
75.84920745622648
 30
0.0
 10
151.4315230581691
 20
76.45260520941751
 30
0.0
 10
151.5038248565236
 20
77.02340541143363
 30
0.0
 10
151.6519748365027
 20
77.56210129274747
 30
0.0
 10
151.8692949952073
 20
78.09836158602104
 30
0.0
 10
152.0633791572159
 20
78.4520073240276
 30
0.0
 10
152.1604306198885
 20
78.62884728760972
 30
0.0
  0
LINE
  5
ED
330
1F
100
AcDbEntity
  8
0
  6
Continuous
 62
     7
370
    25
100
AcDbLine
 10
152.1604306199
 20
78.6288472876
 30
0.0
 11
155.8057070612
 21
78.6288472876
 31
0.0
  0
LINE
  5
EE
330
1F
100
AcDbEntity
  8
0
  6
Continuous
 62
     7
370
    25
100
AcDbLine
 10
155.9128867382
 20
78.6288472876
 30
0.0
 11
155.8592968997
 21
78.4217242378
 31
0.0
  0
LINE
  5
EF
330
1F
100
AcDbEntity
  8
0
  6
Continuous
 62
     7
370
    25
100
AcDbLine
 10
155.9128867382
 20
78.6288472876
 30
0.0
 11
159.5581631795
 21
78.6288472876
 31
0.0
  0
LINE
  5
F0
330
1F
100
AcDbEntity
  8
0
  6
Continuous
 62
     7
370
    25
100
AcDbLine
 10
155.9128867382
 20
74.0100451341
 30
0.0
 11
159.5581631795
 21
74.0100451341
 31
0.0
  0
LINE
  5
F1
330
1F
100
AcDbEntity
  8
0
  6
Continuous
 62
     7
370
    25
100
AcDbLine
 10
155.8592968997
 20
74.2171681839
 30
0.0
 11
155.9128867382
 21
74.0100451341
 31
0.0
  0
LINE
  5
F2
330
1F
100
AcDbEntity
  8
0
  6
Continuous
 62
     7
370
    25
100
AcDbLine
 10
155.8057070612
 20
74.0100451341
 30
0.0
 11
155.8592968997
 21
74.2171681839
 31
0.0
  0
SPLINE
  5
F3
330
1F
100
AcDbEntity
  8
0
  6
Continuous
 62
     7
370
    25
100
AcDbSpline
210
0.0
220
0.0
230
1.0
 70
     8
 71
     3
 72
    14
 73
    10
 74
     0
 42
0.000000001
 43
0.00000001
 40
0.0
 40
0.0
 40
0.0
 40
0.0
 40
0.1052068357133045
 40
0.2313210752448397
 40
0.3574023224982446
 40
0.4865716879238012
 40
0.6157381069695573
 40
0.8067800019191284
 40
0.9999999999999999
 40
0.9999999999999999
 40
0.9999999999999999
 40
0.9999999999999999
 10
152.1604306198885
 20
78.62884728760972
 30
0.0
 10
152.0729892967471
 20
78.94587473796112
 30
0.0
 10
151.8807297277488
 20
79.64293144725383
 30
0.0
 10
151.6545971328626
 20
80.73785646042512
 30
0.0
 10
151.492191955557
 20
81.91969048894506
 30
0.0
 10
151.4293769492697
 20
83.12117251888111
 30
0.0
 10
151.4783177039186
 20
84.52615434978794
 30
0.0
 10
151.6970969636342
 20
86.12088078650221
 30
0.0
 10
152.0054035453599
 20
87.28240005399705
 30
0.0
 10
152.1604306198885
 20
87.86645159464376
 30
0.0
  0
LINE
  5
F4
330
1F
100
AcDbEntity
  8
0
  6
Continuous
 62
     7
370
    25
100
AcDbLine
 10
152.1604306199
 20
87.8664515946
 30
0.0
 11
155.8057070612
 21
87.8664515946
 31
0.0
  0
LINE
  5
F5
330
1F
100
AcDbEntity
  8
0
  6
Continuous
 62
     7
370
    25
100
AcDbLine
 10
155.9128867382
 20
87.8664515946
 30
0.0
 11
159.5581631795
 21
87.8664515946
 31
0.0
  0
LINE
  5
F6
330
1F
100
AcDbEntity
  8
0
  6
Continuous
 62
     7
370
    25
100
AcDbLine
 10
155.8592968997
 20
79.0430933872
 30
0.0
 11
155.9128867382
 21
78.6288472876
 31
0.0
  0
SPLINE
  5
F7
330
1F
100
AcDbEntity
  8
0
  6
Continuous
 62
     7
370
    25
100
AcDbSpline
210
0.0
220
0.0
230
1.0
 70
     8
 71
     3
 72
    15
 73
    11
 74
     0
 42
0.000000001
 43
0.00000001
 40
0.0
 40
0.0
 40
0.0
 40
0.0
 40
0.1323049664163416
 40
0.2645725257576573
 40
0.3997989469058977
 40
0.5350009659368399
 40
0.6501921044151454
 40
0.7654012116808045
 40
0.8826892657702334
 40
1.0
 40
1.0
 40
1.0
 40
1.0
 10
152.1604306198885
 20
87.86645159464376
 30
0.0
 10
152.0516590923453
 20
88.06600181271288
 30
0.0
 10
151.8341467906373
 20
88.46504582927612
 30
0.0
 10
151.6001115978417
 20
89.07953824477063
 30
0.0
 10
151.4593923418927
 20
89.70561391677755
 30
0.0
 10
151.4315230581691
 20
90.30901166996858
 30
0.0
 10
151.5038248565236
 20
90.87981187198466
 30
0.0
 10
151.6519748365027
 20
91.41850775329847
 30
0.0
 10
151.8692949952073
 20
91.95476804657203
 30
0.0
 10
152.0633791572159
 20
92.30841378457856
 30
0.0
 10
152.1604306198885
 20
92.48525374816067
 30
0.0
  0
LINE
  5
F8
330
1F
100
AcDbEntity
  8
0
  6
Continuous
 62
     7
370
    25
100
AcDbLine
 10
151.3592968997
 20
83.2476494411
 30
0.0
 11
151.3592968997
 21
91.0976494411
 31
0.0
  0
LINE
  5
F9
330
1F
100
AcDbEntity
  8
0
  6
Continuous
 62
     7
370
    25
100
AcDbLine
 10
151.3592968997
 20
75.3976494411
 30
0.0
 11
151.3592968997
 21
83.2476494411
 31
0.0
  0
LINE
  5
FA
330
1F
100
AcDbEntity
  8
0
  6
Continuous
 62
     7
370
    25
100
AcDbLine
 10
152.1604306199
 20
92.4852537482
 30
0.0
 11
155.8057070612
 21
92.4852537482
 31
0.0
  0
LINE
  5
FB
330
1F
100
AcDbEntity
  8
0
  6
Continuous
 62
     7
370
    25
100
AcDbLine
 10
155.8592968997
 20
92.2781306984
 30
0.0
 11
155.8057070612
 21
92.4852537482
 31
0.0
  0
LINE
  5
FC
330
1F
100
AcDbEntity
  8
0
  6
Continuous
 62
     7
370
    25
100
AcDbLine
 10
155.9128867382
 20
92.4852537482
 30
0.0
 11
155.8592968997
 21
92.2781306984
 31
0.0
  0
LINE
  5
FD
330
1F
100
AcDbEntity
  8
0
  6
Continuous
 62
     7
370
    25
100
AcDbLine
 10
155.9128867382
 20
92.4852537482
 30
0.0
 11
159.5581631795
 21
92.4852537482
 31
0.0
  0
LINE
  5
FE
330
1F
100
AcDbEntity
  8
0
  6
Continuous
 62
     7
370
    25
100
AcDbLine
 10
149.3592968997
 20
83.2476494411
 30
0.0
 11
149.3592968997
 21
90.7976494411
 31
0.0
  0
LINE
  5
FF
330
1F
100
AcDbEntity
  8
0
  6
Continuous
 62
     7
370
    25
100
AcDbLine
 10
149.3592968997
 20
75.6976494411
 30
0.0
 11
149.3592968997
 21
83.2476494411
 31
0.0
  0
LINE
  5
100
330
1F
100
AcDbEntity
  8
0
  6
Continuous
 62
     7
370
    25
100
AcDbLine
 10
162.3592968997
 20
90.7976494411
 30
0.0
 11
162.3592968997
 21
75.6976494411
 31
0.0
  0
LINE
  5
101
330
1F
100
AcDbEntity
  8
0
  6
Continuous
 62
     7
370
    25
100
AcDbLine
 10
155.8592968997
 20
74.2100451341
 30
0.0
 11
155.8592968997
 21
74.2171681839
 31
0.0
  0
LINE
  5
102
330
1F
100
AcDbEntity
  8
0
  6
Continuous
 62
     7
370
    25
100
AcDbLine
 10
155.8592968997
 20
92.2781306984
 30
0.0
 11
155.8592968997
 21
92.2852537482
 31
0.0
  0
LINE
  5
103
330
1F
100
AcDbEntity
  8
0
  6
Continuous
 62
     7
370
    25
100
AcDbLine
 10
135.0495933429
 20
87.8664515946
 30
0.0
 11
131.4043169015
 21
87.8664515946
 31
0.0
  0
SPLINE
  5
104
330
1F
100
AcDbEntity
  8
0
  6
Continuous
 62
     7
370
    25
100
AcDbSpline
210
0.0
220
0.0
230
1.0
 70
     8
 71
     3
 72
    14
 73
    10
 74
     0
 42
0.000000001
 43
0.00000001
 40
0.0
 40
0.0
 40
0.0
 40
0.0
 40
0.1912156890565411
 40
0.3842607734904396
 40
0.5102055247845747
 40
0.6361523096967547
 40
0.765454570798929
 40
0.8947932191925942
 40
1.0
 40
1.0
 40
1.0
 40
1.0
 10
135.0495933428502
 20
87.86645159464365
 30
0.0
 10
135.2031258981973
 20
87.28850406944147
 30
0.0
 10
135.5116598828548
 20
86.12707968963858
 30
0.0
 10
135.7300757468783
 20
84.54240963001337
 30
0.0
 10
135.7800781562861
 20
83.15145031987504
 30
0.0
 10
135.7216485117837
 20
81.95992380936568
 30
0.0
 10
135.5612689578757
 20
80.76755774761828
 30
0.0
 10
135.3319564730542
 20
79.65265117977887
 30
0.0
 10
135.1370291712933
 20
78.94587572333498
 30
0.0
 10
135.0495933428502
 20
78.62884728760962
 30
0.0
  0
LINE
  5
105
330
1F
100
AcDbEntity
  8
0
  6
Continuous
 62
     7
370
    25
100
AcDbLine
 10
135.0495933429
 20
78.6288472876
 30
0.0
 11
131.4043169015
 21
78.6288472876
 31
0.0
  0
LINE
  5
106
330
1F
100
AcDbEntity
  8
0
  6
Continuous
 62
     7
370
    25
100
AcDbLine
 10
131.350727063
 20
79.0430933872
 30
0.0
 11
131.4043169015
 21
78.6288472876
 31
0.0
  0
LINE
  5
107
330
1F
100
AcDbEntity
  8
0
  6
Continuous
 62
     7
370
    25
100
AcDbLine
 10
131.2971372246
 20
78.6288472876
 30
0.0
 11
131.350727063
 21
79.0430933872
 31
0.0
  0
LINE
  5
108
330
1F
100
AcDbEntity
  8
0
  6
Continuous
 62
     7
370
    25
100
AcDbLine
 10
131.2971372246
 20
78.6288472876
 30
0.0
 11
127.6518607832
 21
78.6288472876
 31
0.0
  0
SPLINE
  5
109
330
1F
100
AcDbEntity
  8
0
  6
Continuous
 62
     7
370
    25
100
AcDbSpline
210
0.0
220
0.0
230
1.0
 70
     8
 71
     3
 72
    14
 73
    10
 74
     0
 42
0.000000001
 43
0.00000001
 40
0.0
 40
0.0
 40
0.0
 40
0.0
 40
0.191215689056541
 40
0.3842607734904397
 40
0.5102055247845747
 40
0.6361523096967548
 40
0.7654545707989291
 40
0.8947932191925944
 40
1.0
 40
1.0
 40
1.0
 40
1.0
 10
127.6518607832398
 20
87.86645159464365
 30
0.0
 10
127.4983282278927
 20
87.28850406944147
 30
0.0
 10
127.1897942432352
 20
86.12707968963858
 30
0.0
 10
126.9713783792117
 20
84.54240963001337
 30
0.0
 10
126.921375969804
 20
83.15145031987504
 30
0.0
 10
126.9798056143063
 20
81.95992380936568
 30
0.0
 10
127.1401851682143
 20
80.76755774761828
 30
0.0
 10
127.3694976530359
 20
79.65265117977887
 30
0.0
 10
127.5644249547967
 20
78.94587572333498
 30
0.0
 10
127.6518607832398
 20
78.6288472876096
 30
0.0
  0
LINE
  5
10A
330
1F
100
AcDbEntity
  8
0
  6
Continuous
 62
     7
370
    25
100
AcDbLine
 10
131.2971372246
 20
87.8664515946
 30
0.0
 11
127.6518607832
 21
87.8664515946
 31
0.0
  0
LINE
  5
10B
330
1F
100
AcDbEntity
  8
0
  6
Continuous
 62
     7
370
    25
100
AcDbLine
 10
131.350727063
 20
87.452205495
 30
0.0
 11
131.2971372246
 21
87.8664515946
 31
0.0
  0
LINE
  5
10C
330
1F
100
AcDbEntity
  8
0
  6
Continuous
 62
     7
370
    25
100
AcDbLine
 10
131.4043169015
 20
87.8664515946
 30
0.0
 11
131.350727063
 21
87.452205495
 31
0.0
  0
SPLINE
  5
10D
330
1F
100
AcDbEntity
  8
0
  6
Continuous
 62
     7
370
    25
100
AcDbSpline
210
0.0
220
0.0
230
1.0
 70
     8
 71
     3
 72
    15
 73
    11
 74
     0
 42
0.000000001
 43
0.00000001
 40
0.0
 40
0.0
 40
0.0
 40
0.0
 40
0.13230496641634
 40
0.2645725257576539
 40
0.3997989469058926
 40
0.5350009659368332
 40
0.6501921044151403
 40
0.765401211680801
 40
0.8826892657702315
 40
1.0
 40
1.0
 40
1.0
 40
1.0
 10
135.0495933428502
 20
78.62884728760962
 30
0.0
 10
135.1583648703935
 20
78.42929706954048
 30
0.0
 10
135.3758771721015
 20
78.03025305297724
 30
0.0
 10
135.6099123648971
 20
77.41576063748273
 30
0.0
 10
135.7506316208461
 20
76.78968496547581
 30
0.0
 10
135.7785009045696
 20
76.18628721228478
 30
0.0
 10
135.7061991062152
 20
75.6154870102687
 30
0.0
 10
135.5580491262361
 20
75.07679112895487
 30
0.0
 10
135.3407289675315
 20
74.54053083568131
 30
0.0
 10
135.1466448055228
 20
74.18688509767476
 30
0.0
 10
135.0495933428502
 20
74.01004513409264
 30
0.0
  0
SPLINE
  5
10E
330
1F
100
AcDbEntity
  8
0
  6
Continuous
 62
     7
370
    25
100
AcDbSpline
210
0.0
220
0.0
230
1.0
 70
     8
 71
     3
 72
    15
 73
    11
 74
     0
 42
0.000000001
 43
0.00000001
 40
0.0
 40
0.0
 40
0.0
 40
0.0
 40
0.13230496641634
 40
0.264572525757654
 40
0.3997989469058927
 40
0.5350009659368332
 40
0.6501921044151403
 40
0.765401211680801
 40
0.8826892657702317
 40
1.0
 40
1.0
 40
1.0
 40
1.0
 10
135.0495933428502
 20
92.48525374816067
 30
0.0
 10
135.1583648703935
 20
92.28570353009155
 30
0.0
 10
135.3758771721015
 20
91.8866595135283
 30
0.0
 10
135.6099123648971
 20
91.27216709803379
 30
0.0
 10
135.7506316208461
 20
90.64609142602687
 30
0.0
 10
135.7785009045696
 20
90.04269367283582
 30
0.0
 10
135.7061991062152
 20
89.47189347081972
 30
0.0
 10
135.5580491262361
 20
88.9331975895059
 30
0.0
 10
135.3407289675315
 20
88.39693729623232
 30
0.0
 10
135.1466448055228
 20
88.04329155822576
 30
0.0
 10
135.0495933428502
 20
87.86645159464365
 30
0.0
  0
LINE
  5
10F
330
1F
100
AcDbEntity
  8
0
  6
Continuous
 62
     7
370
    25
100
AcDbLine
 10
135.850727063
 20
91.0976494411
 30
0.0
 11
135.850727063
 21
75.3976494411
 31
0.0
  0
LINE
  5
110
330
1F
100
AcDbEntity
  8
0
  6
Continuous
 62
     7
370
    25
100
AcDbLine
 10
135.0495933429
 20
92.4852537482
 30
0.0
 11
131.4043169015
 21
92.4852537482
 31
0.0
  0
LINE
  5
111
330
1F
100
AcDbEntity
  8
0
  6
Continuous
 62
     7
370
    25
100
AcDbLine
 10
131.350727063
 20
88.0735746444
 30
0.0
 11
131.4043169015
 21
87.8664515946
 31
0.0
  0
LINE
  5
112
330
1F
100
AcDbEntity
  8
0
  6
Continuous
 62
     7
370
    25
100
AcDbLine
 10
131.2971372246
 20
87.8664515946
 30
0.0
 11
131.350727063
 21
88.0735746444
 31
0.0
  0
SPLINE
  5
113
330
1F
100
AcDbEntity
  8
0
  6
Continuous
 62
     7
370
    25
100
AcDbSpline
210
0.0
220
0.0
230
1.0
 70
     8
 71
     3
 72
    15
 73
    11
 74
     0
 42
0.000000001
 43
0.00000001
 40
0.0
 40
0.0
 40
0.0
 40
0.0
 40
0.13230496641634
 40
0.2645725257576541
 40
0.3997989469058928
 40
0.5350009659368333
 40
0.6501921044151404
 40
0.7654012116808011
 40
0.882689265770232
 40
1.0
 40
1.0
 40
1.0
 40
1.0
 10
127.6518607832398
 20
92.48525374816067
 30
0.0
 10
127.5430892556966
 20
92.28570353009155
 30
0.0
 10
127.3255769539885
 20
91.8866595135283
 30
0.0
 10
127.0915417611929
 20
91.27216709803379
 30
0.0
 10
126.9508225052439
 20
90.64609142602687
 30
0.0
 10
126.9229532215204
 20
90.04269367283582
 30
0.0
 10
126.9952550198748
 20
89.47189347081972
 30
0.0
 10
127.1434049998539
 20
88.9331975895059
 30
0.0
 10
127.3607251585586
 20
88.39693729623232
 30
0.0
 10
127.5548093205672
 20
88.04329155822576
 30
0.0
 10
127.6518607832398
 20
87.86645159464365
 30
0.0
  0
LINE
  5
114
330
1F
100
AcDbEntity
  8
0
  6
Continuous
 62
     7
370
    25
100
AcDbLine
 10
131.2971372246
 20
92.4852537482
 30
0.0
 11
127.6518607832
 21
92.4852537482
 31
0.0
  0
LINE
  5
115
330
1F
100
AcDbEntity
  8
0
  6
Continuous
 62
     7
370
    25
100
AcDbLine
 10
131.350727063
 20
92.2781306984
 30
0.0
 11
131.2971372246
 21
92.4852537482
 31
0.0
  0
LINE
  5
116
330
1F
100
AcDbEntity
  8
0
  6
Continuous
 62
     7
370
    25
100
AcDbLine
 10
131.4043169015
 20
92.4852537482
 30
0.0
 11
131.350727063
 21
92.2781306984
 31
0.0
  0
LINE
  5
117
330
1F
100
AcDbEntity
  8
0
  6
Continuous
 62
     7
370
    25
100
AcDbLine
 10
131.350727063
 20
88.0735746444
 30
0.0
 11
131.350727063
 21
87.452205495
 31
0.0
  0
SPLINE
  5
118
330
1F
100
AcDbEntity
  8
0
  6
Continuous
 62
     7
370
    25
100
AcDbSpline
210
0.0
220
0.0
230
1.0
 70
     8
 71
     3
 72
    15
 73
    11
 74
     0
 42
0.000000001
 43
0.00000001
 40
0.0
 40
0.0
 40
0.0
 40
0.0
 40
0.13230496641634
 40
0.2645725257576539
 40
0.3997989469058927
 40
0.5350009659368332
 40
0.6501921044151403
 40
0.765401211680801
 40
0.8826892657702315
 40
1.0
 40
1.0
 40
1.0
 40
1.0
 10
127.6518607832398
 20
78.62884728760962
 30
0.0
 10
127.5430892556966
 20
78.42929706954048
 30
0.0
 10
127.3255769539885
 20
78.03025305297724
 30
0.0
 10
127.0915417611929
 20
77.41576063748273
 30
0.0
 10
126.9508225052439
 20
76.78968496547581
 30
0.0
 10
126.9229532215204
 20
76.1862872122848
 30
0.0
 10
126.9952550198748
 20
75.6154870102687
 30
0.0
 10
127.1434049998539
 20
75.07679112895487
 30
0.0
 10
127.3607251585586
 20
74.54053083568131
 30
0.0
 10
127.5548093205672
 20
74.18688509767476
 30
0.0
 10
127.6518607832398
 20
74.01004513409264
 30
0.0
  0
LINE
  5
119
330
1F
100
AcDbEntity
  8
0
  6
Continuous
 62
     7
370
    25
100
AcDbLine
 10
126.850727063
 20
91.0976494411
 30
0.0
 11
126.850727063
 21
75.3976494411
 31
0.0
  0
LINE
  5
11A
330
1F
100
AcDbEntity
  8
0
  6
Continuous
 62
     7
370
    25
100
AcDbLine
 10
131.350727063
 20
79.0430933872
 30
0.0
 11
131.350727063
 21
78.4217242378
 31
0.0
  0
LINE
  5
11B
330
1F
100
AcDbEntity
  8
0
  6
Continuous
 62
     7
370
    25
100
AcDbLine
 10
131.350727063
 20
78.4217242378
 30
0.0
 11
131.2971372246
 21
78.6288472876
 31
0.0
  0
LINE
  5
11C
330
1F
100
AcDbEntity
  8
0
  6
Continuous
 62
     7
370
    25
100
AcDbLine
 10
131.4043169015
 20
78.6288472876
 30
0.0
 11
131.350727063
 21
78.4217242378
 31
0.0
  0
LINE
  5
11D
330
1F
100
AcDbEntity
  8
0
  6
Continuous
 62
     7
370
    25
100
AcDbLine
 10
135.0495933429
 20
74.0100451341
 30
0.0
 11
131.4043169015
 21
74.0100451341
 31
0.0
  0
LINE
  5
11E
330
1F
100
AcDbEntity
  8
0
  6
Continuous
 62
     7
370
    25
100
AcDbLine
 10
131.350727063
 20
74.2171681839
 30
0.0
 11
131.4043169015
 21
74.0100451341
 31
0.0
  0
LINE
  5
11F
330
1F
100
AcDbEntity
  8
0
  6
Continuous
 62
     7
370
    25
100
AcDbLine
 10
131.2971372246
 20
74.0100451341
 30
0.0
 11
131.350727063
 21
74.2171681839
 31
0.0
  0
LINE
  5
120
330
1F
100
AcDbEntity
  8
0
  6
Continuous
 62
     7
370
    25
100
AcDbLine
 10
131.2971372246
 20
74.0100451341
 30
0.0
 11
127.6518607832
 21
74.0100451341
 31
0.0
  0
LINE
  5
121
330
1F
100
AcDbEntity
  8
0
  6
Continuous
 62
     7
370
    25
100
AcDbLine
 10
137.850727063
 20
90.7976494411
 30
0.0
 11
137.850727063
 21
75.6976494411
 31
0.0
  0
LINE
  5
122
330
1F
100
AcDbEntity
  8
0
  6
Continuous
 62
     7
370
    25
100
AcDbLine
 10
124.850727063
 20
83.2476494411
 30
0.0
 11
124.850727063
 21
90.7976494411
 31
0.0
  0
LINE
  5
123
330
1F
100
AcDbEntity
  8
0
  6
Continuous
 62
     7
370
    25
100
AcDbLine
 10
124.850727063
 20
75.6976494411
 30
0.0
 11
124.850727063
 21
83.2476494411
 31
0.0
  0
LINE
  5
124
330
1F
100
AcDbEntity
  8
0
  6
Continuous
 62
     7
370
    25
100
AcDbLine
 10
131.350727063
 20
92.2852537482
 30
0.0
 11
131.350727063
 21
92.2781306984
 31
0.0
  0
LINE
  5
125
330
1F
100
AcDbEntity
  8
0
  6
Continuous
 62
     7
370
    25
100
AcDbLine
 10
131.350727063
 20
74.2171681839
 30
0.0
 11
131.350727063
 21
74.2100451341
 31
0.0
  0
LINE
  5
126
330
1F
100
AcDbEntity
  8
0
  6
Continuous
 62
     7
370
    25
100
AcDbLine
 10
141.874564331
 20
79.2061975568
 30
0.0
 11
143.5246272236
 21
79.2061975568
 31
0.0
  0
SPLINE
  5
127
330
1F
100
AcDbEntity
  8
0
  6
Continuous
 62
     7
370
    25
100
AcDbSpline
210
0.0
220
0.0
230
1.0
 70
     8
 71
     3
 72
    14
 73
    10
 74
     0
 42
0.000000001
 43
0.00000001
 40
0.0
 40
0.0
 40
0.0
 40
0.0
 40
0.2500000000000001
 40
0.2500000000000001
 40
0.5000000000000001
 40
0.5000000000000001
 40
0.7500000000000001
 40
0.7500000000000001
 40
1.0
 40
1.0
 40
1.0
 40
1.0
 10
141.8745643310061
 20
79.20619755679934
 30
0.0
 10
141.6844925254127
 20
79.8646256055476
 30
0.0
 10
141.5254975978744
 20
80.53761654281678
 30
0.0
 10
141.3080615030824
 20
81.88628936188823
 30
0.0
 10
141.2492599581445
 20
82.5651156433336
 30
0.0
 10
141.2494393476015
 20
83.93336246302047
 30
0.0
 10
141.3099909744051
 20
84.62598910758335
 30
0.0
 10
141.5289534142924
 20
85.97398031709851
 30
0.0
 10
141.6859289779024
 20
86.63564929409573
 30
0.0
 10
141.8745643310061
 20
87.28910132545411
 30
0.0
  0
LINE
  5
128
330
1F
100
AcDbEntity
  8
0
  6
Continuous
 62
     7
370
    25
100
AcDbLine
 10
141.874564331
 20
87.2891013255
 30
0.0
 11
143.5246272236
 21
87.2891013255
 31
0.0
  0
SPLINE
  5
129
330
1F
100
AcDbEntity
  8
0
  6
Continuous
 62
     7
370
    25
100
AcDbSpline
210
0.0
220
0.0
230
1.0
 70
     8
 71
     3
 72
     8
 73
     4
 74
     0
 42
0.000000001
 43
0.00000001
 40
0.0
 40
0.0
 40
0.0
 40
0.0
 40
1.0
 40
1.0
 40
1.0
 40
1.0
 10
143.6050119813694
 20
86.64964754108806
 30
0.0
 10
143.5800123093751
 20
86.86309424467838
 30
0.0
 10
143.5531460685881
 20
87.07623376881497
 30
0.0
 10
143.52462722364
 20
87.28910132545411
 30
0.0
  0
SPLINE
  5
12A
330
1F
100
AcDbEntity
  8
0
  6
Continuous
 62
     7
370
    25
100
AcDbSpline
210
0.0
220
0.0
230
1.0
 70
     8
 71
     3
 72
     8
 73
     4
 74
     0
 42
0.000000001
 43
0.00000001
 40
0.0
 40
0.0
 40
0.0
 40
0.0
 40
1.0
 40
1.0
 40
1.0
 40
1.0
 10
143.6853967390987
 20
87.28910132545411
 30
0.0
 10
143.6568606087831
 20
87.07610474907536
 30
0.0
 10
143.6299958935996
 20
86.8629596881264
 30
0.0
 10
143.6050119813694
 20
86.64964754108806
 30
0.0
  0
LINE
  5
12B
330
1F
100
AcDbEntity
  8
0
  6
Continuous
 62
     7
370
    25
100
AcDbLine
 10
143.6853967391
 20
87.2891013255
 30
0.0
 11
145.3354596317
 21
87.2891013255
 31
0.0
  0
SPLINE
  5
12C
330
1F
100
AcDbEntity
  8
0
  6
Continuous
 62
     7
370
    25
100
AcDbSpline
210
0.0
220
0.0
230
1.0
 70
     8
 71
     3
 72
    14
 73
    10
 74
     0
 42
0.000000001
 43
0.00000001
 40
0.0
 40
0.0
 40
0.0
 40
0.0
 40
0.25
 40
0.25
 40
0.5
 40
0.5
 40
0.75
 40
0.75
 40
1.0
 40
1.0
 40
1.0
 40
1.0
 10
145.3354596317326
 20
79.20619755679905
 30
0.0
 10
145.525531437326
 20
79.86462560554735
 30
0.0
 10
145.6845263648643
 20
80.53761654281655
 30
0.0
 10
145.9019624596563
 20
81.88628936188805
 30
0.0
 10
145.9607640045942
 20
82.56511564333344
 30
0.0
 10
145.9605846151373
 20
83.93336246302034
 30
0.0
 10
145.9000329883337
 20
84.62598910758327
 30
0.0
 10
145.6810705484464
 20
85.97398031709847
 30
0.0
 10
145.5240949848364
 20
86.6356492940957
 30
0.0
 10
145.3354596317327
 20
87.28910132545411
 30
0.0
  0
LINE
  5
12D
330
1F
100
AcDbEntity
  8
0
  6
Continuous
 62
     7
370
    25
100
AcDbLine
 10
143.6853967391
 20
79.2061975568
 30
0.0
 11
145.3354596317
 21
79.2061975568
 31
0.0
  0
SPLINE
  5
12E
330
1F
100
AcDbEntity
  8
0
  6
Continuous
 62
     7
370
    25
100
AcDbSpline
210
0.0
220
0.0
230
1.0
 70
     8
 71
     3
 72
     8
 73
     4
 74
     0
 42
0.000000001
 43
0.00000001
 40
0.0
 40
0.0
 40
0.0
 40
0.0
 40
1.0
 40
1.0
 40
1.0
 40
1.0
 10
143.6050119813694
 20
79.8456513411654
 30
0.0
 10
143.6300116533636
 20
79.63220463757509
 30
0.0
 10
143.6568778941506
 20
79.41906511343848
 30
0.0
 10
143.6853967390987
 20
79.20619755679934
 30
0.0
  0
SPLINE
  5
12F
330
1F
100
AcDbEntity
  8
0
  6
Continuous
 62
     7
370
    25
100
AcDbSpline
210
0.0
220
0.0
230
1.0
 70
     8
 71
     3
 72
     8
 73
     4
 74
     0
 42
0.000000001
 43
0.00000001
 40
0.0
 40
0.0
 40
0.0
 40
0.0
 40
1.0
 40
1.0
 40
1.0
 40
1.0
 10
143.52462722364
 20
79.20619755679934
 30
0.0
 10
143.5531633539557
 20
79.41919413317811
 30
0.0
 10
143.5800280691391
 20
79.63233919412707
 30
0.0
 10
143.6050119813694
 20
79.8456513411654
 30
0.0
  0
LINE
  5
130
330
1F
100
AcDbEntity
  8
0
  6
Continuous
 62
     7
370
    25
100
AcDbLine
 10
141.874564331
 20
75.1647456725
 30
0.0
 11
143.5246272236
 21
75.1647456725
 31
0.0
  0
SPLINE
  5
131
330
1F
100
AcDbEntity
  8
0
  6
Continuous
 62
     7
370
    25
100
AcDbSpline
210
0.0
220
0.0
230
1.0
 70
     8
 71
     3
 72
    16
 73
    12
 74
     0
 42
0.000000001
 43
0.00000001
 40
0.0
 40
0.0
 40
0.0
 40
0.0
 40
0.2499999999999998
 40
0.2499999999999998
 40
0.4999999999999997
 40
0.4999999999999997
 40
0.6249999999999997
 40
0.6249999999999997
 40
0.7499999999999997
 40
0.7499999999999997
 40
1.0
 40
1.0
 40
1.0
 40
1.0
 10
141.8745643310056
 20
75.16474567247187
 30
0.0
 10
141.6840698600208
 20
75.49469177477845
 30
0.0
 10
141.5270678468077
 20
75.82704351608817
 30
0.0
 10
141.3095690359697
 20
76.49867861036192
 30
0.0
 10
141.2497896748996
 20
76.83801349413238
 30
0.0
 10
141.2491331740456
 20
77.35340926040259
 30
0.0
 10
141.2637469405291
 20
77.52601602090307
 30
0.0
 10
141.320732798406
 20
77.86745043342161
 30
0.0
 10
141.3630470676652
 20
78.0370229361656
 30
0.0
 10
141.5264418875554
 20
78.5427214357171
 30
0.0
 10
141.6838324148688
 20
78.87584018742511
 30
0.0
 10
141.8745643310058
 20
79.20619755679937
 30
0.0
  0
SPLINE
  5
132
330
1F
100
AcDbEntity
  8
0
  6
Continuous
 62
     7
370
    25
100
AcDbSpline
210
0.0
220
0.0
230
1.0
 70
     8
 71
     3
 72
     8
 73
     4
 74
     0
 42
0.000000001
 43
0.00000001
 40
0.0
 40
0.0
 40
0.0
 40
0.0
 40
1.0
 40
1.0
 40
1.0
 40
1.0
 10
143.6050119813694
 20
78.88647066461631
 30
0.0
 10
143.5800115684467
 20
78.99319717942777
 30
0.0
 10
143.5531452569865
 20
79.09976680741856
 30
0.0
 10
143.52462722364
 20
79.20619755679934
 30
0.0
  0
SPLINE
  5
133
330
1F
100
AcDbEntity
  8
0
  6
Continuous
 62
     7
370
    25
100
AcDbSpline
210
0.0
220
0.0
230
1.0
 70
     8
 71
     3
 72
     8
 73
     4
 74
     0
 42
0.000000001
 43
0.00000001
 40
0.0
 40
0.0
 40
0.0
 40
0.0
 40
1.0
 40
1.0
 40
1.0
 40
1.0
 10
143.6853967390987
 20
79.20619755679934
 30
0.0
 10
143.6568629242606
 20
79.09970791008982
 30
0.0
 10
143.6299980024538
 20
78.99313574081303
 30
0.0
 10
143.6050119813694
 20
78.88647066461631
 30
0.0
  0
SPLINE
  5
134
330
1F
100
AcDbEntity
  8
0
  6
Continuous
 62
     7
370
    25
100
AcDbSpline
210
0.0
220
0.0
230
1.0
 70
     8
 71
     3
 72
    16
 73
    12
 74
     0
 42
0.000000001
 43
0.00000001
 40
0.0
 40
0.0
 40
0.0
 40
0.0
 40
0.2500000000000001
 40
0.2500000000000001
 40
0.5000000000000001
 40
0.5000000000000001
 40
0.6250000000000001
 40
0.6250000000000001
 40
0.7500000000000002
 40
0.7500000000000002
 40
1.0
 40
1.0
 40
1.0
 40
1.0
 10
145.3354596317332
 20
75.16474567247187
 30
0.0
 10
145.5259541027179
 20
75.49469177477845
 30
0.0
 10
145.682956115931
 20
75.82704351608815
 30
0.0
 10
145.9004549267691
 20
76.49867861036188
 30
0.0
 10
145.9602342878391
 20
76.83801349413233
 30
0.0
 10
145.9608907886931
 20
77.35340926040251
 30
0.0
 10
145.9462770222096
 20
77.526016020903
 30
0.0
 10
145.8892911643328
 20
77.86745043342152
 30
0.0
 10
145.8469768950736
 20
78.03702293616551
 30
0.0
 10
145.6835820751834
 20
78.54272143571698
 30
0.0
 10
145.52619154787
 20
78.875840187425
 30
0.0
 10
145.335459631733
 20
79.20619755679924
 30
0.0
  0
LINE
  5
135
330
1F
100
AcDbEntity
  8
0
  6
Continuous
 62
     7
370
    25
100
AcDbLine
 10
143.6853967391
 20
75.1647456725
 30
0.0
 11
145.3354596317
 21
75.1647456725
 31
0.0
  0
SPLINE
  5
136
330
1F
100
AcDbEntity
  8
0
  6
Continuous
 62
     7
370
    25
100
AcDbSpline
210
0.0
220
0.0
230
1.0
 70
     8
 71
     3
 72
     8
 73
     4
 74
     0
 42
0.000000001
 43
0.00000001
 40
0.0
 40
0.0
 40
0.0
 40
0.0
 40
1.0
 40
1.0
 40
1.0
 40
1.0
 10
143.6050119813694
 20
75.48447256465492
 30
0.0
 10
143.6300123942921
 20
75.37774604984347
 30
0.0
 10
143.6568787057523
 20
75.27117642185267
 30
0.0
 10
143.6853967390987
 20
75.1647456724719
 30
0.0
  0
SPLINE
  5
137
330
1F
100
AcDbEntity
  8
0
  6
Continuous
 62
     7
370
    25
100
AcDbSpline
210
0.0
220
0.0
230
1.0
 70
     8
 71
     3
 72
     8
 73
     4
 74
     0
 42
0.000000001
 43
0.00000001
 40
0.0
 40
0.0
 40
0.0
 40
0.0
 40
1.0
 40
1.0
 40
1.0
 40
1.0
 10
143.52462722364
 20
75.1647456724719
 30
0.0
 10
143.5531610384782
 20
75.27123531918143
 30
0.0
 10
143.5800259602849
 20
75.3778074884582
 30
0.0
 10
143.6050119813694
 20
75.48447256465492
 30
0.0
  0
LINE
  5
138
330
1F
100
AcDbEntity
  8
0
  6
Continuous
 62
     7
370
    25
100
AcDbLine
 10
143.6050119814
 20
78.8864706646
 30
0.0
 11
143.6050119814
 21
79.8456513412
 31
0.0
  0
SPLINE
  5
139
330
1F
100
AcDbEntity
  8
0
  6
Continuous
 62
     7
370
    25
100
AcDbSpline
210
0.0
220
0.0
230
1.0
 70
     8
 71
     3
 72
     8
 73
     4
 74
     0
 42
0.000000001
 43
0.00000001
 40
0.0
 40
0.0
 40
0.0
 40
0.0
 40
1.0
 40
1.0
 40
1.0
 40
1.0
 10
143.52462722364
 20
87.28910132545411
 30
0.0
 10
143.5531610384782
 20
87.39559097216365
 30
0.0
 10
143.5800259602849
 20
87.50216314144043
 30
0.0
 10
143.6050119813694
 20
87.60882821763714
 30
0.0
  0
LINE
  5
13A
330
1F
100
AcDbEntity
  8
0
  6
Continuous
 62
     7
370
    25
100
AcDbLine
 10
143.6050119814
 20
86.6496475411
 30
0.0
 11
143.6050119814
 21
87.6088282176
 31
0.0
  0
SPLINE
  5
13B
330
1F
100
AcDbEntity
  8
0
  6
Continuous
 62
     7
370
    25
100
AcDbSpline
210
0.0
220
0.0
230
1.0
 70
     8
 71
     3
 72
    16
 73
    12
 74
     0
 42
0.000000001
 43
0.00000001
 40
0.0
 40
0.0
 40
0.0
 40
0.0
 40
0.2499999999999999
 40
0.2499999999999999
 40
0.4999999999999998
 40
0.4999999999999998
 40
0.6249999999999998
 40
0.6249999999999998
 40
0.7499999999999999
 40
0.7499999999999999
 40
1.0
 40
1.0
 40
1.0
 40
1.0
 10
145.3354596317332
 20
87.28910132545408
 30
0.0
 10
145.5259541027179
 20
87.61904742776068
 30
0.0
 10
145.682956115931
 20
87.95139916907037
 30
0.0
 10
145.9004549267691
 20
88.62303426334408
 30
0.0
 10
145.9602342878391
 20
88.96236914711456
 30
0.0
 10
145.9608907886931
 20
89.47776491338473
 30
0.0
 10
145.9462770222096
 20
89.65037167388522
 30
0.0
 10
145.8892911643328
 20
89.99180608640374
 30
0.0
 10
145.8469768950735
 20
90.16137858914773
 30
0.0
 10
145.6835820751834
 20
90.6670770886992
 30
0.0
 10
145.52619154787
 20
91.0001958404072
 30
0.0
 10
145.3354596317329
 20
91.33055320978144
 30
0.0
  0
LINE
  5
13C
330
1F
100
AcDbEntity
  8
0
  6
Continuous
 62
     7
370
    25
100
AcDbLine
 10
146.1050119814
 20
83.2476494411
 30
0.0
 11
146.1050119814
 21
89.9976494411
 31
0.0
  0
LINE
  5
13D
330
1F
100
AcDbEntity
  8
0
  6
Continuous
 62
     7
370
    25
100
AcDbLine
 10
146.1050119814
 20
76.4976494411
 30
0.0
 11
146.1050119814
 21
83.2476494411
 31
0.0
  0
SPLINE
  5
13E
330
1F
100
AcDbEntity
  8
0
  6
Continuous
 62
     7
370
    25
100
AcDbSpline
210
0.0
220
0.0
230
1.0
 70
     8
 71
     3
 72
    16
 73
    12
 74
     0
 42
0.000000001
 43
0.00000001
 40
0.0
 40
0.0
 40
0.0
 40
0.0
 40
0.2499999999999999
 40
0.2499999999999999
 40
0.4999999999999998
 40
0.4999999999999998
 40
0.6249999999999998
 40
0.6249999999999998
 40
0.7499999999999999
 40
0.7499999999999999
 40
1.0
 40
1.0
 40
1.0
 40
1.0
 10
141.8745643310056
 20
87.28910132545408
 30
0.0
 10
141.6840698600208
 20
87.61904742776068
 30
0.0
 10
141.5270678468077
 20
87.95139916907037
 30
0.0
 10
141.3095690359697
 20
88.62303426334408
 30
0.0
 10
141.2497896748996
 20
88.96236914711456
 30
0.0
 10
141.2491331740457
 20
89.47776491338473
 30
0.0
 10
141.2637469405292
 20
89.65037167388522
 30
0.0
 10
141.320732798406
 20
89.99180608640374
 30
0.0
 10
141.3630470676652
 20
90.16137858914773
 30
0.0
 10
141.5264418875554
 20
90.6670770886992
 30
0.0
 10
141.6838324148688
 20
91.0001958404072
 30
0.0
 10
141.8745643310058
 20
91.33055320978144
 30
0.0
  0
LINE
  5
13F
330
1F
100
AcDbEntity
  8
0
  6
Continuous
 62
     7
370
    25
100
AcDbLine
 10
141.1050119814
 20
83.2476494411
 30
0.0
 11
141.1050119814
 21
89.9976494411
 31
0.0
  0
LINE
  5
140
330
1F
100
AcDbEntity
  8
0
  6
Continuous
 62
     7
370
    25
100
AcDbLine
 10
141.1050119814
 20
76.4976494411
 30
0.0
 11
141.1050119814
 21
83.2476494411
 31
0.0
  0
SPLINE
  5
141
330
1F
100
AcDbEntity
  8
0
  6
Continuous
 62
     7
370
    25
100
AcDbSpline
210
0.0
220
0.0
230
1.0
 70
     8
 71
     3
 72
     8
 73
     4
 74
     0
 42
0.000000001
 43
0.00000001
 40
0.0
 40
0.0
 40
0.0
 40
0.0
 40
1.0
 40
1.0
 40
1.0
 40
1.0
 10
143.6050119813694
 20
87.60882821763714
 30
0.0
 10
143.6300123942921
 20
87.5021017028257
 30
0.0
 10
143.6568787057523
 20
87.3955320748349
 30
0.0
 10
143.6853967390987
 20
87.28910132545411
 30
0.0
  0
LINE
  5
142
330
1F
100
AcDbEntity
  8
0
  6
Continuous
 62
     7
370
    25
100
AcDbLine
 10
141.874564331
 20
91.3305532098
 30
0.0
 11
143.5246272236
 21
91.3305532098
 31
0.0
  0
SPLINE
  5
143
330
1F
100
AcDbEntity
  8
0
  6
Continuous
 62
     7
370
    25
100
AcDbSpline
210
0.0
220
0.0
230
1.0
 70
     8
 71
     3
 72
     8
 73
     4
 74
     0
 42
0.000000001
 43
0.00000001
 40
0.0
 40
0.0
 40
0.0
 40
0.0
 40
1.0
 40
1.0
 40
1.0
 40
1.0
 10
143.6050119813694
 20
91.0108263175984
 30
0.0
 10
143.5800115684467
 20
91.11755283240984
 30
0.0
 10
143.5531452569865
 20
91.22412246040064
 30
0.0
 10
143.52462722364
 20
91.33055320978143
 30
0.0
  0
SPLINE
  5
144
330
1F
100
AcDbEntity
  8
0
  6
Continuous
 62
     7
370
    25
100
AcDbSpline
210
0.0
220
0.0
230
1.0
 70
     8
 71
     3
 72
     8
 73
     4
 74
     0
 42
0.000000001
 43
0.00000001
 40
0.0
 40
0.0
 40
0.0
 40
0.0
 40
1.0
 40
1.0
 40
1.0
 40
1.0
 10
143.6853967390987
 20
91.33055320978143
 30
0.0
 10
143.6568629242606
 20
91.2240635630719
 30
0.0
 10
143.6299980024538
 20
91.1174913937951
 30
0.0
 10
143.6050119813694
 20
91.0108263175984
 30
0.0
  0
LINE
  5
145
330
1F
100
AcDbEntity
  8
0
  6
Continuous
 62
     7
370
    25
100
AcDbLine
 10
143.6853967391
 20
91.3305532098
 30
0.0
 11
145.3354596317
 21
91.3305532098
 31
0.0
  0
LINE
  5
146
330
1F
100
AcDbEntity
  8
0
  6
Continuous
 62
     7
370
    25
100
AcDbLine
 10
138.1050119814
 20
83.2476494411
 30
0.0
 11
138.1050119814
 21
89.8261494411
 31
0.0
  0
LINE
  5
147
330
1F
100
AcDbEntity
  8
0
  6
Continuous
 62
     7
370
    25
100
AcDbLine
 10
138.1050119814
 20
76.6691494411
 30
0.0
 11
138.1050119814
 21
83.2476494411
 31
0.0
  0
LINE
  5
148
330
1F
100
AcDbEntity
  8
0
  6
Continuous
 62
     7
370
    25
100
AcDbLine
 10
139.1050119814
 20
83.2476494411
 30
0.0
 11
139.1050119814
 21
77.6691494411
 31
0.0
  0
LINE
  5
149
330
1F
100
AcDbEntity
  8
0
  6
Continuous
 62
     7
370
    25
100
AcDbLine
 10
139.1050119814
 20
88.8261494411
 30
0.0
 11
139.1050119814
 21
83.2476494411
 31
0.0
  0
LINE
  5
14A
330
1F
100
AcDbEntity
  8
0
  6
Continuous
 62
     7
370
    25
100
AcDbLine
 10
149.1050119814
 20
89.8261494411
 30
0.0
 11
149.1050119814
 21
76.6691494411
 31
0.0
  0
LINE
  5
14B
330
1F
100
AcDbEntity
  8
0
  6
Continuous
 62
     7
370
    25
100
AcDbLine
 10
148.1050119814
 20
77.6691494411
 30
0.0
 11
148.1050119814
 21
88.8261494411
 31
0.0
  0
LINE
  5
14C
330
1F
100
AcDbEntity
  8
0
  6
Continuous
 62
     7
370
    25
100
AcDbLine
 10
143.6050119814
 20
75.4647456725
 30
0.0
 11
143.6050119814
 21
75.4844725647
 31
0.0
  0
LINE
  5
14D
330
1F
100
AcDbEntity
  8
0
  6
Continuous
 62
     7
370
    25
100
AcDbLine
 10
143.6050119814
 20
91.0108263176
 30
0.0
 11
143.6050119814
 21
91.0305532098
 31
0.0
  0
LINE
  5
14E
330
1F
100
AcDbEntity
  8
0
  6
Continuous
 62
     8
370
    25
100
AcDbLine
 10
187.6555409427
 20
80.3144782826
 30
0.0
 11
187.6555409427
 21
86.1808205997
 31
0.0
  0
LINE
  5
14F
330
1F
100
AcDbEntity
  8
0
  6
Continuous
 62
     8
370
    25
100
AcDbLine
 10
99.55448302
 20
83.2476494411
 30
0.0
 11
99.55448302
 21
80.3144782826
 31
0.0
  0
LINE
  5
150
330
1F
100
AcDbEntity
  8
0
  6
Continuous
 62
     8
370
    25
100
AcDbLine
 10
99.55448302
 20
86.1808205997
 30
0.0
 11
99.55448302
 21
83.2476494411
 31
0.0
  0
LINE
  5
151
330
1F
100
AcDbEntity
  8
0
  6
Continuous
 62
     8
370
    25
100
AcDbLine
 10
149.6592968997
 20
83.2476494411
 30
0.0
 11
149.6592968997
 21
75.3976494411
 31
0.0
  0
LINE
  5
152
330
1F
100
AcDbEntity
  8
0
  6
Continuous
 62
     8
370
    25
100
AcDbLine
 10
149.6592968997
 20
91.0976494411
 30
0.0
 11
149.6592968997
 21
83.2476494411
 31
0.0
  0
LINE
  5
153
330
1F
100
AcDbEntity
  8
0
  6
Continuous
 62
     8
370
    25
100
AcDbLine
 10
162.0592968997
 20
75.3976494411
 30
0.0
 11
162.0592968997
 21
91.0976494411
 31
0.0
  0
LINE
  5
154
330
1F
100
AcDbEntity
  8
0
  6
Continuous
 62
     8
370
    25
100
AcDbLine
 10
137.550727063
 20
75.3976494411
 30
0.0
 11
137.550727063
 21
91.0976494411
 31
0.0
  0
LINE
  5
155
330
1F
100
AcDbEntity
  8
0
  6
Continuous
 62
     8
370
    25
100
AcDbLine
 10
125.150727063
 20
83.2476494411
 30
0.0
 11
125.150727063
 21
75.3976494411
 31
0.0
  0
LINE
  5
156
330
1F
100
AcDbEntity
  8
0
  6
Continuous
 62
     8
370
    25
100
AcDbLine
 10
125.150727063
 20
91.0976494411
 30
0.0
 11
125.150727063
 21
83.2476494411
 31
0.0
  0
LINE
  5
157
330
1F
100
AcDbEntity
  8
0
  6
CENTERX2
 62
     7
370
    18
100
AcDbLine
 10
97.934670438
 20
83.2476494411
 30
0.0
 11
189.6555409427
 21
83.2476494411
 31
0.0
  0
CIRCLE
  5
158
330
1F
100
AcDbEntity
  8
0
  6
Continuous
 62
     7
370
    25
100
AcDbCircle
 10
215.2186564411
 20
83.2476494411
 30
0.0
 40
2.933171158551403
  0
CIRCLE
  5
159
330
1F
100
AcDbEntity
  8
0
  6
Continuous
 62
     7
370
    25
100
AcDbCircle
 10
215.2186564411
 20
83.2476494411
 30
0.0
 40
2.199999999999989
  0
CIRCLE
  5
15A
330
1F
100
AcDbEntity
  8
0
  6
Continuous
 62
     7
370
    25
100
AcDbCircle
 10
215.2186564411
 20
83.2476494411
 30
0.0
 40
2.0
  0
CIRCLE
  5
15B
330
1F
100
AcDbEntity
  8
0
  6
Continuous
 62
     7
370
    25
100
AcDbCircle
 10
215.2186564411
 20
83.2476494411
 30
0.0
 40
3.5
  0
CIRCLE
  5
15C
330
1F
100
AcDbEntity
  8
0
  6
Continuous
 62
     7
370
    25
100
AcDbCircle
 10
215.2186564411
 20
83.2476494411
 30
0.0
 40
4.500000000000028
  0
CIRCLE
  5
15D
330
1F
100
AcDbEntity
  8
0
  6
Continuous
 62
     7
370
    25
100
AcDbCircle
 10
215.2186564411
 20
83.2476494411
 30
0.0
 40
4.849999999999994
  0
CIRCLE
  5
15E
330
1F
100
AcDbEntity
  8
0
  6
Continuous
 62
     7
370
    25
100
AcDbCircle
 10
215.2186564411
 20
83.2476494411
 30
0.0
 40
7.550000000000011
  0
CIRCLE
  5
15F
330
1F
100
AcDbEntity
  8
0
  6
Continuous
 62
     7
370
    25
100
AcDbCircle
 10
215.2186564411
 20
83.2476494411
 30
0.0
 40
7.849999999999994
  0
CIRCLE
  5
160
330
1F
100
AcDbEntity
  8
0
  6
Continuous
 62
     7
370
    25
100
AcDbCircle
 10
215.2186564411
 20
83.2476494411
 30
0.0
 40
4.750000000000028
  0
SPLINE
  5
161
330
1F
100
AcDbEntity
  8
0
  6
Continuous
 62
     7
370
    25
100
AcDbSpline
210
0.0
220
0.0
230
1.0
 70
    24
 71
     3
 72
    15
 73
    11
 74
     0
 42
0.000000001
 43
0.00000001
 40
0.0
 40
0.0
 40
0.0
 40
0.0
 40
0.1323049664163417
 40
0.2645725257576573
 40
0.3997989469058976
 40
0.5350009659368398
 40
0.6501921044151454
 40
0.7654012116808045
 40
0.8826892657702334
 40
1.0
 40
1.0
 40
1.0
 40
1.0
 10
207.2186564410926
 20
87.86645159464376
 30
0.0
 10
207.5642875574498
 20
88.06600181271288
 30
0.0
 10
208.2554520685937
 20
88.46504582927612
 30
0.0
 10
209.3197841530959
 20
89.07953824477063
 30
0.0
 10
210.4041790263948
 20
89.70561391677755
 30
0.0
 10
211.4492945920945
 20
90.30901166996857
 30
0.0
 10
212.4379495429569
 20
90.87981187198466
 30
0.0
 10
213.3709981792206
 20
91.41850775329847
 30
0.0
 10
214.2998282532522
 20
91.95476804657203
 30
0.0
 10
214.9123606393597
 20
92.30841378457856
 30
0.0
 10
215.2186564410925
 20
92.48525374816067
 30
0.0
  0
SPLINE
  5
162
330
1F
100
AcDbEntity
  8
0
  6
Continuous
 62
     7
370
    25
100
AcDbSpline
210
0.0
220
0.0
230
1.0
 70
    24
 71
     3
 72
    15
 73
    11
 74
     0
 42
0.000000001
 43
0.00000001
 40
0.0
 40
0.0
 40
0.0
 40
0.0
 40
0.13230496641634
 40
0.2645725257576541
 40
0.3997989469058928
 40
0.5350009659368334
 40
0.6501921044151406
 40
0.7654012116808012
 40
0.8826892657702318
 40
1.0
 40
1.0
 40
1.0
 40
1.0
 10
215.2186564410925
 20
92.48525374816067
 30
0.0
 10
215.5642875574497
 20
92.28570353009154
 30
0.0
 10
216.2554520685937
 20
91.8866595135283
 30
0.0
 10
217.3197841530959
 20
91.27216709803379
 30
0.0
 10
218.4041790263947
 20
90.64609142602687
 30
0.0
 10
219.4492945920945
 20
90.04269367283582
 30
0.0
 10
220.4379495429569
 20
89.47189347081972
 30
0.0
 10
221.3709981792206
 20
88.93319758950588
 30
0.0
 10
222.2998282532522
 20
88.39693729623232
 30
0.0
 10
222.9123606393597
 20
88.04329155822576
 30
0.0
 10
223.2186564410926
 20
87.86645159464365
 30
0.0
  0
SPLINE
  5
163
330
1F
100
AcDbEntity
  8
0
  6
Continuous
 62
     7
370
    25
100
AcDbSpline
210
0.0
220
0.0
230
1.0
 70
    24
 71
     3
 72
    14
 73
    10
 74
     0
 42
0.000000001
 43
0.00000001
 40
0.0
 40
0.0
 40
0.0
 40
0.0
 40
0.191215689056541
 40
0.3842607734904396
 40
0.5102055247845747
 40
0.6361523096967547
 40
0.765454570798929
 40
0.8947932191925942
 40
1.0
 40
1.0
 40
1.0
 40
1.0
 10
223.2186564410926
 20
87.86645159464365
 30
0.0
 10
223.2186564410926
 20
87.28850406944147
 30
0.0
 10
223.2186564410926
 20
86.12707968963858
 30
0.0
 10
223.2186564410926
 20
84.54240963001337
 30
0.0
 10
223.2186564410926
 20
83.15145031987504
 30
0.0
 10
223.2186564410926
 20
81.95992380936568
 30
0.0
 10
223.2186564410926
 20
80.76755774761828
 30
0.0
 10
223.2186564410925
 20
79.65265117977886
 30
0.0
 10
223.2186564410925
 20
78.94587572333496
 30
0.0
 10
223.2186564410925
 20
78.6288472876096
 30
0.0
  0
SPLINE
  5
164
330
1F
100
AcDbEntity
  8
0
  6
Continuous
 62
     7
370
    25
100
AcDbSpline
210
0.0
220
0.0
230
1.0
 70
    24
 71
     3
 72
    15
 73
    11
 74
     0
 42
0.000000001
 43
0.00000001
 40
0.0
 40
0.0
 40
0.0
 40
0.0
 40
0.13230496641634
 40
0.2645725257576539
 40
0.3997989469058926
 40
0.5350009659368332
 40
0.6501921044151403
 40
0.7654012116808009
 40
0.8826892657702315
 40
1.0
 40
1.0
 40
1.0
 40
1.0
 10
223.2186564410925
 20
78.6288472876096
 30
0.0
 10
222.8730253247354
 20
78.42929706954048
 30
0.0
 10
222.1818608135914
 20
78.03025305297723
 30
0.0
 10
221.1175287290892
 20
77.41576063748273
 30
0.0
 10
220.0331338557904
 20
76.78968496547581
 30
0.0
 10
218.9880182900906
 20
76.18628721228478
 30
0.0
 10
217.9993633392282
 20
75.6154870102687
 30
0.0
 10
217.0663147029645
 20
75.07679112895487
 30
0.0
 10
216.1374846289329
 20
74.54053083568131
 30
0.0
 10
215.5249522428253
 20
74.18688509767475
 30
0.0
 10
215.2186564410925
 20
74.01004513409264
 30
0.0
  0
SPLINE
  5
165
330
1F
100
AcDbEntity
  8
0
  6
Continuous
 62
     7
370
    25
100
AcDbSpline
210
0.0
220
0.0
230
1.0
 70
    24
 71
     3
 72
    15
 73
    11
 74
     0
 42
0.000000001
 43
0.00000001
 40
0.0
 40
0.0
 40
0.0
 40
0.0
 40
0.13230496641634
 40
0.2645725257576539
 40
0.3997989469058927
 40
0.5350009659368332
 40
0.6501921044151403
 40
0.765401211680801
 40
0.8826892657702315
 40
1.0
 40
1.0
 40
1.0
 40
1.0
 10
215.2186564410925
 20
74.01004513409264
 30
0.0
 10
214.8730253247353
 20
74.20959535216177
 30
0.0
 10
214.1818608135914
 20
74.60863936872502
 30
0.0
 10
213.1175287290892
 20
75.22313178421955
 30
0.0
 10
212.0331338557904
 20
75.84920745622648
 30
0.0
 10
210.9880182900906
 20
76.45260520941751
 30
0.0
 10
209.9993633392282
 20
77.02340541143361
 30
0.0
 10
209.0663147029645
 20
77.56210129274746
 30
0.0
 10
208.1374846289329
 20
78.09836158602104
 30
0.0
 10
207.5249522428254
 20
78.4520073240276
 30
0.0
 10
207.2186564410925
 20
78.62884728760972
 30
0.0
  0
SPLINE
  5
166
330
1F
100
AcDbEntity
  8
0
  6
Continuous
 62
     7
370
    25
100
AcDbSpline
210
0.0
220
0.0
230
1.0
 70
    24
 71
     3
 72
    14
 73
    10
 74
     0
 42
0.000000001
 43
0.00000001
 40
0.0
 40
0.0
 40
0.0
 40
0.0
 40
0.1052068357133045
 40
0.2313210752448397
 40
0.3574023224982446
 40
0.4865716879238013
 40
0.6157381069695574
 40
0.8067800019191286
 40
0.9999999999999999
 40
0.9999999999999999
 40
0.9999999999999999
 40
0.9999999999999999
 10
207.2186564410925
 20
78.62884728760972
 30
0.0
 10
207.2186564410925
 20
78.94587473796112
 30
0.0
 10
207.2186564410925
 20
79.64293144725383
 30
0.0
 10
207.2186564410925
 20
80.73785646042512
 30
0.0
 10
207.2186564410925
 20
81.91969048894506
 30
0.0
 10
207.2186564410925
 20
83.1211725188811
 30
0.0
 10
207.2186564410926
 20
84.52615434978794
 30
0.0
 10
207.2186564410926
 20
86.12088078650221
 30
0.0
 10
207.2186564410926
 20
87.28240005399705
 30
0.0
 10
207.2186564410926
 20
87.86645159464376
 30
0.0
  0
INSERT
  5
172
330
1F
100
AcDbEntity
  8
0
  6
Continuous
 62
     7
370
    18
100
AcDbBlockReference
  2
SW_CENTERMARKSYMBOL_0
 10
215.2186564411
 20
83.2476494411
 30
0.0
  0
LINE
  5
173
330
1F
100
AcDbEntity
  8
0
  6
Continuous
 62
     7
370
    25
100
AcDbLine
 10
162.3592968997
 20
121.7736611691
 30
0.0
 11
162.8592968997
 21
121.7736611691
 31
0.0
  0
LINE
  5
174
330
1F
100
AcDbEntity
  8
0
  6
Continuous
 62
     7
370
    25
100
AcDbLine
 10
162.8592968997
 20
130.7736611691
 30
0.0
 11
162.3592968997
 21
130.7736611691
 31
0.0
  0
LINE
  5
175
330
1F
100
AcDbEntity
  8
0
  6
Continuous
 62
     7
370
    25
100
AcDbLine
 10
162.8592968997
 20
122.7736611691
 30
0.0
 11
166.8592968997
 21
122.7736611691
 31
0.0
  0
LINE
  5
176
330
1F
100
AcDbEntity
  8
0
  6
Continuous
 62
     7
370
    25
100
AcDbLine
 10
166.8592968997
 20
129.7736611691
 30
0.0
 11
162.8592968997
 21
129.7736611691
 31
0.0
  0
LINE
  5
177
330
1F
100
AcDbEntity
  8
0
  6
Continuous
 62
     7
370
    25
100
AcDbLine
 10
166.8592968997
 20
122.7736611691
 30
0.0
 11
170.8592968997
 21
123.4236611691
 31
0.0
  0
LINE
  5
178
330
1F
100
AcDbEntity
  8
0
  6
Continuous
 62
     7
370
    25
100
AcDbLine
 10
170.8592968997
 20
129.1236611691
 30
0.0
 11
166.8592968997
 21
129.7736611691
 31
0.0
  0
LINE
  5
179
330
1F
100
AcDbEntity
  8
0
  6
Continuous
 62
     7
370
    25
100
AcDbLine
 10
174.8592968997
 20
122.7736611691
 30
0.0
 11
178.8592968997
 21
123.4236611691
 31
0.0
  0
LINE
  5
17A
330
1F
100
AcDbEntity
  8
0
  6
Continuous
 62
     7
370
    25
100
AcDbLine
 10
178.8592968997
 20
129.1236611691
 30
0.0
 11
174.8592968997
 21
129.7736611691
 31
0.0
  0
LINE
  5
17B
330
1F
100
AcDbEntity
  8
0
  6
Continuous
 62
     7
370
    25
100
AcDbLine
 10
170.8592968997
 20
122.7736611691
 30
0.0
 11
174.8592968997
 21
123.4236611691
 31
0.0
  0
LINE
  5
17C
330
1F
100
AcDbEntity
  8
0
  6
Continuous
 62
     7
370
    25
100
AcDbLine
 10
174.8592968997
 20
129.1236611691
 30
0.0
 11
170.8592968997
 21
129.7736611691
 31
0.0
  0
LINE
  5
17D
330
1F
100
AcDbEntity
  8
0
  6
Continuous
 62
     7
370
    25
100
AcDbLine
 10
178.8592968997
 20
122.7736611691
 30
0.0
 11
182.8592968997
 21
123.4236611691
 31
0.0
  0
LINE
  5
17E
330
1F
100
AcDbEntity
  8
0
  6
Continuous
 62
     7
370
    25
100
AcDbLine
 10
182.8592968997
 20
129.1236611691
 30
0.0
 11
178.8592968997
 21
129.7736611691
 31
0.0
  0
LINE
  5
17F
330
1F
100
AcDbEntity
  8
0
  6
Continuous
 62
     7
370
    25
100
AcDbLine
 10
182.8592968997
 20
122.7736611691
 30
0.0
 11
187.6555409427
 21
123.3404900105
 31
0.0
  0
LINE
  5
180
330
1F
100
AcDbEntity
  8
0
  6
Continuous
 62
     7
370
    25
100
AcDbLine
 10
187.6555409427
 20
129.2068323276
 30
0.0
 11
182.8592968997
 21
129.7736611691
 31
0.0
  0
ARC
  5
181
330
1F
100
AcDbEntity
  8
0
  6
Continuous
 62
     7
370
    25
100
AcDbCircle
 10
187.5616489068
 20
128.4123612548
 30
0.0
 40
0.8000000000000168
100
AcDbArc
 50
4.3945905239
 51
83.2599439021
  0
ARC
  5
182
330
1F
100
AcDbEntity
  8
0
  6
Continuous
 62
     7
370
    25
100
AcDbCircle
 10
187.5616489068
 20
124.1349610834
 30
0.0
 40
0.8000000000000026
100
AcDbArc
 50
276.7400560979
 51
355.6054094761
  0
LINE
  5
183
330
1F
100
AcDbEntity
  8
0
  6
Continuous
 62
     7
370
    25
100
AcDbLine
 10
124.850727063
 20
130.7736611691
 30
0.0
 11
124.350727063
 21
130.7736611691
 31
0.0
  0
LINE
  5
184
330
1F
100
AcDbEntity
  8
0
  6
Continuous
 62
     7
370
    25
100
AcDbLine
 10
124.350727063
 20
121.7736611691
 30
0.0
 11
124.850727063
 21
121.7736611691
 31
0.0
  0
LINE
  5
185
330
1F
100
AcDbEntity
  8
0
  6
Continuous
 62
     7
370
    25
100
AcDbLine
 10
120.350727063
 20
129.7736611691
 30
0.0
 11
116.350727063
 21
129.1236611691
 31
0.0
  0
LINE
  5
186
330
1F
100
AcDbEntity
  8
0
  6
Continuous
 62
     7
370
    25
100
AcDbLine
 10
116.350727063
 20
123.4236611691
 30
0.0
 11
120.350727063
 21
122.7736611691
 31
0.0
  0
LINE
  5
187
330
1F
100
AcDbEntity
  8
0
  6
Continuous
 62
     7
370
    25
100
AcDbLine
 10
124.350727063
 20
129.7736611691
 30
0.0
 11
120.350727063
 21
129.7736611691
 31
0.0
  0
LINE
  5
188
330
1F
100
AcDbEntity
  8
0
  6
Continuous
 62
     7
370
    25
100
AcDbLine
 10
120.350727063
 20
122.7736611691
 30
0.0
 11
124.350727063
 21
122.7736611691
 31
0.0
  0
LINE
  5
189
330
1F
100
AcDbEntity
  8
0
  6
Continuous
 62
     7
370
    25
100
AcDbLine
 10
104.350727063
 20
129.7736611691
 30
0.0
 11
99.55448302
 21
129.2068323276
 31
0.0
  0
LINE
  5
18A
330
1F
100
AcDbEntity
  8
0
  6
Continuous
 62
     7
370
    25
100
AcDbLine
 10
99.55448302
 20
123.3404900105
 30
0.0
 11
104.350727063
 21
122.7736611691
 31
0.0
  0
LINE
  5
18B
330
1F
100
AcDbEntity
  8
0
  6
Continuous
 62
     7
370
    25
100
AcDbLine
 10
112.350727063
 20
129.7736611691
 30
0.0
 11
108.350727063
 21
129.1236611691
 31
0.0
  0
LINE
  5
18C
330
1F
100
AcDbEntity
  8
0
  6
Continuous
 62
     7
370
    25
100
AcDbLine
 10
108.350727063
 20
123.4236611691
 30
0.0
 11
112.350727063
 21
122.7736611691
 31
0.0
  0
LINE
  5
18D
330
1F
100
AcDbEntity
  8
0
  6
Continuous
 62
     7
370
    25
100
AcDbLine
 10
116.350727063
 20
129.7736611691
 30
0.0
 11
112.350727063
 21
129.1236611691
 31
0.0
  0
LINE
  5
18E
330
1F
100
AcDbEntity
  8
0
  6
Continuous
 62
     7
370
    25
100
AcDbLine
 10
112.350727063
 20
123.4236611691
 30
0.0
 11
116.350727063
 21
122.7736611691
 31
0.0
  0
LINE
  5
18F
330
1F
100
AcDbEntity
  8
0
  6
Continuous
 62
     7
370
    25
100
AcDbLine
 10
108.350727063
 20
129.7736611691
 30
0.0
 11
104.350727063
 21
129.1236611691
 31
0.0
  0
LINE
  5
190
330
1F
100
AcDbEntity
  8
0
  6
Continuous
 62
     7
370
    25
100
AcDbLine
 10
104.350727063
 20
123.4236611691
 30
0.0
 11
108.350727063
 21
122.7736611691
 31
0.0
  0
ARC
  5
191
330
1F
100
AcDbEntity
  8
0
  6
Continuous
 62
     7
370
    25
100
AcDbCircle
 10
99.6483750559
 20
124.1349610834
 30
0.0
 40
0.8000000000000015
100
AcDbArc
 50
184.3945905239
 51
263.2599439021
  0
ARC
  5
192
330
1F
100
AcDbEntity
  8
0
  6
Continuous
 62
     7
370
    25
100
AcDbCircle
 10
99.6483750559
 20
128.4123612548
 30
0.0
 40
0.8000000000000151
100
AcDbArc
 50
96.7400560979
 51
175.6054094761
  0
LINE
  5
193
330
1F
100
AcDbEntity
  8
0
  6
Continuous
 62
     7
370
    25
100
AcDbLine
 10
151.4458994401
 20
134.2736611691
 30
0.0
 11
151.3592968997
 21
134.1236611691
 31
0.0
  0
LINE
  5
194
330
1F
100
AcDbEntity
  8
0
  6
Continuous
 62
     7
370
    25
100
AcDbLine
 10
151.3592968997
 20
118.4236611691
 30
0.0
 11
151.4458994401
 21
118.2736611691
 31
0.0
  0
LINE
  5
195
330
1F
100
AcDbEntity
  8
0
  6
Continuous
 62
     7
370
    25
100
AcDbLine
 10
160.2726943593
 20
118.2736611691
 30
0.0
 11
160.3592968997
 21
118.4236611691
 31
0.0
  0
LINE
  5
196
330
1F
100
AcDbEntity
  8
0
  6
Continuous
 62
     7
370
    25
100
AcDbLine
 10
160.3592968997
 20
134.1236611691
 30
0.0
 11
160.2726943593
 21
134.2736611691
 31
0.0
  0
ARC
  5
197
330
1F
100
AcDbEntity
  8
0
  6
Continuous
 62
     7
370
    25
100
AcDbCircle
 10
149.6592968997
 20
118.7236611691
 30
0.0
 40
0.3000000000000398
100
AcDbArc
 50
180.0
 51
270.0
  0
ARC
  5
198
330
1F
100
AcDbEntity
  8
0
  6
Continuous
 62
     7
370
    25
100
AcDbCircle
 10
149.6592968997
 20
133.8236611691
 30
0.0
 40
0.3000000000000398
100
AcDbArc
 50
90.0
 51
180.0
  0
LINE
  5
199
330
1F
100
AcDbEntity
  8
0
  6
Continuous
 62
     7
370
    25
100
AcDbLine
 10
151.3592968997
 20
134.1236611691
 30
0.0
 11
149.6592968997
 21
134.1236611691
 31
0.0
  0
LINE
  5
19A
330
1F
100
AcDbEntity
  8
0
  6
Continuous
 62
     7
370
    25
100
AcDbLine
 10
149.6592968997
 20
118.4236611691
 30
0.0
 11
151.3592968997
 21
118.4236611691
 31
0.0
  0
LINE
  5
19B
330
1F
100
AcDbEntity
  8
0
  6
Continuous
 62
     7
370
    25
100
AcDbLine
 10
160.3592968997
 20
118.4236611691
 30
0.0
 11
162.0592968997
 21
118.4236611691
 31
0.0
  0
LINE
  5
19C
330
1F
100
AcDbEntity
  8
0
  6
Continuous
 62
     7
370
    25
100
AcDbLine
 10
162.0592968997
 20
134.1236611691
 30
0.0
 11
160.3592968997
 21
134.1236611691
 31
0.0
  0
ARC
  5
19D
330
1F
100
AcDbEntity
  8
0
  6
Continuous
 62
     7
370
    25
100
AcDbCircle
 10
162.0592968997
 20
133.8236611691
 30
0.0
 40
0.3000000000000114
100
AcDbArc
 50
0.0
 51
90.0
  0
ARC
  5
19E
330
1F
100
AcDbEntity
  8
0
  6
Continuous
 62
     7
370
    25
100
AcDbCircle
 10
162.0592968997
 20
118.7236611691
 30
0.0
 40
0.3000000000000114
100
AcDbArc
 50
270.0
 51
0.0
  0
LINE
  5
19F
330
1F
100
AcDbEntity
  8
0
  6
Continuous
 62
     7
370
    25
100
AcDbLine
 10
135.7641245227
 20
118.2736611691
 30
0.0
 11
135.850727063
 21
118.4236611691
 31
0.0
  0
LINE
  5
1A0
330
1F
100
AcDbEntity
  8
0
  6
Continuous
 62
     7
370
    25
100
AcDbLine
 10
135.850727063
 20
134.1236611691
 30
0.0
 11
135.7641245227
 21
134.2736611691
 31
0.0
  0
LINE
  5
1A1
330
1F
100
AcDbEntity
  8
0
  6
Continuous
 62
     7
370
    25
100
AcDbLine
 10
126.9373296034
 20
134.2736611691
 30
0.0
 11
126.850727063
 21
134.1236611691
 31
0.0
  0
LINE
  5
1A2
330
1F
100
AcDbEntity
  8
0
  6
Continuous
 62
     7
370
    25
100
AcDbLine
 10
126.850727063
 20
118.4236611691
 30
0.0
 11
126.9373296034
 21
118.2736611691
 31
0.0
  0
LINE
  5
1A3
330
1F
100
AcDbEntity
  8
0
  6
Continuous
 62
     7
370
    25
100
AcDbLine
 10
135.850727063
 20
118.4236611691
 30
0.0
 11
137.550727063
 21
118.4236611691
 31
0.0
  0
LINE
  5
1A4
330
1F
100
AcDbEntity
  8
0
  6
Continuous
 62
     7
370
    25
100
AcDbLine
 10
137.550727063
 20
134.1236611691
 30
0.0
 11
135.850727063
 21
134.1236611691
 31
0.0
  0
ARC
  5
1A5
330
1F
100
AcDbEntity
  8
0
  6
Continuous
 62
     7
370
    25
100
AcDbCircle
 10
137.550727063
 20
133.8236611691
 30
0.0
 40
0.2999999999999829
100
AcDbArc
 50
0.0
 51
90.0
  0
ARC
  5
1A6
330
1F
100
AcDbEntity
  8
0
  6
Continuous
 62
     7
370
    25
100
AcDbCircle
 10
137.550727063
 20
118.7236611691
 30
0.0
 40
0.2999999999999972
100
AcDbArc
 50
270.0
 51
0.0
  0
LINE
  5
1A7
330
1F
100
AcDbEntity
  8
0
  6
Continuous
 62
     7
370
    25
100
AcDbLine
 10
126.850727063
 20
134.1236611691
 30
0.0
 11
125.150727063
 21
134.1236611691
 31
0.0
  0
LINE
  5
1A8
330
1F
100
AcDbEntity
  8
0
  6
Continuous
 62
     7
370
    25
100
AcDbLine
 10
125.150727063
 20
118.4236611691
 30
0.0
 11
126.850727063
 21
118.4236611691
 31
0.0
  0
ARC
  5
1A9
330
1F
100
AcDbEntity
  8
0
  6
Continuous
 62
     7
370
    25
100
AcDbCircle
 10
125.150727063
 20
118.7236611691
 30
0.0
 40
0.2999999999999972
100
AcDbArc
 50
180.0
 51
270.0
  0
ARC
  5
1AA
330
1F
100
AcDbEntity
  8
0
  6
Continuous
 62
     7
370
    25
100
AcDbCircle
 10
125.150727063
 20
133.8236611691
 30
0.0
 40
0.2999999999999829
100
AcDbArc
 50
90.0
 51
180.0
  0
LINE
  5
1AB
330
1F
100
AcDbEntity
  8
0
  6
Continuous
 62
     7
370
    25
100
AcDbLine
 10
145.9606744141
 20
119.2736611691
 30
0.0
 11
146.1050119814
 21
119.5236611691
 31
0.0
  0
LINE
  5
1AC
330
1F
100
AcDbEntity
  8
0
  6
Continuous
 62
     7
370
    25
100
AcDbLine
 10
146.1050119814
 20
133.0236611691
 30
0.0
 11
145.9606744141
 21
133.2736611691
 31
0.0
  0
LINE
  5
1AD
330
1F
100
AcDbEntity
  8
0
  6
Continuous
 62
     7
370
    25
100
AcDbLine
 10
141.2493495487
 20
133.2736611691
 30
0.0
 11
141.1050119814
 21
133.0236611691
 31
0.0
  0
LINE
  5
1AE
330
1F
100
AcDbEntity
  8
0
  6
Continuous
 62
     7
370
    25
100
AcDbLine
 10
141.1050119814
 20
119.5236611691
 30
0.0
 11
141.2493495487
 21
119.2736611691
 31
0.0
  0
LINE
  5
1AF
330
1F
100
AcDbEntity
  8
0
  6
Continuous
 62
     7
370
    25
100
AcDbLine
 10
149.1050119814
 20
132.8521611691
 30
0.0
 11
148.1050119814
 21
131.8521611691
 31
0.0
  0
LINE
  5
1B0
330
1F
100
AcDbEntity
  8
0
  6
Continuous
 62
     7
370
    25
100
AcDbLine
 10
148.1050119814
 20
120.6951611691
 30
0.0
 11
149.1050119814
 21
119.6951611691
 31
0.0
  0
LINE
  5
1B1
330
1F
100
AcDbEntity
  8
0
  6
Continuous
 62
     7
370
    25
100
AcDbLine
 10
138.1050119814
 20
119.6951611691
 30
0.0
 11
139.1050119814
 21
120.6951611691
 31
0.0
  0
LINE
  5
1B2
330
1F
100
AcDbEntity
  8
0
  6
Continuous
 62
     7
370
    25
100
AcDbLine
 10
139.1050119814
 20
131.8521611691
 30
0.0
 11
138.1050119814
 21
132.8521611691
 31
0.0
  0
LINE
  5
1B3
330
1F
100
AcDbEntity
  8
0
  6
Continuous
 62
     7
370
    25
100
AcDbLine
 10
138.1050119814
 20
132.8521611691
 30
0.0
 11
137.850727063
 21
132.8521611691
 31
0.0
  0
LINE
  5
1B4
330
1F
100
AcDbEntity
  8
0
  6
Continuous
 62
     7
370
    25
100
AcDbLine
 10
137.850727063
 20
119.6951611691
 30
0.0
 11
138.1050119814
 21
119.6951611691
 31
0.0
  0
LINE
  5
1B5
330
1F
100
AcDbEntity
  8
0
  6
Continuous
 62
     7
370
    25
100
AcDbLine
 10
149.1050119814
 20
119.6951611691
 30
0.0
 11
149.3592968997
 21
119.6951611691
 31
0.0
  0
LINE
  5
1B6
330
1F
100
AcDbEntity
  8
0
  6
Continuous
 62
     7
370
    25
100
AcDbLine
 10
149.3592968997
 20
132.8521611691
 30
0.0
 11
149.1050119814
 21
132.8521611691
 31
0.0
  0
LINE
  5
1B7
330
1F
100
AcDbEntity
  8
0
  6
Continuous
 62
     7
370
    25
100
AcDbLine
 10
141.1050119814
 20
131.7736611691
 30
0.0
 11
139.1050119814
 21
131.7736611691
 31
0.0
  0
LINE
  5
1B8
330
1F
100
AcDbEntity
  8
0
  6
Continuous
 62
     7
370
    25
100
AcDbLine
 10
139.1050119814
 20
120.7736611691
 30
0.0
 11
141.1050119814
 21
120.7736611691
 31
0.0
  0
LINE
  5
1B9
330
1F
100
AcDbEntity
  8
0
  6
Continuous
 62
     7
370
    25
100
AcDbLine
 10
146.1050119814
 20
120.7736611691
 30
0.0
 11
148.1050119814
 21
120.7736611691
 31
0.0
  0
LINE
  5
1BA
330
1F
100
AcDbEntity
  8
0
  6
Continuous
 62
     7
370
    25
100
AcDbLine
 10
148.1050119814
 20
131.7736611691
 30
0.0
 11
146.1050119814
 21
131.7736611691
 31
0.0
  0
LINE
  5
1BB
330
1F
100
AcDbEntity
  8
0
  6
Continuous
 62
     7
370
    25
100
AcDbLine
 10
162.8592968997
 20
130.7736611691
 30
0.0
 11
162.8592968997
 21
121.7736611691
 31
0.0
  0
LINE
  5
1BC
330
1F
100
AcDbEntity
  8
0
  6
Continuous
 62
     7
370
    25
100
AcDbLine
 10
166.8592968997
 20
122.7736611691
 30
0.0
 11
166.8592968997
 21
129.7736611691
 31
0.0
  0
LINE
  5
1BD
330
1F
100
AcDbEntity
  8
0
  6
Continuous
 62
     7
370
    25
100
AcDbLine
 10
174.8592968997
 20
122.7736611691
 30
0.0
 11
174.8592968997
 21
129.7736611691
 31
0.0
  0
LINE
  5
1BE
330
1F
100
AcDbEntity
  8
0
  6
Continuous
 62
     7
370
    25
100
AcDbLine
 10
170.8592968997
 20
122.7736611691
 30
0.0
 11
170.8592968997
 21
129.7736611691
 31
0.0
  0
LINE
  5
1BF
330
1F
100
AcDbEntity
  8
0
  6
Continuous
 62
     7
370
    25
100
AcDbLine
 10
178.8592968997
 20
122.7736611691
 30
0.0
 11
178.8592968997
 21
129.7736611691
 31
0.0
  0
LINE
  5
1C0
330
1F
100
AcDbEntity
  8
0
  6
Continuous
 62
     7
370
    25
100
AcDbLine
 10
182.8592968997
 20
122.7736611691
 30
0.0
 11
182.8592968997
 21
129.7736611691
 31
0.0
  0
LINE
  5
1C1
330
1F
100
AcDbEntity
  8
0
  6
Continuous
 62
     7
370
    25
100
AcDbLine
 10
188.3592968997
 20
124.0736611691
 30
0.0
 11
188.3592968997
 21
128.4736611691
 31
0.0
  0
LINE
  5
1C2
330
1F
100
AcDbEntity
  8
0
  6
Continuous
 62
     7
370
    25
100
AcDbLine
 10
124.350727063
 20
121.7736611691
 30
0.0
 11
124.350727063
 21
130.7736611691
 31
0.0
  0
LINE
  5
1C3
330
1F
100
AcDbEntity
  8
0
  6
Continuous
 62
     7
370
    25
100
AcDbLine
 10
120.350727063
 20
129.7736611691
 30
0.0
 11
120.350727063
 21
122.7736611691
 31
0.0
  0
LINE
  5
1C4
330
1F
100
AcDbEntity
  8
0
  6
Continuous
 62
     7
370
    25
100
AcDbLine
 10
104.350727063
 20
129.7736611691
 30
0.0
 11
104.350727063
 21
122.7736611691
 31
0.0
  0
LINE
  5
1C5
330
1F
100
AcDbEntity
  8
0
  6
Continuous
 62
     7
370
    25
100
AcDbLine
 10
112.350727063
 20
129.7736611691
 30
0.0
 11
112.350727063
 21
122.7736611691
 31
0.0
  0
LINE
  5
1C6
330
1F
100
AcDbEntity
  8
0
  6
Continuous
 62
     7
370
    25
100
AcDbLine
 10
116.350727063
 20
129.7736611691
 30
0.0
 11
116.350727063
 21
122.7736611691
 31
0.0
  0
LINE
  5
1C7
330
1F
100
AcDbEntity
  8
0
  6
Continuous
 62
     7
370
    25
100
AcDbLine
 10
108.350727063
 20
129.7736611691
 30
0.0
 11
108.350727063
 21
122.7736611691
 31
0.0
  0
LINE
  5
1C8
330
1F
100
AcDbEntity
  8
0
  6
Continuous
 62
     7
370
    25
100
AcDbLine
 10
98.850727063
 20
128.4736611691
 30
0.0
 11
98.850727063
 21
124.0736611691
 31
0.0
  0
SPLINE
  5
1C9
330
1F
100
AcDbEntity
  8
0
  6
Continuous
 62
     7
370
    25
100
AcDbSpline
210
0.0
220
0.0
230
1.0
 70
    24
 71
     3
 72
    10
 73
     6
 74
     0
 42
0.000000001
 43
0.00000001
 40
0.0
 40
0.0
 40
0.0
 40
0.0
 40
0.2314536293865617
 40
0.6135486475542221
 40
1.0
 40
1.0
 40
1.0
 40
1.0
 10
151.4509857497879
 20
118.2736611690923
 30
0.0
 10
151.4576711465775
 20
118.2736611690923
 30
0.0
 10
151.4753931247098
 20
118.2736611690923
 30
0.0
 10
151.6997192480591
 20
118.2736611690923
 30
0.0
 10
152.0062809370138
 20
118.2736611690923
 30
0.0
 10
152.1604306198885
 20
118.2736611690923
 30
0.0
  0
SPLINE
  5
1CA
330
1F
100
AcDbEntity
  8
0
  6
Continuous
 62
     7
370
    25
100
AcDbSpline
210
0.0
220
0.0
230
1.0
 70
    24
 71
     3
 72
    10
 73
     6
 74
     0
 42
0.000000001
 43
0.00000001
 40
0.0
 40
0.0
 40
0.0
 40
0.0
 40
0.3824415361703788
 40
0.7685419602794596
 40
1.0
 40
1.0
 40
1.0
 40
1.0
 10
152.1604306198885
 20
134.2736611690923
 30
0.0
 10
152.0076950352984
 20
134.2736611690923
 30
0.0
 10
151.7007626169193
 20
134.2736611690923
 30
0.0
 10
151.4762420387458
 20
134.2736611690923
 30
0.0
 10
151.4567667538611
 20
134.2736611690923
 30
0.0
 10
151.449467507674
 20
134.2736611690923
 30
0.0
  0
SPLINE
  5
1CB
330
1F
100
AcDbEntity
  8
0
  6
Continuous
 62
     7
370
    25
100
AcDbSpline
210
0.0
220
0.0
230
1.0
 70
     8
 71
     3
 72
    15
 73
    11
 74
     0
 42
0.000000001
 43
0.00000001
 40
0.0
 40
0.0
 40
0.0
 40
0.0
 40
0.1323049664163399
 40
0.264572525757654
 40
0.3997989469058927
 40
0.5350009659368332
 40
0.6501921044151404
 40
0.7654012116808011
 40
0.8826892657702317
 40
1.0
 40
1.0
 40
1.0
 40
1.0
 10
152.1604306198885
 20
126.2736611690923
 30
0.0
 10
152.0516590923453
 20
126.6192922854495
 30
0.0
 10
151.8341467906373
 20
127.3104567965934
 30
0.0
 10
151.6001115978417
 20
128.3747888810956
 30
0.0
 10
151.4593923418927
 20
129.4591837543944
 30
0.0
 10
151.4315230581691
 20
130.5042993200942
 30
0.0
 10
151.5038248565236
 20
131.4929542709566
 30
0.0
 10
151.6519748365027
 20
132.4260029072203
 30
0.0
 10
151.8692949952073
 20
133.3548329812519
 30
0.0
 10
152.0633791572159
 20
133.9673653673595
 30
0.0
 10
152.1604306198885
 20
134.2736611690923
 30
0.0
  0
SPLINE
  5
1CC
330
1F
100
AcDbEntity
  8
0
  6
Continuous
 62
     7
370
    25
100
AcDbSpline
210
0.0
220
0.0
230
1.0
 70
     8
 71
     3
 72
    15
 73
    11
 74
     0
 42
0.000000001
 43
0.00000001
 40
0.0
 40
0.0
 40
0.0
 40
0.0
 40
0.1323049664163416
 40
0.2645725257576573
 40
0.3997989469058976
 40
0.5350009659368399
 40
0.6501921044151455
 40
0.7654012116808045
 40
0.8826892657702334
 40
1.0
 40
1.0
 40
1.0
 40
1.0
 10
152.1604306198885
 20
118.2736611690923
 30
0.0
 10
152.0516590923453
 20
118.6192922854495
 30
0.0
 10
151.8341467906373
 20
119.3104567965934
 30
0.0
 10
151.6001115978417
 20
120.3747888810957
 30
0.0
 10
151.4593923418927
 20
121.4591837543945
 30
0.0
 10
151.4315230581691
 20
122.5042993200943
 30
0.0
 10
151.5038248565236
 20
123.4929542709567
 30
0.0
 10
151.6519748365027
 20
124.4260029072204
 30
0.0
 10
151.8692949952073
 20
125.3548329812519
 30
0.0
 10
152.0633791572159
 20
125.9673653673594
 30
0.0
 10
152.1604306198885
 20
126.2736611690923
 30
0.0
  0
LINE
  5
1CD
330
1F
100
AcDbEntity
  8
0
  6
Continuous
 62
     7
370
    25
100
AcDbLine
 10
151.3592968997
 20
118.4236611691
 30
0.0
 11
151.3592968997
 21
134.1236611691
 31
0.0
  0
LINE
  5
1CE
330
1F
100
AcDbEntity
  8
0
  6
Continuous
 62
     7
370
    25
100
AcDbLine
 10
152.1604306199
 20
126.2736611691
 30
0.0
 11
155.8057070612
 21
126.2736611691
 31
0.0
  0
LINE
  5
1CF
330
1F
100
AcDbEntity
  8
0
  6
Continuous
 62
     7
370
    25
100
AcDbLine
 10
152.1604306199
 20
134.2736611691
 30
0.0
 11
155.8057070612
 21
134.2736611691
 31
0.0
  0
LINE
  5
1D0
330
1F
100
AcDbEntity
  8
0
  6
Continuous
 62
     7
370
    25
100
AcDbLine
 10
155.8592968997
 20
133.9149135234
 30
0.0
 11
155.8057070612
 21
134.2736611691
 31
0.0
  0
LINE
  5
1D1
330
1F
100
AcDbEntity
  8
0
  6
Continuous
 62
     7
370
    25
100
AcDbLine
 10
155.9128867382
 20
134.2736611691
 30
0.0
 11
155.8592968997
 21
133.9149135234
 31
0.0
  0
LINE
  5
1D2
330
1F
100
AcDbEntity
  8
0
  6
Continuous
 62
     7
370
    25
100
AcDbLine
 10
155.9128867382
 20
134.2736611691
 30
0.0
 11
159.5581631795
 21
134.2736611691
 31
0.0
  0
SPLINE
  5
1D3
330
1F
100
AcDbEntity
  8
0
  6
Continuous
 62
     7
370
    25
100
AcDbSpline
210
0.0
220
0.0
230
1.0
 70
     8
 71
     3
 72
    15
 73
    11
 74
     0
 42
0.000000001
 43
0.00000001
 40
0.0
 40
0.0
 40
0.0
 40
0.0
 40
0.13230496641634
 40
0.264572525757654
 40
0.3997989469058927
 40
0.5350009659368332
 40
0.6501921044151404
 40
0.765401211680801
 40
0.8826892657702317
 40
1.0
 40
1.0
 40
1.0
 40
1.0
 10
159.558163179499
 20
126.2736611690923
 30
0.0
 10
159.6669347070422
 20
126.6192922854495
 30
0.0
 10
159.8844470087502
 20
127.3104567965934
 30
0.0
 10
160.1184822015458
 20
128.3747888810956
 30
0.0
 10
160.2592014574948
 20
129.4591837543944
 30
0.0
 10
160.2870707412184
 20
130.5042993200942
 30
0.0
 10
160.2147689428639
 20
131.4929542709566
 30
0.0
 10
160.0666189628848
 20
132.4260029072203
 30
0.0
 10
159.8492988041802
 20
133.3548329812519
 30
0.0
 10
159.6552146421716
 20
133.9673653673595
 30
0.0
 10
159.558163179499
 20
134.2736611690923
 30
0.0
  0
LINE
  5
1D4
330
1F
100
AcDbEntity
  8
0
  6
Continuous
 62
     7
370
    25
100
AcDbLine
 10
155.9128867382
 20
126.2736611691
 30
0.0
 11
159.5581631795
 21
126.2736611691
 31
0.0
  0
LINE
  5
1D5
330
1F
100
AcDbEntity
  8
0
  6
Continuous
 62
     7
370
    25
100
AcDbLine
 10
155.8592968997
 20
126.6324088148
 30
0.0
 11
155.9128867382
 21
126.2736611691
 31
0.0
  0
LINE
  5
1D6
330
1F
100
AcDbEntity
  8
0
  6
Continuous
 62
     7
370
    25
100
AcDbLine
 10
155.8057070612
 20
126.2736611691
 30
0.0
 11
155.8592968997
 21
126.6324088148
 31
0.0
  0
SPLINE
  5
1D7
330
1F
100
AcDbEntity
  8
0
  6
Continuous
 62
     7
370
    25
100
AcDbSpline
210
0.0
220
0.0
230
1.0
 70
     8
 71
     3
 72
    15
 73
    11
 74
     0
 42
0.000000001
 43
0.00000001
 40
0.0
 40
0.0
 40
0.0
 40
0.0
 40
0.1323049664163416
 40
0.2645725257576573
 40
0.3997989469058976
 40
0.5350009659368398
 40
0.6501921044151454
 40
0.7654012116808045
 40
0.8826892657702334
 40
1.0
 40
1.0
 40
1.0
 40
1.0
 10
159.558163179499
 20
118.2736611690923
 30
0.0
 10
159.6669347070422
 20
118.6192922854495
 30
0.0
 10
159.8844470087502
 20
119.3104567965934
 30
0.0
 10
160.1184822015458
 20
120.3747888810957
 30
0.0
 10
160.2592014574948
 20
121.4591837543945
 30
0.0
 10
160.2870707412183
 20
122.5042993200943
 30
0.0
 10
160.2147689428639
 20
123.4929542709567
 30
0.0
 10
160.0666189628848
 20
124.4260029072204
 30
0.0
 10
159.8492988041802
 20
125.3548329812519
 30
0.0
 10
159.6552146421716
 20
125.9673653673594
 30
0.0
 10
159.558163179499
 20
126.2736611690923
 30
0.0
  0
SPLINE
  5
1D8
330
1F
100
AcDbEntity
  8
0
  6
Continuous
 62
     7
370
    25
100
AcDbSpline
210
0.0
220
0.0
230
1.0
 70
    24
 71
     3
 72
    10
 73
     6
 74
     0
 42
0.000000001
 43
0.00000001
 40
0.0
 40
0.0
 40
0.0
 40
0.0
 40
0.3824415361703796
 40
0.7685419602794616
 40
1.0
 40
1.0
 40
1.0
 40
1.0
 10
159.558163179499
 20
134.2736611690923
 30
0.0
 10
159.7108987640892
 20
134.2736611690923
 30
0.0
 10
160.0178311824682
 20
134.2736611690923
 30
0.0
 10
160.2423517606418
 20
134.2736611690923
 30
0.0
 10
160.2618270455264
 20
134.2736611690923
 30
0.0
 10
160.2691262917135
 20
134.2736611690923
 30
0.0
  0
SPLINE
  5
1D9
330
1F
100
AcDbEntity
  8
0
  6
Continuous
 62
     7
370
    25
100
AcDbSpline
210
0.0
220
0.0
230
1.0
 70
    24
 71
     3
 72
    10
 73
     6
 74
     0
 42
0.000000001
 43
0.00000001
 40
0.0
 40
0.0
 40
0.0
 40
0.0
 40
0.2314536293865594
 40
0.6135486475542212
 40
1.0
 40
1.0
 40
1.0
 40
1.0
 10
160.2676080495996
 20
118.2736611690923
 30
0.0
 10
160.26092265281
 20
118.2736611690923
 30
0.0
 10
160.2432006746777
 20
118.2736611690923
 30
0.0
 10
160.0188745513284
 20
118.2736611690923
 30
0.0
 10
159.7123128623737
 20
118.2736611690923
 30
0.0
 10
159.558163179499
 20
118.2736611690923
 30
0.0
  0
LINE
  5
1DA
330
1F
100
AcDbEntity
  8
0
  6
Continuous
 62
     7
370
    25
100
AcDbLine
 10
160.3592968997
 20
118.4236611691
 30
0.0
 11
160.3592968997
 21
134.1236611691
 31
0.0
  0
LINE
  5
1DB
330
1F
100
AcDbEntity
  8
0
  6
Continuous
 62
     7
370
    25
100
AcDbLine
 10
152.1604306199
 20
118.2736611691
 30
0.0
 11
155.8057070612
 21
118.2736611691
 31
0.0
  0
LINE
  5
1DC
330
1F
100
AcDbEntity
  8
0
  6
Continuous
 62
     7
370
    25
100
AcDbLine
 10
155.8592968997
 20
125.9149135234
 30
0.0
 11
155.8057070612
 21
126.2736611691
 31
0.0
  0
LINE
  5
1DD
330
1F
100
AcDbEntity
  8
0
  6
Continuous
 62
     7
370
    25
100
AcDbLine
 10
155.9128867382
 20
126.2736611691
 30
0.0
 11
155.8592968997
 21
125.9149135234
 31
0.0
  0
LINE
  5
1DE
330
1F
100
AcDbEntity
  8
0
  6
Continuous
 62
     7
370
    25
100
AcDbLine
 10
155.9128867382
 20
118.2736611691
 30
0.0
 11
159.5581631795
 21
118.2736611691
 31
0.0
  0
LINE
  5
1DF
330
1F
100
AcDbEntity
  8
0
  6
Continuous
 62
     7
370
    25
100
AcDbLine
 10
155.8592968997
 20
118.6324088148
 30
0.0
 11
155.9128867382
 21
118.2736611691
 31
0.0
  0
LINE
  5
1E0
330
1F
100
AcDbEntity
  8
0
  6
Continuous
 62
     7
370
    25
100
AcDbLine
 10
155.8057070612
 20
118.2736611691
 30
0.0
 11
155.8592968997
 21
118.6324088148
 31
0.0
  0
LINE
  5
1E1
330
1F
100
AcDbEntity
  8
0
  6
Continuous
 62
     7
370
    25
100
AcDbLine
 10
155.8592968997
 20
125.9149135234
 30
0.0
 11
155.8592968997
 21
126.6324088148
 31
0.0
  0
LINE
  5
1E2
330
1F
100
AcDbEntity
  8
0
  6
Continuous
 62
     7
370
    25
100
AcDbLine
 10
149.3592968997
 20
118.7236611691
 30
0.0
 11
149.3592968997
 21
133.8236611614
 31
0.0
  0
LINE
  5
1E3
330
1F
100
AcDbEntity
  8
0
  6
Continuous
 62
     7
370
    25
100
AcDbLine
 10
162.3592968997
 20
133.8236611691
 30
0.0
 11
162.3592968997
 21
118.7236611768
 31
0.0
  0
LINE
  5
1E4
330
1F
100
AcDbEntity
  8
0
  6
Continuous
 62
     7
370
    25
100
AcDbLine
 10
155.9128867382
 20
118.2736611691
 30
0.0
 11
155.8592968997
 21
118.2736611691
 31
0.0
  0
LINE
  5
1E5
330
1F
100
AcDbEntity
  8
0
  6
Continuous
 62
     7
370
    25
100
AcDbLine
 10
155.8592968997
 20
118.2736611691
 30
0.0
 11
155.8592968997
 21
118.6324088148
 31
0.0
  0
LINE
  5
1E6
330
1F
100
AcDbEntity
  8
0
  6
Continuous
 62
     7
370
    25
100
AcDbLine
 10
155.8592968997
 20
118.2736611691
 30
0.0
 11
155.8057070612
 21
118.2736611691
 31
0.0
  0
LINE
  5
1E7
330
1F
100
AcDbEntity
  8
0
  6
Continuous
 62
     7
370
    25
100
AcDbLine
 10
155.8057070612
 20
134.2736611691
 30
0.0
 11
155.8592968997
 21
134.2736611691
 31
0.0
  0
LINE
  5
1E8
330
1F
100
AcDbEntity
  8
0
  6
Continuous
 62
     7
370
    25
100
AcDbLine
 10
155.8592968997
 20
133.9149135234
 30
0.0
 11
155.8592968997
 21
134.2736611691
 31
0.0
  0
LINE
  5
1E9
330
1F
100
AcDbEntity
  8
0
  6
Continuous
 62
     7
370
    25
100
AcDbLine
 10
155.8592968997
 20
134.2736611691
 30
0.0
 11
155.9128867382
 21
134.2736611691
 31
0.0
  0
SPLINE
  5
1EA
330
1F
100
AcDbEntity
  8
0
  6
Continuous
 62
     7
370
    25
100
AcDbSpline
210
0.0
220
0.0
230
1.0
 70
    24
 71
     3
 72
    10
 73
     6
 74
     0
 42
0.000000001
 43
0.00000001
 40
0.0
 40
0.0
 40
0.0
 40
0.0
 40
0.2314536293865709
 40
0.6135486475542268
 40
1.0
 40
1.0
 40
1.0
 40
1.0
 10
135.7590382129509
 20
134.2736611690923
 30
0.0
 10
135.7523528161613
 20
134.2736611690923
 30
0.0
 10
135.7346308380289
 20
134.2736611690923
 30
0.0
 10
135.5103047146797
 20
134.2736611690923
 30
0.0
 10
135.203743025725
 20
134.2736611690923
 30
0.0
 10
135.0495933428502
 20
134.2736611690923
 30
0.0
  0
SPLINE
  5
1EB
330
1F
100
AcDbEntity
  8
0
  6
Continuous
 62
     7
370
    25
100
AcDbSpline
210
0.0
220
0.0
230
1.0
 70
    24
 71
     3
 72
    10
 73
     6
 74
     0
 42
0.000000001
 43
0.00000001
 40
0.0
 40
0.0
 40
0.0
 40
0.0
 40
0.3824415361703835
 40
0.7685419602794691
 40
1.0
 40
1.0
 40
1.0
 40
1.0
 10
135.0495933428502
 20
118.2736611690923
 30
0.0
 10
135.2023289274404
 20
118.2736611690923
 30
0.0
 10
135.5092613458195
 20
118.2736611690923
 30
0.0
 10
135.733781923993
 20
118.2736611690923
 30
0.0
 10
135.7532572088777
 20
118.2736611690923
 30
0.0
 10
135.7605564550647
 20
118.2736611690923
 30
0.0
  0
SPLINE
  5
1EC
330
1F
100
AcDbEntity
  8
0
  6
Continuous
 62
     7
370
    25
100
AcDbSpline
210
0.0
220
0.0
230
1.0
 70
     8
 71
     3
 72
    15
 73
    11
 74
     0
 42
0.000000001
 43
0.00000001
 40
0.0
 40
0.0
 40
0.0
 40
0.0
 40
0.1323049664163399
 40
0.264572525757654
 40
0.3997989469058927
 40
0.5350009659368332
 40
0.6501921044151404
 40
0.7654012116808011
 40
0.8826892657702317
 40
1.0
 40
1.0
 40
1.0
 40
1.0
 10
135.0495933428502
 20
126.2736611690923
 30
0.0
 10
135.1583648703935
 20
125.9280300527351
 30
0.0
 10
135.3758771721015
 20
125.2368655415912
 30
0.0
 10
135.6099123648971
 20
124.172533457089
 30
0.0
 10
135.7506316208461
 20
123.0881385837902
 30
0.0
 10
135.7785009045696
 20
122.0430230180904
 30
0.0
 10
135.7061991062152
 20
121.054368067228
 30
0.0
 10
135.5580491262361
 20
120.1213194309643
 30
0.0
 10
135.3407289675315
 20
119.1924893569327
 30
0.0
 10
135.1466448055228
 20
118.5799569708251
 30
0.0
 10
135.0495933428502
 20
118.2736611690923
 30
0.0
  0
SPLINE
  5
1ED
330
1F
100
AcDbEntity
  8
0
  6
Continuous
 62
     7
370
    25
100
AcDbSpline
210
0.0
220
0.0
230
1.0
 70
     8
 71
     3
 72
    15
 73
    11
 74
     0
 42
0.000000001
 43
0.00000001
 40
0.0
 40
0.0
 40
0.0
 40
0.0
 40
0.1323049664163416
 40
0.2645725257576573
 40
0.3997989469058977
 40
0.5350009659368399
 40
0.6501921044151455
 40
0.7654012116808045
 40
0.8826892657702334
 40
1.0
 40
1.0
 40
1.0
 40
1.0
 10
135.0495933428502
 20
134.2736611690923
 30
0.0
 10
135.1583648703935
 20
133.9280300527351
 30
0.0
 10
135.3758771721015
 20
133.2368655415912
 30
0.0
 10
135.6099123648971
 20
132.1725334570889
 30
0.0
 10
135.7506316208461
 20
131.0881385837901
 30
0.0
 10
135.7785009045696
 20
130.0430230180903
 30
0.0
 10
135.7061991062151
 20
129.0543680672279
 30
0.0
 10
135.5580491262361
 20
128.1213194309643
 30
0.0
 10
135.3407289675315
 20
127.1924893569327
 30
0.0
 10
135.1466448055228
 20
126.5799569708252
 30
0.0
 10
135.0495933428502
 20
126.2736611690923
 30
0.0
  0
LINE
  5
1EE
330
1F
100
AcDbEntity
  8
0
  6
Continuous
 62
     7
370
    25
100
AcDbLine
 10
135.850727063
 20
134.1236611691
 30
0.0
 11
135.850727063
 21
118.4236611691
 31
0.0
  0
LINE
  5
1EF
330
1F
100
AcDbEntity
  8
0
  6
Continuous
 62
     7
370
    25
100
AcDbLine
 10
135.0495933429
 20
134.2736611691
 30
0.0
 11
131.4043169015
 21
134.2736611691
 31
0.0
  0
LINE
  5
1F0
330
1F
100
AcDbEntity
  8
0
  6
Continuous
 62
     7
370
    25
100
AcDbLine
 10
135.0495933429
 20
126.2736611691
 30
0.0
 11
131.4043169015
 21
126.2736611691
 31
0.0
  0
LINE
  5
1F1
330
1F
100
AcDbEntity
  8
0
  6
Continuous
 62
     7
370
    25
100
AcDbLine
 10
131.350727063
 20
126.6324088148
 30
0.0
 11
131.4043169015
 21
126.2736611691
 31
0.0
  0
LINE
  5
1F2
330
1F
100
AcDbEntity
  8
0
  6
Continuous
 62
     7
370
    25
100
AcDbLine
 10
131.2971372246
 20
126.2736611691
 30
0.0
 11
131.350727063
 21
126.6324088148
 31
0.0
  0
LINE
  5
1F3
330
1F
100
AcDbEntity
  8
0
  6
Continuous
 62
     7
370
    25
100
AcDbLine
 10
131.2971372246
 20
126.2736611691
 30
0.0
 11
127.6518607832
 21
126.2736611691
 31
0.0
  0
SPLINE
  5
1F4
330
1F
100
AcDbEntity
  8
0
  6
Continuous
 62
     7
370
    25
100
AcDbSpline
210
0.0
220
0.0
230
1.0
 70
     8
 71
     3
 72
    15
 73
    11
 74
     0
 42
0.000000001
 43
0.00000001
 40
0.0
 40
0.0
 40
0.0
 40
0.0
 40
0.1323049664163415
 40
0.2645725257576573
 40
0.3997989469058976
 40
0.5350009659368398
 40
0.6501921044151455
 40
0.7654012116808045
 40
0.8826892657702334
 40
1.0
 40
1.0
 40
1.0
 40
1.0
 10
127.6518607832398
 20
134.2736611690923
 30
0.0
 10
127.5430892556966
 20
133.9280300527351
 30
0.0
 10
127.3255769539885
 20
133.2368655415912
 30
0.0
 10
127.0915417611929
 20
132.1725334570889
 30
0.0
 10
126.9508225052439
 20
131.0881385837901
 30
0.0
 10
126.9229532215204
 20
130.0430230180903
 30
0.0
 10
126.9952550198749
 20
129.0543680672279
 30
0.0
 10
127.143404999854
 20
128.1213194309643
 30
0.0
 10
127.3607251585586
 20
127.1924893569327
 30
0.0
 10
127.5548093205672
 20
126.5799569708252
 30
0.0
 10
127.6518607832398
 20
126.2736611690923
 30
0.0
  0
LINE
  5
1F5
330
1F
100
AcDbEntity
  8
0
  6
Continuous
 62
     7
370
    25
100
AcDbLine
 10
131.2971372246
 20
134.2736611691
 30
0.0
 11
127.6518607832
 21
134.2736611691
 31
0.0
  0
LINE
  5
1F6
330
1F
100
AcDbEntity
  8
0
  6
Continuous
 62
     7
370
    25
100
AcDbLine
 10
131.350727063
 20
133.9149135234
 30
0.0
 11
131.2971372246
 21
134.2736611691
 31
0.0
  0
LINE
  5
1F7
330
1F
100
AcDbEntity
  8
0
  6
Continuous
 62
     7
370
    25
100
AcDbLine
 10
131.4043169015
 20
134.2736611691
 30
0.0
 11
131.350727063
 21
133.9149135234
 31
0.0
  0
SPLINE
  5
1F8
330
1F
100
AcDbEntity
  8
0
  6
Continuous
 62
     7
370
    25
100
AcDbSpline
210
0.0
220
0.0
230
1.0
 70
     8
 71
     3
 72
    15
 73
    11
 74
     0
 42
0.000000001
 43
0.00000001
 40
0.0
 40
0.0
 40
0.0
 40
0.0
 40
0.1323049664163401
 40
0.2645725257576541
 40
0.3997989469058928
 40
0.5350009659368333
 40
0.6501921044151405
 40
0.7654012116808011
 40
0.8826892657702317
 40
1.0
 40
1.0
 40
1.0
 40
1.0
 10
127.6518607832398
 20
126.2736611690923
 30
0.0
 10
127.5430892556966
 20
125.9280300527351
 30
0.0
 10
127.3255769539885
 20
125.2368655415912
 30
0.0
 10
127.0915417611929
 20
124.172533457089
 30
0.0
 10
126.9508225052439
 20
123.0881385837902
 30
0.0
 10
126.9229532215204
 20
122.0430230180904
 30
0.0
 10
126.9952550198748
 20
121.054368067228
 30
0.0
 10
127.1434049998539
 20
120.1213194309643
 30
0.0
 10
127.3607251585586
 20
119.1924893569327
 30
0.0
 10
127.5548093205672
 20
118.5799569708251
 30
0.0
 10
127.6518607832398
 20
118.2736611690923
 30
0.0
  0
SPLINE
  5
1F9
330
1F
100
AcDbEntity
  8
0
  6
Continuous
 62
     7
370
    25
100
AcDbSpline
210
0.0
220
0.0
230
1.0
 70
    24
 71
     3
 72
    10
 73
     6
 74
     0
 42
0.000000001
 43
0.00000001
 40
0.0
 40
0.0
 40
0.0
 40
0.0
 40
0.3824415361703841
 40
0.7685419602794707
 40
1.0
 40
1.0
 40
1.0
 40
1.0
 10
127.6518607832398
 20
118.2736611690923
 30
0.0
 10
127.4991251986496
 20
118.2736611690923
 30
0.0
 10
127.1921927802705
 20
118.2736611690923
 30
0.0
 10
126.967672202097
 20
118.2736611690923
 30
0.0
 10
126.9481969172123
 20
118.2736611690923
 30
0.0
 10
126.9408976710253
 20
118.2736611690923
 30
0.0
  0
SPLINE
  5
1FA
330
1F
100
AcDbEntity
  8
0
  6
Continuous
 62
     7
370
    25
100
AcDbSpline
210
0.0
220
0.0
230
1.0
 70
    24
 71
     3
 72
    10
 73
     6
 74
     0
 42
0.000000001
 43
0.00000001
 40
0.0
 40
0.0
 40
0.0
 40
0.0
 40
0.2314536293865685
 40
0.6135486475542258
 40
1.0
 40
1.0
 40
1.0
 40
1.0
 10
126.9424159131391
 20
134.2736611690923
 30
0.0
 10
126.9491013099288
 20
134.2736611690923
 30
0.0
 10
126.9668232880611
 20
134.2736611690923
 30
0.0
 10
127.1911494114104
 20
134.2736611690923
 30
0.0
 10
127.497711100365
 20
134.2736611690923
 30
0.0
 10
127.6518607832398
 20
134.2736611690923
 30
0.0
  0
LINE
  5
1FB
330
1F
100
AcDbEntity
  8
0
  6
Continuous
 62
     7
370
    25
100
AcDbLine
 10
126.850727063
 20
134.1236611691
 30
0.0
 11
126.850727063
 21
118.4236611691
 31
0.0
  0
LINE
  5
1FC
330
1F
100
AcDbEntity
  8
0
  6
Continuous
 62
     7
370
    25
100
AcDbLine
 10
135.0495933429
 20
118.2736611691
 30
0.0
 11
131.4043169015
 21
118.2736611691
 31
0.0
  0
LINE
  5
1FD
330
1F
100
AcDbEntity
  8
0
  6
Continuous
 62
     7
370
    25
100
AcDbLine
 10
131.350727063
 20
118.6324088148
 30
0.0
 11
131.4043169015
 21
118.2736611691
 31
0.0
  0
LINE
  5
1FE
330
1F
100
AcDbEntity
  8
0
  6
Continuous
 62
     7
370
    25
100
AcDbLine
 10
131.2971372246
 20
118.2736611691
 30
0.0
 11
131.350727063
 21
118.6324088148
 31
0.0
  0
LINE
  5
1FF
330
1F
100
AcDbEntity
  8
0
  6
Continuous
 62
     7
370
    25
100
AcDbLine
 10
131.2971372246
 20
118.2736611691
 30
0.0
 11
127.6518607832
 21
118.2736611691
 31
0.0
  0
LINE
  5
200
330
1F
100
AcDbEntity
  8
0
  6
Continuous
 62
     7
370
    25
100
AcDbLine
 10
131.350727063
 20
125.9149135234
 30
0.0
 11
131.2971372246
 21
126.2736611691
 31
0.0
  0
LINE
  5
201
330
1F
100
AcDbEntity
  8
0
  6
Continuous
 62
     7
370
    25
100
AcDbLine
 10
131.4043169015
 20
126.2736611691
 30
0.0
 11
131.350727063
 21
125.9149135234
 31
0.0
  0
LINE
  5
202
330
1F
100
AcDbEntity
  8
0
  6
Continuous
 62
     7
370
    25
100
AcDbLine
 10
131.350727063
 20
126.6324088148
 30
0.0
 11
131.350727063
 21
125.9149135234
 31
0.0
  0
LINE
  5
203
330
1F
100
AcDbEntity
  8
0
  6
Continuous
 62
     7
370
    25
100
AcDbLine
 10
137.850727063
 20
133.8236611691
 30
0.0
 11
137.850727063
 21
118.7236611768
 31
0.0
  0
LINE
  5
204
330
1F
100
AcDbEntity
  8
0
  6
Continuous
 62
     7
370
    25
100
AcDbLine
 10
124.850727063
 20
118.7236611691
 30
0.0
 11
124.850727063
 21
133.8236611614
 31
0.0
  0
LINE
  5
205
330
1F
100
AcDbEntity
  8
0
  6
Continuous
 62
     7
370
    25
100
AcDbLine
 10
131.2971372246
 20
134.2736611691
 30
0.0
 11
131.350727063
 21
134.2736611691
 31
0.0
  0
LINE
  5
206
330
1F
100
AcDbEntity
  8
0
  6
Continuous
 62
     7
370
    25
100
AcDbLine
 10
131.350727063
 20
134.2736611691
 30
0.0
 11
131.350727063
 21
133.9149135234
 31
0.0
  0
LINE
  5
207
330
1F
100
AcDbEntity
  8
0
  6
Continuous
 62
     7
370
    25
100
AcDbLine
 10
131.350727063
 20
134.2736611691
 30
0.0
 11
131.4043169015
 21
134.2736611691
 31
0.0
  0
LINE
  5
208
330
1F
100
AcDbEntity
  8
0
  6
Continuous
 62
     7
370
    25
100
AcDbLine
 10
131.4043169015
 20
118.2736611691
 30
0.0
 11
131.350727063
 21
118.2736611691
 31
0.0
  0
LINE
  5
209
330
1F
100
AcDbEntity
  8
0
  6
Continuous
 62
     7
370
    25
100
AcDbLine
 10
131.350727063
 20
118.6324088148
 30
0.0
 11
131.350727063
 21
118.2736611691
 31
0.0
  0
LINE
  5
20A
330
1F
100
AcDbEntity
  8
0
  6
Continuous
 62
     7
370
    25
100
AcDbLine
 10
131.350727063
 20
118.2736611691
 30
0.0
 11
131.2971372246
 21
118.2736611691
 31
0.0
  0
SPLINE
  5
20B
330
1F
100
AcDbEntity
  8
0
  6
Continuous
 62
     7
370
    25
100
AcDbSpline
210
0.0
220
0.0
230
1.0
 70
     8
 71
     3
 72
    16
 73
    12
 74
     0
 42
0.000000001
 43
0.00000001
 40
0.0
 40
0.0
 40
0.0
 40
0.0
 40
0.2499999999999999
 40
0.2499999999999999
 40
0.4999999999999998
 40
0.4999999999999998
 40
0.6249999999999998
 40
0.6249999999999998
 40
0.7499999999999999
 40
0.7499999999999999
 40
1.0
 40
1.0
 40
1.0
 40
1.0
 10
145.3354596317332
 20
119.2736611690923
 30
0.0
 10
145.5259541027179
 20
119.8451445820466
 30
0.0
 10
145.682956115931
 20
120.420794683979
 30
0.0
 10
145.9004549267691
 20
121.5841007914074
 30
0.0
 10
145.9602342878391
 20
122.1718460508784
 30
0.0
 10
145.9608907886931
 20
123.0645377040642
 30
0.0
 10
145.9462770222096
 20
123.3635013829809
 30
0.0
 10
145.8892911643328
 20
123.9548831329155
 30
0.0
 10
145.8469768950735
 20
124.2485913232346
 30
0.0
 10
145.6835820751834
 20
125.1244868177692
 30
0.0
 10
145.52619154787
 20
125.7014654206813
 30
0.0
 10
145.3354596317329
 20
126.2736611690923
 30
0.0
  0
SPLINE
  5
20C
330
1F
100
AcDbEntity
  8
0
  6
Continuous
 62
     7
370
    25
100
AcDbSpline
210
0.0
220
0.0
230
1.0
 70
     8
 71
     3
 72
    16
 73
    12
 74
     0
 42
0.000000001
 43
0.00000001
 40
0.0
 40
0.0
 40
0.0
 40
0.0
 40
0.2499999999999999
 40
0.2499999999999999
 40
0.4999999999999999
 40
0.4999999999999999
 40
0.6249999999999999
 40
0.6249999999999999
 40
0.7499999999999999
 40
0.7499999999999999
 40
1.0
 40
1.0
 40
1.0
 40
1.0
 10
145.3354596317332
 20
126.2736611690923
 30
0.0
 10
145.5259541027179
 20
126.8451445820466
 30
0.0
 10
145.6829561159311
 20
127.420794683979
 30
0.0
 10
145.9004549267691
 20
128.5841007914074
 30
0.0
 10
145.9602342878391
 20
129.1718460508783
 30
0.0
 10
145.9608907886931
 20
130.0645377040642
 30
0.0
 10
145.9462770222096
 20
130.3635013829809
 30
0.0
 10
145.8892911643328
 20
130.9548831329155
 30
0.0
 10
145.8469768950736
 20
131.2485913232346
 30
0.0
 10
145.6835820751834
 20
132.1244868177692
 30
0.0
 10
145.52619154787
 20
132.7014654206814
 30
0.0
 10
145.3354596317329
 20
133.2736611690924
 30
0.0
  0
SPLINE
  5
20D
330
1F
100
AcDbEntity
  8
0
  6
Continuous
 62
     7
370
    25
100
AcDbSpline
210
0.0
220
0.0
230
1.0
 70
    24
 71
     3
 72
    10
 73
     6
 74
     0
 42
0.000000001
 43
0.00000001
 40
0.0
 40
0.0
 40
0.0
 40
0.0
 40
0.3847217023221219
 40
0.7731788796556208
 40
1.0
 40
1.0
 40
1.0
 40
1.0
 10
145.3354596317327
 20
133.2736611690923
 30
0.0
 10
145.4698062305119
 20
133.2736611690923
 30
0.0
 10
145.7398038732304
 20
133.2736611690923
 30
0.0
 10
145.9352599765514
 20
133.2736611690923
 30
0.0
 10
145.9510268227152
 20
133.2736611690923
 30
0.0
 10
145.9568392391853
 20
133.2736611690923
 30
0.0
  0
SPLINE
  5
20E
330
1F
100
AcDbEntity
  8
0
  6
Continuous
 62
     7
370
    25
100
AcDbSpline
210
0.0
220
0.0
230
1.0
 70
    24
 71
     3
 72
    10
 73
     6
 74
     0
 42
0.000000001
 43
0.00000001
 40
0.0
 40
0.0
 40
0.0
 40
0.0
 40
0.2268163306113477
 40
0.6111832424638556
 40
1.0
 40
1.0
 40
1.0
 40
1.0
 10
145.9555355983206
 20
119.2736611690923
 30
0.0
 10
145.9502490799995
 20
119.2736611690923
 30
0.0
 10
145.9360039354805
 20
119.2736611690923
 30
0.0
 10
145.7407332964133
 20
119.2736611690923
 30
0.0
 10
145.4710681810625
 20
119.2736611690923
 30
0.0
 10
145.3354596317327
 20
119.2736611690923
 30
0.0
  0
LINE
  5
20F
330
1F
100
AcDbEntity
  8
0
  6
Continuous
 62
     7
370
    25
100
AcDbLine
 10
146.1050119814
 20
119.5236611691
 30
0.0
 11
146.1050119814
 21
133.0236611691
 31
0.0
  0
LINE
  5
210
330
1F
100
AcDbEntity
  8
0
  6
Continuous
 62
     7
370
    25
100
AcDbLine
 10
141.874564331
 20
126.2736611691
 30
0.0
 11
143.5246272236
 21
126.2736611691
 31
0.0
  0
SPLINE
  5
211
330
1F
100
AcDbEntity
  8
0
  6
Continuous
 62
     7
370
    25
100
AcDbSpline
210
0.0
220
0.0
230
1.0
 70
     8
 71
     3
 72
    16
 73
    12
 74
     0
 42
0.000000001
 43
0.00000001
 40
0.0
 40
0.0
 40
0.0
 40
0.0
 40
0.2499999999999999
 40
0.2499999999999999
 40
0.4999999999999999
 40
0.4999999999999999
 40
0.6249999999999999
 40
0.6249999999999999
 40
0.7499999999999999
 40
0.7499999999999999
 40
1.0
 40
1.0
 40
1.0
 40
1.0
 10
141.8745643310056
 20
126.2736611690923
 30
0.0
 10
141.6840698600208
 20
126.8451445820466
 30
0.0
 10
141.5270678468077
 20
127.420794683979
 30
0.0
 10
141.3095690359697
 20
128.5841007914074
 30
0.0
 10
141.2497896748996
 20
129.1718460508783
 30
0.0
 10
141.2491331740456
 20
130.0645377040642
 30
0.0
 10
141.2637469405291
 20
130.3635013829809
 30
0.0
 10
141.320732798406
 20
130.9548831329155
 30
0.0
 10
141.3630470676652
 20
131.2485913232346
 30
0.0
 10
141.5264418875554
 20
132.1244868177692
 30
0.0
 10
141.6838324148688
 20
132.7014654206814
 30
0.0
 10
141.8745643310058
 20
133.2736611690924
 30
0.0
  0
LINE
  5
212
330
1F
100
AcDbEntity
  8
0
  6
Continuous
 62
     7
370
    25
100
AcDbLine
 10
141.874564331
 20
133.2736611691
 30
0.0
 11
143.5246272236
 21
133.2736611691
 31
0.0
  0
SPLINE
  5
213
330
1F
100
AcDbEntity
  8
0
  6
Continuous
 62
     7
370
    25
100
AcDbSpline
210
0.0
220
0.0
230
1.0
 70
     8
 71
     3
 72
     8
 73
     4
 74
     0
 42
0.000000001
 43
0.00000001
 40
0.0
 40
0.0
 40
0.0
 40
0.0
 40
1.0
 40
1.0
 40
1.0
 40
1.0
 10
143.6050119813694
 20
132.7198779472852
 30
0.0
 10
143.5800115684467
 20
132.9047336934534
 30
0.0
 10
143.5531452569865
 20
133.0893177036772
 30
0.0
 10
143.52462722364
 20
133.2736611690923
 30
0.0
  0
SPLINE
  5
214
330
1F
100
AcDbEntity
  8
0
  6
Continuous
 62
     7
370
    25
100
AcDbSpline
210
0.0
220
0.0
230
1.0
 70
     8
 71
     3
 72
     8
 73
     4
 74
     0
 42
0.000000001
 43
0.00000001
 40
0.0
 40
0.0
 40
0.0
 40
0.0
 40
1.0
 40
1.0
 40
1.0
 40
1.0
 10
143.6853967390987
 20
133.2736611690923
 30
0.0
 10
143.6568629242606
 20
133.0892156905114
 30
0.0
 10
143.6299980024538
 20
132.9046272786511
 30
0.0
 10
143.6050119813694
 20
132.7198779472852
 30
0.0
  0
LINE
  5
215
330
1F
100
AcDbEntity
  8
0
  6
Continuous
 62
     7
370
    25
100
AcDbLine
 10
143.6853967391
 20
133.2736611691
 30
0.0
 11
145.3354596317
 21
133.2736611691
 31
0.0
  0
LINE
  5
216
330
1F
100
AcDbEntity
  8
0
  6
Continuous
 62
     7
370
    25
100
AcDbLine
 10
143.6853967391
 20
126.2736611691
 30
0.0
 11
145.3354596317
 21
126.2736611691
 31
0.0
  0
SPLINE
  5
217
330
1F
100
AcDbEntity
  8
0
  6
Continuous
 62
     7
370
    25
100
AcDbSpline
210
0.0
220
0.0
230
1.0
 70
     8
 71
     3
 72
     8
 73
     4
 74
     0
 42
0.000000001
 43
0.00000001
 40
0.0
 40
0.0
 40
0.0
 40
0.0
 40
1.0
 40
1.0
 40
1.0
 40
1.0
 10
143.6050119813694
 20
126.8274443908994
 30
0.0
 10
143.6300123942921
 20
126.6425886447312
 30
0.0
 10
143.6568787057523
 20
126.4580046345075
 30
0.0
 10
143.6853967390987
 20
126.2736611690923
 30
0.0
  0
SPLINE
  5
218
330
1F
100
AcDbEntity
  8
0
  6
Continuous
 62
     7
370
    25
100
AcDbSpline
210
0.0
220
0.0
230
1.0
 70
     8
 71
     3
 72
     8
 73
     4
 74
     0
 42
0.000000001
 43
0.00000001
 40
0.0
 40
0.0
 40
0.0
 40
0.0
 40
1.0
 40
1.0
 40
1.0
 40
1.0
 10
143.52462722364
 20
126.2736611690923
 30
0.0
 10
143.5531610384782
 20
126.4581066476733
 30
0.0
 10
143.5800259602849
 20
126.6426950595335
 30
0.0
 10
143.6050119813694
 20
126.8274443908994
 30
0.0
  0
SPLINE
  5
219
330
1F
100
AcDbEntity
  8
0
  6
Continuous
 62
     7
370
    25
100
AcDbSpline
210
0.0
220
0.0
230
1.0
 70
    24
 71
     3
 72
    10
 73
     6
 74
     0
 42
0.000000001
 43
0.00000001
 40
0.0
 40
0.0
 40
0.0
 40
0.0
 40
0.2268163306113477
 40
0.6111832424638556
 40
1.0
 40
1.0
 40
1.0
 40
1.0
 10
141.2544883644181
 20
119.2736611690923
 30
0.0
 10
141.2597748827392
 20
119.2736611690923
 30
0.0
 10
141.2740200272582
 20
119.2736611690923
 30
0.0
 10
141.4692906663254
 20
119.2736611690923
 30
0.0
 10
141.7389557816762
 20
119.2736611690923
 30
0.0
 10
141.8745643310061
 20
119.2736611690923
 30
0.0
  0
SPLINE
  5
21A
330
1F
100
AcDbEntity
  8
0
  6
Continuous
 62
     7
370
    25
100
AcDbSpline
210
0.0
220
0.0
230
1.0
 70
    24
 71
     3
 72
    10
 73
     6
 74
     0
 42
0.000000001
 43
0.00000001
 40
0.0
 40
0.0
 40
0.0
 40
0.0
 40
0.384721702322122
 40
0.7731788796556208
 40
1.0
 40
1.0
 40
1.0
 40
1.0
 10
141.8745643310061
 20
133.2736611690923
 30
0.0
 10
141.7402177322269
 20
133.2736611690923
 30
0.0
 10
141.4702200895084
 20
133.2736611690923
 30
0.0
 10
141.2747639861874
 20
133.2736611690923
 30
0.0
 10
141.2589971400236
 20
133.2736611690923
 30
0.0
 10
141.2531847235534
 20
133.2736611690923
 30
0.0
  0
SPLINE
  5
21B
330
1F
100
AcDbEntity
  8
0
  6
Continuous
 62
     7
370
    25
100
AcDbSpline
210
0.0
220
0.0
230
1.0
 70
     8
 71
     3
 72
    16
 73
    12
 74
     0
 42
0.000000001
 43
0.00000001
 40
0.0
 40
0.0
 40
0.0
 40
0.0
 40
0.2499999999999999
 40
0.2499999999999999
 40
0.4999999999999998
 40
0.4999999999999998
 40
0.6249999999999998
 40
0.6249999999999998
 40
0.7499999999999999
 40
0.7499999999999999
 40
1.0
 40
1.0
 40
1.0
 40
1.0
 10
141.8745643310056
 20
119.2736611690923
 30
0.0
 10
141.6840698600208
 20
119.8451445820466
 30
0.0
 10
141.5270678468077
 20
120.420794683979
 30
0.0
 10
141.3095690359697
 20
121.5841007914074
 30
0.0
 10
141.2497896748996
 20
122.1718460508784
 30
0.0
 10
141.2491331740457
 20
123.0645377040642
 30
0.0
 10
141.2637469405292
 20
123.3635013829809
 30
0.0
 10
141.320732798406
 20
123.9548831329155
 30
0.0
 10
141.3630470676652
 20
124.2485913232346
 30
0.0
 10
141.5264418875554
 20
125.1244868177692
 30
0.0
 10
141.6838324148688
 20
125.7014654206813
 30
0.0
 10
141.8745643310058
 20
126.2736611690923
 30
0.0
  0
LINE
  5
21C
330
1F
100
AcDbEntity
  8
0
  6
Continuous
 62
     7
370
    25
100
AcDbLine
 10
141.1050119814
 20
119.5236611691
 30
0.0
 11
141.1050119814
 21
133.0236611691
 31
0.0
  0
SPLINE
  5
21D
330
1F
100
AcDbEntity
  8
0
  6
Continuous
 62
     7
370
    25
100
AcDbSpline
210
0.0
220
0.0
230
1.0
 70
     8
 71
     3
 72
     8
 73
     4
 74
     0
 42
0.000000001
 43
0.00000001
 40
0.0
 40
0.0
 40
0.0
 40
0.0
 40
1.0
 40
1.0
 40
1.0
 40
1.0
 10
143.6050119813694
 20
125.7198779472852
 30
0.0
 10
143.5800115684467
 20
125.9047336934534
 30
0.0
 10
143.5531452569865
 20
126.0893177036772
 30
0.0
 10
143.52462722364
 20
126.2736611690923
 30
0.0
  0
LINE
  5
21E
330
1F
100
AcDbEntity
  8
0
  6
Continuous
 62
     7
370
    25
100
AcDbLine
 10
143.6050119814
 20
125.7198779473
 30
0.0
 11
143.6050119814
 21
126.8274443909
 31
0.0
  0
SPLINE
  5
21F
330
1F
100
AcDbEntity
  8
0
  6
Continuous
 62
     7
370
    25
100
AcDbSpline
210
0.0
220
0.0
230
1.0
 70
     8
 71
     3
 72
     8
 73
     4
 74
     0
 42
0.000000001
 43
0.00000001
 40
0.0
 40
0.0
 40
0.0
 40
0.0
 40
1.0
 40
1.0
 40
1.0
 40
1.0
 10
143.6853967390987
 20
126.2736611690923
 30
0.0
 10
143.6568629242606
 20
126.0892156905114
 30
0.0
 10
143.6299980024538
 20
125.9046272786511
 30
0.0
 10
143.6050119813694
 20
125.7198779472852
 30
0.0
  0
LINE
  5
220
330
1F
100
AcDbEntity
  8
0
  6
Continuous
 62
     7
370
    25
100
AcDbLine
 10
141.874564331
 20
119.2736611691
 30
0.0
 11
143.5246272236
 21
119.2736611691
 31
0.0
  0
LINE
  5
221
330
1F
100
AcDbEntity
  8
0
  6
Continuous
 62
     7
370
    25
100
AcDbLine
 10
143.6853967391
 20
119.2736611691
 30
0.0
 11
145.3354596317
 21
119.2736611691
 31
0.0
  0
SPLINE
  5
222
330
1F
100
AcDbEntity
  8
0
  6
Continuous
 62
     7
370
    25
100
AcDbSpline
210
0.0
220
0.0
230
1.0
 70
     8
 71
     3
 72
     8
 73
     4
 74
     0
 42
0.000000001
 43
0.00000001
 40
0.0
 40
0.0
 40
0.0
 40
0.0
 40
1.0
 40
1.0
 40
1.0
 40
1.0
 10
143.6050119813694
 20
119.8274443908995
 30
0.0
 10
143.6300123942921
 20
119.6425886447313
 30
0.0
 10
143.6568787057523
 20
119.4580046345075
 30
0.0
 10
143.6853967390987
 20
119.2736611690923
 30
0.0
  0
SPLINE
  5
223
330
1F
100
AcDbEntity
  8
0
  6
Continuous
 62
     7
370
    25
100
AcDbSpline
210
0.0
220
0.0
230
1.0
 70
     8
 71
     3
 72
     8
 73
     4
 74
     0
 42
0.000000001
 43
0.00000001
 40
0.0
 40
0.0
 40
0.0
 40
0.0
 40
1.0
 40
1.0
 40
1.0
 40
1.0
 10
143.52462722364
 20
119.2736611690923
 30
0.0
 10
143.5531610384782
 20
119.4581066476733
 30
0.0
 10
143.5800259602849
 20
119.6426950595335
 30
0.0
 10
143.6050119813694
 20
119.8274443908995
 30
0.0
  0
LINE
  5
224
330
1F
100
AcDbEntity
  8
0
  6
Continuous
 62
     7
370
    25
100
AcDbLine
 10
148.1050119814
 20
120.6951611691
 30
0.0
 11
148.1050119814
 21
131.8521611691
 31
0.0
  0
LINE
  5
225
330
1F
100
AcDbEntity
  8
0
  6
Continuous
 62
     7
370
    25
100
AcDbLine
 10
149.1050119814
 20
132.8521611691
 30
0.0
 11
149.1050119814
 21
119.6951611691
 31
0.0
  0
LINE
  5
226
330
1F
100
AcDbEntity
  8
0
  6
Continuous
 62
     7
370
    25
100
AcDbLine
 10
138.1050119814
 20
119.6951611691
 30
0.0
 11
138.1050119814
 21
132.8521611691
 31
0.0
  0
LINE
  5
227
330
1F
100
AcDbEntity
  8
0
  6
Continuous
 62
     7
370
    25
100
AcDbLine
 10
139.1050119814
 20
131.8521611691
 30
0.0
 11
139.1050119814
 21
120.6951611691
 31
0.0
  0
LINE
  5
228
330
1F
100
AcDbEntity
  8
0
  6
Continuous
 62
     7
370
    25
100
AcDbLine
 10
143.6050119814
 20
119.2736611691
 30
0.0
 11
143.6050119814
 21
119.8274443909
 31
0.0
  0
SPLINE
  5
229
330
1F
100
AcDbEntity
  8
0
  6
Continuous
 62
     7
370
    25
100
AcDbSpline
210
0.0
220
0.0
230
1.0
 70
    24
 71
     3
 72
     8
 73
     4
 74
     0
 42
0.000000001
 43
0.00000001
 40
0.0
 40
0.0
 40
0.0
 40
0.0
 40
1.0
 40
1.0
 40
1.0
 40
1.0
 10
143.6050119813694
 20
119.2736611690923
 30
0.0
 10
143.5800123093751
 20
119.2736611690923
 30
0.0
 10
143.5531460685881
 20
119.2736611690923
 30
0.0
 10
143.52462722364
 20
119.2736611690923
 30
0.0
  0
SPLINE
  5
22A
330
1F
100
AcDbEntity
  8
0
  6
Continuous
 62
     7
370
    25
100
AcDbSpline
210
0.0
220
0.0
230
1.0
 70
    24
 71
     3
 72
     8
 73
     4
 74
     0
 42
0.000000001
 43
0.00000001
 40
0.0
 40
0.0
 40
0.0
 40
0.0
 40
1.0
 40
1.0
 40
1.0
 40
1.0
 10
143.6853967390987
 20
119.2736611690923
 30
0.0
 10
143.6568606087831
 20
119.2736611690923
 30
0.0
 10
143.6299958935996
 20
119.2736611690923
 30
0.0
 10
143.6050119813694
 20
119.2736611690923
 30
0.0
  0
LINE
  5
22B
330
1F
100
AcDbEntity
  8
0
  6
Continuous
 62
     7
370
    25
100
AcDbLine
 10
143.6050119814
 20
132.7198779473
 30
0.0
 11
143.6050119814
 21
133.2736611691
 31
0.0
  0
SPLINE
  5
22C
330
1F
100
AcDbEntity
  8
0
  6
Continuous
 62
     7
370
    25
100
AcDbSpline
210
0.0
220
0.0
230
1.0
 70
    24
 71
     3
 72
     8
 73
     4
 74
     0
 42
0.000000001
 43
0.00000001
 40
0.0
 40
0.0
 40
0.0
 40
0.0
 40
1.0
 40
1.0
 40
1.0
 40
1.0
 10
143.6050119813694
 20
133.2736611690923
 30
0.0
 10
143.6300116533636
 20
133.2736611690923
 30
0.0
 10
143.6568778941506
 20
133.2736611690923
 30
0.0
 10
143.6853967390987
 20
133.2736611690923
 30
0.0
  0
SPLINE
  5
22D
330
1F
100
AcDbEntity
  8
0
  6
Continuous
 62
     7
370
    25
100
AcDbSpline
210
0.0
220
0.0
230
1.0
 70
    24
 71
     3
 72
     8
 73
     4
 74
     0
 42
0.000000001
 43
0.00000001
 40
0.0
 40
0.0
 40
0.0
 40
0.0
 40
1.0
 40
1.0
 40
1.0
 40
1.0
 10
143.52462722364
 20
133.2736611690923
 30
0.0
 10
143.5531633539557
 20
133.2736611690923
 30
0.0
 10
143.5800280691391
 20
133.2736611690923
 30
0.0
 10
143.6050119813694
 20
133.2736611690923
 30
0.0
  0
LINE
  5
22E
330
1F
100
AcDbEntity
  8
0
  6
Continuous
 62
     8
370
    25
100
AcDbLine
 10
187.6555409427
 20
123.3404900105
 30
0.0
 11
187.6555409427
 21
129.2068323276
 31
0.0
  0
LINE
  5
22F
330
1F
100
AcDbEntity
  8
0
  6
Continuous
 62
     8
370
    25
100
AcDbLine
 10
99.55448302
 20
129.2068323276
 30
0.0
 11
99.55448302
 21
123.3404900105
 31
0.0
  0
LINE
  5
230
330
1F
100
AcDbEntity
  8
0
  6
Continuous
 62
     8
370
    25
100
AcDbLine
 10
149.6592968997
 20
134.1236611691
 30
0.0
 11
149.6592968997
 21
118.4236611691
 31
0.0
  0
LINE
  5
231
330
1F
100
AcDbEntity
  8
0
  6
Continuous
 62
     8
370
    25
100
AcDbLine
 10
162.0592968997
 20
118.4236611691
 30
0.0
 11
162.0592968997
 21
134.1236611691
 31
0.0
  0
LINE
  5
232
330
1F
100
AcDbEntity
  8
0
  6
Continuous
 62
     8
370
    25
100
AcDbLine
 10
137.550727063
 20
118.4236611691
 30
0.0
 11
137.550727063
 21
134.1236611691
 31
0.0
  0
LINE
  5
233
330
1F
100
AcDbEntity
  8
0
  6
Continuous
 62
     8
370
    25
100
AcDbLine
 10
125.150727063
 20
134.1236611691
 30
0.0
 11
125.150727063
 21
118.4236611691
 31
0.0
  0
LINE
  5
234
330
1F
100
AcDbEntity
  8
0
  6
CENTERX2
 62
     7
370
    18
100
AcDbLine
 10
97.6926400761
 20
126.2736611691
 30
0.0
 11
189.6555409427
 21
126.2736611691
 31
0.0
  0
ENDSEC
  0
SECTION
  2
OBJECTS
  0
DICTIONARY
  5
C
330
0
100
AcDbDictionary
281
     1
  3
ACAD_GROUP
350
D
  3
ACAD_LAYOUT
350
1A
  3
ACAD_MLINESTYLE
350
17
  3
ACAD_PLOTSETTINGS
350
19
  3
ACAD_PLOTSTYLENAME
350
E
  3
ACAD_SCALELIST
350
47
  0
DICTIONARY
  5
D
102
{ACAD_REACTORS
330
C
102
}
330
C
100
AcDbDictionary
281
     1
  0
DICTIONARY
  5
1A
102
{ACAD_REACTORS
330
C
102
}
330
C
100
AcDbDictionary
281
     1
  3
Layout1
350
1E
  3
Layout2
350
26
  3
Model
350
22
  0
DICTIONARY
  5
17
102
{ACAD_REACTORS
330
C
102
}
330
C
100
AcDbDictionary
281
     1
  3
Standard
350
18
  0
DICTIONARY
  5
19
102
{ACAD_REACTORS
330
C
102
}
330
C
100
AcDbDictionary
281
     1
  0
ACDBDICTIONARYWDFLT
  5
E
102
{ACAD_REACTORS
330
C
102
}
330
C
100
AcDbDictionary
281
     1
  3
Normal
350
F
100
AcDbDictionaryWithDefault
340
F
  0
DICTIONARY
  5
47
102
{ACAD_REACTORS
330
C
102
}
330
C
100
AcDbDictionary
281
     1
  3
A0
350
48
  3
A1
350
49
  3
A2
350
4A
  3
A3
350
4B
  3
A4
350
4C
  3
A5
350
4D
  3
A6
350
4E
  3
A7
350
4F
  3
A8
350
50
  3
A9
350
51
  3
B0
350
52
  3
B1
350
53
  3
B2
350
54
  3
B3
350
55
  3
B4
350
56
  3
B5
350
57
  3
B6
350
58
  3
B7
350
59
  3
B8
350
5A
  3
B9
350
5B
  3
C0
350
5C
  3
C1
350
5D
  3
C2
350
5E
  3
C3
350
5F
  3
C4
350
60
  3
C5
350
61
  3
C6
350
62
  3
C7
350
63
  3
C8
350
64
  3
C9
350
65
  3
D0
350
66
  3
D1
350
67
  3
D2
350
68
  0
LAYOUT
  5
1E
102
{ACAD_REACTORS
330
1A
102
}
330
1A
100
AcDbPlotSettings
  1

  2
none_device
  4

  6

 40
0.0
 41
0.0
 42
0.0
 43
0.0
 44
0.0
 45
0.0
 46
0.0
 47
0.0
 48
0.0
 49
0.0
140
0.0
141
0.0
142
1.0
143
1.0
 70
   688
 72
     1
 73
     0
 74
     5
  7

 75
    16
147
1.0
148
0.0
149
0.0
100
AcDbLayout
  1
Layout1
 70
     1
 71
     1
 10
0.0
 20
0.0
 11
420.0
 21
297.0
 12
0.0
 22
0.0
 32
0.0
 14
1.0000000000E+20
 24
1.0000000000E+20
 34
1.0000000000E+20
 15
-1.0000000000E+20
 25
-1.0000000000E+20
 35
-1.0000000000E+20
146
0.0
 13
0.0
 23
0.0
 33
0.0
 16
1.0
 26
0.0
 36
0.0
 17
0.0
 27
1.0
 37
0.0
 76
     0
330
1B
  0
LAYOUT
  5
26
102
{ACAD_REACTORS
330
1A
102
}
330
1A
100
AcDbPlotSettings
  1

  2
none_device
  4

  6

 40
0.0
 41
0.0
 42
0.0
 43
0.0
 44
0.0
 45
0.0
 46
0.0
 47
0.0
 48
0.0
 49
0.0
140
0.0
141
0.0
142
1.0
143
1.0
 70
   688
 72
     1
 73
     0
 74
     5
  7

 75
    16
147
1.0
148
0.0
149
0.0
100
AcDbLayout
  1
Layout2
 70
     1
 71
     2
 10
0.0
 20
0.0
 11
0.0
 21
0.0
 12
0.0
 22
0.0
 32
0.0
 14
0.0
 24
0.0
 34
0.0
 15
0.0
 25
0.0
 35
0.0
146
0.0
 13
0.0
 23
0.0
 33
0.0
 16
1.0
 26
0.0
 36
0.0
 17
0.0
 27
1.0
 37
0.0
 76
     0
330
23
  0
LAYOUT
  5
22
102
{ACAD_REACTORS
330
1A
102
}
330
1A
100
AcDbPlotSettings
  1

  2
none_device
  4
Letter_(8.50_x_11.00_Inches)
  6

 40
6.35
 41
6.35
 42
6.35000508
 43
6.35000508
 44
215.9
 45
279.4
 46
0.0
 47
0.0
 48
0.0
 49
0.0
140
0.0
141
0.0
142
1.0
143
1.0
 70
  1712
 72
     1
 73
     0
 74
     0
  7

 75
     0
147
1.0
148
0.0
149
0.0
100
AcDbLayout
  1
Model
 70
     1
 71
     0
 10
0.0
 20
0.0
 11
431.8
 21
279.4
 12
0.0
 22
0.0
 32
0.0
 14
0.0
 24
0.0
 34
0.0
 15
431.8
 25
279.4
 35
0.0
146
0.0
 13
0.0
 23
0.0
 33
0.0
 16
1.0
 26
0.0
 36
0.0
 17
0.0
 27
1.0
 37
0.0
 76
     0
330
1F
331
29
  0
MLINESTYLE
  5
18
102
{ACAD_REACTORS
330
17
102
}
330
17
100
AcDbMlineStyle
  2
Standard
 70
     0
  3

 62
   256
 51
90.0
 52
90.0
 71
     2
 49
0.5
 62
   256
  6
BYLAYER
 49
-0.5
 62
   256
  6
BYLAYER
  0
ACDBPLACEHOLDER
  5
F
102
{ACAD_REACTORS
330
E
102
}
330
E
  0
SCALE
  5
48
102
{ACAD_REACTORS
330
47
102
}
330
47
100
AcDbScale
 70
     0
300
1:1
140
1.0
141
1.0
290
     1
  0
SCALE
  5
49
102
{ACAD_REACTORS
330
47
102
}
330
47
100
AcDbScale
 70
     0
300
1:2
140
1.0
141
2.0
290
     0
  0
SCALE
  5
4A
102
{ACAD_REACTORS
330
47
102
}
330
47
100
AcDbScale
 70
     0
300
1:4
140
1.0
141
4.0
290
     0
  0
SCALE
  5
4B
102
{ACAD_REACTORS
330
47
102
}
330
47
100
AcDbScale
 70
     0
300
1:5
140
1.0
141
5.0
290
     0
  0
SCALE
  5
4C
102
{ACAD_REACTORS
330
47
102
}
330
47
100
AcDbScale
 70
     0
300
1:8
140
1.0
141
8.0
290
     0
  0
SCALE
  5
4D
102
{ACAD_REACTORS
330
47
102
}
330
47
100
AcDbScale
 70
     0
300
1:10
140
1.0
141
10.0
290
     0
  0
SCALE
  5
4E
102
{ACAD_REACTORS
330
47
102
}
330
47
100
AcDbScale
 70
     0
300
1:16
140
1.0
141
16.0
290
     0
  0
SCALE
  5
4F
102
{ACAD_REACTORS
330
47
102
}
330
47
100
AcDbScale
 70
     0
300
1:20
140
1.0
141
20.0
290
     0
  0
SCALE
  5
50
102
{ACAD_REACTORS
330
47
102
}
330
47
100
AcDbScale
 70
     0
300
1:30
140
1.0
141
30.0
290
     0
  0
SCALE
  5
51
102
{ACAD_REACTORS
330
47
102
}
330
47
100
AcDbScale
 70
     0
300
1:40
140
1.0
141
40.0
290
     0
  0
SCALE
  5
52
102
{ACAD_REACTORS
330
47
102
}
330
47
100
AcDbScale
 70
     0
300
1:50
140
1.0
141
50.0
290
     0
  0
SCALE
  5
53
102
{ACAD_REACTORS
330
47
102
}
330
47
100
AcDbScale
 70
     0
300
1:100
140
1.0
141
100.0
290
     0
  0
SCALE
  5
54
102
{ACAD_REACTORS
330
47
102
}
330
47
100
AcDbScale
 70
     0
300
2:1
140
2.0
141
1.0
290
     0
  0
SCALE
  5
55
102
{ACAD_REACTORS
330
47
102
}
330
47
100
AcDbScale
 70
     0
300
4:1
140
4.0
141
1.0
290
     0
  0
SCALE
  5
56
102
{ACAD_REACTORS
330
47
102
}
330
47
100
AcDbScale
 70
     0
300
8:1
140
8.0
141
1.0
290
     0
  0
SCALE
  5
57
102
{ACAD_REACTORS
330
47
102
}
330
47
100
AcDbScale
 70
     0
300
10:1
140
10.0
141
1.0
290
     0
  0
SCALE
  5
58
102
{ACAD_REACTORS
330
47
102
}
330
47
100
AcDbScale
 70
     0
300
100:1
140
100.0
141
1.0
290
     0
  0
SCALE
  5
59
102
{ACAD_REACTORS
330
47
102
}
330
47
100
AcDbScale
 70
     0
300
1/128" = 1'-0"
140
0.0078125
141
12.0
290
     0
  0
SCALE
  5
5A
102
{ACAD_REACTORS
330
47
102
}
330
47
100
AcDbScale
 70
     0
300
1/64" = 1'-0"
140
0.015625
141
12.0
290
     0
  0
SCALE
  5
5B
102
{ACAD_REACTORS
330
47
102
}
330
47
100
AcDbScale
 70
     0
300
1/32" = 1'-0"
140
0.03125
141
12.0
290
     0
  0
SCALE
  5
5C
102
{ACAD_REACTORS
330
47
102
}
330
47
100
AcDbScale
 70
     0
300
1/16" = 1'-0"
140
0.0625
141
12.0
290
     0
  0
SCALE
  5
5D
102
{ACAD_REACTORS
330
47
102
}
330
47
100
AcDbScale
 70
     0
300
3/32" = 1'-0"
140
0.09375
141
12.0
290
     0
  0
SCALE
  5
5E
102
{ACAD_REACTORS
330
47
102
}
330
47
100
AcDbScale
 70
     0
300
1/8" = 1'-0"
140
0.125
141
12.0
290
     0
  0
SCALE
  5
5F
102
{ACAD_REACTORS
330
47
102
}
330
47
100
AcDbScale
 70
     0
300
3/16" = 1'-0"
140
0.1875
141
12.0
290
     0
  0
SCALE
  5
60
102
{ACAD_REACTORS
330
47
102
}
330
47
100
AcDbScale
 70
     0
300
1/4" = 1'-0"
140
0.25
141
12.0
290
     0
  0
SCALE
  5
61
102
{ACAD_REACTORS
330
47
102
}
330
47
100
AcDbScale
 70
     0
300
3/8" = 1'-0"
140
0.375
141
12.0
290
     0
  0
SCALE
  5
62
102
{ACAD_REACTORS
330
47
102
}
330
47
100
AcDbScale
 70
     0
300
1/2" = 1'-0"
140
0.5
141
12.0
290
     0
  0
SCALE
  5
63
102
{ACAD_REACTORS
330
47
102
}
330
47
100
AcDbScale
 70
     0
300
3/4" = 1'-0"
140
0.75
141
12.0
290
     0
  0
SCALE
  5
64
102
{ACAD_REACTORS
330
47
102
}
330
47
100
AcDbScale
 70
     0
300
1" = 1'-0"
140
1.0
141
12.0
290
     0
  0
SCALE
  5
65
102
{ACAD_REACTORS
330
47
102
}
330
47
100
AcDbScale
 70
     0
300
1-1/2" = 1'-0"
140
1.5
141
12.0
290
     0
  0
SCALE
  5
66
102
{ACAD_REACTORS
330
47
102
}
330
47
100
AcDbScale
 70
     0
300
3" = 1'-0"
140
3.0
141
12.0
290
     0
  0
SCALE
  5
67
102
{ACAD_REACTORS
330
47
102
}
330
47
100
AcDbScale
 70
     0
300
6" = 1'-0"
140
6.0
141
12.0
290
     0
  0
SCALE
  5
68
102
{ACAD_REACTORS
330
47
102
}
330
47
100
AcDbScale
 70
     0
300
1'-0" = 1'-0"
140
12.0
141
12.0
290
     0
  0
ENDSEC
  0
EOF
