  0
SECTION
  2
HEADER
  9
$ACADVER
  1
AC1015
  9
$ACADMAINTVER
 70
     6
  9
$DWGCODEPAGE
  3
DOS932
  9
$INSBASE
 10
0.0
 20
0.0
 30
0.0
  9
$EXTMIN
 10
0.0
 20
0.0
 30
0.0
  9
$EXTMAX
 10
431.8
 20
279.4
 30
0.0
  9
$LIMMIN
 10
0.0
 20
0.0
  9
$LIMMAX
 10
431.8
 20
279.4
  9
$ORTHOMODE
 70
     0
  9
$REGENMODE
 70
     1
  9
$FILLMODE
 70
     1
  9
$QTEXTMODE
 70
     0
  9
$MIRRTEXT
 70
     1
  9
$LTSCALE
 40
1.0
  9
$ATTMODE
 70
     1
  9
$TEXTSIZE
 40
3.5
  9
$TRACEWID
 40
1.0
  9
$TEXTSTYLE
  7
Standard
  9
$CLAYER
  8
0
  9
$CELTYPE
  6
ByLayer
  9
$CECOLOR
 62
   256
  9
$CELTSCALE
 40
1.0
  9
$DISPSILH
 70
     0
  9
$DIMSCALE
 40
1.0
  9
$DIMASZ
 40
3.302
  9
$DIMEXO
 40
1.0
  9
$DIMDLI
 40
3.75
  9
$DIMRND
 40
0.0
  9
$DIMDLE
 40
0.0
  9
$DIMEXE
 40
1.0
  9
$DIMTP
 40
0.0
  9
$DIMTM
 40
0.0
  9
$DIMTXT
 40
3.5
  9
$DIMCEN
 40
2.5
  9
$DIMTSZ
 40
0.0
  9
$DIMTOL
 70
     0
  9
$DIMLIM
 70
     0
  9
$DIMTIH
 70
     1
  9
$DIMTOH
 70
     1
  9
$DIMSE1
 70
     0
  9
$DIMSE2
 70
     0
  9
$DIMTAD
 70
     1
  9
$DIMZIN
 70
     1
  9
$DIMBLK
  1

  9
$DIMASO
 70
     1
  9
$DIMSHO
 70
     1
  9
$DIMPOST
  1

  9
$DIMAPOST
  1

  9
$DIMALT
 70
     0
  9
$DIMALTD
 70
     3
  9
$DIMALTF
 40
0.0393700787
  9
$DIMLFAC
 40
1.0
  9
$DIMTOFL
 70
     1
  9
$DIMTVP
 40
0.0
  9
$DIMTIX
 70
     0
  9
$DIMSOXD
 70
     0
  9
$DIMSAH
 70
     0
  9
$DIMBLK1
  1

  9
$DIMBLK2
  1

  9
$DIMSTYLE
  2
ISO-25
  9
$DIMCLRD
 70
     0
  9
$DIMCLRE
 70
     0
  9
$DIMCLRT
 70
     0
  9
$DIMTFAC
 40
1.0
  9
$DIMGAP
 40
1.524
  9
$DIMJUST
 70
     0
  9
$DIMSD1
 70
     0
  9
$DIMSD2
 70
     0
  9
$DIMTOLJ
 70
     0
  9
$DIMTZIN
 70
     1
  9
$DIMALTZ
 70
     0
  9
$DIMALTTZ
 70
     0
  9
$DIMUPT
 70
     0
  9
$DIMDEC
 70
     2
  9
$DIMTDEC
 70
     2
  9
$DIMALTU
 70
     2
  9
$DIMALTTD
 70
     3
  9
$DIMTXSTY
  7
Standard
  9
$DIMAUNIT
 70
     0
  9
$DIMADEC
 70
     2
  9
$DIMALTRND
 40
0.0
  9
$DIMAZIN
 70
     0
  9
$DIMDSEP
 70
    44
  9
$DIMATFIT
 70
     3
  9
$DIMFRAC
 70
     0
  9
$DIMLDRBLK
  1

  9
$DIMLUNIT
 70
     2
  9
$DIMLWD
 70
    -2
  9
$DIMLWE
 70
    -2
  9
$DIMTMOVE
 70
     0
  9
$LUNITS
 70
     2
  9
$LUPREC
 70
     2
  9
$SKETCHINC
 40
1.0
  9
$FILLETRAD
 40
10.0
  9
$AUNITS
 70
     0
  9
$AUPREC
 70
     2
  9
$MENU
  1
.
  9
$ELEVATION
 40
0.0
  9
$PELEVATION
 40
0.0
  9
$THICKNESS
 40
0.0
  9
$LIMCHECK
 70
     0
  9
$CHAMFERA
 40
0.0
  9
$CHAMFERB
 40
0.0
  9
$CHAMFERC
 40
0.0
  9
$CHAMFERD
 40
0.0
  9
$SKPOLY
 70
     0
  9
$TDCREATE
 40
2459486.43398125
  9
$TDUCREATE
 40
2459486.05898125
  9
$TDUPDATE
 40
2459486.433981956
  9
$TDUUPDATE
 40
2459486.058981956
  9
$TDINDWG
 40
0.0000000116
  9
$TDUSRTIMER
 40
0.0000000116
  9
$USRTIMER
 70
     1
  9
$ANGBASE
 50
0.0
  9
$ANGDIR
 70
     0
  9
$PDMODE
 70
     0
  9
$PDSIZE
 40
-1.0
  9
$PLINEWID
 40
0.0
  9
$SPLFRAME
 70
     0
  9
$SPLINETYPE
 70
     6
  9
$SPLINESEGS
 70
     8
  9
$HANDSEED
  5
19C
  9
$SURFTAB1
 70
     6
  9
$SURFTAB2
 70
     6
  9
$SURFTYPE
 70
     6
  9
$SURFU
 70
     6
  9
$SURFV
 70
     6
  9
$UCSBASE
  2

  9
$UCSNAME
  2

  9
$UCSORG
 10
0.0
 20
0.0
 30
0.0
  9
$UCSXDIR
 10
1.0
 20
0.0
 30
0.0
  9
$UCSYDIR
 10
0.0
 20
1.0
 30
0.0
  9
$UCSORTHOREF
  2

  9
$UCSORTHOVIEW
 70
     0
  9
$UCSORGTOP
 10
0.0
 20
0.0
 30
0.0
  9
$UCSORGBOTTOM
 10
0.0
 20
0.0
 30
0.0
  9
$UCSORGLEFT
 10
0.0
 20
0.0
 30
0.0
  9
$UCSORGRIGHT
 10
0.0
 20
0.0
 30
0.0
  9
$UCSORGFRONT
 10
0.0
 20
0.0
 30
0.0
  9
$UCSORGBACK
 10
0.0
 20
0.0
 30
0.0
  9
$PUCSBASE
  2

  9
$PUCSNAME
  2

  9
$PUCSORG
 10
0.0
 20
0.0
 30
0.0
  9
$PUCSXDIR
 10
1.0
 20
0.0
 30
0.0
  9
$PUCSYDIR
 10
0.0
 20
1.0
 30
0.0
  9
$PUCSORTHOREF
  2

  9
$PUCSORTHOVIEW
 70
     0
  9
$PUCSORGTOP
 10
0.0
 20
0.0
 30
0.0
  9
$PUCSORGBOTTOM
 10
0.0
 20
0.0
 30
0.0
  9
$PUCSORGLEFT
 10
0.0
 20
0.0
 30
0.0
  9
$PUCSORGRIGHT
 10
0.0
 20
0.0
 30
0.0
  9
$PUCSORGFRONT
 10
0.0
 20
0.0
 30
0.0
  9
$PUCSORGBACK
 10
0.0
 20
0.0
 30
0.0
  9
$USERI1
 70
     0
  9
$USERI2
 70
     0
  9
$USERI3
 70
     0
  9
$USERI4
 70
     0
  9
$USERI5
 70
     0
  9
$USERR1
 40
0.0
  9
$USERR2
 40
0.0
  9
$USERR3
 40
0.0
  9
$USERR4
 40
0.0
  9
$USERR5
 40
0.0
  9
$WORLDVIEW
 70
     1
  9
$SHADEDGE
 70
     3
  9
$SHADEDIF
 70
    70
  9
$TILEMODE
 70
     1
  9
$MAXACTVP
 70
    64
  9
$PINSBASE
 10
0.0
 20
0.0
 30
0.0
  9
$PLIMCHECK
 70
     0
  9
$PEXTMIN
 10
1.0000000000E+20
 20
1.0000000000E+20
 30
1.0000000000E+20
  9
$PEXTMAX
 10
-1.0000000000E+20
 20
-1.0000000000E+20
 30
-1.0000000000E+20
  9
$PLIMMIN
 10
0.0
 20
0.0
  9
$PLIMMAX
 10
420.0
 20
297.0
  9
$UNITMODE
 70
     0
  9
$VISRETAIN
 70
     1
  9
$PLINEGEN
 70
     0
  9
$PSLTSCALE
 70
     1
  9
$TREEDEPTH
 70
  3020
  9
$CMLSTYLE
  2
Standard
  9
$CMLJUST
 70
     0
  9
$CMLSCALE
 40
20.0
  9
$PROXYGRAPHICS
 70
     1
  9
$MEASUREMENT
 70
     1
  9
$CELWEIGHT
370
    -1
  9
$ENDCAPS
280
     0
  9
$JOINSTYLE
280
     0
  9
$LWDISPLAY
290
     1
  9
$INSUNITS
 70
     4
  9
$HYPERLINKBASE
  1

  9
$STYLESHEET
  1

  9
$XEDIT
290
     1
  9
$CEPSNTYPE
380
     0
  9
$PSTYLEMODE
290
     1
  9
$FINGERPRINTGUID
  2
{1511A888-DE9D-4C07-98D4-1B371641E542}
  9
$VERSIONGUID
  2
{FAEB1C32-E019-11D5-929B-00C0DF256EC4}
  9
$EXTNAMES
290
     1
  9
$PSVPSCALE
 40
0.0
  9
$OLESTARTUP
290
     0
  0
ENDSEC
  0
SECTION
  2
CLASSES
  0
CLASS
  1
ACDBDICTIONARYWDFLT
  2
AcDbDictionaryWithDefault
  3
ObjectDBX Classes
 90
        0
280
     0
281
     0
  0
CLASS
  1
VISUALSTYLE
  2
AcDbVisualStyle
  3
ObjectDBX Classes
 90
     4095
280
     0
281
     0
  0
CLASS
  1
MATERIAL
  2
AcDbMaterial
  3
ObjectDBX Classes
 90
     1153
280
     0
281
     0
  0
CLASS
  1
SCALE
  2
AcDbScale
  3
ObjectDBX Classes
 90
     1153
280
     0
281
     0
  0
CLASS
  1
TABLESTYLE
  2
AcDbTableStyle
  3
ObjectDBX Classes
 90
     4095
280
     0
281
     0
  0
CLASS
  1
MLEADERSTYLE
  2
AcDbMLeaderStyle
  3
ACDB_MLEADERSTYLE_CLASS
 90
     4095
280
     0
281
     0
  0
CLASS
  1
SUN
  2
AcDbSun
  3
SCENEOE
 90
     1153
280
     0
281
     0
  0
CLASS
  1
ACDBPLACEHOLDER
  2
AcDbPlaceHolder
  3
ObjectDBX Classes
 90
        0
280
     0
281
     0
  0
CLASS
  1
LAYOUT
  2
AcDbLayout
  3
ObjectDBX Classes
 90
        0
280
     0
281
     0
  0
ENDSEC
  0
SECTION
  2
TABLES
  0
TABLE
  2
VPORT
  5
8
330
0
100
AcDbSymbolTable
 70
     1
  0
VPORT
  5
29
330
8
100
AcDbSymbolTableRecord
100
AcDbViewportTableRecord
  2
*Active
 70
     0
 10
0.0
 20
0.0
 11
1.0
 21
1.0
 12
215.9
 22
139.7
 13
0.0
 23
0.0
 14
10.0
 24
10.0
 15
10.0
 25
10.0
 16
0.0
 26
0.0
 36
1.0
 17
0.0
 27
0.0
 37
0.0
 40
279.4
 41
1.5454545455
 42
50.0
 43
0.0
 44
0.0
 50
0.0
 51
0.0
 71
     0
 72
  2000
 73
     1
 74
     3
 75
     0
 76
     0
 77
     0
 78
     0
281
     0
 65
     1
110
0.0
120
0.0
130
0.0
111
1.0
121
0.0
131
0.0
112
0.0
122
1.0
132
0.0
 79
     0
146
0.0
  0
ENDTAB
  0
TABLE
  2
LTYPE
  5
5
330
0
100
AcDbSymbolTable
 70
     6
  0
LTYPE
  5
14
330
5
100
AcDbSymbolTableRecord
100
AcDbLinetypeTableRecord
  2
ByBlock
 70
     0
  3

 72
    65
 73
     0
 40
0.0
  0
LTYPE
  5
15
330
5
100
AcDbSymbolTableRecord
100
AcDbLinetypeTableRecord
  2
ByLayer
 70
     0
  3

 72
    65
 73
     0
 40
0.0
  0
LTYPE
  5
16
330
5
100
AcDbSymbolTableRecord
100
AcDbLinetypeTableRecord
  2
Continuous
 70
     0
  3
Solid line
 72
    65
 73
     0
 40
0.0
  0
LTYPE
  5
6E
330
5
100
AcDbSymbolTableRecord
100
AcDbLinetypeTableRecord
  2
HIDDEN
 70
     0
  3
Hidden __ __ __ __ __ __ __ __ __ __ __ __ __ __
 72
    65
 73
     2
 40
1.905
 49
1.27
 74
     0
 49
-0.635
 74
     0
  0
LTYPE
  5
6F
330
5
100
AcDbSymbolTableRecord
100
AcDbLinetypeTableRecord
  2
PHANTOM
 70
     0
  3
Phantom ______  __  __  ______  __  __  ______
 72
    65
 73
     6
 40
12.7
 49
6.35
 74
     0
 49
-1.27
 74
     0
 49
1.27
 74
     0
 49
-1.27
 74
     0
 49
1.27
 74
     0
 49
-1.27
 74
     0
  0
LTYPE
  5
70
330
5
100
AcDbSymbolTableRecord
100
AcDbLinetypeTableRecord
  2
CENTER
 70
     0
  3
Center ____ _ ____ _ ____ _ ____ _ ____ _ ____
 72
    65
 73
     4
 40
10.16
 49
6.35
 74
     0
 49
-1.27
 74
     0
 49
1.27
 74
     0
 49
-1.27
 74
     0
  0
LTYPE
  5
71
330
5
100
AcDbSymbolTableRecord
100
AcDbLinetypeTableRecord
  2
CENTERX2
 70
     0
  3
Center (2x) ________  __  ________  __  _____
 72
    65
 73
     4
 40
20.32
 49
12.7
 74
     0
 49
-2.54
 74
     0
 49
2.54
 74
     0
 49
-2.54
 74
     0
  0
LTYPE
  5
72
330
5
100
AcDbSymbolTableRecord
100
AcDbLinetypeTableRecord
  2
DOT2
 70
     0
  3
Dot (.5x) ........................................
 72
    65
 73
     2
 40
0.635
 49
0.0
 74
     0
 49
-0.635
 74
     0
  0
ENDTAB
  0
TABLE
  2
LAYER
  5
2
330
0
100
AcDbSymbolTable
 70
     1
  0
LAYER
  5
10
330
2
100
AcDbSymbolTableRecord
100
AcDbLayerTableRecord
  2
0
 70
     0
 62
     7
  6
Continuous
370
    -3
390
F
  0
ENDTAB
  0
TABLE
  2
STYLE
  5
3
330
0
100
AcDbSymbolTable
 70
     2
  0
STYLE
  5
11
330
3
100
AcDbSymbolTableRecord
100
AcDbTextStyleTableRecord
  2
Standard
 70
     0
 40
0.0
 41
1.0
 50
0.0
 71
     0
 42
3.5
  3
txt
  4
bigfont
  0
STYLE
  5
73
330
3
100
AcDbSymbolTableRecord
100
AcDbTextStyleTableRecord
  2
SLDTEXTSTYLE0
 70
     0
 40
0.0
 41
0.7
 50
0.0
 71
     0
 42
3.5
  3
TXT
  4
bigfont
  0
ENDTAB
  0
TABLE
  2
VIEW
  5
6
330
0
100
AcDbSymbolTable
 70
     0
  0
ENDTAB
  0
TABLE
  2
UCS
  5
7
330
0
100
AcDbSymbolTable
 70
     0
  0
ENDTAB
  0
TABLE
  2
APPID
  5
9
330
0
100
AcDbSymbolTable
 70
     1
  0
APPID
  5
12
330
9
100
AcDbSymbolTableRecord
100
AcDbRegAppTableRecord
  2
ACAD
 70
     0
  0
ENDTAB
  0
TABLE
  2
DIMSTYLE
  5
A
330
0
100
AcDbSymbolTable
 70
     1
100
AcDbDimStyleTable
  0
DIMSTYLE
105
27
330
A
100
AcDbSymbolTableRecord
100
AcDbDimStyleTableRecord
  2
ISO-25
 70
     0
 41
2.5
 42
0.625
 43
3.75
 44
1.25
 73
     0
 74
     0
 77
     1
 78
     8
140
2.5
141
2.5
143
0.0393700787
147
0.625
171
     3
172
     1
178
     0
271
     2
272
     2
274
     3
278
    44
283
     0
284
     8
340
11
  0
ENDTAB
  0
TABLE
  2
BLOCK_RECORD
  5
1
330
0
100
AcDbSymbolTable
 70
     2
  0
BLOCK_RECORD
  5
1F
330
1
100
AcDbSymbolTableRecord
100
AcDbBlockTableRecord
  2
*Model_Space
340
22
  0
BLOCK_RECORD
  5
1B
330
1
100
AcDbSymbolTableRecord
100
AcDbBlockTableRecord
  2
*Paper_Space
340
1E
  0
BLOCK_RECORD
  5
23
330
1
100
AcDbSymbolTableRecord
100
AcDbBlockTableRecord
  2
*Paper_Space0
340
26
  0
BLOCK_RECORD
  5
115
330
1
100
AcDbSymbolTableRecord
100
AcDbBlockTableRecord
  2
SW_CENTERMARKSYMBOL_0
340
0
102
{BLKREFS
331
120
102
}
  0
ENDTAB
  0
ENDSEC
  0
SECTION
  2
BLOCKS
  0
BLOCK
  5
20
330
1F
100
AcDbEntity
  8
0
100
AcDbBlockBegin
  2
*Model_Space
 70
     0
 10
0.0
 20
0.0
 30
0.0
  3
*Model_Space
  1

  0
ENDBLK
  5
21
330
1F
100
AcDbEntity
  8
0
100
AcDbBlockEnd
  0
BLOCK
  5
1C
330
1B
100
AcDbEntity
 67
     1
  8
0
100
AcDbBlockBegin
  2
*Paper_Space
 70
     0
 10
0.0
 20
0.0
 30
0.0
  3
*Paper_Space
  1

  0
ENDBLK
  5
1D
330
1B
100
AcDbEntity
 67
     1
  8
0
100
AcDbBlockEnd
  0
BLOCK
  5
24
330
23
100
AcDbEntity
  8
0
100
AcDbBlockBegin
  2
*Paper_Space0
 70
     0
 10
0.0
 20
0.0
 30
0.0
  3
*Paper_Space0
  1

  0
ENDBLK
  5
25
330
23
100
AcDbEntity
  8
0
100
AcDbBlockEnd
  0
BLOCK
  5
116
330
115
100
AcDbEntity
  8
0
100
AcDbBlockBegin
  2
SW_CENTERMARKSYMBOL_0
 70
     0
 10
0.0
 20
0.0
 30
0.0
  3
SW_CENTERMARKSYMBOL_0
  1

  0
LINE
  5
118
330
115
100
AcDbEntity
  8
0
  6
Continuous
 62
     0
370
    18
100
AcDbLine
 10
0.0
 20
0.0
 30
0.0
 11
0.0
 21
2.5
 31
0.0
  0
LINE
  5
119
330
115
100
AcDbEntity
  8
0
  6
Continuous
 62
     0
370
    18
100
AcDbLine
 10
0.0
 20
0.0
 30
0.0
 11
-2.5
 21
0.0
 31
0.0
  0
LINE
  5
11A
330
115
100
AcDbEntity
  8
0
  6
Continuous
 62
     0
370
    18
100
AcDbLine
 10
0.0
 20
0.0
 30
0.0
 11
0.0
 21
-2.5
 31
0.0
  0
LINE
  5
11B
330
115
100
AcDbEntity
  8
0
  6
Continuous
 62
     0
370
    18
100
AcDbLine
 10
0.0
 20
0.0
 30
0.0
 11
2.5
 21
0.0
 31
0.0
  0
LINE
  5
11C
330
115
100
AcDbEntity
  8
0
  6
Continuous
 62
     0
370
    18
100
AcDbLine
 10
0.0
 20
5.0
 30
0.0
 11
0.0
 21
24.1022455964
 31
0.0
  0
LINE
  5
11D
330
115
100
AcDbEntity
  8
0
  6
Continuous
 62
     0
370
    18
100
AcDbLine
 10
-5.0
 20
0.0
 30
0.0
 11
-21.0
 21
0.0
 31
0.0
  0
LINE
  5
11E
330
115
100
AcDbEntity
  8
0
  6
Continuous
 62
     0
370
    18
100
AcDbLine
 10
0.0
 20
-5.0
 30
0.0
 11
0.0
 21
-23.9028933038
 31
0.0
  0
LINE
  5
11F
330
115
100
AcDbEntity
  8
0
  6
Continuous
 62
     0
370
    18
100
AcDbLine
 10
5.0
 20
0.0
 30
0.0
 11
21.0
 21
0.0
 31
0.0
  0
ENDBLK
  5
117
330
115
100
AcDbEntity
  8
0
100
AcDbBlockEnd
  0
ENDSEC
  0
SECTION
  2
ENTITIES
  0
MTEXT
  5
74
330
1F
100
AcDbEntity
  8
0
  6
Continuous
 62
     7
370
     0
100
AcDbMText
 10
196.8201443267
 20
113.0134521266
 30
0.0
 40
5.2916666667
 41
0.0
 71
     1
 72
     1
  1
HS-1827R
  7
SLDTEXTSTYLE0
 73
     1
 44
1.0
  0
LINE
  5
75
330
1F
100
AcDbEntity
  8
0
  6
Continuous
 62
     7
370
    25
100
AcDbLine
 10
177.4588836238
 20
63.5434904644
 30
0.0
 11
186.5144391793
 21
64.44904602
 31
0.0
  0
LINE
  5
76
330
1F
100
AcDbEntity
  8
0
  6
Continuous
 62
     7
370
    25
100
AcDbLine
 10
186.5144391793
 20
89.6379349089
 30
0.0
 11
177.4588836238
 21
90.5434904644
 31
0.0
  0
LINE
  5
77
330
1F
100
AcDbEntity
  8
0
  6
Continuous
 62
     7
370
    25
100
AcDbLine
 10
169.9588836238
 20
63.5434904644
 30
0.0
 11
177.4588836238
 21
64.5434904644
 31
0.0
  0
LINE
  5
78
330
1F
100
AcDbEntity
  8
0
  6
Continuous
 62
     7
370
    25
100
AcDbLine
 10
177.4588836238
 20
89.5434904644
 30
0.0
 11
169.9588836238
 21
90.5434904644
 31
0.0
  0
LINE
  5
79
330
1F
100
AcDbEntity
  8
0
  6
Continuous
 62
     7
370
    25
100
AcDbLine
 10
154.9588836238
 20
63.5434904644
 30
0.0
 11
162.4588836238
 21
64.5434904644
 31
0.0
  0
LINE
  5
7A
330
1F
100
AcDbEntity
  8
0
  6
Continuous
 62
     7
370
    25
100
AcDbLine
 10
162.4588836238
 20
89.5434904644
 30
0.0
 11
154.9588836238
 21
90.5434904644
 31
0.0
  0
LINE
  5
7B
330
1F
100
AcDbEntity
  8
0
  6
Continuous
 62
     7
370
    25
100
AcDbLine
 10
162.4588836238
 20
63.5434904644
 30
0.0
 11
169.9588836238
 21
64.5434904644
 31
0.0
  0
LINE
  5
7C
330
1F
100
AcDbEntity
  8
0
  6
Continuous
 62
     7
370
    25
100
AcDbLine
 10
169.9588836238
 20
89.5434904644
 30
0.0
 11
162.4588836238
 21
90.5434904644
 31
0.0
  0
LINE
  5
7D
330
1F
100
AcDbEntity
  8
0
  6
Continuous
 62
     7
370
    25
100
AcDbLine
 10
140.4588836238
 20
63.5434904644
 30
0.0
 11
147.4588836238
 21
63.5434904644
 31
0.0
  0
LINE
  5
7E
330
1F
100
AcDbEntity
  8
0
  6
Continuous
 62
     7
370
    25
100
AcDbLine
 10
147.4588836238
 20
90.5434904644
 30
0.0
 11
140.4588836238
 21
90.5434904644
 31
0.0
  0
LINE
  5
7F
330
1F
100
AcDbEntity
  8
0
  6
Continuous
 62
     7
370
    25
100
AcDbLine
 10
147.4588836238
 20
63.5434904644
 30
0.0
 11
154.9588836238
 21
64.5434904644
 31
0.0
  0
LINE
  5
80
330
1F
100
AcDbEntity
  8
0
  6
Continuous
 62
     7
370
    25
100
AcDbLine
 10
154.9588836238
 20
89.5434904644
 30
0.0
 11
147.4588836238
 21
90.5434904644
 31
0.0
  0
LINE
  5
81
330
1F
100
AcDbEntity
  8
0
  6
Continuous
 62
     7
370
    25
100
AcDbLine
 10
186.5144391793
 20
64.44904602
 30
0.0
 11
187.4588836238
 21
65.3934904644
 31
0.0
  0
LINE
  5
82
330
1F
100
AcDbEntity
  8
0
  6
Continuous
 62
     7
370
    25
100
AcDbLine
 10
187.4588836238
 20
88.6934904644
 30
0.0
 11
186.5144391793
 21
89.6379349089
 31
0.0
  0
LINE
  5
83
330
1F
100
AcDbEntity
  8
0
  6
Continuous
 62
     7
370
    25
100
AcDbLine
 10
124.4445703104
 20
98.9828006936
 30
0.0
 11
122.4588836238
 21
95.5434904644
 31
0.0
  0
LINE
  5
84
330
1F
100
AcDbEntity
  8
0
  6
Continuous
 62
     7
370
    25
100
AcDbLine
 10
122.4588836238
 20
58.5434904644
 30
0.0
 11
124.4445703104
 21
55.1041802352
 31
0.0
  0
LINE
  5
85
330
1F
100
AcDbEntity
  8
0
  6
Continuous
 62
     7
370
    25
100
AcDbLine
 10
136.4731969371
 20
55.1041802352
 30
0.0
 11
138.4588836238
 21
58.5434904644
 31
0.0
  0
LINE
  5
86
330
1F
100
AcDbEntity
  8
0
  6
Continuous
 62
     7
370
    25
100
AcDbLine
 10
138.4588836238
 20
95.5434904644
 30
0.0
 11
136.4731969371
 21
98.9828006936
 31
0.0
  0
LINE
  5
87
330
1F
100
AcDbEntity
  8
0
  6
Continuous
 62
     7
370
    25
100
AcDbLine
 10
139.9588836238
 20
58.5434904644
 30
0.0
 11
140.4588836238
 21
59.0434904644
 31
0.0
  0
LINE
  5
88
330
1F
100
AcDbEntity
  8
0
  6
Continuous
 62
     7
370
    25
100
AcDbLine
 10
140.4588836238
 20
95.0434904644
 30
0.0
 11
139.9588836238
 21
95.5434904644
 31
0.0
  0
LINE
  5
89
330
1F
100
AcDbEntity
  8
0
  6
Continuous
 62
     7
370
    25
100
AcDbLine
 10
139.9588836238
 20
95.5434904644
 30
0.0
 11
138.4588836238
 21
95.5434904644
 31
0.0
  0
LINE
  5
8A
330
1F
100
AcDbEntity
  8
0
  6
Continuous
 62
     7
370
    25
100
AcDbLine
 10
138.4588836238
 20
58.5434904644
 30
0.0
 11
139.9588836238
 21
58.5434904644
 31
0.0
  0
LINE
  5
8B
330
1F
100
AcDbEntity
  8
0
  6
Continuous
 62
     7
370
    25
100
AcDbLine
 10
120.9588836238
 20
58.5434904644
 30
0.0
 11
122.4588836238
 21
58.5434904644
 31
0.0
  0
LINE
  5
8C
330
1F
100
AcDbEntity
  8
0
  6
Continuous
 62
     7
370
    25
100
AcDbLine
 10
122.4588836238
 20
95.5434904644
 30
0.0
 11
120.9588836238
 21
95.5434904644
 31
0.0
  0
LINE
  5
8D
330
1F
100
AcDbEntity
  8
0
  6
Continuous
 62
     7
370
    25
100
AcDbLine
 10
120.9588836238
 20
95.5434904644
 30
0.0
 11
120.4588836238
 21
95.0434904644
 31
0.0
  0
LINE
  5
8E
330
1F
100
AcDbEntity
  8
0
  6
Continuous
 62
     7
370
    25
100
AcDbLine
 10
120.4588836238
 20
59.0434904644
 30
0.0
 11
120.9588836238
 21
58.5434904644
 31
0.0
  0
LINE
  5
8F
330
1F
100
AcDbEntity
  8
0
  6
Continuous
 62
     7
370
    25
100
AcDbLine
 10
130.3249090276
 20
55.1041802352
 30
0.0
 11
130.4588836238
 21
55.6041802352
 31
0.0
  0
LINE
  5
90
330
1F
100
AcDbEntity
  8
0
  6
Continuous
 62
     7
370
    25
100
AcDbLine
 10
130.4588836238
 20
55.6041802352
 30
0.0
 11
130.59285822
 21
55.1041802352
 31
0.0
  0
LINE
  5
91
330
1F
100
AcDbEntity
  8
0
  6
Continuous
 62
     7
370
    25
100
AcDbLine
 10
130.4588836238
 20
98.4828006936
 30
0.0
 11
130.3249090276
 21
98.9828006936
 31
0.0
  0
LINE
  5
92
330
1F
100
AcDbEntity
  8
0
  6
Continuous
 62
     7
370
    25
100
AcDbLine
 10
130.59285822
 20
98.9828006936
 30
0.0
 11
130.4588836238
 21
98.4828006936
 31
0.0
  0
LINE
  5
93
330
1F
100
AcDbEntity
  8
0
  6
Continuous
 62
     7
370
    25
100
AcDbLine
 10
105.1973470602
 20
97.250749886
 30
0.0
 11
103.489972537
 21
94.2934904644
 31
0.0
  0
LINE
  5
94
330
1F
100
AcDbEntity
  8
0
  6
Continuous
 62
     7
370
    25
100
AcDbLine
 10
103.489972537
 20
59.7934904644
 30
0.0
 11
105.1973470602
 21
56.8362310428
 31
0.0
  0
LINE
  5
95
330
1F
100
AcDbEntity
  8
0
  6
Continuous
 62
     7
370
    25
100
AcDbLine
 10
112.7825980139
 20
56.8362310428
 30
0.0
 11
114.489972537
 21
59.7934904644
 31
0.0
  0
LINE
  5
96
330
1F
100
AcDbEntity
  8
0
  6
Continuous
 62
     7
370
    25
100
AcDbLine
 10
114.489972537
 20
94.2934904644
 30
0.0
 11
112.7825980139
 21
97.250749886
 31
0.0
  0
LINE
  5
97
330
1F
100
AcDbEntity
  8
0
  6
Continuous
 62
     7
370
    25
100
AcDbLine
 10
103.489972537
 20
93.9961154644
 30
0.0
 11
85.7794325526
 21
93.4426610899
 31
0.0
  0
LINE
  5
98
330
1F
100
AcDbEntity
  8
0
  6
Continuous
 62
     7
370
    25
100
AcDbLine
 10
85.7794325526
 20
60.6443198389
 30
0.0
 11
103.489972537
 21
60.0908654644
 31
0.0
  0
LINE
  5
99
330
1F
100
AcDbEntity
  8
0
  6
Continuous
 62
     7
370
    25
100
AcDbLine
 10
119.389972537
 20
93.6679904644
 30
0.0
 11
117.989972537
 21
92.2679904644
 31
0.0
  0
LINE
  5
9A
330
1F
100
AcDbEntity
  8
0
  6
Continuous
 62
     7
370
    25
100
AcDbLine
 10
117.989972537
 20
61.8189904644
 30
0.0
 11
119.389972537
 21
60.4189904644
 31
0.0
  0
LINE
  5
9B
330
1F
100
AcDbEntity
  8
0
  6
Continuous
 62
     7
370
    25
100
AcDbLine
 10
119.389972537
 20
60.4189904644
 30
0.0
 11
120.4588836238
 21
60.4189904644
 31
0.0
  0
LINE
  5
9C
330
1F
100
AcDbEntity
  8
0
  6
Continuous
 62
     7
370
    25
100
AcDbLine
 10
120.4588836238
 20
93.6679904644
 30
0.0
 11
119.389972537
 21
93.6679904644
 31
0.0
  0
LINE
  5
9D
330
1F
100
AcDbEntity
  8
0
  6
Continuous
 62
     7
370
    25
100
AcDbLine
 10
85.7794325526
 20
93.4426610899
 30
0.0
 11
82.489972537
 21
91.5434904644
 31
0.0
  0
LINE
  5
9E
330
1F
100
AcDbEntity
  8
0
  6
Continuous
 62
     7
370
    25
100
AcDbLine
 10
82.489972537
 20
62.5434904644
 30
0.0
 11
85.7794325526
 21
60.6443198389
 31
0.0
  0
LINE
  5
9F
330
1F
100
AcDbEntity
  8
0
  6
Continuous
 62
     7
370
    25
100
AcDbLine
 10
114.489972537
 20
62.0434904644
 30
0.0
 11
117.989972537
 21
62.0434904644
 31
0.0
  0
LINE
  5
A0
330
1F
100
AcDbEntity
  8
0
  6
Continuous
 62
     7
370
    25
100
AcDbLine
 10
117.989972537
 20
92.0434904644
 30
0.0
 11
114.489972537
 21
92.0434904644
 31
0.0
  0
LINE
  5
A1
330
1F
100
AcDbEntity
  8
0
  6
Continuous
 62
     7
370
    25
100
AcDbLine
 10
108.8559979408
 20
56.8362310428
 30
0.0
 11
108.989972537
 21
57.3362310428
 31
0.0
  0
LINE
  5
A2
330
1F
100
AcDbEntity
  8
0
  6
Continuous
 62
     7
370
    25
100
AcDbLine
 10
108.989972537
 20
57.3362310428
 30
0.0
 11
109.1239471332
 21
56.8362310428
 31
0.0
  0
LINE
  5
A3
330
1F
100
AcDbEntity
  8
0
  6
Continuous
 62
     7
370
    25
100
AcDbLine
 10
108.989972537
 20
96.750749886
 30
0.0
 11
108.8559979408
 21
97.250749886
 31
0.0
  0
LINE
  5
A4
330
1F
100
AcDbEntity
  8
0
  6
Continuous
 62
     7
370
    25
100
AcDbLine
 10
109.1239471332
 20
97.250749886
 30
0.0
 11
108.989972537
 21
96.750749886
 31
0.0
  0
LINE
  5
A5
330
1F
100
AcDbEntity
  8
0
  6
Continuous
 62
     7
370
    25
100
AcDbLine
 10
177.4588836238
 20
77.0434904644
 30
0.0
 11
177.4588836238
 21
90.5434904644
 31
0.0
  0
LINE
  5
A6
330
1F
100
AcDbEntity
  8
0
  6
Continuous
 62
     7
370
    25
100
AcDbLine
 10
177.4588836238
 20
63.5434904644
 30
0.0
 11
177.4588836238
 21
77.0434904644
 31
0.0
  0
LINE
  5
A7
330
1F
100
AcDbEntity
  8
0
  6
Continuous
 62
     7
370
    25
100
AcDbLine
 10
186.5144391793
 20
64.44904602
 30
0.0
 11
186.5144391793
 21
89.6379349089
 31
0.0
  0
LINE
  5
A8
330
1F
100
AcDbEntity
  8
0
  6
Continuous
 62
     7
370
    25
100
AcDbLine
 10
169.9588836238
 20
77.0434904644
 30
0.0
 11
169.9588836238
 21
90.5434904644
 31
0.0
  0
LINE
  5
A9
330
1F
100
AcDbEntity
  8
0
  6
Continuous
 62
     7
370
    25
100
AcDbLine
 10
169.9588836238
 20
63.5434904644
 30
0.0
 11
169.9588836238
 21
77.0434904644
 31
0.0
  0
LINE
  5
AA
330
1F
100
AcDbEntity
  8
0
  6
Continuous
 62
     7
370
    25
100
AcDbLine
 10
154.9588836238
 20
77.0434904644
 30
0.0
 11
154.9588836238
 21
90.5434904644
 31
0.0
  0
LINE
  5
AB
330
1F
100
AcDbEntity
  8
0
  6
Continuous
 62
     7
370
    25
100
AcDbLine
 10
154.9588836238
 20
63.5434904644
 30
0.0
 11
154.9588836238
 21
77.0434904644
 31
0.0
  0
LINE
  5
AC
330
1F
100
AcDbEntity
  8
0
  6
Continuous
 62
     7
370
    25
100
AcDbLine
 10
162.4588836238
 20
77.0434904644
 30
0.0
 11
162.4588836238
 21
90.5434904644
 31
0.0
  0
LINE
  5
AD
330
1F
100
AcDbEntity
  8
0
  6
Continuous
 62
     7
370
    25
100
AcDbLine
 10
162.4588836238
 20
63.5434904644
 30
0.0
 11
162.4588836238
 21
77.0434904644
 31
0.0
  0
LINE
  5
AE
330
1F
100
AcDbEntity
  8
0
  6
Continuous
 62
     7
370
    25
100
AcDbLine
 10
147.4588836238
 20
77.0434904644
 30
0.0
 11
147.4588836238
 21
90.5434904644
 31
0.0
  0
LINE
  5
AF
330
1F
100
AcDbEntity
  8
0
  6
Continuous
 62
     7
370
    25
100
AcDbLine
 10
147.4588836238
 20
63.5434904644
 30
0.0
 11
147.4588836238
 21
77.0434904644
 31
0.0
  0
LINE
  5
B0
330
1F
100
AcDbEntity
  8
0
  6
Continuous
 62
     7
370
    25
100
AcDbLine
 10
187.4588836238
 20
77.0434904644
 30
0.0
 11
187.4588836238
 21
65.3934904644
 31
0.0
  0
LINE
  5
B1
330
1F
100
AcDbEntity
  8
0
  6
Continuous
 62
     7
370
    25
100
AcDbLine
 10
187.4588836238
 20
88.6934904644
 30
0.0
 11
187.4588836238
 21
77.0434904644
 31
0.0
  0
SPLINE
  5
B2
330
1F
100
AcDbEntity
  8
0
  6
Continuous
 62
     7
370
    25
100
AcDbSpline
210
0.0
220
0.0
230
1.0
 70
     8
 71
     3
 72
    15
 73
    11
 74
     0
 42
0.000000001
 43
0.00000001
 40
0.0
 40
0.0
 40
0.0
 40
0.0
 40
0.1323076376987256
 40
0.2645778651892492
 40
0.3998071657564337
 40
0.5350120639173546
 40
0.6502005161668153
 40
0.7654069362546181
 40
0.8826921292110406
 40
1.0
 40
1.0
 40
1.0
 40
1.0
 10
124.444570310443
 20
55.10418023520532
 30
0.0
 10
124.1862330083695
 20
55.5781216162099
 30
0.0
 10
123.6696314495313
 20
56.52587037049246
 30
0.0
 10
123.1137926036724
 20
57.98532052958993
 30
0.0
 10
122.7795901415155
 20
59.4722821664315
 30
0.0
 10
122.7134187848365
 20
60.90536356797035
 30
0.0
 10
122.8851518775866
 20
62.26100415257632
 30
0.0
 10
123.2370106624083
 20
63.54037575947202
 30
0.0
 10
123.7531392611408
 20
64.81396268627361
 30
0.0
 10
124.2140784411948
 20
65.65385073163723
 30
0.0
 10
124.444570310443
 20
66.0738353498084
 30
0.0
  0
LINE
  5
B3
330
1F
100
AcDbEntity
  8
0
  6
Continuous
 62
     7
370
    25
100
AcDbLine
 10
124.4445703104
 20
66.0738353498
 30
0.0
 11
130.3249090276
 21
66.0738353498
 31
0.0
  0
LINE
  5
B4
330
1F
100
AcDbEntity
  8
0
  6
Continuous
 62
     7
370
    25
100
AcDbLine
 10
130.4588836238
 20
65.5549926672
 30
0.0
 11
130.3249090276
 21
66.0738353498
 31
0.0
  0
LINE
  5
B5
330
1F
100
AcDbEntity
  8
0
  6
Continuous
 62
     7
370
    25
100
AcDbLine
 10
130.4588836238
 20
65.5549926672
 30
0.0
 11
130.59285822
 21
66.0738353498
 31
0.0
  0
LINE
  5
B6
330
1F
100
AcDbEntity
  8
0
  6
Continuous
 62
     7
370
    25
100
AcDbLine
 10
130.59285822
 20
66.0738353498
 30
0.0
 11
136.4731969371
 21
66.0738353498
 31
0.0
  0
SPLINE
  5
B7
330
1F
100
AcDbEntity
  8
0
  6
Continuous
 62
     7
370
    25
100
AcDbSpline
210
0.0
220
0.0
230
1.0
 70
     8
 71
     3
 72
    15
 73
    11
 74
     0
 42
0.000000001
 43
0.00000001
 40
0.0
 40
0.0
 40
0.0
 40
0.0
 40
0.1323076376987256
 40
0.2645778651892492
 40
0.3998071657564337
 40
0.5350120639173546
 40
0.6502005161668153
 40
0.7654069362546181
 40
0.8826921292110406
 40
1.0
 40
1.0
 40
1.0
 40
1.0
 10
136.4731969371258
 20
55.10418023520532
 30
0.0
 10
136.7315342391993
 20
55.5781216162099
 30
0.0
 10
137.2481357980375
 20
56.52587037049246
 30
0.0
 10
137.8039746438964
 20
57.98532052958993
 30
0.0
 10
138.1381771060533
 20
59.4722821664315
 30
0.0
 10
138.2043484627323
 20
60.90536356797035
 30
0.0
 10
138.0326153699822
 20
62.26100415257632
 30
0.0
 10
137.6807565851605
 20
63.54037575947202
 30
0.0
 10
137.164627986428
 20
64.81396268627361
 30
0.0
 10
136.703688806374
 20
65.65385073163723
 30
0.0
 10
136.4731969371258
 20
66.0738353498084
 30
0.0
  0
LINE
  5
B8
330
1F
100
AcDbEntity
  8
0
  6
Continuous
 62
     7
370
    25
100
AcDbLine
 10
130.59285822
 20
55.1041802352
 30
0.0
 11
136.4731969371
 21
55.1041802352
 31
0.0
  0
LINE
  5
B9
330
1F
100
AcDbEntity
  8
0
  6
Continuous
 62
     7
370
    25
100
AcDbLine
 10
130.59285822
 20
55.1041802352
 30
0.0
 11
130.4588836238
 21
55.6230229178
 31
0.0
  0
LINE
  5
BA
330
1F
100
AcDbEntity
  8
0
  6
Continuous
 62
     7
370
    25
100
AcDbLine
 10
130.3249090276
 20
55.1041802352
 30
0.0
 11
130.4588836238
 21
55.6230229178
 31
0.0
  0
LINE
  5
BB
330
1F
100
AcDbEntity
  8
0
  6
Continuous
 62
     7
370
    25
100
AcDbLine
 10
124.4445703104
 20
55.1041802352
 30
0.0
 11
130.3249090276
 21
55.1041802352
 31
0.0
  0
SPLINE
  5
BC
330
1F
100
AcDbEntity
  8
0
  6
Continuous
 62
     7
370
    25
100
AcDbSpline
210
0.0
220
0.0
230
1.0
 70
     8
 71
     3
 72
    16
 73
    12
 74
     0
 42
0.000000001
 43
0.00000001
 40
0.0
 40
0.0
 40
0.0
 40
0.0
 40
0.1233447855335288
 40
0.2484833567037508
 40
0.3735902095277463
 40
0.5017929984441671
 40
0.6299961721265651
 40
0.7220229399870007
 40
0.8140588500896908
 40
0.9070251278607588
 40
1.0
 40
1.0
 40
1.0
 40
1.0
 10
124.444570310443
 20
66.0738353498084
 30
0.0
 10
124.2026992235815
 20
66.9572302839408
 30
0.0
 10
123.7154395531142
 20
68.7368672388297
 30
0.0
 10
123.1798056260893
 20
71.4607925900082
 30
0.0
 10
122.8252932442654
 20
74.25038458592918
 30
0.0
 10
122.7080635750934
 20
77.08385817858216
 30
0.0
 10
122.8219461734598
 20
79.67125862521634
 30
0.0
 10
123.0922151703135
 20
81.97490737717698
 30
0.0
 10
123.4437536428757
 20
84.0020371425661
 30
0.0
 10
123.8910562661652
 20
86.01762434423232
 30
0.0
 10
124.2600599437891
 20
87.34795133778118
 30
0.0
 10
124.444570310443
 20
88.01314557901422
 30
0.0
  0
LINE
  5
BD
330
1F
100
AcDbEntity
  8
0
  6
Continuous
 62
     7
370
    25
100
AcDbLine
 10
124.4445703104
 20
88.013145579
 30
0.0
 11
130.3249090276
 21
88.013145579
 31
0.0
  0
LINE
  5
BE
330
1F
100
AcDbEntity
  8
0
  6
Continuous
 62
     7
370
    25
100
AcDbLine
 10
130.4588836238
 20
86.9754602139
 30
0.0
 11
130.3249090276
 21
88.013145579
 31
0.0
  0
LINE
  5
BF
330
1F
100
AcDbEntity
  8
0
  6
Continuous
 62
     7
370
    25
100
AcDbLine
 10
130.4588836238
 20
86.9754602139
 30
0.0
 11
130.59285822
 21
88.013145579
 31
0.0
  0
LINE
  5
C0
330
1F
100
AcDbEntity
  8
0
  6
Continuous
 62
     7
370
    25
100
AcDbLine
 10
130.59285822
 20
88.013145579
 30
0.0
 11
136.4731969371
 21
88.013145579
 31
0.0
  0
SPLINE
  5
C1
330
1F
100
AcDbEntity
  8
0
  6
Continuous
 62
     7
370
    25
100
AcDbSpline
210
0.0
220
0.0
230
1.0
 70
     8
 71
     3
 72
    16
 73
    12
 74
     0
 42
0.000000001
 43
0.00000001
 40
0.0
 40
0.0
 40
0.0
 40
0.0
 40
0.1233447855335287
 40
0.2484833567037507
 40
0.3735902095277464
 40
0.5017929984441671
 40
0.6299961721265651
 40
0.7220229399870008
 40
0.8140588500896908
 40
0.9070251278607588
 40
1.0
 40
1.0
 40
1.0
 40
1.0
 10
136.4731969371258
 20
66.0738353498084
 30
0.0
 10
136.7150680239873
 20
66.9572302839408
 30
0.0
 10
137.2023276944546
 20
68.7368672388297
 30
0.0
 10
137.7379616214795
 20
71.4607925900082
 30
0.0
 10
138.0924740033035
 20
74.25038458592917
 30
0.0
 10
138.2097036724754
 20
77.08385817858216
 30
0.0
 10
138.095821074109
 20
79.67125862521634
 30
0.0
 10
137.8255520772553
 20
81.97490737717698
 30
0.0
 10
137.4740136046931
 20
84.0020371425661
 30
0.0
 10
137.0267109814036
 20
86.01762434423232
 30
0.0
 10
136.6577073037797
 20
87.34795133778118
 30
0.0
 10
136.4731969371258
 20
88.01314557901422
 30
0.0
  0
LINE
  5
C2
330
1F
100
AcDbEntity
  8
0
  6
Continuous
 62
     7
370
    25
100
AcDbLine
 10
130.59285822
 20
66.0738353498
 30
0.0
 11
130.4588836238
 21
67.111520715
 31
0.0
  0
LINE
  5
C3
330
1F
100
AcDbEntity
  8
0
  6
Continuous
 62
     7
370
    25
100
AcDbLine
 10
130.3249090276
 20
66.0738353498
 30
0.0
 11
130.4588836238
 21
67.111520715
 31
0.0
  0
LINE
  5
C4
330
1F
100
AcDbEntity
  8
0
  6
Continuous
 62
     7
370
    25
100
AcDbLine
 10
130.4588836238
 20
65.5549926672
 30
0.0
 11
130.4588836238
 21
67.111520715
 31
0.0
  0
SPLINE
  5
C5
330
1F
100
AcDbEntity
  8
0
  6
Continuous
 62
     7
370
    25
100
AcDbSpline
210
0.0
220
0.0
230
1.0
 70
     8
 71
     3
 72
    15
 73
    11
 74
     0
 42
0.000000001
 43
0.00000001
 40
0.0
 40
0.0
 40
0.0
 40
0.0
 40
0.1323076376987271
 40
0.2645778651892524
 40
0.3998071657564384
 40
0.5350120639173612
 40
0.6502005161668204
 40
0.7654069362546216
 40
0.8826921292110425
 40
1.0
 40
1.0
 40
1.0
 40
1.0
 10
124.444570310443
 20
88.01314557901422
 30
0.0
 10
124.1862330083695
 20
88.4870869600188
 30
0.0
 10
123.6696314495313
 20
89.43483571430133
 30
0.0
 10
123.1137926036724
 20
90.89428587339877
 30
0.0
 10
122.7795901415155
 20
92.38124751024031
 30
0.0
 10
122.7134187848366
 20
93.8143289117791
 30
0.0
 10
122.8851518775866
 20
95.16996949638504
 30
0.0
 10
123.2370106624083
 20
96.44934110328066
 30
0.0
 10
123.7531392611408
 20
97.7229280300822
 30
0.0
 10
124.2140784411948
 20
98.56281607544575
 30
0.0
 10
124.444570310443
 20
98.98280069361691
 30
0.0
  0
LINE
  5
C6
330
1F
100
AcDbEntity
  8
0
  6
Continuous
 62
     7
370
    25
100
AcDbLine
 10
122.4588836238
 20
77.0434904644
 30
0.0
 11
122.4588836238
 21
95.5434904644
 31
0.0
  0
LINE
  5
C7
330
1F
100
AcDbEntity
  8
0
  6
Continuous
 62
     7
370
    25
100
AcDbLine
 10
122.4588836238
 20
58.5434904644
 30
0.0
 11
122.4588836238
 21
77.0434904644
 31
0.0
  0
SPLINE
  5
C8
330
1F
100
AcDbEntity
  8
0
  6
Continuous
 62
     7
370
    25
100
AcDbSpline
210
0.0
220
0.0
230
1.0
 70
     8
 71
     3
 72
    15
 73
    11
 74
     0
 42
0.000000001
 43
0.00000001
 40
0.0
 40
0.0
 40
0.0
 40
0.0
 40
0.1323076376987271
 40
0.2645778651892524
 40
0.3998071657564384
 40
0.5350120639173612
 40
0.6502005161668204
 40
0.7654069362546216
 40
0.8826921292110425
 40
1.0
 40
1.0
 40
1.0
 40
1.0
 10
136.4731969371258
 20
88.01314557901422
 30
0.0
 10
136.7315342391993
 20
88.4870869600188
 30
0.0
 10
137.2481357980375
 20
89.43483571430133
 30
0.0
 10
137.8039746438964
 20
90.89428587339877
 30
0.0
 10
138.1381771060533
 20
92.38124751024031
 30
0.0
 10
138.2043484627322
 20
93.8143289117791
 30
0.0
 10
138.0326153699822
 20
95.16996949638504
 30
0.0
 10
137.6807565851605
 20
96.44934110328066
 30
0.0
 10
137.164627986428
 20
97.7229280300822
 30
0.0
 10
136.703688806374
 20
98.56281607544575
 30
0.0
 10
136.4731969371258
 20
98.98280069361691
 30
0.0
  0
LINE
  5
C9
330
1F
100
AcDbEntity
  8
0
  6
Continuous
 62
     7
370
    25
100
AcDbLine
 10
138.4588836238
 20
77.0434904644
 30
0.0
 11
138.4588836238
 21
95.5434904644
 31
0.0
  0
LINE
  5
CA
330
1F
100
AcDbEntity
  8
0
  6
Continuous
 62
     7
370
    25
100
AcDbLine
 10
138.4588836238
 20
58.5434904644
 30
0.0
 11
138.4588836238
 21
77.0434904644
 31
0.0
  0
LINE
  5
CB
330
1F
100
AcDbEntity
  8
0
  6
Continuous
 62
     7
370
    25
100
AcDbLine
 10
130.4588836238
 20
86.9754602139
 30
0.0
 11
130.4588836238
 21
88.5319882616
 31
0.0
  0
LINE
  5
CC
330
1F
100
AcDbEntity
  8
0
  6
Continuous
 62
     7
370
    25
100
AcDbLine
 10
130.59285822
 20
88.013145579
 30
0.0
 11
130.4588836238
 21
88.5319882616
 31
0.0
  0
LINE
  5
CD
330
1F
100
AcDbEntity
  8
0
  6
Continuous
 62
     7
370
    25
100
AcDbLine
 10
130.3249090276
 20
88.013145579
 30
0.0
 11
130.4588836238
 21
88.5319882616
 31
0.0
  0
LINE
  5
CE
330
1F
100
AcDbEntity
  8
0
  6
Continuous
 62
     7
370
    25
100
AcDbLine
 10
124.4445703104
 20
98.9828006936
 30
0.0
 11
130.3249090276
 21
98.9828006936
 31
0.0
  0
LINE
  5
CF
330
1F
100
AcDbEntity
  8
0
  6
Continuous
 62
     7
370
    25
100
AcDbLine
 10
130.4588836238
 20
98.463958011
 30
0.0
 11
130.3249090276
 21
98.9828006936
 31
0.0
  0
LINE
  5
D0
330
1F
100
AcDbEntity
  8
0
  6
Continuous
 62
     7
370
    25
100
AcDbLine
 10
130.4588836238
 20
98.463958011
 30
0.0
 11
130.59285822
 21
98.9828006936
 31
0.0
  0
LINE
  5
D1
330
1F
100
AcDbEntity
  8
0
  6
Continuous
 62
     7
370
    25
100
AcDbLine
 10
130.59285822
 20
98.9828006936
 30
0.0
 11
136.4731969371
 21
98.9828006936
 31
0.0
  0
LINE
  5
D2
330
1F
100
AcDbEntity
  8
0
  6
Continuous
 62
     7
370
    25
100
AcDbLine
 10
140.4588836238
 20
77.0434904644
 30
0.0
 11
140.4588836238
 21
95.0434904644
 31
0.0
  0
LINE
  5
D3
330
1F
100
AcDbEntity
  8
0
  6
Continuous
 62
     7
370
    25
100
AcDbLine
 10
140.4588836238
 20
59.0434904644
 30
0.0
 11
140.4588836238
 21
77.0434904644
 31
0.0
  0
LINE
  5
D4
330
1F
100
AcDbEntity
  8
0
  6
Continuous
 62
     7
370
    25
100
AcDbLine
 10
139.9588836238
 20
77.0434904644
 30
0.0
 11
139.9588836238
 21
58.5434904644
 31
0.0
  0
LINE
  5
D5
330
1F
100
AcDbEntity
  8
0
  6
Continuous
 62
     7
370
    25
100
AcDbLine
 10
139.9588836238
 20
95.5434904644
 30
0.0
 11
139.9588836238
 21
77.0434904644
 31
0.0
  0
LINE
  5
D6
330
1F
100
AcDbEntity
  8
0
  6
Continuous
 62
     7
370
    25
100
AcDbLine
 10
120.9588836238
 20
77.0434904644
 30
0.0
 11
120.9588836238
 21
58.5434904644
 31
0.0
  0
LINE
  5
D7
330
1F
100
AcDbEntity
  8
0
  6
Continuous
 62
     7
370
    25
100
AcDbLine
 10
120.9588836238
 20
95.5434904644
 30
0.0
 11
120.9588836238
 21
77.0434904644
 31
0.0
  0
LINE
  5
D8
330
1F
100
AcDbEntity
  8
0
  6
Continuous
 62
     7
370
    25
100
AcDbLine
 10
120.4588836238
 20
77.0434904644
 30
0.0
 11
120.4588836238
 21
95.0434904644
 31
0.0
  0
LINE
  5
D9
330
1F
100
AcDbEntity
  8
0
  6
Continuous
 62
     7
370
    25
100
AcDbLine
 10
120.4588836238
 20
59.0434904644
 30
0.0
 11
120.4588836238
 21
77.0434904644
 31
0.0
  0
LINE
  5
DA
330
1F
100
AcDbEntity
  8
0
  6
Continuous
 62
     7
370
    25
100
AcDbLine
 10
130.4588836238
 20
55.6041802352
 30
0.0
 11
130.4588836238
 21
55.6230229178
 31
0.0
  0
LINE
  5
DB
330
1F
100
AcDbEntity
  8
0
  6
Continuous
 62
     7
370
    25
100
AcDbLine
 10
130.4588836238
 20
98.463958011
 30
0.0
 11
130.4588836238
 21
98.4828006936
 31
0.0
  0
SPLINE
  5
DC
330
1F
100
AcDbEntity
  8
0
  6
Continuous
 62
     7
370
    25
100
AcDbSpline
210
0.0
220
0.0
230
1.0
 70
     8
 71
     3
 72
     8
 73
     4
 74
     0
 42
0.000000001
 43
0.00000001
 40
0.0
 40
0.0
 40
0.0
 40
0.0
 40
1.0
 40
1.0
 40
1.0
 40
1.0
 10
108.8559979408144
 20
66.93986075359281
 30
0.0
 10
108.9024782116037
 20
67.28679421786333
 30
0.0
 10
108.9471844050651
 20
67.63388528066507
 30
0.0
 10
108.98997253703
 20
67.98114673269946
 30
0.0
  0
LINE
  5
DD
330
1F
100
AcDbEntity
  8
0
  6
Continuous
 62
     7
370
    25
100
AcDbLine
 10
108.989972537
 20
66.419217764
 30
0.0
 11
108.989972537
 21
67.9811467327
 31
0.0
  0
SPLINE
  5
DE
330
1F
100
AcDbEntity
  8
0
  6
Continuous
 62
     7
370
    25
100
AcDbSpline
210
0.0
220
0.0
230
1.0
 70
     8
 71
     3
 72
     8
 73
     4
 74
     0
 42
0.000000001
 43
0.00000001
 40
0.0
 40
0.0
 40
0.0
 40
0.0
 40
1.0
 40
1.0
 40
1.0
 40
1.0
 10
108.98997253703
 20
66.41921776403949
 30
0.0
 10
108.9471664974804
 20
66.59292115756472
 30
0.0
 10
108.9024592736931
 20
66.76646469870198
 30
0.0
 10
108.8559979408144
 20
66.93986075359281
 30
0.0
  0
LINE
  5
DF
330
1F
100
AcDbEntity
  8
0
  6
Continuous
 62
     7
370
    25
100
AcDbLine
 10
105.1973470602
 20
56.8362310428
 30
0.0
 11
108.8559979408
 21
56.8362310428
 31
0.0
  0
SPLINE
  5
E0
330
1F
100
AcDbEntity
  8
0
  6
Continuous
 62
     7
370
    25
100
AcDbSpline
210
0.0
220
0.0
230
1.0
 70
     8
 71
     3
 72
    18
 73
    14
 74
     0
 42
0.000000001
 43
0.00000001
 40
0.0
 40
0.0
 40
0.0
 40
0.0
 40
0.2500000000000006
 40
0.2500000000000006
 40
0.5000000000000011
 40
0.5000000000000011
 40
0.562500000000001
 40
0.562500000000001
 40
0.625000000000001
 40
0.625000000000001
 40
0.7500000000000007
 40
0.7500000000000007
 40
1.0
 40
1.0
 40
1.0
 40
1.0
 10
105.1973470601754
 20
66.93986075359282
 30
0.0
 10
104.721110610282
 20
66.11499502596125
 30
0.0
 10
104.3286056362342
 20
65.28411554598668
 30
0.0
 10
103.7848589064103
 20
63.60502860716813
 30
0.0
 10
103.6354107336457
 20
62.75669232981321
 30
0.0
 10
103.6340426357501
 20
61.68295318083273
 30
0.0
 10
103.6429673088232
 20
61.46711689966468
 30
0.0
 10
103.6789264452193
 20
61.03740221654679
 30
0.0
 10
103.7059193229952
 20
60.82329136832274
 30
0.0
 10
103.8127676510848
 20
60.18310138344488
 30
0.0
 10
103.9185532779665
 20
59.75916981576264
 30
0.0
 10
104.3270403497804
 20
58.49492262672588
 30
0.0
 10
104.7205168978211
 20
57.66212511055335
 30
0.0
 10
105.1973470601755
 20
56.83623104277419
 30
0.0
  0
LINE
  5
E1
330
1F
100
AcDbEntity
  8
0
  6
Continuous
 62
     7
370
    25
100
AcDbLine
 10
105.1973470602
 20
66.9398607536
 30
0.0
 11
108.8559979408
 21
66.9398607536
 31
0.0
  0
SPLINE
  5
E2
330
1F
100
AcDbEntity
  8
0
  6
Continuous
 62
     7
370
    25
100
AcDbSpline
210
0.0
220
0.0
230
1.0
 70
     8
 71
     3
 72
     8
 73
     4
 74
     0
 42
0.000000001
 43
0.00000001
 40
0.0
 40
0.0
 40
0.0
 40
0.0
 40
1.0
 40
1.0
 40
1.0
 40
1.0
 10
109.1239471332455
 20
66.93986075359281
 30
0.0
 10
109.0774692854197
 20
66.76640306408024
 30
0.0
 10
109.0327629584861
 20
66.5928577806241
 30
0.0
 10
108.98997253703
 20
66.41921776403949
 30
0.0
  0
LINE
  5
E3
330
1F
100
AcDbEntity
  8
0
  6
Continuous
 62
     7
370
    25
100
AcDbLine
 10
109.1239471332
 20
66.9398607536
 30
0.0
 11
112.7825980139
 21
66.9398607536
 31
0.0
  0
SPLINE
  5
E4
330
1F
100
AcDbEntity
  8
0
  6
Continuous
 62
     7
370
    25
100
AcDbSpline
210
0.0
220
0.0
230
1.0
 70
     8
 71
     3
 72
    18
 73
    14
 74
     0
 42
0.000000001
 43
0.00000001
 40
0.0
 40
0.0
 40
0.0
 40
0.0
 40
0.2500000000000003
 40
0.2500000000000003
 40
0.5000000000000006
 40
0.5000000000000006
 40
0.5625000000000006
 40
0.5625000000000006
 40
0.6250000000000004
 40
0.6250000000000004
 40
0.7500000000000002
 40
0.7500000000000002
 40
1.0
 40
1.0
 40
1.0
 40
1.0
 10
112.7825980138845
 20
66.93986075359282
 30
0.0
 10
113.2588344637779
 20
66.11499502596125
 30
0.0
 10
113.6513394378257
 20
65.28411554598667
 30
0.0
 10
114.1950861676496
 20
63.60502860716813
 30
0.0
 10
114.3445343404142
 20
62.75669232981321
 30
0.0
 10
114.3459024383098
 20
61.68295318083273
 30
0.0
 10
114.3369777652368
 20
61.46711689966468
 30
0.0
 10
114.3010186288407
 20
61.03740221654678
 30
0.0
 10
114.2740257510647
 20
60.82329136832274
 30
0.0
 10
114.1671774229751
 20
60.18310138344488
 30
0.0
 10
114.0613917960935
 20
59.75916981576264
 30
0.0
 10
113.6529047242795
 20
58.49492262672587
 30
0.0
 10
113.2594281762389
 20
57.66212511055335
 30
0.0
 10
112.7825980138844
 20
56.83623104277419
 30
0.0
  0
LINE
  5
E5
330
1F
100
AcDbEntity
  8
0
  6
Continuous
 62
     7
370
    25
100
AcDbLine
 10
109.1239471332
 20
56.8362310428
 30
0.0
 11
112.7825980139
 21
56.8362310428
 31
0.0
  0
SPLINE
  5
E6
330
1F
100
AcDbEntity
  8
0
  6
Continuous
 62
     7
370
    25
100
AcDbSpline
210
0.0
220
0.0
230
1.0
 70
     8
 71
     3
 72
     8
 73
     4
 74
     0
 42
0.000000001
 43
0.00000001
 40
0.0
 40
0.0
 40
0.0
 40
0.0
 40
1.0
 40
1.0
 40
1.0
 40
1.0
 10
108.98997253703
 20
57.35687403232752
 30
0.0
 10
109.0327785765795
 20
57.1831706388023
 30
0.0
 10
109.0774858003668
 20
57.00962709766503
 30
0.0
 10
109.1239471332455
 20
56.83623104277419
 30
0.0
  0
SPLINE
  5
E7
330
1F
100
AcDbEntity
  8
0
  6
Continuous
 62
     7
370
    25
100
AcDbSpline
210
0.0
220
0.0
230
1.0
 70
     8
 71
     3
 72
     8
 73
     4
 74
     0
 42
0.000000001
 43
0.00000001
 40
0.0
 40
0.0
 40
0.0
 40
0.0
 40
1.0
 40
1.0
 40
1.0
 40
1.0
 10
108.8559979408144
 20
56.83623104277419
 30
0.0
 10
108.9024757886403
 20
57.00968873228676
 30
0.0
 10
108.9471821155738
 20
57.1832340157429
 30
0.0
 10
108.98997253703
 20
57.35687403232752
 30
0.0
  0
SPLINE
  5
E8
330
1F
100
AcDbEntity
  8
0
  6
Continuous
 62
     7
370
    25
100
AcDbSpline
210
0.0
220
0.0
230
1.0
 70
     8
 71
     3
 72
    18
 73
    14
 74
     0
 42
0.000000001
 43
0.00000001
 40
0.0
 40
0.0
 40
0.0
 40
0.0
 40
0.125
 40
0.125
 40
0.25
 40
0.25
 40
0.5
 40
0.5
 40
0.625
 40
0.625
 40
0.75
 40
0.75
 40
1.0
 40
1.0
 40
1.0
 40
1.0
 10
105.1973470601756
 20
66.9398607535928
 30
0.0
 10
104.9596973607054
 20
67.76310346136428
 30
0.0
 10
104.7410380585423
 20
68.5962256910108
 30
0.0
 10
104.3553832264945
 20
70.2713047400417
 30
0.0
 10
104.1887957412087
 20
71.11127300445632
 30
0.0
 10
103.781144172059
 20
73.63970348276898
 30
0.0
 10
103.6340749205024
 20
75.33686575772363
 30
0.0
 10
103.6344281269031
 20
77.90306072129098
 30
0.0
 10
103.6711834991611
 20
78.76438716156079
 30
0.0
 10
103.8158320047955
 20
80.48225575685125
 30
0.0
 10
103.9228289326926
 20
81.33226798144716
 30
0.0
 10
104.3333259286016
 20
83.85927265779212
 30
0.0
 10
104.7257292795414
 20
85.51338825960734
 30
0.0
 10
105.1973470601756
 20
87.14712017522979
 30
0.0
  0
LINE
  5
E9
330
1F
100
AcDbEntity
  8
0
  6
Continuous
 62
     7
370
    25
100
AcDbLine
 10
105.1973470602
 20
87.1471201752
 30
0.0
 11
108.8559979408
 21
87.1471201752
 31
0.0
  0
SPLINE
  5
EA
330
1F
100
AcDbEntity
  8
0
  6
Continuous
 62
     7
370
    25
100
AcDbSpline
210
0.0
220
0.0
230
1.0
 70
     8
 71
     3
 72
     8
 73
     4
 74
     0
 42
0.000000001
 43
0.00000001
 40
0.0
 40
0.0
 40
0.0
 40
0.0
 40
1.0
 40
1.0
 40
1.0
 40
1.0
 10
108.98997253703
 20
86.10583419612314
 30
0.0
 10
108.9471673011747
 20
86.45323446052296
 30
0.0
 10
108.9024601229583
 20
86.8003217264468
 30
0.0
 10
108.8559979408144
 20
87.14712017522977
 30
0.0
  0
SPLINE
  5
EB
330
1F
100
AcDbEntity
  8
0
  6
Continuous
 62
     7
370
    25
100
AcDbSpline
210
0.0
220
0.0
230
1.0
 70
     8
 71
     3
 72
     8
 73
     4
 74
     0
 42
0.000000001
 43
0.00000001
 40
0.0
 40
0.0
 40
0.0
 40
0.0
 40
1.0
 40
1.0
 40
1.0
 40
1.0
 10
109.1239471332455
 20
87.14712017522979
 30
0.0
 10
109.0774668624562
 20
86.80018671095927
 30
0.0
 10
109.0327606689949
 20
86.45309564815753
 30
0.0
 10
108.98997253703
 20
86.10583419612314
 30
0.0
  0
LINE
  5
EC
330
1F
100
AcDbEntity
  8
0
  6
Continuous
 62
     7
370
    25
100
AcDbLine
 10
109.1239471332
 20
87.1471201752
 30
0.0
 11
112.7825980139
 21
87.1471201752
 31
0.0
  0
SPLINE
  5
ED
330
1F
100
AcDbEntity
  8
0
  6
Continuous
 62
     7
370
    25
100
AcDbSpline
210
0.0
220
0.0
230
1.0
 70
     8
 71
     3
 72
    18
 73
    14
 74
     0
 42
0.000000001
 43
0.00000001
 40
0.0
 40
0.0
 40
0.0
 40
0.0
 40
0.125
 40
0.125
 40
0.25
 40
0.25
 40
0.5
 40
0.5
 40
0.625
 40
0.625
 40
0.75
 40
0.75
 40
1.0
 40
1.0
 40
1.0
 40
1.0
 10
112.7825980138844
 20
66.9398607535928
 30
0.0
 10
113.0202477133545
 20
67.76310346136428
 30
0.0
 10
113.2389070155176
 20
68.5962256910108
 30
0.0
 10
113.6245618475654
 20
70.2713047400417
 30
0.0
 10
113.7911493328512
 20
71.11127300445632
 30
0.0
 10
114.1988009020009
 20
73.63970348276898
 30
0.0
 10
114.3458701535575
 20
75.33686575772363
 30
0.0
 10
114.3455169471568
 20
77.90306072129098
 30
0.0
 10
114.3087615748988
 20
78.76438716156079
 30
0.0
 10
114.1641130692644
 20
80.48225575685125
 30
0.0
 10
114.0571161413673
 20
81.33226798144716
 30
0.0
 10
113.6466191454583
 20
83.85927265779212
 30
0.0
 10
113.2542157945185
 20
85.51338825960734
 30
0.0
 10
112.7825980138843
 20
87.14712017522979
 30
0.0
  0
SPLINE
  5
EE
330
1F
100
AcDbEntity
  8
0
  6
Continuous
 62
     7
370
    25
100
AcDbSpline
210
0.0
220
0.0
230
1.0
 70
     8
 71
     3
 72
     8
 73
     4
 74
     0
 42
0.000000001
 43
0.00000001
 40
0.0
 40
0.0
 40
0.0
 40
0.0
 40
1.0
 40
1.0
 40
1.0
 40
1.0
 10
108.98997253703
 20
67.98114673269944
 30
0.0
 10
109.0327777728853
 20
67.63374646829962
 30
0.0
 10
109.0774849511016
 20
67.2866592023758
 30
0.0
 10
109.1239471332455
 20
66.9398607535928
 30
0.0
  0
SPLINE
  5
EF
330
1F
100
AcDbEntity
  8
0
  6
Continuous
 62
     7
370
    25
100
AcDbSpline
210
0.0
220
0.0
230
1.0
 70
     8
 71
     3
 72
    18
 73
    14
 74
     0
 42
0.000000001
 43
0.00000001
 40
0.0
 40
0.0
 40
0.0
 40
0.0
 40
0.25
 40
0.25
 40
0.5
 40
0.5
 40
0.5625
 40
0.5625
 40
0.625
 40
0.625
 40
0.7500000000000001
 40
0.7500000000000001
 40
1.0
 40
1.0
 40
1.0
 40
1.0
 10
105.1973470601754
 20
97.25074988604806
 30
0.0
 10
104.721110610282
 20
96.4258841584165
 30
0.0
 10
104.3286056362342
 20
95.59500467844194
 30
0.0
 10
103.7848589064103
 20
93.91591773962347
 30
0.0
 10
103.6354107336458
 20
93.06758146226856
 30
0.0
 10
103.6340426357502
 20
91.99384231328814
 30
0.0
 10
103.6429673088232
 20
91.77800603212009
 30
0.0
 10
103.6789264452193
 20
91.34829134900221
 30
0.0
 10
103.7059193229953
 20
91.13418050077816
 30
0.0
 10
103.8127676510849
 20
90.49399051590034
 30
0.0
 10
103.9185532779665
 20
90.07005894821812
 30
0.0
 10
104.3270403497804
 20
88.8058117591814
 30
0.0
 10
104.7205168978211
 20
87.9730142430089
 30
0.0
 10
105.1973470601755
 20
87.14712017522977
 30
0.0
  0
LINE
  5
F0
330
1F
100
AcDbEntity
  8
0
  6
Continuous
 62
     7
370
    25
100
AcDbLine
 10
103.489972537
 20
94.2934904644
 30
0.0
 11
103.489972537
 21
59.7934904644
 31
0.0
  0
SPLINE
  5
F1
330
1F
100
AcDbEntity
  8
0
  6
Continuous
 62
     7
370
    25
100
AcDbSpline
210
0.0
220
0.0
230
1.0
 70
     8
 71
     3
 72
     8
 73
     4
 74
     0
 42
0.000000001
 43
0.00000001
 40
0.0
 40
0.0
 40
0.0
 40
0.0
 40
1.0
 40
1.0
 40
1.0
 40
1.0
 10
108.8559979408144
 20
87.14712017522977
 30
0.0
 10
108.9024757886403
 20
87.32057786474235
 30
0.0
 10
108.9471821155738
 20
87.49412314819848
 30
0.0
 10
108.98997253703
 20
87.6677631647831
 30
0.0
  0
LINE
  5
F2
330
1F
100
AcDbEntity
  8
0
  6
Continuous
 62
     7
370
    25
100
AcDbLine
 10
108.989972537
 20
86.1058341961
 30
0.0
 11
108.989972537
 21
87.6677631648
 31
0.0
  0
SPLINE
  5
F3
330
1F
100
AcDbEntity
  8
0
  6
Continuous
 62
     7
370
    25
100
AcDbSpline
210
0.0
220
0.0
230
1.0
 70
     8
 71
     3
 72
    18
 73
    14
 74
     0
 42
0.000000001
 43
0.00000001
 40
0.0
 40
0.0
 40
0.0
 40
0.0
 40
0.2500000000000003
 40
0.2500000000000003
 40
0.5000000000000006
 40
0.5000000000000006
 40
0.5625000000000006
 40
0.5625000000000006
 40
0.6250000000000004
 40
0.6250000000000004
 40
0.7500000000000003
 40
0.7500000000000003
 40
1.0
 40
1.0
 40
1.0
 40
1.0
 10
112.7825980138845
 20
97.25074988604806
 30
0.0
 10
113.2588344637779
 20
96.4258841584165
 30
0.0
 10
113.6513394378257
 20
95.59500467844195
 30
0.0
 10
114.1950861676496
 20
93.91591773962347
 30
0.0
 10
114.3445343404142
 20
93.06758146226856
 30
0.0
 10
114.3459024383097
 20
91.99384231328814
 30
0.0
 10
114.3369777652367
 20
91.77800603212009
 30
0.0
 10
114.3010186288406
 20
91.34829134900221
 30
0.0
 10
114.2740257510646
 20
91.13418050077816
 30
0.0
 10
114.1671774229751
 20
90.49399051590034
 30
0.0
 10
114.0613917960934
 20
90.07005894821812
 30
0.0
 10
113.6529047242795
 20
88.8058117591814
 30
0.0
 10
113.2594281762388
 20
87.9730142430089
 30
0.0
 10
112.7825980138844
 20
87.14712017522977
 30
0.0
  0
LINE
  5
F4
330
1F
100
AcDbEntity
  8
0
  6
Continuous
 62
     7
370
    25
100
AcDbLine
 10
114.489972537
 20
94.2934904644
 30
0.0
 11
114.489972537
 21
59.7934904644
 31
0.0
  0
SPLINE
  5
F5
330
1F
100
AcDbEntity
  8
0
  6
Continuous
 62
     7
370
    25
100
AcDbSpline
210
0.0
220
0.0
230
1.0
 70
     8
 71
     3
 72
     8
 73
     4
 74
     0
 42
0.000000001
 43
0.00000001
 40
0.0
 40
0.0
 40
0.0
 40
0.0
 40
1.0
 40
1.0
 40
1.0
 40
1.0
 10
108.98997253703
 20
87.6677631647831
 30
0.0
 10
109.0327785765795
 20
87.49405977125788
 30
0.0
 10
109.0774858003668
 20
87.32051623012062
 30
0.0
 10
109.1239471332455
 20
87.14712017522979
 30
0.0
  0
LINE
  5
F6
330
1F
100
AcDbEntity
  8
0
  6
Continuous
 62
     7
370
    25
100
AcDbLine
 10
105.1973470602
 20
97.250749886
 30
0.0
 11
108.8559979408
 21
97.250749886
 31
0.0
  0
SPLINE
  5
F7
330
1F
100
AcDbEntity
  8
0
  6
Continuous
 62
     7
370
    25
100
AcDbSpline
210
0.0
220
0.0
230
1.0
 70
     8
 71
     3
 72
     8
 73
     4
 74
     0
 42
0.000000001
 43
0.00000001
 40
0.0
 40
0.0
 40
0.0
 40
0.0
 40
1.0
 40
1.0
 40
1.0
 40
1.0
 10
108.98997253703
 20
96.73010689649472
 30
0.0
 10
108.9471664974804
 20
96.90381029001993
 30
0.0
 10
108.9024592736931
 20
97.0773538311572
 30
0.0
 10
108.8559979408144
 20
97.25074988604804
 30
0.0
  0
SPLINE
  5
F8
330
1F
100
AcDbEntity
  8
0
  6
Continuous
 62
     7
370
    25
100
AcDbSpline
210
0.0
220
0.0
230
1.0
 70
     8
 71
     3
 72
     8
 73
     4
 74
     0
 42
0.000000001
 43
0.00000001
 40
0.0
 40
0.0
 40
0.0
 40
0.0
 40
1.0
 40
1.0
 40
1.0
 40
1.0
 10
109.1239471332455
 20
97.25074988604804
 30
0.0
 10
109.0774692854197
 20
97.07729219653547
 30
0.0
 10
109.0327629584861
 20
96.90374691307933
 30
0.0
 10
108.98997253703
 20
96.73010689649472
 30
0.0
  0
LINE
  5
F9
330
1F
100
AcDbEntity
  8
0
  6
Continuous
 62
     7
370
    25
100
AcDbLine
 10
109.1239471332
 20
97.250749886
 30
0.0
 11
112.7825980139
 21
97.250749886
 31
0.0
  0
LINE
  5
FA
330
1F
100
AcDbEntity
  8
0
  6
Continuous
 62
     7
370
    25
100
AcDbLine
 10
85.7794325526
 20
93.4426610899
 30
0.0
 11
85.7794325526
 21
60.6443198389
 31
0.0
  0
LINE
  5
FB
330
1F
100
AcDbEntity
  8
0
  6
Continuous
 62
     7
370
    25
100
AcDbLine
 10
119.389972537
 20
93.6679904644
 30
0.0
 11
119.389972537
 21
60.4189904644
 31
0.0
  0
LINE
  5
FC
330
1F
100
AcDbEntity
  8
0
  6
Continuous
 62
     7
370
    25
100
AcDbLine
 10
117.989972537
 20
61.8189904644
 30
0.0
 11
117.989972537
 21
92.2679904644
 31
0.0
  0
LINE
  5
FD
330
1F
100
AcDbEntity
  8
0
  6
Continuous
 62
     7
370
    25
100
AcDbLine
 10
82.489972537
 20
77.0434904644
 30
0.0
 11
82.489972537
 21
91.5434904644
 31
0.0
  0
LINE
  5
FE
330
1F
100
AcDbEntity
  8
0
  6
Continuous
 62
     7
370
    25
100
AcDbLine
 10
82.489972537
 20
62.5434904644
 30
0.0
 11
82.489972537
 21
77.0434904644
 31
0.0
  0
LINE
  5
FF
330
1F
100
AcDbEntity
  8
0
  6
Continuous
 62
     7
370
    25
100
AcDbLine
 10
108.989972537
 20
57.3362310428
 30
0.0
 11
108.989972537
 21
57.3568740323
 31
0.0
  0
LINE
  5
100
330
1F
100
AcDbEntity
  8
0
  6
Continuous
 62
     7
370
    25
100
AcDbLine
 10
108.989972537
 20
96.7301068965
 30
0.0
 11
108.989972537
 21
96.750749886
 31
0.0
  0
LINE
  5
101
330
1F
100
AcDbEntity
  8
0
  6
Continuous
 62
     7
370
     0
100
AcDbLine
 10
83.6719898998
 20
92.225928507
 30
0.0
 11
102.989972537
 21
92.8296154644
 31
0.0
  0
LINE
  5
102
330
1F
100
AcDbEntity
  8
0
  6
Continuous
 62
     7
370
     0
100
AcDbLine
 10
83.6719898998
 20
61.8610524218
 30
0.0
 11
102.989972537
 21
61.2573654644
 31
0.0
  0
LINE
  5
103
330
1F
100
AcDbEntity
  8
0
  6
Continuous
 62
     7
370
     0
100
AcDbLine
 10
102.989972537
 20
60.1064904644
 30
0.0
 11
102.989972537
 21
93.9804904644
 31
0.0
  0
LINE
  5
104
330
1F
100
AcDbEntity
  8
0
  6
CENTERX2
 62
     7
370
    18
100
AcDbLine
 10
189.4588836238
 20
77.0434904644
 30
0.0
 11
186.9588836238
 21
77.0434904644
 31
0.0
  0
LINE
  5
105
330
1F
100
AcDbEntity
  8
0
  6
CENTERX2
 62
     7
370
    18
100
AcDbLine
 10
186.9588836238
 20
77.0434904644
 30
0.0
 11
78.586086109
 21
77.0434904644
 31
0.0
  0
CIRCLE
  5
106
330
1F
100
AcDbEntity
  8
0
  6
Continuous
 62
     7
370
    25
100
AcDbCircle
 10
229.61488104
 20
77.0434904644
 30
0.0
 40
10.5
  0
CIRCLE
  5
107
330
1F
100
AcDbEntity
  8
0
  6
Continuous
 62
     7
370
    25
100
AcDbCircle
 10
229.61488104
 20
77.0434904644
 30
0.0
 40
10.0
  0
CIRCLE
  5
108
330
1F
100
AcDbEntity
  8
0
  6
Continuous
 62
     7
370
    25
100
AcDbCircle
 10
229.61488104
 20
77.0434904644
 30
0.0
 40
11.65000000000001
  0
CIRCLE
  5
109
330
1F
100
AcDbEntity
  8
0
  6
Continuous
 62
     7
370
    25
100
AcDbCircle
 10
229.61488104
 20
77.0434904644
 30
0.0
 40
12.59444444444446
  0
CIRCLE
  5
10A
330
1F
100
AcDbEntity
  8
0
  6
Continuous
 62
     7
370
    25
100
AcDbCircle
 10
229.61488104
 20
77.0434904644
 30
0.0
 40
13.5
  0
CIRCLE
  5
10B
330
1F
100
AcDbEntity
  8
0
  6
Continuous
 62
     7
370
    25
100
AcDbCircle
 10
229.61488104
 20
77.0434904644
 30
0.0
 40
18.00000000000003
  0
CIRCLE
  5
10C
330
1F
100
AcDbEntity
  8
0
  6
Continuous
 62
     7
370
    25
100
AcDbCircle
 10
229.61488104
 20
77.0434904644
 30
0.0
 40
18.50000000000003
  0
CIRCLE
  5
10D
330
1F
100
AcDbEntity
  8
0
  6
Continuous
 62
     7
370
    25
100
AcDbCircle
 10
229.61488104
 20
77.0434904644
 30
0.0
 40
13.99999999999997
  0
CIRCLE
  5
10E
330
1F
100
AcDbEntity
  8
0
  6
Continuous
 62
     7
370
    25
100
AcDbCircle
 10
229.61488104
 20
77.0434904644
 30
0.0
 40
13.74999999999997
  0
SPLINE
  5
10F
330
1F
100
AcDbEntity
  8
0
  6
Continuous
 62
     7
370
    25
100
AcDbSpline
210
0.0
220
0.0
230
1.0
 70
    24
 71
     3
 72
    15
 73
    11
 74
     0
 42
0.000000001
 43
0.00000001
 40
0.0
 40
0.0
 40
0.0
 40
0.0
 40
0.1323076376987255
 40
0.2645778651892491
 40
0.3998071657564335
 40
0.5350120639173545
 40
0.6502005161668151
 40
0.765406936254618
 40
0.8826921292110406
 40
1.0
 40
1.0
 40
1.0
 40
1.0
 10
229.6148810400063
 20
98.98280069361691
 30
0.0
 10
230.4357715917155
 20
98.50885931261233
 30
0.0
 10
232.077320586943
 20
97.56111055832979
 30
0.0
 10
234.6051624136143
 20
96.10166039923232
 30
0.0
 10
237.1806555175296
 20
94.61469876239079
 30
0.0
 10
239.6628253163769
 20
93.18161736085196
 30
0.0
 10
242.0108636857168
 20
91.82597677624601
 30
0.0
 10
244.2268003106211
 20
90.54660516935031
 30
0.0
 10
246.432717575697
 20
89.27301824254872
 30
0.0
 10
247.8874463429364
 20
88.43313019718511
 30
0.0
 10
248.6148810400063
 20
88.01314557901397
 30
0.0
  0
SPLINE
  5
110
330
1F
100
AcDbEntity
  8
0
  6
Continuous
 62
     7
370
    25
100
AcDbSpline
210
0.0
220
0.0
230
1.0
 70
    24
 71
     3
 72
    16
 73
    12
 74
     0
 42
0.000000001
 43
0.00000001
 40
0.0
 40
0.0
 40
0.0
 40
0.0
 40
0.0920963375295537
 40
0.1841844146300498
 40
0.2770985765972357
 40
0.3700032338082702
 40
0.4949922231569341
 40
0.6199802439531947
 40
0.7483003218409305
 40
0.8766553488328366
 40
0.9999999999999999
 40
0.9999999999999999
 40
0.9999999999999999
 40
0.9999999999999999
 10
248.6148810400063
 20
88.01314557901397
 30
0.0
 10
248.6148810400063
 20
87.35425558163051
 30
0.0
 10
248.6148810400063
 20
86.0365346849149
 30
0.0
 10
248.6148810400063
 20
84.02763382197375
 30
0.0
 10
248.6148810400063
 20
81.99433010413033
 30
0.0
 10
248.6148810400063
 20
79.70147816019171
 30
0.0
 10
248.6148810400063
 20
77.15559452709057
 30
0.0
 10
248.6148810400063
 20
74.34581524077629
 30
0.0
 10
248.6148810400062
 20
71.53130676031641
 30
0.0
 10
248.6148810400062
 20
68.75991425551179
 30
0.0
 10
248.6148810400062
 20
66.95723349697302
 30
0.0
 10
248.6148810400062
 20
66.07383534980812
 30
0.0
  0
SPLINE
  5
111
330
1F
100
AcDbEntity
  8
0
  6
Continuous
 62
     7
370
    25
100
AcDbSpline
210
0.0
220
0.0
230
1.0
 70
    24
 71
     3
 72
    15
 73
    11
 74
     0
 42
0.000000001
 43
0.00000001
 40
0.0
 40
0.0
 40
0.0
 40
0.0
 40
0.1320308864489014
 40
0.2645762835880224
 40
0.399281896991498
 40
0.5350133763305681
 40
0.6498955163022203
 40
0.765408463365684
 40
0.8825092016626689
 40
0.9999999999999999
 40
0.9999999999999999
 40
0.9999999999999999
 40
0.9999999999999999
 10
248.6148810400062
 20
66.07383534980812
 30
0.0
 10
247.7957246859568
 20
65.6008952082893
 30
0.0
 10
246.1542198103851
 20
64.65317192650197
 30
0.0
 10
243.6296159848324
 20
63.19559122822194
 30
0.0
 10
241.0526187741441
 20
61.70776119493017
 30
0.0
 10
238.5722910612267
 20
60.27574332219883
 30
0.0
 10
236.2207918986668
 20
58.91810464769572
 30
0.0
 10
234.0060964269587
 20
57.639449620932
 30
0.0
 10
231.7981796271225
 20
56.36470826219826
 30
0.0
 10
230.3434535031197
 20
55.52482174290807
 30
0.0
 10
229.6148810400061
 20
55.10418023520532
 30
0.0
  0
SPLINE
  5
112
330
1F
100
AcDbEntity
  8
0
  6
Continuous
 62
     7
370
    25
100
AcDbSpline
210
0.0
220
0.0
230
1.0
 70
    24
 71
     3
 72
    15
 73
    11
 74
     0
 42
0.000000001
 43
0.00000001
 40
0.0
 40
0.0
 40
0.0
 40
0.0
 40
0.1323076376987256
 40
0.2645778651892492
 40
0.3998071657564337
 40
0.5350120639173546
 40
0.6502005161668153
 40
0.7654069362546181
 40
0.8826921292110407
 40
1.0
 40
1.0
 40
1.0
 40
1.0
 10
229.6148810400061
 20
55.10418023520532
 30
0.0
 10
228.7939904882968
 20
55.5781216162099
 30
0.0
 10
227.1524414930694
 20
56.52587037049246
 30
0.0
 10
224.6245996663981
 20
57.98532052958993
 30
0.0
 10
222.0491065624828
 20
59.4722821664315
 30
0.0
 10
219.5669367636355
 20
60.90536356797035
 30
0.0
 10
217.2188983942956
 20
62.26100415257632
 30
0.0
 10
215.0029617693913
 20
63.54037575947202
 30
0.0
 10
212.7970445043155
 20
64.81396268627363
 30
0.0
 10
211.342315737076
 20
65.65385073163723
 30
0.0
 10
210.6148810400061
 20
66.07383534980839
 30
0.0
  0
SPLINE
  5
113
330
1F
100
AcDbEntity
  8
0
  6
Continuous
 62
     7
370
    25
100
AcDbSpline
210
0.0
220
0.0
230
1.0
 70
    24
 71
     3
 72
    16
 73
    12
 74
     0
 42
0.000000001
 43
0.00000001
 40
0.0
 40
0.0
 40
0.0
 40
0.0
 40
0.1233447855335287
 40
0.2484833567037507
 40
0.3735902095277464
 40
0.5017929984441671
 40
0.6299961721265651
 40
0.7220229399870008
 40
0.8140588500896908
 40
0.9070251278607588
 40
1.0
 40
1.0
 40
1.0
 40
1.0
 10
210.6148810400061
 20
66.0738353498084
 30
0.0
 10
210.6148810400061
 20
66.9572302839408
 30
0.0
 10
210.6148810400062
 20
68.7368672388297
 30
0.0
 10
210.6148810400062
 20
71.4607925900082
 30
0.0
 10
210.6148810400062
 20
74.25038458592917
 30
0.0
 10
210.6148810400063
 20
77.08385817858216
 30
0.0
 10
210.6148810400063
 20
79.67125862521634
 30
0.0
 10
210.6148810400063
 20
81.97490737717698
 30
0.0
 10
210.6148810400063
 20
84.0020371425661
 30
0.0
 10
210.6148810400064
 20
86.01762434423232
 30
0.0
 10
210.6148810400064
 20
87.34795133778118
 30
0.0
 10
210.6148810400064
 20
88.01314557901422
 30
0.0
  0
SPLINE
  5
114
330
1F
100
AcDbEntity
  8
0
  6
Continuous
 62
     7
370
    25
100
AcDbSpline
210
0.0
220
0.0
230
1.0
 70
    24
 71
     3
 72
    15
 73
    11
 74
     0
 42
0.000000001
 43
0.00000001
 40
0.0
 40
0.0
 40
0.0
 40
0.0
 40
0.1323076376987271
 40
0.2645778651892524
 40
0.3998071657564384
 40
0.5350120639173612
 40
0.6502005161668204
 40
0.7654069362546216
 40
0.8826921292110425
 40
1.0
 40
1.0
 40
1.0
 40
1.0
 10
210.6148810400064
 20
88.01314557901422
 30
0.0
 10
211.4357715917156
 20
88.4870869600188
 30
0.0
 10
213.0773205869431
 20
89.43483571430133
 30
0.0
 10
215.6051624136144
 20
90.89428587339877
 30
0.0
 10
218.1806555175298
 20
92.38124751024031
 30
0.0
 10
220.6628253163771
 20
93.8143289117791
 30
0.0
 10
223.0108636857169
 20
95.16996949638504
 30
0.0
 10
225.2268003106212
 20
96.44934110328066
 30
0.0
 10
227.432717575697
 20
97.7229280300822
 30
0.0
 10
228.8874463429364
 20
98.56281607544575
 30
0.0
 10
229.6148810400063
 20
98.98280069361691
 30
0.0
  0
INSERT
  5
120
330
1F
100
AcDbEntity
  8
0
  6
Continuous
 62
     7
370
    18
100
AcDbBlockReference
  2
SW_CENTERMARKSYMBOL_0
 10
229.61488104
 20
77.0434904644
 30
0.0
  0
LINE
  5
121
330
1F
100
AcDbEntity
  8
0
  6
Continuous
 62
     7
370
    25
100
AcDbLine
 10
177.4588836238
 20
126.7767134595
 30
0.0
 11
186.5144391793
 21
127.6822690151
 31
0.0
  0
LINE
  5
122
330
1F
100
AcDbEntity
  8
0
  6
Continuous
 62
     7
370
    25
100
AcDbLine
 10
186.5144391793
 20
152.871157904
 30
0.0
 11
177.4588836238
 21
153.7767134595
 31
0.0
  0
LINE
  5
123
330
1F
100
AcDbEntity
  8
0
  6
Continuous
 62
     7
370
    25
100
AcDbLine
 10
169.9588836238
 20
126.7767134595
 30
0.0
 11
177.4588836238
 21
127.7767134595
 31
0.0
  0
LINE
  5
124
330
1F
100
AcDbEntity
  8
0
  6
Continuous
 62
     7
370
    25
100
AcDbLine
 10
177.4588836238
 20
152.7767134595
 30
0.0
 11
169.9588836238
 21
153.7767134595
 31
0.0
  0
LINE
  5
125
330
1F
100
AcDbEntity
  8
0
  6
Continuous
 62
     7
370
    25
100
AcDbLine
 10
154.9588836238
 20
126.7767134595
 30
0.0
 11
162.4588836238
 21
127.7767134595
 31
0.0
  0
LINE
  5
126
330
1F
100
AcDbEntity
  8
0
  6
Continuous
 62
     7
370
    25
100
AcDbLine
 10
162.4588836238
 20
152.7767134595
 30
0.0
 11
154.9588836238
 21
153.7767134595
 31
0.0
  0
LINE
  5
127
330
1F
100
AcDbEntity
  8
0
  6
Continuous
 62
     7
370
    25
100
AcDbLine
 10
147.4588836238
 20
126.7767134595
 30
0.0
 11
154.9588836238
 21
127.7767134595
 31
0.0
  0
LINE
  5
128
330
1F
100
AcDbEntity
  8
0
  6
Continuous
 62
     7
370
    25
100
AcDbLine
 10
154.9588836238
 20
152.7767134595
 30
0.0
 11
147.4588836238
 21
153.7767134595
 31
0.0
  0
LINE
  5
129
330
1F
100
AcDbEntity
  8
0
  6
Continuous
 62
     7
370
    25
100
AcDbLine
 10
140.4588836238
 20
126.7767134595
 30
0.0
 11
147.4588836238
 21
126.7767134595
 31
0.0
  0
LINE
  5
12A
330
1F
100
AcDbEntity
  8
0
  6
Continuous
 62
     7
370
    25
100
AcDbLine
 10
147.4588836238
 20
153.7767134595
 30
0.0
 11
140.4588836238
 21
153.7767134595
 31
0.0
  0
LINE
  5
12B
330
1F
100
AcDbEntity
  8
0
  6
Continuous
 62
     7
370
    25
100
AcDbLine
 10
162.4588836238
 20
126.7767134595
 30
0.0
 11
169.9588836238
 21
127.7767134595
 31
0.0
  0
LINE
  5
12C
330
1F
100
AcDbEntity
  8
0
  6
Continuous
 62
     7
370
    25
100
AcDbLine
 10
169.9588836238
 20
152.7767134595
 30
0.0
 11
162.4588836238
 21
153.7767134595
 31
0.0
  0
LINE
  5
12D
330
1F
100
AcDbEntity
  8
0
  6
Continuous
 62
     7
370
    25
100
AcDbLine
 10
186.5144391793
 20
127.6822690151
 30
0.0
 11
187.4588836238
 21
128.6267134595
 31
0.0
  0
LINE
  5
12E
330
1F
100
AcDbEntity
  8
0
  6
Continuous
 62
     7
370
    25
100
AcDbLine
 10
187.4588836238
 20
151.9267134595
 30
0.0
 11
186.5144391793
 21
152.871157904
 31
0.0
  0
LINE
  5
12F
330
1F
100
AcDbEntity
  8
0
  6
Continuous
 62
     7
370
    25
100
AcDbLine
 10
138.1702084892
 20
121.2767134595
 30
0.0
 11
138.4588836238
 21
121.7767134595
 31
0.0
  0
LINE
  5
130
330
1F
100
AcDbEntity
  8
0
  6
Continuous
 62
     7
370
    25
100
AcDbLine
 10
138.4588836238
 20
158.7767134595
 30
0.0
 11
138.1702084892
 21
159.2767134595
 31
0.0
  0
LINE
  5
131
330
1F
100
AcDbEntity
  8
0
  6
Continuous
 62
     7
370
    25
100
AcDbLine
 10
122.7475587584
 20
159.2767134595
 30
0.0
 11
122.4588836238
 21
158.7767134595
 31
0.0
  0
LINE
  5
132
330
1F
100
AcDbEntity
  8
0
  6
Continuous
 62
     7
370
    25
100
AcDbLine
 10
122.4588836238
 20
121.7767134595
 30
0.0
 11
122.7475587584
 21
121.2767134595
 31
0.0
  0
LINE
  5
133
330
1F
100
AcDbEntity
  8
0
  6
Continuous
 62
     7
370
    25
100
AcDbLine
 10
120.9588836238
 20
121.7767134595
 30
0.0
 11
122.4588836238
 21
121.7767134595
 31
0.0
  0
LINE
  5
134
330
1F
100
AcDbEntity
  8
0
  6
Continuous
 62
     7
370
    25
100
AcDbLine
 10
122.4588836238
 20
158.7767134595
 30
0.0
 11
120.9588836238
 21
158.7767134595
 31
0.0
  0
LINE
  5
135
330
1F
100
AcDbEntity
  8
0
  6
Continuous
 62
     7
370
    25
100
AcDbLine
 10
120.9588836238
 20
158.7767134595
 30
0.0
 11
120.4588836238
 21
158.2767134595
 31
0.0
  0
LINE
  5
136
330
1F
100
AcDbEntity
  8
0
  6
Continuous
 62
     7
370
    25
100
AcDbLine
 10
120.4588836238
 20
122.2767134595
 30
0.0
 11
120.9588836238
 21
121.7767134595
 31
0.0
  0
LINE
  5
137
330
1F
100
AcDbEntity
  8
0
  6
Continuous
 62
     7
370
    25
100
AcDbLine
 10
139.9588836238
 20
158.7767134595
 30
0.0
 11
138.4588836238
 21
158.7767134595
 31
0.0
  0
LINE
  5
138
330
1F
100
AcDbEntity
  8
0
  6
Continuous
 62
     7
370
    25
100
AcDbLine
 10
138.4588836238
 20
121.7767134595
 30
0.0
 11
139.9588836238
 21
121.7767134595
 31
0.0
  0
LINE
  5
139
330
1F
100
AcDbEntity
  8
0
  6
Continuous
 62
     7
370
    25
100
AcDbLine
 10
139.9588836238
 20
121.7767134595
 30
0.0
 11
140.4588836238
 21
122.2767134595
 31
0.0
  0
LINE
  5
13A
330
1F
100
AcDbEntity
  8
0
  6
Continuous
 62
     7
370
    25
100
AcDbLine
 10
140.4588836238
 20
158.2767134595
 30
0.0
 11
139.9588836238
 21
158.7767134595
 31
0.0
  0
LINE
  5
13B
330
1F
100
AcDbEntity
  8
0
  6
Continuous
 62
     7
370
    25
100
AcDbLine
 10
103.6343101043
 20
157.7767134595
 30
0.0
 11
103.489972537
 21
157.5267134595
 31
0.0
  0
LINE
  5
13C
330
1F
100
AcDbEntity
  8
0
  6
Continuous
 62
     7
370
    25
100
AcDbLine
 10
103.489972537
 20
123.0267134595
 30
0.0
 11
103.6343101043
 21
122.7767134595
 31
0.0
  0
LINE
  5
13D
330
1F
100
AcDbEntity
  8
0
  6
Continuous
 62
     7
370
    25
100
AcDbLine
 10
114.3456349697
 20
122.7767134595
 30
0.0
 11
114.489972537
 21
123.0267134595
 31
0.0
  0
LINE
  5
13E
330
1F
100
AcDbEntity
  8
0
  6
Continuous
 62
     7
370
    25
100
AcDbLine
 10
114.489972537
 20
157.5267134595
 30
0.0
 11
114.3456349697
 21
157.7767134595
 31
0.0
  0
LINE
  5
13F
330
1F
100
AcDbEntity
  8
0
  6
Continuous
 62
     7
370
    25
100
AcDbLine
 10
103.489972537
 20
157.2293384595
 30
0.0
 11
85.7794325526
 21
156.675884085
 31
0.0
  0
LINE
  5
140
330
1F
100
AcDbEntity
  8
0
  6
Continuous
 62
     7
370
    25
100
AcDbLine
 10
85.7794325526
 20
123.8775428341
 30
0.0
 11
103.489972537
 21
123.3240884595
 31
0.0
  0
LINE
  5
141
330
1F
100
AcDbEntity
  8
0
  6
Continuous
 62
     7
370
    25
100
AcDbLine
 10
119.389972537
 20
156.9012134595
 30
0.0
 11
117.989972537
 21
155.5012134595
 31
0.0
  0
LINE
  5
142
330
1F
100
AcDbEntity
  8
0
  6
Continuous
 62
     7
370
    25
100
AcDbLine
 10
117.989972537
 20
125.0522134595
 30
0.0
 11
119.389972537
 21
123.6522134595
 31
0.0
  0
LINE
  5
143
330
1F
100
AcDbEntity
  8
0
  6
Continuous
 62
     7
370
    25
100
AcDbLine
 10
119.389972537
 20
123.6522134595
 30
0.0
 11
120.4588836238
 21
123.6522134595
 31
0.0
  0
LINE
  5
144
330
1F
100
AcDbEntity
  8
0
  6
Continuous
 62
     7
370
    25
100
AcDbLine
 10
120.4588836238
 20
156.9012134595
 30
0.0
 11
119.389972537
 21
156.9012134595
 31
0.0
  0
LINE
  5
145
330
1F
100
AcDbEntity
  8
0
  6
Continuous
 62
     7
370
    25
100
AcDbLine
 10
85.7794325526
 20
156.675884085
 30
0.0
 11
82.489972537
 21
154.7767134595
 31
0.0
  0
LINE
  5
146
330
1F
100
AcDbEntity
  8
0
  6
Continuous
 62
     7
370
    25
100
AcDbLine
 10
82.489972537
 20
125.7767134595
 30
0.0
 11
85.7794325526
 21
123.8775428341
 31
0.0
  0
LINE
  5
147
330
1F
100
AcDbEntity
  8
0
  6
Continuous
 62
     7
370
    25
100
AcDbLine
 10
114.489972537
 20
125.2767134595
 30
0.0
 11
117.989972537
 21
125.2767134595
 31
0.0
  0
LINE
  5
148
330
1F
100
AcDbEntity
  8
0
  6
Continuous
 62
     7
370
    25
100
AcDbLine
 10
117.989972537
 20
155.2767134595
 30
0.0
 11
114.489972537
 21
155.2767134595
 31
0.0
  0
LINE
  5
149
330
1F
100
AcDbEntity
  8
0
  6
Continuous
 62
     7
370
    25
100
AcDbLine
 10
186.5144391793
 20
127.6822690151
 30
0.0
 11
186.5144391793
 21
152.871157904
 31
0.0
  0
LINE
  5
14A
330
1F
100
AcDbEntity
  8
0
  6
Continuous
 62
     7
370
    25
100
AcDbLine
 10
177.4588836238
 20
126.7767134595
 30
0.0
 11
177.4588836238
 21
153.7767134595
 31
0.0
  0
LINE
  5
14B
330
1F
100
AcDbEntity
  8
0
  6
Continuous
 62
     7
370
    25
100
AcDbLine
 10
169.9588836238
 20
126.7767134595
 30
0.0
 11
169.9588836238
 21
153.7767134595
 31
0.0
  0
LINE
  5
14C
330
1F
100
AcDbEntity
  8
0
  6
Continuous
 62
     7
370
    25
100
AcDbLine
 10
154.9588836238
 20
126.7767134595
 30
0.0
 11
154.9588836238
 21
153.7767134595
 31
0.0
  0
LINE
  5
14D
330
1F
100
AcDbEntity
  8
0
  6
Continuous
 62
     7
370
    25
100
AcDbLine
 10
147.4588836238
 20
126.7767134595
 30
0.0
 11
147.4588836238
 21
153.7767134595
 31
0.0
  0
LINE
  5
14E
330
1F
100
AcDbEntity
  8
0
  6
Continuous
 62
     7
370
    25
100
AcDbLine
 10
162.4588836238
 20
126.7767134595
 30
0.0
 11
162.4588836238
 21
153.7767134595
 31
0.0
  0
LINE
  5
14F
330
1F
100
AcDbEntity
  8
0
  6
Continuous
 62
     7
370
    25
100
AcDbLine
 10
187.4588836238
 20
151.9267134595
 30
0.0
 11
187.4588836238
 21
128.6267134595
 31
0.0
  0
SPLINE
  5
150
330
1F
100
AcDbEntity
  8
0
  6
Continuous
 62
     7
370
    25
100
AcDbSpline
210
0.0
220
0.0
230
1.0
 70
     8
 71
     3
 72
    15
 73
    11
 74
     0
 42
0.000000001
 43
0.00000001
 40
0.0
 40
0.0
 40
0.0
 40
0.0
 40
0.1323076376987255
 40
0.2645778651892491
 40
0.3998071657564335
 40
0.5350120639173545
 40
0.6502005161668151
 40
0.765406936254618
 40
0.8826921292110406
 40
1.0
 40
1.0
 40
1.0
 40
1.0
 10
124.444570310443
 20
140.2767134595414
 30
0.0
 10
124.1862330083695
 20
141.0976040112507
 30
0.0
 10
123.6696314495313
 20
142.7391530064782
 30
0.0
 10
123.1137926036724
 20
145.2669948331495
 30
0.0
 10
122.7795901415155
 20
147.8424879370648
 30
0.0
 10
122.7134187848365
 20
150.3246577359121
 30
0.0
 10
122.8851518775866
 20
152.6726961052519
 30
0.0
 10
123.2370106624083
 20
154.8886327301563
 30
0.0
 10
123.7531392611408
 20
157.0945499952321
 30
0.0
 10
124.2140784411948
 20
158.5492787624716
 30
0.0
 10
124.444570310443
 20
159.2767134595415
 30
0.0
  0
LINE
  5
151
330
1F
100
AcDbEntity
  8
0
  6
Continuous
 62
     7
370
    25
100
AcDbLine
 10
124.4445703104
 20
159.2767134595
 30
0.0
 11
130.3249090276
 21
159.2767134595
 31
0.0
  0
LINE
  5
152
330
1F
100
AcDbEntity
  8
0
  6
Continuous
 62
     7
370
    25
100
AcDbLine
 10
130.4588836238
 20
158.3780515722
 30
0.0
 11
130.3249090276
 21
159.2767134595
 31
0.0
  0
LINE
  5
153
330
1F
100
AcDbEntity
  8
0
  6
Continuous
 62
     7
370
    25
100
AcDbLine
 10
130.4588836238
 20
158.3780515722
 30
0.0
 11
130.59285822
 21
159.2767134595
 31
0.0
  0
LINE
  5
154
330
1F
100
AcDbEntity
  8
0
  6
Continuous
 62
     7
370
    25
100
AcDbLine
 10
130.59285822
 20
159.2767134595
 30
0.0
 11
136.4731969371
 21
159.2767134595
 31
0.0
  0
SPLINE
  5
155
330
1F
100
AcDbEntity
  8
0
  6
Continuous
 62
     7
370
    25
100
AcDbSpline
210
0.0
220
0.0
230
1.0
 70
     8
 71
     3
 72
    15
 73
    11
 74
     0
 42
0.000000001
 43
0.00000001
 40
0.0
 40
0.0
 40
0.0
 40
0.0
 40
0.1323076376987255
 40
0.2645778651892491
 40
0.3998071657564335
 40
0.5350120639173545
 40
0.6502005161668151
 40
0.765406936254618
 40
0.8826921292110406
 40
1.0
 40
1.0
 40
1.0
 40
1.0
 10
136.4731969371258
 20
140.2767134595414
 30
0.0
 10
136.7315342391993
 20
141.0976040112507
 30
0.0
 10
137.2481357980376
 20
142.7391530064782
 30
0.0
 10
137.8039746438964
 20
145.2669948331495
 30
0.0
 10
138.1381771060533
 20
147.8424879370648
 30
0.0
 10
138.2043484627323
 20
150.3246577359121
 30
0.0
 10
138.0326153699822
 20
152.6726961052519
 30
0.0
 10
137.6807565851605
 20
154.8886327301563
 30
0.0
 10
137.164627986428
 20
157.0945499952321
 30
0.0
 10
136.703688806374
 20
158.5492787624716
 30
0.0
 10
136.4731969371258
 20
159.2767134595415
 30
0.0
  0
LINE
  5
156
330
1F
100
AcDbEntity
  8
0
  6
Continuous
 62
     7
370
    25
100
AcDbLine
 10
130.59285822
 20
140.2767134595
 30
0.0
 11
136.4731969371
 21
140.2767134595
 31
0.0
  0
LINE
  5
157
330
1F
100
AcDbEntity
  8
0
  6
Continuous
 62
     7
370
    25
100
AcDbLine
 10
130.59285822
 20
140.2767134595
 30
0.0
 11
130.4588836238
 21
141.1753753469
 31
0.0
  0
LINE
  5
158
330
1F
100
AcDbEntity
  8
0
  6
Continuous
 62
     7
370
    25
100
AcDbLine
 10
130.3249090276
 20
140.2767134595
 30
0.0
 11
130.4588836238
 21
141.1753753469
 31
0.0
  0
LINE
  5
159
330
1F
100
AcDbEntity
  8
0
  6
Continuous
 62
     7
370
    25
100
AcDbLine
 10
124.4445703104
 20
140.2767134595
 30
0.0
 11
130.3249090276
 21
140.2767134595
 31
0.0
  0
SPLINE
  5
15A
330
1F
100
AcDbEntity
  8
0
  6
Continuous
 62
     7
370
    25
100
AcDbSpline
210
0.0
220
0.0
230
1.0
 70
    24
 71
     3
 72
    13
 73
     9
 74
     0
 42
0.000000001
 43
0.00000001
 40
0.0
 40
0.0
 40
0.0
 40
0.0
 40
0.184028800794263
 40
0.3683685280866552
 40
0.5539153551752329
 40
0.740006648369459
 40
0.9891113191969824
 40
1.0
 40
1.0
 40
1.0
 40
1.0
 10
136.4731969371258
 20
159.2767134595415
 30
0.0
 10
136.6559402995213
 20
159.2767134595415
 30
0.0
 10
137.0217357789936
 20
159.2767134595415
 30
0.0
 10
137.4676921370172
 20
159.2767134595415
 30
0.0
 10
137.8261606298306
 20
159.2767134595414
 30
0.0
 10
138.0794748778309
 20
159.2767134595414
 30
0.0
 10
138.2056532752631
 20
159.2767134595414
 30
0.0
 10
138.1669373999852
 20
159.2767134595414
 30
0.0
 10
138.1653159554164
 20
159.2767134595414
 30
0.0
  0
SPLINE
  5
15B
330
1F
100
AcDbEntity
  8
0
  6
Continuous
 62
     7
370
    25
100
AcDbSpline
210
0.0
220
0.0
230
1.0
 70
    24
 71
     3
 72
    13
 73
     9
 74
     0
 42
0.000000001
 43
0.00000001
 40
0.0
 40
0.0
 40
0.0
 40
0.0
 40
0.0026316986529778
 40
0.2599888766290832
 40
0.4437689570024387
 40
0.6281163425577884
 40
0.8138805853979105
 40
0.9999999999999999
 40
0.9999999999999999
 40
0.9999999999999999
 40
0.9999999999999999
 10
138.1689638338628
 20
121.2767134595414
 30
0.0
 10
138.1693781878859
 20
121.2767134595414
 30
0.0
 10
138.2103127519064
 20
121.2767134595415
 30
0.0
 10
138.0826298265563
 20
121.2767134595415
 30
0.0
 10
137.8290738367525
 20
121.2767134595415
 30
0.0
 10
137.4734350536887
 20
121.2767134595415
 30
0.0
 10
137.027087022655
 20
121.2767134595415
 30
0.0
 10
136.6579444835773
 20
121.2767134595415
 30
0.0
 10
136.4731969371258
 20
121.2767134595416
 30
0.0
  0
SPLINE
  5
15C
330
1F
100
AcDbEntity
  8
0
  6
Continuous
 62
     7
370
    25
100
AcDbSpline
210
0.0
220
0.0
230
1.0
 70
     8
 71
     3
 72
    15
 73
    11
 74
     0
 42
0.000000001
 43
0.00000001
 40
0.0
 40
0.0
 40
0.0
 40
0.0
 40
0.1323076376987271
 40
0.2645778651892524
 40
0.3998071657564384
 40
0.5350120639173612
 40
0.6502005161668204
 40
0.7654069362546216
 40
0.8826921292110425
 40
1.0
 40
1.0
 40
1.0
 40
1.0
 10
136.4731969371258
 20
121.2767134595416
 30
0.0
 10
136.7315342391993
 20
122.0976040112508
 30
0.0
 10
137.2481357980375
 20
123.7391530064783
 30
0.0
 10
137.8039746438964
 20
126.2669948331496
 30
0.0
 10
138.1381771060533
 20
128.8424879370649
 30
0.0
 10
138.2043484627322
 20
131.3246577359122
 30
0.0
 10
138.0326153699822
 20
133.6726961052521
 30
0.0
 10
137.6807565851605
 20
135.8886327301564
 30
0.0
 10
137.164627986428
 20
138.0945499952322
 30
0.0
 10
136.703688806374
 20
139.5492787624716
 30
0.0
 10
136.4731969371258
 20
140.2767134595414
 30
0.0
  0
LINE
  5
15D
330
1F
100
AcDbEntity
  8
0
  6
Continuous
 62
     7
370
    25
100
AcDbLine
 10
138.4588836238
 20
121.7767134595
 30
0.0
 11
138.4588836238
 21
158.7767134595
 31
0.0
  0
SPLINE
  5
15E
330
1F
100
AcDbEntity
  8
0
  6
Continuous
 62
     7
370
    25
100
AcDbSpline
210
0.0
220
0.0
230
1.0
 70
    24
 71
     3
 72
    13
 73
     9
 74
     0
 42
0.000000001
 43
0.00000001
 40
0.0
 40
0.0
 40
0.0
 40
0.0
 40
0.0026316986529775
 40
0.259988876629083
 40
0.4437689570024387
 40
0.6281163425577883
 40
0.8138805853979104
 40
1.0
 40
1.0
 40
1.0
 40
1.0
 10
122.748803413706
 20
121.2767134595414
 30
0.0
 10
122.7483890596829
 20
121.2767134595414
 30
0.0
 10
122.7074544956625
 20
121.2767134595414
 30
0.0
 10
122.8351374210125
 20
121.2767134595415
 30
0.0
 10
123.0886934108163
 20
121.2767134595415
 30
0.0
 10
123.4443321938801
 20
121.2767134595415
 30
0.0
 10
123.8906802249138
 20
121.2767134595415
 30
0.0
 10
124.2598227639915
 20
121.2767134595416
 30
0.0
 10
124.444570310443
 20
121.2767134595416
 30
0.0
  0
SPLINE
  5
15F
330
1F
100
AcDbEntity
  8
0
  6
Continuous
 62
     7
370
    25
100
AcDbSpline
210
0.0
220
0.0
230
1.0
 70
    24
 71
     3
 72
    13
 73
     9
 74
     0
 42
0.000000001
 43
0.00000001
 40
0.0
 40
0.0
 40
0.0
 40
0.0
 40
0.184028800794263
 40
0.3683685280866552
 40
0.5539153551752329
 40
0.740006648369459
 40
0.9891113191969824
 40
1.0
 40
1.0
 40
1.0
 40
1.0
 10
124.444570310443
 20
159.2767134595415
 30
0.0
 10
124.2618269480475
 20
159.2767134595415
 30
0.0
 10
123.8960314685752
 20
159.2767134595415
 30
0.0
 10
123.4500751105516
 20
159.2767134595414
 30
0.0
 10
123.0916066177382
 20
159.2767134595414
 30
0.0
 10
122.8382923697379
 20
159.2767134595414
 30
0.0
 10
122.7121139723056
 20
159.2767134595414
 30
0.0
 10
122.7508298475837
 20
159.2767134595414
 30
0.0
 10
122.7524512921524
 20
159.2767134595414
 30
0.0
  0
SPLINE
  5
160
330
1F
100
AcDbEntity
  8
0
  6
Continuous
 62
     7
370
    25
100
AcDbSpline
210
0.0
220
0.0
230
1.0
 70
     8
 71
     3
 72
    15
 73
    11
 74
     0
 42
0.000000001
 43
0.00000001
 40
0.0
 40
0.0
 40
0.0
 40
0.0
 40
0.1323076376987271
 40
0.2645778651892524
 40
0.3998071657564384
 40
0.5350120639173612
 40
0.6502005161668204
 40
0.7654069362546216
 40
0.8826921292110425
 40
1.0
 40
1.0
 40
1.0
 40
1.0
 10
124.444570310443
 20
121.2767134595416
 30
0.0
 10
124.1862330083695
 20
122.0976040112508
 30
0.0
 10
123.6696314495313
 20
123.7391530064783
 30
0.0
 10
123.1137926036724
 20
126.2669948331496
 30
0.0
 10
122.7795901415155
 20
128.8424879370649
 30
0.0
 10
122.7134187848366
 20
131.3246577359122
 30
0.0
 10
122.8851518775866
 20
133.6726961052521
 30
0.0
 10
123.2370106624083
 20
135.8886327301564
 30
0.0
 10
123.7531392611408
 20
138.0945499952322
 30
0.0
 10
124.2140784411948
 20
139.5492787624716
 30
0.0
 10
124.444570310443
 20
140.2767134595414
 30
0.0
  0
LINE
  5
161
330
1F
100
AcDbEntity
  8
0
  6
Continuous
 62
     7
370
    25
100
AcDbLine
 10
122.4588836238
 20
121.7767134595
 30
0.0
 11
122.4588836238
 21
158.7767134595
 31
0.0
  0
LINE
  5
162
330
1F
100
AcDbEntity
  8
0
  6
Continuous
 62
     7
370
    25
100
AcDbLine
 10
130.4588836238
 20
139.3780515722
 30
0.0
 11
130.3249090276
 21
140.2767134595
 31
0.0
  0
LINE
  5
163
330
1F
100
AcDbEntity
  8
0
  6
Continuous
 62
     7
370
    25
100
AcDbLine
 10
130.4588836238
 20
139.3780515722
 30
0.0
 11
130.4588836238
 21
141.1753753469
 31
0.0
  0
LINE
  5
164
330
1F
100
AcDbEntity
  8
0
  6
Continuous
 62
     7
370
    25
100
AcDbLine
 10
130.4588836238
 20
139.3780515722
 30
0.0
 11
130.59285822
 21
140.2767134595
 31
0.0
  0
LINE
  5
165
330
1F
100
AcDbEntity
  8
0
  6
Continuous
 62
     7
370
    25
100
AcDbLine
 10
130.59285822
 20
121.2767134595
 30
0.0
 11
136.4731969371
 21
121.2767134595
 31
0.0
  0
LINE
  5
166
330
1F
100
AcDbEntity
  8
0
  6
Continuous
 62
     7
370
    25
100
AcDbLine
 10
130.59285822
 20
121.2767134595
 30
0.0
 11
130.4588836238
 21
122.1753753469
 31
0.0
  0
LINE
  5
167
330
1F
100
AcDbEntity
  8
0
  6
Continuous
 62
     7
370
    25
100
AcDbLine
 10
130.3249090276
 20
121.2767134595
 30
0.0
 11
130.4588836238
 21
122.1753753469
 31
0.0
  0
LINE
  5
168
330
1F
100
AcDbEntity
  8
0
  6
Continuous
 62
     7
370
    25
100
AcDbLine
 10
124.4445703104
 20
121.2767134595
 30
0.0
 11
130.3249090276
 21
121.2767134595
 31
0.0
  0
LINE
  5
169
330
1F
100
AcDbEntity
  8
0
  6
Continuous
 62
     7
370
    25
100
AcDbLine
 10
120.9588836238
 20
158.7767134595
 30
0.0
 11
120.9588836238
 21
121.7767134595
 31
0.0
  0
LINE
  5
16A
330
1F
100
AcDbEntity
  8
0
  6
Continuous
 62
     7
370
    25
100
AcDbLine
 10
120.4588836238
 20
122.2767134595
 30
0.0
 11
120.4588836238
 21
158.2767134595
 31
0.0
  0
LINE
  5
16B
330
1F
100
AcDbEntity
  8
0
  6
Continuous
 62
     7
370
    25
100
AcDbLine
 10
139.9588836238
 20
158.7767134595
 30
0.0
 11
139.9588836238
 21
121.7767134595
 31
0.0
  0
LINE
  5
16C
330
1F
100
AcDbEntity
  8
0
  6
Continuous
 62
     7
370
    25
100
AcDbLine
 10
140.4588836238
 20
122.2767134595
 30
0.0
 11
140.4588836238
 21
158.2767134595
 31
0.0
  0
LINE
  5
16D
330
1F
100
AcDbEntity
  8
0
  6
Continuous
 62
     7
370
    25
100
AcDbLine
 10
130.4588836238
 20
121.2767134595
 30
0.0
 11
130.4588836238
 21
122.1753753469
 31
0.0
  0
LINE
  5
16E
330
1F
100
AcDbEntity
  8
0
  6
Continuous
 62
     7
370
    25
100
AcDbLine
 10
130.4588836238
 20
121.2767134595
 30
0.0
 11
130.3249090276
 21
121.2767134595
 31
0.0
  0
LINE
  5
16F
330
1F
100
AcDbEntity
  8
0
  6
Continuous
 62
     7
370
    25
100
AcDbLine
 10
130.4588836238
 20
121.2767134595
 30
0.0
 11
130.59285822
 21
121.2767134595
 31
0.0
  0
LINE
  5
170
330
1F
100
AcDbEntity
  8
0
  6
Continuous
 62
     7
370
    25
100
AcDbLine
 10
130.4588836238
 20
158.3780515722
 30
0.0
 11
130.4588836238
 21
159.2767134595
 31
0.0
  0
LINE
  5
171
330
1F
100
AcDbEntity
  8
0
  6
Continuous
 62
     7
370
    25
100
AcDbLine
 10
130.59285822
 20
159.2767134595
 30
0.0
 11
130.4588836238
 21
159.2767134595
 31
0.0
  0
LINE
  5
172
330
1F
100
AcDbEntity
  8
0
  6
Continuous
 62
     7
370
    25
100
AcDbLine
 10
130.3249090276
 20
159.2767134595
 30
0.0
 11
130.4588836238
 21
159.2767134595
 31
0.0
  0
LINE
  5
173
330
1F
100
AcDbEntity
  8
0
  6
Continuous
 62
     7
370
    25
100
AcDbLine
 10
105.1973470602
 20
140.2767134595
 30
0.0
 11
108.8559979408
 21
140.2767134595
 31
0.0
  0
SPLINE
  5
174
330
1F
100
AcDbEntity
  8
0
  6
Continuous
 62
     7
370
    25
100
AcDbSpline
210
0.0
220
0.0
230
1.0
 70
     8
 71
     3
 72
    18
 73
    14
 74
     0
 42
0.000000001
 43
0.00000001
 40
0.0
 40
0.0
 40
0.0
 40
0.0
 40
0.25
 40
0.25
 40
0.5
 40
0.5
 40
0.5625
 40
0.5625
 40
0.625
 40
0.625
 40
0.7499999999999999
 40
0.7499999999999999
 40
1.0
 40
1.0
 40
1.0
 40
1.0
 10
105.1973470601754
 20
157.7767134595415
 30
0.0
 10
104.721110610282
 20
156.3480041098613
 30
0.0
 10
104.3286056362342
 20
154.908878635579
 30
0.0
 10
103.7848589064103
 20
152.00061474722
 30
0.0
 10
103.6354107336457
 20
150.5312532129375
 30
0.0
 10
103.6340426357501
 20
148.6714824528275
 30
0.0
 10
103.6429673088232
 20
148.2976430477278
 30
0.0
 10
103.6789264452193
 20
147.5533553838092
 30
0.0
 10
103.7059193229952
 20
147.1825045162335
 30
0.0
 10
103.8127676510848
 20
146.0736629359283
 30
0.0
 10
103.9185532779664
 20
145.3393919217704
 30
0.0
 10
104.3270403497804
 20
143.1496515570326
 30
0.0
 10
104.7205168978211
 20
141.7072039466047
 30
0.0
 10
105.1973470601755
 20
140.2767134595414
 30
0.0
  0
LINE
  5
175
330
1F
100
AcDbEntity
  8
0
  6
Continuous
 62
     7
370
    25
100
AcDbLine
 10
105.1973470602
 20
157.7767134595
 30
0.0
 11
108.8559979408
 21
157.7767134595
 31
0.0
  0
SPLINE
  5
176
330
1F
100
AcDbEntity
  8
0
  6
Continuous
 62
     7
370
    25
100
AcDbSpline
210
0.0
220
0.0
230
1.0
 70
     8
 71
     3
 72
     8
 73
     4
 74
     0
 42
0.000000001
 43
0.00000001
 40
0.0
 40
0.0
 40
0.0
 40
0.0
 40
1.0
 40
1.0
 40
1.0
 40
1.0
 10
108.98997253703
 20
156.8749333490306
 30
0.0
 10
108.9471664974804
 20
157.1757964520634
 30
0.0
 10
108.9024592736931
 20
157.4763826826386
 30
0.0
 10
108.8559979408144
 20
157.7767134595415
 30
0.0
  0
SPLINE
  5
177
330
1F
100
AcDbEntity
  8
0
  6
Continuous
 62
     7
370
    25
100
AcDbSpline
210
0.0
220
0.0
230
1.0
 70
     8
 71
     3
 72
     8
 73
     4
 74
     0
 42
0.000000001
 43
0.00000001
 40
0.0
 40
0.0
 40
0.0
 40
0.0
 40
1.0
 40
1.0
 40
1.0
 40
1.0
 10
109.1239471332455
 20
157.7767134595415
 30
0.0
 10
109.0774692854197
 20
157.4762759283422
 30
0.0
 10
109.0327629584861
 20
157.1756866799822
 30
0.0
 10
108.98997253703
 20
156.8749333490306
 30
0.0
  0
LINE
  5
178
330
1F
100
AcDbEntity
  8
0
  6
Continuous
 62
     7
370
    25
100
AcDbLine
 10
109.1239471332
 20
157.7767134595
 30
0.0
 11
112.7825980139
 21
157.7767134595
 31
0.0
  0
SPLINE
  5
179
330
1F
100
AcDbEntity
  8
0
  6
Continuous
 62
     7
370
    25
100
AcDbSpline
210
0.0
220
0.0
230
1.0
 70
     8
 71
     3
 72
    18
 73
    14
 74
     0
 42
0.000000001
 43
0.00000001
 40
0.0
 40
0.0
 40
0.0
 40
0.0
 40
0.2500000000000002
 40
0.2500000000000002
 40
0.5000000000000004
 40
0.5000000000000004
 40
0.5625000000000004
 40
0.5625000000000004
 40
0.6250000000000003
 40
0.6250000000000003
 40
0.7500000000000001
 40
0.7500000000000001
 40
1.0
 40
1.0
 40
1.0
 40
1.0
 10
112.7825980138845
 20
157.7767134595415
 30
0.0
 10
113.2588344637779
 20
156.3480041098613
 30
0.0
 10
113.6513394378257
 20
154.908878635579
 30
0.0
 10
114.1950861676496
 20
152.00061474722
 30
0.0
 10
114.3445343404142
 20
150.5312532129375
 30
0.0
 10
114.3459024383098
 20
148.6714824528275
 30
0.0
 10
114.3369777652368
 20
148.2976430477278
 30
0.0
 10
114.3010186288407
 20
147.5533553838092
 30
0.0
 10
114.2740257510647
 20
147.1825045162335
 30
0.0
 10
114.1671774229751
 20
146.0736629359283
 30
0.0
 10
114.0613917960935
 20
145.3393919217704
 30
0.0
 10
113.6529047242795
 20
143.1496515570326
 30
0.0
 10
113.2594281762389
 20
141.7072039466047
 30
0.0
 10
112.7825980138844
 20
140.2767134595414
 30
0.0
  0
LINE
  5
17A
330
1F
100
AcDbEntity
  8
0
  6
Continuous
 62
     7
370
    25
100
AcDbLine
 10
109.1239471332
 20
140.2767134595
 30
0.0
 11
112.7825980139
 21
140.2767134595
 31
0.0
  0
SPLINE
  5
17B
330
1F
100
AcDbEntity
  8
0
  6
Continuous
 62
     7
370
    25
100
AcDbSpline
210
0.0
220
0.0
230
1.0
 70
     8
 71
     3
 72
     8
 73
     4
 74
     0
 42
0.000000001
 43
0.00000001
 40
0.0
 40
0.0
 40
0.0
 40
0.0
 40
1.0
 40
1.0
 40
1.0
 40
1.0
 10
108.98997253703
 20
141.1784935700523
 30
0.0
 10
109.0327785765795
 20
140.8776304670195
 30
0.0
 10
109.0774858003668
 20
140.5770442364444
 30
0.0
 10
109.1239471332455
 20
140.2767134595414
 30
0.0
  0
SPLINE
  5
17C
330
1F
100
AcDbEntity
  8
0
  6
Continuous
 62
     7
370
    25
100
AcDbSpline
210
0.0
220
0.0
230
1.0
 70
     8
 71
     3
 72
     8
 73
     4
 74
     0
 42
0.000000001
 43
0.00000001
 40
0.0
 40
0.0
 40
0.0
 40
0.0
 40
1.0
 40
1.0
 40
1.0
 40
1.0
 10
108.8559979408144
 20
140.2767134595414
 30
0.0
 10
108.9024757886403
 20
140.5771509907407
 30
0.0
 10
108.9471821155738
 20
140.8777402391007
 30
0.0
 10
108.98997253703
 20
141.1784935700523
 30
0.0
  0
SPLINE
  5
17D
330
1F
100
AcDbEntity
  8
0
  6
Continuous
 62
     7
370
    25
100
AcDbSpline
210
0.0
220
0.0
230
1.0
 70
    24
 71
     3
 72
    12
 73
     8
 74
     0
 42
0.000000001
 43
0.00000001
 40
0.0
 40
0.0
 40
0.0
 40
0.0
 40
0.1940199508707085
 40
0.3884096182460438
 40
0.5842510171216707
 40
0.7807537662396073
 40
1.0
 40
1.0
 40
1.0
 40
1.0
 10
105.1973470601756
 20
122.7767134595415
 30
0.0
 10
105.0203504638697
 20
122.7767134595415
 30
0.0
 10
104.6660199937635
 20
122.7767134595415
 30
0.0
 10
104.2382964478378
 20
122.7767134595415
 30
0.0
 10
103.9103667165619
 20
122.7767134595415
 30
0.0
 10
103.677885824945
 20
122.7767134595415
 30
0.0
 10
103.6574190522598
 20
122.7767134595414
 30
0.0
 10
103.6466258500796
 20
122.7767134595414
 30
0.0
  0
SPLINE
  5
17E
330
1F
100
AcDbEntity
  8
0
  6
Continuous
 62
     7
370
    25
100
AcDbSpline
210
0.0
220
0.0
230
1.0
 70
    24
 71
     3
 72
    12
 73
     8
 74
     0
 42
0.000000001
 43
0.00000001
 40
0.0
 40
0.0
 40
0.0
 40
0.0
 40
0.2192423529195832
 40
0.412954294654297
 40
0.6073524387712702
 40
0.8034630391011813
 40
1.0
 40
1.0
 40
1.0
 40
1.0
 10
103.649782835621
 20
157.7767134595414
 30
0.0
 10
103.6592041578942
 20
157.7767134595414
 30
0.0
 10
103.6769497049667
 20
157.7767134595414
 30
0.0
 10
103.9076780245327
 20
157.7767134595414
 30
0.0
 10
104.2319732663925
 20
157.7767134595415
 30
0.0
 10
104.6601370709146
 20
157.7767134595415
 30
0.0
 10
105.0181474806065
 20
157.7767134595415
 30
0.0
 10
105.1973470601756
 20
157.7767134595415
 30
0.0
  0
SPLINE
  5
17F
330
1F
100
AcDbEntity
  8
0
  6
Continuous
 62
     7
370
    25
100
AcDbSpline
210
0.0
220
0.0
230
1.0
 70
     8
 71
     3
 72
    18
 73
    14
 74
     0
 42
0.000000001
 43
0.00000001
 40
0.0
 40
0.0
 40
0.0
 40
0.0
 40
0.25
 40
0.25
 40
0.5
 40
0.5
 40
0.5625
 40
0.5625
 40
0.625
 40
0.625
 40
0.7500000000000001
 40
0.7500000000000001
 40
1.0
 40
1.0
 40
1.0
 40
1.0
 10
105.1973470601754
 20
140.2767134595415
 30
0.0
 10
104.721110610282
 20
138.8480041098613
 30
0.0
 10
104.3286056362342
 20
137.408878635579
 30
0.0
 10
103.7848589064103
 20
134.50061474722
 30
0.0
 10
103.6354107336458
 20
133.0312532129375
 30
0.0
 10
103.6340426357502
 20
131.1714824528276
 30
0.0
 10
103.6429673088232
 20
130.7976430477278
 30
0.0
 10
103.6789264452193
 20
130.0533553838093
 30
0.0
 10
103.7059193229953
 20
129.6825045162336
 30
0.0
 10
103.8127676510849
 20
128.5736629359284
 30
0.0
 10
103.9185532779665
 20
127.8393919217705
 30
0.0
 10
104.3270403497804
 20
125.6496515570327
 30
0.0
 10
104.7205168978211
 20
124.2072039466047
 30
0.0
 10
105.1973470601755
 20
122.7767134595415
 30
0.0
  0
LINE
  5
180
330
1F
100
AcDbEntity
  8
0
  6
Continuous
 62
     7
370
    25
100
AcDbLine
 10
103.489972537
 20
157.5267134595
 30
0.0
 11
103.489972537
 21
123.0267134595
 31
0.0
  0
SPLINE
  5
181
330
1F
100
AcDbEntity
  8
0
  6
Continuous
 62
     7
370
    25
100
AcDbSpline
210
0.0
220
0.0
230
1.0
 70
    24
 71
     3
 72
    12
 73
     8
 74
     0
 42
0.000000001
 43
0.00000001
 40
0.0
 40
0.0
 40
0.0
 40
0.0
 40
0.2192423529195832
 40
0.412954294654297
 40
0.6073524387712702
 40
0.8034630391011813
 40
1.0
 40
1.0
 40
1.0
 40
1.0
 10
114.3301622384389
 20
157.7767134595414
 30
0.0
 10
114.3207409161657
 20
157.7767134595414
 30
0.0
 10
114.3029953690932
 20
157.7767134595414
 30
0.0
 10
114.0722670495272
 20
157.7767134595414
 30
0.0
 10
113.7479718076674
 20
157.7767134595415
 30
0.0
 10
113.3198080031454
 20
157.7767134595415
 30
0.0
 10
112.9617975934534
 20
157.7767134595415
 30
0.0
 10
112.7825980138843
 20
157.7767134595415
 30
0.0
  0
SPLINE
  5
182
330
1F
100
AcDbEntity
  8
0
  6
Continuous
 62
     7
370
    25
100
AcDbSpline
210
0.0
220
0.0
230
1.0
 70
    24
 71
     3
 72
    12
 73
     8
 74
     0
 42
0.000000001
 43
0.00000001
 40
0.0
 40
0.0
 40
0.0
 40
0.0
 40
0.1940199508707085
 40
0.3884096182460438
 40
0.5842510171216707
 40
0.7807537662396073
 40
1.0
 40
1.0
 40
1.0
 40
1.0
 10
112.7825980138843
 20
122.7767134595415
 30
0.0
 10
112.9595946101902
 20
122.7767134595415
 30
0.0
 10
113.3139250802964
 20
122.7767134595415
 30
0.0
 10
113.7416486262221
 20
122.7767134595415
 30
0.0
 10
114.069578357498
 20
122.7767134595415
 30
0.0
 10
114.3020592491149
 20
122.7767134595415
 30
0.0
 10
114.3225260218001
 20
122.7767134595414
 30
0.0
 10
114.3333192239804
 20
122.7767134595414
 30
0.0
  0
SPLINE
  5
183
330
1F
100
AcDbEntity
  8
0
  6
Continuous
 62
     7
370
    25
100
AcDbSpline
210
0.0
220
0.0
230
1.0
 70
     8
 71
     3
 72
    18
 73
    14
 74
     0
 42
0.000000001
 43
0.00000001
 40
0.0
 40
0.0
 40
0.0
 40
0.0
 40
0.2500000000000003
 40
0.2500000000000003
 40
0.5000000000000006
 40
0.5000000000000006
 40
0.5625000000000006
 40
0.5625000000000006
 40
0.6250000000000004
 40
0.6250000000000004
 40
0.7500000000000003
 40
0.7500000000000003
 40
1.0
 40
1.0
 40
1.0
 40
1.0
 10
112.7825980138845
 20
140.2767134595415
 30
0.0
 10
113.2588344637779
 20
138.8480041098613
 30
0.0
 10
113.6513394378257
 20
137.408878635579
 30
0.0
 10
114.1950861676496
 20
134.50061474722
 30
0.0
 10
114.3445343404142
 20
133.0312532129375
 30
0.0
 10
114.3459024383097
 20
131.1714824528276
 30
0.0
 10
114.3369777652367
 20
130.7976430477278
 30
0.0
 10
114.3010186288406
 20
130.0533553838093
 30
0.0
 10
114.2740257510646
 20
129.6825045162336
 30
0.0
 10
114.1671774229751
 20
128.5736629359284
 30
0.0
 10
114.0613917960934
 20
127.8393919217704
 30
0.0
 10
113.6529047242795
 20
125.6496515570327
 30
0.0
 10
113.2594281762388
 20
124.2072039466047
 30
0.0
 10
112.7825980138844
 20
122.7767134595415
 30
0.0
  0
LINE
  5
184
330
1F
100
AcDbEntity
  8
0
  6
Continuous
 62
     7
370
    25
100
AcDbLine
 10
114.489972537
 20
157.5267134595
 30
0.0
 11
114.489972537
 21
123.0267134595
 31
0.0
  0
LINE
  5
185
330
1F
100
AcDbEntity
  8
0
  6
Continuous
 62
     7
370
    25
100
AcDbLine
 10
108.989972537
 20
139.374933349
 30
0.0
 11
108.989972537
 21
141.1784935701
 31
0.0
  0
SPLINE
  5
186
330
1F
100
AcDbEntity
  8
0
  6
Continuous
 62
     7
370
    25
100
AcDbSpline
210
0.0
220
0.0
230
1.0
 70
     8
 71
     3
 72
     8
 73
     4
 74
     0
 42
0.000000001
 43
0.00000001
 40
0.0
 40
0.0
 40
0.0
 40
0.0
 40
1.0
 40
1.0
 40
1.0
 40
1.0
 10
108.98997253703
 20
139.3749333490305
 30
0.0
 10
108.9471664974804
 20
139.6757964520633
 30
0.0
 10
108.9024592736931
 20
139.9763826826385
 30
0.0
 10
108.8559979408144
 20
140.2767134595414
 30
0.0
  0
LINE
  5
187
330
1F
100
AcDbEntity
  8
0
  6
Continuous
 62
     7
370
    25
100
AcDbLine
 10
105.1973470602
 20
122.7767134595
 30
0.0
 11
108.8559979408
 21
122.7767134595
 31
0.0
  0
SPLINE
  5
188
330
1F
100
AcDbEntity
  8
0
  6
Continuous
 62
     7
370
    25
100
AcDbSpline
210
0.0
220
0.0
230
1.0
 70
     8
 71
     3
 72
     8
 73
     4
 74
     0
 42
0.000000001
 43
0.00000001
 40
0.0
 40
0.0
 40
0.0
 40
0.0
 40
1.0
 40
1.0
 40
1.0
 40
1.0
 10
109.1239471332455
 20
140.2767134595414
 30
0.0
 10
109.0774692854197
 20
139.9762759283422
 30
0.0
 10
109.0327629584861
 20
139.6756866799822
 30
0.0
 10
108.98997253703
 20
139.3749333490305
 30
0.0
  0
LINE
  5
189
330
1F
100
AcDbEntity
  8
0
  6
Continuous
 62
     7
370
    25
100
AcDbLine
 10
109.1239471332
 20
122.7767134595
 30
0.0
 11
112.7825980139
 21
122.7767134595
 31
0.0
  0
SPLINE
  5
18A
330
1F
100
AcDbEntity
  8
0
  6
Continuous
 62
     7
370
    25
100
AcDbSpline
210
0.0
220
0.0
230
1.0
 70
     8
 71
     3
 72
     8
 73
     4
 74
     0
 42
0.000000001
 43
0.00000001
 40
0.0
 40
0.0
 40
0.0
 40
0.0
 40
1.0
 40
1.0
 40
1.0
 40
1.0
 10
108.98997253703
 20
123.6784935700525
 30
0.0
 10
109.0327785765795
 20
123.3776304670196
 30
0.0
 10
109.0774858003668
 20
123.0770442364445
 30
0.0
 10
109.1239471332455
 20
122.7767134595415
 30
0.0
  0
SPLINE
  5
18B
330
1F
100
AcDbEntity
  8
0
  6
Continuous
 62
     7
370
    25
100
AcDbSpline
210
0.0
220
0.0
230
1.0
 70
     8
 71
     3
 72
     8
 73
     4
 74
     0
 42
0.000000001
 43
0.00000001
 40
0.0
 40
0.0
 40
0.0
 40
0.0
 40
1.0
 40
1.0
 40
1.0
 40
1.0
 10
108.8559979408144
 20
122.7767134595415
 30
0.0
 10
108.9024757886403
 20
123.0771509907408
 30
0.0
 10
108.9471821155738
 20
123.3777402391008
 30
0.0
 10
108.98997253703
 20
123.6784935700525
 30
0.0
  0
LINE
  5
18C
330
1F
100
AcDbEntity
  8
0
  6
Continuous
 62
     7
370
    25
100
AcDbLine
 10
85.7794325526
 20
156.675884085
 30
0.0
 11
85.7794325526
 21
123.8775428341
 31
0.0
  0
LINE
  5
18D
330
1F
100
AcDbEntity
  8
0
  6
Continuous
 62
     7
370
    25
100
AcDbLine
 10
119.389972537
 20
156.9012134595
 30
0.0
 11
119.389972537
 21
123.6522134595
 31
0.0
  0
LINE
  5
18E
330
1F
100
AcDbEntity
  8
0
  6
Continuous
 62
     7
370
    25
100
AcDbLine
 10
117.989972537
 20
125.0522134595
 30
0.0
 11
117.989972537
 21
155.5012134595
 31
0.0
  0
LINE
  5
18F
330
1F
100
AcDbEntity
  8
0
  6
Continuous
 62
     7
370
    25
100
AcDbLine
 10
82.489972537
 20
125.7767134595
 30
0.0
 11
82.489972537
 21
154.7767134595
 31
0.0
  0
SPLINE
  5
190
330
1F
100
AcDbEntity
  8
0
  6
Continuous
 62
     7
370
    25
100
AcDbSpline
210
0.0
220
0.0
230
1.0
 70
    24
 71
     3
 72
     8
 73
     4
 74
     0
 42
0.000000001
 43
0.00000001
 40
0.0
 40
0.0
 40
0.0
 40
0.0
 40
1.0
 40
1.0
 40
1.0
 40
1.0
 10
109.1239471332455
 20
122.7767134595415
 30
0.0
 10
109.0774668624562
 20
122.7767134595415
 30
0.0
 10
109.0327606689949
 20
122.7767134595415
 30
0.0
 10
108.98997253703
 20
122.7767134595415
 30
0.0
  0
LINE
  5
191
330
1F
100
AcDbEntity
  8
0
  6
Continuous
 62
     7
370
    25
100
AcDbLine
 10
108.989972537
 20
122.7767134595
 30
0.0
 11
108.989972537
 21
123.6784935701
 31
0.0
  0
SPLINE
  5
192
330
1F
100
AcDbEntity
  8
0
  6
Continuous
 62
     7
370
    25
100
AcDbSpline
210
0.0
220
0.0
230
1.0
 70
    24
 71
     3
 72
     8
 73
     4
 74
     0
 42
0.000000001
 43
0.00000001
 40
0.0
 40
0.0
 40
0.0
 40
0.0
 40
1.0
 40
1.0
 40
1.0
 40
1.0
 10
108.98997253703
 20
122.7767134595415
 30
0.0
 10
108.9471673011747
 20
122.7767134595415
 30
0.0
 10
108.9024601229583
 20
122.7767134595415
 30
0.0
 10
108.8559979408144
 20
122.7767134595415
 30
0.0
  0
SPLINE
  5
193
330
1F
100
AcDbEntity
  8
0
  6
Continuous
 62
     7
370
    25
100
AcDbSpline
210
0.0
220
0.0
230
1.0
 70
    24
 71
     3
 72
     8
 73
     4
 74
     0
 42
0.000000001
 43
0.00000001
 40
0.0
 40
0.0
 40
0.0
 40
0.0
 40
1.0
 40
1.0
 40
1.0
 40
1.0
 10
108.98997253703
 20
157.7767134595415
 30
0.0
 10
109.0327777728853
 20
157.7767134595415
 30
0.0
 10
109.0774849511016
 20
157.7767134595415
 30
0.0
 10
109.1239471332455
 20
157.7767134595415
 30
0.0
  0
LINE
  5
194
330
1F
100
AcDbEntity
  8
0
  6
Continuous
 62
     7
370
    25
100
AcDbLine
 10
108.989972537
 20
156.874933349
 30
0.0
 11
108.989972537
 21
157.7767134595
 31
0.0
  0
SPLINE
  5
195
330
1F
100
AcDbEntity
  8
0
  6
Continuous
 62
     7
370
    25
100
AcDbSpline
210
0.0
220
0.0
230
1.0
 70
    24
 71
     3
 72
     8
 73
     4
 74
     0
 42
0.000000001
 43
0.00000001
 40
0.0
 40
0.0
 40
0.0
 40
0.0
 40
1.0
 40
1.0
 40
1.0
 40
1.0
 10
108.8559979408144
 20
157.7767134595415
 30
0.0
 10
108.9024782116037
 20
157.7767134595415
 30
0.0
 10
108.9471844050651
 20
157.7767134595415
 30
0.0
 10
108.98997253703
 20
157.7767134595415
 30
0.0
  0
LINE
  5
196
330
1F
100
AcDbEntity
  8
0
  6
Continuous
 62
     7
370
     0
100
AcDbLine
 10
83.6719898998
 20
155.4591515021
 30
0.0
 11
102.989972537
 21
156.0628384595
 31
0.0
  0
LINE
  5
197
330
1F
100
AcDbEntity
  8
0
  6
Continuous
 62
     7
370
     0
100
AcDbLine
 10
83.6719898998
 20
125.094275417
 30
0.0
 11
102.989972537
 21
124.4905884595
 31
0.0
  0
LINE
  5
198
330
1F
100
AcDbEntity
  8
0
  6
Continuous
 62
     7
370
     0
100
AcDbLine
 10
102.989972537
 20
123.3397134595
 30
0.0
 11
102.989972537
 21
157.2137134595
 31
0.0
  0
LINE
  5
199
330
1F
100
AcDbEntity
  8
0
  6
CENTERX2
 62
     7
370
    18
100
AcDbLine
 10
125.4588836238
 20
140.2767134595
 30
0.0
 11
79.7727196095
 21
140.2767134595
 31
0.0
  0
LINE
  5
19A
330
1F
100
AcDbEntity
  8
0
  6
CENTERX2
 62
     7
370
    18
100
AcDbLine
 10
189.4588836238
 20
140.2767134595
 30
0.0
 11
186.9588836238
 21
140.2767134595
 31
0.0
  0
LINE
  5
19B
330
1F
100
AcDbEntity
  8
0
  6
CENTERX2
 62
     7
370
    18
100
AcDbLine
 10
186.9588836238
 20
140.2767134595
 30
0.0
 11
125.4588836238
 21
140.2767134595
 31
0.0
  0
ENDSEC
  0
SECTION
  2
OBJECTS
  0
DICTIONARY
  5
C
330
0
100
AcDbDictionary
281
     1
  3
ACAD_GROUP
350
D
  3
ACAD_LAYOUT
350
1A
  3
ACAD_MLINESTYLE
350
17
  3
ACAD_PLOTSETTINGS
350
19
  3
ACAD_PLOTSTYLENAME
350
E
  3
ACAD_SCALELIST
350
47
  0
DICTIONARY
  5
D
102
{ACAD_REACTORS
330
C
102
}
330
C
100
AcDbDictionary
281
     1
  0
DICTIONARY
  5
1A
102
{ACAD_REACTORS
330
C
102
}
330
C
100
AcDbDictionary
281
     1
  3
Layout1
350
1E
  3
Layout2
350
26
  3
Model
350
22
  0
DICTIONARY
  5
17
102
{ACAD_REACTORS
330
C
102
}
330
C
100
AcDbDictionary
281
     1
  3
Standard
350
18
  0
DICTIONARY
  5
19
102
{ACAD_REACTORS
330
C
102
}
330
C
100
AcDbDictionary
281
     1
  0
ACDBDICTIONARYWDFLT
  5
E
102
{ACAD_REACTORS
330
C
102
}
330
C
100
AcDbDictionary
281
     1
  3
Normal
350
F
100
AcDbDictionaryWithDefault
340
F
  0
DICTIONARY
  5
47
102
{ACAD_REACTORS
330
C
102
}
330
C
100
AcDbDictionary
281
     1
  3
A0
350
48
  3
A1
350
49
  3
A2
350
4A
  3
A3
350
4B
  3
A4
350
4C
  3
A5
350
4D
  3
A6
350
4E
  3
A7
350
4F
  3
A8
350
50
  3
A9
350
51
  3
B0
350
52
  3
B1
350
53
  3
B2
350
54
  3
B3
350
55
  3
B4
350
56
  3
B5
350
57
  3
B6
350
58
  3
B7
350
59
  3
B8
350
5A
  3
B9
350
5B
  3
C0
350
5C
  3
C1
350
5D
  3
C2
350
5E
  3
C3
350
5F
  3
C4
350
60
  3
C5
350
61
  3
C6
350
62
  3
C7
350
63
  3
C8
350
64
  3
C9
350
65
  3
D0
350
66
  3
D1
350
67
  3
D2
350
68
  0
LAYOUT
  5
1E
102
{ACAD_REACTORS
330
1A
102
}
330
1A
100
AcDbPlotSettings
  1

  2
none_device
  4

  6

 40
0.0
 41
0.0
 42
0.0
 43
0.0
 44
0.0
 45
0.0
 46
0.0
 47
0.0
 48
0.0
 49
0.0
140
0.0
141
0.0
142
1.0
143
1.0
 70
   688
 72
     1
 73
     0
 74
     5
  7

 75
    16
147
1.0
148
0.0
149
0.0
100
AcDbLayout
  1
Layout1
 70
     1
 71
     1
 10
0.0
 20
0.0
 11
420.0
 21
297.0
 12
0.0
 22
0.0
 32
0.0
 14
1.0000000000E+20
 24
1.0000000000E+20
 34
1.0000000000E+20
 15
-1.0000000000E+20
 25
-1.0000000000E+20
 35
-1.0000000000E+20
146
0.0
 13
0.0
 23
0.0
 33
0.0
 16
1.0
 26
0.0
 36
0.0
 17
0.0
 27
1.0
 37
0.0
 76
     0
330
1B
  0
LAYOUT
  5
26
102
{ACAD_REACTORS
330
1A
102
}
330
1A
100
AcDbPlotSettings
  1

  2
none_device
  4

  6

 40
0.0
 41
0.0
 42
0.0
 43
0.0
 44
0.0
 45
0.0
 46
0.0
 47
0.0
 48
0.0
 49
0.0
140
0.0
141
0.0
142
1.0
143
1.0
 70
   688
 72
     1
 73
     0
 74
     5
  7

 75
    16
147
1.0
148
0.0
149
0.0
100
AcDbLayout
  1
Layout2
 70
     1
 71
     2
 10
0.0
 20
0.0
 11
0.0
 21
0.0
 12
0.0
 22
0.0
 32
0.0
 14
0.0
 24
0.0
 34
0.0
 15
0.0
 25
0.0
 35
0.0
146
0.0
 13
0.0
 23
0.0
 33
0.0
 16
1.0
 26
0.0
 36
0.0
 17
0.0
 27
1.0
 37
0.0
 76
     0
330
23
  0
LAYOUT
  5
22
102
{ACAD_REACTORS
330
1A
102
}
330
1A
100
AcDbPlotSettings
  1

  2
none_device
  4
Letter_(8.50_x_11.00_Inches)
  6

 40
6.35
 41
6.35
 42
6.35000508
 43
6.35000508
 44
215.9
 45
279.4
 46
0.0
 47
0.0
 48
0.0
 49
0.0
140
0.0
141
0.0
142
1.0
143
1.0
 70
  1712
 72
     1
 73
     0
 74
     0
  7

 75
     0
147
1.0
148
0.0
149
0.0
100
AcDbLayout
  1
Model
 70
     1
 71
     0
 10
0.0
 20
0.0
 11
431.8
 21
279.4
 12
0.0
 22
0.0
 32
0.0
 14
0.0
 24
0.0
 34
0.0
 15
431.8
 25
279.4
 35
0.0
146
0.0
 13
0.0
 23
0.0
 33
0.0
 16
1.0
 26
0.0
 36
0.0
 17
0.0
 27
1.0
 37
0.0
 76
     0
330
1F
331
29
  0
MLINESTYLE
  5
18
102
{ACAD_REACTORS
330
17
102
}
330
17
100
AcDbMlineStyle
  2
Standard
 70
     0
  3

 62
   256
 51
90.0
 52
90.0
 71
     2
 49
0.5
 62
   256
  6
BYLAYER
 49
-0.5
 62
   256
  6
BYLAYER
  0
ACDBPLACEHOLDER
  5
F
102
{ACAD_REACTORS
330
E
102
}
330
E
  0
SCALE
  5
48
102
{ACAD_REACTORS
330
47
102
}
330
47
100
AcDbScale
 70
     0
300
1:1
140
1.0
141
1.0
290
     1
  0
SCALE
  5
49
102
{ACAD_REACTORS
330
47
102
}
330
47
100
AcDbScale
 70
     0
300
1:2
140
1.0
141
2.0
290
     0
  0
SCALE
  5
4A
102
{ACAD_REACTORS
330
47
102
}
330
47
100
AcDbScale
 70
     0
300
1:4
140
1.0
141
4.0
290
     0
  0
SCALE
  5
4B
102
{ACAD_REACTORS
330
47
102
}
330
47
100
AcDbScale
 70
     0
300
1:5
140
1.0
141
5.0
290
     0
  0
SCALE
  5
4C
102
{ACAD_REACTORS
330
47
102
}
330
47
100
AcDbScale
 70
     0
300
1:8
140
1.0
141
8.0
290
     0
  0
SCALE
  5
4D
102
{ACAD_REACTORS
330
47
102
}
330
47
100
AcDbScale
 70
     0
300
1:10
140
1.0
141
10.0
290
     0
  0
SCALE
  5
4E
102
{ACAD_REACTORS
330
47
102
}
330
47
100
AcDbScale
 70
     0
300
1:16
140
1.0
141
16.0
290
     0
  0
SCALE
  5
4F
102
{ACAD_REACTORS
330
47
102
}
330
47
100
AcDbScale
 70
     0
300
1:20
140
1.0
141
20.0
290
     0
  0
SCALE
  5
50
102
{ACAD_REACTORS
330
47
102
}
330
47
100
AcDbScale
 70
     0
300
1:30
140
1.0
141
30.0
290
     0
  0
SCALE
  5
51
102
{ACAD_REACTORS
330
47
102
}
330
47
100
AcDbScale
 70
     0
300
1:40
140
1.0
141
40.0
290
     0
  0
SCALE
  5
52
102
{ACAD_REACTORS
330
47
102
}
330
47
100
AcDbScale
 70
     0
300
1:50
140
1.0
141
50.0
290
     0
  0
SCALE
  5
53
102
{ACAD_REACTORS
330
47
102
}
330
47
100
AcDbScale
 70
     0
300
1:100
140
1.0
141
100.0
290
     0
  0
SCALE
  5
54
102
{ACAD_REACTORS
330
47
102
}
330
47
100
AcDbScale
 70
     0
300
2:1
140
2.0
141
1.0
290
     0
  0
SCALE
  5
55
102
{ACAD_REACTORS
330
47
102
}
330
47
100
AcDbScale
 70
     0
300
4:1
140
4.0
141
1.0
290
     0
  0
SCALE
  5
56
102
{ACAD_REACTORS
330
47
102
}
330
47
100
AcDbScale
 70
     0
300
8:1
140
8.0
141
1.0
290
     0
  0
SCALE
  5
57
102
{ACAD_REACTORS
330
47
102
}
330
47
100
AcDbScale
 70
     0
300
10:1
140
10.0
141
1.0
290
     0
  0
SCALE
  5
58
102
{ACAD_REACTORS
330
47
102
}
330
47
100
AcDbScale
 70
     0
300
100:1
140
100.0
141
1.0
290
     0
  0
SCALE
  5
59
102
{ACAD_REACTORS
330
47
102
}
330
47
100
AcDbScale
 70
     0
300
1/128" = 1'-0"
140
0.0078125
141
12.0
290
     0
  0
SCALE
  5
5A
102
{ACAD_REACTORS
330
47
102
}
330
47
100
AcDbScale
 70
     0
300
1/64" = 1'-0"
140
0.015625
141
12.0
290
     0
  0
SCALE
  5
5B
102
{ACAD_REACTORS
330
47
102
}
330
47
100
AcDbScale
 70
     0
300
1/32" = 1'-0"
140
0.03125
141
12.0
290
     0
  0
SCALE
  5
5C
102
{ACAD_REACTORS
330
47
102
}
330
47
100
AcDbScale
 70
     0
300
1/16" = 1'-0"
140
0.0625
141
12.0
290
     0
  0
SCALE
  5
5D
102
{ACAD_REACTORS
330
47
102
}
330
47
100
AcDbScale
 70
     0
300
3/32" = 1'-0"
140
0.09375
141
12.0
290
     0
  0
SCALE
  5
5E
102
{ACAD_REACTORS
330
47
102
}
330
47
100
AcDbScale
 70
     0
300
1/8" = 1'-0"
140
0.125
141
12.0
290
     0
  0
SCALE
  5
5F
102
{ACAD_REACTORS
330
47
102
}
330
47
100
AcDbScale
 70
     0
300
3/16" = 1'-0"
140
0.1875
141
12.0
290
     0
  0
SCALE
  5
60
102
{ACAD_REACTORS
330
47
102
}
330
47
100
AcDbScale
 70
     0
300
1/4" = 1'-0"
140
0.25
141
12.0
290
     0
  0
SCALE
  5
61
102
{ACAD_REACTORS
330
47
102
}
330
47
100
AcDbScale
 70
     0
300
3/8" = 1'-0"
140
0.375
141
12.0
290
     0
  0
SCALE
  5
62
102
{ACAD_REACTORS
330
47
102
}
330
47
100
AcDbScale
 70
     0
300
1/2" = 1'-0"
140
0.5
141
12.0
290
     0
  0
SCALE
  5
63
102
{ACAD_REACTORS
330
47
102
}
330
47
100
AcDbScale
 70
     0
300
3/4" = 1'-0"
140
0.75
141
12.0
290
     0
  0
SCALE
  5
64
102
{ACAD_REACTORS
330
47
102
}
330
47
100
AcDbScale
 70
     0
300
1" = 1'-0"
140
1.0
141
12.0
290
     0
  0
SCALE
  5
65
102
{ACAD_REACTORS
330
47
102
}
330
47
100
AcDbScale
 70
     0
300
1-1/2" = 1'-0"
140
1.5
141
12.0
290
     0
  0
SCALE
  5
66
102
{ACAD_REACTORS
330
47
102
}
330
47
100
AcDbScale
 70
     0
300
3" = 1'-0"
140
3.0
141
12.0
290
     0
  0
SCALE
  5
67
102
{ACAD_REACTORS
330
47
102
}
330
47
100
AcDbScale
 70
     0
300
6" = 1'-0"
140
6.0
141
12.0
290
     0
  0
SCALE
  5
68
102
{ACAD_REACTORS
330
47
102
}
330
47
100
AcDbScale
 70
     0
300
1'-0" = 1'-0"
140
12.0
141
12.0
290
     0
  0
ENDSEC
  0
EOF
