  0
SECTION
  2
HEADER
  9
$ACADVER
  1
AC1015
  9
$ACADMAINTVER
 70
     6
  9
$DWGCODEPAGE
  3
DOS932
  9
$INSBASE
 10
0.0
 20
0.0
 30
0.0
  9
$EXTMIN
 10
0.0
 20
0.0
 30
0.0
  9
$EXTMAX
 10
431.8
 20
279.4
 30
0.0
  9
$LIMMIN
 10
0.0
 20
0.0
  9
$LIMMAX
 10
431.8
 20
279.4
  9
$ORTHOMODE
 70
     0
  9
$REGENMODE
 70
     1
  9
$FILLMODE
 70
     1
  9
$QTEXTMODE
 70
     0
  9
$MIRRTEXT
 70
     1
  9
$LTSCALE
 40
1.0
  9
$ATTMODE
 70
     1
  9
$TEXTSIZE
 40
3.5
  9
$TRACEWID
 40
1.0
  9
$TEXTSTYLE
  7
Standard
  9
$CLAYER
  8
0
  9
$CELTYPE
  6
ByLayer
  9
$CECOLOR
 62
   256
  9
$CELTSCALE
 40
1.0
  9
$DISPSILH
 70
     0
  9
$DIMSCALE
 40
1.0
  9
$DIMASZ
 40
3.302
  9
$DIMEXO
 40
1.0
  9
$DIMDLI
 40
3.75
  9
$DIMRND
 40
0.0
  9
$DIMDLE
 40
0.0
  9
$DIMEXE
 40
1.0
  9
$DIMTP
 40
0.0
  9
$DIMTM
 40
0.0
  9
$DIMTXT
 40
3.5
  9
$DIMCEN
 40
2.5
  9
$DIMTSZ
 40
0.0
  9
$DIMTOL
 70
     0
  9
$DIMLIM
 70
     0
  9
$DIMTIH
 70
     1
  9
$DIMTOH
 70
     1
  9
$DIMSE1
 70
     0
  9
$DIMSE2
 70
     0
  9
$DIMTAD
 70
     1
  9
$DIMZIN
 70
     1
  9
$DIMBLK
  1

  9
$DIMASO
 70
     1
  9
$DIMSHO
 70
     1
  9
$DIMPOST
  1

  9
$DIMAPOST
  1

  9
$DIMALT
 70
     0
  9
$DIMALTD
 70
     3
  9
$DIMALTF
 40
0.0393700787
  9
$DIMLFAC
 40
1.0
  9
$DIMTOFL
 70
     1
  9
$DIMTVP
 40
0.0
  9
$DIMTIX
 70
     0
  9
$DIMSOXD
 70
     0
  9
$DIMSAH
 70
     0
  9
$DIMBLK1
  1

  9
$DIMBLK2
  1

  9
$DIMSTYLE
  2
ISO-25
  9
$DIMCLRD
 70
     0
  9
$DIMCLRE
 70
     0
  9
$DIMCLRT
 70
     0
  9
$DIMTFAC
 40
1.0
  9
$DIMGAP
 40
1.524
  9
$DIMJUST
 70
     0
  9
$DIMSD1
 70
     0
  9
$DIMSD2
 70
     0
  9
$DIMTOLJ
 70
     0
  9
$DIMTZIN
 70
     1
  9
$DIMALTZ
 70
     0
  9
$DIMALTTZ
 70
     0
  9
$DIMUPT
 70
     0
  9
$DIMDEC
 70
     2
  9
$DIMTDEC
 70
     2
  9
$DIMALTU
 70
     2
  9
$DIMALTTD
 70
     3
  9
$DIMTXSTY
  7
Standard
  9
$DIMAUNIT
 70
     0
  9
$DIMADEC
 70
     2
  9
$DIMALTRND
 40
0.0
  9
$DIMAZIN
 70
     0
  9
$DIMDSEP
 70
    44
  9
$DIMATFIT
 70
     3
  9
$DIMFRAC
 70
     0
  9
$DIMLDRBLK
  1

  9
$DIMLUNIT
 70
     2
  9
$DIMLWD
 70
    -2
  9
$DIMLWE
 70
    -2
  9
$DIMTMOVE
 70
     0
  9
$LUNITS
 70
     2
  9
$LUPREC
 70
     2
  9
$SKETCHINC
 40
1.0
  9
$FILLETRAD
 40
10.0
  9
$AUNITS
 70
     0
  9
$AUPREC
 70
     2
  9
$MENU
  1
.
  9
$ELEVATION
 40
0.0
  9
$PELEVATION
 40
0.0
  9
$THICKNESS
 40
0.0
  9
$LIMCHECK
 70
     0
  9
$CHAMFERA
 40
0.0
  9
$CHAMFERB
 40
0.0
  9
$CHAMFERC
 40
0.0
  9
$CHAMFERD
 40
0.0
  9
$SKPOLY
 70
     0
  9
$TDCREATE
 40
2459486.422219572
  9
$TDUCREATE
 40
2459486.047219572
  9
$TDUPDATE
 40
2459486.422220174
  9
$TDUUPDATE
 40
2459486.047220174
  9
$TDINDWG
 40
0.0000000116
  9
$TDUSRTIMER
 40
0.0000000116
  9
$USRTIMER
 70
     1
  9
$ANGBASE
 50
0.0
  9
$ANGDIR
 70
     0
  9
$PDMODE
 70
     0
  9
$PDSIZE
 40
-1.0
  9
$PLINEWID
 40
0.0
  9
$SPLFRAME
 70
     0
  9
$SPLINETYPE
 70
     6
  9
$SPLINESEGS
 70
     8
  9
$HANDSEED
  5
192
  9
$SURFTAB1
 70
     6
  9
$SURFTAB2
 70
     6
  9
$SURFTYPE
 70
     6
  9
$SURFU
 70
     6
  9
$SURFV
 70
     6
  9
$UCSBASE
  2

  9
$UCSNAME
  2

  9
$UCSORG
 10
0.0
 20
0.0
 30
0.0
  9
$UCSXDIR
 10
1.0
 20
0.0
 30
0.0
  9
$UCSYDIR
 10
0.0
 20
1.0
 30
0.0
  9
$UCSORTHOREF
  2

  9
$UCSORTHOVIEW
 70
     0
  9
$UCSORGTOP
 10
0.0
 20
0.0
 30
0.0
  9
$UCSORGBOTTOM
 10
0.0
 20
0.0
 30
0.0
  9
$UCSORGLEFT
 10
0.0
 20
0.0
 30
0.0
  9
$UCSORGRIGHT
 10
0.0
 20
0.0
 30
0.0
  9
$UCSORGFRONT
 10
0.0
 20
0.0
 30
0.0
  9
$UCSORGBACK
 10
0.0
 20
0.0
 30
0.0
  9
$PUCSBASE
  2

  9
$PUCSNAME
  2

  9
$PUCSORG
 10
0.0
 20
0.0
 30
0.0
  9
$PUCSXDIR
 10
1.0
 20
0.0
 30
0.0
  9
$PUCSYDIR
 10
0.0
 20
1.0
 30
0.0
  9
$PUCSORTHOREF
  2

  9
$PUCSORTHOVIEW
 70
     0
  9
$PUCSORGTOP
 10
0.0
 20
0.0
 30
0.0
  9
$PUCSORGBOTTOM
 10
0.0
 20
0.0
 30
0.0
  9
$PUCSORGLEFT
 10
0.0
 20
0.0
 30
0.0
  9
$PUCSORGRIGHT
 10
0.0
 20
0.0
 30
0.0
  9
$PUCSORGFRONT
 10
0.0
 20
0.0
 30
0.0
  9
$PUCSORGBACK
 10
0.0
 20
0.0
 30
0.0
  9
$USERI1
 70
     0
  9
$USERI2
 70
     0
  9
$USERI3
 70
     0
  9
$USERI4
 70
     0
  9
$USERI5
 70
     0
  9
$USERR1
 40
0.0
  9
$USERR2
 40
0.0
  9
$USERR3
 40
0.0
  9
$USERR4
 40
0.0
  9
$USERR5
 40
0.0
  9
$WORLDVIEW
 70
     1
  9
$SHADEDGE
 70
     3
  9
$SHADEDIF
 70
    70
  9
$TILEMODE
 70
     1
  9
$MAXACTVP
 70
    64
  9
$PINSBASE
 10
0.0
 20
0.0
 30
0.0
  9
$PLIMCHECK
 70
     0
  9
$PEXTMIN
 10
1.0000000000E+20
 20
1.0000000000E+20
 30
1.0000000000E+20
  9
$PEXTMAX
 10
-1.0000000000E+20
 20
-1.0000000000E+20
 30
-1.0000000000E+20
  9
$PLIMMIN
 10
0.0
 20
0.0
  9
$PLIMMAX
 10
420.0
 20
297.0
  9
$UNITMODE
 70
     0
  9
$VISRETAIN
 70
     1
  9
$PLINEGEN
 70
     0
  9
$PSLTSCALE
 70
     1
  9
$TREEDEPTH
 70
  3020
  9
$CMLSTYLE
  2
Standard
  9
$CMLJUST
 70
     0
  9
$CMLSCALE
 40
20.0
  9
$PROXYGRAPHICS
 70
     1
  9
$MEASUREMENT
 70
     1
  9
$CELWEIGHT
370
    -1
  9
$ENDCAPS
280
     0
  9
$JOINSTYLE
280
     0
  9
$LWDISPLAY
290
     1
  9
$INSUNITS
 70
     4
  9
$HYPERLINKBASE
  1

  9
$STYLESHEET
  1

  9
$XEDIT
290
     1
  9
$CEPSNTYPE
380
     0
  9
$PSTYLEMODE
290
     1
  9
$FINGERPRINTGUID
  2
{1697DE56-E48A-481A-870E-8CEC8DA92FBE}
  9
$VERSIONGUID
  2
{FAEB1C32-E019-11D5-929B-00C0DF256EC4}
  9
$EXTNAMES
290
     1
  9
$PSVPSCALE
 40
0.0
  9
$OLESTARTUP
290
     0
  0
ENDSEC
  0
SECTION
  2
CLASSES
  0
CLASS
  1
ACDBDICTIONARYWDFLT
  2
AcDbDictionaryWithDefault
  3
ObjectDBX Classes
 90
        0
280
     0
281
     0
  0
CLASS
  1
VISUALSTYLE
  2
AcDbVisualStyle
  3
ObjectDBX Classes
 90
     4095
280
     0
281
     0
  0
CLASS
  1
MATERIAL
  2
AcDbMaterial
  3
ObjectDBX Classes
 90
     1153
280
     0
281
     0
  0
CLASS
  1
SCALE
  2
AcDbScale
  3
ObjectDBX Classes
 90
     1153
280
     0
281
     0
  0
CLASS
  1
TABLESTYLE
  2
AcDbTableStyle
  3
ObjectDBX Classes
 90
     4095
280
     0
281
     0
  0
CLASS
  1
MLEADERSTYLE
  2
AcDbMLeaderStyle
  3
ACDB_MLEADERSTYLE_CLASS
 90
     4095
280
     0
281
     0
  0
CLASS
  1
SUN
  2
AcDbSun
  3
SCENEOE
 90
     1153
280
     0
281
     0
  0
CLASS
  1
ACDBPLACEHOLDER
  2
AcDbPlaceHolder
  3
ObjectDBX Classes
 90
        0
280
     0
281
     0
  0
CLASS
  1
LAYOUT
  2
AcDbLayout
  3
ObjectDBX Classes
 90
        0
280
     0
281
     0
  0
ENDSEC
  0
SECTION
  2
TABLES
  0
TABLE
  2
VPORT
  5
8
330
0
100
AcDbSymbolTable
 70
     1
  0
VPORT
  5
29
330
8
100
AcDbSymbolTableRecord
100
AcDbViewportTableRecord
  2
*Active
 70
     0
 10
0.0
 20
0.0
 11
1.0
 21
1.0
 12
215.9
 22
139.7
 13
0.0
 23
0.0
 14
10.0
 24
10.0
 15
10.0
 25
10.0
 16
0.0
 26
0.0
 36
1.0
 17
0.0
 27
0.0
 37
0.0
 40
279.4
 41
1.5454545455
 42
50.0
 43
0.0
 44
0.0
 50
0.0
 51
0.0
 71
     0
 72
  2000
 73
     1
 74
     3
 75
     0
 76
     0
 77
     0
 78
     0
281
     0
 65
     1
110
0.0
120
0.0
130
0.0
111
1.0
121
0.0
131
0.0
112
0.0
122
1.0
132
0.0
 79
     0
146
0.0
  0
ENDTAB
  0
TABLE
  2
LTYPE
  5
5
330
0
100
AcDbSymbolTable
 70
     6
  0
LTYPE
  5
14
330
5
100
AcDbSymbolTableRecord
100
AcDbLinetypeTableRecord
  2
ByBlock
 70
     0
  3

 72
    65
 73
     0
 40
0.0
  0
LTYPE
  5
15
330
5
100
AcDbSymbolTableRecord
100
AcDbLinetypeTableRecord
  2
ByLayer
 70
     0
  3

 72
    65
 73
     0
 40
0.0
  0
LTYPE
  5
16
330
5
100
AcDbSymbolTableRecord
100
AcDbLinetypeTableRecord
  2
Continuous
 70
     0
  3
Solid line
 72
    65
 73
     0
 40
0.0
  0
LTYPE
  5
6E
330
5
100
AcDbSymbolTableRecord
100
AcDbLinetypeTableRecord
  2
HIDDEN
 70
     0
  3
Hidden __ __ __ __ __ __ __ __ __ __ __ __ __ __
 72
    65
 73
     2
 40
1.905
 49
1.27
 74
     0
 49
-0.635
 74
     0
  0
LTYPE
  5
6F
330
5
100
AcDbSymbolTableRecord
100
AcDbLinetypeTableRecord
  2
PHANTOM
 70
     0
  3
Phantom ______  __  __  ______  __  __  ______
 72
    65
 73
     6
 40
12.7
 49
6.35
 74
     0
 49
-1.27
 74
     0
 49
1.27
 74
     0
 49
-1.27
 74
     0
 49
1.27
 74
     0
 49
-1.27
 74
     0
  0
LTYPE
  5
70
330
5
100
AcDbSymbolTableRecord
100
AcDbLinetypeTableRecord
  2
CENTER
 70
     0
  3
Center ____ _ ____ _ ____ _ ____ _ ____ _ ____
 72
    65
 73
     4
 40
10.16
 49
6.35
 74
     0
 49
-1.27
 74
     0
 49
1.27
 74
     0
 49
-1.27
 74
     0
  0
LTYPE
  5
71
330
5
100
AcDbSymbolTableRecord
100
AcDbLinetypeTableRecord
  2
CENTERX2
 70
     0
  3
Center (2x) ________  __  ________  __  _____
 72
    65
 73
     4
 40
20.32
 49
12.7
 74
     0
 49
-2.54
 74
     0
 49
2.54
 74
     0
 49
-2.54
 74
     0
  0
LTYPE
  5
72
330
5
100
AcDbSymbolTableRecord
100
AcDbLinetypeTableRecord
  2
DOT2
 70
     0
  3
Dot (.5x) ........................................
 72
    65
 73
     2
 40
0.635
 49
0.0
 74
     0
 49
-0.635
 74
     0
  0
ENDTAB
  0
TABLE
  2
LAYER
  5
2
330
0
100
AcDbSymbolTable
 70
     1
  0
LAYER
  5
10
330
2
100
AcDbSymbolTableRecord
100
AcDbLayerTableRecord
  2
0
 70
     0
 62
     7
  6
Continuous
370
    -3
390
F
  0
ENDTAB
  0
TABLE
  2
STYLE
  5
3
330
0
100
AcDbSymbolTable
 70
     2
  0
STYLE
  5
11
330
3
100
AcDbSymbolTableRecord
100
AcDbTextStyleTableRecord
  2
Standard
 70
     0
 40
0.0
 41
1.0
 50
0.0
 71
     0
 42
3.5
  3
txt
  4
bigfont
  0
STYLE
  5
73
330
3
100
AcDbSymbolTableRecord
100
AcDbTextStyleTableRecord
  2
SLDTEXTSTYLE0
 70
     0
 40
0.0
 41
0.7
 50
0.0
 71
     0
 42
3.5
  3
TXT
  4
bigfont
  0
ENDTAB
  0
TABLE
  2
VIEW
  5
6
330
0
100
AcDbSymbolTable
 70
     0
  0
ENDTAB
  0
TABLE
  2
UCS
  5
7
330
0
100
AcDbSymbolTable
 70
     0
  0
ENDTAB
  0
TABLE
  2
APPID
  5
9
330
0
100
AcDbSymbolTable
 70
     1
  0
APPID
  5
12
330
9
100
AcDbSymbolTableRecord
100
AcDbRegAppTableRecord
  2
ACAD
 70
     0
  0
ENDTAB
  0
TABLE
  2
DIMSTYLE
  5
A
330
0
100
AcDbSymbolTable
 70
     1
100
AcDbDimStyleTable
  0
DIMSTYLE
105
27
330
A
100
AcDbSymbolTableRecord
100
AcDbDimStyleTableRecord
  2
ISO-25
 70
     0
 41
2.5
 42
0.625
 43
3.75
 44
1.25
 73
     0
 74
     0
 77
     1
 78
     8
140
2.5
141
2.5
143
0.0393700787
147
0.625
171
     3
172
     1
178
     0
271
     2
272
     2
274
     3
278
    44
283
     0
284
     8
340
11
  0
ENDTAB
  0
TABLE
  2
BLOCK_RECORD
  5
1
330
0
100
AcDbSymbolTable
 70
     2
  0
BLOCK_RECORD
  5
1F
330
1
100
AcDbSymbolTableRecord
100
AcDbBlockTableRecord
  2
*Model_Space
340
22
  0
BLOCK_RECORD
  5
1B
330
1
100
AcDbSymbolTableRecord
100
AcDbBlockTableRecord
  2
*Paper_Space
340
1E
  0
BLOCK_RECORD
  5
23
330
1
100
AcDbSymbolTableRecord
100
AcDbBlockTableRecord
  2
*Paper_Space0
340
26
  0
BLOCK_RECORD
  5
109
330
1
100
AcDbSymbolTableRecord
100
AcDbBlockTableRecord
  2
SW_CENTERMARKSYMBOL_0
340
0
102
{BLKREFS
331
114
102
}
  0
ENDTAB
  0
ENDSEC
  0
SECTION
  2
BLOCKS
  0
BLOCK
  5
20
330
1F
100
AcDbEntity
  8
0
100
AcDbBlockBegin
  2
*Model_Space
 70
     0
 10
0.0
 20
0.0
 30
0.0
  3
*Model_Space
  1

  0
ENDBLK
  5
21
330
1F
100
AcDbEntity
  8
0
100
AcDbBlockEnd
  0
BLOCK
  5
1C
330
1B
100
AcDbEntity
 67
     1
  8
0
100
AcDbBlockBegin
  2
*Paper_Space
 70
     0
 10
0.0
 20
0.0
 30
0.0
  3
*Paper_Space
  1

  0
ENDBLK
  5
1D
330
1B
100
AcDbEntity
 67
     1
  8
0
100
AcDbBlockEnd
  0
BLOCK
  5
24
330
23
100
AcDbEntity
  8
0
100
AcDbBlockBegin
  2
*Paper_Space0
 70
     0
 10
0.0
 20
0.0
 30
0.0
  3
*Paper_Space0
  1

  0
ENDBLK
  5
25
330
23
100
AcDbEntity
  8
0
100
AcDbBlockEnd
  0
BLOCK
  5
10A
330
109
100
AcDbEntity
  8
0
100
AcDbBlockBegin
  2
SW_CENTERMARKSYMBOL_0
 70
     0
 10
0.0
 20
0.0
 30
0.0
  3
SW_CENTERMARKSYMBOL_0
  1

  0
LINE
  5
10C
330
109
100
AcDbEntity
  8
0
  6
Continuous
 62
     0
370
    18
100
AcDbLine
 10
0.0
 20
0.0
 30
0.0
 11
0.0
 21
2.5
 31
0.0
  0
LINE
  5
10D
330
109
100
AcDbEntity
  8
0
  6
Continuous
 62
     0
370
    18
100
AcDbLine
 10
0.0
 20
0.0
 30
0.0
 11
-2.5
 21
0.0
 31
0.0
  0
LINE
  5
10E
330
109
100
AcDbEntity
  8
0
  6
Continuous
 62
     0
370
    18
100
AcDbLine
 10
0.0
 20
0.0
 30
0.0
 11
0.0
 21
-2.5
 31
0.0
  0
LINE
  5
10F
330
109
100
AcDbEntity
  8
0
  6
Continuous
 62
     0
370
    18
100
AcDbLine
 10
0.0
 20
0.0
 30
0.0
 11
2.5
 21
0.0
 31
0.0
  0
LINE
  5
110
330
109
100
AcDbEntity
  8
0
  6
Continuous
 62
     0
370
    18
100
AcDbLine
 10
0.0
 20
5.0
 30
0.0
 11
0.0
 21
20.2167684382
 31
0.0
  0
LINE
  5
111
330
109
100
AcDbEntity
  8
0
  6
Continuous
 62
     0
370
    18
100
AcDbLine
 10
-5.0
 20
0.0
 30
0.0
 11
-16.75
 21
0.0
 31
0.0
  0
LINE
  5
112
330
109
100
AcDbEntity
  8
0
  6
Continuous
 62
     0
370
    18
100
AcDbLine
 10
0.0
 20
-5.0
 30
0.0
 11
0.0
 21
-20.6994947531
 31
0.0
  0
LINE
  5
113
330
109
100
AcDbEntity
  8
0
  6
Continuous
 62
     0
370
    18
100
AcDbLine
 10
5.0
 20
0.0
 30
0.0
 11
16.75
 21
0.0
 31
0.0
  0
ENDBLK
  5
10B
330
109
100
AcDbEntity
  8
0
100
AcDbBlockEnd
  0
ENDSEC
  0
SECTION
  2
ENTITIES
  0
MTEXT
  5
74
330
1F
100
AcDbEntity
  8
0
  6
Continuous
 62
     7
370
     0
100
AcDbMText
 10
195.8613311048
 20
113.0602999209
 30
0.0
 40
4.2333333333
 41
0.0
 71
     1
 72
     1
  1
HS-1620R
  7
SLDTEXTSTYLE0
 73
     1
 44
1.0
  0
LINE
  5
75
330
1F
100
AcDbEntity
  8
0
  6
Continuous
 62
     7
370
    25
100
AcDbLine
 10
181.3905272511
 20
69.1228724619
 30
0.0
 11
188.3982493744
 21
69.9988377274
 31
0.0
  0
LINE
  5
76
330
1F
100
AcDbEntity
  8
0
  6
Continuous
 62
     7
370
    25
100
AcDbLine
 10
188.3982493744
 20
88.7469071965
 30
0.0
 11
181.3905272511
 21
89.6228724619
 31
0.0
  0
LINE
  5
77
330
1F
100
AcDbEntity
  8
0
  6
Continuous
 62
     7
370
    25
100
AcDbLine
 10
171.3905272511
 20
69.1228724619
 30
0.0
 11
176.3905272511
 21
70.1228724619
 31
0.0
  0
LINE
  5
78
330
1F
100
AcDbEntity
  8
0
  6
Continuous
 62
     7
370
    25
100
AcDbLine
 10
176.3905272511
 20
88.6228724619
 30
0.0
 11
171.3905272511
 21
89.6228724619
 31
0.0
  0
LINE
  5
79
330
1F
100
AcDbEntity
  8
0
  6
Continuous
 62
     7
370
    25
100
AcDbLine
 10
176.3905272511
 20
69.1228724619
 30
0.0
 11
181.3905272511
 21
70.1228724619
 31
0.0
  0
LINE
  5
7A
330
1F
100
AcDbEntity
  8
0
  6
Continuous
 62
     7
370
    25
100
AcDbLine
 10
181.3905272511
 20
88.6228724619
 30
0.0
 11
176.3905272511
 21
89.6228724619
 31
0.0
  0
LINE
  5
7B
330
1F
100
AcDbEntity
  8
0
  6
Continuous
 62
     7
370
    25
100
AcDbLine
 10
166.3905272511
 20
69.1228724619
 30
0.0
 11
171.3905272511
 21
70.1228724619
 31
0.0
  0
LINE
  5
7C
330
1F
100
AcDbEntity
  8
0
  6
Continuous
 62
     7
370
    25
100
AcDbLine
 10
171.3905272511
 20
88.6228724619
 30
0.0
 11
166.3905272511
 21
89.6228724619
 31
0.0
  0
LINE
  5
7D
330
1F
100
AcDbEntity
  8
0
  6
Continuous
 62
     7
370
    25
100
AcDbLine
 10
161.3905272511
 20
89.6228724619
 30
0.0
 11
154.8905272511
 21
89.6228724619
 31
0.0
  0
LINE
  5
7E
330
1F
100
AcDbEntity
  8
0
  6
Continuous
 62
     7
370
    25
100
AcDbLine
 10
154.8905272511
 20
69.1228724619
 30
0.0
 11
161.3905272511
 21
69.1228724619
 31
0.0
  0
LINE
  5
7F
330
1F
100
AcDbEntity
  8
0
  6
Continuous
 62
     7
370
    25
100
AcDbLine
 10
161.3905272511
 20
69.1228724619
 30
0.0
 11
166.3905272511
 21
70.1228724619
 31
0.0
  0
LINE
  5
80
330
1F
100
AcDbEntity
  8
0
  6
Continuous
 62
     7
370
    25
100
AcDbLine
 10
166.3905272511
 20
88.6228724619
 30
0.0
 11
161.3905272511
 21
89.6228724619
 31
0.0
  0
LINE
  5
81
330
1F
100
AcDbEntity
  8
0
  6
Continuous
 62
     7
370
    25
100
AcDbLine
 10
188.3982493744
 20
69.9988377274
 30
0.0
 11
189.3905272511
 21
71.2746235688
 31
0.0
  0
LINE
  5
82
330
1F
100
AcDbEntity
  8
0
  6
Continuous
 62
     7
370
    25
100
AcDbLine
 10
189.3905272511
 20
87.471121355
 30
0.0
 11
188.3982493744
 21
88.7469071965
 31
0.0
  0
LINE
  5
83
330
1F
100
AcDbEntity
  8
0
  6
Continuous
 62
     7
370
    25
100
AcDbLine
 10
151.4064437217
 20
62.0523643863
 30
0.0
 11
152.8905272511
 21
64.6228724619
 31
0.0
  0
LINE
  5
84
330
1F
100
AcDbEntity
  8
0
  6
Continuous
 62
     7
370
    25
100
AcDbLine
 10
152.8905272511
 20
94.1228724619
 30
0.0
 11
151.4064437217
 21
96.6933805376
 31
0.0
  0
LINE
  5
85
330
1F
100
AcDbEntity
  8
0
  6
Continuous
 62
     7
370
    25
100
AcDbLine
 10
140.8746107806
 20
96.6933805376
 30
0.0
 11
139.3905272511
 21
94.1228724619
 31
0.0
  0
LINE
  5
86
330
1F
100
AcDbEntity
  8
0
  6
Continuous
 62
     7
370
    25
100
AcDbLine
 10
139.3905272511
 20
64.6228724619
 30
0.0
 11
140.8746107806
 21
62.0523643863
 31
0.0
  0
LINE
  5
87
330
1F
100
AcDbEntity
  8
0
  6
Continuous
 62
     7
370
    25
100
AcDbLine
 10
139.3905272511
 20
94.1228724619
 30
0.0
 11
137.8905272511
 21
94.1228724619
 31
0.0
  0
LINE
  5
88
330
1F
100
AcDbEntity
  8
0
  6
Continuous
 62
     7
370
    25
100
AcDbLine
 10
137.8905272511
 20
64.6228724619
 30
0.0
 11
139.3905272511
 21
64.6228724619
 31
0.0
  0
LINE
  5
89
330
1F
100
AcDbEntity
  8
0
  6
Continuous
 62
     7
370
    25
100
AcDbLine
 10
152.8905272511
 20
64.6228724619
 30
0.0
 11
154.3905272511
 21
64.6228724619
 31
0.0
  0
LINE
  5
8A
330
1F
100
AcDbEntity
  8
0
  6
Continuous
 62
     7
370
    25
100
AcDbLine
 10
154.3905272511
 20
94.1228724619
 30
0.0
 11
152.8905272511
 21
94.1228724619
 31
0.0
  0
LINE
  5
8B
330
1F
100
AcDbEntity
  8
0
  6
Continuous
 62
     7
370
    25
100
AcDbLine
 10
137.8905272511
 20
94.1228724619
 30
0.0
 11
137.3905272511
 21
93.6228724619
 31
0.0
  0
LINE
  5
8C
330
1F
100
AcDbEntity
  8
0
  6
Continuous
 62
     7
370
    25
100
AcDbLine
 10
137.3905272511
 20
65.1228724619
 30
0.0
 11
137.8905272511
 21
64.6228724619
 31
0.0
  0
LINE
  5
8D
330
1F
100
AcDbEntity
  8
0
  6
Continuous
 62
     7
370
    25
100
AcDbLine
 10
154.3905272511
 20
64.6228724619
 30
0.0
 11
154.8905272511
 21
65.1228724619
 31
0.0
  0
LINE
  5
8E
330
1F
100
AcDbEntity
  8
0
  6
Continuous
 62
     7
370
    25
100
AcDbLine
 10
154.8905272511
 20
93.6228724619
 30
0.0
 11
154.3905272511
 21
94.1228724619
 31
0.0
  0
LINE
  5
8F
330
1F
100
AcDbEntity
  8
0
  6
Continuous
 62
     7
370
    25
100
AcDbLine
 10
146.2745018473
 20
96.6933805376
 30
0.0
 11
146.1405272511
 21
96.1933805376
 31
0.0
  0
LINE
  5
90
330
1F
100
AcDbEntity
  8
0
  6
Continuous
 62
     7
370
    25
100
AcDbLine
 10
146.1405272511
 20
96.1933805376
 30
0.0
 11
146.0065526549
 21
96.6933805376
 31
0.0
  0
LINE
  5
91
330
1F
100
AcDbEntity
  8
0
  6
Continuous
 62
     7
370
    25
100
AcDbLine
 10
146.0065526549
 20
62.0523643863
 30
0.0
 11
146.1405272511
 21
62.5523643863
 31
0.0
  0
LINE
  5
92
330
1F
100
AcDbEntity
  8
0
  6
Continuous
 62
     7
370
    25
100
AcDbLine
 10
146.1405272511
 20
62.5523643863
 30
0.0
 11
146.2745018473
 21
62.0523643863
 31
0.0
  0
LINE
  5
93
330
1F
100
AcDbEntity
  8
0
  6
Continuous
 62
     7
370
    25
100
AcDbLine
 10
132.2000541131
 20
63.2070649246
 30
0.0
 11
133.5948212451
 21
65.6228724619
 31
0.0
  0
LINE
  5
94
330
1F
100
AcDbEntity
  8
0
  6
Continuous
 62
     7
370
    25
100
AcDbLine
 10
133.5948212451
 20
93.1228724619
 30
0.0
 11
132.2000541131
 21
95.5386799993
 31
0.0
  0
LINE
  5
95
330
1F
100
AcDbEntity
  8
0
  6
Continuous
 62
     7
370
    25
100
AcDbLine
 10
126.9895883771
 20
95.5386799993
 30
0.0
 11
125.5948212451
 21
93.1228724619
 31
0.0
  0
LINE
  5
96
330
1F
100
AcDbEntity
  8
0
  6
Continuous
 62
     7
370
    25
100
AcDbLine
 10
125.5948212451
 20
65.6228724619
 30
0.0
 11
126.9895883771
 21
63.2070649246
 31
0.0
  0
LINE
  5
97
330
1F
100
AcDbEntity
  8
0
  6
Continuous
 62
     7
370
    25
100
AcDbLine
 10
125.5948212451
 20
92.8580599619
 30
0.0
 11
110.1999975841
 21
92.3769717225
 31
0.0
  0
LINE
  5
98
330
1F
100
AcDbEntity
  8
0
  6
Continuous
 62
     7
370
    25
100
AcDbLine
 10
110.1999975841
 20
66.3687732013
 30
0.0
 11
125.5948212451
 21
65.8876849619
 31
0.0
  0
LINE
  5
99
330
1F
100
AcDbEntity
  8
0
  6
Continuous
 62
     7
370
    25
100
AcDbLine
 10
137.3905272511
 20
91.6890784679
 30
0.0
 11
137.0948212451
 21
91.3933724619
 31
0.0
  0
LINE
  5
9A
330
1F
100
AcDbEntity
  8
0
  6
Continuous
 62
     7
370
    25
100
AcDbLine
 10
137.0948212451
 20
67.3523724619
 30
0.0
 11
137.3905272511
 21
67.0566664559
 31
0.0
  0
LINE
  5
9B
330
1F
100
AcDbEntity
  8
0
  6
Continuous
 62
     7
370
    25
100
AcDbLine
 10
110.1999975841
 20
92.3769717225
 30
0.0
 11
107.5948212451
 21
90.8728724619
 31
0.0
  0
LINE
  5
9C
330
1F
100
AcDbEntity
  8
0
  6
Continuous
 62
     7
370
    25
100
AcDbLine
 10
107.5948212451
 20
67.8728724619
 30
0.0
 11
110.1999975841
 21
66.3687732013
 31
0.0
  0
LINE
  5
9D
330
1F
100
AcDbEntity
  8
0
  6
Continuous
 62
     7
370
    25
100
AcDbLine
 10
133.5948212451
 20
67.4728724619
 30
0.0
 11
137.0948212451
 21
67.4728724619
 31
0.0
  0
LINE
  5
9E
330
1F
100
AcDbEntity
  8
0
  6
Continuous
 62
     7
370
    25
100
AcDbLine
 10
137.0948212451
 20
91.2728724619
 30
0.0
 11
133.5948212451
 21
91.2728724619
 31
0.0
  0
LINE
  5
9F
330
1F
100
AcDbEntity
  8
0
  6
Continuous
 62
     7
370
    25
100
AcDbLine
 10
129.5144364874
 20
63.2070649246
 30
0.0
 11
129.5948212451
 21
63.5070649246
 31
0.0
  0
LINE
  5
A0
330
1F
100
AcDbEntity
  8
0
  6
Continuous
 62
     7
370
    25
100
AcDbLine
 10
129.5948212451
 20
63.5070649246
 30
0.0
 11
129.6752060029
 21
63.2070649246
 31
0.0
  0
LINE
  5
A1
330
1F
100
AcDbEntity
  8
0
  6
Continuous
 62
     7
370
    25
100
AcDbLine
 10
129.6752060029
 20
95.5386799993
 30
0.0
 11
129.5948212451
 21
95.2386799993
 31
0.0
  0
LINE
  5
A2
330
1F
100
AcDbEntity
  8
0
  6
Continuous
 62
     7
370
    25
100
AcDbLine
 10
129.5948212451
 20
95.2386799993
 30
0.0
 11
129.5144364874
 21
95.5386799993
 31
0.0
  0
LINE
  5
A3
330
1F
100
AcDbEntity
  8
0
  6
Continuous
 62
     7
370
    25
100
AcDbLine
 10
188.3982493744
 20
69.9988377274
 30
0.0
 11
188.3982493744
 21
88.7469071965
 31
0.0
  0
LINE
  5
A4
330
1F
100
AcDbEntity
  8
0
  6
Continuous
 62
     7
370
    25
100
AcDbLine
 10
181.3905272511
 20
89.6228724619
 30
0.0
 11
181.3905272511
 21
69.1228724619
 31
0.0
  0
LINE
  5
A5
330
1F
100
AcDbEntity
  8
0
  6
Continuous
 62
     7
370
    25
100
AcDbLine
 10
171.3905272511
 20
89.6228724619
 30
0.0
 11
171.3905272511
 21
69.1228724619
 31
0.0
  0
LINE
  5
A6
330
1F
100
AcDbEntity
  8
0
  6
Continuous
 62
     7
370
    25
100
AcDbLine
 10
176.3905272511
 20
89.6228724619
 30
0.0
 11
176.3905272511
 21
69.1228724619
 31
0.0
  0
LINE
  5
A7
330
1F
100
AcDbEntity
  8
0
  6
Continuous
 62
     7
370
    25
100
AcDbLine
 10
166.3905272511
 20
89.6228724619
 30
0.0
 11
166.3905272511
 21
69.1228724619
 31
0.0
  0
LINE
  5
A8
330
1F
100
AcDbEntity
  8
0
  6
Continuous
 62
     7
370
    25
100
AcDbLine
 10
161.3905272511
 20
89.6228724619
 30
0.0
 11
161.3905272511
 21
69.1228724619
 31
0.0
  0
LINE
  5
A9
330
1F
100
AcDbEntity
  8
0
  6
Continuous
 62
     7
370
    25
100
AcDbLine
 10
189.3905272511
 20
87.471121355
 30
0.0
 11
189.3905272511
 21
71.2746235688
 31
0.0
  0
LINE
  5
AA
330
1F
100
AcDbEntity
  8
0
  6
Continuous
 62
     7
370
    25
100
AcDbLine
 10
146.1405272511
 20
86.9840150782
 30
0.0
 11
146.1405272511
 21
88.5576822106
 31
0.0
  0
LINE
  5
AB
330
1F
100
AcDbEntity
  8
0
  6
Continuous
 62
     7
370
    25
100
AcDbLine
 10
146.2745018473
 20
88.0331264998
 30
0.0
 11
146.1405272511
 21
88.5576822106
 31
0.0
  0
LINE
  5
AC
330
1F
100
AcDbEntity
  8
0
  6
Continuous
 62
     7
370
    25
100
AcDbLine
 10
146.1405272511
 20
86.9840150782
 30
0.0
 11
146.2745018473
 21
88.0331264998
 31
0.0
  0
LINE
  5
AD
330
1F
100
AcDbEntity
  8
0
  6
Continuous
 62
     7
370
    25
100
AcDbLine
 10
146.2745018473
 20
96.6933805376
 30
0.0
 11
151.4064437217
 21
96.6933805376
 31
0.0
  0
SPLINE
  5
AE
330
1F
100
AcDbEntity
  8
0
  6
Continuous
 62
     7
370
    25
100
AcDbSpline
210
0.0
220
0.0
230
1.0
 70
     8
 71
     3
 72
    15
 73
    11
 74
     0
 42
0.000000001
 43
0.00000001
 40
0.0
 40
0.0
 40
0.0
 40
0.0
 40
0.1323071196312175
 40
0.2645768296618952
 40
0.3998055717948222
 40
0.5350099115775102
 40
0.6501988847939827
 40
0.7654058260328535
 40
0.8826915738763782
 40
1.0
 40
1.0
 40
1.0
 40
1.0
 10
151.406443721667
 20
96.69338053763126
 30
0.0
 10
151.6103934693657
 20
96.31921776133234
 30
0.0
 10
152.0182352983382
 20
95.57099800258776
 30
0.0
 10
152.4570546340078
 20
94.41880520480997
 30
0.0
 10
152.7208995666746
 20
93.24489300973798
 30
0.0
 10
152.7731428968505
 20
92.11351475305416
 30
0.0
 10
152.6375666384096
 20
91.04327067120136
 30
0.0
 10
152.3597837825831
 20
90.0332356917809
 30
0.0
 10
151.9523127983853
 20
89.02776754080128
 30
0.0
 10
151.5884118067077
 20
88.36469487992743
 30
0.0
 10
151.406443721667
 20
88.03312649978683
 30
0.0
  0
LINE
  5
AF
330
1F
100
AcDbEntity
  8
0
  6
Continuous
 62
     7
370
    25
100
AcDbLine
 10
146.2745018473
 20
88.0331264998
 30
0.0
 11
151.4064437217
 21
88.0331264998
 31
0.0
  0
LINE
  5
B0
330
1F
100
AcDbEntity
  8
0
  6
Continuous
 62
     7
370
    25
100
AcDbLine
 10
146.1405272511
 20
88.5576822106
 30
0.0
 11
146.0065526549
 21
88.0331264998
 31
0.0
  0
LINE
  5
B1
330
1F
100
AcDbEntity
  8
0
  6
Continuous
 62
     7
370
    25
100
AcDbLine
 10
140.8746107806
 20
88.0331264998
 30
0.0
 11
146.0065526549
 21
88.0331264998
 31
0.0
  0
SPLINE
  5
B2
330
1F
100
AcDbEntity
  8
0
  6
Continuous
 62
     7
370
    25
100
AcDbSpline
210
0.0
220
0.0
230
1.0
 70
     8
 71
     3
 72
    15
 73
    11
 74
     0
 42
0.000000001
 43
0.00000001
 40
0.0
 40
0.0
 40
0.0
 40
0.0
 40
0.1323071196312175
 40
0.2645768296618952
 40
0.3998055717948222
 40
0.5350099115775102
 40
0.6501988847939827
 40
0.7654058260328535
 40
0.8826915738763782
 40
1.0
 40
1.0
 40
1.0
 40
1.0
 10
140.874610780573
 20
96.69338053763126
 30
0.0
 10
140.6706610328742
 20
96.31921776133234
 30
0.0
 10
140.2628192039017
 20
95.57099800258776
 30
0.0
 10
139.8239998682321
 20
94.41880520480997
 30
0.0
 10
139.5601549355654
 20
93.24489300973798
 30
0.0
 10
139.5079116053894
 20
92.11351475305416
 30
0.0
 10
139.6434878638303
 20
91.04327067120136
 30
0.0
 10
139.9212707196568
 20
90.0332356917809
 30
0.0
 10
140.3287417038546
 20
89.02776754080128
 30
0.0
 10
140.6926426955322
 20
88.36469487992743
 30
0.0
 10
140.874610780573
 20
88.03312649978683
 30
0.0
  0
LINE
  5
B3
330
1F
100
AcDbEntity
  8
0
  6
Continuous
 62
     7
370
    25
100
AcDbLine
 10
140.8746107806
 20
96.6933805376
 30
0.0
 11
146.0065526549
 21
96.6933805376
 31
0.0
  0
LINE
  5
B4
330
1F
100
AcDbEntity
  8
0
  6
Continuous
 62
     7
370
    25
100
AcDbLine
 10
146.0065526549
 20
96.6933805376
 30
0.0
 11
146.1405272511
 21
96.1688248268
 31
0.0
  0
LINE
  5
B5
330
1F
100
AcDbEntity
  8
0
  6
Continuous
 62
     7
370
    25
100
AcDbLine
 10
146.1405272511
 20
96.1688248268
 30
0.0
 11
146.2745018473
 21
96.6933805376
 31
0.0
  0
SPLINE
  5
B6
330
1F
100
AcDbEntity
  8
0
  6
Continuous
 62
     7
370
    25
100
AcDbSpline
210
0.0
220
0.0
230
1.0
 70
     8
 71
     3
 72
    16
 73
    12
 74
     0
 42
0.000000001
 43
0.00000001
 40
0.0
 40
0.0
 40
0.0
 40
0.0
 40
0.094505774544042
 40
0.1890023482383824
 40
0.2844029195767152
 40
0.3797930640974021
 40
0.5054190531720957
 40
0.6310461044833378
 40
0.7600214672797239
 40
0.8890327762719119
 40
1.0
 40
1.0
 40
1.0
 40
1.0
 10
151.406443721667
 20
88.03312649978683
 30
0.0
 10
151.5544160230447
 20
87.49929693852603
 30
0.0
 10
151.850346219581
 20
86.43168978833717
 30
0.0
 10
152.2098114937704
 20
84.80321504895767
 30
0.0
 10
152.4912763726132
 20
83.15433322476366
 30
0.0
 10
152.6982114549495
 20
81.31031522664863
 30
0.0
 10
152.7760202750646
 20
79.2777340125767
 30
0.0
 10
152.6747663989346
 20
77.04884199281149
 30
0.0
 10
152.381865936658
 20
74.8175134819761
 30
0.0
 10
151.9522134845952
 20
72.69612895733073
 30
0.0
 10
151.5790132834128
 20
71.33979414303461
 30
0.0
 10
151.406443721667
 20
70.71261842409801
 30
0.0
  0
LINE
  5
B7
330
1F
100
AcDbEntity
  8
0
  6
Continuous
 62
     7
370
    25
100
AcDbLine
 10
146.2745018473
 20
70.7126184241
 30
0.0
 11
151.4064437217
 21
70.7126184241
 31
0.0
  0
LINE
  5
B8
330
1F
100
AcDbEntity
  8
0
  6
Continuous
 62
     7
370
    25
100
AcDbLine
 10
146.2745018473
 20
70.7126184241
 30
0.0
 11
146.1405272511
 21
71.7617298457
 31
0.0
  0
LINE
  5
B9
330
1F
100
AcDbEntity
  8
0
  6
Continuous
 62
     7
370
    25
100
AcDbLine
 10
146.1405272511
 20
71.7617298457
 30
0.0
 11
146.0065526549
 21
70.7126184241
 31
0.0
  0
LINE
  5
BA
330
1F
100
AcDbEntity
  8
0
  6
Continuous
 62
     7
370
    25
100
AcDbLine
 10
140.8746107806
 20
70.7126184241
 30
0.0
 11
146.0065526549
 21
70.7126184241
 31
0.0
  0
SPLINE
  5
BB
330
1F
100
AcDbEntity
  8
0
  6
Continuous
 62
     7
370
    25
100
AcDbSpline
210
0.0
220
0.0
230
1.0
 70
     8
 71
     3
 72
    16
 73
    12
 74
     0
 42
0.000000001
 43
0.00000001
 40
0.0
 40
0.0
 40
0.0
 40
0.0
 40
0.094505774544042
 40
0.1890023482383824
 40
0.2844029195767152
 40
0.3797930640974021
 40
0.5054190531720957
 40
0.6310461044833378
 40
0.7600214672797239
 40
0.8890327762719119
 40
1.0
 40
1.0
 40
1.0
 40
1.0
 10
140.874610780573
 20
88.03312649978683
 30
0.0
 10
140.7266384791952
 20
87.49929693852603
 30
0.0
 10
140.4307082826589
 20
86.43168978833717
 30
0.0
 10
140.0712430084696
 20
84.80321504895767
 30
0.0
 10
139.7897781296268
 20
83.15433322476366
 30
0.0
 10
139.5828430472905
 20
81.31031522664863
 30
0.0
 10
139.5050342271753
 20
79.2777340125767
 30
0.0
 10
139.6062881033053
 20
77.04884199281149
 30
0.0
 10
139.899188565582
 20
74.8175134819761
 30
0.0
 10
140.3288410176447
 20
72.69612895733073
 30
0.0
 10
140.7020412188271
 20
71.33979414303461
 30
0.0
 10
140.874610780573
 20
70.71261842409801
 30
0.0
  0
LINE
  5
BC
330
1F
100
AcDbEntity
  8
0
  6
Continuous
 62
     7
370
    25
100
AcDbLine
 10
146.0065526549
 20
88.0331264998
 30
0.0
 11
146.1405272511
 21
86.9840150782
 31
0.0
  0
LINE
  5
BD
330
1F
100
AcDbEntity
  8
0
  6
Continuous
 62
     7
370
    25
100
AcDbLine
 10
146.1405272511
 20
70.1880627133
 30
0.0
 11
146.1405272511
 21
71.7617298457
 31
0.0
  0
LINE
  5
BE
330
1F
100
AcDbEntity
  8
0
  6
Continuous
 62
     7
370
    25
100
AcDbLine
 10
146.0065526549
 20
70.7126184241
 30
0.0
 11
146.1405272511
 21
70.1880627133
 31
0.0
  0
LINE
  5
BF
330
1F
100
AcDbEntity
  8
0
  6
Continuous
 62
     7
370
    25
100
AcDbLine
 10
152.8905272511
 20
79.3728724619
 30
0.0
 11
152.8905272511
 21
94.1228724619
 31
0.0
  0
LINE
  5
C0
330
1F
100
AcDbEntity
  8
0
  6
Continuous
 62
     7
370
    25
100
AcDbLine
 10
152.8905272511
 20
64.6228724619
 30
0.0
 11
152.8905272511
 21
79.3728724619
 31
0.0
  0
SPLINE
  5
C1
330
1F
100
AcDbEntity
  8
0
  6
Continuous
 62
     7
370
    25
100
AcDbSpline
210
0.0
220
0.0
230
1.0
 70
     8
 71
     3
 72
    15
 73
    11
 74
     0
 42
0.000000001
 43
0.00000001
 40
0.0
 40
0.0
 40
0.0
 40
0.0
 40
0.1323071196312175
 40
0.2645768296618954
 40
0.3998055717948223
 40
0.5350099115775103
 40
0.6501988847939828
 40
0.7654058260328537
 40
0.8826915738763783
 40
1.0
 40
1.0
 40
1.0
 40
1.0
 10
151.406443721667
 20
70.71261842409801
 30
0.0
 10
151.6103934693657
 20
70.3384556477991
 30
0.0
 10
152.0182352983382
 20
69.59023588905453
 30
0.0
 10
152.4570546340078
 20
68.43804309127675
 30
0.0
 10
152.7208995666746
 20
67.26413089620478
 30
0.0
 10
152.7731428968505
 20
66.13275263952099
 30
0.0
 10
152.6375666384096
 20
65.06250855766818
 30
0.0
 10
152.3597837825831
 20
64.05247357824773
 30
0.0
 10
151.9523127983853
 20
63.04700542726813
 30
0.0
 10
151.5884118067077
 20
62.38393276639429
 30
0.0
 10
151.406443721667
 20
62.05236438625368
 30
0.0
  0
LINE
  5
C2
330
1F
100
AcDbEntity
  8
0
  6
Continuous
 62
     7
370
    25
100
AcDbLine
 10
146.1405272511
 20
70.1880627133
 30
0.0
 11
146.2745018473
 21
70.7126184241
 31
0.0
  0
LINE
  5
C3
330
1F
100
AcDbEntity
  8
0
  6
Continuous
 62
     7
370
    25
100
AcDbLine
 10
139.3905272511
 20
79.3728724619
 30
0.0
 11
139.3905272511
 21
94.1228724619
 31
0.0
  0
LINE
  5
C4
330
1F
100
AcDbEntity
  8
0
  6
Continuous
 62
     7
370
    25
100
AcDbLine
 10
139.3905272511
 20
64.6228724619
 30
0.0
 11
139.3905272511
 21
79.3728724619
 31
0.0
  0
SPLINE
  5
C5
330
1F
100
AcDbEntity
  8
0
  6
Continuous
 62
     7
370
    25
100
AcDbSpline
210
0.0
220
0.0
230
1.0
 70
     8
 71
     3
 72
    15
 73
    11
 74
     0
 42
0.000000001
 43
0.00000001
 40
0.0
 40
0.0
 40
0.0
 40
0.0
 40
0.1323071196312175
 40
0.2645768296618954
 40
0.3998055717948223
 40
0.5350099115775103
 40
0.6501988847939828
 40
0.7654058260328537
 40
0.8826915738763783
 40
1.0
 40
1.0
 40
1.0
 40
1.0
 10
140.874610780573
 20
70.71261842409801
 30
0.0
 10
140.6706610328742
 20
70.3384556477991
 30
0.0
 10
140.2628192039017
 20
69.59023588905453
 30
0.0
 10
139.8239998682321
 20
68.43804309127675
 30
0.0
 10
139.5601549355654
 20
67.26413089620478
 30
0.0
 10
139.5079116053894
 20
66.13275263952099
 30
0.0
 10
139.6434878638303
 20
65.06250855766818
 30
0.0
 10
139.9212707196568
 20
64.05247357824773
 30
0.0
 10
140.3287417038546
 20
63.04700542726813
 30
0.0
 10
140.6926426955322
 20
62.38393276639429
 30
0.0
 10
140.874610780573
 20
62.05236438625368
 30
0.0
  0
LINE
  5
C6
330
1F
100
AcDbEntity
  8
0
  6
Continuous
 62
     7
370
    25
100
AcDbLine
 10
146.2745018473
 20
62.0523643863
 30
0.0
 11
151.4064437217
 21
62.0523643863
 31
0.0
  0
LINE
  5
C7
330
1F
100
AcDbEntity
  8
0
  6
Continuous
 62
     7
370
    25
100
AcDbLine
 10
146.2745018473
 20
62.0523643863
 30
0.0
 11
146.1405272511
 21
62.5769200971
 31
0.0
  0
LINE
  5
C8
330
1F
100
AcDbEntity
  8
0
  6
Continuous
 62
     7
370
    25
100
AcDbLine
 10
146.1405272511
 20
62.5769200971
 30
0.0
 11
146.0065526549
 21
62.0523643863
 31
0.0
  0
LINE
  5
C9
330
1F
100
AcDbEntity
  8
0
  6
Continuous
 62
     7
370
    25
100
AcDbLine
 10
140.8746107806
 20
62.0523643863
 30
0.0
 11
146.0065526549
 21
62.0523643863
 31
0.0
  0
LINE
  5
CA
330
1F
100
AcDbEntity
  8
0
  6
Continuous
 62
     7
370
    25
100
AcDbLine
 10
137.8905272511
 20
79.3728724619
 30
0.0
 11
137.8905272511
 21
64.6228724619
 31
0.0
  0
LINE
  5
CB
330
1F
100
AcDbEntity
  8
0
  6
Continuous
 62
     7
370
    25
100
AcDbLine
 10
137.8905272511
 20
94.1228724619
 30
0.0
 11
137.8905272511
 21
79.3728724619
 31
0.0
  0
LINE
  5
CC
330
1F
100
AcDbEntity
  8
0
  6
Continuous
 62
     7
370
    25
100
AcDbLine
 10
154.3905272511
 20
64.6228724619
 30
0.0
 11
154.3905272511
 21
94.1228724619
 31
0.0
  0
LINE
  5
CD
330
1F
100
AcDbEntity
  8
0
  6
Continuous
 62
     7
370
    25
100
AcDbLine
 10
137.3905272511
 20
79.3728724619
 30
0.0
 11
137.3905272511
 21
93.6228724619
 31
0.0
  0
LINE
  5
CE
330
1F
100
AcDbEntity
  8
0
  6
Continuous
 62
     7
370
    25
100
AcDbLine
 10
137.3905272511
 20
65.1228724619
 30
0.0
 11
137.3905272511
 21
79.3728724619
 31
0.0
  0
LINE
  5
CF
330
1F
100
AcDbEntity
  8
0
  6
Continuous
 62
     7
370
    25
100
AcDbLine
 10
154.8905272511
 20
93.6228724619
 30
0.0
 11
154.8905272511
 21
65.1228724619
 31
0.0
  0
LINE
  5
D0
330
1F
100
AcDbEntity
  8
0
  6
Continuous
 62
     7
370
    25
100
AcDbLine
 10
146.1405272511
 20
96.1688248268
 30
0.0
 11
146.1405272511
 21
96.1933805376
 31
0.0
  0
LINE
  5
D1
330
1F
100
AcDbEntity
  8
0
  6
Continuous
 62
     7
370
    25
100
AcDbLine
 10
146.1405272511
 20
62.5523643863
 30
0.0
 11
146.1405272511
 21
62.5769200971
 31
0.0
  0
SPLINE
  5
D2
330
1F
100
AcDbEntity
  8
0
  6
Continuous
 62
     7
370
    25
100
AcDbSpline
210
0.0
220
0.0
230
1.0
 70
     8
 71
     3
 72
     8
 73
     4
 74
     0
 42
0.000000001
 43
0.00000001
 40
0.0
 40
0.0
 40
0.0
 40
0.0
 40
1.0
 40
1.0
 40
1.0
 40
1.0
 10
129.5948212451224
 20
71.9080316189676
 30
0.0
 10
129.6208109594706
 20
71.70187813304601
 30
0.0
 10
129.6476218273176
 20
71.49585978244404
 30
0.0
 10
129.6752060028517
 20
71.28996869328782
 30
0.0
  0
SPLINE
  5
D3
330
1F
100
AcDbEntity
  8
0
  6
Continuous
 62
     7
370
    25
100
AcDbSpline
210
0.0
220
0.0
230
1.0
 70
     8
 71
     3
 72
     8
 73
     4
 74
     0
 42
0.000000001
 43
0.00000001
 40
0.0
 40
0.0
 40
0.0
 40
0.0
 40
1.0
 40
1.0
 40
1.0
 40
1.0
 10
129.6752060028517
 20
71.28996869328782
 30
0.0
 10
129.6476149734364
 20
71.1869975696766
 30
0.0
 10
129.6208043745812
 20
71.08398785734832
 30
0.0
 10
129.5948212451224
 20
70.98093723044795
 30
0.0
  0
LINE
  5
D4
330
1F
100
AcDbEntity
  8
0
  6
Continuous
 62
     7
370
    25
100
AcDbLine
 10
129.5948212451
 20
70.9809372304
 30
0.0
 11
129.5948212451
 21
71.908031619
 31
0.0
  0
SPLINE
  5
D5
330
1F
100
AcDbEntity
  8
0
  6
Continuous
 62
     7
370
    25
100
AcDbSpline
210
0.0
220
0.0
230
1.0
 70
     8
 71
     3
 72
     8
 73
     4
 74
     0
 42
0.000000001
 43
0.00000001
 40
0.0
 40
0.0
 40
0.0
 40
0.0
 40
1.0
 40
1.0
 40
1.0
 40
1.0
 10
129.5144364873931
 20
71.28996869328782
 30
0.0
 10
129.5420285768711
 20
71.49591885292624
 30
0.0
 10
129.5688391335324
 20
71.70193843902298
 30
0.0
 10
129.5948212451224
 20
71.9080316189676
 30
0.0
  0
SPLINE
  5
D6
330
1F
100
AcDbEntity
  8
0
  6
Continuous
 62
     7
370
    25
100
AcDbSpline
210
0.0
220
0.0
230
1.0
 70
     8
 71
     3
 72
     8
 73
     4
 74
     0
 42
0.000000001
 43
0.00000001
 40
0.0
 40
0.0
 40
0.0
 40
0.0
 40
1.0
 40
1.0
 40
1.0
 40
1.0
 10
129.5948212451224
 20
70.98093723044795
 30
0.0
 10
129.568831173609
 20
71.08401538994674
 30
0.0
 10
129.5420202913685
 20
71.18702453538549
 30
0.0
 10
129.5144364873931
 20
71.28996869328782
 30
0.0
  0
SPLINE
  5
D7
330
1F
100
AcDbEntity
  8
0
  6
Continuous
 62
     7
370
    25
100
AcDbSpline
210
0.0
220
0.0
230
1.0
 70
     8
 71
     3
 72
    16
 73
    12
 74
     0
 42
0.000000001
 43
0.00000001
 40
0.0
 40
0.0
 40
0.0
 40
0.0
 40
0.2500000000000003
 40
0.2500000000000003
 40
0.5000000000000006
 40
0.5000000000000006
 40
0.6250000000000004
 40
0.6250000000000004
 40
0.7500000000000003
 40
0.7500000000000003
 40
1.0
 40
1.0
 40
1.0
 40
1.0
 10
132.2000541131467
 20
71.28996869328785
 30
0.0
 10
132.5810432367334
 20
70.63007617410439
 30
0.0
 10
132.8950472238342
 20
69.96537260702421
 30
0.0
 10
133.3300446473294
 20
68.62210294973214
 30
0.0
 10
133.4496032161978
 20
67.94343380357746
 30
0.0
 10
133.4509165281383
 20
66.9126438956443
 30
0.0
 10
133.4216891410028
 20
66.5674300947284
 30
0.0
 10
133.3077175634095
 20
65.88456085955008
 30
0.0
 10
133.2230890557355
 20
65.54541564684584
 30
0.0
 10
132.8962994012292
 20
64.53401802096666
 30
0.0
 10
132.58151819343
 20
63.86778009294633
 30
0.0
 10
132.2000541131465
 20
63.20706492463292
 30
0.0
  0
SPLINE
  5
D8
330
1F
100
AcDbEntity
  8
0
  6
Continuous
 62
     7
370
    25
100
AcDbSpline
210
0.0
220
0.0
230
1.0
 70
     8
 71
     3
 72
    16
 73
    12
 74
     0
 42
0.000000001
 43
0.00000001
 40
0.0
 40
0.0
 40
0.0
 40
0.0
 40
0.25
 40
0.25
 40
0.5
 40
0.5
 40
0.625
 40
0.625
 40
0.75
 40
0.75
 40
1.0
 40
1.0
 40
1.0
 40
1.0
 10
132.2000541131465
 20
71.28996869328782
 30
0.0
 10
132.5801258258018
 20
72.60657572696545
 30
0.0
 10
132.8981821539578
 20
73.95274804312268
 30
0.0
 10
133.3330915538168
 20
76.65037442426313
 30
0.0
 10
133.4506564562437
 20
78.00797673836027
 30
0.0
 10
133.4503969978421
 20
80.05991952508717
 30
0.0
 10
133.4210992437394
 20
80.7477845844485
 30
0.0
 10
133.305382948941
 20
82.12294477484772
 30
0.0
 10
133.2197598702915
 20
82.80327276513505
 30
0.0
 10
132.8912816337
 20
84.82555271038117
 30
0.0
 10
132.5773084479339
 20
86.1489288801422
 30
0.0
 10
132.2000541131464
 20
87.45577623059741
 30
0.0
  0
SPLINE
  5
D9
330
1F
100
AcDbEntity
  8
0
  6
Continuous
 62
     7
370
    25
100
AcDbSpline
210
0.0
220
0.0
230
1.0
 70
     8
 71
     3
 72
    16
 73
    12
 74
     0
 42
0.000000001
 43
0.00000001
 40
0.0
 40
0.0
 40
0.0
 40
0.0
 40
0.2499999999999998
 40
0.2499999999999998
 40
0.4999999999999996
 40
0.4999999999999996
 40
0.6249999999999997
 40
0.6249999999999997
 40
0.7499999999999998
 40
0.7499999999999998
 40
1.0
 40
1.0
 40
1.0
 40
1.0
 10
132.2000541131467
 20
95.53867999925201
 30
0.0
 10
132.5810432367334
 20
94.87878748006858
 30
0.0
 10
132.8950472238342
 20
94.21408391298843
 30
0.0
 10
133.3300446473294
 20
92.8708142556964
 30
0.0
 10
133.4496032161978
 20
92.19214510954176
 30
0.0
 10
133.4509165281383
 20
91.16135520160861
 30
0.0
 10
133.4216891410027
 20
90.81614140069274
 30
0.0
 10
133.3077175634094
 20
90.13327216551446
 30
0.0
 10
133.2230890557354
 20
89.79412695281022
 30
0.0
 10
132.8962994012292
 20
88.78272932693109
 30
0.0
 10
132.58151819343
 20
88.11649139891078
 30
0.0
 10
132.2000541131465
 20
87.4557762305974
 30
0.0
  0
LINE
  5
DA
330
1F
100
AcDbEntity
  8
0
  6
Continuous
 62
     7
370
    25
100
AcDbLine
 10
133.5948212451
 20
93.1228724619
 30
0.0
 11
133.5948212451
 21
65.6228724619
 31
0.0
  0
LINE
  5
DB
330
1F
100
AcDbEntity
  8
0
  6
Continuous
 62
     7
370
    25
100
AcDbLine
 10
126.9895883771
 20
71.2899686933
 30
0.0
 11
129.5144364874
 21
71.2899686933
 31
0.0
  0
SPLINE
  5
DC
330
1F
100
AcDbEntity
  8
0
  6
Continuous
 62
     7
370
    25
100
AcDbSpline
210
0.0
220
0.0
230
1.0
 70
     8
 71
     3
 72
    16
 73
    12
 74
     0
 42
0.000000001
 43
0.00000001
 40
0.0
 40
0.0
 40
0.0
 40
0.0
 40
0.25
 40
0.25
 40
0.5
 40
0.5
 40
0.625
 40
0.625
 40
0.75
 40
0.75
 40
1.0
 40
1.0
 40
1.0
 40
1.0
 10
126.9895883770983
 20
71.28996869328782
 30
0.0
 10
126.609516664443
 20
72.60657572696545
 30
0.0
 10
126.291460336287
 20
73.95274804312268
 30
0.0
 10
125.856550936428
 20
76.65037442426313
 30
0.0
 10
125.7389860340011
 20
78.00797673836027
 30
0.0
 10
125.7392454924027
 20
80.05991952508717
 30
0.0
 10
125.7685432465054
 20
80.7477845844485
 30
0.0
 10
125.8842595413038
 20
82.12294477484772
 30
0.0
 10
125.9698826199533
 20
82.80327276513505
 30
0.0
 10
126.2983608565448
 20
84.82555271038117
 30
0.0
 10
126.6123340423108
 20
86.1489288801422
 30
0.0
 10
126.9895883770984
 20
87.45577623059741
 30
0.0
  0
LINE
  5
DD
330
1F
100
AcDbEntity
  8
0
  6
Continuous
 62
     7
370
    25
100
AcDbLine
 10
126.9895883771
 20
87.4557762306
 30
0.0
 11
129.5144364874
 21
87.4557762306
 31
0.0
  0
SPLINE
  5
DE
330
1F
100
AcDbEntity
  8
0
  6
Continuous
 62
     7
370
    25
100
AcDbSpline
210
0.0
220
0.0
230
1.0
 70
     8
 71
     3
 72
     8
 73
     4
 74
     0
 42
0.000000001
 43
0.00000001
 40
0.0
 40
0.0
 40
0.0
 40
0.0
 40
1.0
 40
1.0
 40
1.0
 40
1.0
 10
129.5948212451224
 20
86.83771330491763
 30
0.0
 10
129.5688315307742
 20
87.04386679083922
 30
0.0
 10
129.5420206629271
 20
87.24988514144118
 30
0.0
 10
129.5144364873931
 20
87.45577623059741
 30
0.0
  0
SPLINE
  5
DF
330
1F
100
AcDbEntity
  8
0
  6
Continuous
 62
     7
370
    25
100
AcDbSpline
210
0.0
220
0.0
230
1.0
 70
     8
 71
     3
 72
     8
 73
     4
 74
     0
 42
0.000000001
 43
0.00000001
 40
0.0
 40
0.0
 40
0.0
 40
0.0
 40
1.0
 40
1.0
 40
1.0
 40
1.0
 10
129.6752060028517
 20
87.45577623059741
 30
0.0
 10
129.6476139133736
 20
87.24982607095899
 30
0.0
 10
129.6208033567124
 20
87.04380648486224
 30
0.0
 10
129.5948212451224
 20
86.83771330491763
 30
0.0
  0
LINE
  5
E0
330
1F
100
AcDbEntity
  8
0
  6
Continuous
 62
     7
370
    25
100
AcDbLine
 10
129.6752060029
 20
87.4557762306
 30
0.0
 11
132.2000541131
 21
87.4557762306
 31
0.0
  0
LINE
  5
E1
330
1F
100
AcDbEntity
  8
0
  6
Continuous
 62
     7
370
    25
100
AcDbLine
 10
129.6752060029
 20
71.2899686933
 30
0.0
 11
132.2000541131
 21
71.2899686933
 31
0.0
  0
LINE
  5
E2
330
1F
100
AcDbEntity
  8
0
  6
Continuous
 62
     7
370
    25
100
AcDbLine
 10
126.9895883771
 20
63.2070649246
 30
0.0
 11
129.5144364874
 21
63.2070649246
 31
0.0
  0
SPLINE
  5
E3
330
1F
100
AcDbEntity
  8
0
  6
Continuous
 62
     7
370
    25
100
AcDbSpline
210
0.0
220
0.0
230
1.0
 70
     8
 71
     3
 72
    16
 73
    12
 74
     0
 42
0.000000001
 43
0.00000001
 40
0.0
 40
0.0
 40
0.0
 40
0.0
 40
0.2500000000000003
 40
0.2500000000000003
 40
0.5000000000000006
 40
0.5000000000000006
 40
0.6250000000000004
 40
0.6250000000000004
 40
0.7500000000000003
 40
0.7500000000000003
 40
1.0
 40
1.0
 40
1.0
 40
1.0
 10
126.9895883770981
 20
71.28996869328785
 30
0.0
 10
126.6085992535113
 20
70.63007617410439
 30
0.0
 10
126.2945952664105
 20
69.96537260702421
 30
0.0
 10
125.8595978429154
 20
68.62210294973214
 30
0.0
 10
125.740039274047
 20
67.94343380357746
 30
0.0
 10
125.7387259621065
 20
66.9126438956443
 30
0.0
 10
125.767953349242
 20
66.5674300947284
 30
0.0
 10
125.8819249268353
 20
65.88456085955008
 30
0.0
 10
125.9665534345093
 20
65.54541564684584
 30
0.0
 10
126.2933430890156
 20
64.53401802096666
 30
0.0
 10
126.6081242968148
 20
63.86778009294633
 30
0.0
 10
126.9895883770982
 20
63.20706492463292
 30
0.0
  0
LINE
  5
E4
330
1F
100
AcDbEntity
  8
0
  6
Continuous
 62
     7
370
    25
100
AcDbLine
 10
129.6752060029
 20
63.2070649246
 30
0.0
 11
132.2000541131
 21
63.2070649246
 31
0.0
  0
SPLINE
  5
E5
330
1F
100
AcDbEntity
  8
0
  6
Continuous
 62
     7
370
    25
100
AcDbSpline
210
0.0
220
0.0
230
1.0
 70
     8
 71
     3
 72
     8
 73
     4
 74
     0
 42
0.000000001
 43
0.00000001
 40
0.0
 40
0.0
 40
0.0
 40
0.0
 40
1.0
 40
1.0
 40
1.0
 40
1.0
 10
129.5948212451224
 20
63.51609638747283
 30
0.0
 10
129.6208113166357
 20
63.41301822797403
 30
0.0
 10
129.6476221988763
 20
63.31000908253529
 30
0.0
 10
129.6752060028517
 20
63.20706492463293
 30
0.0
  0
SPLINE
  5
E6
330
1F
100
AcDbEntity
  8
0
  6
Continuous
 62
     7
370
    25
100
AcDbSpline
210
0.0
220
0.0
230
1.0
 70
     8
 71
     3
 72
     8
 73
     4
 74
     0
 42
0.000000001
 43
0.00000001
 40
0.0
 40
0.0
 40
0.0
 40
0.0
 40
1.0
 40
1.0
 40
1.0
 40
1.0
 10
129.5144364873931
 20
63.20706492463293
 30
0.0
 10
129.5420275168084
 20
63.31003604824416
 30
0.0
 10
129.5688381156636
 20
63.41304576057245
 30
0.0
 10
129.5948212451224
 20
63.51609638747283
 30
0.0
  0
LINE
  5
E7
330
1F
100
AcDbEntity
  8
0
  6
Continuous
 62
     7
370
    25
100
AcDbLine
 10
129.5948212451
 20
86.8377133049
 30
0.0
 11
129.5948212451
 21
87.7648076934
 31
0.0
  0
SPLINE
  5
E8
330
1F
100
AcDbEntity
  8
0
  6
Continuous
 62
     7
370
    25
100
AcDbSpline
210
0.0
220
0.0
230
1.0
 70
     8
 71
     3
 72
     8
 73
     4
 74
     0
 42
0.000000001
 43
0.00000001
 40
0.0
 40
0.0
 40
0.0
 40
0.0
 40
1.0
 40
1.0
 40
1.0
 40
1.0
 10
129.5948212451224
 20
87.76480769343728
 30
0.0
 10
129.6208113166357
 20
87.66172953393848
 30
0.0
 10
129.6476221988763
 20
87.55872038849974
 30
0.0
 10
129.6752060028517
 20
87.45577623059741
 30
0.0
  0
SPLINE
  5
E9
330
1F
100
AcDbEntity
  8
0
  6
Continuous
 62
     7
370
    25
100
AcDbSpline
210
0.0
220
0.0
230
1.0
 70
     8
 71
     3
 72
     8
 73
     4
 74
     0
 42
0.000000001
 43
0.00000001
 40
0.0
 40
0.0
 40
0.0
 40
0.0
 40
1.0
 40
1.0
 40
1.0
 40
1.0
 10
129.5144364873931
 20
87.45577623059741
 30
0.0
 10
129.5420275168084
 20
87.55874735420862
 30
0.0
 10
129.5688381156636
 20
87.66175706653691
 30
0.0
 10
129.5948212451224
 20
87.76480769343728
 30
0.0
  0
SPLINE
  5
EA
330
1F
100
AcDbEntity
  8
0
  6
Continuous
 62
     7
370
    25
100
AcDbSpline
210
0.0
220
0.0
230
1.0
 70
     8
 71
     3
 72
    16
 73
    12
 74
     0
 42
0.000000001
 43
0.00000001
 40
0.0
 40
0.0
 40
0.0
 40
0.0
 40
0.2499999999999998
 40
0.2499999999999998
 40
0.4999999999999996
 40
0.4999999999999996
 40
0.6249999999999997
 40
0.6249999999999997
 40
0.7499999999999998
 40
0.7499999999999998
 40
1.0
 40
1.0
 40
1.0
 40
1.0
 10
126.9895883770981
 20
95.53867999925201
 30
0.0
 10
126.6085992535113
 20
94.87878748006858
 30
0.0
 10
126.2945952664105
 20
94.21408391298843
 30
0.0
 10
125.8595978429154
 20
92.8708142556964
 30
0.0
 10
125.740039274047
 20
92.19214510954176
 30
0.0
 10
125.7387259621065
 20
91.16135520160861
 30
0.0
 10
125.767953349242
 20
90.81614140069274
 30
0.0
 10
125.8819249268353
 20
90.13327216551446
 30
0.0
 10
125.9665534345094
 20
89.79412695281022
 30
0.0
 10
126.2933430890156
 20
88.78272932693109
 30
0.0
 10
126.6081242968148
 20
88.11649139891078
 30
0.0
 10
126.9895883770982
 20
87.4557762305974
 30
0.0
  0
LINE
  5
EB
330
1F
100
AcDbEntity
  8
0
  6
Continuous
 62
     7
370
    25
100
AcDbLine
 10
125.5948212451
 20
93.1228724619
 30
0.0
 11
125.5948212451
 21
65.6228724619
 31
0.0
  0
LINE
  5
EC
330
1F
100
AcDbEntity
  8
0
  6
Continuous
 62
     7
370
    25
100
AcDbLine
 10
126.9895883771
 20
95.5386799993
 30
0.0
 11
129.5144364874
 21
95.5386799993
 31
0.0
  0
SPLINE
  5
ED
330
1F
100
AcDbEntity
  8
0
  6
Continuous
 62
     7
370
    25
100
AcDbSpline
210
0.0
220
0.0
230
1.0
 70
     8
 71
     3
 72
     8
 73
     4
 74
     0
 42
0.000000001
 43
0.00000001
 40
0.0
 40
0.0
 40
0.0
 40
0.0
 40
1.0
 40
1.0
 40
1.0
 40
1.0
 10
129.5948212451224
 20
95.22964853641211
 30
0.0
 10
129.568831173609
 20
95.3327266959109
 30
0.0
 10
129.5420202913685
 20
95.43573584134965
 30
0.0
 10
129.5144364873931
 20
95.538679999252
 30
0.0
  0
SPLINE
  5
EE
330
1F
100
AcDbEntity
  8
0
  6
Continuous
 62
     7
370
    25
100
AcDbSpline
210
0.0
220
0.0
230
1.0
 70
     8
 71
     3
 72
     8
 73
     4
 74
     0
 42
0.000000001
 43
0.00000001
 40
0.0
 40
0.0
 40
0.0
 40
0.0
 40
1.0
 40
1.0
 40
1.0
 40
1.0
 10
129.6752060028517
 20
95.538679999252
 30
0.0
 10
129.6476149734364
 20
95.43570887564077
 30
0.0
 10
129.6208043745812
 20
95.33269916331248
 30
0.0
 10
129.5948212451224
 20
95.22964853641211
 30
0.0
  0
LINE
  5
EF
330
1F
100
AcDbEntity
  8
0
  6
Continuous
 62
     7
370
    25
100
AcDbLine
 10
129.6752060029
 20
95.5386799993
 30
0.0
 11
132.2000541131
 21
95.5386799993
 31
0.0
  0
LINE
  5
F0
330
1F
100
AcDbEntity
  8
0
  6
Continuous
 62
     7
370
    25
100
AcDbLine
 10
110.1999975841
 20
92.3769717225
 30
0.0
 11
110.1999975841
 21
66.3687732013
 31
0.0
  0
LINE
  5
F1
330
1F
100
AcDbEntity
  8
0
  6
Continuous
 62
     7
370
    25
100
AcDbLine
 10
137.0948212451
 20
67.3523724619
 30
0.0
 11
137.0948212451
 21
91.3933724619
 31
0.0
  0
LINE
  5
F2
330
1F
100
AcDbEntity
  8
0
  6
Continuous
 62
     7
370
    25
100
AcDbLine
 10
107.5948212451
 20
79.3728724619
 30
0.0
 11
107.5948212451
 21
90.8728724619
 31
0.0
  0
LINE
  5
F3
330
1F
100
AcDbEntity
  8
0
  6
Continuous
 62
     7
370
    25
100
AcDbLine
 10
107.5948212451
 20
67.8728724619
 30
0.0
 11
107.5948212451
 21
79.3728724619
 31
0.0
  0
LINE
  5
F4
330
1F
100
AcDbEntity
  8
0
  6
Continuous
 62
     7
370
    25
100
AcDbLine
 10
129.5948212451
 20
63.5070649246
 30
0.0
 11
129.5948212451
 21
63.5160963875
 31
0.0
  0
LINE
  5
F5
330
1F
100
AcDbEntity
  8
0
  6
Continuous
 62
     7
370
    25
100
AcDbLine
 10
129.5948212451
 20
95.2296485364
 30
0.0
 11
129.5948212451
 21
95.2386799993
 31
0.0
  0
LINE
  5
F6
330
1F
100
AcDbEntity
  8
0
  6
Continuous
 62
     7
370
     0
100
AcDbLine
 10
108.617527205
 20
91.4633320232
 30
0.0
 11
125.0948212451
 21
91.9782474619
 31
0.0
  0
LINE
  5
F7
330
1F
100
AcDbEntity
  8
0
  6
Continuous
 62
     7
370
     0
100
AcDbLine
 10
108.617527205
 20
67.2824129007
 30
0.0
 11
125.0948212451
 21
66.7674974619
 31
0.0
  0
LINE
  5
F8
330
1F
100
AcDbEntity
  8
0
  6
Continuous
 62
     7
370
     0
100
AcDbLine
 10
125.0948212451
 20
65.9033099619
 30
0.0
 11
125.0948212451
 21
92.8424349619
 31
0.0
  0
LINE
  5
F9
330
1F
100
AcDbEntity
  8
0
  6
CENTERX2
 62
     7
370
    18
100
AcDbLine
 10
191.3905272511
 20
79.3728724619
 30
0.0
 11
105.0202153404
 21
79.3728724619
 31
0.0
  0
CIRCLE
  5
FA
330
1F
100
AcDbEntity
  8
0
  6
Continuous
 62
     7
370
    25
100
AcDbCircle
 10
224.7872524198
 20
79.3728724619
 30
0.0
 40
8.098248893100191
  0
CIRCLE
  5
FB
330
1F
100
AcDbEntity
  8
0
  6
Continuous
 62
     7
370
    25
100
AcDbCircle
 10
224.7872524198
 20
79.3728724619
 30
0.0
 40
9.374034734589216
  0
CIRCLE
  5
FC
330
1F
100
AcDbEntity
  8
0
  6
Continuous
 62
     7
370
    25
100
AcDbCircle
 10
224.7872524198
 20
79.3728724619
 30
0.0
 40
8.0
  0
CIRCLE
  5
FD
330
1F
100
AcDbEntity
  8
0
  6
Continuous
 62
     7
370
    25
100
AcDbCircle
 10
224.7872524198
 20
79.3728724619
 30
0.0
 40
7.500000000000028
  0
CIRCLE
  5
FE
330
1F
100
AcDbEntity
  8
0
  6
Continuous
 62
     7
370
    25
100
AcDbCircle
 10
224.7872524198
 20
79.3728724619
 30
0.0
 40
10.25
  0
CIRCLE
  5
FF
330
1F
100
AcDbEntity
  8
0
  6
Continuous
 62
     7
370
    25
100
AcDbCircle
 10
224.7872524198
 20
79.3728724619
 30
0.0
 40
14.75000000000003
  0
CIRCLE
  5
100
330
1F
100
AcDbEntity
  8
0
  6
Continuous
 62
     7
370
    25
100
AcDbCircle
 10
224.7872524198
 20
79.3728724619
 30
0.0
 40
14.25000000000003
  0
CIRCLE
  5
101
330
1F
100
AcDbEntity
  8
0
  6
Continuous
 62
     7
370
    25
100
AcDbCircle
 10
224.7872524198
 20
79.3728724619
 30
0.0
 40
10.94999999999999
  0
CIRCLE
  5
102
330
1F
100
AcDbEntity
  8
0
  6
Continuous
 62
     7
370
    25
100
AcDbCircle
 10
224.7872524198
 20
79.3728724619
 30
0.0
 40
10.69999999999999
  0
SPLINE
  5
103
330
1F
100
AcDbEntity
  8
0
  6
Continuous
 62
     7
370
    25
100
AcDbSpline
210
0.0
220
0.0
230
1.0
 70
    24
 71
     3
 72
    16
 73
    12
 74
     0
 42
0.000000001
 43
0.00000001
 40
0.0
 40
0.0
 40
0.0
 40
0.0
 40
0.1109673527682369
 40
0.2367565808011174
 40
0.3625132077007758
 40
0.4913606721165814
 40
0.620206266754426
 40
0.7146348397885683
 40
0.8090734135015373
 40
0.9045319075676875
 40
1.0
 40
1.0
 40
1.0
 40
1.0
 10
239.7872524198096
 20
70.71261842409821
 30
0.0
 10
239.7872524198096
 20
71.33979208978559
 30
0.0
 10
239.7872524198096
 20
72.67791081527031
 30
0.0
 10
239.7872524198096
 20
74.76182076356775
 30
0.0
 10
239.7872524198096
 20
76.97342184955721
 30
0.0
 10
239.7872524198095
 20
79.22099090084552
 30
0.0
 10
239.7872524198095
 20
81.28592184324519
 30
0.0
 10
239.7872524198095
 20
83.13752600852676
 30
0.0
 10
239.7872524198095
 20
84.78106764092108
 30
0.0
 10
239.7872524198094
 20
86.41533418978884
 30
0.0
 10
239.7872524198094
 20
87.49384432330315
 30
0.0
 10
239.7872524198094
 20
88.03312649978703
 30
0.0
  0
SPLINE
  5
104
330
1F
100
AcDbEntity
  8
0
  6
Continuous
 62
     7
370
    25
100
AcDbSpline
210
0.0
220
0.0
230
1.0
 70
    24
 71
     3
 72
    15
 73
    11
 74
     0
 42
0.000000001
 43
0.00000001
 40
0.0
 40
0.0
 40
0.0
 40
0.0
 40
0.1323071196312175
 40
0.2645768296618953
 40
0.3998055717948223
 40
0.5350099115775103
 40
0.6501988847939826
 40
0.7654058260328533
 40
0.8826915738763782
 40
1.0
 40
1.0
 40
1.0
 40
1.0
 10
224.7872524198096
 20
62.05236438625368
 30
0.0
 10
225.4353213586604
 20
62.4265271625526
 30
0.0
 10
226.7312759960329
 20
63.17474692129719
 30
0.0
 10
228.726932461899
 20
64.326939719075
 30
0.0
 10
230.7602080273883
 20
65.50085191414698
 30
0.0
 10
232.7198126505434
 20
66.63223017083082
 30
0.0
 10
234.5735297768124
 20
67.70247425268364
 30
0.0
 10
236.3229616785904
 20
68.71250923210413
 30
0.0
 10
238.0644836014794
 20
69.71797738308376
 30
0.0
 10
239.2129591392228
 20
70.3810500439576
 30
0.0
 10
239.7872524198096
 20
70.71261842409821
 30
0.0
  0
SPLINE
  5
105
330
1F
100
AcDbEntity
  8
0
  6
Continuous
 62
     7
370
    25
100
AcDbSpline
210
0.0
220
0.0
230
1.0
 70
    24
 71
     3
 72
    15
 73
    11
 74
     0
 42
0.000000001
 43
0.00000001
 40
0.0
 40
0.0
 40
0.0
 40
0.0
 40
0.1323071196312175
 40
0.2645768296618954
 40
0.3998055717948223
 40
0.5350099115775103
 40
0.6501988847939828
 40
0.7654058260328537
 40
0.8826915738763783
 40
1.0
 40
1.0
 40
1.0
 40
1.0
 10
209.7872524198096
 20
70.71261842409801
 30
0.0
 10
210.4353213586603
 20
70.3384556477991
 30
0.0
 10
211.7312759960328
 20
69.59023588905453
 30
0.0
 10
213.7269324618989
 20
68.43804309127675
 30
0.0
 10
215.7602080273883
 20
67.26413089620478
 30
0.0
 10
217.7198126505434
 20
66.13275263952099
 30
0.0
 10
219.5735297768124
 20
65.06250855766818
 30
0.0
 10
221.3229616785904
 20
64.05247357824773
 30
0.0
 10
223.0644836014794
 20
63.04700542726813
 30
0.0
 10
224.2129591392228
 20
62.38393276639429
 30
0.0
 10
224.7872524198096
 20
62.05236438625368
 30
0.0
  0
SPLINE
  5
106
330
1F
100
AcDbEntity
  8
0
  6
Continuous
 62
     7
370
    25
100
AcDbSpline
210
0.0
220
0.0
230
1.0
 70
    24
 71
     3
 72
    16
 73
    12
 74
     0
 42
0.000000001
 43
0.00000001
 40
0.0
 40
0.0
 40
0.0
 40
0.0
 40
0.094505774544042
 40
0.1890023482383824
 40
0.2844029195767152
 40
0.3797930640974021
 40
0.5054190531720957
 40
0.6310461044833378
 40
0.7600214672797239
 40
0.8890327762719119
 40
1.0
 40
1.0
 40
1.0
 40
1.0
 10
209.7872524198095
 20
88.03312649978683
 30
0.0
 10
209.7872524198095
 20
87.49929693852603
 30
0.0
 10
209.7872524198095
 20
86.43168978833717
 30
0.0
 10
209.7872524198095
 20
84.80321504895767
 30
0.0
 10
209.7872524198095
 20
83.15433322476366
 30
0.0
 10
209.7872524198095
 20
81.31031522664863
 30
0.0
 10
209.7872524198095
 20
79.2777340125767
 30
0.0
 10
209.7872524198095
 20
77.04884199281149
 30
0.0
 10
209.7872524198095
 20
74.8175134819761
 30
0.0
 10
209.7872524198096
 20
72.69612895733073
 30
0.0
 10
209.7872524198096
 20
71.33979414303461
 30
0.0
 10
209.7872524198096
 20
70.71261842409801
 30
0.0
  0
SPLINE
  5
107
330
1F
100
AcDbEntity
  8
0
  6
Continuous
 62
     7
370
    25
100
AcDbSpline
210
0.0
220
0.0
230
1.0
 70
    24
 71
     3
 72
    15
 73
    11
 74
     0
 42
0.000000001
 43
0.00000001
 40
0.0
 40
0.0
 40
0.0
 40
0.0
 40
0.1323071196312175
 40
0.2645768296618952
 40
0.3998055717948222
 40
0.5350099115775102
 40
0.6501988847939827
 40
0.7654058260328535
 40
0.8826915738763782
 40
1.0
 40
1.0
 40
1.0
 40
1.0
 10
224.7872524198095
 20
96.69338053763126
 30
0.0
 10
224.1391834809588
 20
96.31921776133234
 30
0.0
 10
222.8432288435862
 20
95.57099800258776
 30
0.0
 10
220.8475723777202
 20
94.41880520480997
 30
0.0
 10
218.8142968122308
 20
93.24489300973798
 30
0.0
 10
216.8546921890757
 20
92.11351475305416
 30
0.0
 10
215.0009750628068
 20
91.04327067120136
 30
0.0
 10
213.2515431610287
 20
90.0332356917809
 30
0.0
 10
211.5100212381397
 20
89.02776754080128
 30
0.0
 10
210.3615457003963
 20
88.36469487992743
 30
0.0
 10
209.7872524198095
 20
88.03312649978683
 30
0.0
  0
SPLINE
  5
108
330
1F
100
AcDbEntity
  8
0
  6
Continuous
 62
     7
370
    25
100
AcDbSpline
210
0.0
220
0.0
230
1.0
 70
    24
 71
     3
 72
    15
 73
    11
 74
     0
 42
0.000000001
 43
0.00000001
 40
0.0
 40
0.0
 40
0.0
 40
0.0
 40
0.1323071196312191
 40
0.2645768296618986
 40
0.3998055717948273
 40
0.535009911577517
 40
0.6501988847939879
 40
0.7654058260328572
 40
0.8826915738763801
 40
1.0
 40
1.0
 40
1.0
 40
1.0
 10
239.7872524198094
 20
88.03312649978703
 30
0.0
 10
239.1391834809587
 20
88.40728927608595
 30
0.0
 10
237.8432288435861
 20
89.15550903483052
 30
0.0
 10
235.8475723777201
 20
90.3077018326083
 30
0.0
 10
233.8142968122307
 20
91.48161402768025
 30
0.0
 10
231.8546921890756
 20
92.61299228436407
 30
0.0
 10
230.0009750628067
 20
93.68323636621683
 30
0.0
 10
228.2515431610287
 20
94.69327134563727
 30
0.0
 10
226.5100212381397
 20
95.69873949661684
 30
0.0
 10
225.3615457003963
 20
96.36181215749065
 30
0.0
 10
224.7872524198095
 20
96.69338053763126
 30
0.0
  0
INSERT
  5
114
330
1F
100
AcDbEntity
  8
0
  6
Continuous
 62
     7
370
    18
100
AcDbBlockReference
  2
SW_CENTERMARKSYMBOL_0
 10
224.7872524198
 20
79.3728724619
 30
0.0
  0
LINE
  5
115
330
1F
100
AcDbEntity
  8
0
  6
Continuous
 62
     7
370
    25
100
AcDbLine
 10
166.3905272511
 20
127.0676837684
 30
0.0
 11
171.3905272511
 21
128.0676837684
 31
0.0
  0
LINE
  5
116
330
1F
100
AcDbEntity
  8
0
  6
Continuous
 62
     7
370
    25
100
AcDbLine
 10
171.3905272511
 20
146.5676837684
 30
0.0
 11
166.3905272511
 21
147.5676837684
 31
0.0
  0
LINE
  5
117
330
1F
100
AcDbEntity
  8
0
  6
Continuous
 62
     7
370
    25
100
AcDbLine
 10
181.3905272511
 20
127.0676837684
 30
0.0
 11
188.3982493744
 21
127.9436490338
 31
0.0
  0
LINE
  5
118
330
1F
100
AcDbEntity
  8
0
  6
Continuous
 62
     7
370
    25
100
AcDbLine
 10
188.3982493744
 20
146.6917185029
 30
0.0
 11
181.3905272511
 21
147.5676837684
 31
0.0
  0
LINE
  5
119
330
1F
100
AcDbEntity
  8
0
  6
Continuous
 62
     7
370
    25
100
AcDbLine
 10
171.3905272511
 20
127.0676837684
 30
0.0
 11
176.3905272511
 21
128.0676837684
 31
0.0
  0
LINE
  5
11A
330
1F
100
AcDbEntity
  8
0
  6
Continuous
 62
     7
370
    25
100
AcDbLine
 10
176.3905272511
 20
146.5676837684
 30
0.0
 11
171.3905272511
 21
147.5676837684
 31
0.0
  0
LINE
  5
11B
330
1F
100
AcDbEntity
  8
0
  6
Continuous
 62
     7
370
    25
100
AcDbLine
 10
176.3905272511
 20
127.0676837684
 30
0.0
 11
181.3905272511
 21
128.0676837684
 31
0.0
  0
LINE
  5
11C
330
1F
100
AcDbEntity
  8
0
  6
Continuous
 62
     7
370
    25
100
AcDbLine
 10
181.3905272511
 20
146.5676837684
 30
0.0
 11
176.3905272511
 21
147.5676837684
 31
0.0
  0
LINE
  5
11D
330
1F
100
AcDbEntity
  8
0
  6
Continuous
 62
     7
370
    25
100
AcDbLine
 10
161.3905272511
 20
147.5676837684
 30
0.0
 11
154.8905272511
 21
147.5676837684
 31
0.0
  0
LINE
  5
11E
330
1F
100
AcDbEntity
  8
0
  6
Continuous
 62
     7
370
    25
100
AcDbLine
 10
154.8905272511
 20
127.0676837684
 30
0.0
 11
161.3905272511
 21
127.0676837684
 31
0.0
  0
LINE
  5
11F
330
1F
100
AcDbEntity
  8
0
  6
Continuous
 62
     7
370
    25
100
AcDbLine
 10
161.3905272511
 20
127.0676837684
 30
0.0
 11
166.3905272511
 21
128.0676837684
 31
0.0
  0
LINE
  5
120
330
1F
100
AcDbEntity
  8
0
  6
Continuous
 62
     7
370
    25
100
AcDbLine
 10
166.3905272511
 20
146.5676837684
 30
0.0
 11
161.3905272511
 21
147.5676837684
 31
0.0
  0
LINE
  5
121
330
1F
100
AcDbEntity
  8
0
  6
Continuous
 62
     7
370
    25
100
AcDbLine
 10
188.3982493744
 20
127.9436490338
 30
0.0
 11
189.3905272511
 21
129.2194348753
 31
0.0
  0
LINE
  5
122
330
1F
100
AcDbEntity
  8
0
  6
Continuous
 62
     7
370
    25
100
AcDbLine
 10
189.3905272511
 20
145.4159326615
 30
0.0
 11
188.3982493744
 21
146.6917185029
 31
0.0
  0
LINE
  5
123
330
1F
100
AcDbEntity
  8
0
  6
Continuous
 62
     7
370
    25
100
AcDbLine
 10
139.5348648184
 20
152.3176837684
 30
0.0
 11
139.3905272511
 21
152.0676837684
 31
0.0
  0
LINE
  5
124
330
1F
100
AcDbEntity
  8
0
  6
Continuous
 62
     7
370
    25
100
AcDbLine
 10
139.3905272511
 20
122.5676837684
 30
0.0
 11
139.5348648184
 21
122.3176837684
 31
0.0
  0
LINE
  5
125
330
1F
100
AcDbEntity
  8
0
  6
Continuous
 62
     7
370
    25
100
AcDbLine
 10
152.7461896838
 20
122.3176837684
 30
0.0
 11
152.8905272511
 21
122.5676837684
 31
0.0
  0
LINE
  5
126
330
1F
100
AcDbEntity
  8
0
  6
Continuous
 62
     7
370
    25
100
AcDbLine
 10
152.8905272511
 20
152.0676837684
 30
0.0
 11
152.7461896838
 21
152.3176837684
 31
0.0
  0
LINE
  5
127
330
1F
100
AcDbEntity
  8
0
  6
Continuous
 62
     7
370
    25
100
AcDbLine
 10
139.3905272511
 20
152.0676837684
 30
0.0
 11
137.8905272511
 21
152.0676837684
 31
0.0
  0
LINE
  5
128
330
1F
100
AcDbEntity
  8
0
  6
Continuous
 62
     7
370
    25
100
AcDbLine
 10
137.8905272511
 20
122.5676837684
 30
0.0
 11
139.3905272511
 21
122.5676837684
 31
0.0
  0
LINE
  5
129
330
1F
100
AcDbEntity
  8
0
  6
Continuous
 62
     7
370
    25
100
AcDbLine
 10
152.8905272511
 20
122.5676837684
 30
0.0
 11
154.3905272511
 21
122.5676837684
 31
0.0
  0
LINE
  5
12A
330
1F
100
AcDbEntity
  8
0
  6
Continuous
 62
     7
370
    25
100
AcDbLine
 10
154.3905272511
 20
152.0676837684
 30
0.0
 11
152.8905272511
 21
152.0676837684
 31
0.0
  0
LINE
  5
12B
330
1F
100
AcDbEntity
  8
0
  6
Continuous
 62
     7
370
    25
100
AcDbLine
 10
137.8905272511
 20
152.0676837684
 30
0.0
 11
137.3905272511
 21
151.5676837684
 31
0.0
  0
LINE
  5
12C
330
1F
100
AcDbEntity
  8
0
  6
Continuous
 62
     7
370
    25
100
AcDbLine
 10
137.3905272511
 20
123.0676837684
 30
0.0
 11
137.8905272511
 21
122.5676837684
 31
0.0
  0
LINE
  5
12D
330
1F
100
AcDbEntity
  8
0
  6
Continuous
 62
     7
370
    25
100
AcDbLine
 10
154.3905272511
 20
122.5676837684
 30
0.0
 11
154.8905272511
 21
123.0676837684
 31
0.0
  0
LINE
  5
12E
330
1F
100
AcDbEntity
  8
0
  6
Continuous
 62
     7
370
    25
100
AcDbLine
 10
154.8905272511
 20
151.5676837684
 30
0.0
 11
154.3905272511
 21
152.0676837684
 31
0.0
  0
LINE
  5
12F
330
1F
100
AcDbEntity
  8
0
  6
Continuous
 62
     7
370
    25
100
AcDbLine
 10
125.7391588124
 20
151.3176837684
 30
0.0
 11
125.5948212451
 21
151.0676837684
 31
0.0
  0
LINE
  5
130
330
1F
100
AcDbEntity
  8
0
  6
Continuous
 62
     7
370
    25
100
AcDbLine
 10
125.5948212451
 20
123.5676837684
 30
0.0
 11
125.7391588124
 21
123.3176837684
 31
0.0
  0
LINE
  5
131
330
1F
100
AcDbEntity
  8
0
  6
Continuous
 62
     7
370
    25
100
AcDbLine
 10
133.4504836778
 20
123.3176837684
 30
0.0
 11
133.5948212451
 21
123.5676837684
 31
0.0
  0
LINE
  5
132
330
1F
100
AcDbEntity
  8
0
  6
Continuous
 62
     7
370
    25
100
AcDbLine
 10
133.5948212451
 20
151.0676837684
 30
0.0
 11
133.4504836778
 21
151.3176837684
 31
0.0
  0
LINE
  5
133
330
1F
100
AcDbEntity
  8
0
  6
Continuous
 62
     7
370
    25
100
AcDbLine
 10
125.5948212451
 20
150.8028712684
 30
0.0
 11
110.1999975841
 21
150.3217830289
 31
0.0
  0
LINE
  5
134
330
1F
100
AcDbEntity
  8
0
  6
Continuous
 62
     7
370
    25
100
AcDbLine
 10
110.1999975841
 20
124.3135845078
 30
0.0
 11
125.5948212451
 21
123.8324962684
 31
0.0
  0
LINE
  5
135
330
1F
100
AcDbEntity
  8
0
  6
Continuous
 62
     7
370
    25
100
AcDbLine
 10
137.3905272511
 20
149.6338897744
 30
0.0
 11
137.0948212451
 21
149.3381837684
 31
0.0
  0
LINE
  5
136
330
1F
100
AcDbEntity
  8
0
  6
Continuous
 62
     7
370
    25
100
AcDbLine
 10
137.0948212451
 20
125.2971837684
 30
0.0
 11
137.3905272511
 21
125.0014777624
 31
0.0
  0
LINE
  5
137
330
1F
100
AcDbEntity
  8
0
  6
Continuous
 62
     7
370
    25
100
AcDbLine
 10
110.1999975841
 20
150.3217830289
 30
0.0
 11
107.5948212451
 21
148.8176837684
 31
0.0
  0
LINE
  5
138
330
1F
100
AcDbEntity
  8
0
  6
Continuous
 62
     7
370
    25
100
AcDbLine
 10
107.5948212451
 20
125.8176837684
 30
0.0
 11
110.1999975841
 21
124.3135845078
 31
0.0
  0
LINE
  5
139
330
1F
100
AcDbEntity
  8
0
  6
Continuous
 62
     7
370
    25
100
AcDbLine
 10
133.5948212451
 20
125.4176837684
 30
0.0
 11
137.0948212451
 21
125.4176837684
 31
0.0
  0
LINE
  5
13A
330
1F
100
AcDbEntity
  8
0
  6
Continuous
 62
     7
370
    25
100
AcDbLine
 10
137.0948212451
 20
149.2176837684
 30
0.0
 11
133.5948212451
 21
149.2176837684
 31
0.0
  0
LINE
  5
13B
330
1F
100
AcDbEntity
  8
0
  6
Continuous
 62
     7
370
    25
100
AcDbLine
 10
166.3905272511
 20
137.3176837684
 30
0.0
 11
166.3905272511
 21
127.0676837684
 31
0.0
  0
LINE
  5
13C
330
1F
100
AcDbEntity
  8
0
  6
Continuous
 62
     7
370
    25
100
AcDbLine
 10
166.3905272511
 20
147.5676837684
 30
0.0
 11
166.3905272511
 21
137.3176837684
 31
0.0
  0
LINE
  5
13D
330
1F
100
AcDbEntity
  8
0
  6
Continuous
 62
     7
370
    25
100
AcDbLine
 10
181.3905272511
 20
137.3176837684
 30
0.0
 11
181.3905272511
 21
127.0676837684
 31
0.0
  0
LINE
  5
13E
330
1F
100
AcDbEntity
  8
0
  6
Continuous
 62
     7
370
    25
100
AcDbLine
 10
181.3905272511
 20
147.5676837684
 30
0.0
 11
181.3905272511
 21
137.3176837684
 31
0.0
  0
LINE
  5
13F
330
1F
100
AcDbEntity
  8
0
  6
Continuous
 62
     7
370
    25
100
AcDbLine
 10
188.3982493744
 20
137.3176837684
 30
0.0
 11
188.3982493744
 21
146.6917185029
 31
0.0
  0
LINE
  5
140
330
1F
100
AcDbEntity
  8
0
  6
Continuous
 62
     7
370
    25
100
AcDbLine
 10
188.3982493744
 20
127.9436490338
 30
0.0
 11
188.3982493744
 21
137.3176837684
 31
0.0
  0
LINE
  5
141
330
1F
100
AcDbEntity
  8
0
  6
Continuous
 62
     7
370
    25
100
AcDbLine
 10
171.3905272511
 20
137.3176837684
 30
0.0
 11
171.3905272511
 21
127.0676837684
 31
0.0
  0
LINE
  5
142
330
1F
100
AcDbEntity
  8
0
  6
Continuous
 62
     7
370
    25
100
AcDbLine
 10
171.3905272511
 20
147.5676837684
 30
0.0
 11
171.3905272511
 21
137.3176837684
 31
0.0
  0
LINE
  5
143
330
1F
100
AcDbEntity
  8
0
  6
Continuous
 62
     7
370
    25
100
AcDbLine
 10
176.3905272511
 20
137.3176837684
 30
0.0
 11
176.3905272511
 21
127.0676837684
 31
0.0
  0
LINE
  5
144
330
1F
100
AcDbEntity
  8
0
  6
Continuous
 62
     7
370
    25
100
AcDbLine
 10
176.3905272511
 20
147.5676837684
 30
0.0
 11
176.3905272511
 21
137.3176837684
 31
0.0
  0
LINE
  5
145
330
1F
100
AcDbEntity
  8
0
  6
Continuous
 62
     7
370
    25
100
AcDbLine
 10
161.3905272511
 20
137.3176837684
 30
0.0
 11
161.3905272511
 21
127.0676837684
 31
0.0
  0
LINE
  5
146
330
1F
100
AcDbEntity
  8
0
  6
Continuous
 62
     7
370
    25
100
AcDbLine
 10
161.3905272511
 20
147.5676837684
 30
0.0
 11
161.3905272511
 21
137.3176837684
 31
0.0
  0
LINE
  5
147
330
1F
100
AcDbEntity
  8
0
  6
Continuous
 62
     7
370
    25
100
AcDbLine
 10
189.3905272511
 20
137.3176837684
 30
0.0
 11
189.3905272511
 21
129.2194348753
 31
0.0
  0
LINE
  5
148
330
1F
100
AcDbEntity
  8
0
  6
Continuous
 62
     7
370
    25
100
AcDbLine
 10
189.3905272511
 20
145.4159326615
 30
0.0
 11
189.3905272511
 21
137.3176837684
 31
0.0
  0
LINE
  5
149
330
1F
100
AcDbEntity
  8
0
  6
Continuous
 62
     7
370
    25
100
AcDbLine
 10
139.3905272511
 20
122.5676837684
 30
0.0
 11
139.3905272511
 21
152.0676837684
 31
0.0
  0
SPLINE
  5
14A
330
1F
100
AcDbEntity
  8
0
  6
Continuous
 62
     7
370
    25
100
AcDbSpline
210
0.0
220
0.0
230
1.0
 70
     8
 71
     3
 72
    15
 73
    11
 74
     0
 42
0.000000001
 43
0.00000001
 40
0.0
 40
0.0
 40
0.0
 40
0.0
 40
0.1323071196312191
 40
0.2645768296618985
 40
0.3998055717948272
 40
0.5350099115775169
 40
0.6501988847939878
 40
0.765405826032857
 40
0.8826915738763799
 40
1.0
 40
1.0
 40
1.0
 40
1.0
 10
140.874610780573
 20
152.3176837683526
 30
0.0
 10
140.6706610328742
 20
151.6696148295019
 30
0.0
 10
140.2628192039018
 20
150.3736601921293
 30
0.0
 10
139.8239998682321
 20
148.3780037262632
 30
0.0
 10
139.5601549355654
 20
146.3447281607739
 30
0.0
 10
139.5079116053895
 20
144.3851235376188
 30
0.0
 10
139.6434878638304
 20
142.5314064113499
 30
0.0
 10
139.9212707196569
 20
140.7819745095719
 30
0.0
 10
140.3287417038546
 20
139.0404525866829
 30
0.0
 10
140.6926426955322
 20
137.8919770489395
 30
0.0
 10
140.874610780573
 20
137.3176837683527
 30
0.0
  0
SPLINE
  5
14B
330
1F
100
AcDbEntity
  8
0
  6
Continuous
 62
     7
370
    25
100
AcDbSpline
210
0.0
220
0.0
230
1.0
 70
     8
 71
     3
 72
    15
 73
    11
 74
     0
 42
0.000000001
 43
0.00000001
 40
0.0
 40
0.0
 40
0.0
 40
0.0
 40
0.1323071196312175
 40
0.2645768296618952
 40
0.3998055717948222
 40
0.5350099115775102
 40
0.6501988847939827
 40
0.7654058260328535
 40
0.8826915738763782
 40
1.0
 40
1.0
 40
1.0
 40
1.0
 10
140.874610780573
 20
137.3176837683527
 30
0.0
 10
140.6706610328742
 20
136.669614829502
 30
0.0
 10
140.2628192039017
 20
135.3736601921294
 30
0.0
 10
139.8239998682321
 20
133.3780037262634
 30
0.0
 10
139.5601549355654
 20
131.344728160774
 30
0.0
 10
139.5079116053894
 20
129.3851235376189
 30
0.0
 10
139.6434878638303
 20
127.5314064113499
 30
0.0
 10
139.9212707196568
 20
125.7819745095719
 30
0.0
 10
140.3287417038546
 20
124.0404525866829
 30
0.0
 10
140.6926426955322
 20
122.8919770489395
 30
0.0
 10
140.874610780573
 20
122.3176837683527
 30
0.0
  0
SPLINE
  5
14C
330
1F
100
AcDbEntity
  8
0
  6
Continuous
 62
     7
370
    25
100
AcDbSpline
210
0.0
220
0.0
230
1.0
 70
    24
 71
     3
 72
    12
 73
     8
 74
     0
 42
0.000000001
 43
0.00000001
 40
0.0
 40
0.0
 40
0.0
 40
0.0
 40
0.1888190338768781
 40
0.3779763000849815
 40
0.5684539201814744
 40
0.7595300078276512
 40
1.0
 40
1.0
 40
1.0
 40
1.0
 10
140.874610780573
 20
122.3176837683527
 30
0.0
 10
140.7268025390805
 20
122.3176837683527
 30
0.0
 10
140.4309212865696
 20
122.3176837683527
 30
0.0
 10
140.0711831216767
 20
122.3176837683527
 30
0.0
 10
139.7912050249737
 20
122.3176837683527
 30
0.0
 10
139.5800657616159
 20
122.3176837683527
 30
0.0
 10
139.5532940376808
 20
122.3176837683527
 30
0.0
 10
139.5383760566211
 20
122.3176837683527
 30
0.0
  0
SPLINE
  5
14D
330
1F
100
AcDbEntity
  8
0
  6
Continuous
 62
     7
370
    25
100
AcDbSpline
210
0.0
220
0.0
230
1.0
 70
    24
 71
     3
 72
    12
 73
     8
 74
     0
 42
0.000000001
 43
0.00000001
 40
0.0
 40
0.0
 40
0.0
 40
0.0
 40
0.2404668983198519
 40
0.4290095643703865
 40
0.6181746162066598
 40
0.8088932511242953
 40
1.0
 40
1.0
 40
1.0
 40
1.0
 10
139.5413255342788
 20
152.3176837683527
 30
0.0
 10
139.5549518022454
 20
152.3176837683527
 30
0.0
 10
139.5792620059583
 20
152.3176837683527
 30
0.0
 10
139.7890164563885
 20
152.3176837683527
 30
0.0
 10
140.0661936727258
 20
152.3176837683527
 30
0.0
 10
140.4263289341522
 20
152.3176837683527
 30
0.0
 10
140.7250822738538
 20
152.3176837683526
 30
0.0
 10
140.874610780573
 20
152.3176837683526
 30
0.0
  0
LINE
  5
14E
330
1F
100
AcDbEntity
  8
0
  6
Continuous
 62
     7
370
    25
100
AcDbLine
 10
146.2745018473
 20
152.3176837684
 30
0.0
 11
151.4064437217
 21
152.3176837684
 31
0.0
  0
SPLINE
  5
14F
330
1F
100
AcDbEntity
  8
0
  6
Continuous
 62
     7
370
    25
100
AcDbSpline
210
0.0
220
0.0
230
1.0
 70
     8
 71
     3
 72
    15
 73
    11
 74
     0
 42
0.000000001
 43
0.00000001
 40
0.0
 40
0.0
 40
0.0
 40
0.0
 40
0.1323071196312191
 40
0.2645768296618986
 40
0.3998055717948273
 40
0.535009911577517
 40
0.6501988847939879
 40
0.7654058260328572
 40
0.8826915738763801
 40
1.0
 40
1.0
 40
1.0
 40
1.0
 10
151.406443721667
 20
152.3176837683526
 30
0.0
 10
151.6103934693657
 20
151.6696148295019
 30
0.0
 10
152.0182352983382
 20
150.3736601921293
 30
0.0
 10
152.4570546340078
 20
148.3780037262632
 30
0.0
 10
152.7208995666745
 20
146.3447281607739
 30
0.0
 10
152.7731428968505
 20
144.3851235376188
 30
0.0
 10
152.6375666384096
 20
142.5314064113499
 30
0.0
 10
152.3597837825831
 20
140.7819745095719
 30
0.0
 10
151.9523127983853
 20
139.0404525866829
 30
0.0
 10
151.5884118067077
 20
137.8919770489395
 30
0.0
 10
151.406443721667
 20
137.3176837683527
 30
0.0
  0
LINE
  5
150
330
1F
100
AcDbEntity
  8
0
  6
Continuous
 62
     7
370
    25
100
AcDbLine
 10
146.2745018473
 20
137.3176837684
 30
0.0
 11
151.4064437217
 21
137.3176837684
 31
0.0
  0
LINE
  5
151
330
1F
100
AcDbEntity
  8
0
  6
Continuous
 62
     7
370
    25
100
AcDbLine
 10
146.2745018473
 20
137.3176837684
 30
0.0
 11
146.1405272511
 21
138.2262409109
 31
0.0
  0
LINE
  5
152
330
1F
100
AcDbEntity
  8
0
  6
Continuous
 62
     7
370
    25
100
AcDbLine
 10
146.1405272511
 20
138.2262409109
 30
0.0
 11
146.0065526549
 21
137.3176837684
 31
0.0
  0
LINE
  5
153
330
1F
100
AcDbEntity
  8
0
  6
Continuous
 62
     7
370
    25
100
AcDbLine
 10
140.8746107806
 20
137.3176837684
 30
0.0
 11
146.0065526549
 21
137.3176837684
 31
0.0
  0
LINE
  5
154
330
1F
100
AcDbEntity
  8
0
  6
Continuous
 62
     7
370
    25
100
AcDbLine
 10
140.8746107806
 20
152.3176837684
 30
0.0
 11
146.0065526549
 21
152.3176837684
 31
0.0
  0
LINE
  5
155
330
1F
100
AcDbEntity
  8
0
  6
Continuous
 62
     7
370
    25
100
AcDbLine
 10
146.0065526549
 20
152.3176837684
 30
0.0
 11
146.1405272511
 21
151.4091266258
 31
0.0
  0
LINE
  5
156
330
1F
100
AcDbEntity
  8
0
  6
Continuous
 62
     7
370
    25
100
AcDbLine
 10
146.1405272511
 20
151.4091266258
 30
0.0
 11
146.2745018473
 21
152.3176837684
 31
0.0
  0
LINE
  5
157
330
1F
100
AcDbEntity
  8
0
  6
Continuous
 62
     7
370
    25
100
AcDbLine
 10
152.8905272511
 20
122.5676837684
 30
0.0
 11
152.8905272511
 21
152.0676837684
 31
0.0
  0
SPLINE
  5
158
330
1F
100
AcDbEntity
  8
0
  6
Continuous
 62
     7
370
    25
100
AcDbSpline
210
0.0
220
0.0
230
1.0
 70
    24
 71
     3
 72
    12
 73
     8
 74
     0
 42
0.000000001
 43
0.00000001
 40
0.0
 40
0.0
 40
0.0
 40
0.0
 40
0.2404668983198516
 40
0.4290095643703861
 40
0.6181746162066597
 40
0.8088932511242953
 40
1.0
 40
1.0
 40
1.0
 40
1.0
 10
152.7397289679612
 20
152.3176837683527
 30
0.0
 10
152.7261026999945
 20
152.3176837683527
 30
0.0
 10
152.7017924962816
 20
152.3176837683527
 30
0.0
 10
152.4920380458514
 20
152.3176837683527
 30
0.0
 10
152.2148608295142
 20
152.3176837683527
 30
0.0
 10
151.8547255680877
 20
152.3176837683527
 30
0.0
 10
151.5559722283862
 20
152.3176837683526
 30
0.0
 10
151.406443721667
 20
152.3176837683526
 30
0.0
  0
SPLINE
  5
159
330
1F
100
AcDbEntity
  8
0
  6
Continuous
 62
     7
370
    25
100
AcDbSpline
210
0.0
220
0.0
230
1.0
 70
    24
 71
     3
 72
    12
 73
     8
 74
     0
 42
0.000000001
 43
0.00000001
 40
0.0
 40
0.0
 40
0.0
 40
0.0
 40
0.1888190338768781
 40
0.3779763000849815
 40
0.5684539201814744
 40
0.7595300078276512
 40
1.0
 40
1.0
 40
1.0
 40
1.0
 10
151.406443721667
 20
122.3176837683527
 30
0.0
 10
151.5542519631594
 20
122.3176837683527
 30
0.0
 10
151.8501332156704
 20
122.3176837683527
 30
0.0
 10
152.2098713805632
 20
122.3176837683527
 30
0.0
 10
152.4898494772662
 20
122.3176837683527
 30
0.0
 10
152.700988740624
 20
122.3176837683527
 30
0.0
 10
152.7277604645591
 20
122.3176837683527
 30
0.0
 10
152.7426784456188
 20
122.3176837683527
 30
0.0
  0
SPLINE
  5
15A
330
1F
100
AcDbEntity
  8
0
  6
Continuous
 62
     7
370
    25
100
AcDbSpline
210
0.0
220
0.0
230
1.0
 70
     8
 71
     3
 72
    15
 73
    11
 74
     0
 42
0.000000001
 43
0.00000001
 40
0.0
 40
0.0
 40
0.0
 40
0.0
 40
0.1323071196312175
 40
0.2645768296618952
 40
0.3998055717948222
 40
0.5350099115775102
 40
0.6501988847939827
 40
0.7654058260328535
 40
0.8826915738763782
 40
1.0
 40
1.0
 40
1.0
 40
1.0
 10
151.406443721667
 20
137.3176837683527
 30
0.0
 10
151.6103934693657
 20
136.669614829502
 30
0.0
 10
152.0182352983382
 20
135.3736601921294
 30
0.0
 10
152.4570546340078
 20
133.3780037262634
 30
0.0
 10
152.7208995666746
 20
131.344728160774
 30
0.0
 10
152.7731428968505
 20
129.3851235376189
 30
0.0
 10
152.6375666384096
 20
127.5314064113499
 30
0.0
 10
152.3597837825831
 20
125.7819745095719
 30
0.0
 10
151.9523127983853
 20
124.0404525866829
 30
0.0
 10
151.5884118067077
 20
122.8919770489395
 30
0.0
 10
151.406443721667
 20
122.3176837683527
 30
0.0
  0
LINE
  5
15B
330
1F
100
AcDbEntity
  8
0
  6
Continuous
 62
     7
370
    25
100
AcDbLine
 10
146.1405272511
 20
136.4091266258
 30
0.0
 11
146.2745018473
 21
137.3176837684
 31
0.0
  0
LINE
  5
15C
330
1F
100
AcDbEntity
  8
0
  6
Continuous
 62
     7
370
    25
100
AcDbLine
 10
146.1405272511
 20
136.4091266258
 30
0.0
 11
146.1405272511
 21
138.2262409109
 31
0.0
  0
LINE
  5
15D
330
1F
100
AcDbEntity
  8
0
  6
Continuous
 62
     7
370
    25
100
AcDbLine
 10
146.0065526549
 20
137.3176837684
 30
0.0
 11
146.1405272511
 21
136.4091266258
 31
0.0
  0
LINE
  5
15E
330
1F
100
AcDbEntity
  8
0
  6
Continuous
 62
     7
370
    25
100
AcDbLine
 10
146.2745018473
 20
122.3176837684
 30
0.0
 11
151.4064437217
 21
122.3176837684
 31
0.0
  0
LINE
  5
15F
330
1F
100
AcDbEntity
  8
0
  6
Continuous
 62
     7
370
    25
100
AcDbLine
 10
146.2745018473
 20
122.3176837684
 30
0.0
 11
146.1405272511
 21
123.2262409109
 31
0.0
  0
LINE
  5
160
330
1F
100
AcDbEntity
  8
0
  6
Continuous
 62
     7
370
    25
100
AcDbLine
 10
146.1405272511
 20
123.2262409109
 30
0.0
 11
146.0065526549
 21
122.3176837684
 31
0.0
  0
LINE
  5
161
330
1F
100
AcDbEntity
  8
0
  6
Continuous
 62
     7
370
    25
100
AcDbLine
 10
140.8746107806
 20
122.3176837684
 30
0.0
 11
146.0065526549
 21
122.3176837684
 31
0.0
  0
LINE
  5
162
330
1F
100
AcDbEntity
  8
0
  6
Continuous
 62
     7
370
    25
100
AcDbLine
 10
137.8905272511
 20
152.0676837684
 30
0.0
 11
137.8905272511
 21
122.5676837684
 31
0.0
  0
LINE
  5
163
330
1F
100
AcDbEntity
  8
0
  6
Continuous
 62
     7
370
    25
100
AcDbLine
 10
154.3905272511
 20
122.5676837684
 30
0.0
 11
154.3905272511
 21
152.0676837684
 31
0.0
  0
LINE
  5
164
330
1F
100
AcDbEntity
  8
0
  6
Continuous
 62
     7
370
    25
100
AcDbLine
 10
137.3905272511
 20
123.0676837684
 30
0.0
 11
137.3905272511
 21
151.5676837684
 31
0.0
  0
LINE
  5
165
330
1F
100
AcDbEntity
  8
0
  6
Continuous
 62
     7
370
    25
100
AcDbLine
 10
154.8905272511
 20
151.5676837684
 30
0.0
 11
154.8905272511
 21
123.0676837684
 31
0.0
  0
LINE
  5
166
330
1F
100
AcDbEntity
  8
0
  6
Continuous
 62
     7
370
    25
100
AcDbLine
 10
146.1405272511
 20
151.4091266258
 30
0.0
 11
146.1405272511
 21
152.3176837684
 31
0.0
  0
LINE
  5
167
330
1F
100
AcDbEntity
  8
0
  6
Continuous
 62
     7
370
    25
100
AcDbLine
 10
146.2745018473
 20
152.3176837684
 30
0.0
 11
146.1405272511
 21
152.3176837684
 31
0.0
  0
LINE
  5
168
330
1F
100
AcDbEntity
  8
0
  6
Continuous
 62
     7
370
    25
100
AcDbLine
 10
146.1405272511
 20
152.3176837684
 30
0.0
 11
146.0065526549
 21
152.3176837684
 31
0.0
  0
LINE
  5
169
330
1F
100
AcDbEntity
  8
0
  6
Continuous
 62
     7
370
    25
100
AcDbLine
 10
146.1405272511
 20
122.3176837684
 30
0.0
 11
146.1405272511
 21
123.2262409109
 31
0.0
  0
LINE
  5
16A
330
1F
100
AcDbEntity
  8
0
  6
Continuous
 62
     7
370
    25
100
AcDbLine
 10
146.0065526549
 20
122.3176837684
 30
0.0
 11
146.1405272511
 21
122.3176837684
 31
0.0
  0
LINE
  5
16B
330
1F
100
AcDbEntity
  8
0
  6
Continuous
 62
     7
370
    25
100
AcDbLine
 10
146.1405272511
 20
122.3176837684
 30
0.0
 11
146.2745018473
 21
122.3176837684
 31
0.0
  0
LINE
  5
16C
330
1F
100
AcDbEntity
  8
0
  6
Continuous
 62
     7
370
    25
100
AcDbLine
 10
126.9895883771
 20
137.3176837684
 30
0.0
 11
129.5144364874
 21
137.3176837684
 31
0.0
  0
SPLINE
  5
16D
330
1F
100
AcDbEntity
  8
0
  6
Continuous
 62
     7
370
    25
100
AcDbSpline
210
0.0
220
0.0
230
1.0
 70
     8
 71
     3
 72
    16
 73
    12
 74
     0
 42
0.000000001
 43
0.00000001
 40
0.0
 40
0.0
 40
0.0
 40
0.0
 40
0.2500000000000001
 40
0.2500000000000001
 40
0.5000000000000002
 40
0.5000000000000002
 40
0.6250000000000002
 40
0.6250000000000002
 40
0.7500000000000003
 40
0.7500000000000003
 40
1.0
 40
1.0
 40
1.0
 40
1.0
 10
126.9895883770981
 20
151.3176837683528
 30
0.0
 10
126.6085992535113
 20
150.1747163975924
 30
0.0
 10
126.2945952664105
 20
149.0234160474373
 30
0.0
 10
125.8595978429154
 20
146.6968047527418
 30
0.0
 10
125.740039274047
 20
145.5213153100726
 30
0.0
 10
125.7387259621065
 20
143.7359348176031
 30
0.0
 10
125.767953349242
 20
143.1380069749428
 30
0.0
 10
125.8819249268353
 20
141.9552427646883
 30
0.0
 10
125.9665534345093
 20
141.3678260251408
 30
0.0
 10
126.2933430890156
 20
139.6160339504635
 30
0.0
 10
126.6081242968148
 20
138.4620760092029
 30
0.0
 10
126.9895883770982
 20
137.3176837683527
 30
0.0
  0
LINE
  5
16E
330
1F
100
AcDbEntity
  8
0
  6
Continuous
 62
     7
370
    25
100
AcDbLine
 10
126.9895883771
 20
151.3176837684
 30
0.0
 11
129.5144364874
 21
151.3176837684
 31
0.0
  0
SPLINE
  5
16F
330
1F
100
AcDbEntity
  8
0
  6
Continuous
 62
     7
370
    25
100
AcDbSpline
210
0.0
220
0.0
230
1.0
 70
     8
 71
     3
 72
     8
 73
     4
 74
     0
 42
0.000000001
 43
0.00000001
 40
0.0
 40
0.0
 40
0.0
 40
0.0
 40
1.0
 40
1.0
 40
1.0
 40
1.0
 10
129.5948212451224
 20
150.7824255735767
 30
0.0
 10
129.568831173609
 20
150.9609621829793
 30
0.0
 10
129.5420202913685
 20
151.1393792565235
 30
0.0
 10
129.5144364873931
 20
151.3176837683528
 30
0.0
  0
SPLINE
  5
170
330
1F
100
AcDbEntity
  8
0
  6
Continuous
 62
     7
370
    25
100
AcDbSpline
210
0.0
220
0.0
230
1.0
 70
     8
 71
     3
 72
     8
 73
     4
 74
     0
 42
0.000000001
 43
0.00000001
 40
0.0
 40
0.0
 40
0.0
 40
0.0
 40
1.0
 40
1.0
 40
1.0
 40
1.0
 10
129.6752060028517
 20
151.3176837683528
 30
0.0
 10
129.6476149734364
 20
151.1393325505456
 30
0.0
 10
129.6208043745812
 20
150.96091449512
 30
0.0
 10
129.5948212451224
 20
150.7824255735767
 30
0.0
  0
LINE
  5
171
330
1F
100
AcDbEntity
  8
0
  6
Continuous
 62
     7
370
    25
100
AcDbLine
 10
129.6752060029
 20
151.3176837684
 30
0.0
 11
132.2000541131
 21
151.3176837684
 31
0.0
  0
SPLINE
  5
172
330
1F
100
AcDbEntity
  8
0
  6
Continuous
 62
     7
370
    25
100
AcDbSpline
210
0.0
220
0.0
230
1.0
 70
     8
 71
     3
 72
    16
 73
    12
 74
     0
 42
0.000000001
 43
0.00000001
 40
0.0
 40
0.0
 40
0.0
 40
0.0
 40
0.2500000000000001
 40
0.2500000000000001
 40
0.5000000000000002
 40
0.5000000000000002
 40
0.6250000000000002
 40
0.6250000000000002
 40
0.7500000000000003
 40
0.7500000000000003
 40
1.0
 40
1.0
 40
1.0
 40
1.0
 10
132.2000541131467
 20
151.3176837683528
 30
0.0
 10
132.5810432367334
 20
150.1747163975924
 30
0.0
 10
132.8950472238342
 20
149.0234160474373
 30
0.0
 10
133.3300446473294
 20
146.6968047527418
 30
0.0
 10
133.4496032161978
 20
145.5213153100726
 30
0.0
 10
133.4509165281383
 20
143.7359348176031
 30
0.0
 10
133.4216891410028
 20
143.1380069749428
 30
0.0
 10
133.3077175634095
 20
141.9552427646883
 30
0.0
 10
133.2230890557355
 20
141.3678260251408
 30
0.0
 10
132.8962994012292
 20
139.6160339504635
 30
0.0
 10
132.58151819343
 20
138.4620760092029
 30
0.0
 10
132.2000541131465
 20
137.3176837683527
 30
0.0
  0
LINE
  5
173
330
1F
100
AcDbEntity
  8
0
  6
Continuous
 62
     7
370
    25
100
AcDbLine
 10
129.6752060029
 20
137.3176837684
 30
0.0
 11
132.2000541131
 21
137.3176837684
 31
0.0
  0
SPLINE
  5
174
330
1F
100
AcDbEntity
  8
0
  6
Continuous
 62
     7
370
    25
100
AcDbSpline
210
0.0
220
0.0
230
1.0
 70
     8
 71
     3
 72
     8
 73
     4
 74
     0
 42
0.000000001
 43
0.00000001
 40
0.0
 40
0.0
 40
0.0
 40
0.0
 40
1.0
 40
1.0
 40
1.0
 40
1.0
 10
129.5948212451224
 20
137.8529419631287
 30
0.0
 10
129.6208113166357
 20
137.6744053537261
 30
0.0
 10
129.6476221988763
 20
137.4959882801819
 30
0.0
 10
129.6752060028517
 20
137.3176837683527
 30
0.0
  0
SPLINE
  5
175
330
1F
100
AcDbEntity
  8
0
  6
Continuous
 62
     7
370
    25
100
AcDbSpline
210
0.0
220
0.0
230
1.0
 70
     8
 71
     3
 72
     8
 73
     4
 74
     0
 42
0.000000001
 43
0.00000001
 40
0.0
 40
0.0
 40
0.0
 40
0.0
 40
1.0
 40
1.0
 40
1.0
 40
1.0
 10
129.5144364873931
 20
137.3176837683527
 30
0.0
 10
129.5420275168084
 20
137.4960349861598
 30
0.0
 10
129.5688381156636
 20
137.6744530415855
 30
0.0
 10
129.5948212451224
 20
137.8529419631287
 30
0.0
  0
SPLINE
  5
176
330
1F
100
AcDbEntity
  8
0
  6
Continuous
 62
     7
370
    25
100
AcDbSpline
210
0.0
220
0.0
230
1.0
 70
    24
 71
     3
 72
    12
 73
     8
 74
     0
 42
0.000000001
 43
0.00000001
 40
0.0
 40
0.0
 40
0.0
 40
0.0
 40
0.1908092812555464
 40
0.3819686070347222
 40
0.5744974802696315
 40
0.767648338886413
 40
1.0
 40
1.0
 40
1.0
 40
1.0
 10
126.9895883770984
 20
123.3176837683528
 30
0.0
 10
126.8502386152458
 20
123.3176837683528
 30
0.0
 10
126.5712834508261
 20
123.3176837683528
 30
0.0
 10
126.2330516522946
 20
123.3176837683528
 30
0.0
 10
125.9712911020834
 20
123.3176837683527
 30
0.0
 10
125.7785168917279
 20
123.3176837683527
 30
0.0
 10
125.7569050299943
 20
123.3176837683527
 30
0.0
 10
125.7451035676276
 20
123.3176837683527
 30
0.0
  0
SPLINE
  5
177
330
1F
100
AcDbEntity
  8
0
  6
Continuous
 62
     7
370
    25
100
AcDbSpline
210
0.0
220
0.0
230
1.0
 70
    24
 71
     3
 72
    12
 73
     8
 74
     0
 42
0.000000001
 43
0.00000001
 40
0.0
 40
0.0
 40
0.0
 40
0.0
 40
0.2323482010504617
 40
0.422869301626432
 40
0.6140366962226396
 40
0.8068171327519912
 40
1.0
 40
1.0
 40
1.0
 40
1.0
 10
125.7477703582783
 20
151.3176837683527
 30
0.0
 10
125.7584073062038
 20
151.3176837683527
 30
0.0
 10
125.7777663488836
 20
151.3176837683527
 30
0.0
 10
125.9692064463701
 20
151.3176837683527
 30
0.0
 10
126.2282434497234
 20
151.3176837683527
 30
0.0
 10
126.5668397850582
 20
151.3176837683527
 30
0.0
 10
126.848574261455
 20
151.3176837683528
 30
0.0
 10
126.9895883770984
 20
151.3176837683528
 30
0.0
  0
SPLINE
  5
178
330
1F
100
AcDbEntity
  8
0
  6
Continuous
 62
     7
370
    25
100
AcDbSpline
210
0.0
220
0.0
230
1.0
 70
     8
 71
     3
 72
    16
 73
    12
 74
     0
 42
0.000000001
 43
0.00000001
 40
0.0
 40
0.0
 40
0.0
 40
0.0
 40
0.2499999999999998
 40
0.2499999999999998
 40
0.4999999999999996
 40
0.4999999999999996
 40
0.6249999999999997
 40
0.6249999999999997
 40
0.7499999999999998
 40
0.7499999999999998
 40
1.0
 40
1.0
 40
1.0
 40
1.0
 10
126.9895883770981
 20
137.3176837683527
 30
0.0
 10
126.6085992535113
 20
136.1747163975924
 30
0.0
 10
126.2945952664105
 20
135.0234160474373
 30
0.0
 10
125.8595978429154
 20
132.6968047527419
 30
0.0
 10
125.740039274047
 20
131.5213153100726
 30
0.0
 10
125.7387259621065
 20
129.7359348176031
 30
0.0
 10
125.767953349242
 20
129.1380069749428
 30
0.0
 10
125.8819249268353
 20
127.9552427646883
 30
0.0
 10
125.9665534345094
 20
127.3678260251408
 30
0.0
 10
126.2933430890156
 20
125.6160339504636
 30
0.0
 10
126.6081242968148
 20
124.462076009203
 30
0.0
 10
126.9895883770982
 20
123.3176837683528
 30
0.0
  0
LINE
  5
179
330
1F
100
AcDbEntity
  8
0
  6
Continuous
 62
     7
370
    25
100
AcDbLine
 10
125.5948212451
 20
151.0676837684
 30
0.0
 11
125.5948212451
 21
123.5676837684
 31
0.0
  0
SPLINE
  5
17A
330
1F
100
AcDbEntity
  8
0
  6
Continuous
 62
     7
370
    25
100
AcDbSpline
210
0.0
220
0.0
230
1.0
 70
    24
 71
     3
 72
    12
 73
     8
 74
     0
 42
0.000000001
 43
0.00000001
 40
0.0
 40
0.0
 40
0.0
 40
0.0
 40
0.232348201050462
 40
0.4228693016264322
 40
0.6140366962226396
 40
0.8068171327519913
 40
1.0
 40
1.0
 40
1.0
 40
1.0
 10
133.4418721319664
 20
151.3176837683527
 30
0.0
 10
133.4312351840409
 20
151.3176837683527
 30
0.0
 10
133.4118761413612
 20
151.3176837683527
 30
0.0
 10
133.2204360438747
 20
151.3176837683527
 30
0.0
 10
132.9613990405214
 20
151.3176837683527
 30
0.0
 10
132.6228027051866
 20
151.3176837683527
 30
0.0
 10
132.3410682287898
 20
151.3176837683528
 30
0.0
 10
132.2000541131464
 20
151.3176837683528
 30
0.0
  0
SPLINE
  5
17B
330
1F
100
AcDbEntity
  8
0
  6
Continuous
 62
     7
370
    25
100
AcDbSpline
210
0.0
220
0.0
230
1.0
 70
    24
 71
     3
 72
    12
 73
     8
 74
     0
 42
0.000000001
 43
0.00000001
 40
0.0
 40
0.0
 40
0.0
 40
0.0
 40
0.1908092812555464
 40
0.3819686070347222
 40
0.5744974802696315
 40
0.767648338886413
 40
1.0
 40
1.0
 40
1.0
 40
1.0
 10
132.2000541131464
 20
123.3176837683528
 30
0.0
 10
132.339403874999
 20
123.3176837683528
 30
0.0
 10
132.6183590394187
 20
123.3176837683528
 30
0.0
 10
132.9565908379502
 20
123.3176837683528
 30
0.0
 10
133.2183513881614
 20
123.3176837683527
 30
0.0
 10
133.4111255985168
 20
123.3176837683527
 30
0.0
 10
133.4327374602504
 20
123.3176837683527
 30
0.0
 10
133.4445389226172
 20
123.3176837683527
 30
0.0
  0
SPLINE
  5
17C
330
1F
100
AcDbEntity
  8
0
  6
Continuous
 62
     7
370
    25
100
AcDbSpline
210
0.0
220
0.0
230
1.0
 70
     8
 71
     3
 72
    16
 73
    12
 74
     0
 42
0.000000001
 43
0.00000001
 40
0.0
 40
0.0
 40
0.0
 40
0.0
 40
0.2499999999999998
 40
0.2499999999999998
 40
0.4999999999999996
 40
0.4999999999999996
 40
0.6249999999999997
 40
0.6249999999999997
 40
0.7499999999999998
 40
0.7499999999999998
 40
1.0
 40
1.0
 40
1.0
 40
1.0
 10
132.2000541131467
 20
137.3176837683527
 30
0.0
 10
132.5810432367334
 20
136.1747163975924
 30
0.0
 10
132.8950472238342
 20
135.0234160474373
 30
0.0
 10
133.3300446473294
 20
132.6968047527419
 30
0.0
 10
133.4496032161978
 20
131.5213153100726
 30
0.0
 10
133.4509165281383
 20
129.7359348176031
 30
0.0
 10
133.4216891410027
 20
129.1380069749428
 30
0.0
 10
133.3077175634094
 20
127.9552427646883
 30
0.0
 10
133.2230890557354
 20
127.3678260251408
 30
0.0
 10
132.8962994012292
 20
125.6160339504636
 30
0.0
 10
132.58151819343
 20
124.462076009203
 30
0.0
 10
132.2000541131465
 20
123.3176837683528
 30
0.0
  0
LINE
  5
17D
330
1F
100
AcDbEntity
  8
0
  6
Continuous
 62
     7
370
    25
100
AcDbLine
 10
133.5948212451
 20
151.0676837684
 30
0.0
 11
133.5948212451
 21
123.5676837684
 31
0.0
  0
LINE
  5
17E
330
1F
100
AcDbEntity
  8
0
  6
Continuous
 62
     7
370
    25
100
AcDbLine
 10
129.5948212451
 20
136.7824255736
 30
0.0
 11
129.5948212451
 21
137.8529419631
 31
0.0
  0
SPLINE
  5
17F
330
1F
100
AcDbEntity
  8
0
  6
Continuous
 62
     7
370
    25
100
AcDbSpline
210
0.0
220
0.0
230
1.0
 70
     8
 71
     3
 72
     8
 73
     4
 74
     0
 42
0.000000001
 43
0.00000001
 40
0.0
 40
0.0
 40
0.0
 40
0.0
 40
1.0
 40
1.0
 40
1.0
 40
1.0
 10
129.5948212451224
 20
136.7824255735767
 30
0.0
 10
129.568831173609
 20
136.9609621829793
 30
0.0
 10
129.5420202913685
 20
137.1393792565235
 30
0.0
 10
129.5144364873931
 20
137.3176837683527
 30
0.0
  0
SPLINE
  5
180
330
1F
100
AcDbEntity
  8
0
  6
Continuous
 62
     7
370
    25
100
AcDbSpline
210
0.0
220
0.0
230
1.0
 70
     8
 71
     3
 72
     8
 73
     4
 74
     0
 42
0.000000001
 43
0.00000001
 40
0.0
 40
0.0
 40
0.0
 40
0.0
 40
1.0
 40
1.0
 40
1.0
 40
1.0
 10
129.6752060028517
 20
137.3176837683527
 30
0.0
 10
129.6476149734364
 20
137.1393325505456
 30
0.0
 10
129.6208043745812
 20
136.96091449512
 30
0.0
 10
129.5948212451224
 20
136.7824255735767
 30
0.0
  0
LINE
  5
181
330
1F
100
AcDbEntity
  8
0
  6
Continuous
 62
     7
370
    25
100
AcDbLine
 10
126.9895883771
 20
123.3176837684
 30
0.0
 11
129.5144364874
 21
123.3176837684
 31
0.0
  0
LINE
  5
182
330
1F
100
AcDbEntity
  8
0
  6
Continuous
 62
     7
370
    25
100
AcDbLine
 10
129.6752060029
 20
123.3176837684
 30
0.0
 11
132.2000541131
 21
123.3176837684
 31
0.0
  0
SPLINE
  5
183
330
1F
100
AcDbEntity
  8
0
  6
Continuous
 62
     7
370
    25
100
AcDbSpline
210
0.0
220
0.0
230
1.0
 70
     8
 71
     3
 72
     8
 73
     4
 74
     0
 42
0.000000001
 43
0.00000001
 40
0.0
 40
0.0
 40
0.0
 40
0.0
 40
1.0
 40
1.0
 40
1.0
 40
1.0
 10
129.5948212451224
 20
123.8529419631288
 30
0.0
 10
129.6208113166357
 20
123.6744053537262
 30
0.0
 10
129.6476221988763
 20
123.495988280182
 30
0.0
 10
129.6752060028517
 20
123.3176837683528
 30
0.0
  0
SPLINE
  5
184
330
1F
100
AcDbEntity
  8
0
  6
Continuous
 62
     7
370
    25
100
AcDbSpline
210
0.0
220
0.0
230
1.0
 70
     8
 71
     3
 72
     8
 73
     4
 74
     0
 42
0.000000001
 43
0.00000001
 40
0.0
 40
0.0
 40
0.0
 40
0.0
 40
1.0
 40
1.0
 40
1.0
 40
1.0
 10
129.5144364873931
 20
123.3176837683528
 30
0.0
 10
129.5420275168084
 20
123.4960349861599
 30
0.0
 10
129.5688381156636
 20
123.6744530415856
 30
0.0
 10
129.5948212451224
 20
123.8529419631288
 30
0.0
  0
LINE
  5
185
330
1F
100
AcDbEntity
  8
0
  6
Continuous
 62
     7
370
    25
100
AcDbLine
 10
110.1999975841
 20
150.3217830289
 30
0.0
 11
110.1999975841
 21
124.3135845078
 31
0.0
  0
LINE
  5
186
330
1F
100
AcDbEntity
  8
0
  6
Continuous
 62
     7
370
    25
100
AcDbLine
 10
137.0948212451
 20
125.2971837684
 30
0.0
 11
137.0948212451
 21
149.3381837684
 31
0.0
  0
LINE
  5
187
330
1F
100
AcDbEntity
  8
0
  6
Continuous
 62
     7
370
    25
100
AcDbLine
 10
107.5948212451
 20
125.8176837684
 30
0.0
 11
107.5948212451
 21
148.8176837684
 31
0.0
  0
SPLINE
  5
188
330
1F
100
AcDbEntity
  8
0
  6
Continuous
 62
     7
370
    25
100
AcDbSpline
210
0.0
220
0.0
230
1.0
 70
    24
 71
     3
 72
     8
 73
     4
 74
     0
 42
0.000000001
 43
0.00000001
 40
0.0
 40
0.0
 40
0.0
 40
0.0
 40
1.0
 40
1.0
 40
1.0
 40
1.0
 10
129.5948212451224
 20
123.3176837683528
 30
0.0
 10
129.5688315307742
 20
123.3176837683528
 30
0.0
 10
129.5420206629271
 20
123.3176837683528
 30
0.0
 10
129.5144364873931
 20
123.3176837683528
 30
0.0
  0
LINE
  5
189
330
1F
100
AcDbEntity
  8
0
  6
Continuous
 62
     7
370
    25
100
AcDbLine
 10
129.5948212451
 20
123.3176837684
 30
0.0
 11
129.5948212451
 21
123.8529419631
 31
0.0
  0
SPLINE
  5
18A
330
1F
100
AcDbEntity
  8
0
  6
Continuous
 62
     7
370
    25
100
AcDbSpline
210
0.0
220
0.0
230
1.0
 70
    24
 71
     3
 72
     8
 73
     4
 74
     0
 42
0.000000001
 43
0.00000001
 40
0.0
 40
0.0
 40
0.0
 40
0.0
 40
1.0
 40
1.0
 40
1.0
 40
1.0
 10
129.6752060028517
 20
123.3176837683528
 30
0.0
 10
129.6476139133736
 20
123.3176837683528
 30
0.0
 10
129.6208033567124
 20
123.3176837683528
 30
0.0
 10
129.5948212451224
 20
123.3176837683528
 30
0.0
  0
SPLINE
  5
18B
330
1F
100
AcDbEntity
  8
0
  6
Continuous
 62
     7
370
    25
100
AcDbSpline
210
0.0
220
0.0
230
1.0
 70
    24
 71
     3
 72
     8
 73
     4
 74
     0
 42
0.000000001
 43
0.00000001
 40
0.0
 40
0.0
 40
0.0
 40
0.0
 40
1.0
 40
1.0
 40
1.0
 40
1.0
 10
129.5948212451224
 20
151.3176837683528
 30
0.0
 10
129.6208109594706
 20
151.3176837683528
 30
0.0
 10
129.6476218273176
 20
151.3176837683528
 30
0.0
 10
129.6752060028517
 20
151.3176837683528
 30
0.0
  0
LINE
  5
18C
330
1F
100
AcDbEntity
  8
0
  6
Continuous
 62
     7
370
    25
100
AcDbLine
 10
129.5948212451
 20
150.7824255736
 30
0.0
 11
129.5948212451
 21
151.3176837684
 31
0.0
  0
SPLINE
  5
18D
330
1F
100
AcDbEntity
  8
0
  6
Continuous
 62
     7
370
    25
100
AcDbSpline
210
0.0
220
0.0
230
1.0
 70
    24
 71
     3
 72
     8
 73
     4
 74
     0
 42
0.000000001
 43
0.00000001
 40
0.0
 40
0.0
 40
0.0
 40
0.0
 40
1.0
 40
1.0
 40
1.0
 40
1.0
 10
129.5144364873931
 20
151.3176837683528
 30
0.0
 10
129.5420285768711
 20
151.3176837683528
 30
0.0
 10
129.5688391335324
 20
151.3176837683528
 30
0.0
 10
129.5948212451224
 20
151.3176837683528
 30
0.0
  0
LINE
  5
18E
330
1F
100
AcDbEntity
  8
0
  6
Continuous
 62
     7
370
     0
100
AcDbLine
 10
108.617527205
 20
149.4081433296
 30
0.0
 11
125.0948212451
 21
149.9230587684
 31
0.0
  0
LINE
  5
18F
330
1F
100
AcDbEntity
  8
0
  6
Continuous
 62
     7
370
     0
100
AcDbLine
 10
108.617527205
 20
125.2272242071
 30
0.0
 11
125.0948212451
 21
124.7123087684
 31
0.0
  0
LINE
  5
190
330
1F
100
AcDbEntity
  8
0
  6
Continuous
 62
     7
370
     0
100
AcDbLine
 10
125.0948212451
 20
123.8481212684
 30
0.0
 11
125.0948212451
 21
150.7872462684
 31
0.0
  0
LINE
  5
191
330
1F
100
AcDbEntity
  8
0
  6
CENTERX2
 62
     7
370
    18
100
AcDbLine
 10
191.3905272511
 20
137.3176837684
 30
0.0
 11
104.6110527085
 21
137.3176837684
 31
0.0
  0
ENDSEC
  0
SECTION
  2
OBJECTS
  0
DICTIONARY
  5
C
330
0
100
AcDbDictionary
281
     1
  3
ACAD_GROUP
350
D
  3
ACAD_LAYOUT
350
1A
  3
ACAD_MLINESTYLE
350
17
  3
ACAD_PLOTSETTINGS
350
19
  3
ACAD_PLOTSTYLENAME
350
E
  3
ACAD_SCALELIST
350
47
  0
DICTIONARY
  5
D
102
{ACAD_REACTORS
330
C
102
}
330
C
100
AcDbDictionary
281
     1
  0
DICTIONARY
  5
1A
102
{ACAD_REACTORS
330
C
102
}
330
C
100
AcDbDictionary
281
     1
  3
Layout1
350
1E
  3
Layout2
350
26
  3
Model
350
22
  0
DICTIONARY
  5
17
102
{ACAD_REACTORS
330
C
102
}
330
C
100
AcDbDictionary
281
     1
  3
Standard
350
18
  0
DICTIONARY
  5
19
102
{ACAD_REACTORS
330
C
102
}
330
C
100
AcDbDictionary
281
     1
  0
ACDBDICTIONARYWDFLT
  5
E
102
{ACAD_REACTORS
330
C
102
}
330
C
100
AcDbDictionary
281
     1
  3
Normal
350
F
100
AcDbDictionaryWithDefault
340
F
  0
DICTIONARY
  5
47
102
{ACAD_REACTORS
330
C
102
}
330
C
100
AcDbDictionary
281
     1
  3
A0
350
48
  3
A1
350
49
  3
A2
350
4A
  3
A3
350
4B
  3
A4
350
4C
  3
A5
350
4D
  3
A6
350
4E
  3
A7
350
4F
  3
A8
350
50
  3
A9
350
51
  3
B0
350
52
  3
B1
350
53
  3
B2
350
54
  3
B3
350
55
  3
B4
350
56
  3
B5
350
57
  3
B6
350
58
  3
B7
350
59
  3
B8
350
5A
  3
B9
350
5B
  3
C0
350
5C
  3
C1
350
5D
  3
C2
350
5E
  3
C3
350
5F
  3
C4
350
60
  3
C5
350
61
  3
C6
350
62
  3
C7
350
63
  3
C8
350
64
  3
C9
350
65
  3
D0
350
66
  3
D1
350
67
  3
D2
350
68
  0
LAYOUT
  5
1E
102
{ACAD_REACTORS
330
1A
102
}
330
1A
100
AcDbPlotSettings
  1

  2
none_device
  4

  6

 40
0.0
 41
0.0
 42
0.0
 43
0.0
 44
0.0
 45
0.0
 46
0.0
 47
0.0
 48
0.0
 49
0.0
140
0.0
141
0.0
142
1.0
143
1.0
 70
   688
 72
     1
 73
     0
 74
     5
  7

 75
    16
147
1.0
148
0.0
149
0.0
100
AcDbLayout
  1
Layout1
 70
     1
 71
     1
 10
0.0
 20
0.0
 11
420.0
 21
297.0
 12
0.0
 22
0.0
 32
0.0
 14
1.0000000000E+20
 24
1.0000000000E+20
 34
1.0000000000E+20
 15
-1.0000000000E+20
 25
-1.0000000000E+20
 35
-1.0000000000E+20
146
0.0
 13
0.0
 23
0.0
 33
0.0
 16
1.0
 26
0.0
 36
0.0
 17
0.0
 27
1.0
 37
0.0
 76
     0
330
1B
  0
LAYOUT
  5
26
102
{ACAD_REACTORS
330
1A
102
}
330
1A
100
AcDbPlotSettings
  1

  2
none_device
  4

  6

 40
0.0
 41
0.0
 42
0.0
 43
0.0
 44
0.0
 45
0.0
 46
0.0
 47
0.0
 48
0.0
 49
0.0
140
0.0
141
0.0
142
1.0
143
1.0
 70
   688
 72
     1
 73
     0
 74
     5
  7

 75
    16
147
1.0
148
0.0
149
0.0
100
AcDbLayout
  1
Layout2
 70
     1
 71
     2
 10
0.0
 20
0.0
 11
0.0
 21
0.0
 12
0.0
 22
0.0
 32
0.0
 14
0.0
 24
0.0
 34
0.0
 15
0.0
 25
0.0
 35
0.0
146
0.0
 13
0.0
 23
0.0
 33
0.0
 16
1.0
 26
0.0
 36
0.0
 17
0.0
 27
1.0
 37
0.0
 76
     0
330
23
  0
LAYOUT
  5
22
102
{ACAD_REACTORS
330
1A
102
}
330
1A
100
AcDbPlotSettings
  1

  2
none_device
  4
Letter_(8.50_x_11.00_Inches)
  6

 40
6.35
 41
6.35
 42
6.35000508
 43
6.35000508
 44
215.9
 45
279.4
 46
0.0
 47
0.0
 48
0.0
 49
0.0
140
0.0
141
0.0
142
1.0
143
1.0
 70
  1712
 72
     1
 73
     0
 74
     0
  7

 75
     0
147
1.0
148
0.0
149
0.0
100
AcDbLayout
  1
Model
 70
     1
 71
     0
 10
0.0
 20
0.0
 11
431.8
 21
279.4
 12
0.0
 22
0.0
 32
0.0
 14
0.0
 24
0.0
 34
0.0
 15
431.8
 25
279.4
 35
0.0
146
0.0
 13
0.0
 23
0.0
 33
0.0
 16
1.0
 26
0.0
 36
0.0
 17
0.0
 27
1.0
 37
0.0
 76
     0
330
1F
331
29
  0
MLINESTYLE
  5
18
102
{ACAD_REACTORS
330
17
102
}
330
17
100
AcDbMlineStyle
  2
Standard
 70
     0
  3

 62
   256
 51
90.0
 52
90.0
 71
     2
 49
0.5
 62
   256
  6
BYLAYER
 49
-0.5
 62
   256
  6
BYLAYER
  0
ACDBPLACEHOLDER
  5
F
102
{ACAD_REACTORS
330
E
102
}
330
E
  0
SCALE
  5
48
102
{ACAD_REACTORS
330
47
102
}
330
47
100
AcDbScale
 70
     0
300
1:1
140
1.0
141
1.0
290
     1
  0
SCALE
  5
49
102
{ACAD_REACTORS
330
47
102
}
330
47
100
AcDbScale
 70
     0
300
1:2
140
1.0
141
2.0
290
     0
  0
SCALE
  5
4A
102
{ACAD_REACTORS
330
47
102
}
330
47
100
AcDbScale
 70
     0
300
1:4
140
1.0
141
4.0
290
     0
  0
SCALE
  5
4B
102
{ACAD_REACTORS
330
47
102
}
330
47
100
AcDbScale
 70
     0
300
1:5
140
1.0
141
5.0
290
     0
  0
SCALE
  5
4C
102
{ACAD_REACTORS
330
47
102
}
330
47
100
AcDbScale
 70
     0
300
1:8
140
1.0
141
8.0
290
     0
  0
SCALE
  5
4D
102
{ACAD_REACTORS
330
47
102
}
330
47
100
AcDbScale
 70
     0
300
1:10
140
1.0
141
10.0
290
     0
  0
SCALE
  5
4E
102
{ACAD_REACTORS
330
47
102
}
330
47
100
AcDbScale
 70
     0
300
1:16
140
1.0
141
16.0
290
     0
  0
SCALE
  5
4F
102
{ACAD_REACTORS
330
47
102
}
330
47
100
AcDbScale
 70
     0
300
1:20
140
1.0
141
20.0
290
     0
  0
SCALE
  5
50
102
{ACAD_REACTORS
330
47
102
}
330
47
100
AcDbScale
 70
     0
300
1:30
140
1.0
141
30.0
290
     0
  0
SCALE
  5
51
102
{ACAD_REACTORS
330
47
102
}
330
47
100
AcDbScale
 70
     0
300
1:40
140
1.0
141
40.0
290
     0
  0
SCALE
  5
52
102
{ACAD_REACTORS
330
47
102
}
330
47
100
AcDbScale
 70
     0
300
1:50
140
1.0
141
50.0
290
     0
  0
SCALE
  5
53
102
{ACAD_REACTORS
330
47
102
}
330
47
100
AcDbScale
 70
     0
300
1:100
140
1.0
141
100.0
290
     0
  0
SCALE
  5
54
102
{ACAD_REACTORS
330
47
102
}
330
47
100
AcDbScale
 70
     0
300
2:1
140
2.0
141
1.0
290
     0
  0
SCALE
  5
55
102
{ACAD_REACTORS
330
47
102
}
330
47
100
AcDbScale
 70
     0
300
4:1
140
4.0
141
1.0
290
     0
  0
SCALE
  5
56
102
{ACAD_REACTORS
330
47
102
}
330
47
100
AcDbScale
 70
     0
300
8:1
140
8.0
141
1.0
290
     0
  0
SCALE
  5
57
102
{ACAD_REACTORS
330
47
102
}
330
47
100
AcDbScale
 70
     0
300
10:1
140
10.0
141
1.0
290
     0
  0
SCALE
  5
58
102
{ACAD_REACTORS
330
47
102
}
330
47
100
AcDbScale
 70
     0
300
100:1
140
100.0
141
1.0
290
     0
  0
SCALE
  5
59
102
{ACAD_REACTORS
330
47
102
}
330
47
100
AcDbScale
 70
     0
300
1/128" = 1'-0"
140
0.0078125
141
12.0
290
     0
  0
SCALE
  5
5A
102
{ACAD_REACTORS
330
47
102
}
330
47
100
AcDbScale
 70
     0
300
1/64" = 1'-0"
140
0.015625
141
12.0
290
     0
  0
SCALE
  5
5B
102
{ACAD_REACTORS
330
47
102
}
330
47
100
AcDbScale
 70
     0
300
1/32" = 1'-0"
140
0.03125
141
12.0
290
     0
  0
SCALE
  5
5C
102
{ACAD_REACTORS
330
47
102
}
330
47
100
AcDbScale
 70
     0
300
1/16" = 1'-0"
140
0.0625
141
12.0
290
     0
  0
SCALE
  5
5D
102
{ACAD_REACTORS
330
47
102
}
330
47
100
AcDbScale
 70
     0
300
3/32" = 1'-0"
140
0.09375
141
12.0
290
     0
  0
SCALE
  5
5E
102
{ACAD_REACTORS
330
47
102
}
330
47
100
AcDbScale
 70
     0
300
1/8" = 1'-0"
140
0.125
141
12.0
290
     0
  0
SCALE
  5
5F
102
{ACAD_REACTORS
330
47
102
}
330
47
100
AcDbScale
 70
     0
300
3/16" = 1'-0"
140
0.1875
141
12.0
290
     0
  0
SCALE
  5
60
102
{ACAD_REACTORS
330
47
102
}
330
47
100
AcDbScale
 70
     0
300
1/4" = 1'-0"
140
0.25
141
12.0
290
     0
  0
SCALE
  5
61
102
{ACAD_REACTORS
330
47
102
}
330
47
100
AcDbScale
 70
     0
300
3/8" = 1'-0"
140
0.375
141
12.0
290
     0
  0
SCALE
  5
62
102
{ACAD_REACTORS
330
47
102
}
330
47
100
AcDbScale
 70
     0
300
1/2" = 1'-0"
140
0.5
141
12.0
290
     0
  0
SCALE
  5
63
102
{ACAD_REACTORS
330
47
102
}
330
47
100
AcDbScale
 70
     0
300
3/4" = 1'-0"
140
0.75
141
12.0
290
     0
  0
SCALE
  5
64
102
{ACAD_REACTORS
330
47
102
}
330
47
100
AcDbScale
 70
     0
300
1" = 1'-0"
140
1.0
141
12.0
290
     0
  0
SCALE
  5
65
102
{ACAD_REACTORS
330
47
102
}
330
47
100
AcDbScale
 70
     0
300
1-1/2" = 1'-0"
140
1.5
141
12.0
290
     0
  0
SCALE
  5
66
102
{ACAD_REACTORS
330
47
102
}
330
47
100
AcDbScale
 70
     0
300
3" = 1'-0"
140
3.0
141
12.0
290
     0
  0
SCALE
  5
67
102
{ACAD_REACTORS
330
47
102
}
330
47
100
AcDbScale
 70
     0
300
6" = 1'-0"
140
6.0
141
12.0
290
     0
  0
SCALE
  5
68
102
{ACAD_REACTORS
330
47
102
}
330
47
100
AcDbScale
 70
     0
300
1'-0" = 1'-0"
140
12.0
141
12.0
290
     0
  0
ENDSEC
  0
EOF
