  0
SECTION
  2
HEADER
  9
$ACADVER
  1
AC1015
  9
$ACADMAINTVER
 70
     6
  9
$DWGCODEPAGE
  3
DOS932
  9
$INSBASE
 10
0.0
 20
0.0
 30
0.0
  9
$EXTMIN
 10
0.0
 20
0.0
 30
0.0
  9
$EXTMAX
 10
431.8
 20
279.4
 30
0.0
  9
$LIMMIN
 10
0.0
 20
0.0
  9
$LIMMAX
 10
431.8
 20
279.4
  9
$ORTHOMODE
 70
     0
  9
$REGENMODE
 70
     1
  9
$FILLMODE
 70
     1
  9
$QTEXTMODE
 70
     0
  9
$MIRRTEXT
 70
     1
  9
$LTSCALE
 40
1.0
  9
$ATTMODE
 70
     1
  9
$TEXTSIZE
 40
3.5
  9
$TRACEWID
 40
1.0
  9
$TEXTSTYLE
  7
Standard
  9
$CLAYER
  8
0
  9
$CELTYPE
  6
ByLayer
  9
$CECOLOR
 62
   256
  9
$CELTSCALE
 40
1.0
  9
$DISPSILH
 70
     0
  9
$DIMSCALE
 40
1.0
  9
$DIMASZ
 40
3.302
  9
$DIMEXO
 40
1.0
  9
$DIMDLI
 40
3.75
  9
$DIMRND
 40
0.0
  9
$DIMDLE
 40
0.0
  9
$DIMEXE
 40
1.0
  9
$DIMTP
 40
0.0
  9
$DIMTM
 40
0.0
  9
$DIMTXT
 40
3.5
  9
$DIMCEN
 40
2.5
  9
$DIMTSZ
 40
0.0
  9
$DIMTOL
 70
     0
  9
$DIMLIM
 70
     0
  9
$DIMTIH
 70
     1
  9
$DIMTOH
 70
     1
  9
$DIMSE1
 70
     0
  9
$DIMSE2
 70
     0
  9
$DIMTAD
 70
     1
  9
$DIMZIN
 70
     1
  9
$DIMBLK
  1

  9
$DIMASO
 70
     1
  9
$DIMSHO
 70
     1
  9
$DIMPOST
  1

  9
$DIMAPOST
  1

  9
$DIMALT
 70
     0
  9
$DIMALTD
 70
     3
  9
$DIMALTF
 40
0.0393700787
  9
$DIMLFAC
 40
1.0
  9
$DIMTOFL
 70
     1
  9
$DIMTVP
 40
0.0
  9
$DIMTIX
 70
     0
  9
$DIMSOXD
 70
     0
  9
$DIMSAH
 70
     0
  9
$DIMBLK1
  1

  9
$DIMBLK2
  1

  9
$DIMSTYLE
  2
ISO-25
  9
$DIMCLRD
 70
     0
  9
$DIMCLRE
 70
     0
  9
$DIMCLRT
 70
     0
  9
$DIMTFAC
 40
1.0
  9
$DIMGAP
 40
1.524
  9
$DIMJUST
 70
     0
  9
$DIMSD1
 70
     0
  9
$DIMSD2
 70
     0
  9
$DIMTOLJ
 70
     0
  9
$DIMTZIN
 70
     1
  9
$DIMALTZ
 70
     0
  9
$DIMALTTZ
 70
     0
  9
$DIMUPT
 70
     0
  9
$DIMDEC
 70
     2
  9
$DIMTDEC
 70
     2
  9
$DIMALTU
 70
     2
  9
$DIMALTTD
 70
     3
  9
$DIMTXSTY
  7
Standard
  9
$DIMAUNIT
 70
     0
  9
$DIMADEC
 70
     2
  9
$DIMALTRND
 40
0.0
  9
$DIMAZIN
 70
     0
  9
$DIMDSEP
 70
    44
  9
$DIMATFIT
 70
     3
  9
$DIMFRAC
 70
     0
  9
$DIMLDRBLK
  1

  9
$DIMLUNIT
 70
     2
  9
$DIMLWD
 70
    -2
  9
$DIMLWE
 70
    -2
  9
$DIMTMOVE
 70
     0
  9
$LUNITS
 70
     2
  9
$LUPREC
 70
     2
  9
$SKETCHINC
 40
1.0
  9
$FILLETRAD
 40
10.0
  9
$AUNITS
 70
     0
  9
$AUPREC
 70
     2
  9
$MENU
  1
.
  9
$ELEVATION
 40
0.0
  9
$PELEVATION
 40
0.0
  9
$THICKNESS
 40
0.0
  9
$LIMCHECK
 70
     0
  9
$CHAMFERA
 40
0.0
  9
$CHAMFERB
 40
0.0
  9
$CHAMFERC
 40
0.0
  9
$CHAMFERD
 40
0.0
  9
$SKPOLY
 70
     0
  9
$TDCREATE
 40
2459486.421117709
  9
$TDUCREATE
 40
2459486.046117709
  9
$TDUPDATE
 40
2459486.421118299
  9
$TDUUPDATE
 40
2459486.046118299
  9
$TDINDWG
 40
0.0000000116
  9
$TDUSRTIMER
 40
0.0000000116
  9
$USRTIMER
 70
     1
  9
$ANGBASE
 50
0.0
  9
$ANGDIR
 70
     0
  9
$PDMODE
 70
     0
  9
$PDSIZE
 40
-1.0
  9
$PLINEWID
 40
0.0
  9
$SPLFRAME
 70
     0
  9
$SPLINETYPE
 70
     6
  9
$SPLINESEGS
 70
     8
  9
$HANDSEED
  5
1A2
  9
$SURFTAB1
 70
     6
  9
$SURFTAB2
 70
     6
  9
$SURFTYPE
 70
     6
  9
$SURFU
 70
     6
  9
$SURFV
 70
     6
  9
$UCSBASE
  2

  9
$UCSNAME
  2

  9
$UCSORG
 10
0.0
 20
0.0
 30
0.0
  9
$UCSXDIR
 10
1.0
 20
0.0
 30
0.0
  9
$UCSYDIR
 10
0.0
 20
1.0
 30
0.0
  9
$UCSORTHOREF
  2

  9
$UCSORTHOVIEW
 70
     0
  9
$UCSORGTOP
 10
0.0
 20
0.0
 30
0.0
  9
$UCSORGBOTTOM
 10
0.0
 20
0.0
 30
0.0
  9
$UCSORGLEFT
 10
0.0
 20
0.0
 30
0.0
  9
$UCSORGRIGHT
 10
0.0
 20
0.0
 30
0.0
  9
$UCSORGFRONT
 10
0.0
 20
0.0
 30
0.0
  9
$UCSORGBACK
 10
0.0
 20
0.0
 30
0.0
  9
$PUCSBASE
  2

  9
$PUCSNAME
  2

  9
$PUCSORG
 10
0.0
 20
0.0
 30
0.0
  9
$PUCSXDIR
 10
1.0
 20
0.0
 30
0.0
  9
$PUCSYDIR
 10
0.0
 20
1.0
 30
0.0
  9
$PUCSORTHOREF
  2

  9
$PUCSORTHOVIEW
 70
     0
  9
$PUCSORGTOP
 10
0.0
 20
0.0
 30
0.0
  9
$PUCSORGBOTTOM
 10
0.0
 20
0.0
 30
0.0
  9
$PUCSORGLEFT
 10
0.0
 20
0.0
 30
0.0
  9
$PUCSORGRIGHT
 10
0.0
 20
0.0
 30
0.0
  9
$PUCSORGFRONT
 10
0.0
 20
0.0
 30
0.0
  9
$PUCSORGBACK
 10
0.0
 20
0.0
 30
0.0
  9
$USERI1
 70
     0
  9
$USERI2
 70
     0
  9
$USERI3
 70
     0
  9
$USERI4
 70
     0
  9
$USERI5
 70
     0
  9
$USERR1
 40
0.0
  9
$USERR2
 40
0.0
  9
$USERR3
 40
0.0
  9
$USERR4
 40
0.0
  9
$USERR5
 40
0.0
  9
$WORLDVIEW
 70
     1
  9
$SHADEDGE
 70
     3
  9
$SHADEDIF
 70
    70
  9
$TILEMODE
 70
     1
  9
$MAXACTVP
 70
    64
  9
$PINSBASE
 10
0.0
 20
0.0
 30
0.0
  9
$PLIMCHECK
 70
     0
  9
$PEXTMIN
 10
1.0000000000E+20
 20
1.0000000000E+20
 30
1.0000000000E+20
  9
$PEXTMAX
 10
-1.0000000000E+20
 20
-1.0000000000E+20
 30
-1.0000000000E+20
  9
$PLIMMIN
 10
0.0
 20
0.0
  9
$PLIMMAX
 10
420.0
 20
297.0
  9
$UNITMODE
 70
     0
  9
$VISRETAIN
 70
     1
  9
$PLINEGEN
 70
     0
  9
$PSLTSCALE
 70
     1
  9
$TREEDEPTH
 70
  3020
  9
$CMLSTYLE
  2
Standard
  9
$CMLJUST
 70
     0
  9
$CMLSCALE
 40
20.0
  9
$PROXYGRAPHICS
 70
     1
  9
$MEASUREMENT
 70
     1
  9
$CELWEIGHT
370
    -1
  9
$ENDCAPS
280
     0
  9
$JOINSTYLE
280
     0
  9
$LWDISPLAY
290
     1
  9
$INSUNITS
 70
     4
  9
$HYPERLINKBASE
  1

  9
$STYLESHEET
  1

  9
$XEDIT
290
     1
  9
$CEPSNTYPE
380
     0
  9
$PSTYLEMODE
290
     1
  9
$FINGERPRINTGUID
  2
{4DA54576-AFEE-4B14-BE4C-B194FDFD2655}
  9
$VERSIONGUID
  2
{FAEB1C32-E019-11D5-929B-00C0DF256EC4}
  9
$EXTNAMES
290
     1
  9
$PSVPSCALE
 40
0.0
  9
$OLESTARTUP
290
     0
  0
ENDSEC
  0
SECTION
  2
CLASSES
  0
CLASS
  1
ACDBDICTIONARYWDFLT
  2
AcDbDictionaryWithDefault
  3
ObjectDBX Classes
 90
        0
280
     0
281
     0
  0
CLASS
  1
VISUALSTYLE
  2
AcDbVisualStyle
  3
ObjectDBX Classes
 90
     4095
280
     0
281
     0
  0
CLASS
  1
MATERIAL
  2
AcDbMaterial
  3
ObjectDBX Classes
 90
     1153
280
     0
281
     0
  0
CLASS
  1
SCALE
  2
AcDbScale
  3
ObjectDBX Classes
 90
     1153
280
     0
281
     0
  0
CLASS
  1
TABLESTYLE
  2
AcDbTableStyle
  3
ObjectDBX Classes
 90
     4095
280
     0
281
     0
  0
CLASS
  1
MLEADERSTYLE
  2
AcDbMLeaderStyle
  3
ACDB_MLEADERSTYLE_CLASS
 90
     4095
280
     0
281
     0
  0
CLASS
  1
SUN
  2
AcDbSun
  3
SCENEOE
 90
     1153
280
     0
281
     0
  0
CLASS
  1
ACDBPLACEHOLDER
  2
AcDbPlaceHolder
  3
ObjectDBX Classes
 90
        0
280
     0
281
     0
  0
CLASS
  1
LAYOUT
  2
AcDbLayout
  3
ObjectDBX Classes
 90
        0
280
     0
281
     0
  0
ENDSEC
  0
SECTION
  2
TABLES
  0
TABLE
  2
VPORT
  5
8
330
0
100
AcDbSymbolTable
 70
     1
  0
VPORT
  5
29
330
8
100
AcDbSymbolTableRecord
100
AcDbViewportTableRecord
  2
*Active
 70
     0
 10
0.0
 20
0.0
 11
1.0
 21
1.0
 12
215.9
 22
139.7
 13
0.0
 23
0.0
 14
10.0
 24
10.0
 15
10.0
 25
10.0
 16
0.0
 26
0.0
 36
1.0
 17
0.0
 27
0.0
 37
0.0
 40
279.4
 41
1.5454545455
 42
50.0
 43
0.0
 44
0.0
 50
0.0
 51
0.0
 71
     0
 72
  2000
 73
     1
 74
     3
 75
     0
 76
     0
 77
     0
 78
     0
281
     0
 65
     1
110
0.0
120
0.0
130
0.0
111
1.0
121
0.0
131
0.0
112
0.0
122
1.0
132
0.0
 79
     0
146
0.0
  0
ENDTAB
  0
TABLE
  2
LTYPE
  5
5
330
0
100
AcDbSymbolTable
 70
     6
  0
LTYPE
  5
14
330
5
100
AcDbSymbolTableRecord
100
AcDbLinetypeTableRecord
  2
ByBlock
 70
     0
  3

 72
    65
 73
     0
 40
0.0
  0
LTYPE
  5
15
330
5
100
AcDbSymbolTableRecord
100
AcDbLinetypeTableRecord
  2
ByLayer
 70
     0
  3

 72
    65
 73
     0
 40
0.0
  0
LTYPE
  5
16
330
5
100
AcDbSymbolTableRecord
100
AcDbLinetypeTableRecord
  2
Continuous
 70
     0
  3
Solid line
 72
    65
 73
     0
 40
0.0
  0
LTYPE
  5
6E
330
5
100
AcDbSymbolTableRecord
100
AcDbLinetypeTableRecord
  2
HIDDEN
 70
     0
  3
Hidden __ __ __ __ __ __ __ __ __ __ __ __ __ __
 72
    65
 73
     2
 40
1.905
 49
1.27
 74
     0
 49
-0.635
 74
     0
  0
LTYPE
  5
6F
330
5
100
AcDbSymbolTableRecord
100
AcDbLinetypeTableRecord
  2
PHANTOM
 70
     0
  3
Phantom ______  __  __  ______  __  __  ______
 72
    65
 73
     6
 40
12.7
 49
6.35
 74
     0
 49
-1.27
 74
     0
 49
1.27
 74
     0
 49
-1.27
 74
     0
 49
1.27
 74
     0
 49
-1.27
 74
     0
  0
LTYPE
  5
70
330
5
100
AcDbSymbolTableRecord
100
AcDbLinetypeTableRecord
  2
CENTER
 70
     0
  3
Center ____ _ ____ _ ____ _ ____ _ ____ _ ____
 72
    65
 73
     4
 40
10.16
 49
6.35
 74
     0
 49
-1.27
 74
     0
 49
1.27
 74
     0
 49
-1.27
 74
     0
  0
LTYPE
  5
71
330
5
100
AcDbSymbolTableRecord
100
AcDbLinetypeTableRecord
  2
CENTERX2
 70
     0
  3
Center (2x) ________  __  ________  __  _____
 72
    65
 73
     4
 40
20.32
 49
12.7
 74
     0
 49
-2.54
 74
     0
 49
2.54
 74
     0
 49
-2.54
 74
     0
  0
LTYPE
  5
72
330
5
100
AcDbSymbolTableRecord
100
AcDbLinetypeTableRecord
  2
DOT2
 70
     0
  3
Dot (.5x) ........................................
 72
    65
 73
     2
 40
0.635
 49
0.0
 74
     0
 49
-0.635
 74
     0
  0
ENDTAB
  0
TABLE
  2
LAYER
  5
2
330
0
100
AcDbSymbolTable
 70
     1
  0
LAYER
  5
10
330
2
100
AcDbSymbolTableRecord
100
AcDbLayerTableRecord
  2
0
 70
     0
 62
     7
  6
Continuous
370
    -3
390
F
  0
ENDTAB
  0
TABLE
  2
STYLE
  5
3
330
0
100
AcDbSymbolTable
 70
     2
  0
STYLE
  5
11
330
3
100
AcDbSymbolTableRecord
100
AcDbTextStyleTableRecord
  2
Standard
 70
     0
 40
0.0
 41
1.0
 50
0.0
 71
     0
 42
3.5
  3
txt
  4
bigfont
  0
STYLE
  5
73
330
3
100
AcDbSymbolTableRecord
100
AcDbTextStyleTableRecord
  2
SLDTEXTSTYLE0
 70
     0
 40
0.0
 41
0.7
 50
0.0
 71
     0
 42
3.5
  3
TXT
  4
bigfont
  0
ENDTAB
  0
TABLE
  2
VIEW
  5
6
330
0
100
AcDbSymbolTable
 70
     0
  0
ENDTAB
  0
TABLE
  2
UCS
  5
7
330
0
100
AcDbSymbolTable
 70
     0
  0
ENDTAB
  0
TABLE
  2
APPID
  5
9
330
0
100
AcDbSymbolTable
 70
     1
  0
APPID
  5
12
330
9
100
AcDbSymbolTableRecord
100
AcDbRegAppTableRecord
  2
ACAD
 70
     0
  0
ENDTAB
  0
TABLE
  2
DIMSTYLE
  5
A
330
0
100
AcDbSymbolTable
 70
     1
100
AcDbDimStyleTable
  0
DIMSTYLE
105
27
330
A
100
AcDbSymbolTableRecord
100
AcDbDimStyleTableRecord
  2
ISO-25
 70
     0
 41
2.5
 42
0.625
 43
3.75
 44
1.25
 73
     0
 74
     0
 77
     1
 78
     8
140
2.5
141
2.5
143
0.0393700787
147
0.625
171
     3
172
     1
178
     0
271
     2
272
     2
274
     3
278
    44
283
     0
284
     8
340
11
  0
ENDTAB
  0
TABLE
  2
BLOCK_RECORD
  5
1
330
0
100
AcDbSymbolTable
 70
     2
  0
BLOCK_RECORD
  5
1F
330
1
100
AcDbSymbolTableRecord
100
AcDbBlockTableRecord
  2
*Model_Space
340
22
  0
BLOCK_RECORD
  5
1B
330
1
100
AcDbSymbolTableRecord
100
AcDbBlockTableRecord
  2
*Paper_Space
340
1E
  0
BLOCK_RECORD
  5
23
330
1
100
AcDbSymbolTableRecord
100
AcDbBlockTableRecord
  2
*Paper_Space0
340
26
  0
BLOCK_RECORD
  5
118
330
1
100
AcDbSymbolTableRecord
100
AcDbBlockTableRecord
  2
SW_CENTERMARKSYMBOL_0
340
0
102
{BLKREFS
331
123
102
}
  0
ENDTAB
  0
ENDSEC
  0
SECTION
  2
BLOCKS
  0
BLOCK
  5
20
330
1F
100
AcDbEntity
  8
0
100
AcDbBlockBegin
  2
*Model_Space
 70
     0
 10
0.0
 20
0.0
 30
0.0
  3
*Model_Space
  1

  0
ENDBLK
  5
21
330
1F
100
AcDbEntity
  8
0
100
AcDbBlockEnd
  0
BLOCK
  5
1C
330
1B
100
AcDbEntity
 67
     1
  8
0
100
AcDbBlockBegin
  2
*Paper_Space
 70
     0
 10
0.0
 20
0.0
 30
0.0
  3
*Paper_Space
  1

  0
ENDBLK
  5
1D
330
1B
100
AcDbEntity
 67
     1
  8
0
100
AcDbBlockEnd
  0
BLOCK
  5
24
330
23
100
AcDbEntity
  8
0
100
AcDbBlockBegin
  2
*Paper_Space0
 70
     0
 10
0.0
 20
0.0
 30
0.0
  3
*Paper_Space0
  1

  0
ENDBLK
  5
25
330
23
100
AcDbEntity
  8
0
100
AcDbBlockEnd
  0
BLOCK
  5
119
330
118
100
AcDbEntity
  8
0
100
AcDbBlockBegin
  2
SW_CENTERMARKSYMBOL_0
 70
     0
 10
0.0
 20
0.0
 30
0.0
  3
SW_CENTERMARKSYMBOL_0
  1

  0
LINE
  5
11B
330
118
100
AcDbEntity
  8
0
  6
Continuous
 62
     0
370
    18
100
AcDbLine
 10
0.0
 20
0.0
 30
0.0
 11
0.0
 21
2.5
 31
0.0
  0
LINE
  5
11C
330
118
100
AcDbEntity
  8
0
  6
Continuous
 62
     0
370
    18
100
AcDbLine
 10
0.0
 20
0.0
 30
0.0
 11
-2.5
 21
0.0
 31
0.0
  0
LINE
  5
11D
330
118
100
AcDbEntity
  8
0
  6
Continuous
 62
     0
370
    18
100
AcDbLine
 10
0.0
 20
0.0
 30
0.0
 11
0.0
 21
-2.5
 31
0.0
  0
LINE
  5
11E
330
118
100
AcDbEntity
  8
0
  6
Continuous
 62
     0
370
    18
100
AcDbLine
 10
0.0
 20
0.0
 30
0.0
 11
2.5
 21
0.0
 31
0.0
  0
LINE
  5
11F
330
118
100
AcDbEntity
  8
0
  6
Continuous
 62
     0
370
    18
100
AcDbLine
 10
0.0
 20
5.0
 30
0.0
 11
0.0
 21
17.0414694828
 31
0.0
  0
LINE
  5
120
330
118
100
AcDbEntity
  8
0
  6
Continuous
 62
     0
370
    18
100
AcDbLine
 10
-5.0
 20
0.0
 30
0.0
 11
-15.75
 21
0.0
 31
0.0
  0
LINE
  5
121
330
118
100
AcDbEntity
  8
0
  6
Continuous
 62
     0
370
    18
100
AcDbLine
 10
0.0
 20
-5.0
 30
0.0
 11
0.0
 21
-17.3709850097
 31
0.0
  0
LINE
  5
122
330
118
100
AcDbEntity
  8
0
  6
Continuous
 62
     0
370
    18
100
AcDbLine
 10
5.0
 20
0.0
 30
0.0
 11
15.75
 21
0.0
 31
0.0
  0
ENDBLK
  5
11A
330
118
100
AcDbEntity
  8
0
100
AcDbBlockEnd
  0
ENDSEC
  0
SECTION
  2
ENTITIES
  0
MTEXT
  5
74
330
1F
100
AcDbEntity
  8
0
  6
Continuous
 62
     7
370
     0
100
AcDbMText
 10
191.1477775851
 20
111.292717351
 30
0.0
 40
4.2333333333
 41
0.0
 71
     1
 72
     1
  1
HS-1614R
  7
SLDTEXTSTYLE0
 73
     1
 44
1.0
  0
LINE
  5
75
330
1F
100
AcDbEntity
  8
0
  6
Continuous
 62
     7
370
    25
100
AcDbLine
 10
154.3096468041
 20
74.7710404582
 30
0.0
 11
154.8096468041
 21
74.7710404582
 31
0.0
  0
LINE
  5
76
330
1F
100
AcDbEntity
  8
0
  6
Continuous
 62
     7
370
    25
100
AcDbLine
 10
154.8096468041
 20
90.7710404582
 30
0.0
 11
154.3096468041
 21
90.7710404582
 31
0.0
  0
LINE
  5
77
330
1F
100
AcDbEntity
  8
0
  6
Continuous
 62
     7
370
    25
100
AcDbLine
 10
160.8096468041
 20
75.7710404582
 30
0.0
 11
165.3096468041
 21
76.5210404582
 31
0.0
  0
LINE
  5
78
330
1F
100
AcDbEntity
  8
0
  6
Continuous
 62
     7
370
    25
100
AcDbLine
 10
165.3096468041
 20
89.0210404582
 30
0.0
 11
160.8096468041
 21
89.7710404582
 31
0.0
  0
LINE
  5
79
330
1F
100
AcDbEntity
  8
0
  6
Continuous
 62
     7
370
    25
100
AcDbLine
 10
160.8096468041
 20
89.7710404582
 30
0.0
 11
154.8096468041
 21
89.7710404582
 31
0.0
  0
LINE
  5
7A
330
1F
100
AcDbEntity
  8
0
  6
Continuous
 62
     7
370
    25
100
AcDbLine
 10
154.8096468041
 20
75.7710404582
 30
0.0
 11
160.8096468041
 21
75.7710404582
 31
0.0
  0
LINE
  5
7B
330
1F
100
AcDbEntity
  8
0
  6
Continuous
 62
     7
370
    25
100
AcDbLine
 10
174.3096468041
 20
75.7710404582
 30
0.0
 11
178.8096468041
 21
76.5210404582
 31
0.0
  0
LINE
  5
7C
330
1F
100
AcDbEntity
  8
0
  6
Continuous
 62
     7
370
    25
100
AcDbLine
 10
178.8096468041
 20
89.0210404582
 30
0.0
 11
174.3096468041
 21
89.7710404582
 31
0.0
  0
LINE
  5
7D
330
1F
100
AcDbEntity
  8
0
  6
Continuous
 62
     7
370
    25
100
AcDbLine
 10
165.3096468041
 20
75.7710404582
 30
0.0
 11
169.8096468041
 21
76.5210404582
 31
0.0
  0
LINE
  5
7E
330
1F
100
AcDbEntity
  8
0
  6
Continuous
 62
     7
370
    25
100
AcDbLine
 10
169.8096468041
 20
89.0210404582
 30
0.0
 11
165.3096468041
 21
89.7710404582
 31
0.0
  0
LINE
  5
7F
330
1F
100
AcDbEntity
  8
0
  6
Continuous
 62
     7
370
    25
100
AcDbLine
 10
169.8096468041
 20
75.7710404582
 30
0.0
 11
174.3096468041
 21
76.5210404582
 31
0.0
  0
LINE
  5
80
330
1F
100
AcDbEntity
  8
0
  6
Continuous
 62
     7
370
    25
100
AcDbLine
 10
174.3096468041
 20
89.0210404582
 30
0.0
 11
169.8096468041
 21
89.7710404582
 31
0.0
  0
LINE
  5
81
330
1F
100
AcDbEntity
  8
0
  6
Continuous
 62
     7
370
    25
100
AcDbLine
 10
178.8096468041
 20
75.7710404582
 30
0.0
 11
184.614260549
 21
76.4408035827
 31
0.0
  0
LINE
  5
82
330
1F
100
AcDbEntity
  8
0
  6
Continuous
 62
     7
370
    25
100
AcDbLine
 10
184.614260549
 20
89.1012773338
 30
0.0
 11
178.8096468041
 21
89.7710404582
 31
0.0
  0
LINE
  5
83
330
1F
100
AcDbEntity
  8
0
  6
Continuous
 62
     7
370
    25
100
AcDbLine
 10
184.614260549
 20
76.4408035827
 30
0.0
 11
185.3096468041
 21
77.3175949478
 31
0.0
  0
LINE
  5
84
330
1F
100
AcDbEntity
  8
0
  6
Continuous
 62
     7
370
    25
100
AcDbLine
 10
185.3096468041
 20
88.2244859687
 30
0.0
 11
184.614260549
 21
89.1012773338
 31
0.0
  0
LINE
  5
85
330
1F
100
AcDbEntity
  8
0
  6
Continuous
 62
     7
370
    25
100
AcDbLine
 10
141.5257811411
 20
96.6274469188
 30
0.0
 11
140.3096468041
 21
94.5210404582
 31
0.0
  0
LINE
  5
86
330
1F
100
AcDbEntity
  8
0
  6
Continuous
 62
     7
370
    25
100
AcDbLine
 10
140.3096468041
 20
71.0210404582
 30
0.0
 11
141.5257811411
 21
68.9146339977
 31
0.0
  0
LINE
  5
87
330
1F
100
AcDbEntity
  8
0
  6
Continuous
 62
     7
370
    25
100
AcDbLine
 10
151.093512467
 20
68.9146339977
 30
0.0
 11
152.3096468041
 21
71.0210404582
 31
0.0
  0
LINE
  5
88
330
1F
100
AcDbEntity
  8
0
  6
Continuous
 62
     7
370
    25
100
AcDbLine
 10
152.3096468041
 20
94.5210404582
 30
0.0
 11
151.093512467
 21
96.6274469188
 31
0.0
  0
LINE
  5
89
330
1F
100
AcDbEntity
  8
0
  6
Continuous
 62
     7
370
    25
100
AcDbLine
 10
153.8096468041
 20
71.0210404582
 30
0.0
 11
154.3096468041
 21
71.5210404582
 31
0.0
  0
LINE
  5
8A
330
1F
100
AcDbEntity
  8
0
  6
Continuous
 62
     7
370
    25
100
AcDbLine
 10
154.3096468041
 20
94.0210404582
 30
0.0
 11
153.8096468041
 21
94.5210404582
 31
0.0
  0
LINE
  5
8B
330
1F
100
AcDbEntity
  8
0
  6
Continuous
 62
     7
370
    25
100
AcDbLine
 10
152.3096468041
 20
71.0210404582
 30
0.0
 11
153.8096468041
 21
71.0210404582
 31
0.0
  0
LINE
  5
8C
330
1F
100
AcDbEntity
  8
0
  6
Continuous
 62
     7
370
    25
100
AcDbLine
 10
153.8096468041
 20
94.5210404582
 30
0.0
 11
152.3096468041
 21
94.5210404582
 31
0.0
  0
LINE
  5
8D
330
1F
100
AcDbEntity
  8
0
  6
Continuous
 62
     7
370
    25
100
AcDbLine
 10
138.8096468041
 20
94.5210404582
 30
0.0
 11
138.3096468041
 21
94.0210404582
 31
0.0
  0
LINE
  5
8E
330
1F
100
AcDbEntity
  8
0
  6
Continuous
 62
     7
370
    25
100
AcDbLine
 10
138.3096468041
 20
71.5210404582
 30
0.0
 11
138.8096468041
 21
71.0210404582
 31
0.0
  0
LINE
  5
8F
330
1F
100
AcDbEntity
  8
0
  6
Continuous
 62
     7
370
    25
100
AcDbLine
 10
140.3096468041
 20
94.5210404582
 30
0.0
 11
138.8096468041
 21
94.5210404582
 31
0.0
  0
LINE
  5
90
330
1F
100
AcDbEntity
  8
0
  6
Continuous
 62
     7
370
    25
100
AcDbLine
 10
138.8096468041
 20
71.0210404582
 30
0.0
 11
140.3096468041
 21
71.0210404582
 31
0.0
  0
LINE
  5
91
330
1F
100
AcDbEntity
  8
0
  6
Continuous
 62
     7
370
    25
100
AcDbLine
 10
146.3096468041
 20
96.1274469188
 30
0.0
 11
146.1756722079
 21
96.6274469188
 31
0.0
  0
LINE
  5
92
330
1F
100
AcDbEntity
  8
0
  6
Continuous
 62
     7
370
    25
100
AcDbLine
 10
146.4436214003
 20
96.6274469188
 30
0.0
 11
146.3096468041
 21
96.1274469188
 31
0.0
  0
LINE
  5
93
330
1F
100
AcDbEntity
  8
0
  6
Continuous
 62
     7
370
    25
100
AcDbLine
 10
146.1756722079
 20
68.9146339977
 30
0.0
 11
146.3096468041
 21
69.4146339977
 31
0.0
  0
LINE
  5
94
330
1F
100
AcDbEntity
  8
0
  6
Continuous
 62
     7
370
    25
100
AcDbLine
 10
146.3096468041
 20
69.4146339977
 30
0.0
 11
146.4436214003
 21
68.9146339977
 31
0.0
  0
LINE
  5
95
330
1F
100
AcDbEntity
  8
0
  6
Continuous
 62
     7
370
    25
100
AcDbLine
 10
131.5576140822
 20
67.1825831901
 30
0.0
 11
132.9077230154
 21
69.5210404582
 31
0.0
  0
LINE
  5
96
330
1F
100
AcDbEntity
  8
0
  6
Continuous
 62
     7
370
    25
100
AcDbLine
 10
132.9077230154
 20
96.0210404582
 30
0.0
 11
131.5576140822
 21
98.3594977264
 31
0.0
  0
LINE
  5
97
330
1F
100
AcDbEntity
  8
0
  6
Continuous
 62
     7
370
    25
100
AcDbLine
 10
124.9077230154
 20
96.1937279582
 30
0.0
 11
111.5128993544
 21
95.7751397188
 31
0.0
  0
LINE
  5
98
330
1F
100
AcDbEntity
  8
0
  6
Continuous
 62
     7
370
    25
100
AcDbLine
 10
111.5128993544
 20
69.7669411977
 30
0.0
 11
124.9077230154
 21
69.3483529582
 31
0.0
  0
LINE
  5
99
330
1F
100
AcDbEntity
  8
0
  6
Continuous
 62
     7
370
    25
100
AcDbLine
 10
111.5128993544
 20
95.7751397188
 30
0.0
 11
108.9077230154
 21
94.2710404582
 31
0.0
  0
LINE
  5
9A
330
1F
100
AcDbEntity
  8
0
  6
Continuous
 62
     7
370
    25
100
AcDbLine
 10
108.9077230154
 20
71.2710404582
 30
0.0
 11
111.5128993544
 21
69.7669411977
 31
0.0
  0
LINE
  5
9B
330
1F
100
AcDbEntity
  8
0
  6
Continuous
 62
     7
370
    25
100
AcDbLine
 10
136.8077230154
 20
72.2935404582
 30
0.0
 11
138.3096468041
 21
72.2935404582
 31
0.0
  0
LINE
  5
9C
330
1F
100
AcDbEntity
  8
0
  6
Continuous
 62
     7
370
    25
100
AcDbLine
 10
138.3096468041
 20
93.2485404582
 30
0.0
 11
136.8077230154
 21
93.2485404582
 31
0.0
  0
LINE
  5
9D
330
1F
100
AcDbEntity
  8
0
  6
Continuous
 62
     7
370
    25
100
AcDbLine
 10
136.8077230154
 20
93.2485404582
 30
0.0
 11
135.4077230154
 21
91.8485404582
 31
0.0
  0
LINE
  5
9E
330
1F
100
AcDbEntity
  8
0
  6
Continuous
 62
     7
370
    25
100
AcDbLine
 10
135.4077230154
 20
73.6935404582
 30
0.0
 11
136.8077230154
 21
72.2935404582
 31
0.0
  0
LINE
  5
9F
330
1F
100
AcDbEntity
  8
0
  6
Continuous
 62
     7
370
    25
100
AcDbLine
 10
132.9077230154
 20
73.7710404582
 30
0.0
 11
135.4077230154
 21
73.7710404582
 31
0.0
  0
LINE
  5
A0
330
1F
100
AcDbEntity
  8
0
  6
Continuous
 62
     7
370
    25
100
AcDbLine
 10
135.4077230154
 20
91.7710404582
 30
0.0
 11
132.9077230154
 21
91.7710404582
 31
0.0
  0
LINE
  5
A1
330
1F
100
AcDbEntity
  8
0
  6
Continuous
 62
     7
370
    25
100
AcDbLine
 10
128.1522837911
 20
67.1825831901
 30
0.0
 11
128.2326685488
 21
67.4825831901
 31
0.0
  0
LINE
  5
A2
330
1F
100
AcDbEntity
  8
0
  6
Continuous
 62
     7
370
    25
100
AcDbLine
 10
128.2326685488
 20
67.4825831901
 30
0.0
 11
128.3130533065
 21
67.1825831901
 31
0.0
  0
LINE
  5
A3
330
1F
100
AcDbEntity
  8
0
  6
Continuous
 62
     7
370
    25
100
AcDbLine
 10
128.3130533065
 20
98.3594977264
 30
0.0
 11
128.2326685488
 21
98.0594977264
 31
0.0
  0
LINE
  5
A4
330
1F
100
AcDbEntity
  8
0
  6
Continuous
 62
     7
370
    25
100
AcDbLine
 10
128.2326685488
 20
98.0594977264
 30
0.0
 11
128.1522837911
 21
98.3594977264
 31
0.0
  0
LINE
  5
A5
330
1F
100
AcDbEntity
  8
0
  6
Continuous
 62
     7
370
    25
100
AcDbLine
 10
154.8096468041
 20
90.7710404582
 30
0.0
 11
154.8096468041
 21
74.7710404582
 31
0.0
  0
LINE
  5
A6
330
1F
100
AcDbEntity
  8
0
  6
Continuous
 62
     7
370
    25
100
AcDbLine
 10
160.8096468041
 20
89.7710404582
 30
0.0
 11
160.8096468041
 21
75.7710404582
 31
0.0
  0
LINE
  5
A7
330
1F
100
AcDbEntity
  8
0
  6
Continuous
 62
     7
370
    25
100
AcDbLine
 10
174.3096468041
 20
89.7710404582
 30
0.0
 11
174.3096468041
 21
75.7710404582
 31
0.0
  0
LINE
  5
A8
330
1F
100
AcDbEntity
  8
0
  6
Continuous
 62
     7
370
    25
100
AcDbLine
 10
165.3096468041
 20
89.7710404582
 30
0.0
 11
165.3096468041
 21
75.7710404582
 31
0.0
  0
LINE
  5
A9
330
1F
100
AcDbEntity
  8
0
  6
Continuous
 62
     7
370
    25
100
AcDbLine
 10
169.8096468041
 20
89.7710404582
 30
0.0
 11
169.8096468041
 21
75.7710404582
 31
0.0
  0
LINE
  5
AA
330
1F
100
AcDbEntity
  8
0
  6
Continuous
 62
     7
370
    25
100
AcDbLine
 10
184.614260549
 20
76.4408035827
 30
0.0
 11
184.614260549
 21
89.1012773338
 31
0.0
  0
LINE
  5
AB
330
1F
100
AcDbEntity
  8
0
  6
Continuous
 62
     7
370
    25
100
AcDbLine
 10
178.8096468041
 20
89.7710404582
 30
0.0
 11
178.8096468041
 21
75.7710404582
 31
0.0
  0
LINE
  5
AC
330
1F
100
AcDbEntity
  8
0
  6
Continuous
 62
     7
370
    25
100
AcDbLine
 10
185.3096468041
 20
88.2244859687
 30
0.0
 11
185.3096468041
 21
77.3175949478
 31
0.0
  0
LINE
  5
AD
330
1F
100
AcDbEntity
  8
0
  6
Continuous
 62
     7
370
    25
100
AcDbLine
 10
146.4436214003
 20
89.6992436885
 30
0.0
 11
146.3096468041
 21
88.635645606
 31
0.0
  0
LINE
  5
AE
330
1F
100
AcDbEntity
  8
0
  6
Continuous
 62
     7
370
    25
100
AcDbLine
 10
151.093512467
 20
89.6992436885
 30
0.0
 11
146.4436214003
 21
89.6992436885
 31
0.0
  0
SPLINE
  5
AF
330
1F
100
AcDbEntity
  8
0
  6
Continuous
 62
     7
370
    25
100
AcDbSpline
210
0.0
220
0.0
230
1.0
 70
     8
 71
     3
 72
    16
 73
    12
 74
     0
 42
0.000000001
 43
0.00000001
 40
0.0
 40
0.0
 40
0.0
 40
0.0
 40
0.0915356978782496
 40
0.183063343223533
 40
0.2753996771146608
 40
0.3677267146962475
 40
0.4925705318074075
 40
0.6174129202940689
 40
0.7455832490327831
 40
0.8737882839722002
 40
1.0
 40
1.0
 40
1.0
 40
1.0
 10
151.0935124670499
 20
89.69924368852095
 30
0.0
 10
151.2083078157218
 20
89.28564395996672
 30
0.0
 10
151.4378884143464
 20
88.45848088784821
 30
0.0
 10
151.7191227758798
 20
87.19760565636534
 30
0.0
 10
151.9424457332678
 20
85.9215262412986
 30
0.0
 10
152.1138063830491
 20
84.47969313512742
 30
0.0
 10
152.188752916705
 20
82.87596438022159
 30
0.0
 10
152.1241613284709
 20
81.10332203757233
 30
0.0
 10
151.9066709724035
 20
79.32745228873414
 30
0.0
 10
151.5643804718303
 20
77.56473294881954
 30
0.0
 10
151.2496465034111
 20
76.41379666110186
 30
0.0
 10
151.0935124670499
 20
75.84283722796994
 30
0.0
  0
LINE
  5
B0
330
1F
100
AcDbEntity
  8
0
  6
Continuous
 62
     7
370
    25
100
AcDbLine
 10
151.093512467
 20
75.842837228
 30
0.0
 11
146.4436214003
 21
75.842837228
 31
0.0
  0
LINE
  5
B1
330
1F
100
AcDbEntity
  8
0
  6
Continuous
 62
     7
370
    25
100
AcDbLine
 10
146.3096468041
 20
76.9064353105
 30
0.0
 11
146.4436214003
 21
75.842837228
 31
0.0
  0
LINE
  5
B2
330
1F
100
AcDbEntity
  8
0
  6
Continuous
 62
     7
370
    25
100
AcDbLine
 10
146.3096468041
 20
76.9064353105
 30
0.0
 11
146.1756722079
 21
75.842837228
 31
0.0
  0
LINE
  5
B3
330
1F
100
AcDbEntity
  8
0
  6
Continuous
 62
     7
370
    25
100
AcDbLine
 10
146.1756722079
 20
75.842837228
 30
0.0
 11
141.5257811411
 21
75.842837228
 31
0.0
  0
SPLINE
  5
B4
330
1F
100
AcDbEntity
  8
0
  6
Continuous
 62
     7
370
    25
100
AcDbSpline
210
0.0
220
0.0
230
1.0
 70
     8
 71
     3
 72
    16
 73
    12
 74
     0
 42
0.000000001
 43
0.00000001
 40
0.0
 40
0.0
 40
0.0
 40
0.0
 40
0.0915356978782496
 40
0.183063343223533
 40
0.2753996771146608
 40
0.3677267146962475
 40
0.4925705318074075
 40
0.6174129202940689
 40
0.7455832490327831
 40
0.8737882839722002
 40
1.0
 40
1.0
 40
1.0
 40
1.0
 10
141.5257811410937
 20
89.69924368852095
 30
0.0
 10
141.4109857924217
 20
89.28564395996672
 30
0.0
 10
141.1814051937971
 20
88.45848088784821
 30
0.0
 10
140.9001708322637
 20
87.19760565636534
 30
0.0
 10
140.6768478748757
 20
85.9215262412986
 30
0.0
 10
140.5054872250944
 20
84.47969313512742
 30
0.0
 10
140.4305406914385
 20
82.87596438022159
 30
0.0
 10
140.4951322796726
 20
81.10332203757233
 30
0.0
 10
140.7126226357399
 20
79.32745228873414
 30
0.0
 10
141.0549131363132
 20
77.56473294881954
 30
0.0
 10
141.3696471047324
 20
76.41379666110186
 30
0.0
 10
141.5257811410937
 20
75.84283722796994
 30
0.0
  0
LINE
  5
B5
330
1F
100
AcDbEntity
  8
0
  6
Continuous
 62
     7
370
    25
100
AcDbLine
 10
146.1756722079
 20
89.6992436885
 30
0.0
 11
141.5257811411
 21
89.6992436885
 31
0.0
  0
LINE
  5
B6
330
1F
100
AcDbEntity
  8
0
  6
Continuous
 62
     7
370
    25
100
AcDbLine
 10
146.1756722079
 20
89.6992436885
 30
0.0
 11
146.3096468041
 21
88.635645606
 31
0.0
  0
LINE
  5
B7
330
1F
100
AcDbEntity
  8
0
  6
Continuous
 62
     7
370
    25
100
AcDbLine
 10
146.4436214003
 20
96.6274469188
 30
0.0
 11
146.3096468041
 21
96.0956478776
 31
0.0
  0
LINE
  5
B8
330
1F
100
AcDbEntity
  8
0
  6
Continuous
 62
     7
370
    25
100
AcDbLine
 10
151.093512467
 20
96.6274469188
 30
0.0
 11
146.4436214003
 21
96.6274469188
 31
0.0
  0
SPLINE
  5
B9
330
1F
100
AcDbEntity
  8
0
  6
Continuous
 62
     7
370
    25
100
AcDbSpline
210
0.0
220
0.0
230
1.0
 70
     8
 71
     3
 72
    15
 73
    11
 74
     0
 42
0.000000001
 43
0.00000001
 40
0.0
 40
0.0
 40
0.0
 40
0.0
 40
0.1323065044264403
 40
0.2645755999739297
 40
0.3998036789671094
 40
0.5350073556765895
 40
0.6501969475405023
 40
0.7654045076453768
 40
0.882690914416897
 40
1.0
 40
1.0
 40
1.0
 40
1.0
 10
151.0935124670499
 20
96.62744691879647
 30
0.0
 10
151.2566715489676
 20
96.32811809602586
 30
0.0
 10
151.5829435805409
 20
95.72954508393292
 30
0.0
 10
151.9339982835608
 20
94.80779530714014
 30
0.0
 10
152.1450750690899
 20
93.86867019338956
 30
0.0
 10
152.1868723793755
 20
92.96356929534637
 30
0.0
 10
152.0784137466748
 20
92.10737259056181
 30
0.0
 10
151.8561878376139
 20
91.29934008175232
 30
0.0
 10
151.5302100643276
 20
90.49496101264239
 30
0.0
 10
151.2390877139341
 20
89.96449989013773
 30
0.0
 10
151.0935124670499
 20
89.69924368852095
 30
0.0
  0
LINE
  5
BA
330
1F
100
AcDbEntity
  8
0
  6
Continuous
 62
     7
370
    25
100
AcDbLine
 10
146.3096468041
 20
90.2310427298
 30
0.0
 11
146.4436214003
 21
89.6992436885
 31
0.0
  0
LINE
  5
BB
330
1F
100
AcDbEntity
  8
0
  6
Continuous
 62
     7
370
    25
100
AcDbLine
 10
146.3096468041
 20
90.2310427298
 30
0.0
 11
146.1756722079
 21
89.6992436885
 31
0.0
  0
SPLINE
  5
BC
330
1F
100
AcDbEntity
  8
0
  6
Continuous
 62
     7
370
    25
100
AcDbSpline
210
0.0
220
0.0
230
1.0
 70
     8
 71
     3
 72
    15
 73
    11
 74
     0
 42
0.000000001
 43
0.00000001
 40
0.0
 40
0.0
 40
0.0
 40
0.0
 40
0.1323065044264403
 40
0.2645755999739298
 40
0.3998036789671094
 40
0.5350073556765895
 40
0.6501969475405023
 40
0.7654045076453768
 40
0.882690914416897
 40
1.0
 40
1.0
 40
1.0
 40
1.0
 10
141.5257811410937
 20
96.62744691879647
 30
0.0
 10
141.3626220591759
 20
96.32811809602586
 30
0.0
 10
141.0363500276026
 20
95.72954508393292
 30
0.0
 10
140.6852953245827
 20
94.80779530714014
 30
0.0
 10
140.4742185390536
 20
93.86867019338958
 30
0.0
 10
140.432421228768
 20
92.96356929534637
 30
0.0
 10
140.5408798614688
 20
92.10737259056181
 30
0.0
 10
140.7631057705296
 20
91.29934008175232
 30
0.0
 10
141.0890835438159
 20
90.49496101264239
 30
0.0
 10
141.3802058942094
 20
89.96449989013773
 30
0.0
 10
141.5257811410937
 20
89.69924368852095
 30
0.0
  0
LINE
  5
BD
330
1F
100
AcDbEntity
  8
0
  6
Continuous
 62
     7
370
    25
100
AcDbLine
 10
146.1756722079
 20
96.6274469188
 30
0.0
 11
141.5257811411
 21
96.6274469188
 31
0.0
  0
LINE
  5
BE
330
1F
100
AcDbEntity
  8
0
  6
Continuous
 62
     7
370
    25
100
AcDbLine
 10
146.1756722079
 20
96.6274469188
 30
0.0
 11
146.3096468041
 21
96.0956478776
 31
0.0
  0
LINE
  5
BF
330
1F
100
AcDbEntity
  8
0
  6
Continuous
 62
     7
370
    25
100
AcDbLine
 10
146.3096468041
 20
90.2310427298
 30
0.0
 11
146.3096468041
 21
88.635645606
 31
0.0
  0
SPLINE
  5
C0
330
1F
100
AcDbEntity
  8
0
  6
Continuous
 62
     7
370
    25
100
AcDbSpline
210
0.0
220
0.0
230
1.0
 70
     8
 71
     3
 72
    15
 73
    11
 74
     0
 42
0.000000001
 43
0.00000001
 40
0.0
 40
0.0
 40
0.0
 40
0.0
 40
0.1323065044264403
 40
0.2645755999739298
 40
0.3998036789671094
 40
0.5350073556765895
 40
0.6501969475405022
 40
0.7654045076453765
 40
0.8826909144168967
 40
1.0
 40
1.0
 40
1.0
 40
1.0
 10
141.5257811410937
 20
75.84283722796994
 30
0.0
 10
141.3626220591759
 20
75.54350840519933
 30
0.0
 10
141.0363500276026
 20
74.94493539310639
 30
0.0
 10
140.6852953245827
 20
74.02318561631358
 30
0.0
 10
140.4742185390536
 20
73.08406050256303
 30
0.0
 10
140.432421228768
 20
72.17895960451983
 30
0.0
 10
140.5408798614688
 20
71.3227628997353
 30
0.0
 10
140.7631057705296
 20
70.51473039092579
 30
0.0
 10
141.0890835438159
 20
69.71035132181585
 30
0.0
 10
141.3802058942094
 20
69.1798901993112
 30
0.0
 10
141.5257811410937
 20
68.91463399769441
 30
0.0
  0
LINE
  5
C1
330
1F
100
AcDbEntity
  8
0
  6
Continuous
 62
     7
370
    25
100
AcDbLine
 10
140.3096468041
 20
94.5210404582
 30
0.0
 11
140.3096468041
 21
71.0210404582
 31
0.0
  0
SPLINE
  5
C2
330
1F
100
AcDbEntity
  8
0
  6
Continuous
 62
     7
370
    25
100
AcDbSpline
210
0.0
220
0.0
230
1.0
 70
     8
 71
     3
 72
    15
 73
    11
 74
     0
 42
0.000000001
 43
0.00000001
 40
0.0
 40
0.0
 40
0.0
 40
0.0
 40
0.1323065044264403
 40
0.2645755999739298
 40
0.3998036789671094
 40
0.5350073556765895
 40
0.6501969475405022
 40
0.7654045076453765
 40
0.8826909144168967
 40
1.0
 40
1.0
 40
1.0
 40
1.0
 10
151.0935124670499
 20
75.84283722796994
 30
0.0
 10
151.2566715489676
 20
75.54350840519933
 30
0.0
 10
151.5829435805409
 20
74.94493539310639
 30
0.0
 10
151.9339982835608
 20
74.0231856163136
 30
0.0
 10
152.1450750690899
 20
73.08406050256303
 30
0.0
 10
152.1868723793755
 20
72.17895960451983
 30
0.0
 10
152.0784137466748
 20
71.3227628997353
 30
0.0
 10
151.8561878376139
 20
70.51473039092579
 30
0.0
 10
151.5302100643276
 20
69.71035132181585
 30
0.0
 10
151.2390877139341
 20
69.1798901993112
 30
0.0
 10
151.0935124670499
 20
68.91463399769442
 30
0.0
  0
LINE
  5
C3
330
1F
100
AcDbEntity
  8
0
  6
Continuous
 62
     7
370
    25
100
AcDbLine
 10
152.3096468041
 20
94.5210404582
 30
0.0
 11
152.3096468041
 21
71.0210404582
 31
0.0
  0
LINE
  5
C4
330
1F
100
AcDbEntity
  8
0
  6
Continuous
 62
     7
370
    25
100
AcDbLine
 10
146.4436214003
 20
75.842837228
 30
0.0
 11
146.3096468041
 21
75.3110381867
 31
0.0
  0
LINE
  5
C5
330
1F
100
AcDbEntity
  8
0
  6
Continuous
 62
     7
370
    25
100
AcDbLine
 10
151.093512467
 20
68.9146339977
 30
0.0
 11
146.4436214003
 21
68.9146339977
 31
0.0
  0
LINE
  5
C6
330
1F
100
AcDbEntity
  8
0
  6
Continuous
 62
     7
370
    25
100
AcDbLine
 10
146.3096468041
 20
69.4464330389
 30
0.0
 11
146.4436214003
 21
68.9146339977
 31
0.0
  0
LINE
  5
C7
330
1F
100
AcDbEntity
  8
0
  6
Continuous
 62
     7
370
    25
100
AcDbLine
 10
146.3096468041
 20
69.4464330389
 30
0.0
 11
146.1756722079
 21
68.9146339977
 31
0.0
  0
LINE
  5
C8
330
1F
100
AcDbEntity
  8
0
  6
Continuous
 62
     7
370
    25
100
AcDbLine
 10
146.1756722079
 20
68.9146339977
 30
0.0
 11
141.5257811411
 21
68.9146339977
 31
0.0
  0
LINE
  5
C9
330
1F
100
AcDbEntity
  8
0
  6
Continuous
 62
     7
370
    25
100
AcDbLine
 10
146.1756722079
 20
75.842837228
 30
0.0
 11
146.3096468041
 21
75.3110381867
 31
0.0
  0
LINE
  5
CA
330
1F
100
AcDbEntity
  8
0
  6
Continuous
 62
     7
370
    25
100
AcDbLine
 10
146.3096468041
 20
76.9064353105
 30
0.0
 11
146.3096468041
 21
75.3110381867
 31
0.0
  0
LINE
  5
CB
330
1F
100
AcDbEntity
  8
0
  6
Continuous
 62
     7
370
    25
100
AcDbLine
 10
154.3096468041
 20
94.0210404582
 30
0.0
 11
154.3096468041
 21
71.5210404582
 31
0.0
  0
LINE
  5
CC
330
1F
100
AcDbEntity
  8
0
  6
Continuous
 62
     7
370
    25
100
AcDbLine
 10
153.8096468041
 20
71.0210404582
 30
0.0
 11
153.8096468041
 21
94.5210404582
 31
0.0
  0
LINE
  5
CD
330
1F
100
AcDbEntity
  8
0
  6
Continuous
 62
     7
370
    25
100
AcDbLine
 10
138.8096468041
 20
82.7710404582
 30
0.0
 11
138.8096468041
 21
71.0210404582
 31
0.0
  0
LINE
  5
CE
330
1F
100
AcDbEntity
  8
0
  6
Continuous
 62
     7
370
    25
100
AcDbLine
 10
138.8096468041
 20
94.5210404582
 30
0.0
 11
138.8096468041
 21
82.7710404582
 31
0.0
  0
LINE
  5
CF
330
1F
100
AcDbEntity
  8
0
  6
Continuous
 62
     7
370
    25
100
AcDbLine
 10
138.3096468041
 20
82.7710404582
 30
0.0
 11
138.3096468041
 21
94.0210404582
 31
0.0
  0
LINE
  5
D0
330
1F
100
AcDbEntity
  8
0
  6
Continuous
 62
     7
370
    25
100
AcDbLine
 10
138.3096468041
 20
71.5210404582
 30
0.0
 11
138.3096468041
 21
82.7710404582
 31
0.0
  0
LINE
  5
D1
330
1F
100
AcDbEntity
  8
0
  6
Continuous
 62
     7
370
    25
100
AcDbLine
 10
146.3096468041
 20
96.1274469188
 30
0.0
 11
146.3096468041
 21
96.0956478776
 31
0.0
  0
LINE
  5
D2
330
1F
100
AcDbEntity
  8
0
  6
Continuous
 62
     7
370
    25
100
AcDbLine
 10
146.3096468041
 20
69.4464330389
 30
0.0
 11
146.3096468041
 21
69.4146339977
 31
0.0
  0
LINE
  5
D3
330
1F
100
AcDbEntity
  8
0
  6
Continuous
 62
     7
370
    25
100
AcDbLine
 10
124.9077230154
 20
67.1825831901
 30
0.0
 11
128.1522837911
 21
67.1825831901
 31
0.0
  0
LINE
  5
D4
330
1F
100
AcDbEntity
  8
0
  6
Continuous
 62
     7
370
    25
100
AcDbLine
 10
124.9077230154
 20
67.1825831901
 30
0.0
 11
124.9077230154
 21
74.9768118242
 31
0.0
  0
LINE
  5
D5
330
1F
100
AcDbEntity
  8
0
  6
Continuous
 62
     7
370
    25
100
AcDbLine
 10
124.9077230154
 20
74.9768118242
 30
0.0
 11
128.1522837911
 21
74.9768118242
 31
0.0
  0
SPLINE
  5
D6
330
1F
100
AcDbEntity
  8
0
  6
Continuous
 62
     7
370
    25
100
AcDbSpline
210
0.0
220
0.0
230
1.0
 70
     8
 71
     3
 72
     8
 73
     4
 74
     0
 42
0.000000001
 43
0.00000001
 40
0.0
 40
0.0
 40
0.0
 40
0.0
 40
1.0
 40
1.0
 40
1.0
 40
1.0
 10
128.2326685488063
 20
74.66741703490332
 30
0.0
 10
128.2067114851619
 20
74.77061907854824
 30
0.0
 10
128.1798993310674
 20
74.87374922586281
 30
0.0
 10
128.152283791077
 20
74.97681182418563
 30
0.0
  0
SPLINE
  5
D7
330
1F
100
AcDbEntity
  8
0
  6
Continuous
 62
     7
370
    25
100
AcDbSpline
210
0.0
220
0.0
230
1.0
 70
     8
 71
     3
 72
     8
 73
     4
 74
     0
 42
0.000000001
 43
0.00000001
 40
0.0
 40
0.0
 40
0.0
 40
0.0
 40
1.0
 40
1.0
 40
1.0
 40
1.0
 10
128.3130533065357
 20
74.97681182418565
 30
0.0
 10
128.2854302504418
 20
74.87372117538317
 30
0.0
 10
128.2586184033245
 20
74.77059041596263
 30
0.0
 10
128.2326685488063
 20
74.66741703490334
 30
0.0
  0
LINE
  5
D8
330
1F
100
AcDbEntity
  8
0
  6
Continuous
 62
     7
370
    25
100
AcDbLine
 10
128.3130533065
 20
74.9768118242
 30
0.0
 11
131.5576140822
 21
74.9768118242
 31
0.0
  0
SPLINE
  5
D9
330
1F
100
AcDbEntity
  8
0
  6
Continuous
 62
     7
370
    25
100
AcDbSpline
210
0.0
220
0.0
230
1.0
 70
     8
 71
     3
 72
    16
 73
    12
 74
     0
 42
0.000000001
 43
0.00000001
 40
0.0
 40
0.0
 40
0.0
 40
0.0
 40
0.2500000000000001
 40
0.2500000000000001
 40
0.5000000000000002
 40
0.5000000000000002
 40
0.6250000000000001
 40
0.6250000000000001
 40
0.7500000000000001
 40
0.7500000000000001
 40
1.0
 40
1.0
 40
1.0
 40
1.0
 10
131.5576140821879
 20
74.97681182418566
 30
0.0
 10
131.9249964448739
 20
74.34048690620878
 30
0.0
 10
132.2277860052681
 20
73.69952275525613
 30
0.0
 10
132.6472478135734
 20
72.40422699532449
 30
0.0
 10
132.762536439028
 20
71.74979601076963
 30
0.0
 10
132.7638028358919
 20
70.75581997009945
 30
0.0
 10
132.7356192788028
 20
70.42293524349486
 30
0.0
 10
132.6257181097609
 20
69.7644542099346
 30
0.0
 10
132.5441120476879
 20
69.43742133365583
 30
0.0
 10
132.2289934527971
 20
68.46214507394221
 30
0.0
 10
131.9254544364609
 20
67.81970137280088
 30
0.0
 10
131.5576140821877
 20
67.18258319012554
 30
0.0
  0
LINE
  5
DA
330
1F
100
AcDbEntity
  8
0
  6
Continuous
 62
     7
370
    25
100
AcDbLine
 10
128.3130533065
 20
67.1825831901
 30
0.0
 11
131.5576140822
 21
67.1825831901
 31
0.0
  0
SPLINE
  5
DB
330
1F
100
AcDbEntity
  8
0
  6
Continuous
 62
     7
370
    25
100
AcDbSpline
210
0.0
220
0.0
230
1.0
 70
     8
 71
     3
 72
     8
 73
     4
 74
     0
 42
0.000000001
 43
0.00000001
 40
0.0
 40
0.0
 40
0.0
 40
0.0
 40
1.0
 40
1.0
 40
1.0
 40
1.0
 10
128.2326685488063
 20
67.49197797940785
 30
0.0
 10
128.2586256124508
 20
67.38877593576295
 30
0.0
 10
128.2854377665452
 20
67.28564578844838
 30
0.0
 10
128.3130533065357
 20
67.18258319012556
 30
0.0
  0
SPLINE
  5
DC
330
1F
100
AcDbEntity
  8
0
  6
Continuous
 62
     7
370
    25
100
AcDbSpline
210
0.0
220
0.0
230
1.0
 70
     8
 71
     3
 72
     8
 73
     4
 74
     0
 42
0.000000001
 43
0.00000001
 40
0.0
 40
0.0
 40
0.0
 40
0.0
 40
1.0
 40
1.0
 40
1.0
 40
1.0
 10
128.152283791077
 20
67.18258319012556
 30
0.0
 10
128.1799068471708
 20
67.28567383892802
 30
0.0
 10
128.2067186942881
 20
67.38880459834856
 30
0.0
 10
128.2326685488063
 20
67.49197797940785
 30
0.0
  0
SPLINE
  5
DD
330
1F
100
AcDbEntity
  8
0
  6
Continuous
 62
     7
370
    25
100
AcDbSpline
210
0.0
220
0.0
230
1.0
 70
     8
 71
     3
 72
     8
 73
     4
 74
     0
 42
0.000000001
 43
0.00000001
 40
0.0
 40
0.0
 40
0.0
 40
0.0
 40
1.0
 40
1.0
 40
1.0
 40
1.0
 10
128.152283791077
 20
74.97681182418563
 30
0.0
 10
128.1799079498794
 20
75.18300135251954
 30
0.0
 10
128.2067197512925
 20
75.3892630456667
 30
0.0
 10
128.2326685488063
 20
75.59560140275022
 30
0.0
  0
LINE
  5
DE
330
1F
100
AcDbEntity
  8
0
  6
Continuous
 62
     7
370
    25
100
AcDbLine
 10
128.2326685488
 20
74.6674170349
 30
0.0
 11
128.2326685488
 21
75.5956014028
 31
0.0
  0
SPLINE
  5
DF
330
1F
100
AcDbEntity
  8
0
  6
Continuous
 62
     7
370
    25
100
AcDbSpline
210
0.0
220
0.0
230
1.0
 70
     8
 71
     3
 72
     8
 73
     4
 74
     0
 42
0.000000001
 43
0.00000001
 40
0.0
 40
0.0
 40
0.0
 40
0.0
 40
1.0
 40
1.0
 40
1.0
 40
1.0
 10
128.2326685488063
 20
89.94647951374098
 30
0.0
 10
128.2067118560759
 20
90.15288065161556
 30
0.0
 10
128.1798997175739
 20
90.3591410107364
 30
0.0
 10
128.152283791077
 20
90.56526909230557
 30
0.0
  0
SPLINE
  5
E0
330
1F
100
AcDbEntity
  8
0
  6
Continuous
 62
     7
370
    25
100
AcDbSpline
210
0.0
220
0.0
230
1.0
 70
     8
 71
     3
 72
     8
 73
     4
 74
     0
 42
0.000000001
 43
0.00000001
 40
0.0
 40
0.0
 40
0.0
 40
0.0
 40
1.0
 40
1.0
 40
1.0
 40
1.0
 10
128.152283791077
 20
90.56526909230557
 30
0.0
 10
128.1799068471708
 20
90.66835974110802
 30
0.0
 10
128.2067186942881
 20
90.77149050052857
 30
0.0
 10
128.2326685488063
 20
90.87466388158786
 30
0.0
  0
LINE
  5
E1
330
1F
100
AcDbEntity
  8
0
  6
Continuous
 62
     7
370
    25
100
AcDbLine
 10
128.2326685488
 20
89.9464795137
 30
0.0
 11
128.2326685488
 21
90.8746638816
 31
0.0
  0
SPLINE
  5
E2
330
1F
100
AcDbEntity
  8
0
  6
Continuous
 62
     7
370
    25
100
AcDbSpline
210
0.0
220
0.0
230
1.0
 70
     8
 71
     3
 72
     8
 73
     4
 74
     0
 42
0.000000001
 43
0.00000001
 40
0.0
 40
0.0
 40
0.0
 40
0.0
 40
1.0
 40
1.0
 40
1.0
 40
1.0
 10
128.3130533065357
 20
90.56526909230556
 30
0.0
 10
128.2854291477333
 20
90.35907956397166
 30
0.0
 10
128.2586173463201
 20
90.15281787082452
 30
0.0
 10
128.2326685488063
 20
89.94647951374098
 30
0.0
  0
SPLINE
  5
E3
330
1F
100
AcDbEntity
  8
0
  6
Continuous
 62
     7
370
    25
100
AcDbSpline
210
0.0
220
0.0
230
1.0
 70
     8
 71
     3
 72
     8
 73
     4
 74
     0
 42
0.000000001
 43
0.00000001
 40
0.0
 40
0.0
 40
0.0
 40
0.0
 40
1.0
 40
1.0
 40
1.0
 40
1.0
 10
128.2326685488063
 20
90.87466388158786
 30
0.0
 10
128.2586256124508
 20
90.77146183794298
 30
0.0
 10
128.2854377665452
 20
90.66833169062839
 30
0.0
 10
128.3130533065357
 20
90.56526909230557
 30
0.0
  0
SPLINE
  5
E4
330
1F
100
AcDbEntity
  8
0
  6
Continuous
 62
     7
370
    25
100
AcDbSpline
210
0.0
220
0.0
230
1.0
 70
     8
 71
     3
 72
    16
 73
    12
 74
     0
 42
0.000000001
 43
0.00000001
 40
0.0
 40
0.0
 40
0.0
 40
0.0
 40
0.2500000000000001
 40
0.2500000000000001
 40
0.5000000000000001
 40
0.5000000000000001
 40
0.6250000000000001
 40
0.6250000000000001
 40
0.7500000000000001
 40
0.7500000000000001
 40
1.0
 40
1.0
 40
1.0
 40
1.0
 10
131.5576140821876
 20
74.97681182418562
 30
0.0
 10
131.9238267849273
 20
76.24540983923002
 30
0.0
 10
132.2307415852382
 20
77.54402492787781
 30
0.0
 10
132.6503049513356
 20
80.1465619031968
 30
0.0
 10
132.7635290826578
 20
81.4555466608344
 30
0.0
 10
132.7633134221954
 20
83.43261326822153
 30
0.0
 10
132.7352312368985
 20
84.09387387691258
 30
0.0
 10
132.6237109424935
 20
85.42081879027057
 30
0.0
 10
132.5410791823381
 20
86.07771159698993
 30
0.0
 10
132.2241948004102
 20
88.02898161908563
 30
0.0
 10
131.9213410758088
 20
89.30528182623326
 30
0.0
 10
131.5576140821876
 20
90.56526909230557
 30
0.0
  0
SPLINE
  5
E5
330
1F
100
AcDbEntity
  8
0
  6
Continuous
 62
     7
370
    25
100
AcDbSpline
210
0.0
220
0.0
230
1.0
 70
     8
 71
     3
 72
    16
 73
    12
 74
     0
 42
0.000000001
 43
0.00000001
 40
0.0
 40
0.0
 40
0.0
 40
0.0
 40
0.2500000000000001
 40
0.2500000000000001
 40
0.5000000000000001
 40
0.5000000000000001
 40
0.6250000000000001
 40
0.6250000000000001
 40
0.7500000000000002
 40
0.7500000000000002
 40
1.0
 40
1.0
 40
1.0
 40
1.0
 10
131.5576140821879
 20
98.35949772636539
 30
0.0
 10
131.9249964448738
 20
97.72317280838855
 30
0.0
 10
132.227786005268
 20
97.0822086574359
 30
0.0
 10
132.6472478135733
 20
95.78691289750431
 30
0.0
 10
132.7625364390279
 20
95.13248191294947
 30
0.0
 10
132.7638028358919
 20
94.13850587227934
 30
0.0
 10
132.7356192788028
 20
93.80562114567476
 30
0.0
 10
132.6257181097608
 20
93.14714011211451
 30
0.0
 10
132.5441120476879
 20
92.82010723583578
 30
0.0
 10
132.2289934527971
 20
91.84483097612218
 30
0.0
 10
131.9254544364609
 20
91.20238727498088
 30
0.0
 10
131.5576140821877
 20
90.56526909230556
 30
0.0
  0
LINE
  5
E6
330
1F
100
AcDbEntity
  8
0
  6
Continuous
 62
     7
370
    25
100
AcDbLine
 10
132.9077230154
 20
96.0210404582
 30
0.0
 11
132.9077230154
 21
69.5210404582
 31
0.0
  0
SPLINE
  5
E7
330
1F
100
AcDbEntity
  8
0
  6
Continuous
 62
     7
370
    25
100
AcDbSpline
210
0.0
220
0.0
230
1.0
 70
     8
 71
     3
 72
     8
 73
     4
 74
     0
 42
0.000000001
 43
0.00000001
 40
0.0
 40
0.0
 40
0.0
 40
0.0
 40
1.0
 40
1.0
 40
1.0
 40
1.0
 10
128.2326685488063
 20
75.59560140275022
 30
0.0
 10
128.2586252415368
 20
75.38920026487564
 30
0.0
 10
128.2854373800388
 20
75.18293990575481
 30
0.0
 10
128.3130533065357
 20
74.97681182418563
 30
0.0
  0
LINE
  5
E8
330
1F
100
AcDbEntity
  8
0
  6
Continuous
 62
     7
370
    25
100
AcDbLine
 10
124.9077230154
 20
90.5652690923
 30
0.0
 11
128.1522837911
 21
90.5652690923
 31
0.0
  0
LINE
  5
E9
330
1F
100
AcDbEntity
  8
0
  6
Continuous
 62
     7
370
    25
100
AcDbLine
 10
128.3130533065
 20
90.5652690923
 30
0.0
 11
131.5576140822
 21
90.5652690923
 31
0.0
  0
LINE
  5
EA
330
1F
100
AcDbEntity
  8
0
  6
Continuous
 62
     7
370
    25
100
AcDbLine
 10
124.9077230154
 20
74.9768118242
 30
0.0
 11
124.9077230154
 21
90.5652690923
 31
0.0
  0
LINE
  5
EB
330
1F
100
AcDbEntity
  8
0
  6
Continuous
 62
     7
370
    25
100
AcDbLine
 10
124.9077230154
 20
98.3594977264
 30
0.0
 11
128.1522837911
 21
98.3594977264
 31
0.0
  0
SPLINE
  5
EC
330
1F
100
AcDbEntity
  8
0
  6
Continuous
 62
     7
370
    25
100
AcDbSpline
210
0.0
220
0.0
230
1.0
 70
     8
 71
     3
 72
     8
 73
     4
 74
     0
 42
0.000000001
 43
0.00000001
 40
0.0
 40
0.0
 40
0.0
 40
0.0
 40
1.0
 40
1.0
 40
1.0
 40
1.0
 10
128.2326685488063
 20
98.05010293708307
 30
0.0
 10
128.2067114851619
 20
98.15330498072797
 30
0.0
 10
128.1798993310674
 20
98.25643512804254
 30
0.0
 10
128.152283791077
 20
98.35949772636536
 30
0.0
  0
SPLINE
  5
ED
330
1F
100
AcDbEntity
  8
0
  6
Continuous
 62
     7
370
    25
100
AcDbSpline
210
0.0
220
0.0
230
1.0
 70
     8
 71
     3
 72
     8
 73
     4
 74
     0
 42
0.000000001
 43
0.00000001
 40
0.0
 40
0.0
 40
0.0
 40
0.0
 40
1.0
 40
1.0
 40
1.0
 40
1.0
 10
128.3130533065357
 20
98.35949772636538
 30
0.0
 10
128.2854302504418
 20
98.2564070775629
 30
0.0
 10
128.2586184033245
 20
98.15327631814236
 30
0.0
 10
128.2326685488063
 20
98.05010293708307
 30
0.0
  0
LINE
  5
EE
330
1F
100
AcDbEntity
  8
0
  6
Continuous
 62
     7
370
    25
100
AcDbLine
 10
128.3130533065
 20
98.3594977264
 30
0.0
 11
131.5576140822
 21
98.3594977264
 31
0.0
  0
LINE
  5
EF
330
1F
100
AcDbEntity
  8
0
  6
Continuous
 62
     7
370
    25
100
AcDbLine
 10
124.9077230154
 20
90.5652690923
 30
0.0
 11
124.9077230154
 21
98.3594977264
 31
0.0
  0
LINE
  5
F0
330
1F
100
AcDbEntity
  8
0
  6
Continuous
 62
     7
370
    25
100
AcDbLine
 10
111.5128993544
 20
95.7751397188
 30
0.0
 11
111.5128993544
 21
69.7669411977
 31
0.0
  0
LINE
  5
F1
330
1F
100
AcDbEntity
  8
0
  6
Continuous
 62
     7
370
    25
100
AcDbLine
 10
108.9077230154
 20
82.7710404582
 30
0.0
 11
108.9077230154
 21
94.2710404582
 31
0.0
  0
LINE
  5
F2
330
1F
100
AcDbEntity
  8
0
  6
Continuous
 62
     7
370
    25
100
AcDbLine
 10
108.9077230154
 20
71.2710404582
 30
0.0
 11
108.9077230154
 21
82.7710404582
 31
0.0
  0
LINE
  5
F3
330
1F
100
AcDbEntity
  8
0
  6
Continuous
 62
     7
370
    25
100
AcDbLine
 10
136.8077230154
 20
93.2485404582
 30
0.0
 11
136.8077230154
 21
72.2935404582
 31
0.0
  0
LINE
  5
F4
330
1F
100
AcDbEntity
  8
0
  6
Continuous
 62
     7
370
    25
100
AcDbLine
 10
135.4077230154
 20
73.6935404582
 30
0.0
 11
135.4077230154
 21
91.8485404582
 31
0.0
  0
LINE
  5
F5
330
1F
100
AcDbEntity
  8
0
  6
Continuous
 62
     7
370
    25
100
AcDbLine
 10
128.2326685488
 20
67.4825831901
 30
0.0
 11
128.2326685488
 21
67.4919779794
 31
0.0
  0
LINE
  5
F6
330
1F
100
AcDbEntity
  8
0
  6
Continuous
 62
     7
370
    25
100
AcDbLine
 10
128.2326685488
 20
98.0501029371
 30
0.0
 11
128.2326685488
 21
98.0594977264
 31
0.0
  0
LINE
  5
F7
330
1F
100
AcDbEntity
  8
0
  6
Continuous
 62
     7
370
     0
100
AcDbLine
 10
109.7813505639
 20
94.7754295585
 30
0.0
 11
124.4077230154
 21
95.2325036977
 31
0.0
  0
LINE
  5
F8
330
1F
100
AcDbEntity
  8
0
  6
Continuous
 62
     7
370
     0
100
AcDbLine
 10
109.7813505639
 20
70.7666513579
 30
0.0
 11
124.4077230154
 21
70.3095772188
 31
0.0
  0
LINE
  5
F9
330
1F
100
AcDbEntity
  8
0
  6
Continuous
 62
     7
370
     0
100
AcDbLine
 10
124.4077230154
 20
69.3639779582
 30
0.0
 11
124.4077230154
 21
96.1781029582
 31
0.0
  0
LINE
  5
FA
330
1F
100
AcDbEntity
  8
0
  6
CENTERX2
 62
     7
370
    18
100
AcDbLine
 10
187.3096468041
 20
82.7710404582
 30
0.0
 11
106.7633316179
 21
82.7710404582
 31
0.0
  0
CIRCLE
  5
FB
330
1F
100
AcDbEntity
  8
0
  6
Continuous
 62
     7
370
    25
100
AcDbCircle
 10
220.4060521194
 20
82.7710404582
 30
0.0
 40
5.199999999999974
  0
CIRCLE
  5
FC
330
1F
100
AcDbEntity
  8
0
  6
Continuous
 62
     7
370
    25
100
AcDbCircle
 10
220.4060521194
 20
82.7710404582
 30
0.0
 40
5.0
  0
CIRCLE
  5
FD
330
1F
100
AcDbEntity
  8
0
  6
Continuous
 62
     7
370
    25
100
AcDbCircle
 10
220.4060521194
 20
82.7710404582
 30
0.0
 40
5.453445510451161
  0
CIRCLE
  5
FE
330
1F
100
AcDbEntity
  8
0
  6
Continuous
 62
     7
370
    25
100
AcDbCircle
 10
220.4060521194
 20
82.7710404582
 30
0.0
 40
6.330236875589577
  0
CIRCLE
  5
FF
330
1F
100
AcDbEntity
  8
0
  6
Continuous
 62
     7
370
    25
100
AcDbCircle
 10
220.4060521194
 20
82.7710404582
 30
0.0
 40
6.999999999999986
  0
CIRCLE
  5
100
330
1F
100
AcDbEntity
  8
0
  6
Continuous
 62
     7
370
    25
100
AcDbCircle
 10
220.4060521194
 20
82.7710404582
 30
0.0
 40
8.0
  0
CIRCLE
  5
101
330
1F
100
AcDbEntity
  8
0
  6
Continuous
 62
     7
370
    25
100
AcDbCircle
 10
220.4060521194
 20
82.7710404582
 30
0.0
 40
11.25
  0
CIRCLE
  5
102
330
1F
100
AcDbEntity
  8
0
  6
Continuous
 62
     7
370
    25
100
AcDbCircle
 10
220.4060521194
 20
82.7710404582
 30
0.0
 40
11.75
  0
CIRCLE
  5
103
330
1F
100
AcDbEntity
  8
0
  6
Continuous
 62
     7
370
    25
100
AcDbCircle
 10
220.4060521194
 20
82.7710404582
 30
0.0
 40
8.349999999999994
  0
CIRCLE
  5
104
330
1F
100
AcDbEntity
  8
0
  6
Continuous
 62
     7
370
    25
100
AcDbCircle
 10
220.4060521194
 20
82.7710404582
 30
0.0
 40
8.25
  0
SPLINE
  5
105
330
1F
100
AcDbEntity
  8
0
  6
Continuous
 62
     7
370
    25
100
AcDbSpline
210
0.0
220
0.0
230
1.0
 70
    24
 71
     3
 72
    15
 73
    11
 74
     0
 42
0.000000001
 43
0.00000001
 40
0.0
 40
0.0
 40
0.0
 40
0.0
 40
0.1323065044264401
 40
0.2645755999739294
 40
0.3998036789671088
 40
0.535007355676589
 40
0.6501969475405016
 40
0.7654045076453762
 40
0.8826909144168965
 40
1.0
 40
1.0
 40
1.0
 40
1.0
 10
232.406052119406
 20
89.69924368852095
 30
0.0
 10
231.8875993901975
 20
89.99857251129156
 30
0.0
 10
230.850840521213
 20
90.5971455233845
 30
0.0
 10
229.2543230759426
 20
91.51889530017728
 30
0.0
 10
227.6277106642627
 20
92.45802041392784
 30
0.0
 10
226.0600299228757
 20
93.36312131197104
 30
0.0
 10
224.5770537289158
 20
94.2193180167556
 30
0.0
 10
223.1775003694904
 20
95.02735052556508
 30
0.0
 10
221.784274953247
 20
95.83172959467502
 30
0.0
 10
220.865489337629
 20
96.36219071717967
 30
0.0
 10
220.406052119406
 20
96.62744691879647
 30
0.0
  0
SPLINE
  5
106
330
1F
100
AcDbEntity
  8
0
  6
Continuous
 62
     7
370
    25
100
AcDbSpline
210
0.0
220
0.0
230
1.0
 70
    24
 71
     3
 72
    16
 73
    12
 74
     0
 42
0.000000001
 43
0.00000001
 40
0.0
 40
0.0
 40
0.0
 40
0.0
 40
0.1262118512103691
 40
0.251202065376351
 40
0.3761607760521393
 40
0.5042162939840996
 40
0.6322727081776326
 40
0.7237405332378762
 40
0.8152173057580782
 40
0.9076044663789503
 40
1.0
 40
1.0
 40
1.0
 40
1.0
 10
232.406052119406
 20
75.84283722796994
 30
0.0
 10
232.406052119406
 20
76.41379453854229
 30
0.0
 10
232.406052119406
 20
77.55018271668922
 30
0.0
 10
232.406052119406
 20
79.28292618287385
 30
0.0
 10
232.406052119406
 20
81.04307157585191
 30
0.0
 10
232.406052119406
 20
82.83068244718558
 30
0.0
 10
232.406052119406
 20
84.46070468661985
 30
0.0
 10
232.406052119406
 20
85.90952223218
 30
0.0
 10
232.406052119406
 20
87.18178547052848
 30
0.0
 10
232.406052119406
 20
88.44679215570066
 30
0.0
 10
232.406052119406
 20
89.28174723289514
 30
0.0
 10
232.406052119406
 20
89.69924368852095
 30
0.0
  0
SPLINE
  5
107
330
1F
100
AcDbEntity
  8
0
  6
Continuous
 62
     7
370
    25
100
AcDbSpline
210
0.0
220
0.0
230
1.0
 70
    24
 71
     3
 72
    15
 73
    11
 74
     0
 42
0.000000001
 43
0.00000001
 40
0.0
 40
0.0
 40
0.0
 40
0.0
 40
0.1323065044264402
 40
0.2645755999739296
 40
0.3998036789671092
 40
0.5350073556765893
 40
0.6501969475405021
 40
0.7654045076453765
 40
0.8826909144168966
 40
1.0
 40
1.0
 40
1.0
 40
1.0
 10
220.406052119406
 20
68.91463399769442
 30
0.0
 10
220.9245048486144
 20
69.21396282046503
 30
0.0
 10
221.9612637175989
 20
69.81253583255796
 30
0.0
 10
223.5577811628693
 20
70.73428560935076
 30
0.0
 10
225.1843935745492
 20
71.67341072310133
 30
0.0
 10
226.7520743159362
 20
72.57851162114451
 30
0.0
 10
228.2350505098961
 20
73.43470832592907
 30
0.0
 10
229.6346038693215
 20
74.24274083473856
 30
0.0
 10
231.0278292855649
 20
75.04711990384851
 30
0.0
 10
231.946614901183
 20
75.57758102635314
 30
0.0
 10
232.406052119406
 20
75.84283722796994
 30
0.0
  0
SPLINE
  5
108
330
1F
100
AcDbEntity
  8
0
  6
Continuous
 62
     7
370
    25
100
AcDbSpline
210
0.0
220
0.0
230
1.0
 70
    24
 71
     3
 72
    15
 73
    11
 74
     0
 42
0.000000001
 43
0.00000001
 40
0.0
 40
0.0
 40
0.0
 40
0.0
 40
0.1323065044264404
 40
0.2645755999739299
 40
0.3998036789671094
 40
0.5350073556765895
 40
0.6501969475405022
 40
0.7654045076453765
 40
0.8826909144168967
 40
1.0
 40
1.0
 40
1.0
 40
1.0
 10
208.406052119406
 20
75.84283722796994
 30
0.0
 10
208.9245048486144
 20
75.54350840519933
 30
0.0
 10
209.9612637175989
 20
74.94493539310639
 30
0.0
 10
211.5577811628693
 20
74.02318561631358
 30
0.0
 10
213.1843935745492
 20
73.08406050256303
 30
0.0
 10
214.7520743159362
 20
72.17895960451983
 30
0.0
 10
216.2350505098961
 20
71.3227628997353
 30
0.0
 10
217.6346038693215
 20
70.51473039092579
 30
0.0
 10
219.0278292855649
 20
69.71035132181585
 30
0.0
 10
219.946614901183
 20
69.1798901993112
 30
0.0
 10
220.406052119406
 20
68.91463399769442
 30
0.0
  0
SPLINE
  5
109
330
1F
100
AcDbEntity
  8
0
  6
Continuous
 62
     7
370
    25
100
AcDbSpline
210
0.0
220
0.0
230
1.0
 70
    24
 71
     3
 72
    16
 73
    12
 74
     0
 42
0.000000001
 43
0.00000001
 40
0.0
 40
0.0
 40
0.0
 40
0.0
 40
0.0915356978782496
 40
0.183063343223533
 40
0.2753996771146608
 40
0.3677267146962475
 40
0.4925705318074075
 40
0.6174129202940689
 40
0.7455832490327831
 40
0.8737882839722001
 40
1.0
 40
1.0
 40
1.0
 40
1.0
 10
208.4060521194059
 20
89.69924368852095
 30
0.0
 10
208.4060521194059
 20
89.28564395996672
 30
0.0
 10
208.4060521194059
 20
88.45848088784821
 30
0.0
 10
208.406052119406
 20
87.19760565636534
 30
0.0
 10
208.4060521194059
 20
85.9215262412986
 30
0.0
 10
208.406052119406
 20
84.47969313512742
 30
0.0
 10
208.406052119406
 20
82.87596438022159
 30
0.0
 10
208.4060521194059
 20
81.10332203757233
 30
0.0
 10
208.406052119406
 20
79.32745228873414
 30
0.0
 10
208.406052119406
 20
77.56473294881954
 30
0.0
 10
208.406052119406
 20
76.41379666110186
 30
0.0
 10
208.406052119406
 20
75.84283722796994
 30
0.0
  0
SPLINE
  5
10A
330
1F
100
AcDbEntity
  8
0
  6
Continuous
 62
     7
370
    25
100
AcDbSpline
210
0.0
220
0.0
230
1.0
 70
    24
 71
     3
 72
    15
 73
    11
 74
     0
 42
0.000000001
 43
0.00000001
 40
0.0
 40
0.0
 40
0.0
 40
0.0
 40
0.1323065044264402
 40
0.2645755999739297
 40
0.3998036789671093
 40
0.5350073556765894
 40
0.6501969475405022
 40
0.7654045076453766
 40
0.8826909144168967
 40
1.0
 40
1.0
 40
1.0
 40
1.0
 10
220.406052119406
 20
96.62744691879647
 30
0.0
 10
219.8875993901975
 20
96.32811809602586
 30
0.0
 10
218.850840521213
 20
95.72954508393292
 30
0.0
 10
217.2543230759426
 20
94.80779530714014
 30
0.0
 10
215.6277106642627
 20
93.86867019338958
 30
0.0
 10
214.0600299228757
 20
92.96356929534637
 30
0.0
 10
212.5770537289158
 20
92.10737259056181
 30
0.0
 10
211.1775003694904
 20
91.29934008175232
 30
0.0
 10
209.784274953247
 20
90.49496101264239
 30
0.0
 10
208.865489337629
 20
89.96449989013773
 30
0.0
 10
208.4060521194059
 20
89.69924368852095
 30
0.0
  0
SPLINE
  5
10B
330
1F
100
AcDbEntity
  8
0
  6
Continuous
 62
     7
370
    25
100
AcDbSpline
210
0.0
220
0.0
230
1.0
 70
    24
 71
     3
 72
    16
 73
    12
 74
     0
 42
0.000000001
 43
0.00000001
 40
0.0
 40
0.0
 40
0.0
 40
0.0
 40
0.2499999999999999
 40
0.2499999999999999
 40
0.4999999999999998
 40
0.4999999999999998
 40
0.6249999999999998
 40
0.6249999999999998
 40
0.7499999999999999
 40
0.7499999999999999
 40
1.0
 40
1.0
 40
1.0
 40
1.0
 10
233.906052119406
 20
90.56526909230536
 30
0.0
 10
232.803905031348
 20
91.20159401028222
 30
0.0
 10
231.6937225560678
 20
91.84255816123488
 30
0.0
 10
229.4502044890377
 20
93.1378539211665
 30
0.0
 10
228.3166967737413
 20
93.79228490572135
 30
0.0
 10
226.5950797697945
 20
94.78626094639151
 30
0.0
 10
226.0185065102517
 20
95.1191456729961
 30
0.0
 10
224.8779839043048
 20
95.77762670655636
 30
0.0
 10
224.3115463468446
 20
96.10465958283511
 30
0.0
 10
222.6223183136049
 20
97.07993584254874
 30
0.0
 10
221.5095731822256
 20
97.72237954369005
 30
0.0
 10
220.406052119406
 20
98.35949772636538
 30
0.0
  0
SPLINE
  5
10C
330
1F
100
AcDbEntity
  8
0
  6
Continuous
 62
     7
370
    25
100
AcDbSpline
210
0.0
220
0.0
230
1.0
 70
    24
 71
     3
 72
    16
 73
    12
 74
     0
 42
0.000000001
 43
0.00000001
 40
0.0
 40
0.0
 40
0.0
 40
0.0
 40
0.2500000000000001
 40
0.2500000000000001
 40
0.5
 40
0.5
 40
0.625
 40
0.625
 40
0.75
 40
0.75
 40
1.0
 40
1.0
 40
1.0
 40
1.0
 10
233.9060521194059
 20
74.97681182418543
 30
0.0
 10
233.9060521194059
 20
76.24540983922982
 30
0.0
 10
233.9060521194059
 20
77.54402492787764
 30
0.0
 10
233.906052119406
 20
80.14656190319661
 30
0.0
 10
233.906052119406
 20
81.45554666083422
 30
0.0
 10
233.906052119406
 20
83.43261326822135
 30
0.0
 10
233.906052119406
 20
84.09387387691238
 30
0.0
 10
233.906052119406
 20
85.42081879027037
 30
0.0
 10
233.906052119406
 20
86.07771159698974
 30
0.0
 10
233.906052119406
 20
88.02898161908544
 30
0.0
 10
233.906052119406
 20
89.30528182623307
 30
0.0
 10
233.906052119406
 20
90.56526909230537
 30
0.0
  0
SPLINE
  5
10D
330
1F
100
AcDbEntity
  8
0
  6
Continuous
 62
     7
370
    25
100
AcDbSpline
210
0.0
220
0.0
230
1.0
 70
    24
 71
     3
 72
    16
 73
    12
 74
     0
 42
0.000000001
 43
0.00000001
 40
0.0
 40
0.0
 40
0.0
 40
0.0
 40
0.2499999999999999
 40
0.2499999999999999
 40
0.4999999999999999
 40
0.4999999999999999
 40
0.6249999999999999
 40
0.6249999999999999
 40
0.7499999999999998
 40
0.7499999999999998
 40
1.0
 40
1.0
 40
1.0
 40
1.0
 10
220.4060521194058
 20
67.18258319012553
 30
0.0
 10
221.5081992074638
 20
67.81890810810239
 30
0.0
 10
222.6183816827441
 20
68.45987225905503
 30
0.0
 10
224.8618997497742
 20
69.75516801898664
 30
0.0
 10
225.9954074650705
 20
70.40959900354149
 30
0.0
 10
227.7170244690174
 20
71.40357504421164
 30
0.0
 10
228.2935977285602
 20
71.73645977081623
 30
0.0
 10
229.434120334507
 20
72.39494080437646
 30
0.0
 10
230.0005578919672
 20
72.72197368065522
 30
0.0
 10
231.6897859252069
 20
73.69724994036882
 30
0.0
 10
232.8025310565863
 20
74.33969364151014
 30
0.0
 10
233.906052119406
 20
74.97681182418546
 30
0.0
  0
SPLINE
  5
10E
330
1F
100
AcDbEntity
  8
0
  6
Continuous
 62
     7
370
    25
100
AcDbSpline
210
0.0
220
0.0
230
1.0
 70
    24
 71
     3
 72
    16
 73
    12
 74
     0
 42
0.000000001
 43
0.00000001
 40
0.0
 40
0.0
 40
0.0
 40
0.0
 40
0.2500000000000001
 40
0.2500000000000001
 40
0.5000000000000002
 40
0.5000000000000002
 40
0.6250000000000001
 40
0.6250000000000001
 40
0.7500000000000001
 40
0.7500000000000001
 40
1.0
 40
1.0
 40
1.0
 40
1.0
 10
206.9060521194058
 20
74.97681182418566
 30
0.0
 10
208.0081992074639
 20
74.34048690620878
 30
0.0
 10
209.1183816827441
 20
73.69952275525613
 30
0.0
 10
211.3618997497742
 20
72.40422699532449
 30
0.0
 10
212.4954074650705
 20
71.74979601076963
 30
0.0
 10
214.2170244690173
 20
70.75581997009945
 30
0.0
 10
214.7935977285602
 20
70.42293524349486
 30
0.0
 10
215.934120334507
 20
69.7644542099346
 30
0.0
 10
216.5005578919672
 20
69.43742133365583
 30
0.0
 10
218.1897859252069
 20
68.46214507394221
 30
0.0
 10
219.3025310565862
 20
67.81970137280088
 30
0.0
 10
220.4060521194059
 20
67.18258319012554
 30
0.0
  0
SPLINE
  5
10F
330
1F
100
AcDbEntity
  8
0
  6
Continuous
 62
     7
370
    25
100
AcDbSpline
210
0.0
220
0.0
230
1.0
 70
    24
 71
     3
 72
    16
 73
    12
 74
     0
 42
0.000000001
 43
0.00000001
 40
0.0
 40
0.0
 40
0.0
 40
0.0
 40
0.2500000000000001
 40
0.2500000000000001
 40
0.5000000000000001
 40
0.5000000000000001
 40
0.6250000000000001
 40
0.6250000000000001
 40
0.7500000000000001
 40
0.7500000000000001
 40
1.0
 40
1.0
 40
1.0
 40
1.0
 10
206.9060521194059
 20
74.97681182418562
 30
0.0
 10
206.9060521194059
 20
76.24540983923002
 30
0.0
 10
206.9060521194059
 20
77.54402492787781
 30
0.0
 10
206.9060521194059
 20
80.1465619031968
 30
0.0
 10
206.9060521194059
 20
81.4555466608344
 30
0.0
 10
206.906052119406
 20
83.43261326822153
 30
0.0
 10
206.906052119406
 20
84.09387387691258
 30
0.0
 10
206.906052119406
 20
85.42081879027057
 30
0.0
 10
206.906052119406
 20
86.07771159698993
 30
0.0
 10
206.906052119406
 20
88.02898161908563
 30
0.0
 10
206.906052119406
 20
89.30528182623326
 30
0.0
 10
206.906052119406
 20
90.56526909230557
 30
0.0
  0
SPLINE
  5
110
330
1F
100
AcDbEntity
  8
0
  6
Continuous
 62
     7
370
    25
100
AcDbSpline
210
0.0
220
0.0
230
1.0
 70
    24
 71
     3
 72
    16
 73
    12
 74
     0
 42
0.000000001
 43
0.00000001
 40
0.0
 40
0.0
 40
0.0
 40
0.0
 40
0.2500000000000001
 40
0.2500000000000001
 40
0.5000000000000001
 40
0.5000000000000001
 40
0.6250000000000001
 40
0.6250000000000001
 40
0.7500000000000002
 40
0.7500000000000002
 40
1.0
 40
1.0
 40
1.0
 40
1.0
 10
220.406052119406
 20
98.35949772636539
 30
0.0
 10
219.303905031348
 20
97.72317280838855
 30
0.0
 10
218.1937225560677
 20
97.0822086574359
 30
0.0
 10
215.9502044890377
 20
95.78691289750431
 30
0.0
 10
214.8166967737413
 20
95.13248191294947
 30
0.0
 10
213.0950797697945
 20
94.13850587227934
 30
0.0
 10
212.5185065102517
 20
93.80562114567476
 30
0.0
 10
211.3779839043049
 20
93.14714011211451
 30
0.0
 10
210.8115463468447
 20
92.82010723583578
 30
0.0
 10
209.122318313605
 20
91.84483097612218
 30
0.0
 10
208.0095731822256
 20
91.20238727498088
 30
0.0
 10
206.906052119406
 20
90.56526909230556
 30
0.0
  0
ARC
  5
111
330
1F
100
AcDbEntity
  8
0
  6
Continuous
 62
     7
370
    25
100
AcDbCircle
 10
220.4060521194
 20
82.7710404582
 30
0.0
 40
13.25
100
AcDbArc
 50
0.0
 51
24.8852726093
  0
ARC
  5
112
330
1F
100
AcDbEntity
  8
0
  6
Continuous
 62
     7
370
    25
100
AcDbCircle
 10
220.4060521194
 20
82.7710404582
 30
0.0
 40
13.25000000000001
100
AcDbArc
 50
35.1781356802
 51
84.999578404
  0
ARC
  5
113
330
1F
100
AcDbEntity
  8
0
  6
Continuous
 62
     7
370
    25
100
AcDbCircle
 10
220.4060521194
 20
82.7710404582
 30
0.0
 40
13.25000000000001
100
AcDbArc
 50
95.1815306131
 51
145.0040923638
  0
ARC
  5
114
330
1F
100
AcDbEntity
  8
0
  6
Continuous
 62
     7
370
    25
100
AcDbCircle
 10
220.4060521194
 20
82.7710404582
 30
0.0
 40
13.25000000000001
100
AcDbArc
 50
155.1137469126
 51
204.8679858387
  0
ARC
  5
115
330
1F
100
AcDbEntity
  8
0
  6
Continuous
 62
     7
370
    25
100
AcDbCircle
 10
220.4060521194
 20
82.7710404582
 30
0.0
 40
13.25000000000001
100
AcDbArc
 50
214.9609421163
 51
264.8141385534
  0
ARC
  5
116
330
1F
100
AcDbEntity
  8
0
  6
Continuous
 62
     7
370
    25
100
AcDbCircle
 10
220.4060521194
 20
82.7710404582
 30
0.0
 40
13.25000000000001
100
AcDbArc
 50
275.0247247992
 51
324.8292533426
  0
ARC
  5
117
330
1F
100
AcDbEntity
  8
0
  6
Continuous
 62
     7
370
    25
100
AcDbCircle
 10
220.4060521194
 20
82.7710404582
 30
0.0
 40
13.25
100
AcDbArc
 50
335.130343271
 51
0.0
  0
INSERT
  5
123
330
1F
100
AcDbEntity
  8
0
  6
Continuous
 62
     7
370
    18
100
AcDbBlockReference
  2
SW_CENTERMARKSYMBOL_0
 10
220.4060521194
 20
82.7710404582
 30
0.0
  0
LINE
  5
124
330
1F
100
AcDbEntity
  8
0
  6
Continuous
 62
     7
370
    25
100
AcDbLine
 10
154.3096468041
 20
122.2417713814
 30
0.0
 11
154.8096468041
 21
122.2417713814
 31
0.0
  0
LINE
  5
125
330
1F
100
AcDbEntity
  8
0
  6
Continuous
 62
     7
370
    25
100
AcDbLine
 10
154.8096468041
 20
138.2417713814
 30
0.0
 11
154.3096468041
 21
138.2417713814
 31
0.0
  0
LINE
  5
126
330
1F
100
AcDbEntity
  8
0
  6
Continuous
 62
     7
370
    25
100
AcDbLine
 10
160.8096468041
 20
137.2417713814
 30
0.0
 11
154.8096468041
 21
137.2417713814
 31
0.0
  0
LINE
  5
127
330
1F
100
AcDbEntity
  8
0
  6
Continuous
 62
     7
370
    25
100
AcDbLine
 10
154.8096468041
 20
123.2417713814
 30
0.0
 11
160.8096468041
 21
123.2417713814
 31
0.0
  0
LINE
  5
128
330
1F
100
AcDbEntity
  8
0
  6
Continuous
 62
     7
370
    25
100
AcDbLine
 10
160.8096468041
 20
123.2417713814
 30
0.0
 11
165.3096468041
 21
123.9917713814
 31
0.0
  0
LINE
  5
129
330
1F
100
AcDbEntity
  8
0
  6
Continuous
 62
     7
370
    25
100
AcDbLine
 10
165.3096468041
 20
136.4917713814
 30
0.0
 11
160.8096468041
 21
137.2417713814
 31
0.0
  0
LINE
  5
12A
330
1F
100
AcDbEntity
  8
0
  6
Continuous
 62
     7
370
    25
100
AcDbLine
 10
169.8096468041
 20
123.2417713814
 30
0.0
 11
174.3096468041
 21
123.9917713814
 31
0.0
  0
LINE
  5
12B
330
1F
100
AcDbEntity
  8
0
  6
Continuous
 62
     7
370
    25
100
AcDbLine
 10
174.3096468041
 20
136.4917713814
 30
0.0
 11
169.8096468041
 21
137.2417713814
 31
0.0
  0
LINE
  5
12C
330
1F
100
AcDbEntity
  8
0
  6
Continuous
 62
     7
370
    25
100
AcDbLine
 10
165.3096468041
 20
123.2417713814
 30
0.0
 11
169.8096468041
 21
123.9917713814
 31
0.0
  0
LINE
  5
12D
330
1F
100
AcDbEntity
  8
0
  6
Continuous
 62
     7
370
    25
100
AcDbLine
 10
169.8096468041
 20
136.4917713814
 30
0.0
 11
165.3096468041
 21
137.2417713814
 31
0.0
  0
LINE
  5
12E
330
1F
100
AcDbEntity
  8
0
  6
Continuous
 62
     7
370
    25
100
AcDbLine
 10
174.3096468041
 20
123.2417713814
 30
0.0
 11
178.8096468041
 21
123.9917713814
 31
0.0
  0
LINE
  5
12F
330
1F
100
AcDbEntity
  8
0
  6
Continuous
 62
     7
370
    25
100
AcDbLine
 10
178.8096468041
 20
136.4917713814
 30
0.0
 11
174.3096468041
 21
137.2417713814
 31
0.0
  0
LINE
  5
130
330
1F
100
AcDbEntity
  8
0
  6
Continuous
 62
     7
370
    25
100
AcDbLine
 10
178.8096468041
 20
123.2417713814
 30
0.0
 11
184.614260549
 21
123.9115345058
 31
0.0
  0
LINE
  5
131
330
1F
100
AcDbEntity
  8
0
  6
Continuous
 62
     7
370
    25
100
AcDbLine
 10
184.614260549
 20
136.572008257
 30
0.0
 11
178.8096468041
 21
137.2417713814
 31
0.0
  0
LINE
  5
132
330
1F
100
AcDbEntity
  8
0
  6
Continuous
 62
     7
370
    25
100
AcDbLine
 10
184.614260549
 20
123.9115345058
 30
0.0
 11
185.3096468041
 21
124.788325871
 31
0.0
  0
LINE
  5
133
330
1F
100
AcDbEntity
  8
0
  6
Continuous
 62
     7
370
    25
100
AcDbLine
 10
185.3096468041
 20
135.6952168919
 30
0.0
 11
184.614260549
 21
136.572008257
 31
0.0
  0
LINE
  5
134
330
1F
100
AcDbEntity
  8
0
  6
Continuous
 62
     7
370
    25
100
AcDbLine
 10
152.1653092368
 20
118.2417713814
 30
0.0
 11
152.3096468041
 21
118.4917713814
 31
0.0
  0
LINE
  5
135
330
1F
100
AcDbEntity
  8
0
  6
Continuous
 62
     7
370
    25
100
AcDbLine
 10
152.3096468041
 20
141.9917713814
 30
0.0
 11
152.1653092368
 21
142.2417713814
 31
0.0
  0
LINE
  5
136
330
1F
100
AcDbEntity
  8
0
  6
Continuous
 62
     7
370
    25
100
AcDbLine
 10
140.4539843714
 20
142.2417713814
 30
0.0
 11
140.3096468041
 21
141.9917713814
 31
0.0
  0
LINE
  5
137
330
1F
100
AcDbEntity
  8
0
  6
Continuous
 62
     7
370
    25
100
AcDbLine
 10
140.3096468041
 20
118.4917713814
 30
0.0
 11
140.4539843714
 21
118.2417713814
 31
0.0
  0
LINE
  5
138
330
1F
100
AcDbEntity
  8
0
  6
Continuous
 62
     7
370
    25
100
AcDbLine
 10
153.8096468041
 20
118.4917713814
 30
0.0
 11
154.3096468041
 21
118.9917713814
 31
0.0
  0
LINE
  5
139
330
1F
100
AcDbEntity
  8
0
  6
Continuous
 62
     7
370
    25
100
AcDbLine
 10
154.3096468041
 20
141.4917713814
 30
0.0
 11
153.8096468041
 21
141.9917713814
 31
0.0
  0
LINE
  5
13A
330
1F
100
AcDbEntity
  8
0
  6
Continuous
 62
     7
370
    25
100
AcDbLine
 10
152.3096468041
 20
118.4917713814
 30
0.0
 11
153.8096468041
 21
118.4917713814
 31
0.0
  0
LINE
  5
13B
330
1F
100
AcDbEntity
  8
0
  6
Continuous
 62
     7
370
    25
100
AcDbLine
 10
153.8096468041
 20
141.9917713814
 30
0.0
 11
152.3096468041
 21
141.9917713814
 31
0.0
  0
LINE
  5
13C
330
1F
100
AcDbEntity
  8
0
  6
Continuous
 62
     7
370
    25
100
AcDbLine
 10
140.3096468041
 20
141.9917713814
 30
0.0
 11
138.8096468041
 21
141.9917713814
 31
0.0
  0
LINE
  5
13D
330
1F
100
AcDbEntity
  8
0
  6
Continuous
 62
     7
370
    25
100
AcDbLine
 10
138.8096468041
 20
118.4917713814
 30
0.0
 11
140.3096468041
 21
118.4917713814
 31
0.0
  0
LINE
  5
13E
330
1F
100
AcDbEntity
  8
0
  6
Continuous
 62
     7
370
    25
100
AcDbLine
 10
138.8096468041
 20
141.9917713814
 30
0.0
 11
138.3096468041
 21
141.4917713814
 31
0.0
  0
LINE
  5
13F
330
1F
100
AcDbEntity
  8
0
  6
Continuous
 62
     7
370
    25
100
AcDbLine
 10
138.3096468041
 20
118.9917713814
 30
0.0
 11
138.8096468041
 21
118.4917713814
 31
0.0
  0
LINE
  5
140
330
1F
100
AcDbEntity
  8
0
  6
Continuous
 62
     7
370
    25
100
AcDbLine
 10
132.7633854481
 20
116.7417713814
 30
0.0
 11
132.9077230154
 21
116.9917713814
 31
0.0
  0
LINE
  5
141
330
1F
100
AcDbEntity
  8
0
  6
Continuous
 62
     7
370
    25
100
AcDbLine
 10
132.9077230154
 20
143.4917713814
 30
0.0
 11
132.7633854481
 21
143.7417713814
 31
0.0
  0
LINE
  5
142
330
1F
100
AcDbEntity
  8
0
  6
Continuous
 62
     7
370
    25
100
AcDbLine
 10
124.9077230154
 20
143.6644588814
 30
0.0
 11
111.5128993544
 21
143.245870642
 31
0.0
  0
LINE
  5
143
330
1F
100
AcDbEntity
  8
0
  6
Continuous
 62
     7
370
    25
100
AcDbLine
 10
111.5128993544
 20
117.2376721208
 30
0.0
 11
124.9077230154
 21
116.8190838814
 31
0.0
  0
LINE
  5
144
330
1F
100
AcDbEntity
  8
0
  6
Continuous
 62
     7
370
    25
100
AcDbLine
 10
111.5128993544
 20
143.245870642
 30
0.0
 11
108.9077230154
 21
141.7417713814
 31
0.0
  0
LINE
  5
145
330
1F
100
AcDbEntity
  8
0
  6
Continuous
 62
     7
370
    25
100
AcDbLine
 10
108.9077230154
 20
118.7417713814
 30
0.0
 11
111.5128993544
 21
117.2376721208
 31
0.0
  0
LINE
  5
146
330
1F
100
AcDbEntity
  8
0
  6
Continuous
 62
     7
370
    25
100
AcDbLine
 10
136.8077230154
 20
119.7642713814
 30
0.0
 11
138.3096468041
 21
119.7642713814
 31
0.0
  0
LINE
  5
147
330
1F
100
AcDbEntity
  8
0
  6
Continuous
 62
     7
370
    25
100
AcDbLine
 10
138.3096468041
 20
140.7192713814
 30
0.0
 11
136.8077230154
 21
140.7192713814
 31
0.0
  0
LINE
  5
148
330
1F
100
AcDbEntity
  8
0
  6
Continuous
 62
     7
370
    25
100
AcDbLine
 10
136.8077230154
 20
140.7192713814
 30
0.0
 11
135.4077230154
 21
139.3192713814
 31
0.0
  0
LINE
  5
149
330
1F
100
AcDbEntity
  8
0
  6
Continuous
 62
     7
370
    25
100
AcDbLine
 10
135.4077230154
 20
121.1642713814
 30
0.0
 11
136.8077230154
 21
119.7642713814
 31
0.0
  0
LINE
  5
14A
330
1F
100
AcDbEntity
  8
0
  6
Continuous
 62
     7
370
    25
100
AcDbLine
 10
132.9077230154
 20
121.2417713814
 30
0.0
 11
135.4077230154
 21
121.2417713814
 31
0.0
  0
LINE
  5
14B
330
1F
100
AcDbEntity
  8
0
  6
Continuous
 62
     7
370
    25
100
AcDbLine
 10
135.4077230154
 20
139.2417713814
 30
0.0
 11
132.9077230154
 21
139.2417713814
 31
0.0
  0
LINE
  5
14C
330
1F
100
AcDbEntity
  8
0
  6
Continuous
 62
     7
370
    25
100
AcDbLine
 10
154.8096468041
 20
138.2417713814
 30
0.0
 11
154.8096468041
 21
122.2417713814
 31
0.0
  0
LINE
  5
14D
330
1F
100
AcDbEntity
  8
0
  6
Continuous
 62
     7
370
    25
100
AcDbLine
 10
160.8096468041
 20
130.2417713814
 30
0.0
 11
160.8096468041
 21
123.2417713814
 31
0.0
  0
LINE
  5
14E
330
1F
100
AcDbEntity
  8
0
  6
Continuous
 62
     7
370
    25
100
AcDbLine
 10
160.8096468041
 20
137.2417713814
 30
0.0
 11
160.8096468041
 21
130.2417713814
 31
0.0
  0
LINE
  5
14F
330
1F
100
AcDbEntity
  8
0
  6
Continuous
 62
     7
370
    25
100
AcDbLine
 10
169.8096468041
 20
130.2417713814
 30
0.0
 11
169.8096468041
 21
123.2417713814
 31
0.0
  0
LINE
  5
150
330
1F
100
AcDbEntity
  8
0
  6
Continuous
 62
     7
370
    25
100
AcDbLine
 10
169.8096468041
 20
137.2417713814
 30
0.0
 11
169.8096468041
 21
130.2417713814
 31
0.0
  0
LINE
  5
151
330
1F
100
AcDbEntity
  8
0
  6
Continuous
 62
     7
370
    25
100
AcDbLine
 10
165.3096468041
 20
130.2417713814
 30
0.0
 11
165.3096468041
 21
123.2417713814
 31
0.0
  0
LINE
  5
152
330
1F
100
AcDbEntity
  8
0
  6
Continuous
 62
     7
370
    25
100
AcDbLine
 10
165.3096468041
 20
137.2417713814
 30
0.0
 11
165.3096468041
 21
130.2417713814
 31
0.0
  0
LINE
  5
153
330
1F
100
AcDbEntity
  8
0
  6
Continuous
 62
     7
370
    25
100
AcDbLine
 10
174.3096468041
 20
130.2417713814
 30
0.0
 11
174.3096468041
 21
123.2417713814
 31
0.0
  0
LINE
  5
154
330
1F
100
AcDbEntity
  8
0
  6
Continuous
 62
     7
370
    25
100
AcDbLine
 10
174.3096468041
 20
137.2417713814
 30
0.0
 11
174.3096468041
 21
130.2417713814
 31
0.0
  0
LINE
  5
155
330
1F
100
AcDbEntity
  8
0
  6
Continuous
 62
     7
370
    25
100
AcDbLine
 10
184.614260549
 20
130.2417713814
 30
0.0
 11
184.614260549
 21
136.572008257
 31
0.0
  0
LINE
  5
156
330
1F
100
AcDbEntity
  8
0
  6
Continuous
 62
     7
370
    25
100
AcDbLine
 10
184.614260549
 20
123.9115345058
 30
0.0
 11
184.614260549
 21
130.2417713814
 31
0.0
  0
LINE
  5
157
330
1F
100
AcDbEntity
  8
0
  6
Continuous
 62
     7
370
    25
100
AcDbLine
 10
178.8096468041
 20
130.2417713814
 30
0.0
 11
178.8096468041
 21
123.2417713814
 31
0.0
  0
LINE
  5
158
330
1F
100
AcDbEntity
  8
0
  6
Continuous
 62
     7
370
    25
100
AcDbLine
 10
178.8096468041
 20
137.2417713814
 30
0.0
 11
178.8096468041
 21
130.2417713814
 31
0.0
  0
LINE
  5
159
330
1F
100
AcDbEntity
  8
0
  6
Continuous
 62
     7
370
    25
100
AcDbLine
 10
185.3096468041
 20
130.2417713814
 30
0.0
 11
185.3096468041
 21
124.788325871
 31
0.0
  0
LINE
  5
15A
330
1F
100
AcDbEntity
  8
0
  6
Continuous
 62
     7
370
    25
100
AcDbLine
 10
185.3096468041
 20
135.6952168919
 30
0.0
 11
185.3096468041
 21
130.2417713814
 31
0.0
  0
SPLINE
  5
15B
330
1F
100
AcDbEntity
  8
0
  6
Continuous
 62
     7
370
    25
100
AcDbSpline
210
0.0
220
0.0
230
1.0
 70
     8
 71
     3
 72
    15
 73
    11
 74
     0
 42
0.000000001
 43
0.00000001
 40
0.0
 40
0.0
 40
0.0
 40
0.0
 40
0.1323065044264401
 40
0.2645755999739293
 40
0.3998036789671087
 40
0.5350073556765889
 40
0.6501969475405016
 40
0.7654045076453762
 40
0.8826909144168965
 40
1.0
 40
1.0
 40
1.0
 40
1.0
 10
151.0935124670499
 20
142.2417713814238
 30
0.0
 10
151.2566715489676
 20
141.7233186522153
 30
0.0
 10
151.5829435805409
 20
140.6865597832308
 30
0.0
 10
151.9339982835608
 20
139.0900423379604
 30
0.0
 10
152.1450750690899
 20
137.4634299262805
 30
0.0
 10
152.1868723793755
 20
135.8957491848935
 30
0.0
 10
152.0784137466748
 20
134.4127729909336
 30
0.0
 10
151.8561878376139
 20
133.0132196315082
 30
0.0
 10
151.5302100643276
 20
131.6199942152648
 30
0.0
 10
151.2390877139341
 20
130.7012085996468
 30
0.0
 10
151.0935124670499
 20
130.2417713814237
 30
0.0
  0
SPLINE
  5
15C
330
1F
100
AcDbEntity
  8
0
  6
Continuous
 62
     7
370
    25
100
AcDbSpline
210
0.0
220
0.0
230
1.0
 70
    24
 71
     3
 72
    13
 73
     9
 74
     0
 42
0.000000001
 43
0.00000001
 40
0.0
 40
0.0
 40
0.0
 40
0.0
 40
0.0074769130271633
 40
0.2645385011739136
 40
0.4472075067809845
 40
0.6304315058360819
 40
0.8150418461282879
 40
0.9999999999999999
 40
0.9999999999999999
 40
0.9999999999999999
 40
0.9999999999999999
 10
152.1631202539104
 20
142.2417713814238
 30
0.0
 10
152.1638471885354
 20
142.2417713814238
 30
0.0
 10
152.1895666526283
 20
142.2417713814237
 30
0.0
 10
152.1077990900657
 20
142.2417713814238
 30
0.0
 10
151.9461243842577
 20
142.2417713814238
 30
0.0
 10
151.7219607407961
 20
142.2417713814238
 30
0.0
 10
151.4412327432462
 20
142.2417713814238
 30
0.0
 10
151.2094919255247
 20
142.2417713814238
 30
0.0
 10
151.0935124670499
 20
142.2417713814238
 30
0.0
  0
SPLINE
  5
15D
330
1F
100
AcDbEntity
  8
0
  6
Continuous
 62
     7
370
    25
100
AcDbSpline
210
0.0
220
0.0
230
1.0
 70
    24
 71
     3
 72
    13
 73
     9
 74
     0
 42
0.000000001
 43
0.00000001
 40
0.0
 40
0.0
 40
0.0
 40
0.0
 40
0.1829114836373588
 40
0.3661277693158762
 40
0.5505258484625272
 40
0.7354563574948482
 40
0.9842747657629882
 40
1.0
 40
1.0
 40
1.0
 40
1.0
 10
151.0935124670499
 20
118.2417713814237
 30
0.0
 10
151.2082523447593
 20
118.2417713814237
 30
0.0
 10
151.437923301672
 20
118.2417713814237
 30
0.0
 10
151.7184000080065
 20
118.2417713814237
 30
0.0
 10
151.9443095165264
 20
118.2417713814237
 30
0.0
 10
152.1057663325505
 20
118.2417713814237
 30
0.0
 10
152.1866458103146
 20
118.2417713814238
 30
0.0
 10
152.1623825928602
 20
118.2417713814238
 30
0.0
 10
152.160940317498
 20
118.2417713814237
 30
0.0
  0
SPLINE
  5
15E
330
1F
100
AcDbEntity
  8
0
  6
Continuous
 62
     7
370
    25
100
AcDbSpline
210
0.0
220
0.0
230
1.0
 70
     8
 71
     3
 72
    15
 73
    11
 74
     0
 42
0.000000001
 43
0.00000001
 40
0.0
 40
0.0
 40
0.0
 40
0.0
 40
0.1323065044264402
 40
0.2645755999739297
 40
0.3998036789671093
 40
0.5350073556765894
 40
0.6501969475405022
 40
0.7654045076453767
 40
0.8826909144168968
 40
1.0
 40
1.0
 40
1.0
 40
1.0
 10
151.0935124670499
 20
130.2417713814237
 30
0.0
 10
151.2566715489676
 20
129.7233186522153
 30
0.0
 10
151.5829435805409
 20
128.6865597832308
 30
0.0
 10
151.9339982835608
 20
127.0900423379604
 30
0.0
 10
152.1450750690899
 20
125.4634299262805
 30
0.0
 10
152.1868723793755
 20
123.8957491848935
 30
0.0
 10
152.0784137466748
 20
122.4127729909336
 30
0.0
 10
151.8561878376139
 20
121.0132196315082
 30
0.0
 10
151.5302100643276
 20
119.6199942152648
 30
0.0
 10
151.2390877139341
 20
118.7012085996467
 30
0.0
 10
151.0935124670499
 20
118.2417713814237
 30
0.0
  0
LINE
  5
15F
330
1F
100
AcDbEntity
  8
0
  6
Continuous
 62
     7
370
    25
100
AcDbLine
 10
152.3096468041
 20
141.9917713814
 30
0.0
 11
152.3096468041
 21
118.4917713814
 31
0.0
  0
LINE
  5
160
330
1F
100
AcDbEntity
  8
0
  6
Continuous
 62
     7
370
    25
100
AcDbLine
 10
146.4436214003
 20
142.2417713814
 30
0.0
 11
146.3096468041
 21
141.3206684226
 31
0.0
  0
LINE
  5
161
330
1F
100
AcDbEntity
  8
0
  6
Continuous
 62
     7
370
    25
100
AcDbLine
 10
151.093512467
 20
142.2417713814
 30
0.0
 11
146.4436214003
 21
142.2417713814
 31
0.0
  0
LINE
  5
162
330
1F
100
AcDbEntity
  8
0
  6
Continuous
 62
     7
370
    25
100
AcDbLine
 10
151.093512467
 20
130.2417713814
 30
0.0
 11
146.4436214003
 21
130.2417713814
 31
0.0
  0
LINE
  5
163
330
1F
100
AcDbEntity
  8
0
  6
Continuous
 62
     7
370
    25
100
AcDbLine
 10
146.3096468041
 20
131.1628743403
 30
0.0
 11
146.4436214003
 21
130.2417713814
 31
0.0
  0
LINE
  5
164
330
1F
100
AcDbEntity
  8
0
  6
Continuous
 62
     7
370
    25
100
AcDbLine
 10
146.3096468041
 20
131.1628743403
 30
0.0
 11
146.1756722079
 21
130.2417713814
 31
0.0
  0
LINE
  5
165
330
1F
100
AcDbEntity
  8
0
  6
Continuous
 62
     7
370
    25
100
AcDbLine
 10
146.1756722079
 20
130.2417713814
 30
0.0
 11
141.5257811411
 21
130.2417713814
 31
0.0
  0
SPLINE
  5
166
330
1F
100
AcDbEntity
  8
0
  6
Continuous
 62
     7
370
    25
100
AcDbSpline
210
0.0
220
0.0
230
1.0
 70
     8
 71
     3
 72
    15
 73
    11
 74
     0
 42
0.000000001
 43
0.00000001
 40
0.0
 40
0.0
 40
0.0
 40
0.0
 40
0.1323065044264401
 40
0.2645755999739293
 40
0.3998036789671087
 40
0.5350073556765886
 40
0.6501969475405015
 40
0.7654045076453762
 40
0.8826909144168965
 40
1.0
 40
1.0
 40
1.0
 40
1.0
 10
141.5257811410937
 20
142.2417713814238
 30
0.0
 10
141.3626220591759
 20
141.7233186522153
 30
0.0
 10
141.0363500276026
 20
140.6865597832308
 30
0.0
 10
140.6852953245827
 20
139.0900423379604
 30
0.0
 10
140.4742185390536
 20
137.4634299262805
 30
0.0
 10
140.432421228768
 20
135.8957491848935
 30
0.0
 10
140.5408798614688
 20
134.4127729909336
 30
0.0
 10
140.7631057705296
 20
133.0132196315082
 30
0.0
 10
141.0890835438159
 20
131.6199942152648
 30
0.0
 10
141.3802058942094
 20
130.7012085996468
 30
0.0
 10
141.5257811410937
 20
130.2417713814237
 30
0.0
  0
LINE
  5
167
330
1F
100
AcDbEntity
  8
0
  6
Continuous
 62
     7
370
    25
100
AcDbLine
 10
146.1756722079
 20
142.2417713814
 30
0.0
 11
141.5257811411
 21
142.2417713814
 31
0.0
  0
LINE
  5
168
330
1F
100
AcDbEntity
  8
0
  6
Continuous
 62
     7
370
    25
100
AcDbLine
 10
146.1756722079
 20
142.2417713814
 30
0.0
 11
146.3096468041
 21
141.3206684226
 31
0.0
  0
SPLINE
  5
169
330
1F
100
AcDbEntity
  8
0
  6
Continuous
 62
     7
370
    25
100
AcDbSpline
210
0.0
220
0.0
230
1.0
 70
     8
 71
     3
 72
    15
 73
    11
 74
     0
 42
0.000000001
 43
0.00000001
 40
0.0
 40
0.0
 40
0.0
 40
0.0
 40
0.1323065044264403
 40
0.2645755999739298
 40
0.3998036789671094
 40
0.5350073556765896
 40
0.6501969475405023
 40
0.7654045076453767
 40
0.8826909144168968
 40
1.0
 40
1.0
 40
1.0
 40
1.0
 10
141.5257811410937
 20
130.2417713814237
 30
0.0
 10
141.3626220591759
 20
129.7233186522153
 30
0.0
 10
141.0363500276026
 20
128.6865597832308
 30
0.0
 10
140.6852953245827
 20
127.0900423379604
 30
0.0
 10
140.4742185390536
 20
125.4634299262805
 30
0.0
 10
140.432421228768
 20
123.8957491848935
 30
0.0
 10
140.5408798614688
 20
122.4127729909336
 30
0.0
 10
140.7631057705296
 20
121.0132196315082
 30
0.0
 10
141.0890835438159
 20
119.6199942152648
 30
0.0
 10
141.3802058942094
 20
118.7012085996467
 30
0.0
 10
141.5257811410937
 20
118.2417713814237
 30
0.0
  0
SPLINE
  5
16A
330
1F
100
AcDbEntity
  8
0
  6
Continuous
 62
     7
370
    25
100
AcDbSpline
210
0.0
220
0.0
230
1.0
 70
    24
 71
     3
 72
    13
 73
     9
 74
     0
 42
0.000000001
 43
0.00000001
 40
0.0
 40
0.0
 40
0.0
 40
0.0
 40
0.1829114836373595
 40
0.3661277693158773
 40
0.5505258484625288
 40
0.7354563574948504
 40
0.9842747657629912
 40
1.0
 40
1.0
 40
1.0
 40
1.0
 10
141.5257811410937
 20
118.2417713814237
 30
0.0
 10
141.4110412633842
 20
118.2417713814237
 30
0.0
 10
141.1813703064715
 20
118.2417713814237
 30
0.0
 10
140.900893600137
 20
118.2417713814237
 30
0.0
 10
140.6749840916171
 20
118.2417713814238
 30
0.0
 10
140.513527275593
 20
118.2417713814237
 30
0.0
 10
140.432647797829
 20
118.2417713814237
 30
0.0
 10
140.4569110152833
 20
118.2417713814237
 30
0.0
 10
140.4583532906455
 20
118.2417713814237
 30
0.0
  0
SPLINE
  5
16B
330
1F
100
AcDbEntity
  8
0
  6
Continuous
 62
     7
370
    25
100
AcDbSpline
210
0.0
220
0.0
230
1.0
 70
    24
 71
     3
 72
    13
 73
     9
 74
     0
 42
0.000000001
 43
0.00000001
 40
0.0
 40
0.0
 40
0.0
 40
0.0
 40
0.0074769130271604
 40
0.2645385011739115
 40
0.4472075067809829
 40
0.6304315058360808
 40
0.8150418461282875
 40
1.0
 40
1.0
 40
1.0
 40
1.0
 10
140.456173354233
 20
142.2417713814238
 30
0.0
 10
140.4554464196081
 20
142.2417713814238
 30
0.0
 10
140.4297269555152
 20
142.2417713814237
 30
0.0
 10
140.5114945180778
 20
142.2417713814238
 30
0.0
 10
140.6731692238858
 20
142.2417713814238
 30
0.0
 10
140.8973328673474
 20
142.2417713814238
 30
0.0
 10
141.1780608648972
 20
142.2417713814238
 30
0.0
 10
141.4098016826188
 20
142.2417713814238
 30
0.0
 10
141.5257811410937
 20
142.2417713814238
 30
0.0
  0
LINE
  5
16C
330
1F
100
AcDbEntity
  8
0
  6
Continuous
 62
     7
370
    25
100
AcDbLine
 10
140.3096468041
 20
141.9917713814
 30
0.0
 11
140.3096468041
 21
118.4917713814
 31
0.0
  0
LINE
  5
16D
330
1F
100
AcDbEntity
  8
0
  6
Continuous
 62
     7
370
    25
100
AcDbLine
 10
146.4436214003
 20
130.2417713814
 30
0.0
 11
146.3096468041
 21
129.3206684226
 31
0.0
  0
LINE
  5
16E
330
1F
100
AcDbEntity
  8
0
  6
Continuous
 62
     7
370
    25
100
AcDbLine
 10
146.3096468041
 20
131.1628743403
 30
0.0
 11
146.3096468041
 21
129.3206684226
 31
0.0
  0
LINE
  5
16F
330
1F
100
AcDbEntity
  8
0
  6
Continuous
 62
     7
370
    25
100
AcDbLine
 10
146.1756722079
 20
130.2417713814
 30
0.0
 11
146.3096468041
 21
129.3206684226
 31
0.0
  0
LINE
  5
170
330
1F
100
AcDbEntity
  8
0
  6
Continuous
 62
     7
370
    25
100
AcDbLine
 10
151.093512467
 20
118.2417713814
 30
0.0
 11
146.4436214003
 21
118.2417713814
 31
0.0
  0
LINE
  5
171
330
1F
100
AcDbEntity
  8
0
  6
Continuous
 62
     7
370
    25
100
AcDbLine
 10
146.3096468041
 20
119.1628743403
 30
0.0
 11
146.4436214003
 21
118.2417713814
 31
0.0
  0
LINE
  5
172
330
1F
100
AcDbEntity
  8
0
  6
Continuous
 62
     7
370
    25
100
AcDbLine
 10
146.3096468041
 20
119.1628743403
 30
0.0
 11
146.1756722079
 21
118.2417713814
 31
0.0
  0
LINE
  5
173
330
1F
100
AcDbEntity
  8
0
  6
Continuous
 62
     7
370
    25
100
AcDbLine
 10
146.1756722079
 20
118.2417713814
 30
0.0
 11
141.5257811411
 21
118.2417713814
 31
0.0
  0
LINE
  5
174
330
1F
100
AcDbEntity
  8
0
  6
Continuous
 62
     7
370
    25
100
AcDbLine
 10
154.3096468041
 20
141.4917713814
 30
0.0
 11
154.3096468041
 21
118.9917713814
 31
0.0
  0
LINE
  5
175
330
1F
100
AcDbEntity
  8
0
  6
Continuous
 62
     7
370
    25
100
AcDbLine
 10
153.8096468041
 20
118.4917713814
 30
0.0
 11
153.8096468041
 21
141.9917713814
 31
0.0
  0
LINE
  5
176
330
1F
100
AcDbEntity
  8
0
  6
Continuous
 62
     7
370
    25
100
AcDbLine
 10
138.8096468041
 20
141.9917713814
 30
0.0
 11
138.8096468041
 21
118.4917713814
 31
0.0
  0
LINE
  5
177
330
1F
100
AcDbEntity
  8
0
  6
Continuous
 62
     7
370
    25
100
AcDbLine
 10
138.3096468041
 20
118.9917713814
 30
0.0
 11
138.3096468041
 21
141.4917713814
 31
0.0
  0
LINE
  5
178
330
1F
100
AcDbEntity
  8
0
  6
Continuous
 62
     7
370
    25
100
AcDbLine
 10
146.3096468041
 20
142.2417713814
 30
0.0
 11
146.3096468041
 21
141.3206684226
 31
0.0
  0
LINE
  5
179
330
1F
100
AcDbEntity
  8
0
  6
Continuous
 62
     7
370
    25
100
AcDbLine
 10
146.3096468041
 20
142.2417713814
 30
0.0
 11
146.4436214003
 21
142.2417713814
 31
0.0
  0
LINE
  5
17A
330
1F
100
AcDbEntity
  8
0
  6
Continuous
 62
     7
370
    25
100
AcDbLine
 10
146.3096468041
 20
142.2417713814
 30
0.0
 11
146.1756722079
 21
142.2417713814
 31
0.0
  0
LINE
  5
17B
330
1F
100
AcDbEntity
  8
0
  6
Continuous
 62
     7
370
    25
100
AcDbLine
 10
146.3096468041
 20
119.1628743403
 30
0.0
 11
146.3096468041
 21
118.2417713814
 31
0.0
  0
LINE
  5
17C
330
1F
100
AcDbEntity
  8
0
  6
Continuous
 62
     7
370
    25
100
AcDbLine
 10
146.1756722079
 20
118.2417713814
 30
0.0
 11
146.3096468041
 21
118.2417713814
 31
0.0
  0
LINE
  5
17D
330
1F
100
AcDbEntity
  8
0
  6
Continuous
 62
     7
370
    25
100
AcDbLine
 10
146.4436214003
 20
118.2417713814
 30
0.0
 11
146.3096468041
 21
118.2417713814
 31
0.0
  0
SPLINE
  5
17E
330
1F
100
AcDbEntity
  8
0
  6
Continuous
 62
     7
370
    25
100
AcDbSpline
210
0.0
220
0.0
230
1.0
 70
     8
 71
     3
 72
    16
 73
    12
 74
     0
 42
0.000000001
 43
0.00000001
 40
0.0
 40
0.0
 40
0.0
 40
0.0
 40
0.2499999999999999
 40
0.2499999999999999
 40
0.4999999999999998
 40
0.4999999999999998
 40
0.6249999999999998
 40
0.6249999999999998
 40
0.7499999999999999
 40
0.7499999999999999
 40
1.0
 40
1.0
 40
1.0
 40
1.0
 10
131.5576140821879
 20
143.7417713814238
 30
0.0
 10
131.9249964448739
 20
142.6396242933658
 30
0.0
 10
132.2277860052681
 20
141.5294418180856
 30
0.0
 10
132.6472478135734
 20
139.2859237510555
 30
0.0
 10
132.762536439028
 20
138.1524160357591
 30
0.0
 10
132.7638028358919
 20
136.4307990318123
 30
0.0
 10
132.7356192788028
 20
135.8542257722695
 30
0.0
 10
132.6257181097609
 20
134.7137031663226
 30
0.0
 10
132.5441120476879
 20
134.1472656088625
 30
0.0
 10
132.2289934527971
 20
132.4580375756227
 30
0.0
 10
131.9254544364609
 20
131.3452924442434
 30
0.0
 10
131.5576140821877
 20
130.2417713814237
 30
0.0
  0
SPLINE
  5
17F
330
1F
100
AcDbEntity
  8
0
  6
Continuous
 62
     7
370
    25
100
AcDbSpline
210
0.0
220
0.0
230
1.0
 70
    24
 71
     3
 72
    12
 73
     8
 74
     0
 42
0.000000001
 43
0.00000001
 40
0.0
 40
0.0
 40
0.0
 40
0.0
 40
0.255434046667516
 40
0.4403258226009337
 40
0.6257975299246372
 40
0.8127174058199411
 40
1.0
 40
1.0
 40
1.0
 40
1.0
 10
132.7626367223711
 20
143.7417713814237
 30
0.0
 10
132.7463643411398
 20
143.7417713814238
 30
0.0
 10
132.7183134616865
 20
143.7417713814238
 30
0.0
 10
132.5216824436084
 20
143.7417713814238
 30
0.0
 10
132.2729961665138
 20
143.7417713814238
 30
0.0
 10
131.9533269205701
 20
143.7417713814238
 30
0.0
 10
131.6896035715624
 20
143.7417713814238
 30
0.0
 10
131.5576140821876
 20
143.7417713814238
 30
0.0
  0
SPLINE
  5
180
330
1F
100
AcDbEntity
  8
0
  6
Continuous
 62
     7
370
    25
100
AcDbSpline
210
0.0
220
0.0
230
1.0
 70
    24
 71
     3
 72
    13
 73
     9
 74
     0
 42
0.000000001
 43
0.00000001
 40
0.0
 40
0.0
 40
0.0
 40
0.0
 40
0.1851617727546677
 40
0.3706407679212546
 40
0.5573529140792504
 40
0.744621928508862
 40
0.994020355348994
 40
1.0
 40
1.0
 40
1.0
 40
1.0
 10
131.5576140821876
 20
116.7417713814238
 30
0.0
 10
131.6882293767913
 20
116.7417713814238
 30
0.0
 10
131.9496837384231
 20
116.7417713814238
 30
0.0
 10
132.2678829678303
 20
116.7417713814238
 30
0.0
 10
132.5231344258629
 20
116.7417713814238
 30
0.0
 10
132.7014032581188
 20
116.7417713814238
 30
0.0
 10
132.7897617558478
 20
116.7417713814237
 30
0.0
 10
132.7620838939853
 20
116.7417713814238
 30
0.0
 10
132.7614358204148
 20
116.7417713814238
 30
0.0
  0
SPLINE
  5
181
330
1F
100
AcDbEntity
  8
0
  6
Continuous
 62
     7
370
    25
100
AcDbSpline
210
0.0
220
0.0
230
1.0
 70
     8
 71
     3
 72
    16
 73
    12
 74
     0
 42
0.000000001
 43
0.00000001
 40
0.0
 40
0.0
 40
0.0
 40
0.0
 40
0.2500000000000001
 40
0.2500000000000001
 40
0.5000000000000001
 40
0.5000000000000001
 40
0.6250000000000001
 40
0.6250000000000001
 40
0.7500000000000002
 40
0.7500000000000002
 40
1.0
 40
1.0
 40
1.0
 40
1.0
 10
131.5576140821879
 20
130.2417713814238
 30
0.0
 10
131.9249964448738
 20
129.1396242933658
 30
0.0
 10
132.227786005268
 20
128.0294418180856
 30
0.0
 10
132.6472478135733
 20
125.7859237510555
 30
0.0
 10
132.7625364390279
 20
124.6524160357591
 30
0.0
 10
132.7638028358919
 20
122.9307990318123
 30
0.0
 10
132.7356192788028
 20
122.3542257722695
 30
0.0
 10
132.6257181097608
 20
121.2137031663227
 30
0.0
 10
132.5441120476879
 20
120.6472656088625
 30
0.0
 10
132.2289934527971
 20
118.9580375756228
 30
0.0
 10
131.9254544364609
 20
117.8452924442434
 30
0.0
 10
131.5576140821877
 20
116.7417713814238
 30
0.0
  0
LINE
  5
182
330
1F
100
AcDbEntity
  8
0
  6
Continuous
 62
     7
370
    25
100
AcDbLine
 10
132.9077230154
 20
143.4917713814
 30
0.0
 11
132.9077230154
 21
116.9917713814
 31
0.0
  0
LINE
  5
183
330
1F
100
AcDbEntity
  8
0
  6
Continuous
 62
     7
370
    25
100
AcDbLine
 10
124.9077230154
 20
130.2417713814
 30
0.0
 11
128.1522837911
 21
130.2417713814
 31
0.0
  0
LINE
  5
184
330
1F
100
AcDbEntity
  8
0
  6
Continuous
 62
     7
370
    25
100
AcDbLine
 10
124.9077230154
 20
130.2417713814
 30
0.0
 11
124.9077230154
 21
143.7417713814
 31
0.0
  0
LINE
  5
185
330
1F
100
AcDbEntity
  8
0
  6
Continuous
 62
     7
370
    25
100
AcDbLine
 10
124.9077230154
 20
143.7417713814
 30
0.0
 11
128.1522837911
 21
143.7417713814
 31
0.0
  0
SPLINE
  5
186
330
1F
100
AcDbEntity
  8
0
  6
Continuous
 62
     7
370
    25
100
AcDbSpline
210
0.0
220
0.0
230
1.0
 70
     8
 71
     3
 72
     8
 73
     4
 74
     0
 42
0.000000001
 43
0.00000001
 40
0.0
 40
0.0
 40
0.0
 40
0.0
 40
1.0
 40
1.0
 40
1.0
 40
1.0
 10
128.2326685488063
 20
143.2058838867898
 30
0.0
 10
128.2067114851619
 20
143.3846350698277
 30
0.0
 10
128.1798993310674
 20
143.5632617247686
 30
0.0
 10
128.152283791077
 20
143.7417713814238
 30
0.0
  0
SPLINE
  5
187
330
1F
100
AcDbEntity
  8
0
  6
Continuous
 62
     7
370
    25
100
AcDbSpline
210
0.0
220
0.0
230
1.0
 70
     8
 71
     3
 72
     8
 73
     4
 74
     0
 42
0.000000001
 43
0.00000001
 40
0.0
 40
0.0
 40
0.0
 40
0.0
 40
1.0
 40
1.0
 40
1.0
 40
1.0
 10
128.3130533065357
 20
143.7417713814238
 30
0.0
 10
128.2854302504418
 20
143.5632131399127
 30
0.0
 10
128.2586184033245
 20
143.3845854247731
 30
0.0
 10
128.2326685488063
 20
143.2058838867898
 30
0.0
  0
LINE
  5
188
330
1F
100
AcDbEntity
  8
0
  6
Continuous
 62
     7
370
    25
100
AcDbLine
 10
128.3130533065
 20
143.7417713814
 30
0.0
 11
131.5576140822
 21
143.7417713814
 31
0.0
  0
LINE
  5
189
330
1F
100
AcDbEntity
  8
0
  6
Continuous
 62
     7
370
    25
100
AcDbLine
 10
128.3130533065
 20
130.2417713814
 30
0.0
 11
131.5576140822
 21
130.2417713814
 31
0.0
  0
SPLINE
  5
18A
330
1F
100
AcDbEntity
  8
0
  6
Continuous
 62
     7
370
    25
100
AcDbSpline
210
0.0
220
0.0
230
1.0
 70
     8
 71
     3
 72
     8
 73
     4
 74
     0
 42
0.000000001
 43
0.00000001
 40
0.0
 40
0.0
 40
0.0
 40
0.0
 40
1.0
 40
1.0
 40
1.0
 40
1.0
 10
128.2326685488063
 20
130.7776588760578
 30
0.0
 10
128.2586256124508
 20
130.5989076930199
 30
0.0
 10
128.2854377665452
 20
130.420281038079
 30
0.0
 10
128.3130533065357
 20
130.2417713814237
 30
0.0
  0
SPLINE
  5
18B
330
1F
100
AcDbEntity
  8
0
  6
Continuous
 62
     7
370
    25
100
AcDbSpline
210
0.0
220
0.0
230
1.0
 70
     8
 71
     3
 72
     8
 73
     4
 74
     0
 42
0.000000001
 43
0.00000001
 40
0.0
 40
0.0
 40
0.0
 40
0.0
 40
1.0
 40
1.0
 40
1.0
 40
1.0
 10
128.152283791077
 20
130.2417713814237
 30
0.0
 10
128.1799068471708
 20
130.4203296229349
 30
0.0
 10
128.2067186942881
 20
130.5989573380744
 30
0.0
 10
128.2326685488063
 20
130.7776588760578
 30
0.0
  0
LINE
  5
18C
330
1F
100
AcDbEntity
  8
0
  6
Continuous
 62
     7
370
    25
100
AcDbLine
 10
128.2326685488
 20
129.7058838868
 30
0.0
 11
128.2326685488
 21
130.7776588761
 31
0.0
  0
SPLINE
  5
18D
330
1F
100
AcDbEntity
  8
0
  6
Continuous
 62
     7
370
    25
100
AcDbSpline
210
0.0
220
0.0
230
1.0
 70
     8
 71
     3
 72
     8
 73
     4
 74
     0
 42
0.000000001
 43
0.00000001
 40
0.0
 40
0.0
 40
0.0
 40
0.0
 40
1.0
 40
1.0
 40
1.0
 40
1.0
 10
128.2326685488063
 20
129.7058838867897
 30
0.0
 10
128.2067114851619
 20
129.8846350698277
 30
0.0
 10
128.1798993310674
 20
130.0632617247686
 30
0.0
 10
128.152283791077
 20
130.2417713814237
 30
0.0
  0
SPLINE
  5
18E
330
1F
100
AcDbEntity
  8
0
  6
Continuous
 62
     7
370
    25
100
AcDbSpline
210
0.0
220
0.0
230
1.0
 70
     8
 71
     3
 72
     8
 73
     4
 74
     0
 42
0.000000001
 43
0.00000001
 40
0.0
 40
0.0
 40
0.0
 40
0.0
 40
1.0
 40
1.0
 40
1.0
 40
1.0
 10
128.3130533065357
 20
130.2417713814237
 30
0.0
 10
128.2854302504418
 20
130.0632131399126
 30
0.0
 10
128.2586184033245
 20
129.8845854247731
 30
0.0
 10
128.2326685488063
 20
129.7058838867897
 30
0.0
  0
LINE
  5
18F
330
1F
100
AcDbEntity
  8
0
  6
Continuous
 62
     7
370
    25
100
AcDbLine
 10
124.9077230154
 20
116.7417713814
 30
0.0
 11
128.1522837911
 21
116.7417713814
 31
0.0
  0
LINE
  5
190
330
1F
100
AcDbEntity
  8
0
  6
Continuous
 62
     7
370
    25
100
AcDbLine
 10
128.3130533065
 20
116.7417713814
 30
0.0
 11
131.5576140822
 21
116.7417713814
 31
0.0
  0
SPLINE
  5
191
330
1F
100
AcDbEntity
  8
0
  6
Continuous
 62
     7
370
    25
100
AcDbSpline
210
0.0
220
0.0
230
1.0
 70
     8
 71
     3
 72
     8
 73
     4
 74
     0
 42
0.000000001
 43
0.00000001
 40
0.0
 40
0.0
 40
0.0
 40
0.0
 40
1.0
 40
1.0
 40
1.0
 40
1.0
 10
128.2326685488063
 20
117.2776588760578
 30
0.0
 10
128.2586256124508
 20
117.09890769302
 30
0.0
 10
128.2854377665452
 20
116.920281038079
 30
0.0
 10
128.3130533065357
 20
116.7417713814238
 30
0.0
  0
SPLINE
  5
192
330
1F
100
AcDbEntity
  8
0
  6
Continuous
 62
     7
370
    25
100
AcDbSpline
210
0.0
220
0.0
230
1.0
 70
     8
 71
     3
 72
     8
 73
     4
 74
     0
 42
0.000000001
 43
0.00000001
 40
0.0
 40
0.0
 40
0.0
 40
0.0
 40
1.0
 40
1.0
 40
1.0
 40
1.0
 10
128.152283791077
 20
116.7417713814238
 30
0.0
 10
128.1799068471708
 20
116.9203296229349
 30
0.0
 10
128.2067186942881
 20
117.0989573380745
 30
0.0
 10
128.2326685488063
 20
117.2776588760578
 30
0.0
  0
LINE
  5
193
330
1F
100
AcDbEntity
  8
0
  6
Continuous
 62
     7
370
    25
100
AcDbLine
 10
124.9077230154
 20
116.7417713814
 30
0.0
 11
124.9077230154
 21
130.2417713814
 31
0.0
  0
LINE
  5
194
330
1F
100
AcDbEntity
  8
0
  6
Continuous
 62
     7
370
    25
100
AcDbLine
 10
111.5128993544
 20
143.245870642
 30
0.0
 11
111.5128993544
 21
117.2376721208
 31
0.0
  0
LINE
  5
195
330
1F
100
AcDbEntity
  8
0
  6
Continuous
 62
     7
370
    25
100
AcDbLine
 10
108.9077230154
 20
118.7417713814
 30
0.0
 11
108.9077230154
 21
141.7417713814
 31
0.0
  0
LINE
  5
196
330
1F
100
AcDbEntity
  8
0
  6
Continuous
 62
     7
370
    25
100
AcDbLine
 10
136.8077230154
 20
140.7192713814
 30
0.0
 11
136.8077230154
 21
119.7642713814
 31
0.0
  0
LINE
  5
197
330
1F
100
AcDbEntity
  8
0
  6
Continuous
 62
     7
370
    25
100
AcDbLine
 10
135.4077230154
 20
121.1642713814
 30
0.0
 11
135.4077230154
 21
139.3192713814
 31
0.0
  0
SPLINE
  5
198
330
1F
100
AcDbEntity
  8
0
  6
Continuous
 62
     7
370
    25
100
AcDbSpline
210
0.0
220
0.0
230
1.0
 70
    24
 71
     3
 72
     8
 73
     4
 74
     0
 42
0.000000001
 43
0.00000001
 40
0.0
 40
0.0
 40
0.0
 40
0.0
 40
1.0
 40
1.0
 40
1.0
 40
1.0
 10
128.3130533065357
 20
116.7417713814238
 30
0.0
 10
128.2854291477333
 20
116.7417713814238
 30
0.0
 10
128.2586173463201
 20
116.7417713814238
 30
0.0
 10
128.2326685488063
 20
116.7417713814238
 30
0.0
  0
LINE
  5
199
330
1F
100
AcDbEntity
  8
0
  6
Continuous
 62
     7
370
    25
100
AcDbLine
 10
128.2326685488
 20
116.7417713814
 30
0.0
 11
128.2326685488
 21
117.2776588761
 31
0.0
  0
SPLINE
  5
19A
330
1F
100
AcDbEntity
  8
0
  6
Continuous
 62
     7
370
    25
100
AcDbSpline
210
0.0
220
0.0
230
1.0
 70
    24
 71
     3
 72
     8
 73
     4
 74
     0
 42
0.000000001
 43
0.00000001
 40
0.0
 40
0.0
 40
0.0
 40
0.0
 40
1.0
 40
1.0
 40
1.0
 40
1.0
 10
128.2326685488063
 20
116.7417713814238
 30
0.0
 10
128.2067118560759
 20
116.7417713814238
 30
0.0
 10
128.1798997175739
 20
116.7417713814238
 30
0.0
 10
128.152283791077
 20
116.7417713814238
 30
0.0
  0
SPLINE
  5
19B
330
1F
100
AcDbEntity
  8
0
  6
Continuous
 62
     7
370
    25
100
AcDbSpline
210
0.0
220
0.0
230
1.0
 70
    24
 71
     3
 72
     8
 73
     4
 74
     0
 42
0.000000001
 43
0.00000001
 40
0.0
 40
0.0
 40
0.0
 40
0.0
 40
1.0
 40
1.0
 40
1.0
 40
1.0
 10
128.152283791077
 20
143.7417713814238
 30
0.0
 10
128.1799079498794
 20
143.7417713814238
 30
0.0
 10
128.2067197512925
 20
143.7417713814238
 30
0.0
 10
128.2326685488063
 20
143.7417713814238
 30
0.0
  0
LINE
  5
19C
330
1F
100
AcDbEntity
  8
0
  6
Continuous
 62
     7
370
    25
100
AcDbLine
 10
128.2326685488
 20
143.2058838868
 30
0.0
 11
128.2326685488
 21
143.7417713814
 31
0.0
  0
SPLINE
  5
19D
330
1F
100
AcDbEntity
  8
0
  6
Continuous
 62
     7
370
    25
100
AcDbSpline
210
0.0
220
0.0
230
1.0
 70
    24
 71
     3
 72
     8
 73
     4
 74
     0
 42
0.000000001
 43
0.00000001
 40
0.0
 40
0.0
 40
0.0
 40
0.0
 40
1.0
 40
1.0
 40
1.0
 40
1.0
 10
128.2326685488063
 20
143.7417713814238
 30
0.0
 10
128.2586252415368
 20
143.7417713814238
 30
0.0
 10
128.2854373800388
 20
143.7417713814238
 30
0.0
 10
128.3130533065357
 20
143.7417713814238
 30
0.0
  0
LINE
  5
19E
330
1F
100
AcDbEntity
  8
0
  6
Continuous
 62
     7
370
     0
100
AcDbLine
 10
109.7813505639
 20
142.2461604817
 30
0.0
 11
124.4077230154
 21
142.7032346208
 31
0.0
  0
LINE
  5
19F
330
1F
100
AcDbEntity
  8
0
  6
Continuous
 62
     7
370
     0
100
AcDbLine
 10
109.7813505639
 20
118.2373822811
 30
0.0
 11
124.4077230154
 21
117.780308142
 31
0.0
  0
LINE
  5
1A0
330
1F
100
AcDbEntity
  8
0
  6
Continuous
 62
     7
370
     0
100
AcDbLine
 10
124.4077230154
 20
116.8347088814
 30
0.0
 11
124.4077230154
 21
143.6488338814
 31
0.0
  0
LINE
  5
1A1
330
1F
100
AcDbEntity
  8
0
  6
CENTERX2
 62
     7
370
    18
100
AcDbLine
 10
187.3096468041
 20
130.2417713814
 30
0.0
 11
106.5124256206
 21
130.2417713814
 31
0.0
  0
ENDSEC
  0
SECTION
  2
OBJECTS
  0
DICTIONARY
  5
C
330
0
100
AcDbDictionary
281
     1
  3
ACAD_GROUP
350
D
  3
ACAD_LAYOUT
350
1A
  3
ACAD_MLINESTYLE
350
17
  3
ACAD_PLOTSETTINGS
350
19
  3
ACAD_PLOTSTYLENAME
350
E
  3
ACAD_SCALELIST
350
47
  0
DICTIONARY
  5
D
102
{ACAD_REACTORS
330
C
102
}
330
C
100
AcDbDictionary
281
     1
  0
DICTIONARY
  5
1A
102
{ACAD_REACTORS
330
C
102
}
330
C
100
AcDbDictionary
281
     1
  3
Layout1
350
1E
  3
Layout2
350
26
  3
Model
350
22
  0
DICTIONARY
  5
17
102
{ACAD_REACTORS
330
C
102
}
330
C
100
AcDbDictionary
281
     1
  3
Standard
350
18
  0
DICTIONARY
  5
19
102
{ACAD_REACTORS
330
C
102
}
330
C
100
AcDbDictionary
281
     1
  0
ACDBDICTIONARYWDFLT
  5
E
102
{ACAD_REACTORS
330
C
102
}
330
C
100
AcDbDictionary
281
     1
  3
Normal
350
F
100
AcDbDictionaryWithDefault
340
F
  0
DICTIONARY
  5
47
102
{ACAD_REACTORS
330
C
102
}
330
C
100
AcDbDictionary
281
     1
  3
A0
350
48
  3
A1
350
49
  3
A2
350
4A
  3
A3
350
4B
  3
A4
350
4C
  3
A5
350
4D
  3
A6
350
4E
  3
A7
350
4F
  3
A8
350
50
  3
A9
350
51
  3
B0
350
52
  3
B1
350
53
  3
B2
350
54
  3
B3
350
55
  3
B4
350
56
  3
B5
350
57
  3
B6
350
58
  3
B7
350
59
  3
B8
350
5A
  3
B9
350
5B
  3
C0
350
5C
  3
C1
350
5D
  3
C2
350
5E
  3
C3
350
5F
  3
C4
350
60
  3
C5
350
61
  3
C6
350
62
  3
C7
350
63
  3
C8
350
64
  3
C9
350
65
  3
D0
350
66
  3
D1
350
67
  3
D2
350
68
  0
LAYOUT
  5
1E
102
{ACAD_REACTORS
330
1A
102
}
330
1A
100
AcDbPlotSettings
  1

  2
none_device
  4

  6

 40
0.0
 41
0.0
 42
0.0
 43
0.0
 44
0.0
 45
0.0
 46
0.0
 47
0.0
 48
0.0
 49
0.0
140
0.0
141
0.0
142
1.0
143
1.0
 70
   688
 72
     1
 73
     0
 74
     5
  7

 75
    16
147
1.0
148
0.0
149
0.0
100
AcDbLayout
  1
Layout1
 70
     1
 71
     1
 10
0.0
 20
0.0
 11
420.0
 21
297.0
 12
0.0
 22
0.0
 32
0.0
 14
1.0000000000E+20
 24
1.0000000000E+20
 34
1.0000000000E+20
 15
-1.0000000000E+20
 25
-1.0000000000E+20
 35
-1.0000000000E+20
146
0.0
 13
0.0
 23
0.0
 33
0.0
 16
1.0
 26
0.0
 36
0.0
 17
0.0
 27
1.0
 37
0.0
 76
     0
330
1B
  0
LAYOUT
  5
26
102
{ACAD_REACTORS
330
1A
102
}
330
1A
100
AcDbPlotSettings
  1

  2
none_device
  4

  6

 40
0.0
 41
0.0
 42
0.0
 43
0.0
 44
0.0
 45
0.0
 46
0.0
 47
0.0
 48
0.0
 49
0.0
140
0.0
141
0.0
142
1.0
143
1.0
 70
   688
 72
     1
 73
     0
 74
     5
  7

 75
    16
147
1.0
148
0.0
149
0.0
100
AcDbLayout
  1
Layout2
 70
     1
 71
     2
 10
0.0
 20
0.0
 11
0.0
 21
0.0
 12
0.0
 22
0.0
 32
0.0
 14
0.0
 24
0.0
 34
0.0
 15
0.0
 25
0.0
 35
0.0
146
0.0
 13
0.0
 23
0.0
 33
0.0
 16
1.0
 26
0.0
 36
0.0
 17
0.0
 27
1.0
 37
0.0
 76
     0
330
23
  0
LAYOUT
  5
22
102
{ACAD_REACTORS
330
1A
102
}
330
1A
100
AcDbPlotSettings
  1

  2
none_device
  4
Letter_(8.50_x_11.00_Inches)
  6

 40
6.35
 41
6.35
 42
6.35000508
 43
6.35000508
 44
215.9
 45
279.4
 46
0.0
 47
0.0
 48
0.0
 49
0.0
140
0.0
141
0.0
142
1.0
143
1.0
 70
  1712
 72
     1
 73
     0
 74
     0
  7

 75
     0
147
1.0
148
0.0
149
0.0
100
AcDbLayout
  1
Model
 70
     1
 71
     0
 10
0.0
 20
0.0
 11
431.8
 21
279.4
 12
0.0
 22
0.0
 32
0.0
 14
0.0
 24
0.0
 34
0.0
 15
431.8
 25
279.4
 35
0.0
146
0.0
 13
0.0
 23
0.0
 33
0.0
 16
1.0
 26
0.0
 36
0.0
 17
0.0
 27
1.0
 37
0.0
 76
     0
330
1F
331
29
  0
MLINESTYLE
  5
18
102
{ACAD_REACTORS
330
17
102
}
330
17
100
AcDbMlineStyle
  2
Standard
 70
     0
  3

 62
   256
 51
90.0
 52
90.0
 71
     2
 49
0.5
 62
   256
  6
BYLAYER
 49
-0.5
 62
   256
  6
BYLAYER
  0
ACDBPLACEHOLDER
  5
F
102
{ACAD_REACTORS
330
E
102
}
330
E
  0
SCALE
  5
48
102
{ACAD_REACTORS
330
47
102
}
330
47
100
AcDbScale
 70
     0
300
1:1
140
1.0
141
1.0
290
     1
  0
SCALE
  5
49
102
{ACAD_REACTORS
330
47
102
}
330
47
100
AcDbScale
 70
     0
300
1:2
140
1.0
141
2.0
290
     0
  0
SCALE
  5
4A
102
{ACAD_REACTORS
330
47
102
}
330
47
100
AcDbScale
 70
     0
300
1:4
140
1.0
141
4.0
290
     0
  0
SCALE
  5
4B
102
{ACAD_REACTORS
330
47
102
}
330
47
100
AcDbScale
 70
     0
300
1:5
140
1.0
141
5.0
290
     0
  0
SCALE
  5
4C
102
{ACAD_REACTORS
330
47
102
}
330
47
100
AcDbScale
 70
     0
300
1:8
140
1.0
141
8.0
290
     0
  0
SCALE
  5
4D
102
{ACAD_REACTORS
330
47
102
}
330
47
100
AcDbScale
 70
     0
300
1:10
140
1.0
141
10.0
290
     0
  0
SCALE
  5
4E
102
{ACAD_REACTORS
330
47
102
}
330
47
100
AcDbScale
 70
     0
300
1:16
140
1.0
141
16.0
290
     0
  0
SCALE
  5
4F
102
{ACAD_REACTORS
330
47
102
}
330
47
100
AcDbScale
 70
     0
300
1:20
140
1.0
141
20.0
290
     0
  0
SCALE
  5
50
102
{ACAD_REACTORS
330
47
102
}
330
47
100
AcDbScale
 70
     0
300
1:30
140
1.0
141
30.0
290
     0
  0
SCALE
  5
51
102
{ACAD_REACTORS
330
47
102
}
330
47
100
AcDbScale
 70
     0
300
1:40
140
1.0
141
40.0
290
     0
  0
SCALE
  5
52
102
{ACAD_REACTORS
330
47
102
}
330
47
100
AcDbScale
 70
     0
300
1:50
140
1.0
141
50.0
290
     0
  0
SCALE
  5
53
102
{ACAD_REACTORS
330
47
102
}
330
47
100
AcDbScale
 70
     0
300
1:100
140
1.0
141
100.0
290
     0
  0
SCALE
  5
54
102
{ACAD_REACTORS
330
47
102
}
330
47
100
AcDbScale
 70
     0
300
2:1
140
2.0
141
1.0
290
     0
  0
SCALE
  5
55
102
{ACAD_REACTORS
330
47
102
}
330
47
100
AcDbScale
 70
     0
300
4:1
140
4.0
141
1.0
290
     0
  0
SCALE
  5
56
102
{ACAD_REACTORS
330
47
102
}
330
47
100
AcDbScale
 70
     0
300
8:1
140
8.0
141
1.0
290
     0
  0
SCALE
  5
57
102
{ACAD_REACTORS
330
47
102
}
330
47
100
AcDbScale
 70
     0
300
10:1
140
10.0
141
1.0
290
     0
  0
SCALE
  5
58
102
{ACAD_REACTORS
330
47
102
}
330
47
100
AcDbScale
 70
     0
300
100:1
140
100.0
141
1.0
290
     0
  0
SCALE
  5
59
102
{ACAD_REACTORS
330
47
102
}
330
47
100
AcDbScale
 70
     0
300
1/128" = 1'-0"
140
0.0078125
141
12.0
290
     0
  0
SCALE
  5
5A
102
{ACAD_REACTORS
330
47
102
}
330
47
100
AcDbScale
 70
     0
300
1/64" = 1'-0"
140
0.015625
141
12.0
290
     0
  0
SCALE
  5
5B
102
{ACAD_REACTORS
330
47
102
}
330
47
100
AcDbScale
 70
     0
300
1/32" = 1'-0"
140
0.03125
141
12.0
290
     0
  0
SCALE
  5
5C
102
{ACAD_REACTORS
330
47
102
}
330
47
100
AcDbScale
 70
     0
300
1/16" = 1'-0"
140
0.0625
141
12.0
290
     0
  0
SCALE
  5
5D
102
{ACAD_REACTORS
330
47
102
}
330
47
100
AcDbScale
 70
     0
300
3/32" = 1'-0"
140
0.09375
141
12.0
290
     0
  0
SCALE
  5
5E
102
{ACAD_REACTORS
330
47
102
}
330
47
100
AcDbScale
 70
     0
300
1/8" = 1'-0"
140
0.125
141
12.0
290
     0
  0
SCALE
  5
5F
102
{ACAD_REACTORS
330
47
102
}
330
47
100
AcDbScale
 70
     0
300
3/16" = 1'-0"
140
0.1875
141
12.0
290
     0
  0
SCALE
  5
60
102
{ACAD_REACTORS
330
47
102
}
330
47
100
AcDbScale
 70
     0
300
1/4" = 1'-0"
140
0.25
141
12.0
290
     0
  0
SCALE
  5
61
102
{ACAD_REACTORS
330
47
102
}
330
47
100
AcDbScale
 70
     0
300
3/8" = 1'-0"
140
0.375
141
12.0
290
     0
  0
SCALE
  5
62
102
{ACAD_REACTORS
330
47
102
}
330
47
100
AcDbScale
 70
     0
300
1/2" = 1'-0"
140
0.5
141
12.0
290
     0
  0
SCALE
  5
63
102
{ACAD_REACTORS
330
47
102
}
330
47
100
AcDbScale
 70
     0
300
3/4" = 1'-0"
140
0.75
141
12.0
290
     0
  0
SCALE
  5
64
102
{ACAD_REACTORS
330
47
102
}
330
47
100
AcDbScale
 70
     0
300
1" = 1'-0"
140
1.0
141
12.0
290
     0
  0
SCALE
  5
65
102
{ACAD_REACTORS
330
47
102
}
330
47
100
AcDbScale
 70
     0
300
1-1/2" = 1'-0"
140
1.5
141
12.0
290
     0
  0
SCALE
  5
66
102
{ACAD_REACTORS
330
47
102
}
330
47
100
AcDbScale
 70
     0
300
3" = 1'-0"
140
3.0
141
12.0
290
     0
  0
SCALE
  5
67
102
{ACAD_REACTORS
330
47
102
}
330
47
100
AcDbScale
 70
     0
300
6" = 1'-0"
140
6.0
141
12.0
290
     0
  0
SCALE
  5
68
102
{ACAD_REACTORS
330
47
102
}
330
47
100
AcDbScale
 70
     0
300
1'-0" = 1'-0"
140
12.0
141
12.0
290
     0
  0
ENDSEC
  0
EOF
