  0
SECTION
  2
HEADER
  9
$ACADVER
  1
AC1015
  9
$ACADMAINTVER
 70
     6
  9
$DWGCODEPAGE
  3
DOS932
  9
$INSBASE
 10
0.0
 20
0.0
 30
0.0
  9
$EXTMIN
 10
0.0
 20
0.0
 30
0.0
  9
$EXTMAX
 10
431.8
 20
279.4
 30
0.0
  9
$LIMMIN
 10
0.0
 20
0.0
  9
$LIMMAX
 10
431.8
 20
279.4
  9
$ORTHOMODE
 70
     0
  9
$REGENMODE
 70
     1
  9
$FILLMODE
 70
     1
  9
$QTEXTMODE
 70
     0
  9
$MIRRTEXT
 70
     1
  9
$LTSCALE
 40
1.0
  9
$ATTMODE
 70
     1
  9
$TEXTSIZE
 40
3.5
  9
$TRACEWID
 40
1.0
  9
$TEXTSTYLE
  7
Standard
  9
$CLAYER
  8
0
  9
$CELTYPE
  6
ByLayer
  9
$CECOLOR
 62
   256
  9
$CELTSCALE
 40
1.0
  9
$DISPSILH
 70
     0
  9
$DIMSCALE
 40
1.0
  9
$DIMASZ
 40
3.302
  9
$DIMEXO
 40
1.0
  9
$DIMDLI
 40
3.75
  9
$DIMRND
 40
0.0
  9
$DIMDLE
 40
0.0
  9
$DIMEXE
 40
1.0
  9
$DIMTP
 40
0.0
  9
$DIMTM
 40
0.0
  9
$DIMTXT
 40
3.5
  9
$DIMCEN
 40
2.5
  9
$DIMTSZ
 40
0.0
  9
$DIMTOL
 70
     0
  9
$DIMLIM
 70
     0
  9
$DIMTIH
 70
     1
  9
$DIMTOH
 70
     1
  9
$DIMSE1
 70
     0
  9
$DIMSE2
 70
     0
  9
$DIMTAD
 70
     1
  9
$DIMZIN
 70
     1
  9
$DIMBLK
  1

  9
$DIMASO
 70
     1
  9
$DIMSHO
 70
     1
  9
$DIMPOST
  1

  9
$DIMAPOST
  1

  9
$DIMALT
 70
     0
  9
$DIMALTD
 70
     3
  9
$DIMALTF
 40
0.0393700787
  9
$DIMLFAC
 40
1.0
  9
$DIMTOFL
 70
     1
  9
$DIMTVP
 40
0.0
  9
$DIMTIX
 70
     0
  9
$DIMSOXD
 70
     0
  9
$DIMSAH
 70
     0
  9
$DIMBLK1
  1

  9
$DIMBLK2
  1

  9
$DIMSTYLE
  2
ISO-25
  9
$DIMCLRD
 70
     0
  9
$DIMCLRE
 70
     0
  9
$DIMCLRT
 70
     0
  9
$DIMTFAC
 40
1.0
  9
$DIMGAP
 40
1.524
  9
$DIMJUST
 70
     0
  9
$DIMSD1
 70
     0
  9
$DIMSD2
 70
     0
  9
$DIMTOLJ
 70
     0
  9
$DIMTZIN
 70
     1
  9
$DIMALTZ
 70
     0
  9
$DIMALTTZ
 70
     0
  9
$DIMUPT
 70
     0
  9
$DIMDEC
 70
     2
  9
$DIMTDEC
 70
     2
  9
$DIMALTU
 70
     2
  9
$DIMALTTD
 70
     3
  9
$DIMTXSTY
  7
Standard
  9
$DIMAUNIT
 70
     0
  9
$DIMADEC
 70
     2
  9
$DIMALTRND
 40
0.0
  9
$DIMAZIN
 70
     0
  9
$DIMDSEP
 70
    44
  9
$DIMATFIT
 70
     3
  9
$DIMFRAC
 70
     0
  9
$DIMLDRBLK
  1

  9
$DIMLUNIT
 70
     2
  9
$DIMLWD
 70
    -2
  9
$DIMLWE
 70
    -2
  9
$DIMTMOVE
 70
     0
  9
$LUNITS
 70
     2
  9
$LUPREC
 70
     2
  9
$SKETCHINC
 40
1.0
  9
$FILLETRAD
 40
10.0
  9
$AUNITS
 70
     0
  9
$AUPREC
 70
     2
  9
$MENU
  1
.
  9
$ELEVATION
 40
0.0
  9
$PELEVATION
 40
0.0
  9
$THICKNESS
 40
0.0
  9
$LIMCHECK
 70
     0
  9
$CHAMFERA
 40
0.0
  9
$CHAMFERB
 40
0.0
  9
$CHAMFERC
 40
0.0
  9
$CHAMFERD
 40
0.0
  9
$SKPOLY
 70
     0
  9
$TDCREATE
 40
2459486.417604178
  9
$TDUCREATE
 40
2459486.042604178
  9
$TDUPDATE
 40
2459486.417604769
  9
$TDUUPDATE
 40
2459486.042604769
  9
$TDINDWG
 40
0.0000000116
  9
$TDUSRTIMER
 40
0.0000000116
  9
$USRTIMER
 70
     1
  9
$ANGBASE
 50
0.0
  9
$ANGDIR
 70
     0
  9
$PDMODE
 70
     0
  9
$PDSIZE
 40
-1.0
  9
$PLINEWID
 40
0.0
  9
$SPLFRAME
 70
     0
  9
$SPLINETYPE
 70
     6
  9
$SPLINESEGS
 70
     8
  9
$HANDSEED
  5
18B
  9
$SURFTAB1
 70
     6
  9
$SURFTAB2
 70
     6
  9
$SURFTYPE
 70
     6
  9
$SURFU
 70
     6
  9
$SURFV
 70
     6
  9
$UCSBASE
  2

  9
$UCSNAME
  2

  9
$UCSORG
 10
0.0
 20
0.0
 30
0.0
  9
$UCSXDIR
 10
1.0
 20
0.0
 30
0.0
  9
$UCSYDIR
 10
0.0
 20
1.0
 30
0.0
  9
$UCSORTHOREF
  2

  9
$UCSORTHOVIEW
 70
     0
  9
$UCSORGTOP
 10
0.0
 20
0.0
 30
0.0
  9
$UCSORGBOTTOM
 10
0.0
 20
0.0
 30
0.0
  9
$UCSORGLEFT
 10
0.0
 20
0.0
 30
0.0
  9
$UCSORGRIGHT
 10
0.0
 20
0.0
 30
0.0
  9
$UCSORGFRONT
 10
0.0
 20
0.0
 30
0.0
  9
$UCSORGBACK
 10
0.0
 20
0.0
 30
0.0
  9
$PUCSBASE
  2

  9
$PUCSNAME
  2

  9
$PUCSORG
 10
0.0
 20
0.0
 30
0.0
  9
$PUCSXDIR
 10
1.0
 20
0.0
 30
0.0
  9
$PUCSYDIR
 10
0.0
 20
1.0
 30
0.0
  9
$PUCSORTHOREF
  2

  9
$PUCSORTHOVIEW
 70
     0
  9
$PUCSORGTOP
 10
0.0
 20
0.0
 30
0.0
  9
$PUCSORGBOTTOM
 10
0.0
 20
0.0
 30
0.0
  9
$PUCSORGLEFT
 10
0.0
 20
0.0
 30
0.0
  9
$PUCSORGRIGHT
 10
0.0
 20
0.0
 30
0.0
  9
$PUCSORGFRONT
 10
0.0
 20
0.0
 30
0.0
  9
$PUCSORGBACK
 10
0.0
 20
0.0
 30
0.0
  9
$USERI1
 70
     0
  9
$USERI2
 70
     0
  9
$USERI3
 70
     0
  9
$USERI4
 70
     0
  9
$USERI5
 70
     0
  9
$USERR1
 40
0.0
  9
$USERR2
 40
0.0
  9
$USERR3
 40
0.0
  9
$USERR4
 40
0.0
  9
$USERR5
 40
0.0
  9
$WORLDVIEW
 70
     1
  9
$SHADEDGE
 70
     3
  9
$SHADEDIF
 70
    70
  9
$TILEMODE
 70
     1
  9
$MAXACTVP
 70
    64
  9
$PINSBASE
 10
0.0
 20
0.0
 30
0.0
  9
$PLIMCHECK
 70
     0
  9
$PEXTMIN
 10
1.0000000000E+20
 20
1.0000000000E+20
 30
1.0000000000E+20
  9
$PEXTMAX
 10
-1.0000000000E+20
 20
-1.0000000000E+20
 30
-1.0000000000E+20
  9
$PLIMMIN
 10
0.0
 20
0.0
  9
$PLIMMAX
 10
420.0
 20
297.0
  9
$UNITMODE
 70
     0
  9
$VISRETAIN
 70
     1
  9
$PLINEGEN
 70
     0
  9
$PSLTSCALE
 70
     1
  9
$TREEDEPTH
 70
  3020
  9
$CMLSTYLE
  2
Standard
  9
$CMLJUST
 70
     0
  9
$CMLSCALE
 40
20.0
  9
$PROXYGRAPHICS
 70
     1
  9
$MEASUREMENT
 70
     1
  9
$CELWEIGHT
370
    -1
  9
$ENDCAPS
280
     0
  9
$JOINSTYLE
280
     0
  9
$LWDISPLAY
290
     1
  9
$INSUNITS
 70
     4
  9
$HYPERLINKBASE
  1

  9
$STYLESHEET
  1

  9
$XEDIT
290
     1
  9
$CEPSNTYPE
380
     0
  9
$PSTYLEMODE
290
     1
  9
$FINGERPRINTGUID
  2
{488ADBD0-8FDE-4EBF-83C7-C8E1A8AF097E}
  9
$VERSIONGUID
  2
{FAEB1C32-E019-11D5-929B-00C0DF256EC4}
  9
$EXTNAMES
290
     1
  9
$PSVPSCALE
 40
0.0
  9
$OLESTARTUP
290
     0
  0
ENDSEC
  0
SECTION
  2
CLASSES
  0
CLASS
  1
ACDBDICTIONARYWDFLT
  2
AcDbDictionaryWithDefault
  3
ObjectDBX Classes
 90
        0
280
     0
281
     0
  0
CLASS
  1
VISUALSTYLE
  2
AcDbVisualStyle
  3
ObjectDBX Classes
 90
     4095
280
     0
281
     0
  0
CLASS
  1
MATERIAL
  2
AcDbMaterial
  3
ObjectDBX Classes
 90
     1153
280
     0
281
     0
  0
CLASS
  1
SCALE
  2
AcDbScale
  3
ObjectDBX Classes
 90
     1153
280
     0
281
     0
  0
CLASS
  1
TABLESTYLE
  2
AcDbTableStyle
  3
ObjectDBX Classes
 90
     4095
280
     0
281
     0
  0
CLASS
  1
MLEADERSTYLE
  2
AcDbMLeaderStyle
  3
ACDB_MLEADERSTYLE_CLASS
 90
     4095
280
     0
281
     0
  0
CLASS
  1
SUN
  2
AcDbSun
  3
SCENEOE
 90
     1153
280
     0
281
     0
  0
CLASS
  1
ACDBPLACEHOLDER
  2
AcDbPlaceHolder
  3
ObjectDBX Classes
 90
        0
280
     0
281
     0
  0
CLASS
  1
LAYOUT
  2
AcDbLayout
  3
ObjectDBX Classes
 90
        0
280
     0
281
     0
  0
ENDSEC
  0
SECTION
  2
TABLES
  0
TABLE
  2
VPORT
  5
8
330
0
100
AcDbSymbolTable
 70
     1
  0
VPORT
  5
29
330
8
100
AcDbSymbolTableRecord
100
AcDbViewportTableRecord
  2
*Active
 70
     0
 10
0.0
 20
0.0
 11
1.0
 21
1.0
 12
215.9
 22
139.7
 13
0.0
 23
0.0
 14
10.0
 24
10.0
 15
10.0
 25
10.0
 16
0.0
 26
0.0
 36
1.0
 17
0.0
 27
0.0
 37
0.0
 40
279.4
 41
1.5454545455
 42
50.0
 43
0.0
 44
0.0
 50
0.0
 51
0.0
 71
     0
 72
  2000
 73
     1
 74
     3
 75
     0
 76
     0
 77
     0
 78
     0
281
     0
 65
     1
110
0.0
120
0.0
130
0.0
111
1.0
121
0.0
131
0.0
112
0.0
122
1.0
132
0.0
 79
     0
146
0.0
  0
ENDTAB
  0
TABLE
  2
LTYPE
  5
5
330
0
100
AcDbSymbolTable
 70
     6
  0
LTYPE
  5
14
330
5
100
AcDbSymbolTableRecord
100
AcDbLinetypeTableRecord
  2
ByBlock
 70
     0
  3

 72
    65
 73
     0
 40
0.0
  0
LTYPE
  5
15
330
5
100
AcDbSymbolTableRecord
100
AcDbLinetypeTableRecord
  2
ByLayer
 70
     0
  3

 72
    65
 73
     0
 40
0.0
  0
LTYPE
  5
16
330
5
100
AcDbSymbolTableRecord
100
AcDbLinetypeTableRecord
  2
Continuous
 70
     0
  3
Solid line
 72
    65
 73
     0
 40
0.0
  0
LTYPE
  5
6E
330
5
100
AcDbSymbolTableRecord
100
AcDbLinetypeTableRecord
  2
HIDDEN
 70
     0
  3
Hidden __ __ __ __ __ __ __ __ __ __ __ __ __ __
 72
    65
 73
     2
 40
1.905
 49
1.27
 74
     0
 49
-0.635
 74
     0
  0
LTYPE
  5
6F
330
5
100
AcDbSymbolTableRecord
100
AcDbLinetypeTableRecord
  2
PHANTOM
 70
     0
  3
Phantom ______  __  __  ______  __  __  ______
 72
    65
 73
     6
 40
12.7
 49
6.35
 74
     0
 49
-1.27
 74
     0
 49
1.27
 74
     0
 49
-1.27
 74
     0
 49
1.27
 74
     0
 49
-1.27
 74
     0
  0
LTYPE
  5
70
330
5
100
AcDbSymbolTableRecord
100
AcDbLinetypeTableRecord
  2
CENTER
 70
     0
  3
Center ____ _ ____ _ ____ _ ____ _ ____ _ ____
 72
    65
 73
     4
 40
10.16
 49
6.35
 74
     0
 49
-1.27
 74
     0
 49
1.27
 74
     0
 49
-1.27
 74
     0
  0
LTYPE
  5
71
330
5
100
AcDbSymbolTableRecord
100
AcDbLinetypeTableRecord
  2
CENTERX2
 70
     0
  3
Center (2x) ________  __  ________  __  _____
 72
    65
 73
     4
 40
20.32
 49
12.7
 74
     0
 49
-2.54
 74
     0
 49
2.54
 74
     0
 49
-2.54
 74
     0
  0
LTYPE
  5
72
330
5
100
AcDbSymbolTableRecord
100
AcDbLinetypeTableRecord
  2
DOT2
 70
     0
  3
Dot (.5x) ........................................
 72
    65
 73
     2
 40
0.635
 49
0.0
 74
     0
 49
-0.635
 74
     0
  0
ENDTAB
  0
TABLE
  2
LAYER
  5
2
330
0
100
AcDbSymbolTable
 70
     1
  0
LAYER
  5
10
330
2
100
AcDbSymbolTableRecord
100
AcDbLayerTableRecord
  2
0
 70
     0
 62
     7
  6
Continuous
370
    -3
390
F
  0
ENDTAB
  0
TABLE
  2
STYLE
  5
3
330
0
100
AcDbSymbolTable
 70
     2
  0
STYLE
  5
11
330
3
100
AcDbSymbolTableRecord
100
AcDbTextStyleTableRecord
  2
Standard
 70
     0
 40
0.0
 41
1.0
 50
0.0
 71
     0
 42
3.5
  3
txt
  4
bigfont
  0
STYLE
  5
73
330
3
100
AcDbSymbolTableRecord
100
AcDbTextStyleTableRecord
  2
SLDTEXTSTYLE0
 70
     0
 40
0.0
 41
0.7
 50
0.0
 71
     0
 42
3.5
  3
TXT
  4
bigfont
  0
ENDTAB
  0
TABLE
  2
VIEW
  5
6
330
0
100
AcDbSymbolTable
 70
     0
  0
ENDTAB
  0
TABLE
  2
UCS
  5
7
330
0
100
AcDbSymbolTable
 70
     0
  0
ENDTAB
  0
TABLE
  2
APPID
  5
9
330
0
100
AcDbSymbolTable
 70
     1
  0
APPID
  5
12
330
9
100
AcDbSymbolTableRecord
100
AcDbRegAppTableRecord
  2
ACAD
 70
     0
  0
ENDTAB
  0
TABLE
  2
DIMSTYLE
  5
A
330
0
100
AcDbSymbolTable
 70
     1
100
AcDbDimStyleTable
  0
DIMSTYLE
105
27
330
A
100
AcDbSymbolTableRecord
100
AcDbDimStyleTableRecord
  2
ISO-25
 70
     0
 41
2.5
 42
0.625
 43
3.75
 44
1.25
 73
     0
 74
     0
 77
     1
 78
     8
140
2.5
141
2.5
143
0.0393700787
147
0.625
171
     3
172
     1
178
     0
271
     2
272
     2
274
     3
278
    44
283
     0
284
     8
340
11
  0
ENDTAB
  0
TABLE
  2
BLOCK_RECORD
  5
1
330
0
100
AcDbSymbolTable
 70
     2
  0
BLOCK_RECORD
  5
1F
330
1
100
AcDbSymbolTableRecord
100
AcDbBlockTableRecord
  2
*Model_Space
340
22
  0
BLOCK_RECORD
  5
1B
330
1
100
AcDbSymbolTableRecord
100
AcDbBlockTableRecord
  2
*Paper_Space
340
1E
  0
BLOCK_RECORD
  5
23
330
1
100
AcDbSymbolTableRecord
100
AcDbBlockTableRecord
  2
*Paper_Space0
340
26
  0
BLOCK_RECORD
  5
107
330
1
100
AcDbSymbolTableRecord
100
AcDbBlockTableRecord
  2
SW_CENTERMARKSYMBOL_0
340
0
102
{BLKREFS
331
112
102
}
  0
ENDTAB
  0
ENDSEC
  0
SECTION
  2
BLOCKS
  0
BLOCK
  5
20
330
1F
100
AcDbEntity
  8
0
100
AcDbBlockBegin
  2
*Model_Space
 70
     0
 10
0.0
 20
0.0
 30
0.0
  3
*Model_Space
  1

  0
ENDBLK
  5
21
330
1F
100
AcDbEntity
  8
0
100
AcDbBlockEnd
  0
BLOCK
  5
1C
330
1B
100
AcDbEntity
 67
     1
  8
0
100
AcDbBlockBegin
  2
*Paper_Space
 70
     0
 10
0.0
 20
0.0
 30
0.0
  3
*Paper_Space
  1

  0
ENDBLK
  5
1D
330
1B
100
AcDbEntity
 67
     1
  8
0
100
AcDbBlockEnd
  0
BLOCK
  5
24
330
23
100
AcDbEntity
  8
0
100
AcDbBlockBegin
  2
*Paper_Space0
 70
     0
 10
0.0
 20
0.0
 30
0.0
  3
*Paper_Space0
  1

  0
ENDBLK
  5
25
330
23
100
AcDbEntity
  8
0
100
AcDbBlockEnd
  0
BLOCK
  5
108
330
107
100
AcDbEntity
  8
0
100
AcDbBlockBegin
  2
SW_CENTERMARKSYMBOL_0
 70
     0
 10
0.0
 20
0.0
 30
0.0
  3
SW_CENTERMARKSYMBOL_0
  1

  0
LINE
  5
10A
330
107
100
AcDbEntity
  8
0
  6
Continuous
 62
     0
370
    18
100
AcDbLine
 10
0.0
 20
0.0
 30
0.0
 11
0.0
 21
2.5
 31
0.0
  0
LINE
  5
10B
330
107
100
AcDbEntity
  8
0
  6
Continuous
 62
     0
370
    18
100
AcDbLine
 10
0.0
 20
0.0
 30
0.0
 11
-2.5
 21
0.0
 31
0.0
  0
LINE
  5
10C
330
107
100
AcDbEntity
  8
0
  6
Continuous
 62
     0
370
    18
100
AcDbLine
 10
0.0
 20
0.0
 30
0.0
 11
0.0
 21
-2.5
 31
0.0
  0
LINE
  5
10D
330
107
100
AcDbEntity
  8
0
  6
Continuous
 62
     0
370
    18
100
AcDbLine
 10
0.0
 20
0.0
 30
0.0
 11
2.5
 21
0.0
 31
0.0
  0
LINE
  5
10E
330
107
100
AcDbEntity
  8
0
  6
Continuous
 62
     0
370
    18
100
AcDbLine
 10
0.0
 20
5.0
 30
0.0
 11
0.0
 21
18.7053132304
 31
0.0
  0
LINE
  5
10F
330
107
100
AcDbEntity
  8
0
  6
Continuous
 62
     0
370
    18
100
AcDbLine
 10
-5.0
 20
0.0
 30
0.0
 11
-17.25
 21
0.0
 31
0.0
  0
LINE
  5
110
330
107
100
AcDbEntity
  8
0
  6
Continuous
 62
     0
370
    18
100
AcDbLine
 10
0.0
 20
-5.0
 30
0.0
 11
0.0
 21
-18.4332663984
 31
0.0
  0
LINE
  5
111
330
107
100
AcDbEntity
  8
0
  6
Continuous
 62
     0
370
    18
100
AcDbLine
 10
5.0
 20
0.0
 30
0.0
 11
17.25
 21
0.0
 31
0.0
  0
ENDBLK
  5
109
330
107
100
AcDbEntity
  8
0
100
AcDbBlockEnd
  0
ENDSEC
  0
SECTION
  2
ENTITIES
  0
MTEXT
  5
74
330
1F
100
AcDbEntity
  8
0
  6
Continuous
 62
     7
370
     0
100
AcDbMText
 10
191.1477775851
 20
111.292717351
 30
0.0
 40
4.2333333333
 41
0.0
 71
     1
 72
     1
  1
HS-1420R
  7
SLDTEXTSTYLE0
 73
     1
 44
1.0
  0
LINE
  5
75
330
1F
100
AcDbEntity
  8
0
  6
Continuous
 62
     7
370
    25
100
AcDbLine
 10
167.8811463994
 20
69.0570211855
 30
0.0
 11
172.8811463994
 21
70.0570211855
 31
0.0
  0
LINE
  5
76
330
1F
100
AcDbEntity
  8
0
  6
Continuous
 62
     7
370
    25
100
AcDbLine
 10
172.8811463994
 20
88.5570211855
 30
0.0
 11
167.8811463994
 21
89.5570211855
 31
0.0
  0
LINE
  5
77
330
1F
100
AcDbEntity
  8
0
  6
Continuous
 62
     7
370
    25
100
AcDbLine
 10
177.8811463994
 20
69.0570211855
 30
0.0
 11
184.8888685227
 21
69.932986451
 31
0.0
  0
LINE
  5
78
330
1F
100
AcDbEntity
  8
0
  6
Continuous
 62
     7
370
    25
100
AcDbLine
 10
184.8888685227
 20
88.6810559201
 30
0.0
 11
177.8811463994
 21
89.5570211855
 31
0.0
  0
LINE
  5
79
330
1F
100
AcDbEntity
  8
0
  6
Continuous
 62
     7
370
    25
100
AcDbLine
 10
162.8811463994
 20
69.0570211855
 30
0.0
 11
167.8811463994
 21
70.0570211855
 31
0.0
  0
LINE
  5
7A
330
1F
100
AcDbEntity
  8
0
  6
Continuous
 62
     7
370
    25
100
AcDbLine
 10
167.8811463994
 20
88.5570211855
 30
0.0
 11
162.8811463994
 21
89.5570211855
 31
0.0
  0
LINE
  5
7B
330
1F
100
AcDbEntity
  8
0
  6
Continuous
 62
     7
370
    25
100
AcDbLine
 10
172.8811463994
 20
69.0570211855
 30
0.0
 11
177.8811463994
 21
70.0570211855
 31
0.0
  0
LINE
  5
7C
330
1F
100
AcDbEntity
  8
0
  6
Continuous
 62
     7
370
    25
100
AcDbLine
 10
177.8811463994
 20
88.5570211855
 30
0.0
 11
172.8811463994
 21
89.5570211855
 31
0.0
  0
LINE
  5
7D
330
1F
100
AcDbEntity
  8
0
  6
Continuous
 62
     7
370
    25
100
AcDbLine
 10
157.8811463994
 20
69.0570211855
 30
0.0
 11
162.8811463994
 21
70.0570211855
 31
0.0
  0
LINE
  5
7E
330
1F
100
AcDbEntity
  8
0
  6
Continuous
 62
     7
370
    25
100
AcDbLine
 10
162.8811463994
 20
88.5570211855
 30
0.0
 11
157.8811463994
 21
89.5570211855
 31
0.0
  0
LINE
  5
7F
330
1F
100
AcDbEntity
  8
0
  6
Continuous
 62
     7
370
    25
100
AcDbLine
 10
157.8811463994
 20
89.5570211855
 30
0.0
 11
151.3811463994
 21
89.5570211855
 31
0.0
  0
LINE
  5
80
330
1F
100
AcDbEntity
  8
0
  6
Continuous
 62
     7
370
    25
100
AcDbLine
 10
151.3811463994
 20
69.0570211855
 30
0.0
 11
157.8811463994
 21
69.0570211855
 31
0.0
  0
LINE
  5
81
330
1F
100
AcDbEntity
  8
0
  6
Continuous
 62
     7
370
    25
100
AcDbLine
 10
184.8888685227
 20
69.932986451
 30
0.0
 11
185.8811463994
 21
71.2087722924
 31
0.0
  0
LINE
  5
82
330
1F
100
AcDbEntity
  8
0
  6
Continuous
 62
     7
370
    25
100
AcDbLine
 10
185.8811463994
 20
87.4052700786
 30
0.0
 11
184.8888685227
 21
88.6810559201
 31
0.0
  0
LINE
  5
83
330
1F
100
AcDbEntity
  8
0
  6
Continuous
 62
     7
370
    25
100
AcDbLine
 10
147.89706287
 20
61.9865131099
 30
0.0
 11
149.3811463994
 21
64.5570211855
 31
0.0
  0
LINE
  5
84
330
1F
100
AcDbEntity
  8
0
  6
Continuous
 62
     7
370
    25
100
AcDbLine
 10
149.3811463994
 20
94.0570211855
 30
0.0
 11
147.89706287
 21
96.6275292612
 31
0.0
  0
LINE
  5
85
330
1F
100
AcDbEntity
  8
0
  6
Continuous
 62
     7
370
    25
100
AcDbLine
 10
137.3652299289
 20
96.6275292612
 30
0.0
 11
135.8811463994
 21
94.0570211855
 31
0.0
  0
LINE
  5
86
330
1F
100
AcDbEntity
  8
0
  6
Continuous
 62
     7
370
    25
100
AcDbLine
 10
135.8811463994
 20
64.5570211855
 30
0.0
 11
137.3652299289
 21
61.9865131099
 31
0.0
  0
LINE
  5
87
330
1F
100
AcDbEntity
  8
0
  6
Continuous
 62
     7
370
    25
100
AcDbLine
 10
135.8811463994
 20
94.0570211855
 30
0.0
 11
134.3811463994
 21
94.0570211855
 31
0.0
  0
LINE
  5
88
330
1F
100
AcDbEntity
  8
0
  6
Continuous
 62
     7
370
    25
100
AcDbLine
 10
134.3811463994
 20
64.5570211855
 30
0.0
 11
135.8811463994
 21
64.5570211855
 31
0.0
  0
LINE
  5
89
330
1F
100
AcDbEntity
  8
0
  6
Continuous
 62
     7
370
    25
100
AcDbLine
 10
149.3811463994
 20
64.5570211855
 30
0.0
 11
150.8811463994
 21
64.5570211855
 31
0.0
  0
LINE
  5
8A
330
1F
100
AcDbEntity
  8
0
  6
Continuous
 62
     7
370
    25
100
AcDbLine
 10
150.8811463994
 20
94.0570211855
 30
0.0
 11
149.3811463994
 21
94.0570211855
 31
0.0
  0
LINE
  5
8B
330
1F
100
AcDbEntity
  8
0
  6
Continuous
 62
     7
370
    25
100
AcDbLine
 10
134.3811463994
 20
94.0570211855
 30
0.0
 11
133.8811463994
 21
93.5570211855
 31
0.0
  0
LINE
  5
8C
330
1F
100
AcDbEntity
  8
0
  6
Continuous
 62
     7
370
    25
100
AcDbLine
 10
133.8811463994
 20
65.0570211855
 30
0.0
 11
134.3811463994
 21
64.5570211855
 31
0.0
  0
LINE
  5
8D
330
1F
100
AcDbEntity
  8
0
  6
Continuous
 62
     7
370
    25
100
AcDbLine
 10
150.8811463994
 20
64.5570211855
 30
0.0
 11
151.3811463994
 21
65.0570211855
 31
0.0
  0
LINE
  5
8E
330
1F
100
AcDbEntity
  8
0
  6
Continuous
 62
     7
370
    25
100
AcDbLine
 10
151.3811463994
 20
93.5570211855
 30
0.0
 11
150.8811463994
 21
94.0570211855
 31
0.0
  0
LINE
  5
8F
330
1F
100
AcDbEntity
  8
0
  6
Continuous
 62
     7
370
    25
100
AcDbLine
 10
142.6311463994
 20
96.1275292612
 30
0.0
 11
142.4971718032
 21
96.6275292612
 31
0.0
  0
LINE
  5
90
330
1F
100
AcDbEntity
  8
0
  6
Continuous
 62
     7
370
    25
100
AcDbLine
 10
142.7651209956
 20
96.6275292612
 30
0.0
 11
142.6311463994
 21
96.1275292612
 31
0.0
  0
LINE
  5
91
330
1F
100
AcDbEntity
  8
0
  6
Continuous
 62
     7
370
    25
100
AcDbLine
 10
142.6311463994
 20
62.4865131099
 30
0.0
 11
142.7651209956
 21
61.9865131099
 31
0.0
  0
LINE
  5
92
330
1F
100
AcDbEntity
  8
0
  6
Continuous
 62
     7
370
    25
100
AcDbLine
 10
142.4971718032
 20
61.9865131099
 30
0.0
 11
142.6311463994
 21
62.4865131099
 31
0.0
  0
LINE
  5
93
330
1F
100
AcDbEntity
  8
0
  6
Continuous
 62
     7
370
    25
100
AcDbLine
 10
128.4281517832
 20
63.7185639174
 30
0.0
 11
129.7782607164
 21
66.0570211855
 31
0.0
  0
LINE
  5
94
330
1F
100
AcDbEntity
  8
0
  6
Continuous
 62
     7
370
    25
100
AcDbLine
 10
129.7782607164
 20
92.5570211855
 30
0.0
 11
128.4281517832
 21
94.8954784537
 31
0.0
  0
LINE
  5
95
330
1F
100
AcDbEntity
  8
0
  6
Continuous
 62
     7
370
    25
100
AcDbLine
 10
133.8811463994
 20
92.1304068685
 30
0.0
 11
132.8577607164
 21
91.1070211855
 31
0.0
  0
LINE
  5
96
330
1F
100
AcDbEntity
  8
0
  6
Continuous
 62
     7
370
    25
100
AcDbLine
 10
132.8577607164
 20
67.5070211855
 30
0.0
 11
133.8811463994
 21
66.4836355026
 31
0.0
  0
LINE
  5
97
330
1F
100
AcDbEntity
  8
0
  6
Continuous
 62
     7
370
    25
100
AcDbLine
 10
129.7782607164
 20
67.5070211855
 30
0.0
 11
132.8577607164
 21
67.5070211855
 31
0.0
  0
LINE
  5
98
330
1F
100
AcDbEntity
  8
0
  6
Continuous
 62
     7
370
    25
100
AcDbLine
 10
132.8577607164
 20
91.1070211855
 30
0.0
 11
129.7782607164
 21
91.1070211855
 31
0.0
  0
LINE
  5
99
330
1F
100
AcDbEntity
  8
0
  6
Continuous
 62
     7
370
    25
100
AcDbLine
 10
121.7782607164
 20
89.9670211855
 30
0.0
 11
110.4746519894
 21
89.6137834128
 31
0.0
  0
LINE
  5
9A
330
1F
100
AcDbEntity
  8
0
  6
Continuous
 62
     7
370
    25
100
AcDbLine
 10
110.4746519894
 20
69.0002589583
 30
0.0
 11
121.7782607164
 21
68.6470211855
 31
0.0
  0
LINE
  5
9B
330
1F
100
AcDbEntity
  8
0
  6
Continuous
 62
     7
370
    25
100
AcDbLine
 10
110.4746519894
 20
89.6137834128
 30
0.0
 11
107.7782607164
 21
88.0570211855
 31
0.0
  0
LINE
  5
9C
330
1F
100
AcDbEntity
  8
0
  6
Continuous
 62
     7
370
    25
100
AcDbLine
 10
107.7782607164
 20
70.5570211855
 30
0.0
 11
110.4746519894
 21
69.0002589583
 31
0.0
  0
LINE
  5
9D
330
1F
100
AcDbEntity
  8
0
  6
Continuous
 62
     7
370
    25
100
AcDbLine
 10
125.1032062498
 20
64.0185639174
 30
0.0
 11
125.1835910075
 21
63.7185639174
 31
0.0
  0
LINE
  5
9E
330
1F
100
AcDbEntity
  8
0
  6
Continuous
 62
     7
370
    25
100
AcDbLine
 10
125.0228214921
 20
63.7185639174
 30
0.0
 11
125.1032062498
 21
64.0185639174
 31
0.0
  0
LINE
  5
9F
330
1F
100
AcDbEntity
  8
0
  6
Continuous
 62
     7
370
    25
100
AcDbLine
 10
125.1032062498
 20
94.5954784537
 30
0.0
 11
125.0228214921
 21
94.8954784537
 31
0.0
  0
LINE
  5
A0
330
1F
100
AcDbEntity
  8
0
  6
Continuous
 62
     7
370
    25
100
AcDbLine
 10
125.1835910075
 20
94.8954784537
 30
0.0
 11
125.1032062498
 21
94.5954784537
 31
0.0
  0
LINE
  5
A1
330
1F
100
AcDbEntity
  8
0
  6
Continuous
 62
     7
370
    25
100
AcDbLine
 10
167.8811463994
 20
89.5570211855
 30
0.0
 11
167.8811463994
 21
69.0570211855
 31
0.0
  0
LINE
  5
A2
330
1F
100
AcDbEntity
  8
0
  6
Continuous
 62
     7
370
    25
100
AcDbLine
 10
177.8811463994
 20
89.5570211855
 30
0.0
 11
177.8811463994
 21
69.0570211855
 31
0.0
  0
LINE
  5
A3
330
1F
100
AcDbEntity
  8
0
  6
Continuous
 62
     7
370
    25
100
AcDbLine
 10
184.8888685227
 20
69.932986451
 30
0.0
 11
184.8888685227
 21
88.6810559201
 31
0.0
  0
LINE
  5
A4
330
1F
100
AcDbEntity
  8
0
  6
Continuous
 62
     7
370
    25
100
AcDbLine
 10
162.8811463994
 20
89.5570211855
 30
0.0
 11
162.8811463994
 21
69.0570211855
 31
0.0
  0
LINE
  5
A5
330
1F
100
AcDbEntity
  8
0
  6
Continuous
 62
     7
370
    25
100
AcDbLine
 10
172.8811463994
 20
89.5570211855
 30
0.0
 11
172.8811463994
 21
69.0570211855
 31
0.0
  0
LINE
  5
A6
330
1F
100
AcDbEntity
  8
0
  6
Continuous
 62
     7
370
    25
100
AcDbLine
 10
157.8811463994
 20
89.5570211855
 30
0.0
 11
157.8811463994
 21
69.0570211855
 31
0.0
  0
LINE
  5
A7
330
1F
100
AcDbEntity
  8
0
  6
Continuous
 62
     7
370
    25
100
AcDbLine
 10
185.8811463994
 20
87.4052700786
 30
0.0
 11
185.8811463994
 21
71.2087722924
 31
0.0
  0
LINE
  5
A8
330
1F
100
AcDbEntity
  8
0
  6
Continuous
 62
     7
370
    25
100
AcDbLine
 10
142.6311463994
 20
86.9181638018
 30
0.0
 11
142.6311463994
 21
88.4918309342
 31
0.0
  0
LINE
  5
A9
330
1F
100
AcDbEntity
  8
0
  6
Continuous
 62
     7
370
    25
100
AcDbLine
 10
142.7651209956
 20
87.9672752234
 30
0.0
 11
142.6311463994
 21
88.4918309342
 31
0.0
  0
LINE
  5
AA
330
1F
100
AcDbEntity
  8
0
  6
Continuous
 62
     7
370
    25
100
AcDbLine
 10
142.6311463994
 20
86.9181638018
 30
0.0
 11
142.7651209956
 21
87.9672752234
 31
0.0
  0
LINE
  5
AB
330
1F
100
AcDbEntity
  8
0
  6
Continuous
 62
     7
370
    25
100
AcDbLine
 10
142.7651209956
 20
96.6275292612
 30
0.0
 11
147.89706287
 21
96.6275292612
 31
0.0
  0
SPLINE
  5
AC
330
1F
100
AcDbEntity
  8
0
  6
Continuous
 62
     7
370
    25
100
AcDbSpline
210
0.0
220
0.0
230
1.0
 70
     8
 71
     3
 72
    15
 73
    11
 74
     0
 42
0.000000001
 43
0.00000001
 40
0.0
 40
0.0
 40
0.0
 40
0.0
 40
0.1323071196312175
 40
0.2645768296618952
 40
0.3998055717948222
 40
0.5350099115775102
 40
0.6501988847939827
 40
0.7654058260328535
 40
0.8826915738763782
 40
1.0
 40
1.0
 40
1.0
 40
1.0
 10
147.897062869956
 20
96.62752926123375
 30
0.0
 10
148.1010126176548
 20
96.25336648493482
 30
0.0
 10
148.5088544466273
 20
95.50514672619025
 30
0.0
 10
148.9476737822969
 20
94.35295392841246
 30
0.0
 10
149.2115187149636
 20
93.17904173334048
 30
0.0
 10
149.2637620451396
 20
92.04766347665667
 30
0.0
 10
149.1281857866987
 20
90.97741939480385
 30
0.0
 10
148.8504029308722
 20
89.96738441538338
 30
0.0
 10
148.4429319466744
 20
88.96191626440377
 30
0.0
 10
148.0790309549968
 20
88.29884360352992
 30
0.0
 10
147.897062869956
 20
87.96727522338932
 30
0.0
  0
LINE
  5
AD
330
1F
100
AcDbEntity
  8
0
  6
Continuous
 62
     7
370
    25
100
AcDbLine
 10
142.7651209956
 20
87.9672752234
 30
0.0
 11
147.89706287
 21
87.9672752234
 31
0.0
  0
LINE
  5
AE
330
1F
100
AcDbEntity
  8
0
  6
Continuous
 62
     7
370
    25
100
AcDbLine
 10
142.6311463994
 20
88.4918309342
 30
0.0
 11
142.4971718032
 21
87.9672752234
 31
0.0
  0
LINE
  5
AF
330
1F
100
AcDbEntity
  8
0
  6
Continuous
 62
     7
370
    25
100
AcDbLine
 10
137.3652299289
 20
87.9672752234
 30
0.0
 11
142.4971718032
 21
87.9672752234
 31
0.0
  0
SPLINE
  5
B0
330
1F
100
AcDbEntity
  8
0
  6
Continuous
 62
     7
370
    25
100
AcDbSpline
210
0.0
220
0.0
230
1.0
 70
     8
 71
     3
 72
    15
 73
    11
 74
     0
 42
0.000000001
 43
0.00000001
 40
0.0
 40
0.0
 40
0.0
 40
0.0
 40
0.1323071196312175
 40
0.2645768296618952
 40
0.3998055717948222
 40
0.5350099115775102
 40
0.6501988847939827
 40
0.7654058260328535
 40
0.8826915738763782
 40
1.0
 40
1.0
 40
1.0
 40
1.0
 10
137.365229928862
 20
96.62752926123375
 30
0.0
 10
137.1612801811633
 20
96.25336648493482
 30
0.0
 10
136.7534383521908
 20
95.50514672619025
 30
0.0
 10
136.3146190165212
 20
94.35295392841246
 30
0.0
 10
136.0507740838544
 20
93.17904173334048
 30
0.0
 10
135.9985307536785
 20
92.04766347665667
 30
0.0
 10
136.1341070121194
 20
90.97741939480385
 30
0.0
 10
136.4118898679459
 20
89.96738441538338
 30
0.0
 10
136.8193608521436
 20
88.96191626440377
 30
0.0
 10
137.1832618438213
 20
88.29884360352992
 30
0.0
 10
137.365229928862
 20
87.96727522338932
 30
0.0
  0
LINE
  5
B1
330
1F
100
AcDbEntity
  8
0
  6
Continuous
 62
     7
370
    25
100
AcDbLine
 10
137.3652299289
 20
96.6275292612
 30
0.0
 11
142.4971718032
 21
96.6275292612
 31
0.0
  0
LINE
  5
B2
330
1F
100
AcDbEntity
  8
0
  6
Continuous
 62
     7
370
    25
100
AcDbLine
 10
142.4971718032
 20
96.6275292612
 30
0.0
 11
142.6311463994
 21
96.1029735504
 31
0.0
  0
LINE
  5
B3
330
1F
100
AcDbEntity
  8
0
  6
Continuous
 62
     7
370
    25
100
AcDbLine
 10
142.6311463994
 20
96.1029735504
 30
0.0
 11
142.7651209956
 21
96.6275292612
 31
0.0
  0
SPLINE
  5
B4
330
1F
100
AcDbEntity
  8
0
  6
Continuous
 62
     7
370
    25
100
AcDbSpline
210
0.0
220
0.0
230
1.0
 70
     8
 71
     3
 72
    16
 73
    12
 74
     0
 42
0.000000001
 43
0.00000001
 40
0.0
 40
0.0
 40
0.0
 40
0.0
 40
0.094505774544042
 40
0.1890023482383824
 40
0.2844029195767152
 40
0.3797930640974021
 40
0.5054190531720957
 40
0.6310461044833378
 40
0.7600214672797239
 40
0.8890327762719119
 40
1.0
 40
1.0
 40
1.0
 40
1.0
 10
147.897062869956
 20
87.96727522338932
 30
0.0
 10
148.0450351713338
 20
87.43344566212852
 30
0.0
 10
148.3409653678701
 20
86.36583851193966
 30
0.0
 10
148.7004306420594
 20
84.73736377256016
 30
0.0
 10
148.9818955209023
 20
83.08848194836615
 30
0.0
 10
149.1888306032385
 20
81.24446395025112
 30
0.0
 10
149.2666394233537
 20
79.21188273617919
 30
0.0
 10
149.1653855472237
 20
76.98299071641398
 30
0.0
 10
148.872485084947
 20
74.7516622055786
 30
0.0
 10
148.4428326328842
 20
72.63027768093322
 30
0.0
 10
148.0696324317019
 20
71.2739428666371
 30
0.0
 10
147.897062869956
 20
70.6467671477005
 30
0.0
  0
LINE
  5
B5
330
1F
100
AcDbEntity
  8
0
  6
Continuous
 62
     7
370
    25
100
AcDbLine
 10
142.7651209956
 20
70.6467671477
 30
0.0
 11
147.89706287
 21
70.6467671477
 31
0.0
  0
LINE
  5
B6
330
1F
100
AcDbEntity
  8
0
  6
Continuous
 62
     7
370
    25
100
AcDbLine
 10
142.7651209956
 20
70.6467671477
 30
0.0
 11
142.6311463994
 21
71.6958785693
 31
0.0
  0
LINE
  5
B7
330
1F
100
AcDbEntity
  8
0
  6
Continuous
 62
     7
370
    25
100
AcDbLine
 10
142.6311463994
 20
71.6958785693
 30
0.0
 11
142.4971718032
 21
70.6467671477
 31
0.0
  0
LINE
  5
B8
330
1F
100
AcDbEntity
  8
0
  6
Continuous
 62
     7
370
    25
100
AcDbLine
 10
137.3652299289
 20
70.6467671477
 30
0.0
 11
142.4971718032
 21
70.6467671477
 31
0.0
  0
SPLINE
  5
B9
330
1F
100
AcDbEntity
  8
0
  6
Continuous
 62
     7
370
    25
100
AcDbSpline
210
0.0
220
0.0
230
1.0
 70
     8
 71
     3
 72
    16
 73
    12
 74
     0
 42
0.000000001
 43
0.00000001
 40
0.0
 40
0.0
 40
0.0
 40
0.0
 40
0.094505774544042
 40
0.1890023482383824
 40
0.2844029195767152
 40
0.3797930640974021
 40
0.5054190531720957
 40
0.6310461044833378
 40
0.7600214672797239
 40
0.8890327762719119
 40
1.0
 40
1.0
 40
1.0
 40
1.0
 10
137.365229928862
 20
87.96727522338932
 30
0.0
 10
137.2172576274843
 20
87.43344566212852
 30
0.0
 10
136.921327430948
 20
86.36583851193966
 30
0.0
 10
136.5618621567587
 20
84.73736377256016
 30
0.0
 10
136.2803972779158
 20
83.08848194836615
 30
0.0
 10
136.0734621955795
 20
81.24446395025112
 30
0.0
 10
135.9956533754644
 20
79.21188273617919
 30
0.0
 10
136.0969072515944
 20
76.98299071641398
 30
0.0
 10
136.389807713871
 20
74.7516622055786
 30
0.0
 10
136.8194601659338
 20
72.63027768093322
 30
0.0
 10
137.1926603671161
 20
71.2739428666371
 30
0.0
 10
137.365229928862
 20
70.6467671477005
 30
0.0
  0
LINE
  5
BA
330
1F
100
AcDbEntity
  8
0
  6
Continuous
 62
     7
370
    25
100
AcDbLine
 10
142.4971718032
 20
87.9672752234
 30
0.0
 11
142.6311463994
 21
86.9181638018
 31
0.0
  0
LINE
  5
BB
330
1F
100
AcDbEntity
  8
0
  6
Continuous
 62
     7
370
    25
100
AcDbLine
 10
142.6311463994
 20
70.1222114369
 30
0.0
 11
142.6311463994
 21
71.6958785693
 31
0.0
  0
LINE
  5
BC
330
1F
100
AcDbEntity
  8
0
  6
Continuous
 62
     7
370
    25
100
AcDbLine
 10
142.4971718032
 20
70.6467671477
 30
0.0
 11
142.6311463994
 21
70.1222114369
 31
0.0
  0
LINE
  5
BD
330
1F
100
AcDbEntity
  8
0
  6
Continuous
 62
     7
370
    25
100
AcDbLine
 10
149.3811463994
 20
79.3070211855
 30
0.0
 11
149.3811463994
 21
94.0570211855
 31
0.0
  0
LINE
  5
BE
330
1F
100
AcDbEntity
  8
0
  6
Continuous
 62
     7
370
    25
100
AcDbLine
 10
149.3811463994
 20
64.5570211855
 30
0.0
 11
149.3811463994
 21
79.3070211855
 31
0.0
  0
SPLINE
  5
BF
330
1F
100
AcDbEntity
  8
0
  6
Continuous
 62
     7
370
    25
100
AcDbSpline
210
0.0
220
0.0
230
1.0
 70
     8
 71
     3
 72
    15
 73
    11
 74
     0
 42
0.000000001
 43
0.00000001
 40
0.0
 40
0.0
 40
0.0
 40
0.0
 40
0.1323071196312175
 40
0.2645768296618954
 40
0.3998055717948223
 40
0.5350099115775103
 40
0.6501988847939828
 40
0.7654058260328537
 40
0.8826915738763783
 40
1.0
 40
1.0
 40
1.0
 40
1.0
 10
147.897062869956
 20
70.6467671477005
 30
0.0
 10
148.1010126176548
 20
70.2726043714016
 30
0.0
 10
148.5088544466273
 20
69.52438461265702
 30
0.0
 10
148.9476737822969
 20
68.37219181487924
 30
0.0
 10
149.2115187149636
 20
67.19827961980728
 30
0.0
 10
149.2637620451396
 20
66.06690136312348
 30
0.0
 10
149.1281857866987
 20
64.99665728127066
 30
0.0
 10
148.8504029308722
 20
63.98662230185022
 30
0.0
 10
148.4429319466744
 20
62.98115415087061
 30
0.0
 10
148.0790309549968
 20
62.31808148999679
 30
0.0
 10
147.897062869956
 20
61.98651310985618
 30
0.0
  0
LINE
  5
C0
330
1F
100
AcDbEntity
  8
0
  6
Continuous
 62
     7
370
    25
100
AcDbLine
 10
142.6311463994
 20
70.1222114369
 30
0.0
 11
142.7651209956
 21
70.6467671477
 31
0.0
  0
LINE
  5
C1
330
1F
100
AcDbEntity
  8
0
  6
Continuous
 62
     7
370
    25
100
AcDbLine
 10
135.8811463994
 20
79.3070211855
 30
0.0
 11
135.8811463994
 21
94.0570211855
 31
0.0
  0
LINE
  5
C2
330
1F
100
AcDbEntity
  8
0
  6
Continuous
 62
     7
370
    25
100
AcDbLine
 10
135.8811463994
 20
64.5570211855
 30
0.0
 11
135.8811463994
 21
79.3070211855
 31
0.0
  0
SPLINE
  5
C3
330
1F
100
AcDbEntity
  8
0
  6
Continuous
 62
     7
370
    25
100
AcDbSpline
210
0.0
220
0.0
230
1.0
 70
     8
 71
     3
 72
    15
 73
    11
 74
     0
 42
0.000000001
 43
0.00000001
 40
0.0
 40
0.0
 40
0.0
 40
0.0
 40
0.1323071196312175
 40
0.2645768296618954
 40
0.3998055717948223
 40
0.5350099115775103
 40
0.6501988847939828
 40
0.7654058260328537
 40
0.8826915738763783
 40
1.0
 40
1.0
 40
1.0
 40
1.0
 10
137.365229928862
 20
70.6467671477005
 30
0.0
 10
137.1612801811633
 20
70.2726043714016
 30
0.0
 10
136.7534383521908
 20
69.52438461265702
 30
0.0
 10
136.3146190165212
 20
68.37219181487924
 30
0.0
 10
136.0507740838544
 20
67.19827961980728
 30
0.0
 10
135.9985307536785
 20
66.06690136312348
 30
0.0
 10
136.1341070121194
 20
64.99665728127066
 30
0.0
 10
136.4118898679459
 20
63.98662230185022
 30
0.0
 10
136.8193608521437
 20
62.98115415087061
 30
0.0
 10
137.1832618438213
 20
62.31808148999679
 30
0.0
 10
137.365229928862
 20
61.98651310985618
 30
0.0
  0
LINE
  5
C4
330
1F
100
AcDbEntity
  8
0
  6
Continuous
 62
     7
370
    25
100
AcDbLine
 10
142.7651209956
 20
61.9865131099
 30
0.0
 11
147.89706287
 21
61.9865131099
 31
0.0
  0
LINE
  5
C5
330
1F
100
AcDbEntity
  8
0
  6
Continuous
 62
     7
370
    25
100
AcDbLine
 10
142.7651209956
 20
61.9865131099
 30
0.0
 11
142.6311463994
 21
62.5110688207
 31
0.0
  0
LINE
  5
C6
330
1F
100
AcDbEntity
  8
0
  6
Continuous
 62
     7
370
    25
100
AcDbLine
 10
142.6311463994
 20
62.5110688207
 30
0.0
 11
142.4971718032
 21
61.9865131099
 31
0.0
  0
LINE
  5
C7
330
1F
100
AcDbEntity
  8
0
  6
Continuous
 62
     7
370
    25
100
AcDbLine
 10
137.3652299289
 20
61.9865131099
 30
0.0
 11
142.4971718032
 21
61.9865131099
 31
0.0
  0
LINE
  5
C8
330
1F
100
AcDbEntity
  8
0
  6
Continuous
 62
     7
370
    25
100
AcDbLine
 10
134.3811463994
 20
79.3070211855
 30
0.0
 11
134.3811463994
 21
64.5570211855
 31
0.0
  0
LINE
  5
C9
330
1F
100
AcDbEntity
  8
0
  6
Continuous
 62
     7
370
    25
100
AcDbLine
 10
134.3811463994
 20
94.0570211855
 30
0.0
 11
134.3811463994
 21
79.3070211855
 31
0.0
  0
LINE
  5
CA
330
1F
100
AcDbEntity
  8
0
  6
Continuous
 62
     7
370
    25
100
AcDbLine
 10
150.8811463994
 20
64.5570211855
 30
0.0
 11
150.8811463994
 21
94.0570211855
 31
0.0
  0
LINE
  5
CB
330
1F
100
AcDbEntity
  8
0
  6
Continuous
 62
     7
370
    25
100
AcDbLine
 10
133.8811463994
 20
79.3070211855
 30
0.0
 11
133.8811463994
 21
93.5570211855
 31
0.0
  0
LINE
  5
CC
330
1F
100
AcDbEntity
  8
0
  6
Continuous
 62
     7
370
    25
100
AcDbLine
 10
133.8811463994
 20
65.0570211855
 30
0.0
 11
133.8811463994
 21
79.3070211855
 31
0.0
  0
LINE
  5
CD
330
1F
100
AcDbEntity
  8
0
  6
Continuous
 62
     7
370
    25
100
AcDbLine
 10
151.3811463994
 20
93.5570211855
 30
0.0
 11
151.3811463994
 21
65.0570211855
 31
0.0
  0
LINE
  5
CE
330
1F
100
AcDbEntity
  8
0
  6
Continuous
 62
     7
370
    25
100
AcDbLine
 10
142.6311463994
 20
96.1029735504
 30
0.0
 11
142.6311463994
 21
96.1275292612
 31
0.0
  0
LINE
  5
CF
330
1F
100
AcDbEntity
  8
0
  6
Continuous
 62
     7
370
    25
100
AcDbLine
 10
142.6311463994
 20
62.4865131099
 30
0.0
 11
142.6311463994
 21
62.5110688207
 31
0.0
  0
SPLINE
  5
D0
330
1F
100
AcDbEntity
  8
0
  6
Continuous
 62
     7
370
    25
100
AcDbSpline
210
0.0
220
0.0
230
1.0
 70
     8
 71
     3
 72
     8
 73
     4
 74
     0
 42
0.000000001
 43
0.00000001
 40
0.0
 40
0.0
 40
0.0
 40
0.0
 40
1.0
 40
1.0
 40
1.0
 40
1.0
 10
125.1032062498203
 20
72.13158213004972
 30
0.0
 10
125.1291629425507
 20
71.92518099217516
 30
0.0
 10
125.1559750810527
 20
71.71892063305432
 30
0.0
 10
125.1835910075496
 20
71.51279255148513
 30
0.0
  0
SPLINE
  5
D1
330
1F
100
AcDbEntity
  8
0
  6
Continuous
 62
     7
370
    25
100
AcDbSpline
210
0.0
220
0.0
230
1.0
 70
     8
 71
     3
 72
     8
 73
     4
 74
     0
 42
0.000000001
 43
0.00000001
 40
0.0
 40
0.0
 40
0.0
 40
0.0
 40
1.0
 40
1.0
 40
1.0
 40
1.0
 10
125.1835910075496
 20
71.51279255148513
 30
0.0
 10
125.1559679514558
 20
71.40970190268267
 30
0.0
 10
125.1291561043385
 20
71.30657114326212
 30
0.0
 10
125.1032062498203
 20
71.20339776220283
 30
0.0
  0
LINE
  5
D2
330
1F
100
AcDbEntity
  8
0
  6
Continuous
 62
     7
370
    25
100
AcDbLine
 10
125.1032062498
 20
71.2033977622
 30
0.0
 11
125.1032062498
 21
72.13158213
 31
0.0
  0
LINE
  5
D3
330
1F
100
AcDbEntity
  8
0
  6
Continuous
 62
     7
370
    25
100
AcDbLine
 10
121.7782607164
 20
63.7185639174
 30
0.0
 11
125.0228214921
 21
63.7185639174
 31
0.0
  0
LINE
  5
D4
330
1F
100
AcDbEntity
  8
0
  6
Continuous
 62
     7
370
    25
100
AcDbLine
 10
121.7782607164
 20
63.7185639174
 30
0.0
 11
121.7782607164
 21
71.5127925515
 31
0.0
  0
LINE
  5
D5
330
1F
100
AcDbEntity
  8
0
  6
Continuous
 62
     7
370
    25
100
AcDbLine
 10
121.7782607164
 20
71.5127925515
 30
0.0
 11
125.0228214921
 21
71.5127925515
 31
0.0
  0
SPLINE
  5
D6
330
1F
100
AcDbEntity
  8
0
  6
Continuous
 62
     7
370
    25
100
AcDbSpline
210
0.0
220
0.0
230
1.0
 70
     8
 71
     3
 72
     8
 73
     4
 74
     0
 42
0.000000001
 43
0.00000001
 40
0.0
 40
0.0
 40
0.0
 40
0.0
 40
1.0
 40
1.0
 40
1.0
 40
1.0
 10
125.1032062498203
 20
71.20339776220283
 30
0.0
 10
125.0772491861758
 20
71.30659980584774
 30
0.0
 10
125.0504370320814
 20
71.4097299531623
 30
0.0
 10
125.0228214920909
 20
71.51279255148512
 30
0.0
  0
LINE
  5
D7
330
1F
100
AcDbEntity
  8
0
  6
Continuous
 62
     7
370
    25
100
AcDbLine
 10
125.1835910075
 20
71.5127925515
 30
0.0
 11
128.4281517832
 21
71.5127925515
 31
0.0
  0
SPLINE
  5
D8
330
1F
100
AcDbEntity
  8
0
  6
Continuous
 62
     7
370
    25
100
AcDbSpline
210
0.0
220
0.0
230
1.0
 70
     8
 71
     3
 72
    16
 73
    12
 74
     0
 42
0.000000001
 43
0.00000001
 40
0.0
 40
0.0
 40
0.0
 40
0.0
 40
0.2500000000000001
 40
0.2500000000000001
 40
0.5000000000000002
 40
0.5000000000000002
 40
0.6250000000000001
 40
0.6250000000000001
 40
0.7500000000000001
 40
0.7500000000000001
 40
1.0
 40
1.0
 40
1.0
 40
1.0
 10
128.4281517832018
 20
71.51279255148515
 30
0.0
 10
128.7955341458878
 20
70.87646763350828
 30
0.0
 10
129.098323706282
 20
70.23550348255563
 30
0.0
 10
129.5177855145873
 20
68.940207722624
 30
0.0
 10
129.6330741400419
 20
68.28577673806913
 30
0.0
 10
129.6343405369058
 20
67.29180069739895
 30
0.0
 10
129.6061569798168
 20
66.95891597079437
 30
0.0
 10
129.4962558107748
 20
66.3004349372341
 30
0.0
 10
129.4146497487019
 20
65.97340206095534
 30
0.0
 10
129.0995311538111
 20
64.99812580124171
 30
0.0
 10
128.7959921374749
 20
64.35568210010038
 30
0.0
 10
128.4281517832017
 20
63.71856391742504
 30
0.0
  0
LINE
  5
D9
330
1F
100
AcDbEntity
  8
0
  6
Continuous
 62
     7
370
    25
100
AcDbLine
 10
125.1835910075
 20
63.7185639174
 30
0.0
 11
128.4281517832
 21
63.7185639174
 31
0.0
  0
SPLINE
  5
DA
330
1F
100
AcDbEntity
  8
0
  6
Continuous
 62
     7
370
    25
100
AcDbSpline
210
0.0
220
0.0
230
1.0
 70
     8
 71
     3
 72
     8
 73
     4
 74
     0
 42
0.000000001
 43
0.00000001
 40
0.0
 40
0.0
 40
0.0
 40
0.0
 40
1.0
 40
1.0
 40
1.0
 40
1.0
 10
125.1032062498203
 20
64.02795870670735
 30
0.0
 10
125.1291633134647
 20
63.92475666306247
 30
0.0
 10
125.1559754675591
 20
63.82162651574788
 30
0.0
 10
125.1835910075496
 20
63.71856391742506
 30
0.0
  0
SPLINE
  5
DB
330
1F
100
AcDbEntity
  8
0
  6
Continuous
 62
     7
370
    25
100
AcDbSpline
210
0.0
220
0.0
230
1.0
 70
     8
 71
     3
 72
     8
 73
     4
 74
     0
 42
0.000000001
 43
0.00000001
 40
0.0
 40
0.0
 40
0.0
 40
0.0
 40
1.0
 40
1.0
 40
1.0
 40
1.0
 10
125.0228214920909
 20
63.71856391742506
 30
0.0
 10
125.0504445481848
 20
63.82165456622752
 30
0.0
 10
125.077256395302
 20
63.92478532564806
 30
0.0
 10
125.1032062498203
 20
64.02795870670735
 30
0.0
  0
LINE
  5
DC
330
1F
100
AcDbEntity
  8
0
  6
Continuous
 62
     7
370
    25
100
AcDbLine
 10
121.7782607164
 20
71.5127925515
 30
0.0
 11
121.7782607164
 21
87.1012498196
 31
0.0
  0
LINE
  5
DD
330
1F
100
AcDbEntity
  8
0
  6
Continuous
 62
     7
370
    25
100
AcDbLine
 10
121.7782607164
 20
87.1012498196
 30
0.0
 11
125.0228214921
 21
87.1012498196
 31
0.0
  0
SPLINE
  5
DE
330
1F
100
AcDbEntity
  8
0
  6
Continuous
 62
     7
370
    25
100
AcDbSpline
210
0.0
220
0.0
230
1.0
 70
     8
 71
     3
 72
     8
 73
     4
 74
     0
 42
0.000000001
 43
0.00000001
 40
0.0
 40
0.0
 40
0.0
 40
0.0
 40
1.0
 40
1.0
 40
1.0
 40
1.0
 10
125.1032062498203
 20
86.48246024104047
 30
0.0
 10
125.0772495570898
 20
86.68886137891506
 30
0.0
 10
125.0504374185878
 20
86.89512173803588
 30
0.0
 10
125.0228214920909
 20
87.10124981960507
 30
0.0
  0
SPLINE
  5
DF
330
1F
100
AcDbEntity
  8
0
  6
Continuous
 62
     7
370
    25
100
AcDbSpline
210
0.0
220
0.0
230
1.0
 70
     8
 71
     3
 72
     8
 73
     4
 74
     0
 42
0.000000001
 43
0.00000001
 40
0.0
 40
0.0
 40
0.0
 40
0.0
 40
1.0
 40
1.0
 40
1.0
 40
1.0
 10
125.1835910075496
 20
87.10124981960507
 30
0.0
 10
125.1559668487472
 20
86.89506029127115
 30
0.0
 10
125.1291550473341
 20
86.68879859812402
 30
0.0
 10
125.1032062498203
 20
86.48246024104047
 30
0.0
  0
LINE
  5
E0
330
1F
100
AcDbEntity
  8
0
  6
Continuous
 62
     7
370
    25
100
AcDbLine
 10
125.1835910075
 20
87.1012498196
 30
0.0
 11
128.4281517832
 21
87.1012498196
 31
0.0
  0
SPLINE
  5
E1
330
1F
100
AcDbEntity
  8
0
  6
Continuous
 62
     7
370
    25
100
AcDbSpline
210
0.0
220
0.0
230
1.0
 70
     8
 71
     3
 72
    16
 73
    12
 74
     0
 42
0.000000001
 43
0.00000001
 40
0.0
 40
0.0
 40
0.0
 40
0.0
 40
0.25
 40
0.25
 40
0.5
 40
0.5
 40
0.625
 40
0.625
 40
0.75
 40
0.75
 40
1.0
 40
1.0
 40
1.0
 40
1.0
 10
128.4281517832015
 20
71.51279255148512
 30
0.0
 10
128.7946570914352
 20
72.78240418169378
 30
0.0
 10
129.1013474585326
 20
74.08047988040269
 30
0.0
 10
129.5207202774956
 20
76.68173219522873
 30
0.0
 10
129.6340904201192
 20
77.99085370364276
 30
0.0
 10
129.6338392310375
 20
79.96955744413599
 30
0.0
 10
129.605582874778
 20
80.63291294766198
 30
0.0
 10
129.4939991208759
 20
81.9589207671686
 30
0.0
 10
129.4114351475619
 20
82.61493674881882
 30
0.0
 10
129.0946919263154
 20
84.56496124418958
 30
0.0
 10
128.7919344254007
 20
85.84106978120373
 30
0.0
 10
128.4281517832015
 20
87.10124981960507
 30
0.0
  0
SPLINE
  5
E2
330
1F
100
AcDbEntity
  8
0
  6
Continuous
 62
     7
370
    25
100
AcDbSpline
210
0.0
220
0.0
230
1.0
 70
     8
 71
     3
 72
     8
 73
     4
 74
     0
 42
0.000000001
 43
0.00000001
 40
0.0
 40
0.0
 40
0.0
 40
0.0
 40
1.0
 40
1.0
 40
1.0
 40
1.0
 10
125.0228214920909
 20
71.51279255148512
 30
0.0
 10
125.0504456508934
 20
71.71898207981904
 30
0.0
 10
125.0772574523065
 20
71.9252437729662
 30
0.0
 10
125.1032062498203
 20
72.13158213004972
 30
0.0
  0
SPLINE
  5
E3
330
1F
100
AcDbEntity
  8
0
  6
Continuous
 62
     7
370
    25
100
AcDbSpline
210
0.0
220
0.0
230
1.0
 70
     8
 71
     3
 72
    16
 73
    12
 74
     0
 42
0.000000001
 43
0.00000001
 40
0.0
 40
0.0
 40
0.0
 40
0.0
 40
0.2499999999999999
 40
0.2499999999999999
 40
0.4999999999999999
 40
0.4999999999999999
 40
0.6249999999999999
 40
0.6249999999999999
 40
0.7499999999999998
 40
0.7499999999999998
 40
1.0
 40
1.0
 40
1.0
 40
1.0
 10
128.4281517832018
 20
94.8954784536649
 30
0.0
 10
128.7955341458878
 20
94.25915353568804
 30
0.0
 10
129.098323706282
 20
93.6181893847354
 30
0.0
 10
129.5177855145873
 20
92.32289362480383
 30
0.0
 10
129.6330741400419
 20
91.66846264024898
 30
0.0
 10
129.6343405369058
 20
90.67448659957884
 30
0.0
 10
129.6061569798167
 20
90.34160187297427
 30
0.0
 10
129.4962558107748
 20
89.68312083941402
 30
0.0
 10
129.4146497487019
 20
89.35608796313528
 30
0.0
 10
129.099531153811
 20
88.38081170342168
 30
0.0
 10
128.7959921374749
 20
87.73836800228038
 30
0.0
 10
128.4281517832017
 20
87.10124981960506
 30
0.0
  0
LINE
  5
E4
330
1F
100
AcDbEntity
  8
0
  6
Continuous
 62
     7
370
    25
100
AcDbLine
 10
129.7782607164
 20
92.5570211855
 30
0.0
 11
129.7782607164
 21
66.0570211855
 31
0.0
  0
LINE
  5
E5
330
1F
100
AcDbEntity
  8
0
  6
Continuous
 62
     7
370
    25
100
AcDbLine
 10
125.1032062498
 20
86.482460241
 30
0.0
 11
125.1032062498
 21
87.4106446089
 31
0.0
  0
SPLINE
  5
E6
330
1F
100
AcDbEntity
  8
0
  6
Continuous
 62
     7
370
    25
100
AcDbSpline
210
0.0
220
0.0
230
1.0
 70
     8
 71
     3
 72
     8
 73
     4
 74
     0
 42
0.000000001
 43
0.00000001
 40
0.0
 40
0.0
 40
0.0
 40
0.0
 40
1.0
 40
1.0
 40
1.0
 40
1.0
 10
125.1032062498203
 20
87.41064460888737
 30
0.0
 10
125.1291633134647
 20
87.30744256524248
 30
0.0
 10
125.1559754675591
 20
87.2043124179279
 30
0.0
 10
125.1835910075496
 20
87.10124981960507
 30
0.0
  0
SPLINE
  5
E7
330
1F
100
AcDbEntity
  8
0
  6
Continuous
 62
     7
370
    25
100
AcDbSpline
210
0.0
220
0.0
230
1.0
 70
     8
 71
     3
 72
     8
 73
     4
 74
     0
 42
0.000000001
 43
0.00000001
 40
0.0
 40
0.0
 40
0.0
 40
0.0
 40
1.0
 40
1.0
 40
1.0
 40
1.0
 10
125.0228214920909
 20
87.10124981960507
 30
0.0
 10
125.0504445481848
 20
87.20434046840752
 30
0.0
 10
125.077256395302
 20
87.30747122782807
 30
0.0
 10
125.1032062498203
 20
87.41064460888737
 30
0.0
  0
LINE
  5
E8
330
1F
100
AcDbEntity
  8
0
  6
Continuous
 62
     7
370
    25
100
AcDbLine
 10
121.7782607164
 20
94.8954784537
 30
0.0
 11
125.0228214921
 21
94.8954784537
 31
0.0
  0
SPLINE
  5
E9
330
1F
100
AcDbEntity
  8
0
  6
Continuous
 62
     7
370
    25
100
AcDbSpline
210
0.0
220
0.0
230
1.0
 70
     8
 71
     3
 72
     8
 73
     4
 74
     0
 42
0.000000001
 43
0.00000001
 40
0.0
 40
0.0
 40
0.0
 40
0.0
 40
1.0
 40
1.0
 40
1.0
 40
1.0
 10
125.1032062498203
 20
94.58608366438257
 30
0.0
 10
125.0772491861758
 20
94.68928570802747
 30
0.0
 10
125.0504370320814
 20
94.79241585534204
 30
0.0
 10
125.0228214920909
 20
94.89547845366486
 30
0.0
  0
SPLINE
  5
EA
330
1F
100
AcDbEntity
  8
0
  6
Continuous
 62
     7
370
    25
100
AcDbSpline
210
0.0
220
0.0
230
1.0
 70
     8
 71
     3
 72
     8
 73
     4
 74
     0
 42
0.000000001
 43
0.00000001
 40
0.0
 40
0.0
 40
0.0
 40
0.0
 40
1.0
 40
1.0
 40
1.0
 40
1.0
 10
125.1835910075496
 20
94.89547845366488
 30
0.0
 10
125.1559679514558
 20
94.7923878048624
 30
0.0
 10
125.1291561043385
 20
94.68925704544186
 30
0.0
 10
125.1032062498203
 20
94.58608366438257
 30
0.0
  0
LINE
  5
EB
330
1F
100
AcDbEntity
  8
0
  6
Continuous
 62
     7
370
    25
100
AcDbLine
 10
125.1835910075
 20
94.8954784537
 30
0.0
 11
128.4281517832
 21
94.8954784537
 31
0.0
  0
LINE
  5
EC
330
1F
100
AcDbEntity
  8
0
  6
Continuous
 62
     7
370
    25
100
AcDbLine
 10
121.7782607164
 20
87.1012498196
 30
0.0
 11
121.7782607164
 21
94.8954784537
 31
0.0
  0
LINE
  5
ED
330
1F
100
AcDbEntity
  8
0
  6
Continuous
 62
     7
370
    25
100
AcDbLine
 10
132.8577607164
 20
67.5070211855
 30
0.0
 11
132.8577607164
 21
91.1070211855
 31
0.0
  0
LINE
  5
EE
330
1F
100
AcDbEntity
  8
0
  6
Continuous
 62
     7
370
    25
100
AcDbLine
 10
110.4746519894
 20
89.6137834128
 30
0.0
 11
110.4746519894
 21
69.0002589583
 31
0.0
  0
LINE
  5
EF
330
1F
100
AcDbEntity
  8
0
  6
Continuous
 62
     7
370
    25
100
AcDbLine
 10
107.7782607164
 20
79.3070211855
 30
0.0
 11
107.7782607164
 21
88.0570211855
 31
0.0
  0
LINE
  5
F0
330
1F
100
AcDbEntity
  8
0
  6
Continuous
 62
     7
370
    25
100
AcDbLine
 10
107.7782607164
 20
70.5570211855
 30
0.0
 11
107.7782607164
 21
79.3070211855
 31
0.0
  0
LINE
  5
F1
330
1F
100
AcDbEntity
  8
0
  6
Continuous
 62
     7
370
    25
100
AcDbLine
 10
125.1032062498
 20
64.0185639174
 30
0.0
 11
125.1032062498
 21
64.0279587067
 31
0.0
  0
LINE
  5
F2
330
1F
100
AcDbEntity
  8
0
  6
Continuous
 62
     7
370
    25
100
AcDbLine
 10
125.1032062498
 20
94.5860836644
 30
0.0
 11
125.1032062498
 21
94.5954784537
 31
0.0
  0
LINE
  5
F3
330
1F
100
AcDbEntity
  8
0
  6
Continuous
 62
     7
370
     0
100
AcDbLine
 10
108.6594867474
 20
88.5657972717
 30
0.0
 11
121.2782607164
 21
88.9601339583
 31
0.0
  0
LINE
  5
F4
330
1F
100
AcDbEntity
  8
0
  6
Continuous
 62
     7
370
     0
100
AcDbLine
 10
108.6594867474
 20
70.0482450994
 30
0.0
 11
121.2782607164
 21
69.6539084128
 31
0.0
  0
LINE
  5
F5
330
1F
100
AcDbEntity
  8
0
  6
Continuous
 62
     7
370
     0
100
AcDbLine
 10
121.2782607164
 20
68.6626461855
 30
0.0
 11
121.2782607164
 21
89.9513961855
 31
0.0
  0
LINE
  5
F6
330
1F
100
AcDbEntity
  8
0
  6
CENTERX2
 62
     7
370
    18
100
AcDbLine
 10
187.8811463994
 20
79.3070211855
 30
0.0
 11
105.1002844937
 21
79.3070211855
 31
0.0
  0
CIRCLE
  5
F7
330
1F
100
AcDbEntity
  8
0
  6
Continuous
 62
     7
370
    25
100
AcDbCircle
 10
218.9381397008
 20
79.3070211855
 30
0.0
 40
8.098248893100205
  0
CIRCLE
  5
F8
330
1F
100
AcDbEntity
  8
0
  6
Continuous
 62
     7
370
    25
100
AcDbCircle
 10
218.9381397008
 20
79.3070211855
 30
0.0
 40
9.374034734589216
  0
CIRCLE
  5
F9
330
1F
100
AcDbEntity
  8
0
  6
Continuous
 62
     7
370
    25
100
AcDbCircle
 10
218.9381397008
 20
79.3070211855
 30
0.0
 40
8.0
  0
CIRCLE
  5
FA
330
1F
100
AcDbEntity
  8
0
  6
Continuous
 62
     7
370
    25
100
AcDbCircle
 10
218.9381397008
 20
79.3070211855
 30
0.0
 40
7.499999999999972
  0
CIRCLE
  5
FB
330
1F
100
AcDbEntity
  8
0
  6
Continuous
 62
     7
370
    25
100
AcDbCircle
 10
218.9381397008
 20
79.3070211855
 30
0.0
 40
10.25
  0
CIRCLE
  5
FC
330
1F
100
AcDbEntity
  8
0
  6
Continuous
 62
     7
370
    25
100
AcDbCircle
 10
218.9381397008
 20
79.3070211855
 30
0.0
 40
14.74999999999997
  0
CIRCLE
  5
FD
330
1F
100
AcDbEntity
  8
0
  6
Continuous
 62
     7
370
    25
100
AcDbCircle
 10
218.9381397008
 20
79.3070211855
 30
0.0
 40
14.24999999999997
  0
CIRCLE
  5
FE
330
1F
100
AcDbEntity
  8
0
  6
Continuous
 62
     7
370
    25
100
AcDbCircle
 10
218.9381397008
 20
79.3070211855
 30
0.0
 40
10.94999999999999
  0
CIRCLE
  5
FF
330
1F
100
AcDbEntity
  8
0
  6
Continuous
 62
     7
370
    25
100
AcDbCircle
 10
218.9381397008
 20
79.3070211855
 30
0.0
 40
10.69999999999999
  0
SPLINE
  5
100
330
1F
100
AcDbEntity
  8
0
  6
Continuous
 62
     7
370
    25
100
AcDbSpline
210
0.0
220
0.0
230
1.0
 70
    24
 71
     3
 72
    16
 73
    12
 74
     0
 42
0.000000001
 43
0.00000001
 40
0.0
 40
0.0
 40
0.0
 40
0.0
 40
0.1109673527682369
 40
0.2367565808011174
 40
0.3625132077007758
 40
0.4913606721165814
 40
0.620206266754426
 40
0.7146348397885683
 40
0.8090734135015373
 40
0.9045319075676875
 40
1.0
 40
1.0
 40
1.0
 40
1.0
 10
233.9381397008369
 20
70.64676714770071
 30
0.0
 10
233.9381397008369
 20
71.27394081338808
 30
0.0
 10
233.9381397008369
 20
72.6120595388728
 30
0.0
 10
233.9381397008368
 20
74.69596948717025
 30
0.0
 10
233.9381397008368
 20
76.9075705731597
 30
0.0
 10
233.9381397008368
 20
79.15513962444801
 30
0.0
 10
233.9381397008368
 20
81.22007056684768
 30
0.0
 10
233.9381397008368
 20
83.07167473212925
 30
0.0
 10
233.9381397008367
 20
84.71521636452357
 30
0.0
 10
233.9381397008367
 20
86.34948291339133
 30
0.0
 10
233.9381397008367
 20
87.42799304690564
 30
0.0
 10
233.9381397008367
 20
87.96727522338952
 30
0.0
  0
SPLINE
  5
101
330
1F
100
AcDbEntity
  8
0
  6
Continuous
 62
     7
370
    25
100
AcDbSpline
210
0.0
220
0.0
230
1.0
 70
    24
 71
     3
 72
    15
 73
    11
 74
     0
 42
0.000000001
 43
0.00000001
 40
0.0
 40
0.0
 40
0.0
 40
0.0
 40
0.1323071196312175
 40
0.2645768296618953
 40
0.3998055717948223
 40
0.5350099115775103
 40
0.6501988847939826
 40
0.7654058260328533
 40
0.8826915738763782
 40
1.0
 40
1.0
 40
1.0
 40
1.0
 10
218.9381397008369
 20
61.98651310985618
 30
0.0
 10
219.5862086396877
 20
62.3606758861551
 30
0.0
 10
220.8821632770602
 20
63.10889564489969
 30
0.0
 10
222.8778197429262
 20
64.26108844267749
 30
0.0
 10
224.9110953084156
 20
65.43500063774948
 30
0.0
 10
226.8706999315707
 20
66.56637889443331
 30
0.0
 10
228.7244170578396
 20
67.63662297628615
 30
0.0
 10
230.4738489596176
 20
68.64665795570662
 30
0.0
 10
232.2153708825067
 20
69.65212610668625
 30
0.0
 10
233.36384642025
 20
70.31519876756009
 30
0.0
 10
233.9381397008369
 20
70.64676714770071
 30
0.0
  0
SPLINE
  5
102
330
1F
100
AcDbEntity
  8
0
  6
Continuous
 62
     7
370
    25
100
AcDbSpline
210
0.0
220
0.0
230
1.0
 70
    24
 71
     3
 72
    15
 73
    11
 74
     0
 42
0.000000001
 43
0.00000001
 40
0.0
 40
0.0
 40
0.0
 40
0.0
 40
0.1323071196312175
 40
0.2645768296618954
 40
0.3998055717948223
 40
0.5350099115775103
 40
0.6501988847939828
 40
0.7654058260328537
 40
0.8826915738763783
 40
1.0
 40
1.0
 40
1.0
 40
1.0
 10
203.9381397008368
 20
70.6467671477005
 30
0.0
 10
204.5862086396876
 20
70.2726043714016
 30
0.0
 10
205.8821632770601
 20
69.52438461265702
 30
0.0
 10
207.8778197429262
 20
68.37219181487924
 30
0.0
 10
209.9110953084156
 20
67.19827961980728
 30
0.0
 10
211.8706999315706
 20
66.06690136312348
 30
0.0
 10
213.7244170578396
 20
64.99665728127066
 30
0.0
 10
215.4738489596177
 20
63.98662230185022
 30
0.0
 10
217.2153708825067
 20
62.98115415087061
 30
0.0
 10
218.3638464202501
 20
62.31808148999679
 30
0.0
 10
218.9381397008369
 20
61.98651310985618
 30
0.0
  0
SPLINE
  5
103
330
1F
100
AcDbEntity
  8
0
  6
Continuous
 62
     7
370
    25
100
AcDbSpline
210
0.0
220
0.0
230
1.0
 70
    24
 71
     3
 72
    16
 73
    12
 74
     0
 42
0.000000001
 43
0.00000001
 40
0.0
 40
0.0
 40
0.0
 40
0.0
 40
0.094505774544042
 40
0.1890023482383824
 40
0.2844029195767152
 40
0.3797930640974021
 40
0.5054190531720957
 40
0.6310461044833378
 40
0.7600214672797239
 40
0.8890327762719119
 40
1.0
 40
1.0
 40
1.0
 40
1.0
 10
203.9381397008368
 20
87.96727522338932
 30
0.0
 10
203.9381397008368
 20
87.43344566212852
 30
0.0
 10
203.9381397008368
 20
86.36583851193966
 30
0.0
 10
203.9381397008368
 20
84.73736377256016
 30
0.0
 10
203.9381397008368
 20
83.08848194836615
 30
0.0
 10
203.9381397008368
 20
81.24446395025112
 30
0.0
 10
203.9381397008368
 20
79.21188273617919
 30
0.0
 10
203.9381397008368
 20
76.98299071641398
 30
0.0
 10
203.9381397008368
 20
74.7516622055786
 30
0.0
 10
203.9381397008368
 20
72.63027768093322
 30
0.0
 10
203.9381397008368
 20
71.2739428666371
 30
0.0
 10
203.9381397008368
 20
70.6467671477005
 30
0.0
  0
SPLINE
  5
104
330
1F
100
AcDbEntity
  8
0
  6
Continuous
 62
     7
370
    25
100
AcDbSpline
210
0.0
220
0.0
230
1.0
 70
    24
 71
     3
 72
    15
 73
    11
 74
     0
 42
0.000000001
 43
0.00000001
 40
0.0
 40
0.0
 40
0.0
 40
0.0
 40
0.1323071196312175
 40
0.2645768296618952
 40
0.3998055717948222
 40
0.5350099115775102
 40
0.6501988847939827
 40
0.7654058260328535
 40
0.8826915738763782
 40
1.0
 40
1.0
 40
1.0
 40
1.0
 10
218.9381397008368
 20
96.62752926123375
 30
0.0
 10
218.2900707619861
 20
96.25336648493482
 30
0.0
 10
216.9941161246135
 20
95.50514672619025
 30
0.0
 10
214.9984596587474
 20
94.35295392841246
 30
0.0
 10
212.9651840932581
 20
93.17904173334048
 30
0.0
 10
211.005579470103
 20
92.04766347665667
 30
0.0
 10
209.151862343834
 20
90.97741939480385
 30
0.0
 10
207.402430442056
 20
89.96738441538338
 30
0.0
 10
205.660908519167
 20
88.96191626440377
 30
0.0
 10
204.5124329814236
 20
88.29884360352992
 30
0.0
 10
203.9381397008368
 20
87.96727522338932
 30
0.0
  0
SPLINE
  5
105
330
1F
100
AcDbEntity
  8
0
  6
Continuous
 62
     7
370
    25
100
AcDbSpline
210
0.0
220
0.0
230
1.0
 70
    24
 71
     3
 72
    15
 73
    11
 74
     0
 42
0.000000001
 43
0.00000001
 40
0.0
 40
0.0
 40
0.0
 40
0.0
 40
0.1323071196312191
 40
0.2645768296618986
 40
0.3998055717948273
 40
0.535009911577517
 40
0.6501988847939879
 40
0.7654058260328572
 40
0.8826915738763801
 40
1.0
 40
1.0
 40
1.0
 40
1.0
 10
233.9381397008367
 20
87.96727522338952
 30
0.0
 10
233.290070761986
 20
88.34143799968844
 30
0.0
 10
231.9941161246134
 20
89.089657758433
 30
0.0
 10
229.9984596587474
 20
90.24185055621078
 30
0.0
 10
227.965184093258
 20
91.41576275128274
 30
0.0
 10
226.0055794701029
 20
92.54714100796656
 30
0.0
 10
224.151862343834
 20
93.61738508981934
 30
0.0
 10
222.402430442056
 20
94.62742006923976
 30
0.0
 10
220.660908519167
 20
95.63288822021934
 30
0.0
 10
219.5124329814236
 20
96.29596088109314
 30
0.0
 10
218.9381397008368
 20
96.62752926123375
 30
0.0
  0
CIRCLE
  5
106
330
1F
100
AcDbEntity
  8
0
  6
Continuous
 62
     7
370
    25
100
AcDbCircle
 10
218.9381397008
 20
79.3070211855
 30
0.0
 40
6.5
  0
INSERT
  5
112
330
1F
100
AcDbEntity
  8
0
  6
Continuous
 62
     7
370
    18
100
AcDbBlockReference
  2
SW_CENTERMARKSYMBOL_0
 10
218.9381397008
 20
79.3070211855
 30
0.0
  0
LINE
  5
113
330
1F
100
AcDbEntity
  8
0
  6
Continuous
 62
     7
370
    25
100
AcDbLine
 10
177.8811463994
 20
125.1413604078
 30
0.0
 11
184.8888685227
 21
126.0173256732
 31
0.0
  0
LINE
  5
114
330
1F
100
AcDbEntity
  8
0
  6
Continuous
 62
     7
370
    25
100
AcDbLine
 10
184.8888685227
 20
144.7653951424
 30
0.0
 11
177.8811463994
 21
145.6413604078
 31
0.0
  0
LINE
  5
115
330
1F
100
AcDbEntity
  8
0
  6
Continuous
 62
     7
370
    25
100
AcDbLine
 10
162.8811463994
 20
125.1413604078
 30
0.0
 11
167.8811463994
 21
126.1413604078
 31
0.0
  0
LINE
  5
116
330
1F
100
AcDbEntity
  8
0
  6
Continuous
 62
     7
370
    25
100
AcDbLine
 10
167.8811463994
 20
144.6413604078
 30
0.0
 11
162.8811463994
 21
145.6413604078
 31
0.0
  0
LINE
  5
117
330
1F
100
AcDbEntity
  8
0
  6
Continuous
 62
     7
370
    25
100
AcDbLine
 10
172.8811463994
 20
125.1413604078
 30
0.0
 11
177.8811463994
 21
126.1413604078
 31
0.0
  0
LINE
  5
118
330
1F
100
AcDbEntity
  8
0
  6
Continuous
 62
     7
370
    25
100
AcDbLine
 10
177.8811463994
 20
144.6413604078
 30
0.0
 11
172.8811463994
 21
145.6413604078
 31
0.0
  0
LINE
  5
119
330
1F
100
AcDbEntity
  8
0
  6
Continuous
 62
     7
370
    25
100
AcDbLine
 10
167.8811463994
 20
125.1413604078
 30
0.0
 11
172.8811463994
 21
126.1413604078
 31
0.0
  0
LINE
  5
11A
330
1F
100
AcDbEntity
  8
0
  6
Continuous
 62
     7
370
    25
100
AcDbLine
 10
172.8811463994
 20
144.6413604078
 30
0.0
 11
167.8811463994
 21
145.6413604078
 31
0.0
  0
LINE
  5
11B
330
1F
100
AcDbEntity
  8
0
  6
Continuous
 62
     7
370
    25
100
AcDbLine
 10
157.8811463994
 20
145.6413604078
 30
0.0
 11
151.3811463994
 21
145.6413604078
 31
0.0
  0
LINE
  5
11C
330
1F
100
AcDbEntity
  8
0
  6
Continuous
 62
     7
370
    25
100
AcDbLine
 10
151.3811463994
 20
125.1413604078
 30
0.0
 11
157.8811463994
 21
125.1413604078
 31
0.0
  0
LINE
  5
11D
330
1F
100
AcDbEntity
  8
0
  6
Continuous
 62
     7
370
    25
100
AcDbLine
 10
157.8811463994
 20
125.1413604078
 30
0.0
 11
162.8811463994
 21
126.1413604078
 31
0.0
  0
LINE
  5
11E
330
1F
100
AcDbEntity
  8
0
  6
Continuous
 62
     7
370
    25
100
AcDbLine
 10
162.8811463994
 20
144.6413604078
 30
0.0
 11
157.8811463994
 21
145.6413604078
 31
0.0
  0
LINE
  5
11F
330
1F
100
AcDbEntity
  8
0
  6
Continuous
 62
     7
370
    25
100
AcDbLine
 10
184.8888685227
 20
126.0173256732
 30
0.0
 11
185.8811463994
 21
127.2931115147
 31
0.0
  0
LINE
  5
120
330
1F
100
AcDbEntity
  8
0
  6
Continuous
 62
     7
370
    25
100
AcDbLine
 10
185.8811463994
 20
143.4896093009
 30
0.0
 11
184.8888685227
 21
144.7653951424
 31
0.0
  0
LINE
  5
121
330
1F
100
AcDbEntity
  8
0
  6
Continuous
 62
     7
370
    25
100
AcDbLine
 10
136.0254839667
 20
150.3913604078
 30
0.0
 11
135.8811463994
 21
150.1413604078
 31
0.0
  0
LINE
  5
122
330
1F
100
AcDbEntity
  8
0
  6
Continuous
 62
     7
370
    25
100
AcDbLine
 10
135.8811463994
 20
120.6413604078
 30
0.0
 11
136.0254839667
 21
120.3913604078
 31
0.0
  0
LINE
  5
123
330
1F
100
AcDbEntity
  8
0
  6
Continuous
 62
     7
370
    25
100
AcDbLine
 10
149.2368088321
 20
120.3913604078
 30
0.0
 11
149.3811463994
 21
120.6413604078
 31
0.0
  0
LINE
  5
124
330
1F
100
AcDbEntity
  8
0
  6
Continuous
 62
     7
370
    25
100
AcDbLine
 10
149.3811463994
 20
150.1413604078
 30
0.0
 11
149.2368088321
 21
150.3913604078
 31
0.0
  0
LINE
  5
125
330
1F
100
AcDbEntity
  8
0
  6
Continuous
 62
     7
370
    25
100
AcDbLine
 10
135.8811463994
 20
150.1413604078
 30
0.0
 11
134.3811463994
 21
150.1413604078
 31
0.0
  0
LINE
  5
126
330
1F
100
AcDbEntity
  8
0
  6
Continuous
 62
     7
370
    25
100
AcDbLine
 10
134.3811463994
 20
120.6413604078
 30
0.0
 11
135.8811463994
 21
120.6413604078
 31
0.0
  0
LINE
  5
127
330
1F
100
AcDbEntity
  8
0
  6
Continuous
 62
     7
370
    25
100
AcDbLine
 10
149.3811463994
 20
120.6413604078
 30
0.0
 11
150.8811463994
 21
120.6413604078
 31
0.0
  0
LINE
  5
128
330
1F
100
AcDbEntity
  8
0
  6
Continuous
 62
     7
370
    25
100
AcDbLine
 10
150.8811463994
 20
150.1413604078
 30
0.0
 11
149.3811463994
 21
150.1413604078
 31
0.0
  0
LINE
  5
129
330
1F
100
AcDbEntity
  8
0
  6
Continuous
 62
     7
370
    25
100
AcDbLine
 10
134.3811463994
 20
150.1413604078
 30
0.0
 11
133.8811463994
 21
149.6413604078
 31
0.0
  0
LINE
  5
12A
330
1F
100
AcDbEntity
  8
0
  6
Continuous
 62
     7
370
    25
100
AcDbLine
 10
133.8811463994
 20
121.1413604078
 30
0.0
 11
134.3811463994
 21
120.6413604078
 31
0.0
  0
LINE
  5
12B
330
1F
100
AcDbEntity
  8
0
  6
Continuous
 62
     7
370
    25
100
AcDbLine
 10
150.8811463994
 20
120.6413604078
 30
0.0
 11
151.3811463994
 21
121.1413604078
 31
0.0
  0
LINE
  5
12C
330
1F
100
AcDbEntity
  8
0
  6
Continuous
 62
     7
370
    25
100
AcDbLine
 10
151.3811463994
 20
149.6413604078
 30
0.0
 11
150.8811463994
 21
150.1413604078
 31
0.0
  0
LINE
  5
12D
330
1F
100
AcDbEntity
  8
0
  6
Continuous
 62
     7
370
    25
100
AcDbLine
 10
129.6339231491
 20
121.8913604078
 30
0.0
 11
129.7782607164
 21
122.1413604078
 31
0.0
  0
LINE
  5
12E
330
1F
100
AcDbEntity
  8
0
  6
Continuous
 62
     7
370
    25
100
AcDbLine
 10
129.7782607164
 20
148.6413604078
 30
0.0
 11
129.6339231491
 21
148.8913604078
 31
0.0
  0
LINE
  5
12F
330
1F
100
AcDbEntity
  8
0
  6
Continuous
 62
     7
370
    25
100
AcDbLine
 10
133.8811463994
 20
148.2147460908
 30
0.0
 11
132.8577607164
 21
147.1913604078
 31
0.0
  0
LINE
  5
130
330
1F
100
AcDbEntity
  8
0
  6
Continuous
 62
     7
370
    25
100
AcDbLine
 10
132.8577607164
 20
123.5913604078
 30
0.0
 11
133.8811463994
 21
122.5679747248
 31
0.0
  0
LINE
  5
131
330
1F
100
AcDbEntity
  8
0
  6
Continuous
 62
     7
370
    25
100
AcDbLine
 10
129.7782607164
 20
123.5913604078
 30
0.0
 11
132.8577607164
 21
123.5913604078
 31
0.0
  0
LINE
  5
132
330
1F
100
AcDbEntity
  8
0
  6
Continuous
 62
     7
370
    25
100
AcDbLine
 10
132.8577607164
 20
147.1913604078
 30
0.0
 11
129.7782607164
 21
147.1913604078
 31
0.0
  0
LINE
  5
133
330
1F
100
AcDbEntity
  8
0
  6
Continuous
 62
     7
370
    25
100
AcDbLine
 10
121.7782607164
 20
146.0513604078
 30
0.0
 11
110.4746519894
 21
145.6981226351
 31
0.0
  0
LINE
  5
134
330
1F
100
AcDbEntity
  8
0
  6
Continuous
 62
     7
370
    25
100
AcDbLine
 10
110.4746519894
 20
125.0845981805
 30
0.0
 11
121.7782607164
 21
124.7313604078
 31
0.0
  0
LINE
  5
135
330
1F
100
AcDbEntity
  8
0
  6
Continuous
 62
     7
370
    25
100
AcDbLine
 10
110.4746519894
 20
145.6981226351
 30
0.0
 11
107.7782607164
 21
144.1413604078
 31
0.0
  0
LINE
  5
136
330
1F
100
AcDbEntity
  8
0
  6
Continuous
 62
     7
370
    25
100
AcDbLine
 10
107.7782607164
 20
126.6413604078
 30
0.0
 11
110.4746519894
 21
125.0845981805
 31
0.0
  0
LINE
  5
137
330
1F
100
AcDbEntity
  8
0
  6
Continuous
 62
     7
370
    25
100
AcDbLine
 10
177.8811463994
 20
135.3913604078
 30
0.0
 11
177.8811463994
 21
125.1413604078
 31
0.0
  0
LINE
  5
138
330
1F
100
AcDbEntity
  8
0
  6
Continuous
 62
     7
370
    25
100
AcDbLine
 10
177.8811463994
 20
145.6413604078
 30
0.0
 11
177.8811463994
 21
135.3913604078
 31
0.0
  0
LINE
  5
139
330
1F
100
AcDbEntity
  8
0
  6
Continuous
 62
     7
370
    25
100
AcDbLine
 10
184.8888685227
 20
135.3913604078
 30
0.0
 11
184.8888685227
 21
144.7653951424
 31
0.0
  0
LINE
  5
13A
330
1F
100
AcDbEntity
  8
0
  6
Continuous
 62
     7
370
    25
100
AcDbLine
 10
184.8888685227
 20
126.0173256732
 30
0.0
 11
184.8888685227
 21
135.3913604078
 31
0.0
  0
LINE
  5
13B
330
1F
100
AcDbEntity
  8
0
  6
Continuous
 62
     7
370
    25
100
AcDbLine
 10
162.8811463994
 20
135.3913604078
 30
0.0
 11
162.8811463994
 21
125.1413604078
 31
0.0
  0
LINE
  5
13C
330
1F
100
AcDbEntity
  8
0
  6
Continuous
 62
     7
370
    25
100
AcDbLine
 10
162.8811463994
 20
145.6413604078
 30
0.0
 11
162.8811463994
 21
135.3913604078
 31
0.0
  0
LINE
  5
13D
330
1F
100
AcDbEntity
  8
0
  6
Continuous
 62
     7
370
    25
100
AcDbLine
 10
172.8811463994
 20
135.3913604078
 30
0.0
 11
172.8811463994
 21
125.1413604078
 31
0.0
  0
LINE
  5
13E
330
1F
100
AcDbEntity
  8
0
  6
Continuous
 62
     7
370
    25
100
AcDbLine
 10
172.8811463994
 20
145.6413604078
 30
0.0
 11
172.8811463994
 21
135.3913604078
 31
0.0
  0
LINE
  5
13F
330
1F
100
AcDbEntity
  8
0
  6
Continuous
 62
     7
370
    25
100
AcDbLine
 10
167.8811463994
 20
135.3913604078
 30
0.0
 11
167.8811463994
 21
125.1413604078
 31
0.0
  0
LINE
  5
140
330
1F
100
AcDbEntity
  8
0
  6
Continuous
 62
     7
370
    25
100
AcDbLine
 10
167.8811463994
 20
145.6413604078
 30
0.0
 11
167.8811463994
 21
135.3913604078
 31
0.0
  0
LINE
  5
141
330
1F
100
AcDbEntity
  8
0
  6
Continuous
 62
     7
370
    25
100
AcDbLine
 10
157.8811463994
 20
135.3913604078
 30
0.0
 11
157.8811463994
 21
125.1413604078
 31
0.0
  0
LINE
  5
142
330
1F
100
AcDbEntity
  8
0
  6
Continuous
 62
     7
370
    25
100
AcDbLine
 10
157.8811463994
 20
145.6413604078
 30
0.0
 11
157.8811463994
 21
135.3913604078
 31
0.0
  0
LINE
  5
143
330
1F
100
AcDbEntity
  8
0
  6
Continuous
 62
     7
370
    25
100
AcDbLine
 10
185.8811463994
 20
135.3913604078
 30
0.0
 11
185.8811463994
 21
127.2931115147
 31
0.0
  0
LINE
  5
144
330
1F
100
AcDbEntity
  8
0
  6
Continuous
 62
     7
370
    25
100
AcDbLine
 10
185.8811463994
 20
143.4896093009
 30
0.0
 11
185.8811463994
 21
135.3913604078
 31
0.0
  0
LINE
  5
145
330
1F
100
AcDbEntity
  8
0
  6
Continuous
 62
     7
370
    25
100
AcDbLine
 10
135.8811463994
 20
120.6413604078
 30
0.0
 11
135.8811463994
 21
150.1413604078
 31
0.0
  0
SPLINE
  5
146
330
1F
100
AcDbEntity
  8
0
  6
Continuous
 62
     7
370
    25
100
AcDbSpline
210
0.0
220
0.0
230
1.0
 70
     8
 71
     3
 72
    15
 73
    11
 74
     0
 42
0.000000001
 43
0.00000001
 40
0.0
 40
0.0
 40
0.0
 40
0.0
 40
0.1323071196312191
 40
0.2645768296618985
 40
0.3998055717948272
 40
0.5350099115775169
 40
0.6501988847939878
 40
0.765405826032857
 40
0.8826915738763799
 40
1.0
 40
1.0
 40
1.0
 40
1.0
 10
137.365229928862
 20
150.3913604078103
 30
0.0
 10
137.1612801811633
 20
149.7432914689596
 30
0.0
 10
136.7534383521908
 20
148.447336831587
 30
0.0
 10
136.3146190165212
 20
146.451680365721
 30
0.0
 10
136.0507740838545
 20
144.4184048002316
 30
0.0
 10
135.9985307536785
 20
142.4588001770765
 30
0.0
 10
136.1341070121194
 20
140.6050830508076
 30
0.0
 10
136.4118898679459
 20
138.8556511490296
 30
0.0
 10
136.8193608521437
 20
137.1141292261406
 30
0.0
 10
137.1832618438213
 20
135.9656536883973
 30
0.0
 10
137.365229928862
 20
135.3913604078104
 30
0.0
  0
SPLINE
  5
147
330
1F
100
AcDbEntity
  8
0
  6
Continuous
 62
     7
370
    25
100
AcDbSpline
210
0.0
220
0.0
230
1.0
 70
     8
 71
     3
 72
    15
 73
    11
 74
     0
 42
0.000000001
 43
0.00000001
 40
0.0
 40
0.0
 40
0.0
 40
0.0
 40
0.1323071196312175
 40
0.2645768296618952
 40
0.3998055717948222
 40
0.5350099115775102
 40
0.6501988847939827
 40
0.7654058260328535
 40
0.8826915738763782
 40
1.0
 40
1.0
 40
1.0
 40
1.0
 10
137.365229928862
 20
135.3913604078104
 30
0.0
 10
137.1612801811633
 20
134.7432914689597
 30
0.0
 10
136.7534383521908
 20
133.4473368315871
 30
0.0
 10
136.3146190165212
 20
131.4516803657211
 30
0.0
 10
136.0507740838544
 20
129.4184048002317
 30
0.0
 10
135.9985307536785
 20
127.4588001770766
 30
0.0
 10
136.1341070121194
 20
125.6050830508076
 30
0.0
 10
136.4118898679459
 20
123.8556511490296
 30
0.0
 10
136.8193608521436
 20
122.1141292261406
 30
0.0
 10
137.1832618438213
 20
120.9656536883972
 30
0.0
 10
137.365229928862
 20
120.3913604078104
 30
0.0
  0
SPLINE
  5
148
330
1F
100
AcDbEntity
  8
0
  6
Continuous
 62
     7
370
    25
100
AcDbSpline
210
0.0
220
0.0
230
1.0
 70
    24
 71
     3
 72
    12
 73
     8
 74
     0
 42
0.000000001
 43
0.00000001
 40
0.0
 40
0.0
 40
0.0
 40
0.0
 40
0.1888192624544054
 40
0.377976757649488
 40
0.5684546083313331
 40
0.7595309272873453
 40
1.0
 40
1.0
 40
1.0
 40
1.0
 10
137.365229928862
 20
120.3913604078104
 30
0.0
 10
137.2174216877788
 20
120.3913604078104
 30
0.0
 10
136.9215404360871
 20
120.3913604078104
 30
0.0
 10
136.5618022650274
 20
120.3913604078104
 30
0.0
 10
136.2818241919499
 20
120.3913604078104
 30
0.0
 10
136.0706852431756
 20
120.3913604078104
 30
0.0
 10
136.0439135487162
 20
120.3913604078104
 30
0.0
 10
136.0289956173332
 20
120.3913604078104
 30
0.0
  0
SPLINE
  5
149
330
1F
100
AcDbEntity
  8
0
  6
Continuous
 62
     7
370
    25
100
AcDbSpline
210
0.0
220
0.0
230
1.0
 70
    24
 71
     3
 72
    12
 73
     8
 74
     0
 42
0.000000001
 43
0.00000001
 40
0.0
 40
0.0
 40
0.0
 40
0.0
 40
0.2404660017714947
 40
0.4290088903766712
 40
0.618174165502247
 40
0.8088930255430252
 40
1.0
 40
1.0
 40
1.0
 40
1.0
 10
136.0319450702392
 20
150.3913604078104
 30
0.0
 10
136.0455712965324
 20
150.3913604078104
 30
0.0
 10
136.0698814783418
 20
150.3913604078104
 30
0.0
 10
136.2796356230781
 20
150.3913604078104
 30
0.0
 10
136.5568128160564
 20
150.3913604078104
 30
0.0
 10
136.916948083688
 20
150.3913604078103
 30
0.0
 10
137.2157014225587
 20
150.3913604078103
 30
0.0
 10
137.365229928862
 20
150.3913604078103
 30
0.0
  0
LINE
  5
14A
330
1F
100
AcDbEntity
  8
0
  6
Continuous
 62
     7
370
    25
100
AcDbLine
 10
142.7651209956
 20
150.3913604078
 30
0.0
 11
147.89706287
 21
150.3913604078
 31
0.0
  0
SPLINE
  5
14B
330
1F
100
AcDbEntity
  8
0
  6
Continuous
 62
     7
370
    25
100
AcDbSpline
210
0.0
220
0.0
230
1.0
 70
     8
 71
     3
 72
    15
 73
    11
 74
     0
 42
0.000000001
 43
0.00000001
 40
0.0
 40
0.0
 40
0.0
 40
0.0
 40
0.1323071196312191
 40
0.2645768296618986
 40
0.3998055717948273
 40
0.535009911577517
 40
0.6501988847939879
 40
0.7654058260328572
 40
0.8826915738763801
 40
1.0
 40
1.0
 40
1.0
 40
1.0
 10
147.897062869956
 20
150.3913604078103
 30
0.0
 10
148.1010126176547
 20
149.7432914689596
 30
0.0
 10
148.5088544466272
 20
148.447336831587
 30
0.0
 10
148.9476737822969
 20
146.451680365721
 30
0.0
 10
149.2115187149636
 20
144.4184048002316
 30
0.0
 10
149.2637620451395
 20
142.4588001770765
 30
0.0
 10
149.1281857866987
 20
140.6050830508076
 30
0.0
 10
148.8504029308721
 20
138.8556511490296
 30
0.0
 10
148.4429319466744
 20
137.1141292261406
 30
0.0
 10
148.0790309549968
 20
135.9656536883973
 30
0.0
 10
147.897062869956
 20
135.3913604078104
 30
0.0
  0
LINE
  5
14C
330
1F
100
AcDbEntity
  8
0
  6
Continuous
 62
     7
370
    25
100
AcDbLine
 10
142.7651209956
 20
135.3913604078
 30
0.0
 11
147.89706287
 21
135.3913604078
 31
0.0
  0
LINE
  5
14D
330
1F
100
AcDbEntity
  8
0
  6
Continuous
 62
     7
370
    25
100
AcDbLine
 10
142.7651209956
 20
135.3913604078
 30
0.0
 11
142.6311463994
 21
136.2999175503
 31
0.0
  0
LINE
  5
14E
330
1F
100
AcDbEntity
  8
0
  6
Continuous
 62
     7
370
    25
100
AcDbLine
 10
142.6311463994
 20
136.2999175503
 30
0.0
 11
142.4971718032
 21
135.3913604078
 31
0.0
  0
LINE
  5
14F
330
1F
100
AcDbEntity
  8
0
  6
Continuous
 62
     7
370
    25
100
AcDbLine
 10
137.3652299289
 20
135.3913604078
 30
0.0
 11
142.4971718032
 21
135.3913604078
 31
0.0
  0
LINE
  5
150
330
1F
100
AcDbEntity
  8
0
  6
Continuous
 62
     7
370
    25
100
AcDbLine
 10
137.3652299289
 20
150.3913604078
 30
0.0
 11
142.4971718032
 21
150.3913604078
 31
0.0
  0
LINE
  5
151
330
1F
100
AcDbEntity
  8
0
  6
Continuous
 62
     7
370
    25
100
AcDbLine
 10
142.4971718032
 20
150.3913604078
 30
0.0
 11
142.6311463994
 21
149.4828032653
 31
0.0
  0
LINE
  5
152
330
1F
100
AcDbEntity
  8
0
  6
Continuous
 62
     7
370
    25
100
AcDbLine
 10
142.6311463994
 20
149.4828032653
 30
0.0
 11
142.7651209956
 21
150.3913604078
 31
0.0
  0
LINE
  5
153
330
1F
100
AcDbEntity
  8
0
  6
Continuous
 62
     7
370
    25
100
AcDbLine
 10
149.3811463994
 20
120.6413604078
 30
0.0
 11
149.3811463994
 21
150.1413604078
 31
0.0
  0
SPLINE
  5
154
330
1F
100
AcDbEntity
  8
0
  6
Continuous
 62
     7
370
    25
100
AcDbSpline
210
0.0
220
0.0
230
1.0
 70
    24
 71
     3
 72
    12
 73
     8
 74
     0
 42
0.000000001
 43
0.00000001
 40
0.0
 40
0.0
 40
0.0
 40
0.0
 40
0.2404660017714948
 40
0.4290088903766713
 40
0.6181741655022471
 40
0.8088930255430253
 40
1.0
 40
1.0
 40
1.0
 40
1.0
 10
149.2303477285788
 20
150.3913604078104
 30
0.0
 10
149.2167215022857
 20
150.3913604078104
 30
0.0
 10
149.1924113204762
 20
150.3913604078104
 30
0.0
 10
148.98265717574
 20
150.3913604078104
 30
0.0
 10
148.7054799827616
 20
150.3913604078103
 30
0.0
 10
148.34534471513
 20
150.3913604078103
 30
0.0
 10
148.0465913762594
 20
150.3913604078103
 30
0.0
 10
147.897062869956
 20
150.3913604078103
 30
0.0
  0
SPLINE
  5
155
330
1F
100
AcDbEntity
  8
0
  6
Continuous
 62
     7
370
    25
100
AcDbSpline
210
0.0
220
0.0
230
1.0
 70
    24
 71
     3
 72
    12
 73
     8
 74
     0
 42
0.000000001
 43
0.00000001
 40
0.0
 40
0.0
 40
0.0
 40
0.0
 40
0.1888192624544054
 40
0.377976757649488
 40
0.5684546083313331
 40
0.7595309272873453
 40
1.0
 40
1.0
 40
1.0
 40
1.0
 10
147.897062869956
 20
120.3913604078104
 30
0.0
 10
148.0448711110392
 20
120.3913604078104
 30
0.0
 10
148.340752362731
 20
120.3913604078104
 30
0.0
 10
148.7004905337907
 20
120.3913604078104
 30
0.0
 10
148.9804686068682
 20
120.3913604078104
 30
0.0
 10
149.1916075556424
 20
120.3913604078104
 30
0.0
 10
149.2183792501018
 20
120.3913604078104
 30
0.0
 10
149.2332971814849
 20
120.3913604078104
 30
0.0
  0
SPLINE
  5
156
330
1F
100
AcDbEntity
  8
0
  6
Continuous
 62
     7
370
    25
100
AcDbSpline
210
0.0
220
0.0
230
1.0
 70
     8
 71
     3
 72
    15
 73
    11
 74
     0
 42
0.000000001
 43
0.00000001
 40
0.0
 40
0.0
 40
0.0
 40
0.0
 40
0.1323071196312175
 40
0.2645768296618952
 40
0.3998055717948222
 40
0.5350099115775102
 40
0.6501988847939827
 40
0.7654058260328535
 40
0.8826915738763782
 40
1.0
 40
1.0
 40
1.0
 40
1.0
 10
147.897062869956
 20
135.3913604078104
 30
0.0
 10
148.1010126176548
 20
134.7432914689597
 30
0.0
 10
148.5088544466273
 20
133.4473368315871
 30
0.0
 10
148.9476737822969
 20
131.4516803657211
 30
0.0
 10
149.2115187149636
 20
129.4184048002317
 30
0.0
 10
149.2637620451396
 20
127.4588001770766
 30
0.0
 10
149.1281857866987
 20
125.6050830508076
 30
0.0
 10
148.8504029308722
 20
123.8556511490296
 30
0.0
 10
148.4429319466744
 20
122.1141292261406
 30
0.0
 10
148.0790309549968
 20
120.9656536883972
 30
0.0
 10
147.897062869956
 20
120.3913604078104
 30
0.0
  0
LINE
  5
157
330
1F
100
AcDbEntity
  8
0
  6
Continuous
 62
     7
370
    25
100
AcDbLine
 10
142.6311463994
 20
134.4828032653
 30
0.0
 11
142.7651209956
 21
135.3913604078
 31
0.0
  0
LINE
  5
158
330
1F
100
AcDbEntity
  8
0
  6
Continuous
 62
     7
370
    25
100
AcDbLine
 10
142.6311463994
 20
134.4828032653
 30
0.0
 11
142.6311463994
 21
136.2999175503
 31
0.0
  0
LINE
  5
159
330
1F
100
AcDbEntity
  8
0
  6
Continuous
 62
     7
370
    25
100
AcDbLine
 10
142.4971718032
 20
135.3913604078
 30
0.0
 11
142.6311463994
 21
134.4828032653
 31
0.0
  0
LINE
  5
15A
330
1F
100
AcDbEntity
  8
0
  6
Continuous
 62
     7
370
    25
100
AcDbLine
 10
142.7651209956
 20
120.3913604078
 30
0.0
 11
147.89706287
 21
120.3913604078
 31
0.0
  0
LINE
  5
15B
330
1F
100
AcDbEntity
  8
0
  6
Continuous
 62
     7
370
    25
100
AcDbLine
 10
142.7651209956
 20
120.3913604078
 30
0.0
 11
142.6311463994
 21
121.2999175503
 31
0.0
  0
LINE
  5
15C
330
1F
100
AcDbEntity
  8
0
  6
Continuous
 62
     7
370
    25
100
AcDbLine
 10
142.6311463994
 20
121.2999175503
 30
0.0
 11
142.4971718032
 21
120.3913604078
 31
0.0
  0
LINE
  5
15D
330
1F
100
AcDbEntity
  8
0
  6
Continuous
 62
     7
370
    25
100
AcDbLine
 10
137.3652299289
 20
120.3913604078
 30
0.0
 11
142.4971718032
 21
120.3913604078
 31
0.0
  0
LINE
  5
15E
330
1F
100
AcDbEntity
  8
0
  6
Continuous
 62
     7
370
    25
100
AcDbLine
 10
134.3811463994
 20
150.1413604078
 30
0.0
 11
134.3811463994
 21
120.6413604078
 31
0.0
  0
LINE
  5
15F
330
1F
100
AcDbEntity
  8
0
  6
Continuous
 62
     7
370
    25
100
AcDbLine
 10
150.8811463994
 20
120.6413604078
 30
0.0
 11
150.8811463994
 21
150.1413604078
 31
0.0
  0
LINE
  5
160
330
1F
100
AcDbEntity
  8
0
  6
Continuous
 62
     7
370
    25
100
AcDbLine
 10
133.8811463994
 20
121.1413604078
 30
0.0
 11
133.8811463994
 21
149.6413604078
 31
0.0
  0
LINE
  5
161
330
1F
100
AcDbEntity
  8
0
  6
Continuous
 62
     7
370
    25
100
AcDbLine
 10
151.3811463994
 20
149.6413604078
 30
0.0
 11
151.3811463994
 21
121.1413604078
 31
0.0
  0
LINE
  5
162
330
1F
100
AcDbEntity
  8
0
  6
Continuous
 62
     7
370
    25
100
AcDbLine
 10
142.6311463994
 20
149.4828032653
 30
0.0
 11
142.6311463994
 21
150.3913604078
 31
0.0
  0
LINE
  5
163
330
1F
100
AcDbEntity
  8
0
  6
Continuous
 62
     7
370
    25
100
AcDbLine
 10
142.7651209956
 20
150.3913604078
 30
0.0
 11
142.6311463994
 21
150.3913604078
 31
0.0
  0
LINE
  5
164
330
1F
100
AcDbEntity
  8
0
  6
Continuous
 62
     7
370
    25
100
AcDbLine
 10
142.6311463994
 20
150.3913604078
 30
0.0
 11
142.4971718032
 21
150.3913604078
 31
0.0
  0
LINE
  5
165
330
1F
100
AcDbEntity
  8
0
  6
Continuous
 62
     7
370
    25
100
AcDbLine
 10
142.6311463994
 20
120.3913604078
 30
0.0
 11
142.6311463994
 21
121.2999175503
 31
0.0
  0
LINE
  5
166
330
1F
100
AcDbEntity
  8
0
  6
Continuous
 62
     7
370
    25
100
AcDbLine
 10
142.4971718032
 20
120.3913604078
 30
0.0
 11
142.6311463994
 21
120.3913604078
 31
0.0
  0
LINE
  5
167
330
1F
100
AcDbEntity
  8
0
  6
Continuous
 62
     7
370
    25
100
AcDbLine
 10
142.6311463994
 20
120.3913604078
 30
0.0
 11
142.7651209956
 21
120.3913604078
 31
0.0
  0
LINE
  5
168
330
1F
100
AcDbEntity
  8
0
  6
Continuous
 62
     7
370
    25
100
AcDbLine
 10
121.7782607164
 20
135.3913604078
 30
0.0
 11
125.0228214921
 21
135.3913604078
 31
0.0
  0
LINE
  5
169
330
1F
100
AcDbEntity
  8
0
  6
Continuous
 62
     7
370
    25
100
AcDbLine
 10
121.7782607164
 20
135.3913604078
 30
0.0
 11
121.7782607164
 21
148.8913604078
 31
0.0
  0
LINE
  5
16A
330
1F
100
AcDbEntity
  8
0
  6
Continuous
 62
     7
370
    25
100
AcDbLine
 10
121.7782607164
 20
148.8913604078
 30
0.0
 11
125.0228214921
 21
148.8913604078
 31
0.0
  0
SPLINE
  5
16B
330
1F
100
AcDbEntity
  8
0
  6
Continuous
 62
     7
370
    25
100
AcDbSpline
210
0.0
220
0.0
230
1.0
 70
     8
 71
     3
 72
     8
 73
     4
 74
     0
 42
0.000000001
 43
0.00000001
 40
0.0
 40
0.0
 40
0.0
 40
0.0
 40
1.0
 40
1.0
 40
1.0
 40
1.0
 10
125.1032062498203
 20
148.3554729131764
 30
0.0
 10
125.0772491861758
 20
148.5342240962143
 30
0.0
 10
125.0504370320814
 20
148.7128507511552
 30
0.0
 10
125.0228214920909
 20
148.8913604078104
 30
0.0
  0
SPLINE
  5
16C
330
1F
100
AcDbEntity
  8
0
  6
Continuous
 62
     7
370
    25
100
AcDbSpline
210
0.0
220
0.0
230
1.0
 70
     8
 71
     3
 72
     8
 73
     4
 74
     0
 42
0.000000001
 43
0.00000001
 40
0.0
 40
0.0
 40
0.0
 40
0.0
 40
1.0
 40
1.0
 40
1.0
 40
1.0
 10
125.1835910075496
 20
148.8913604078104
 30
0.0
 10
125.1559679514558
 20
148.7128021662994
 30
0.0
 10
125.1291561043385
 20
148.5341744511598
 30
0.0
 10
125.1032062498203
 20
148.3554729131764
 30
0.0
  0
LINE
  5
16D
330
1F
100
AcDbEntity
  8
0
  6
Continuous
 62
     7
370
    25
100
AcDbLine
 10
125.1835910075
 20
148.8913604078
 30
0.0
 11
128.4281517832
 21
148.8913604078
 31
0.0
  0
SPLINE
  5
16E
330
1F
100
AcDbEntity
  8
0
  6
Continuous
 62
     7
370
    25
100
AcDbSpline
210
0.0
220
0.0
230
1.0
 70
     8
 71
     3
 72
    16
 73
    12
 74
     0
 42
0.000000001
 43
0.00000001
 40
0.0
 40
0.0
 40
0.0
 40
0.0
 40
0.2499999999999998
 40
0.2499999999999998
 40
0.4999999999999997
 40
0.4999999999999997
 40
0.6249999999999998
 40
0.6249999999999998
 40
0.7499999999999999
 40
0.7499999999999999
 40
1.0
 40
1.0
 40
1.0
 40
1.0
 10
128.4281517832018
 20
148.8913604078105
 30
0.0
 10
128.7955341458878
 20
147.7892133197525
 30
0.0
 10
129.098323706282
 20
146.6790308444722
 30
0.0
 10
129.5177855145873
 20
144.4355127774421
 30
0.0
 10
129.6330741400419
 20
143.3020050621458
 30
0.0
 10
129.6343405369058
 20
141.5803880581989
 30
0.0
 10
129.6061569798168
 20
141.0038147986561
 30
0.0
 10
129.4962558107748
 20
139.8632921927093
 30
0.0
 10
129.4146497487019
 20
139.2968546352491
 30
0.0
 10
129.0995311538111
 20
137.6076266020094
 30
0.0
 10
128.7959921374749
 20
136.49488147063
 30
0.0
 10
128.4281517832017
 20
135.3913604078104
 30
0.0
  0
LINE
  5
16F
330
1F
100
AcDbEntity
  8
0
  6
Continuous
 62
     7
370
    25
100
AcDbLine
 10
125.1835910075
 20
135.3913604078
 30
0.0
 11
128.4281517832
 21
135.3913604078
 31
0.0
  0
SPLINE
  5
170
330
1F
100
AcDbEntity
  8
0
  6
Continuous
 62
     7
370
    25
100
AcDbSpline
210
0.0
220
0.0
230
1.0
 70
     8
 71
     3
 72
     8
 73
     4
 74
     0
 42
0.000000001
 43
0.00000001
 40
0.0
 40
0.0
 40
0.0
 40
0.0
 40
1.0
 40
1.0
 40
1.0
 40
1.0
 10
125.1032062498203
 20
135.9272479024444
 30
0.0
 10
125.1291633134647
 20
135.7484967194065
 30
0.0
 10
125.1559754675591
 20
135.5698700644656
 30
0.0
 10
125.1835910075496
 20
135.3913604078104
 30
0.0
  0
SPLINE
  5
171
330
1F
100
AcDbEntity
  8
0
  6
Continuous
 62
     7
370
    25
100
AcDbSpline
210
0.0
220
0.0
230
1.0
 70
     8
 71
     3
 72
     8
 73
     4
 74
     0
 42
0.000000001
 43
0.00000001
 40
0.0
 40
0.0
 40
0.0
 40
0.0
 40
1.0
 40
1.0
 40
1.0
 40
1.0
 10
125.0228214920909
 20
135.3913604078104
 30
0.0
 10
125.0504445481848
 20
135.5699186493215
 30
0.0
 10
125.077256395302
 20
135.7485463644611
 30
0.0
 10
125.1032062498203
 20
135.9272479024444
 30
0.0
  0
SPLINE
  5
172
330
1F
100
AcDbEntity
  8
0
  6
Continuous
 62
     7
370
    25
100
AcDbSpline
210
0.0
220
0.0
230
1.0
 70
    24
 71
     3
 72
    12
 73
     8
 74
     0
 42
0.000000001
 43
0.00000001
 40
0.0
 40
0.0
 40
0.0
 40
0.0
 40
0.2317339281496965
 40
0.4224046646666167
 40
0.6137235292339576
 40
0.8066599998568974
 40
1.0
 40
1.0
 40
1.0
 40
1.0
 10
129.6254382391418
 20
148.8913604078104
 30
0.0
 10
129.6153281674967
 20
148.8913604078104
 30
0.0
 10
129.5968995262655
 20
148.8913604078104
 30
0.0
 10
129.4126100757914
 20
148.8913604078104
 30
0.0
 10
129.1628024292835
 20
148.8913604078104
 30
0.0
 10
128.836119601081
 20
148.8913604078104
 30
0.0
 10
128.5642357316847
 20
148.8913604078104
 30
0.0
 10
128.4281517832015
 20
148.8913604078104
 30
0.0
  0
SPLINE
  5
173
330
1F
100
AcDbEntity
  8
0
  6
Continuous
 62
     7
370
    25
100
AcDbSpline
210
0.0
220
0.0
230
1.0
 70
    24
 71
     3
 72
    12
 73
     8
 74
     0
 42
0.000000001
 43
0.00000001
 40
0.0
 40
0.0
 40
0.0
 40
0.0
 40
0.1909598259441541
 40
0.3822706016513613
 40
0.5749546996750793
 40
0.7682625891608482
 40
1.0
 40
1.0
 40
1.0
 40
1.0
 10
128.4281517832015
 20
121.8913604078105
 30
0.0
 10
128.5626264731725
 20
121.8913604078105
 30
0.0
 10
128.8318229933722
 20
121.8913604078105
 30
0.0
 10
129.1581547935077
 20
121.8913604078105
 30
0.0
 10
129.41059683481
 20
121.8913604078104
 30
0.0
 10
129.5961758016539
 20
121.8913604078104
 30
0.0
 10
129.6167734789571
 20
121.8913604078104
 30
0.0
 10
129.6280034640996
 20
121.8913604078104
 30
0.0
  0
SPLINE
  5
174
330
1F
100
AcDbEntity
  8
0
  6
Continuous
 62
     7
370
    25
100
AcDbSpline
210
0.0
220
0.0
230
1.0
 70
     8
 71
     3
 72
    16
 73
    12
 74
     0
 42
0.000000001
 43
0.00000001
 40
0.0
 40
0.0
 40
0.0
 40
0.0
 40
0.2499999999999999
 40
0.2499999999999999
 40
0.4999999999999999
 40
0.4999999999999999
 40
0.6249999999999999
 40
0.6249999999999999
 40
0.7499999999999998
 40
0.7499999999999998
 40
1.0
 40
1.0
 40
1.0
 40
1.0
 10
128.4281517832018
 20
135.3913604078105
 30
0.0
 10
128.7955341458878
 20
134.2892133197524
 30
0.0
 10
129.098323706282
 20
133.1790308444722
 30
0.0
 10
129.5177855145873
 20
130.9355127774421
 30
0.0
 10
129.6330741400419
 20
129.8020050621458
 30
0.0
 10
129.6343405369058
 20
128.080388058199
 30
0.0
 10
129.6061569798167
 20
127.5038147986562
 30
0.0
 10
129.4962558107748
 20
126.3632921927093
 30
0.0
 10
129.4146497487019
 20
125.7968546352491
 30
0.0
 10
129.099531153811
 20
124.1076266020094
 30
0.0
 10
128.7959921374749
 20
122.9948814706301
 30
0.0
 10
128.4281517832017
 20
121.8913604078105
 30
0.0
  0
LINE
  5
175
330
1F
100
AcDbEntity
  8
0
  6
Continuous
 62
     7
370
    25
100
AcDbLine
 10
129.7782607164
 20
148.6413604078
 30
0.0
 11
129.7782607164
 21
122.1413604078
 31
0.0
  0
LINE
  5
176
330
1F
100
AcDbEntity
  8
0
  6
Continuous
 62
     7
370
    25
100
AcDbLine
 10
125.1032062498
 20
134.8554729132
 30
0.0
 11
125.1032062498
 21
135.9272479024
 31
0.0
  0
SPLINE
  5
177
330
1F
100
AcDbEntity
  8
0
  6
Continuous
 62
     7
370
    25
100
AcDbSpline
210
0.0
220
0.0
230
1.0
 70
     8
 71
     3
 72
     8
 73
     4
 74
     0
 42
0.000000001
 43
0.00000001
 40
0.0
 40
0.0
 40
0.0
 40
0.0
 40
1.0
 40
1.0
 40
1.0
 40
1.0
 10
125.1032062498203
 20
134.8554729131764
 30
0.0
 10
125.0772491861758
 20
135.0342240962143
 30
0.0
 10
125.0504370320814
 20
135.2128507511552
 30
0.0
 10
125.0228214920909
 20
135.3913604078104
 30
0.0
  0
SPLINE
  5
178
330
1F
100
AcDbEntity
  8
0
  6
Continuous
 62
     7
370
    25
100
AcDbSpline
210
0.0
220
0.0
230
1.0
 70
     8
 71
     3
 72
     8
 73
     4
 74
     0
 42
0.000000001
 43
0.00000001
 40
0.0
 40
0.0
 40
0.0
 40
0.0
 40
1.0
 40
1.0
 40
1.0
 40
1.0
 10
125.1835910075496
 20
135.3913604078104
 30
0.0
 10
125.1559679514558
 20
135.2128021662993
 30
0.0
 10
125.1291561043385
 20
135.0341744511597
 30
0.0
 10
125.1032062498203
 20
134.8554729131764
 30
0.0
  0
LINE
  5
179
330
1F
100
AcDbEntity
  8
0
  6
Continuous
 62
     7
370
    25
100
AcDbLine
 10
121.7782607164
 20
121.8913604078
 30
0.0
 11
125.0228214921
 21
121.8913604078
 31
0.0
  0
LINE
  5
17A
330
1F
100
AcDbEntity
  8
0
  6
Continuous
 62
     7
370
    25
100
AcDbLine
 10
125.1835910075
 20
121.8913604078
 30
0.0
 11
128.4281517832
 21
121.8913604078
 31
0.0
  0
SPLINE
  5
17B
330
1F
100
AcDbEntity
  8
0
  6
Continuous
 62
     7
370
    25
100
AcDbSpline
210
0.0
220
0.0
230
1.0
 70
     8
 71
     3
 72
     8
 73
     4
 74
     0
 42
0.000000001
 43
0.00000001
 40
0.0
 40
0.0
 40
0.0
 40
0.0
 40
1.0
 40
1.0
 40
1.0
 40
1.0
 10
125.1032062498203
 20
122.4272479024445
 30
0.0
 10
125.1291633134647
 20
122.2484967194066
 30
0.0
 10
125.1559754675591
 20
122.0698700644657
 30
0.0
 10
125.1835910075496
 20
121.8913604078105
 30
0.0
  0
SPLINE
  5
17C
330
1F
100
AcDbEntity
  8
0
  6
Continuous
 62
     7
370
    25
100
AcDbSpline
210
0.0
220
0.0
230
1.0
 70
     8
 71
     3
 72
     8
 73
     4
 74
     0
 42
0.000000001
 43
0.00000001
 40
0.0
 40
0.0
 40
0.0
 40
0.0
 40
1.0
 40
1.0
 40
1.0
 40
1.0
 10
125.0228214920909
 20
121.8913604078105
 30
0.0
 10
125.0504445481848
 20
122.0699186493216
 30
0.0
 10
125.077256395302
 20
122.2485463644611
 30
0.0
 10
125.1032062498203
 20
122.4272479024445
 30
0.0
  0
LINE
  5
17D
330
1F
100
AcDbEntity
  8
0
  6
Continuous
 62
     7
370
    25
100
AcDbLine
 10
121.7782607164
 20
121.8913604078
 30
0.0
 11
121.7782607164
 21
135.3913604078
 31
0.0
  0
LINE
  5
17E
330
1F
100
AcDbEntity
  8
0
  6
Continuous
 62
     7
370
    25
100
AcDbLine
 10
132.8577607164
 20
123.5913604078
 30
0.0
 11
132.8577607164
 21
147.1913604078
 31
0.0
  0
LINE
  5
17F
330
1F
100
AcDbEntity
  8
0
  6
Continuous
 62
     7
370
    25
100
AcDbLine
 10
110.4746519894
 20
145.6981226351
 30
0.0
 11
110.4746519894
 21
125.0845981805
 31
0.0
  0
LINE
  5
180
330
1F
100
AcDbEntity
  8
0
  6
Continuous
 62
     7
370
    25
100
AcDbLine
 10
107.7782607164
 20
126.6413604078
 30
0.0
 11
107.7782607164
 21
144.1413604078
 31
0.0
  0
SPLINE
  5
181
330
1F
100
AcDbEntity
  8
0
  6
Continuous
 62
     7
370
    25
100
AcDbSpline
210
0.0
220
0.0
230
1.0
 70
    24
 71
     3
 72
     8
 73
     4
 74
     0
 42
0.000000001
 43
0.00000001
 40
0.0
 40
0.0
 40
0.0
 40
0.0
 40
1.0
 40
1.0
 40
1.0
 40
1.0
 10
125.1835910075496
 20
121.8913604078105
 30
0.0
 10
125.1559668487472
 20
121.8913604078105
 30
0.0
 10
125.1291550473341
 20
121.8913604078105
 30
0.0
 10
125.1032062498203
 20
121.8913604078105
 30
0.0
  0
LINE
  5
182
330
1F
100
AcDbEntity
  8
0
  6
Continuous
 62
     7
370
    25
100
AcDbLine
 10
125.1032062498
 20
121.8913604078
 30
0.0
 11
125.1032062498
 21
122.4272479024
 31
0.0
  0
SPLINE
  5
183
330
1F
100
AcDbEntity
  8
0
  6
Continuous
 62
     7
370
    25
100
AcDbSpline
210
0.0
220
0.0
230
1.0
 70
    24
 71
     3
 72
     8
 73
     4
 74
     0
 42
0.000000001
 43
0.00000001
 40
0.0
 40
0.0
 40
0.0
 40
0.0
 40
1.0
 40
1.0
 40
1.0
 40
1.0
 10
125.1032062498203
 20
121.8913604078105
 30
0.0
 10
125.0772495570898
 20
121.8913604078105
 30
0.0
 10
125.0504374185878
 20
121.8913604078105
 30
0.0
 10
125.0228214920909
 20
121.8913604078105
 30
0.0
  0
SPLINE
  5
184
330
1F
100
AcDbEntity
  8
0
  6
Continuous
 62
     7
370
    25
100
AcDbSpline
210
0.0
220
0.0
230
1.0
 70
    24
 71
     3
 72
     8
 73
     4
 74
     0
 42
0.000000001
 43
0.00000001
 40
0.0
 40
0.0
 40
0.0
 40
0.0
 40
1.0
 40
1.0
 40
1.0
 40
1.0
 10
125.0228214920909
 20
148.8913604078104
 30
0.0
 10
125.0504456508934
 20
148.8913604078104
 30
0.0
 10
125.0772574523065
 20
148.8913604078104
 30
0.0
 10
125.1032062498203
 20
148.8913604078104
 30
0.0
  0
LINE
  5
185
330
1F
100
AcDbEntity
  8
0
  6
Continuous
 62
     7
370
    25
100
AcDbLine
 10
125.1032062498
 20
148.3554729132
 30
0.0
 11
125.1032062498
 21
148.8913604078
 31
0.0
  0
SPLINE
  5
186
330
1F
100
AcDbEntity
  8
0
  6
Continuous
 62
     7
370
    25
100
AcDbSpline
210
0.0
220
0.0
230
1.0
 70
    24
 71
     3
 72
     8
 73
     4
 74
     0
 42
0.000000001
 43
0.00000001
 40
0.0
 40
0.0
 40
0.0
 40
0.0
 40
1.0
 40
1.0
 40
1.0
 40
1.0
 10
125.1032062498203
 20
148.8913604078104
 30
0.0
 10
125.1291629425507
 20
148.8913604078104
 30
0.0
 10
125.1559750810527
 20
148.8913604078104
 30
0.0
 10
125.1835910075496
 20
148.8913604078104
 30
0.0
  0
LINE
  5
187
330
1F
100
AcDbEntity
  8
0
  6
Continuous
 62
     7
370
     0
100
AcDbLine
 10
108.6594867474
 20
144.650136494
 30
0.0
 11
121.2782607164
 21
145.0444731805
 31
0.0
  0
LINE
  5
188
330
1F
100
AcDbEntity
  8
0
  6
Continuous
 62
     7
370
     0
100
AcDbLine
 10
108.6594867474
 20
126.1325843216
 30
0.0
 11
121.2782607164
 21
125.7382476351
 31
0.0
  0
LINE
  5
189
330
1F
100
AcDbEntity
  8
0
  6
Continuous
 62
     7
370
     0
100
AcDbLine
 10
121.2782607164
 20
124.7469854078
 30
0.0
 11
121.2782607164
 21
146.0357354078
 31
0.0
  0
LINE
  5
18A
330
1F
100
AcDbEntity
  8
0
  6
CENTERX2
 62
     7
370
    18
100
AcDbLine
 10
187.8811463994
 20
135.3913604078
 30
0.0
 11
104.2656961125
 21
135.3913604078
 31
0.0
  0
ENDSEC
  0
SECTION
  2
OBJECTS
  0
DICTIONARY
  5
C
330
0
100
AcDbDictionary
281
     1
  3
ACAD_GROUP
350
D
  3
ACAD_LAYOUT
350
1A
  3
ACAD_MLINESTYLE
350
17
  3
ACAD_PLOTSETTINGS
350
19
  3
ACAD_PLOTSTYLENAME
350
E
  3
ACAD_SCALELIST
350
47
  0
DICTIONARY
  5
D
102
{ACAD_REACTORS
330
C
102
}
330
C
100
AcDbDictionary
281
     1
  0
DICTIONARY
  5
1A
102
{ACAD_REACTORS
330
C
102
}
330
C
100
AcDbDictionary
281
     1
  3
Layout1
350
1E
  3
Layout2
350
26
  3
Model
350
22
  0
DICTIONARY
  5
17
102
{ACAD_REACTORS
330
C
102
}
330
C
100
AcDbDictionary
281
     1
  3
Standard
350
18
  0
DICTIONARY
  5
19
102
{ACAD_REACTORS
330
C
102
}
330
C
100
AcDbDictionary
281
     1
  0
ACDBDICTIONARYWDFLT
  5
E
102
{ACAD_REACTORS
330
C
102
}
330
C
100
AcDbDictionary
281
     1
  3
Normal
350
F
100
AcDbDictionaryWithDefault
340
F
  0
DICTIONARY
  5
47
102
{ACAD_REACTORS
330
C
102
}
330
C
100
AcDbDictionary
281
     1
  3
A0
350
48
  3
A1
350
49
  3
A2
350
4A
  3
A3
350
4B
  3
A4
350
4C
  3
A5
350
4D
  3
A6
350
4E
  3
A7
350
4F
  3
A8
350
50
  3
A9
350
51
  3
B0
350
52
  3
B1
350
53
  3
B2
350
54
  3
B3
350
55
  3
B4
350
56
  3
B5
350
57
  3
B6
350
58
  3
B7
350
59
  3
B8
350
5A
  3
B9
350
5B
  3
C0
350
5C
  3
C1
350
5D
  3
C2
350
5E
  3
C3
350
5F
  3
C4
350
60
  3
C5
350
61
  3
C6
350
62
  3
C7
350
63
  3
C8
350
64
  3
C9
350
65
  3
D0
350
66
  3
D1
350
67
  3
D2
350
68
  0
LAYOUT
  5
1E
102
{ACAD_REACTORS
330
1A
102
}
330
1A
100
AcDbPlotSettings
  1

  2
none_device
  4

  6

 40
0.0
 41
0.0
 42
0.0
 43
0.0
 44
0.0
 45
0.0
 46
0.0
 47
0.0
 48
0.0
 49
0.0
140
0.0
141
0.0
142
1.0
143
1.0
 70
   688
 72
     1
 73
     0
 74
     5
  7

 75
    16
147
1.0
148
0.0
149
0.0
100
AcDbLayout
  1
Layout1
 70
     1
 71
     1
 10
0.0
 20
0.0
 11
420.0
 21
297.0
 12
0.0
 22
0.0
 32
0.0
 14
1.0000000000E+20
 24
1.0000000000E+20
 34
1.0000000000E+20
 15
-1.0000000000E+20
 25
-1.0000000000E+20
 35
-1.0000000000E+20
146
0.0
 13
0.0
 23
0.0
 33
0.0
 16
1.0
 26
0.0
 36
0.0
 17
0.0
 27
1.0
 37
0.0
 76
     0
330
1B
  0
LAYOUT
  5
26
102
{ACAD_REACTORS
330
1A
102
}
330
1A
100
AcDbPlotSettings
  1

  2
none_device
  4

  6

 40
0.0
 41
0.0
 42
0.0
 43
0.0
 44
0.0
 45
0.0
 46
0.0
 47
0.0
 48
0.0
 49
0.0
140
0.0
141
0.0
142
1.0
143
1.0
 70
   688
 72
     1
 73
     0
 74
     5
  7

 75
    16
147
1.0
148
0.0
149
0.0
100
AcDbLayout
  1
Layout2
 70
     1
 71
     2
 10
0.0
 20
0.0
 11
0.0
 21
0.0
 12
0.0
 22
0.0
 32
0.0
 14
0.0
 24
0.0
 34
0.0
 15
0.0
 25
0.0
 35
0.0
146
0.0
 13
0.0
 23
0.0
 33
0.0
 16
1.0
 26
0.0
 36
0.0
 17
0.0
 27
1.0
 37
0.0
 76
     0
330
23
  0
LAYOUT
  5
22
102
{ACAD_REACTORS
330
1A
102
}
330
1A
100
AcDbPlotSettings
  1

  2
none_device
  4
Letter_(8.50_x_11.00_Inches)
  6

 40
6.35
 41
6.35
 42
6.35000508
 43
6.35000508
 44
215.9
 45
279.4
 46
0.0
 47
0.0
 48
0.0
 49
0.0
140
0.0
141
0.0
142
1.0
143
1.0
 70
  1712
 72
     1
 73
     0
 74
     0
  7

 75
     0
147
1.0
148
0.0
149
0.0
100
AcDbLayout
  1
Model
 70
     1
 71
     0
 10
0.0
 20
0.0
 11
431.8
 21
279.4
 12
0.0
 22
0.0
 32
0.0
 14
0.0
 24
0.0
 34
0.0
 15
431.8
 25
279.4
 35
0.0
146
0.0
 13
0.0
 23
0.0
 33
0.0
 16
1.0
 26
0.0
 36
0.0
 17
0.0
 27
1.0
 37
0.0
 76
     0
330
1F
331
29
  0
MLINESTYLE
  5
18
102
{ACAD_REACTORS
330
17
102
}
330
17
100
AcDbMlineStyle
  2
Standard
 70
     0
  3

 62
   256
 51
90.0
 52
90.0
 71
     2
 49
0.5
 62
   256
  6
BYLAYER
 49
-0.5
 62
   256
  6
BYLAYER
  0
ACDBPLACEHOLDER
  5
F
102
{ACAD_REACTORS
330
E
102
}
330
E
  0
SCALE
  5
48
102
{ACAD_REACTORS
330
47
102
}
330
47
100
AcDbScale
 70
     0
300
1:1
140
1.0
141
1.0
290
     1
  0
SCALE
  5
49
102
{ACAD_REACTORS
330
47
102
}
330
47
100
AcDbScale
 70
     0
300
1:2
140
1.0
141
2.0
290
     0
  0
SCALE
  5
4A
102
{ACAD_REACTORS
330
47
102
}
330
47
100
AcDbScale
 70
     0
300
1:4
140
1.0
141
4.0
290
     0
  0
SCALE
  5
4B
102
{ACAD_REACTORS
330
47
102
}
330
47
100
AcDbScale
 70
     0
300
1:5
140
1.0
141
5.0
290
     0
  0
SCALE
  5
4C
102
{ACAD_REACTORS
330
47
102
}
330
47
100
AcDbScale
 70
     0
300
1:8
140
1.0
141
8.0
290
     0
  0
SCALE
  5
4D
102
{ACAD_REACTORS
330
47
102
}
330
47
100
AcDbScale
 70
     0
300
1:10
140
1.0
141
10.0
290
     0
  0
SCALE
  5
4E
102
{ACAD_REACTORS
330
47
102
}
330
47
100
AcDbScale
 70
     0
300
1:16
140
1.0
141
16.0
290
     0
  0
SCALE
  5
4F
102
{ACAD_REACTORS
330
47
102
}
330
47
100
AcDbScale
 70
     0
300
1:20
140
1.0
141
20.0
290
     0
  0
SCALE
  5
50
102
{ACAD_REACTORS
330
47
102
}
330
47
100
AcDbScale
 70
     0
300
1:30
140
1.0
141
30.0
290
     0
  0
SCALE
  5
51
102
{ACAD_REACTORS
330
47
102
}
330
47
100
AcDbScale
 70
     0
300
1:40
140
1.0
141
40.0
290
     0
  0
SCALE
  5
52
102
{ACAD_REACTORS
330
47
102
}
330
47
100
AcDbScale
 70
     0
300
1:50
140
1.0
141
50.0
290
     0
  0
SCALE
  5
53
102
{ACAD_REACTORS
330
47
102
}
330
47
100
AcDbScale
 70
     0
300
1:100
140
1.0
141
100.0
290
     0
  0
SCALE
  5
54
102
{ACAD_REACTORS
330
47
102
}
330
47
100
AcDbScale
 70
     0
300
2:1
140
2.0
141
1.0
290
     0
  0
SCALE
  5
55
102
{ACAD_REACTORS
330
47
102
}
330
47
100
AcDbScale
 70
     0
300
4:1
140
4.0
141
1.0
290
     0
  0
SCALE
  5
56
102
{ACAD_REACTORS
330
47
102
}
330
47
100
AcDbScale
 70
     0
300
8:1
140
8.0
141
1.0
290
     0
  0
SCALE
  5
57
102
{ACAD_REACTORS
330
47
102
}
330
47
100
AcDbScale
 70
     0
300
10:1
140
10.0
141
1.0
290
     0
  0
SCALE
  5
58
102
{ACAD_REACTORS
330
47
102
}
330
47
100
AcDbScale
 70
     0
300
100:1
140
100.0
141
1.0
290
     0
  0
SCALE
  5
59
102
{ACAD_REACTORS
330
47
102
}
330
47
100
AcDbScale
 70
     0
300
1/128" = 1'-0"
140
0.0078125
141
12.0
290
     0
  0
SCALE
  5
5A
102
{ACAD_REACTORS
330
47
102
}
330
47
100
AcDbScale
 70
     0
300
1/64" = 1'-0"
140
0.015625
141
12.0
290
     0
  0
SCALE
  5
5B
102
{ACAD_REACTORS
330
47
102
}
330
47
100
AcDbScale
 70
     0
300
1/32" = 1'-0"
140
0.03125
141
12.0
290
     0
  0
SCALE
  5
5C
102
{ACAD_REACTORS
330
47
102
}
330
47
100
AcDbScale
 70
     0
300
1/16" = 1'-0"
140
0.0625
141
12.0
290
     0
  0
SCALE
  5
5D
102
{ACAD_REACTORS
330
47
102
}
330
47
100
AcDbScale
 70
     0
300
3/32" = 1'-0"
140
0.09375
141
12.0
290
     0
  0
SCALE
  5
5E
102
{ACAD_REACTORS
330
47
102
}
330
47
100
AcDbScale
 70
     0
300
1/8" = 1'-0"
140
0.125
141
12.0
290
     0
  0
SCALE
  5
5F
102
{ACAD_REACTORS
330
47
102
}
330
47
100
AcDbScale
 70
     0
300
3/16" = 1'-0"
140
0.1875
141
12.0
290
     0
  0
SCALE
  5
60
102
{ACAD_REACTORS
330
47
102
}
330
47
100
AcDbScale
 70
     0
300
1/4" = 1'-0"
140
0.25
141
12.0
290
     0
  0
SCALE
  5
61
102
{ACAD_REACTORS
330
47
102
}
330
47
100
AcDbScale
 70
     0
300
3/8" = 1'-0"
140
0.375
141
12.0
290
     0
  0
SCALE
  5
62
102
{ACAD_REACTORS
330
47
102
}
330
47
100
AcDbScale
 70
     0
300
1/2" = 1'-0"
140
0.5
141
12.0
290
     0
  0
SCALE
  5
63
102
{ACAD_REACTORS
330
47
102
}
330
47
100
AcDbScale
 70
     0
300
3/4" = 1'-0"
140
0.75
141
12.0
290
     0
  0
SCALE
  5
64
102
{ACAD_REACTORS
330
47
102
}
330
47
100
AcDbScale
 70
     0
300
1" = 1'-0"
140
1.0
141
12.0
290
     0
  0
SCALE
  5
65
102
{ACAD_REACTORS
330
47
102
}
330
47
100
AcDbScale
 70
     0
300
1-1/2" = 1'-0"
140
1.5
141
12.0
290
     0
  0
SCALE
  5
66
102
{ACAD_REACTORS
330
47
102
}
330
47
100
AcDbScale
 70
     0
300
3" = 1'-0"
140
3.0
141
12.0
290
     0
  0
SCALE
  5
67
102
{ACAD_REACTORS
330
47
102
}
330
47
100
AcDbScale
 70
     0
300
6" = 1'-0"
140
6.0
141
12.0
290
     0
  0
SCALE
  5
68
102
{ACAD_REACTORS
330
47
102
}
330
47
100
AcDbScale
 70
     0
300
1'-0" = 1'-0"
140
12.0
141
12.0
290
     0
  0
ENDSEC
  0
EOF
