  0
SECTION
  2
HEADER
  9
$ACADVER
  1
AC1015
  9
$ACADMAINTVER
 70
     6
  9
$DWGCODEPAGE
  3
DOS932
  9
$INSBASE
 10
0.0
 20
0.0
 30
0.0
  9
$EXTMIN
 10
0.0
 20
0.0
 30
0.0
  9
$EXTMAX
 10
431.8
 20
279.4
 30
0.0
  9
$LIMMIN
 10
0.0
 20
0.0
  9
$LIMMAX
 10
431.8
 20
279.4
  9
$ORTHOMODE
 70
     0
  9
$REGENMODE
 70
     1
  9
$FILLMODE
 70
     1
  9
$QTEXTMODE
 70
     0
  9
$MIRRTEXT
 70
     1
  9
$LTSCALE
 40
1.0
  9
$ATTMODE
 70
     1
  9
$TEXTSIZE
 40
3.5
  9
$TRACEWID
 40
1.0
  9
$TEXTSTYLE
  7
Standard
  9
$CLAYER
  8
0
  9
$CELTYPE
  6
ByLayer
  9
$CECOLOR
 62
   256
  9
$CELTSCALE
 40
1.0
  9
$DISPSILH
 70
     0
  9
$DIMSCALE
 40
1.0
  9
$DIMASZ
 40
3.302
  9
$DIMEXO
 40
1.0
  9
$DIMDLI
 40
3.75
  9
$DIMRND
 40
0.0
  9
$DIMDLE
 40
0.0
  9
$DIMEXE
 40
1.0
  9
$DIMTP
 40
0.0
  9
$DIMTM
 40
0.0
  9
$DIMTXT
 40
3.5
  9
$DIMCEN
 40
2.5
  9
$DIMTSZ
 40
0.0
  9
$DIMTOL
 70
     0
  9
$DIMLIM
 70
     0
  9
$DIMTIH
 70
     1
  9
$DIMTOH
 70
     1
  9
$DIMSE1
 70
     0
  9
$DIMSE2
 70
     0
  9
$DIMTAD
 70
     1
  9
$DIMZIN
 70
     1
  9
$DIMBLK
  1

  9
$DIMASO
 70
     1
  9
$DIMSHO
 70
     1
  9
$DIMPOST
  1

  9
$DIMAPOST
  1

  9
$DIMALT
 70
     0
  9
$DIMALTD
 70
     3
  9
$DIMALTF
 40
0.0393700787
  9
$DIMLFAC
 40
1.0
  9
$DIMTOFL
 70
     1
  9
$DIMTVP
 40
0.0
  9
$DIMTIX
 70
     0
  9
$DIMSOXD
 70
     0
  9
$DIMSAH
 70
     0
  9
$DIMBLK1
  1

  9
$DIMBLK2
  1

  9
$DIMSTYLE
  2
ISO-25
  9
$DIMCLRD
 70
     0
  9
$DIMCLRE
 70
     0
  9
$DIMCLRT
 70
     0
  9
$DIMTFAC
 40
1.0
  9
$DIMGAP
 40
1.524
  9
$DIMJUST
 70
     0
  9
$DIMSD1
 70
     0
  9
$DIMSD2
 70
     0
  9
$DIMTOLJ
 70
     0
  9
$DIMTZIN
 70
     1
  9
$DIMALTZ
 70
     0
  9
$DIMALTTZ
 70
     0
  9
$DIMUPT
 70
     0
  9
$DIMDEC
 70
     2
  9
$DIMTDEC
 70
     2
  9
$DIMALTU
 70
     2
  9
$DIMALTTD
 70
     3
  9
$DIMTXSTY
  7
Standard
  9
$DIMAUNIT
 70
     0
  9
$DIMADEC
 70
     2
  9
$DIMALTRND
 40
0.0
  9
$DIMAZIN
 70
     0
  9
$DIMDSEP
 70
    44
  9
$DIMATFIT
 70
     3
  9
$DIMFRAC
 70
     0
  9
$DIMLDRBLK
  1

  9
$DIMLUNIT
 70
     2
  9
$DIMLWD
 70
    -2
  9
$DIMLWE
 70
    -2
  9
$DIMTMOVE
 70
     0
  9
$LUNITS
 70
     2
  9
$LUPREC
 70
     2
  9
$SKETCHINC
 40
1.0
  9
$FILLETRAD
 40
10.0
  9
$AUNITS
 70
     0
  9
$AUPREC
 70
     2
  9
$MENU
  1
.
  9
$ELEVATION
 40
0.0
  9
$PELEVATION
 40
0.0
  9
$THICKNESS
 40
0.0
  9
$LIMCHECK
 70
     0
  9
$CHAMFERA
 40
0.0
  9
$CHAMFERB
 40
0.0
  9
$CHAMFERC
 40
0.0
  9
$CHAMFERD
 40
0.0
  9
$SKPOLY
 70
     0
  9
$TDCREATE
 40
2459486.415803889
  9
$TDUCREATE
 40
2459486.040803889
  9
$TDUPDATE
 40
2459486.415804444
  9
$TDUUPDATE
 40
2459486.040804444
  9
$TDINDWG
 40
0.0000000116
  9
$TDUSRTIMER
 40
0.0000000116
  9
$USRTIMER
 70
     1
  9
$ANGBASE
 50
0.0
  9
$ANGDIR
 70
     0
  9
$PDMODE
 70
     0
  9
$PDSIZE
 40
-1.0
  9
$PLINEWID
 40
0.0
  9
$SPLFRAME
 70
     0
  9
$SPLINETYPE
 70
     6
  9
$SPLINESEGS
 70
     8
  9
$HANDSEED
  5
1B3
  9
$SURFTAB1
 70
     6
  9
$SURFTAB2
 70
     6
  9
$SURFTYPE
 70
     6
  9
$SURFU
 70
     6
  9
$SURFV
 70
     6
  9
$UCSBASE
  2

  9
$UCSNAME
  2

  9
$UCSORG
 10
0.0
 20
0.0
 30
0.0
  9
$UCSXDIR
 10
1.0
 20
0.0
 30
0.0
  9
$UCSYDIR
 10
0.0
 20
1.0
 30
0.0
  9
$UCSORTHOREF
  2

  9
$UCSORTHOVIEW
 70
     0
  9
$UCSORGTOP
 10
0.0
 20
0.0
 30
0.0
  9
$UCSORGBOTTOM
 10
0.0
 20
0.0
 30
0.0
  9
$UCSORGLEFT
 10
0.0
 20
0.0
 30
0.0
  9
$UCSORGRIGHT
 10
0.0
 20
0.0
 30
0.0
  9
$UCSORGFRONT
 10
0.0
 20
0.0
 30
0.0
  9
$UCSORGBACK
 10
0.0
 20
0.0
 30
0.0
  9
$PUCSBASE
  2

  9
$PUCSNAME
  2

  9
$PUCSORG
 10
0.0
 20
0.0
 30
0.0
  9
$PUCSXDIR
 10
1.0
 20
0.0
 30
0.0
  9
$PUCSYDIR
 10
0.0
 20
1.0
 30
0.0
  9
$PUCSORTHOREF
  2

  9
$PUCSORTHOVIEW
 70
     0
  9
$PUCSORGTOP
 10
0.0
 20
0.0
 30
0.0
  9
$PUCSORGBOTTOM
 10
0.0
 20
0.0
 30
0.0
  9
$PUCSORGLEFT
 10
0.0
 20
0.0
 30
0.0
  9
$PUCSORGRIGHT
 10
0.0
 20
0.0
 30
0.0
  9
$PUCSORGFRONT
 10
0.0
 20
0.0
 30
0.0
  9
$PUCSORGBACK
 10
0.0
 20
0.0
 30
0.0
  9
$USERI1
 70
     0
  9
$USERI2
 70
     0
  9
$USERI3
 70
     0
  9
$USERI4
 70
     0
  9
$USERI5
 70
     0
  9
$USERR1
 40
0.0
  9
$USERR2
 40
0.0
  9
$USERR3
 40
0.0
  9
$USERR4
 40
0.0
  9
$USERR5
 40
0.0
  9
$WORLDVIEW
 70
     1
  9
$SHADEDGE
 70
     3
  9
$SHADEDIF
 70
    70
  9
$TILEMODE
 70
     1
  9
$MAXACTVP
 70
    64
  9
$PINSBASE
 10
0.0
 20
0.0
 30
0.0
  9
$PLIMCHECK
 70
     0
  9
$PEXTMIN
 10
1.0000000000E+20
 20
1.0000000000E+20
 30
1.0000000000E+20
  9
$PEXTMAX
 10
-1.0000000000E+20
 20
-1.0000000000E+20
 30
-1.0000000000E+20
  9
$PLIMMIN
 10
0.0
 20
0.0
  9
$PLIMMAX
 10
420.0
 20
297.0
  9
$UNITMODE
 70
     0
  9
$VISRETAIN
 70
     1
  9
$PLINEGEN
 70
     0
  9
$PSLTSCALE
 70
     1
  9
$TREEDEPTH
 70
  3020
  9
$CMLSTYLE
  2
Standard
  9
$CMLJUST
 70
     0
  9
$CMLSCALE
 40
20.0
  9
$PROXYGRAPHICS
 70
     1
  9
$MEASUREMENT
 70
     1
  9
$CELWEIGHT
370
    -1
  9
$ENDCAPS
280
     0
  9
$JOINSTYLE
280
     0
  9
$LWDISPLAY
290
     1
  9
$INSUNITS
 70
     4
  9
$HYPERLINKBASE
  1

  9
$STYLESHEET
  1

  9
$XEDIT
290
     1
  9
$CEPSNTYPE
380
     0
  9
$PSTYLEMODE
290
     1
  9
$FINGERPRINTGUID
  2
{F517D976-B74C-4583-B7F8-A855C3B0F1E4}
  9
$VERSIONGUID
  2
{FAEB1C32-E019-11D5-929B-00C0DF256EC4}
  9
$EXTNAMES
290
     1
  9
$PSVPSCALE
 40
0.0
  9
$OLESTARTUP
290
     0
  0
ENDSEC
  0
SECTION
  2
CLASSES
  0
CLASS
  1
ACDBDICTIONARYWDFLT
  2
AcDbDictionaryWithDefault
  3
ObjectDBX Classes
 90
        0
280
     0
281
     0
  0
CLASS
  1
VISUALSTYLE
  2
AcDbVisualStyle
  3
ObjectDBX Classes
 90
     4095
280
     0
281
     0
  0
CLASS
  1
MATERIAL
  2
AcDbMaterial
  3
ObjectDBX Classes
 90
     1153
280
     0
281
     0
  0
CLASS
  1
SCALE
  2
AcDbScale
  3
ObjectDBX Classes
 90
     1153
280
     0
281
     0
  0
CLASS
  1
TABLESTYLE
  2
AcDbTableStyle
  3
ObjectDBX Classes
 90
     4095
280
     0
281
     0
  0
CLASS
  1
MLEADERSTYLE
  2
AcDbMLeaderStyle
  3
ACDB_MLEADERSTYLE_CLASS
 90
     4095
280
     0
281
     0
  0
CLASS
  1
SUN
  2
AcDbSun
  3
SCENEOE
 90
     1153
280
     0
281
     0
  0
CLASS
  1
ACDBPLACEHOLDER
  2
AcDbPlaceHolder
  3
ObjectDBX Classes
 90
        0
280
     0
281
     0
  0
CLASS
  1
LAYOUT
  2
AcDbLayout
  3
ObjectDBX Classes
 90
        0
280
     0
281
     0
  0
ENDSEC
  0
SECTION
  2
TABLES
  0
TABLE
  2
VPORT
  5
8
330
0
100
AcDbSymbolTable
 70
     1
  0
VPORT
  5
29
330
8
100
AcDbSymbolTableRecord
100
AcDbViewportTableRecord
  2
*Active
 70
     0
 10
0.0
 20
0.0
 11
1.0
 21
1.0
 12
215.9
 22
139.7
 13
0.0
 23
0.0
 14
10.0
 24
10.0
 15
10.0
 25
10.0
 16
0.0
 26
0.0
 36
1.0
 17
0.0
 27
0.0
 37
0.0
 40
279.4
 41
1.5454545455
 42
50.0
 43
0.0
 44
0.0
 50
0.0
 51
0.0
 71
     0
 72
  2000
 73
     1
 74
     3
 75
     0
 76
     0
 77
     0
 78
     0
281
     0
 65
     1
110
0.0
120
0.0
130
0.0
111
1.0
121
0.0
131
0.0
112
0.0
122
1.0
132
0.0
 79
     0
146
0.0
  0
ENDTAB
  0
TABLE
  2
LTYPE
  5
5
330
0
100
AcDbSymbolTable
 70
     6
  0
LTYPE
  5
14
330
5
100
AcDbSymbolTableRecord
100
AcDbLinetypeTableRecord
  2
ByBlock
 70
     0
  3

 72
    65
 73
     0
 40
0.0
  0
LTYPE
  5
15
330
5
100
AcDbSymbolTableRecord
100
AcDbLinetypeTableRecord
  2
ByLayer
 70
     0
  3

 72
    65
 73
     0
 40
0.0
  0
LTYPE
  5
16
330
5
100
AcDbSymbolTableRecord
100
AcDbLinetypeTableRecord
  2
Continuous
 70
     0
  3
Solid line
 72
    65
 73
     0
 40
0.0
  0
LTYPE
  5
6E
330
5
100
AcDbSymbolTableRecord
100
AcDbLinetypeTableRecord
  2
HIDDEN
 70
     0
  3
Hidden __ __ __ __ __ __ __ __ __ __ __ __ __ __
 72
    65
 73
     2
 40
1.905
 49
1.27
 74
     0
 49
-0.635
 74
     0
  0
LTYPE
  5
6F
330
5
100
AcDbSymbolTableRecord
100
AcDbLinetypeTableRecord
  2
PHANTOM
 70
     0
  3
Phantom ______  __  __  ______  __  __  ______
 72
    65
 73
     6
 40
12.7
 49
6.35
 74
     0
 49
-1.27
 74
     0
 49
1.27
 74
     0
 49
-1.27
 74
     0
 49
1.27
 74
     0
 49
-1.27
 74
     0
  0
LTYPE
  5
70
330
5
100
AcDbSymbolTableRecord
100
AcDbLinetypeTableRecord
  2
CENTER
 70
     0
  3
Center ____ _ ____ _ ____ _ ____ _ ____ _ ____
 72
    65
 73
     4
 40
10.16
 49
6.35
 74
     0
 49
-1.27
 74
     0
 49
1.27
 74
     0
 49
-1.27
 74
     0
  0
LTYPE
  5
71
330
5
100
AcDbSymbolTableRecord
100
AcDbLinetypeTableRecord
  2
CENTERX2
 70
     0
  3
Center (2x) ________  __  ________  __  _____
 72
    65
 73
     4
 40
20.32
 49
12.7
 74
     0
 49
-2.54
 74
     0
 49
2.54
 74
     0
 49
-2.54
 74
     0
  0
LTYPE
  5
72
330
5
100
AcDbSymbolTableRecord
100
AcDbLinetypeTableRecord
  2
DOT2
 70
     0
  3
Dot (.5x) ........................................
 72
    65
 73
     2
 40
0.635
 49
0.0
 74
     0
 49
-0.635
 74
     0
  0
ENDTAB
  0
TABLE
  2
LAYER
  5
2
330
0
100
AcDbSymbolTable
 70
     1
  0
LAYER
  5
10
330
2
100
AcDbSymbolTableRecord
100
AcDbLayerTableRecord
  2
0
 70
     0
 62
     7
  6
Continuous
370
    -3
390
F
  0
ENDTAB
  0
TABLE
  2
STYLE
  5
3
330
0
100
AcDbSymbolTable
 70
     2
  0
STYLE
  5
11
330
3
100
AcDbSymbolTableRecord
100
AcDbTextStyleTableRecord
  2
Standard
 70
     0
 40
0.0
 41
1.0
 50
0.0
 71
     0
 42
3.5
  3
txt
  4
bigfont
  0
STYLE
  5
73
330
3
100
AcDbSymbolTableRecord
100
AcDbTextStyleTableRecord
  2
SLDTEXTSTYLE0
 70
     0
 40
0.0
 41
0.7
 50
0.0
 71
     0
 42
3.5
  3
TXT
  4
bigfont
  0
ENDTAB
  0
TABLE
  2
VIEW
  5
6
330
0
100
AcDbSymbolTable
 70
     0
  0
ENDTAB
  0
TABLE
  2
UCS
  5
7
330
0
100
AcDbSymbolTable
 70
     0
  0
ENDTAB
  0
TABLE
  2
APPID
  5
9
330
0
100
AcDbSymbolTable
 70
     1
  0
APPID
  5
12
330
9
100
AcDbSymbolTableRecord
100
AcDbRegAppTableRecord
  2
ACAD
 70
     0
  0
ENDTAB
  0
TABLE
  2
DIMSTYLE
  5
A
330
0
100
AcDbSymbolTable
 70
     1
100
AcDbDimStyleTable
  0
DIMSTYLE
105
27
330
A
100
AcDbSymbolTableRecord
100
AcDbDimStyleTableRecord
  2
ISO-25
 70
     0
 41
2.5
 42
0.625
 43
3.75
 44
1.25
 73
     0
 74
     0
 77
     1
 78
     8
140
2.5
141
2.5
143
0.0393700787
147
0.625
171
     3
172
     1
178
     0
271
     2
272
     2
274
     3
278
    44
283
     0
284
     8
340
11
  0
ENDTAB
  0
TABLE
  2
BLOCK_RECORD
  5
1
330
0
100
AcDbSymbolTable
 70
     2
  0
BLOCK_RECORD
  5
1F
330
1
100
AcDbSymbolTableRecord
100
AcDbBlockTableRecord
  2
*Model_Space
340
22
  0
BLOCK_RECORD
  5
1B
330
1
100
AcDbSymbolTableRecord
100
AcDbBlockTableRecord
  2
*Paper_Space
340
1E
  0
BLOCK_RECORD
  5
23
330
1
100
AcDbSymbolTableRecord
100
AcDbBlockTableRecord
  2
*Paper_Space0
340
26
  0
BLOCK_RECORD
  5
118
330
1
100
AcDbSymbolTableRecord
100
AcDbBlockTableRecord
  2
SW_CENTERMARKSYMBOL_0
340
0
102
{BLKREFS
331
123
102
}
  0
ENDTAB
  0
ENDSEC
  0
SECTION
  2
BLOCKS
  0
BLOCK
  5
20
330
1F
100
AcDbEntity
  8
0
100
AcDbBlockBegin
  2
*Model_Space
 70
     0
 10
0.0
 20
0.0
 30
0.0
  3
*Model_Space
  1

  0
ENDBLK
  5
21
330
1F
100
AcDbEntity
  8
0
100
AcDbBlockEnd
  0
BLOCK
  5
1C
330
1B
100
AcDbEntity
 67
     1
  8
0
100
AcDbBlockBegin
  2
*Paper_Space
 70
     0
 10
0.0
 20
0.0
 30
0.0
  3
*Paper_Space
  1

  0
ENDBLK
  5
1D
330
1B
100
AcDbEntity
 67
     1
  8
0
100
AcDbBlockEnd
  0
BLOCK
  5
24
330
23
100
AcDbEntity
  8
0
100
AcDbBlockBegin
  2
*Paper_Space0
 70
     0
 10
0.0
 20
0.0
 30
0.0
  3
*Paper_Space0
  1

  0
ENDBLK
  5
25
330
23
100
AcDbEntity
  8
0
100
AcDbBlockEnd
  0
BLOCK
  5
119
330
118
100
AcDbEntity
  8
0
100
AcDbBlockBegin
  2
SW_CENTERMARKSYMBOL_0
 70
     0
 10
0.0
 20
0.0
 30
0.0
  3
SW_CENTERMARKSYMBOL_0
  1

  0
LINE
  5
11B
330
118
100
AcDbEntity
  8
0
  6
Continuous
 62
     0
370
    18
100
AcDbLine
 10
0.0
 20
0.0
 30
0.0
 11
0.0
 21
2.5
 31
0.0
  0
LINE
  5
11C
330
118
100
AcDbEntity
  8
0
  6
Continuous
 62
     0
370
    18
100
AcDbLine
 10
0.0
 20
0.0
 30
0.0
 11
-2.5
 21
0.0
 31
0.0
  0
LINE
  5
11D
330
118
100
AcDbEntity
  8
0
  6
Continuous
 62
     0
370
    18
100
AcDbLine
 10
0.0
 20
0.0
 30
0.0
 11
0.0
 21
-2.5
 31
0.0
  0
LINE
  5
11E
330
118
100
AcDbEntity
  8
0
  6
Continuous
 62
     0
370
    18
100
AcDbLine
 10
0.0
 20
0.0
 30
0.0
 11
2.5
 21
0.0
 31
0.0
  0
LINE
  5
11F
330
118
100
AcDbEntity
  8
0
  6
Continuous
 62
     0
370
    18
100
AcDbLine
 10
0.0
 20
5.0
 30
0.0
 11
0.0
 21
15.1517801832
 31
0.0
  0
LINE
  5
120
330
118
100
AcDbEntity
  8
0
  6
Continuous
 62
     0
370
    18
100
AcDbLine
 10
-5.0
 20
0.0
 30
0.0
 11
-14.25
 21
0.0
 31
0.0
  0
LINE
  5
121
330
118
100
AcDbEntity
  8
0
  6
Continuous
 62
     0
370
    18
100
AcDbLine
 10
0.0
 20
-5.0
 30
0.0
 11
0.0
 21
-15.1956049406
 31
0.0
  0
LINE
  5
122
330
118
100
AcDbEntity
  8
0
  6
Continuous
 62
     0
370
    18
100
AcDbLine
 10
5.0
 20
0.0
 30
0.0
 11
14.25
 21
0.0
 31
0.0
  0
ENDBLK
  5
11A
330
118
100
AcDbEntity
  8
0
100
AcDbBlockEnd
  0
ENDSEC
  0
SECTION
  2
ENTITIES
  0
MTEXT
  5
74
330
1F
100
AcDbEntity
  8
0
  6
Continuous
 62
     7
370
     0
100
AcDbMText
 10
186.8079180025
 20
109.7904582647
 30
0.0
 40
4.2333333333
 41
0.0
 71
     1
 72
     1
  1
HS-1416R
  7
SLDTEXTSTYLE0
 73
     1
 44
1.0
  0
LINE
  5
75
330
1F
100
AcDbEntity
  8
0
  6
Continuous
 62
     7
370
    25
100
AcDbLine
 10
150.0757027765
 20
76.4454173719
 30
0.0
 11
156.5757027765
 21
76.4454173719
 31
0.0
  0
LINE
  5
76
330
1F
100
AcDbEntity
  8
0
  6
Continuous
 62
     7
370
    25
100
AcDbLine
 10
156.5757027765
 20
92.4454173719
 30
0.0
 11
150.0757027765
 21
92.4454173719
 31
0.0
  0
LINE
  5
77
330
1F
100
AcDbEntity
  8
0
  6
Continuous
 62
     7
370
    25
100
AcDbLine
 10
156.5757027765
 20
76.4454173719
 30
0.0
 11
161.0757027765
 21
77.1954173719
 31
0.0
  0
LINE
  5
78
330
1F
100
AcDbEntity
  8
0
  6
Continuous
 62
     7
370
    25
100
AcDbLine
 10
161.0757027765
 20
91.6954173719
 30
0.0
 11
156.5757027765
 21
92.4454173719
 31
0.0
  0
ARC
  5
79
330
1F
100
AcDbEntity
  8
0
  6
Continuous
 62
     7
370
    25
100
AcDbCircle
 10
174.6757027765
 20
92.3332154309
 30
0.0
 40
0.1000000000000227
100
AcDbArc
 50
83.4180553448
 51
180.0
  0
ARC
  5
7A
330
1F
100
AcDbEntity
  8
0
  6
Continuous
 62
     7
370
    25
100
AcDbCircle
 10
174.6757027765
 20
76.5576193129
 30
0.0
 40
0.1000000000000227
100
AcDbArc
 50
180.0
 51
276.5819446552
  0
LINE
  5
7B
330
1F
100
AcDbEntity
  8
0
  6
Continuous
 62
     7
370
    25
100
AcDbLine
 10
174.6871651873
 20
76.4582784193
 30
0.0
 11
180.479657415
 21
77.1266429071
 31
0.0
  0
LINE
  5
7C
330
1F
100
AcDbEntity
  8
0
  6
Continuous
 62
     7
370
    25
100
AcDbLine
 10
180.479657415
 20
91.7641918367
 30
0.0
 11
174.6871651873
 21
92.4325563245
 31
0.0
  0
ARC
  5
7D
330
1F
100
AcDbEntity
  8
0
  6
Continuous
 62
     7
370
    25
100
AcDbCircle
 10
165.6757027765
 20
92.3273713297
 30
0.0
 40
0.0999999999999943
100
AcDbArc
 50
80.537677792
 51
180.0
  0
ARC
  5
7E
330
1F
100
AcDbEntity
  8
0
  6
Continuous
 62
     7
370
    25
100
AcDbCircle
 10
165.6757027765
 20
76.5634634141
 30
0.0
 40
0.100000000000001
100
AcDbArc
 50
180.0
 51
279.462322208
  0
ARC
  5
7F
330
1F
100
AcDbEntity
  8
0
  6
Continuous
 62
     7
370
    25
100
AcDbCircle
 10
161.1757027765
 20
92.3273713297
 30
0.0
 40
0.0999999999999943
100
AcDbArc
 50
80.537677792
 51
180.0
  0
ARC
  5
80
330
1F
100
AcDbEntity
  8
0
  6
Continuous
 62
     7
370
    25
100
AcDbCircle
 10
161.1757027765
 20
76.5634634141
 30
0.0
 40
0.100000000000001
100
AcDbArc
 50
180.0
 51
279.462322208
  0
ARC
  5
81
330
1F
100
AcDbEntity
  8
0
  6
Continuous
 62
     7
370
    25
100
AcDbCircle
 10
170.1757027765
 20
92.3273713297
 30
0.0
 40
0.100000000000001
100
AcDbArc
 50
80.537677792
 51
180.0
  0
ARC
  5
82
330
1F
100
AcDbEntity
  8
0
  6
Continuous
 62
     7
370
    25
100
AcDbCircle
 10
170.1757027765
 20
76.5634634141
 30
0.0
 40
0.0999999999999943
100
AcDbArc
 50
180.0
 51
279.462322208
  0
LINE
  5
83
330
1F
100
AcDbEntity
  8
0
  6
Continuous
 62
     7
370
    25
100
AcDbLine
 10
165.6921426753
 20
76.4648240217
 30
0.0
 11
170.0757027765
 21
77.1954173719
 31
0.0
  0
LINE
  5
84
330
1F
100
AcDbEntity
  8
0
  6
Continuous
 62
     7
370
    25
100
AcDbLine
 10
170.0757027765
 20
91.6954173719
 30
0.0
 11
165.6921426753
 21
92.4260107221
 31
0.0
  0
LINE
  5
85
330
1F
100
AcDbEntity
  8
0
  6
Continuous
 62
     7
370
    25
100
AcDbLine
 10
161.1921426753
 20
76.4648240217
 30
0.0
 11
165.5757027765
 21
77.1954173719
 31
0.0
  0
LINE
  5
86
330
1F
100
AcDbEntity
  8
0
  6
Continuous
 62
     7
370
    25
100
AcDbLine
 10
165.5757027765
 20
91.6954173719
 30
0.0
 11
161.1921426753
 21
92.4260107221
 31
0.0
  0
LINE
  5
87
330
1F
100
AcDbEntity
  8
0
  6
Continuous
 62
     7
370
    25
100
AcDbLine
 10
170.1921426753
 20
76.4648240217
 30
0.0
 11
174.5757027765
 21
77.1954173719
 31
0.0
  0
LINE
  5
88
330
1F
100
AcDbEntity
  8
0
  6
Continuous
 62
     7
370
    25
100
AcDbLine
 10
174.5757027765
 20
91.6954173719
 30
0.0
 11
170.1921426753
 21
92.4260107221
 31
0.0
  0
LINE
  5
89
330
1F
100
AcDbEntity
  8
0
  6
Continuous
 62
     7
370
    25
100
AcDbLine
 10
180.479657415
 20
77.1266429071
 30
0.0
 11
181.0757027765
 21
77.7954173719
 31
0.0
  0
LINE
  5
8A
330
1F
100
AcDbEntity
  8
0
  6
Continuous
 62
     7
370
    25
100
AcDbLine
 10
181.0757027765
 20
91.0954173719
 30
0.0
 11
180.479657415
 21
91.7641918367
 31
0.0
  0
LINE
  5
8B
330
1F
100
AcDbEntity
  8
0
  6
Continuous
 62
     7
370
    25
100
AcDbLine
 10
146.8595684395
 20
70.5890109113
 30
0.0
 11
148.0757027765
 21
72.6954173719
 31
0.0
  0
LINE
  5
8C
330
1F
100
AcDbEntity
  8
0
  6
Continuous
 62
     7
370
    25
100
AcDbLine
 10
148.0757027765
 20
96.1954173719
 30
0.0
 11
146.8595684395
 21
98.3018238324
 31
0.0
  0
LINE
  5
8D
330
1F
100
AcDbEntity
  8
0
  6
Continuous
 62
     7
370
    25
100
AcDbLine
 10
137.2918371135
 20
98.3018238324
 30
0.0
 11
136.0757027765
 21
96.1954173719
 31
0.0
  0
LINE
  5
8E
330
1F
100
AcDbEntity
  8
0
  6
Continuous
 62
     7
370
    25
100
AcDbLine
 10
136.0757027765
 20
72.6954173719
 30
0.0
 11
137.2918371135
 21
70.5890109113
 31
0.0
  0
LINE
  5
8F
330
1F
100
AcDbEntity
  8
0
  6
Continuous
 62
     7
370
    25
100
AcDbLine
 10
134.5757027765
 20
96.1954173719
 30
0.0
 11
134.0757027765
 21
95.6954173719
 31
0.0
  0
LINE
  5
90
330
1F
100
AcDbEntity
  8
0
  6
Continuous
 62
     7
370
    25
100
AcDbLine
 10
134.0757027765
 20
73.1954173719
 30
0.0
 11
134.5757027765
 21
72.6954173719
 31
0.0
  0
LINE
  5
91
330
1F
100
AcDbEntity
  8
0
  6
Continuous
 62
     7
370
    25
100
AcDbLine
 10
149.5757027765
 20
72.6954173719
 30
0.0
 11
150.0757027765
 21
73.1954173719
 31
0.0
  0
LINE
  5
92
330
1F
100
AcDbEntity
  8
0
  6
Continuous
 62
     7
370
    25
100
AcDbLine
 10
150.0757027765
 20
95.6954173719
 30
0.0
 11
149.5757027765
 21
96.1954173719
 31
0.0
  0
LINE
  5
93
330
1F
100
AcDbEntity
  8
0
  6
Continuous
 62
     7
370
    25
100
AcDbLine
 10
136.0757027765
 20
96.1954173719
 30
0.0
 11
134.5757027765
 21
96.1954173719
 31
0.0
  0
LINE
  5
94
330
1F
100
AcDbEntity
  8
0
  6
Continuous
 62
     7
370
    25
100
AcDbLine
 10
134.5757027765
 20
72.6954173719
 30
0.0
 11
136.0757027765
 21
72.6954173719
 31
0.0
  0
LINE
  5
95
330
1F
100
AcDbEntity
  8
0
  6
Continuous
 62
     7
370
    25
100
AcDbLine
 10
148.0757027765
 20
72.6954173719
 30
0.0
 11
149.5757027765
 21
72.6954173719
 31
0.0
  0
LINE
  5
96
330
1F
100
AcDbEntity
  8
0
  6
Continuous
 62
     7
370
    25
100
AcDbLine
 10
149.5757027765
 20
96.1954173719
 30
0.0
 11
148.0757027765
 21
96.1954173719
 31
0.0
  0
LINE
  5
97
330
1F
100
AcDbEntity
  8
0
  6
Continuous
 62
     7
370
    25
100
AcDbLine
 10
142.2096773727
 20
98.3018238324
 30
0.0
 11
142.0757027765
 21
97.8018238324
 31
0.0
  0
LINE
  5
98
330
1F
100
AcDbEntity
  8
0
  6
Continuous
 62
     7
370
    25
100
AcDbLine
 10
142.0757027765
 20
97.8018238324
 30
0.0
 11
141.9417281803
 21
98.3018238324
 31
0.0
  0
LINE
  5
99
330
1F
100
AcDbEntity
  8
0
  6
Continuous
 62
     7
370
    25
100
AcDbLine
 10
141.9417281803
 20
70.5890109113
 30
0.0
 11
142.0757027765
 21
71.0890109113
 31
0.0
  0
LINE
  5
9A
330
1F
100
AcDbEntity
  8
0
  6
Continuous
 62
     7
370
    25
100
AcDbLine
 10
142.0757027765
 20
71.0890109113
 30
0.0
 11
142.2096773727
 21
70.5890109113
 31
0.0
  0
LINE
  5
9B
330
1F
100
AcDbEntity
  8
0
  6
Continuous
 62
     7
370
    25
100
AcDbLine
 10
123.2336096293
 20
97.1471232941
 30
0.0
 11
122.1067916898
 21
95.1954173719
 31
0.0
  0
LINE
  5
9C
330
1F
100
AcDbEntity
  8
0
  6
Continuous
 62
     7
370
    25
100
AcDbLine
 10
122.1067916898
 20
73.6954173719
 30
0.0
 11
123.2336096293
 21
71.7437114497
 31
0.0
  0
LINE
  5
9D
330
1F
100
AcDbEntity
  8
0
  6
Continuous
 62
     7
370
    25
100
AcDbLine
 10
127.9799737502
 20
71.7437114497
 30
0.0
 11
129.1067916898
 21
73.6954173719
 31
0.0
  0
LINE
  5
9E
330
1F
100
AcDbEntity
  8
0
  6
Continuous
 62
     7
370
    25
100
AcDbLine
 10
129.1067916898
 20
95.1954173719
 30
0.0
 11
127.9799737502
 21
97.1471232941
 31
0.0
  0
LINE
  5
9F
330
1F
100
AcDbEntity
  8
0
  6
Continuous
 62
     7
370
    25
100
AcDbLine
 10
122.1067916898
 20
95.1054173719
 30
0.0
 11
110.8031829627
 21
94.7521795992
 31
0.0
  0
LINE
  5
A0
330
1F
100
AcDbEntity
  8
0
  6
Continuous
 62
     7
370
    25
100
AcDbLine
 10
110.8031829627
 20
74.1386551446
 30
0.0
 11
122.1067916898
 21
73.7854173719
 31
0.0
  0
LINE
  5
A1
330
1F
100
AcDbEntity
  8
0
  6
Continuous
 62
     7
370
    25
100
AcDbLine
 10
132.6067916898
 20
73.9679173719
 30
0.0
 11
134.0757027765
 21
73.9679173719
 31
0.0
  0
LINE
  5
A2
330
1F
100
AcDbEntity
  8
0
  6
Continuous
 62
     7
370
    25
100
AcDbLine
 10
134.0757027765
 20
94.9229173719
 30
0.0
 11
132.6067916898
 21
94.9229173719
 31
0.0
  0
LINE
  5
A3
330
1F
100
AcDbEntity
  8
0
  6
Continuous
 62
     7
370
    25
100
AcDbLine
 10
132.6067916898
 20
94.9229173719
 30
0.0
 11
131.6067916898
 21
93.9229173719
 31
0.0
  0
LINE
  5
A4
330
1F
100
AcDbEntity
  8
0
  6
Continuous
 62
     7
370
    25
100
AcDbLine
 10
131.6067916898
 20
74.9679173719
 30
0.0
 11
132.6067916898
 21
73.9679173719
 31
0.0
  0
LINE
  5
A5
330
1F
100
AcDbEntity
  8
0
  6
Continuous
 62
     7
370
    25
100
AcDbLine
 10
110.8031829627
 20
94.7521795992
 30
0.0
 11
108.1067916898
 21
93.1954173719
 31
0.0
  0
LINE
  5
A6
330
1F
100
AcDbEntity
  8
0
  6
Continuous
 62
     7
370
    25
100
AcDbLine
 10
108.1067916898
 20
75.6954173719
 30
0.0
 11
110.8031829627
 21
74.1386551446
 31
0.0
  0
LINE
  5
A7
330
1F
100
AcDbEntity
  8
0
  6
Continuous
 62
     7
370
    25
100
AcDbLine
 10
129.1067916898
 20
75.4454173719
 30
0.0
 11
131.6067916898
 21
75.4454173719
 31
0.0
  0
LINE
  5
A8
330
1F
100
AcDbEntity
  8
0
  6
Continuous
 62
     7
370
    25
100
AcDbLine
 10
131.6067916898
 20
93.4454173719
 30
0.0
 11
129.1067916898
 21
93.4454173719
 31
0.0
  0
LINE
  5
A9
330
1F
100
AcDbEntity
  8
0
  6
Continuous
 62
     7
370
    25
100
AcDbLine
 10
125.6067916898
 20
71.9437114497
 30
0.0
 11
125.6603815283
 21
71.7437114497
 31
0.0
  0
LINE
  5
AA
330
1F
100
AcDbEntity
  8
0
  6
Continuous
 62
     7
370
    25
100
AcDbLine
 10
125.5532018513
 20
71.7437114497
 30
0.0
 11
125.6067916898
 21
71.9437114497
 31
0.0
  0
LINE
  5
AB
330
1F
100
AcDbEntity
  8
0
  6
Continuous
 62
     7
370
    25
100
AcDbLine
 10
125.6067916898
 20
96.9471232941
 30
0.0
 11
125.5532018513
 21
97.1471232941
 31
0.0
  0
LINE
  5
AC
330
1F
100
AcDbEntity
  8
0
  6
Continuous
 62
     7
370
    25
100
AcDbLine
 10
125.6603815283
 20
97.1471232941
 30
0.0
 11
125.6067916898
 21
96.9471232941
 31
0.0
  0
LINE
  5
AD
330
1F
100
AcDbEntity
  8
0
  6
Continuous
 62
     7
370
    25
100
AcDbLine
 10
156.5757027765
 20
76.4454173719
 30
0.0
 11
156.5757027765
 21
92.4454173719
 31
0.0
  0
LINE
  5
AE
330
1F
100
AcDbEntity
  8
0
  6
Continuous
 62
     7
370
    25
100
AcDbLine
 10
174.5757027765
 20
76.5576193167
 30
0.0
 11
174.5757027765
 21
92.3332154309
 31
0.0
  0
LINE
  5
AF
330
1F
100
AcDbEntity
  8
0
  6
Continuous
 62
     7
370
    25
100
AcDbLine
 10
180.479657415
 20
77.1266429071
 30
0.0
 11
180.479657415
 21
91.7641918367
 31
0.0
  0
LINE
  5
B0
330
1F
100
AcDbEntity
  8
0
  6
Continuous
 62
     7
370
    25
100
AcDbLine
 10
165.5757027765
 20
76.5634634177
 30
0.0
 11
165.5757027765
 21
92.3273713297
 31
0.0
  0
LINE
  5
B1
330
1F
100
AcDbEntity
  8
0
  6
Continuous
 62
     7
370
    25
100
AcDbLine
 10
161.0757027765
 20
76.5634634177
 30
0.0
 11
161.0757027765
 21
92.3273713297
 31
0.0
  0
LINE
  5
B2
330
1F
100
AcDbEntity
  8
0
  6
Continuous
 62
     7
370
    25
100
AcDbLine
 10
170.0757027765
 20
76.5634634177
 30
0.0
 11
170.0757027765
 21
92.3273713297
 31
0.0
  0
LINE
  5
B3
330
1F
100
AcDbEntity
  8
0
  6
Continuous
 62
     7
370
    25
100
AcDbLine
 10
181.0757027765
 20
91.0954173719
 30
0.0
 11
181.0757027765
 21
77.7954173719
 31
0.0
  0
LINE
  5
B4
330
1F
100
AcDbEntity
  8
0
  6
Continuous
 62
     7
370
    25
100
AcDbLine
 10
142.0757027765
 20
91.9054196434
 30
0.0
 11
141.9417281803
 21
91.3736206022
 31
0.0
  0
LINE
  5
B5
330
1F
100
AcDbEntity
  8
0
  6
Continuous
 62
     7
370
    25
100
AcDbLine
 10
142.0757027765
 20
91.9054196434
 30
0.0
 11
142.0757027765
 21
90.3100225197
 31
0.0
  0
LINE
  5
B6
330
1F
100
AcDbEntity
  8
0
  6
Continuous
 62
     7
370
    25
100
AcDbLine
 10
141.9417281803
 20
91.3736206022
 30
0.0
 11
142.0757027765
 21
90.3100225197
 31
0.0
  0
LINE
  5
B7
330
1F
100
AcDbEntity
  8
0
  6
Continuous
 62
     7
370
    25
100
AcDbLine
 10
142.2096773727
 20
91.3736206022
 30
0.0
 11
142.0757027765
 21
90.3100225197
 31
0.0
  0
LINE
  5
B8
330
1F
100
AcDbEntity
  8
0
  6
Continuous
 62
     7
370
    25
100
AcDbLine
 10
146.8595684395
 20
91.3736206022
 30
0.0
 11
142.2096773727
 21
91.3736206022
 31
0.0
  0
SPLINE
  5
B9
330
1F
100
AcDbEntity
  8
0
  6
Continuous
 62
     7
370
    25
100
AcDbSpline
210
0.0
220
0.0
230
1.0
 70
     8
 71
     3
 72
    16
 73
    12
 74
     0
 42
0.000000001
 43
0.00000001
 40
0.0
 40
0.0
 40
0.0
 40
0.0
 40
0.0915356978782496
 40
0.183063343223533
 40
0.2753996771146608
 40
0.3677267146962475
 40
0.4925705318074075
 40
0.6174129202940689
 40
0.7455832490327831
 40
0.8737882839722002
 40
1.0
 40
1.0
 40
1.0
 40
1.0
 10
146.8595684395048
 20
91.37362060215662
 30
0.0
 10
146.9743637881768
 20
90.96002087360239
 30
0.0
 10
147.2039443868014
 20
90.1328578014839
 30
0.0
 10
147.4851787483348
 20
88.87198257000101
 30
0.0
 10
147.7085017057227
 20
87.59590315493426
 30
0.0
 10
147.8798623555041
 20
86.15407004876309
 30
0.0
 10
147.9548088891599
 20
84.55034129385726
 30
0.0
 10
147.8902173009259
 20
82.777698951208
 30
0.0
 10
147.6727269448585
 20
81.00182920236983
 30
0.0
 10
147.3304364442852
 20
79.23910986245521
 30
0.0
 10
147.015702475866
 20
78.08817357473755
 30
0.0
 10
146.8595684395048
 20
77.5172141416056
 30
0.0
  0
LINE
  5
BA
330
1F
100
AcDbEntity
  8
0
  6
Continuous
 62
     7
370
    25
100
AcDbLine
 10
146.8595684395
 20
77.5172141416
 30
0.0
 11
142.2096773727
 21
77.5172141416
 31
0.0
  0
LINE
  5
BB
330
1F
100
AcDbEntity
  8
0
  6
Continuous
 62
     7
370
    25
100
AcDbLine
 10
142.0757027765
 20
78.5808122241
 30
0.0
 11
142.2096773727
 21
77.5172141416
 31
0.0
  0
LINE
  5
BC
330
1F
100
AcDbEntity
  8
0
  6
Continuous
 62
     7
370
    25
100
AcDbLine
 10
142.0757027765
 20
78.5808122241
 30
0.0
 11
141.9417281803
 21
77.5172141416
 31
0.0
  0
LINE
  5
BD
330
1F
100
AcDbEntity
  8
0
  6
Continuous
 62
     7
370
    25
100
AcDbLine
 10
141.9417281803
 20
77.5172141416
 30
0.0
 11
137.2918371135
 21
77.5172141416
 31
0.0
  0
SPLINE
  5
BE
330
1F
100
AcDbEntity
  8
0
  6
Continuous
 62
     7
370
    25
100
AcDbSpline
210
0.0
220
0.0
230
1.0
 70
     8
 71
     3
 72
    16
 73
    12
 74
     0
 42
0.000000001
 43
0.00000001
 40
0.0
 40
0.0
 40
0.0
 40
0.0
 40
0.0915356978782496
 40
0.183063343223533
 40
0.2753996771146608
 40
0.3677267146962475
 40
0.4925705318074075
 40
0.6174129202940689
 40
0.7455832490327831
 40
0.8737882839722002
 40
1.0
 40
1.0
 40
1.0
 40
1.0
 10
137.2918371135486
 20
91.37362060215662
 30
0.0
 10
137.1770417648766
 20
90.96002087360239
 30
0.0
 10
136.947461166252
 20
90.1328578014839
 30
0.0
 10
136.6662268047187
 20
88.87198257000101
 30
0.0
 10
136.4429038473306
 20
87.59590315493426
 30
0.0
 10
136.2715431975493
 20
86.15407004876309
 30
0.0
 10
136.1965966638934
 20
84.55034129385726
 30
0.0
 10
136.2611882521275
 20
82.777698951208
 30
0.0
 10
136.4786786081949
 20
81.00182920236983
 30
0.0
 10
136.8209691087682
 20
79.23910986245521
 30
0.0
 10
137.1357030771874
 20
78.08817357473755
 30
0.0
 10
137.2918371135486
 20
77.5172141416056
 30
0.0
  0
LINE
  5
BF
330
1F
100
AcDbEntity
  8
0
  6
Continuous
 62
     7
370
    25
100
AcDbLine
 10
141.9417281803
 20
91.3736206022
 30
0.0
 11
137.2918371135
 21
91.3736206022
 31
0.0
  0
LINE
  5
C0
330
1F
100
AcDbEntity
  8
0
  6
Continuous
 62
     7
370
    25
100
AcDbLine
 10
142.2096773727
 20
98.3018238324
 30
0.0
 11
142.0757027765
 21
97.7700247912
 31
0.0
  0
LINE
  5
C1
330
1F
100
AcDbEntity
  8
0
  6
Continuous
 62
     7
370
    25
100
AcDbLine
 10
146.8595684395
 20
98.3018238324
 30
0.0
 11
142.2096773727
 21
98.3018238324
 31
0.0
  0
SPLINE
  5
C2
330
1F
100
AcDbEntity
  8
0
  6
Continuous
 62
     7
370
    25
100
AcDbSpline
210
0.0
220
0.0
230
1.0
 70
     8
 71
     3
 72
    15
 73
    11
 74
     0
 42
0.000000001
 43
0.00000001
 40
0.0
 40
0.0
 40
0.0
 40
0.0
 40
0.1323065044264402
 40
0.2645755999739297
 40
0.3998036789671093
 40
0.5350073556765894
 40
0.6501969475405022
 40
0.7654045076453766
 40
0.8826909144168968
 40
1.0
 40
1.0
 40
1.0
 40
1.0
 10
146.8595684395048
 20
98.30182383243213
 30
0.0
 10
147.0227275214225
 20
98.00249500966153
 30
0.0
 10
147.3489995529958
 20
97.40392199756859
 30
0.0
 10
147.7000542560157
 20
96.48217222077581
 30
0.0
 10
147.9111310415448
 20
95.54304710702525
 30
0.0
 10
147.9529283518305
 20
94.63794620898204
 30
0.0
 10
147.8444697191297
 20
93.7817495041975
 30
0.0
 10
147.6222438100688
 20
92.97371699538799
 30
0.0
 10
147.2962660367825
 20
92.16933792627806
 30
0.0
 10
147.0051436863891
 20
91.6388768037734
 30
0.0
 10
146.8595684395048
 20
91.37362060215662
 30
0.0
  0
LINE
  5
C3
330
1F
100
AcDbEntity
  8
0
  6
Continuous
 62
     7
370
    25
100
AcDbLine
 10
142.0757027765
 20
91.9054196434
 30
0.0
 11
142.2096773727
 21
91.3736206022
 31
0.0
  0
SPLINE
  5
C4
330
1F
100
AcDbEntity
  8
0
  6
Continuous
 62
     7
370
    25
100
AcDbSpline
210
0.0
220
0.0
230
1.0
 70
     8
 71
     3
 72
    15
 73
    11
 74
     0
 42
0.000000001
 43
0.00000001
 40
0.0
 40
0.0
 40
0.0
 40
0.0
 40
0.1323065044264403
 40
0.2645755999739297
 40
0.3998036789671093
 40
0.5350073556765894
 40
0.6501969475405022
 40
0.7654045076453766
 40
0.8826909144168968
 40
1.0
 40
1.0
 40
1.0
 40
1.0
 10
137.2918371135486
 20
98.30182383243213
 30
0.0
 10
137.1286780316309
 20
98.00249500966153
 30
0.0
 10
136.8024060000576
 20
97.40392199756859
 30
0.0
 10
136.4513512970377
 20
96.48217222077581
 30
0.0
 10
136.2402745115085
 20
95.54304710702525
 30
0.0
 10
136.1984772012229
 20
94.63794620898204
 30
0.0
 10
136.3069358339237
 20
93.7817495041975
 30
0.0
 10
136.5291617429846
 20
92.97371699538799
 30
0.0
 10
136.8551395162709
 20
92.16933792627806
 30
0.0
 10
137.1462618666643
 20
91.6388768037734
 30
0.0
 10
137.2918371135486
 20
91.37362060215662
 30
0.0
  0
LINE
  5
C5
330
1F
100
AcDbEntity
  8
0
  6
Continuous
 62
     7
370
    25
100
AcDbLine
 10
141.9417281803
 20
98.3018238324
 30
0.0
 11
137.2918371135
 21
98.3018238324
 31
0.0
  0
LINE
  5
C6
330
1F
100
AcDbEntity
  8
0
  6
Continuous
 62
     7
370
    25
100
AcDbLine
 10
141.9417281803
 20
98.3018238324
 30
0.0
 11
142.0757027765
 21
97.7700247912
 31
0.0
  0
SPLINE
  5
C7
330
1F
100
AcDbEntity
  8
0
  6
Continuous
 62
     7
370
    25
100
AcDbSpline
210
0.0
220
0.0
230
1.0
 70
     8
 71
     3
 72
    15
 73
    11
 74
     0
 42
0.000000001
 43
0.00000001
 40
0.0
 40
0.0
 40
0.0
 40
0.0
 40
0.1323065044264403
 40
0.2645755999739298
 40
0.3998036789671094
 40
0.5350073556765895
 40
0.6501969475405022
 40
0.7654045076453765
 40
0.8826909144168967
 40
1.0
 40
1.0
 40
1.0
 40
1.0
 10
146.8595684395048
 20
77.5172141416056
 30
0.0
 10
147.0227275214225
 20
77.217885318835
 30
0.0
 10
147.3489995529958
 20
76.61931230674206
 30
0.0
 10
147.7000542560157
 20
75.69756252994928
 30
0.0
 10
147.9111310415448
 20
74.75843741619872
 30
0.0
 10
147.9529283518305
 20
73.85333651815552
 30
0.0
 10
147.8444697191297
 20
72.99713981337096
 30
0.0
 10
147.6222438100688
 20
72.18910730456146
 30
0.0
 10
147.2962660367825
 20
71.38472823545155
 30
0.0
 10
147.0051436863891
 20
70.85426711294689
 30
0.0
 10
146.8595684395048
 20
70.5890109113301
 30
0.0
  0
LINE
  5
C8
330
1F
100
AcDbEntity
  8
0
  6
Continuous
 62
     7
370
    25
100
AcDbLine
 10
148.0757027765
 20
96.1954173719
 30
0.0
 11
148.0757027765
 21
72.6954173719
 31
0.0
  0
SPLINE
  5
C9
330
1F
100
AcDbEntity
  8
0
  6
Continuous
 62
     7
370
    25
100
AcDbSpline
210
0.0
220
0.0
230
1.0
 70
     8
 71
     3
 72
    15
 73
    11
 74
     0
 42
0.000000001
 43
0.00000001
 40
0.0
 40
0.0
 40
0.0
 40
0.0
 40
0.1323065044264403
 40
0.2645755999739298
 40
0.3998036789671094
 40
0.5350073556765895
 40
0.6501969475405022
 40
0.7654045076453765
 40
0.8826909144168967
 40
1.0
 40
1.0
 40
1.0
 40
1.0
 10
137.2918371135486
 20
77.5172141416056
 30
0.0
 10
137.1286780316309
 20
77.217885318835
 30
0.0
 10
136.8024060000575
 20
76.61931230674206
 30
0.0
 10
136.4513512970377
 20
75.69756252994928
 30
0.0
 10
136.2402745115085
 20
74.75843741619872
 30
0.0
 10
136.1984772012229
 20
73.85333651815552
 30
0.0
 10
136.3069358339237
 20
72.99713981337096
 30
0.0
 10
136.5291617429846
 20
72.18910730456146
 30
0.0
 10
136.8551395162709
 20
71.38472823545155
 30
0.0
 10
137.1462618666643
 20
70.85426711294689
 30
0.0
 10
137.2918371135486
 20
70.5890109113301
 30
0.0
  0
LINE
  5
CA
330
1F
100
AcDbEntity
  8
0
  6
Continuous
 62
     7
370
    25
100
AcDbLine
 10
136.0757027765
 20
96.1954173719
 30
0.0
 11
136.0757027765
 21
72.6954173719
 31
0.0
  0
LINE
  5
CB
330
1F
100
AcDbEntity
  8
0
  6
Continuous
 62
     7
370
    25
100
AcDbLine
 10
142.2096773727
 20
77.5172141416
 30
0.0
 11
142.0757027765
 21
76.9854151004
 31
0.0
  0
LINE
  5
CC
330
1F
100
AcDbEntity
  8
0
  6
Continuous
 62
     7
370
    25
100
AcDbLine
 10
146.8595684395
 20
70.5890109113
 30
0.0
 11
142.2096773727
 21
70.5890109113
 31
0.0
  0
LINE
  5
CD
330
1F
100
AcDbEntity
  8
0
  6
Continuous
 62
     7
370
    25
100
AcDbLine
 10
142.0757027765
 20
71.1208099526
 30
0.0
 11
142.2096773727
 21
70.5890109113
 31
0.0
  0
LINE
  5
CE
330
1F
100
AcDbEntity
  8
0
  6
Continuous
 62
     7
370
    25
100
AcDbLine
 10
142.0757027765
 20
71.1208099526
 30
0.0
 11
141.9417281803
 21
70.5890109113
 31
0.0
  0
LINE
  5
CF
330
1F
100
AcDbEntity
  8
0
  6
Continuous
 62
     7
370
    25
100
AcDbLine
 10
141.9417281803
 20
70.5890109113
 30
0.0
 11
137.2918371135
 21
70.5890109113
 31
0.0
  0
LINE
  5
D0
330
1F
100
AcDbEntity
  8
0
  6
Continuous
 62
     7
370
    25
100
AcDbLine
 10
141.9417281803
 20
77.5172141416
 30
0.0
 11
142.0757027765
 21
76.9854151004
 31
0.0
  0
LINE
  5
D1
330
1F
100
AcDbEntity
  8
0
  6
Continuous
 62
     7
370
    25
100
AcDbLine
 10
142.0757027765
 20
78.5808122241
 30
0.0
 11
142.0757027765
 21
76.9854151004
 31
0.0
  0
LINE
  5
D2
330
1F
100
AcDbEntity
  8
0
  6
Continuous
 62
     7
370
    25
100
AcDbLine
 10
134.5757027765
 20
84.4454173719
 30
0.0
 11
134.5757027765
 21
72.6954173719
 31
0.0
  0
LINE
  5
D3
330
1F
100
AcDbEntity
  8
0
  6
Continuous
 62
     7
370
    25
100
AcDbLine
 10
134.5757027765
 20
96.1954173719
 30
0.0
 11
134.5757027765
 21
84.4454173719
 31
0.0
  0
LINE
  5
D4
330
1F
100
AcDbEntity
  8
0
  6
Continuous
 62
     7
370
    25
100
AcDbLine
 10
134.0757027765
 20
84.4454173719
 30
0.0
 11
134.0757027765
 21
95.6954173719
 31
0.0
  0
LINE
  5
D5
330
1F
100
AcDbEntity
  8
0
  6
Continuous
 62
     7
370
    25
100
AcDbLine
 10
134.0757027765
 20
73.1954173719
 30
0.0
 11
134.0757027765
 21
84.4454173719
 31
0.0
  0
LINE
  5
D6
330
1F
100
AcDbEntity
  8
0
  6
Continuous
 62
     7
370
    25
100
AcDbLine
 10
150.0757027765
 20
95.6954173719
 30
0.0
 11
150.0757027765
 21
73.1954173719
 31
0.0
  0
LINE
  5
D7
330
1F
100
AcDbEntity
  8
0
  6
Continuous
 62
     7
370
    25
100
AcDbLine
 10
149.5757027765
 20
72.6954173719
 30
0.0
 11
149.5757027765
 21
96.1954173719
 31
0.0
  0
LINE
  5
D8
330
1F
100
AcDbEntity
  8
0
  6
Continuous
 62
     7
370
    25
100
AcDbLine
 10
142.0757027765
 20
97.8018238324
 30
0.0
 11
142.0757027765
 21
97.7700247912
 31
0.0
  0
LINE
  5
D9
330
1F
100
AcDbEntity
  8
0
  6
Continuous
 62
     7
370
    25
100
AcDbLine
 10
142.0757027765
 20
71.1208099526
 30
0.0
 11
142.0757027765
 21
71.0890109113
 31
0.0
  0
SPLINE
  5
DA
330
1F
100
AcDbEntity
  8
0
  6
Continuous
 62
     7
370
    25
100
AcDbSpline
210
0.0
220
0.0
230
1.0
 70
     8
 71
     3
 72
     8
 73
     4
 74
     0
 42
0.000000001
 43
0.00000001
 40
0.0
 40
0.0
 40
0.0
 40
0.0
 40
1.0
 40
1.0
 40
1.0
 40
1.0
 10
125.6067916897722
 20
78.50465555503781
 30
0.0
 10
125.6242065046819
 20
78.36788470416101
 30
0.0
 10
125.6420773180321
 20
78.23118889590953
 30
0.0
 10
125.6603815282584
 20
78.09456441079533
 30
0.0
  0
SPLINE
  5
DB
330
1F
100
AcDbEntity
  8
0
  6
Continuous
 62
     7
370
    25
100
AcDbSpline
210
0.0
220
0.0
230
1.0
 70
     8
 71
     3
 72
     8
 73
     4
 74
     0
 42
0.000000001
 43
0.00000001
 40
0.0
 40
0.0
 40
0.0
 40
0.0
 40
1.0
 40
1.0
 40
1.0
 40
1.0
 10
125.6603815282584
 20
78.09456441079534
 30
0.0
 10
125.6420734890071
 20
78.02623787812242
 30
0.0
 10
125.6242028010259
 20
77.95788972039827
 30
0.0
 10
125.6067916897722
 20
77.8895188386741
 30
0.0
  0
LINE
  5
DC
330
1F
100
AcDbEntity
  8
0
  6
Continuous
 62
     7
370
    25
100
AcDbLine
 10
125.6067916898
 20
77.8895188387
 30
0.0
 11
125.6067916898
 21
78.504655555
 31
0.0
  0
SPLINE
  5
DD
330
1F
100
AcDbEntity
  8
0
  6
Continuous
 62
     7
370
    25
100
AcDbSpline
210
0.0
220
0.0
230
1.0
 70
     8
 71
     3
 72
    16
 73
    12
 74
     0
 42
0.000000001
 43
0.00000001
 40
0.0
 40
0.0
 40
0.0
 40
0.0
 40
0.25
 40
0.25
 40
0.5
 40
0.5
 40
0.625
 40
0.625
 40
0.75
 40
0.75
 40
1.0
 40
1.0
 40
1.0
 40
1.0
 10
123.233609629317
 20
78.09456441079533
 30
0.0
 10
122.9351934370965
 20
79.12830842424964
 30
0.0
 10
122.6851279630567
 20
80.18641439048871
 30
0.0
 10
122.3432771486228
 20
82.30690154909998
 30
0.0
 10
122.2510106702128
 20
83.37348765349059
 30
0.0
 10
122.251188725041
 20
84.98454078627061
 30
0.0
 10
122.2740744406052
 20
85.52339906111264
 30
0.0
 10
122.364964926023
 20
86.60475370678886
 30
0.0
 10
122.4322815029468
 20
87.13983678637851
 30
0.0
 10
122.6904736003971
 20
88.72966969147615
 30
0.0
 10
122.9372361553753
 20
89.76960250320137
 30
0.0
 10
123.2336096293171
 20
90.79627033296715
 30
0.0
  0
SPLINE
  5
DE
330
1F
100
AcDbEntity
  8
0
  6
Continuous
 62
     7
370
    25
100
AcDbSpline
210
0.0
220
0.0
230
1.0
 70
     8
 71
     3
 72
    16
 73
    12
 74
     0
 42
0.000000001
 43
0.00000001
 40
0.0
 40
0.0
 40
0.0
 40
0.0
 40
0.2500000000000002
 40
0.2500000000000002
 40
0.5000000000000003
 40
0.5000000000000003
 40
0.6250000000000002
 40
0.6250000000000002
 40
0.7500000000000001
 40
0.7500000000000001
 40
1.0
 40
1.0
 40
1.0
 40
1.0
 10
123.2336096293167
 20
78.09456441079536
 30
0.0
 10
122.9342610711337
 20
77.57607749884987
 30
0.0
 10
122.6875436442721
 20
77.05381042853324
 30
0.0
 10
122.3457599119159
 20
75.99838415540086
 30
0.0
 10
122.2518210035309
 20
75.46514397884366
 30
0.0
 10
122.2507891820514
 20
74.65523727448651
 30
0.0
 10
122.2737535889077
 20
74.38399791944441
 30
0.0
 10
122.3633027151933
 20
73.84745789397515
 30
0.0
 10
122.4297965492609
 20
73.5809866998242
 30
0.0
 10
122.6865598460747
 20
72.78631727093935
 30
0.0
 10
122.9338879050951
 20
72.26284470419368
 30
0.0
 10
123.2336096293169
 20
71.74371144970934
 30
0.0
  0
SPLINE
  5
DF
330
1F
100
AcDbEntity
  8
0
  6
Continuous
 62
     7
370
    25
100
AcDbSpline
210
0.0
220
0.0
230
1.0
 70
     8
 71
     3
 72
    16
 73
    12
 74
     0
 42
0.000000001
 43
0.00000001
 40
0.0
 40
0.0
 40
0.0
 40
0.0
 40
0.2499999999999999
 40
0.2499999999999999
 40
0.4999999999999999
 40
0.4999999999999999
 40
0.6249999999999999
 40
0.6249999999999999
 40
0.7499999999999998
 40
0.7499999999999998
 40
1.0
 40
1.0
 40
1.0
 40
1.0
 10
123.2336096293167
 20
97.14712329405292
 30
0.0
 10
122.9342610711337
 20
96.62863638210746
 30
0.0
 10
122.6875436442721
 20
96.10636931179084
 30
0.0
 10
122.3457599119159
 20
95.0509430386585
 30
0.0
 10
122.2518210035309
 20
94.51770286210132
 30
0.0
 10
122.2507891820514
 20
93.7077961577442
 30
0.0
 10
122.2737535889078
 20
93.43655680270211
 30
0.0
 10
122.3633027151933
 20
92.90001677723288
 30
0.0
 10
122.4297965492609
 20
92.63354558308193
 30
0.0
 10
122.6865598460747
 20
91.8388761541971
 30
0.0
 10
122.9338879050951
 20
91.31540358745146
 30
0.0
 10
123.2336096293169
 20
90.79627033296714
 30
0.0
  0
LINE
  5
E0
330
1F
100
AcDbEntity
  8
0
  6
Continuous
 62
     7
370
    25
100
AcDbLine
 10
122.1067916898
 20
95.1954173719
 30
0.0
 11
122.1067916898
 21
73.6954173719
 31
0.0
  0
SPLINE
  5
E1
330
1F
100
AcDbEntity
  8
0
  6
Continuous
 62
     7
370
    25
100
AcDbSpline
210
0.0
220
0.0
230
1.0
 70
     8
 71
     3
 72
     8
 73
     4
 74
     0
 42
0.000000001
 43
0.00000001
 40
0.0
 40
0.0
 40
0.0
 40
0.0
 40
1.0
 40
1.0
 40
1.0
 40
1.0
 10
125.553201851286
 20
78.09456441079534
 30
0.0
 10
125.5715104827589
 20
78.23122189654296
 30
0.0
 10
125.5893811510708
 20
78.36791828824673
 30
0.0
 10
125.6067916897722
 20
78.50465555503783
 30
0.0
  0
SPLINE
  5
E2
330
1F
100
AcDbEntity
  8
0
  6
Continuous
 62
     7
370
    25
100
AcDbSpline
210
0.0
220
0.0
230
1.0
 70
     8
 71
     3
 72
     8
 73
     4
 74
     0
 42
0.000000001
 43
0.00000001
 40
0.0
 40
0.0
 40
0.0
 40
0.0
 40
1.0
 40
1.0
 40
1.0
 40
1.0
 10
125.6067916897722
 20
77.88951883867409
 30
0.0
 10
125.5893766739922
 20
77.95790505290094
 30
0.0
 10
125.5715058539348
 20
78.026252942928
 30
0.0
 10
125.553201851286
 20
78.09456441079534
 30
0.0
  0
LINE
  5
E3
330
1F
100
AcDbEntity
  8
0
  6
Continuous
 62
     7
370
    25
100
AcDbLine
 10
123.2336096293
 20
71.7437114497
 30
0.0
 11
125.5532018513
 21
71.7437114497
 31
0.0
  0
LINE
  5
E4
330
1F
100
AcDbEntity
  8
0
  6
Continuous
 62
     7
370
    25
100
AcDbLine
 10
123.2336096293
 20
78.0945644108
 30
0.0
 11
125.5532018513
 21
78.0945644108
 31
0.0
  0
LINE
  5
E5
330
1F
100
AcDbEntity
  8
0
  6
Continuous
 62
     7
370
    25
100
AcDbLine
 10
125.6603815283
 20
78.0945644108
 30
0.0
 11
127.9799737502
 21
78.0945644108
 31
0.0
  0
SPLINE
  5
E6
330
1F
100
AcDbEntity
  8
0
  6
Continuous
 62
     7
370
    25
100
AcDbSpline
210
0.0
220
0.0
230
1.0
 70
     8
 71
     3
 72
    16
 73
    12
 74
     0
 42
0.000000001
 43
0.00000001
 40
0.0
 40
0.0
 40
0.0
 40
0.0
 40
0.2500000000000003
 40
0.2500000000000003
 40
0.5000000000000006
 40
0.5000000000000006
 40
0.6250000000000004
 40
0.6250000000000004
 40
0.7500000000000003
 40
0.7500000000000003
 40
1.0
 40
1.0
 40
1.0
 40
1.0
 10
127.9799737502277
 20
78.09456441079536
 30
0.0
 10
128.2793223084107
 20
77.57607749884987
 30
0.0
 10
128.5260397352723
 20
77.05381042853324
 30
0.0
 10
128.8678234676285
 20
75.99838415540086
 30
0.0
 10
128.9617623760135
 20
75.46514397884366
 30
0.0
 10
128.9627941974931
 20
74.65523727448651
 30
0.0
 10
128.9398297906367
 20
74.38399791944441
 30
0.0
 10
128.8502806643511
 20
73.84745789397515
 30
0.0
 10
128.7837868302836
 20
73.5809866998242
 30
0.0
 10
128.5270235334698
 20
72.78631727093935
 30
0.0
 10
128.2796954744493
 20
72.26284470419368
 30
0.0
 10
127.9799737502275
 20
71.74371144970934
 30
0.0
  0
LINE
  5
E7
330
1F
100
AcDbEntity
  8
0
  6
Continuous
 62
     7
370
    25
100
AcDbLine
 10
125.6603815283
 20
71.7437114497
 30
0.0
 11
127.9799737502
 21
71.7437114497
 31
0.0
  0
SPLINE
  5
E8
330
1F
100
AcDbEntity
  8
0
  6
Continuous
 62
     7
370
    25
100
AcDbSpline
210
0.0
220
0.0
230
1.0
 70
     8
 71
     3
 72
     8
 73
     4
 74
     0
 42
0.000000001
 43
0.00000001
 40
0.0
 40
0.0
 40
0.0
 40
0.0
 40
1.0
 40
1.0
 40
1.0
 40
1.0
 10
125.6067916897722
 20
71.9487570218306
 30
0.0
 10
125.6242067055522
 20
71.88037080760375
 30
0.0
 10
125.6420775256096
 20
71.81202291757671
 30
0.0
 10
125.6603815282584
 20
71.74371144970935
 30
0.0
  0
SPLINE
  5
E9
330
1F
100
AcDbEntity
  8
0
  6
Continuous
 62
     7
370
    25
100
AcDbSpline
210
0.0
220
0.0
230
1.0
 70
     8
 71
     3
 72
     8
 73
     4
 74
     0
 42
0.000000001
 43
0.00000001
 40
0.0
 40
0.0
 40
0.0
 40
0.0
 40
1.0
 40
1.0
 40
1.0
 40
1.0
 10
125.553201851286
 20
71.74371144970935
 30
0.0
 10
125.5715098905373
 20
71.81203798238228
 30
0.0
 10
125.5893805785185
 20
71.88038614010642
 30
0.0
 10
125.6067916897722
 20
71.9487570218306
 30
0.0
  0
LINE
  5
EA
330
1F
100
AcDbEntity
  8
0
  6
Continuous
 62
     7
370
    25
100
AcDbLine
 10
123.2336096293
 20
90.796270333
 30
0.0
 11
125.5532018513
 21
90.796270333
 31
0.0
  0
SPLINE
  5
EB
330
1F
100
AcDbEntity
  8
0
  6
Continuous
 62
     7
370
    25
100
AcDbSpline
210
0.0
220
0.0
230
1.0
 70
     8
 71
     3
 72
     8
 73
     4
 74
     0
 42
0.000000001
 43
0.00000001
 40
0.0
 40
0.0
 40
0.0
 40
0.0
 40
1.0
 40
1.0
 40
1.0
 40
1.0
 10
125.6067916897722
 20
90.38617918872467
 30
0.0
 10
125.5893768748626
 20
90.52295003960148
 30
0.0
 10
125.5715060615123
 20
90.65964584785297
 30
0.0
 10
125.553201851286
 20
90.79627033296715
 30
0.0
  0
SPLINE
  5
EC
330
1F
100
AcDbEntity
  8
0
  6
Continuous
 62
     7
370
    25
100
AcDbSpline
210
0.0
220
0.0
230
1.0
 70
     8
 71
     3
 72
     8
 73
     4
 74
     0
 42
0.000000001
 43
0.00000001
 40
0.0
 40
0.0
 40
0.0
 40
0.0
 40
1.0
 40
1.0
 40
1.0
 40
1.0
 10
125.6603815282584
 20
90.79627033296715
 30
0.0
 10
125.6420728967855
 20
90.65961284721953
 30
0.0
 10
125.6242022284736
 20
90.52291645551577
 30
0.0
 10
125.6067916897722
 20
90.38617918872467
 30
0.0
  0
LINE
  5
ED
330
1F
100
AcDbEntity
  8
0
  6
Continuous
 62
     7
370
    25
100
AcDbLine
 10
125.6603815283
 20
90.796270333
 30
0.0
 11
127.9799737502
 21
90.796270333
 31
0.0
  0
SPLINE
  5
EE
330
1F
100
AcDbEntity
  8
0
  6
Continuous
 62
     7
370
    25
100
AcDbSpline
210
0.0
220
0.0
230
1.0
 70
     8
 71
     3
 72
    16
 73
    12
 74
     0
 42
0.000000001
 43
0.00000001
 40
0.0
 40
0.0
 40
0.0
 40
0.0
 40
0.25
 40
0.25
 40
0.5
 40
0.5
 40
0.625
 40
0.625
 40
0.75
 40
0.75
 40
1.0
 40
1.0
 40
1.0
 40
1.0
 10
127.9799737502274
 20
78.09456441079533
 30
0.0
 10
128.2783899424479
 20
79.12830842424964
 30
0.0
 10
128.5284554164877
 20
80.18641439048871
 30
0.0
 10
128.8703062309216
 20
82.30690154909998
 30
0.0
 10
128.9625727093316
 20
83.37348765349059
 30
0.0
 10
128.9623946545034
 20
84.98454078627061
 30
0.0
 10
128.9395089389392
 20
85.52339906111264
 30
0.0
 10
128.8486184535215
 20
86.60475370678886
 30
0.0
 10
128.7813018765976
 20
87.13983678637851
 30
0.0
 10
128.5231097791473
 20
88.72966969147615
 30
0.0
 10
128.2763472241691
 20
89.76960250320137
 30
0.0
 10
127.9799737502273
 20
90.79627033296715
 30
0.0
  0
SPLINE
  5
EF
330
1F
100
AcDbEntity
  8
0
  6
Continuous
 62
     7
370
    25
100
AcDbSpline
210
0.0
220
0.0
230
1.0
 70
     8
 71
     3
 72
    16
 73
    12
 74
     0
 42
0.000000001
 43
0.00000001
 40
0.0
 40
0.0
 40
0.0
 40
0.0
 40
0.2499999999999999
 40
0.2499999999999999
 40
0.4999999999999999
 40
0.4999999999999999
 40
0.6249999999999999
 40
0.6249999999999999
 40
0.7499999999999998
 40
0.7499999999999998
 40
1.0
 40
1.0
 40
1.0
 40
1.0
 10
127.9799737502277
 20
97.14712329405292
 30
0.0
 10
128.2793223084107
 20
96.62863638210746
 30
0.0
 10
128.5260397352723
 20
96.10636931179084
 30
0.0
 10
128.8678234676285
 20
95.0509430386585
 30
0.0
 10
128.9617623760135
 20
94.51770286210132
 30
0.0
 10
128.962794197493
 20
93.7077961577442
 30
0.0
 10
128.9398297906367
 20
93.43655680270211
 30
0.0
 10
128.8502806643511
 20
92.90001677723288
 30
0.0
 10
128.7837868302835
 20
92.63354558308193
 30
0.0
 10
128.5270235334697
 20
91.8388761541971
 30
0.0
 10
128.2796954744493
 20
91.31540358745146
 30
0.0
 10
127.9799737502275
 20
90.79627033296714
 30
0.0
  0
LINE
  5
F0
330
1F
100
AcDbEntity
  8
0
  6
Continuous
 62
     7
370
    25
100
AcDbLine
 10
129.1067916898
 20
95.1954173719
 30
0.0
 11
129.1067916898
 21
73.6954173719
 31
0.0
  0
LINE
  5
F1
330
1F
100
AcDbEntity
  8
0
  6
Continuous
 62
     7
370
    25
100
AcDbLine
 10
125.6067916898
 20
90.3861791887
 30
0.0
 11
125.6067916898
 21
91.0013159051
 31
0.0
  0
SPLINE
  5
F2
330
1F
100
AcDbEntity
  8
0
  6
Continuous
 62
     7
370
    25
100
AcDbSpline
210
0.0
220
0.0
230
1.0
 70
     8
 71
     3
 72
     8
 73
     4
 74
     0
 42
0.000000001
 43
0.00000001
 40
0.0
 40
0.0
 40
0.0
 40
0.0
 40
1.0
 40
1.0
 40
1.0
 40
1.0
 10
125.6067916897722
 20
91.00131590508839
 30
0.0
 10
125.6242067055522
 20
90.93292969086154
 30
0.0
 10
125.6420775256096
 20
90.8645818008345
 30
0.0
 10
125.6603815282584
 20
90.79627033296715
 30
0.0
  0
SPLINE
  5
F3
330
1F
100
AcDbEntity
  8
0
  6
Continuous
 62
     7
370
    25
100
AcDbSpline
210
0.0
220
0.0
230
1.0
 70
     8
 71
     3
 72
     8
 73
     4
 74
     0
 42
0.000000001
 43
0.00000001
 40
0.0
 40
0.0
 40
0.0
 40
0.0
 40
1.0
 40
1.0
 40
1.0
 40
1.0
 10
125.553201851286
 20
90.79627033296715
 30
0.0
 10
125.5715098905373
 20
90.86459686564007
 30
0.0
 10
125.5893805785185
 20
90.93294502336421
 30
0.0
 10
125.6067916897722
 20
91.00131590508838
 30
0.0
  0
LINE
  5
F4
330
1F
100
AcDbEntity
  8
0
  6
Continuous
 62
     7
370
    25
100
AcDbLine
 10
123.2336096293
 20
97.1471232941
 30
0.0
 11
125.5532018513
 21
97.1471232941
 31
0.0
  0
SPLINE
  5
F5
330
1F
100
AcDbEntity
  8
0
  6
Continuous
 62
     7
370
    25
100
AcDbSpline
210
0.0
220
0.0
230
1.0
 70
     8
 71
     3
 72
     8
 73
     4
 74
     0
 42
0.000000001
 43
0.00000001
 40
0.0
 40
0.0
 40
0.0
 40
0.0
 40
1.0
 40
1.0
 40
1.0
 40
1.0
 10
125.6067916897722
 20
96.94207772193167
 30
0.0
 10
125.5893766739922
 20
97.01046393615852
 30
0.0
 10
125.5715058539348
 20
97.07881182618556
 30
0.0
 10
125.553201851286
 20
97.1471232940529
 30
0.0
  0
SPLINE
  5
F6
330
1F
100
AcDbEntity
  8
0
  6
Continuous
 62
     7
370
    25
100
AcDbSpline
210
0.0
220
0.0
230
1.0
 70
     8
 71
     3
 72
     8
 73
     4
 74
     0
 42
0.000000001
 43
0.00000001
 40
0.0
 40
0.0
 40
0.0
 40
0.0
 40
1.0
 40
1.0
 40
1.0
 40
1.0
 10
125.6603815282584
 20
97.1471232940529
 30
0.0
 10
125.6420734890071
 20
97.07879676137998
 30
0.0
 10
125.6242028010259
 20
97.01044860365585
 30
0.0
 10
125.6067916897722
 20
96.94207772193167
 30
0.0
  0
LINE
  5
F7
330
1F
100
AcDbEntity
  8
0
  6
Continuous
 62
     7
370
    25
100
AcDbLine
 10
125.6603815283
 20
97.1471232941
 30
0.0
 11
127.9799737502
 21
97.1471232941
 31
0.0
  0
LINE
  5
F8
330
1F
100
AcDbEntity
  8
0
  6
Continuous
 62
     7
370
    25
100
AcDbLine
 10
110.8031829627
 20
94.7521795992
 30
0.0
 11
110.8031829627
 21
74.1386551446
 31
0.0
  0
LINE
  5
F9
330
1F
100
AcDbEntity
  8
0
  6
Continuous
 62
     7
370
    25
100
AcDbLine
 10
132.6067916898
 20
94.9229173719
 30
0.0
 11
132.6067916898
 21
73.9679173719
 31
0.0
  0
LINE
  5
FA
330
1F
100
AcDbEntity
  8
0
  6
Continuous
 62
     7
370
    25
100
AcDbLine
 10
131.6067916898
 20
74.9679173719
 30
0.0
 11
131.6067916898
 21
93.9229173719
 31
0.0
  0
LINE
  5
FB
330
1F
100
AcDbEntity
  8
0
  6
Continuous
 62
     7
370
    25
100
AcDbLine
 10
108.1067916898
 20
84.4454173719
 30
0.0
 11
108.1067916898
 21
93.1954173719
 31
0.0
  0
LINE
  5
FC
330
1F
100
AcDbEntity
  8
0
  6
Continuous
 62
     7
370
    25
100
AcDbLine
 10
108.1067916898
 20
75.6954173719
 30
0.0
 11
108.1067916898
 21
84.4454173719
 31
0.0
  0
LINE
  5
FD
330
1F
100
AcDbEntity
  8
0
  6
Continuous
 62
     7
370
    25
100
AcDbLine
 10
125.6067916898
 20
71.9437114497
 30
0.0
 11
125.6067916898
 21
71.9487570218
 31
0.0
  0
LINE
  5
FE
330
1F
100
AcDbEntity
  8
0
  6
Continuous
 62
     7
370
    25
100
AcDbLine
 10
125.6067916898
 20
96.9420777219
 30
0.0
 11
125.6067916898
 21
96.9471232941
 31
0.0
  0
LINE
  5
FF
330
1F
100
AcDbEntity
  8
0
  6
Continuous
 62
     8
370
    25
100
AcDbLine
 10
174.6871651873
 20
92.4325563245
 30
0.0
 11
174.6871651873
 21
76.4582784193
 31
0.0
  0
LINE
  5
100
330
1F
100
AcDbEntity
  8
0
  6
Continuous
 62
     8
370
    25
100
AcDbLine
 10
165.6921426753
 20
92.4260107221
 30
0.0
 11
165.6921426753
 21
76.4648240217
 31
0.0
  0
LINE
  5
101
330
1F
100
AcDbEntity
  8
0
  6
Continuous
 62
     8
370
    25
100
AcDbLine
 10
161.1921426753
 20
92.4260107221
 30
0.0
 11
161.1921426753
 21
76.4648240217
 31
0.0
  0
LINE
  5
102
330
1F
100
AcDbEntity
  8
0
  6
Continuous
 62
     8
370
    25
100
AcDbLine
 10
170.1921426753
 20
92.4260107221
 30
0.0
 11
170.1921426753
 21
76.4648240217
 31
0.0
  0
LINE
  5
103
330
1F
100
AcDbEntity
  8
0
  6
Continuous
 62
     7
370
     0
100
AcDbLine
 10
109.1423158085
 20
93.7932775006
 30
0.0
 11
121.6067916898
 21
94.1827923719
 31
0.0
  0
LINE
  5
104
330
1F
100
AcDbEntity
  8
0
  6
Continuous
 62
     7
370
     0
100
AcDbLine
 10
109.1423158085
 20
75.0975572432
 30
0.0
 11
121.6067916898
 21
74.7080423719
 31
0.0
  0
LINE
  5
105
330
1F
100
AcDbEntity
  8
0
  6
Continuous
 62
     7
370
     0
100
AcDbLine
 10
121.6067916898
 20
73.8010423719
 30
0.0
 11
121.6067916898
 21
95.0897923719
 31
0.0
  0
LINE
  5
106
330
1F
100
AcDbEntity
  8
0
  6
CENTERX2
 62
     7
370
    18
100
AcDbLine
 10
183.0757027765
 20
84.4454173719
 30
0.0
 11
105.2687651969
 21
84.4454173719
 31
0.0
  0
CIRCLE
  5
107
330
1F
100
AcDbEntity
  8
0
  6
Continuous
 62
     7
370
    25
100
AcDbCircle
 10
215.5312596423
 20
84.4454173719
 30
0.0
 40
7.987798059013045
  0
CIRCLE
  5
108
330
1F
100
AcDbEntity
  8
0
  6
Continuous
 62
     7
370
    25
100
AcDbCircle
 10
215.5312596423
 20
84.4454173719
 30
0.0
 40
7.318774464791076
  0
CIRCLE
  5
109
330
1F
100
AcDbEntity
  8
0
  6
Continuous
 62
     7
370
    25
100
AcDbCircle
 10
215.5312596423
 20
84.4454173719
 30
0.0
 40
6.650000000000006
  0
CIRCLE
  5
10A
330
1F
100
AcDbEntity
  8
0
  6
Continuous
 62
     7
370
    25
100
AcDbCircle
 10
215.5312596423
 20
84.4454173719
 30
0.0
 40
5.950000000000003
  0
CIRCLE
  5
10B
330
1F
100
AcDbEntity
  8
0
  6
Continuous
 62
     7
370
    25
100
AcDbCircle
 10
215.5312596423
 20
84.4454173719
 30
0.0
 40
5.75
  0
CIRCLE
  5
10C
330
1F
100
AcDbEntity
  8
0
  6
Continuous
 62
     7
370
    25
100
AcDbCircle
 10
215.5312596423
 20
84.4454173719
 30
0.0
 40
7.987138952600162
  0
CIRCLE
  5
10D
330
1F
100
AcDbEntity
  8
0
  6
Continuous
 62
     7
370
    25
100
AcDbCircle
 10
215.5312596423
 20
84.4454173719
 30
0.0
 40
8.0
  0
CIRCLE
  5
10E
330
1F
100
AcDbEntity
  8
0
  6
Continuous
 62
     7
370
    25
100
AcDbCircle
 10
215.5312596423
 20
84.4454173719
 30
0.0
 40
11.25
  0
CIRCLE
  5
10F
330
1F
100
AcDbEntity
  8
0
  6
Continuous
 62
     7
370
    25
100
AcDbCircle
 10
215.5312596423
 20
84.4454173719
 30
0.0
 40
11.75
  0
CIRCLE
  5
110
330
1F
100
AcDbEntity
  8
0
  6
Continuous
 62
     7
370
    25
100
AcDbCircle
 10
215.5312596423
 20
84.4454173719
 30
0.0
 40
8.349999999999966
  0
CIRCLE
  5
111
330
1F
100
AcDbEntity
  8
0
  6
Continuous
 62
     7
370
    25
100
AcDbCircle
 10
215.5312596423
 20
84.4454173719
 30
0.0
 40
8.25
  0
SPLINE
  5
112
330
1F
100
AcDbEntity
  8
0
  6
Continuous
 62
     7
370
    25
100
AcDbSpline
210
0.0
220
0.0
230
1.0
 70
    24
 71
     3
 72
    15
 73
    11
 74
     0
 42
0.000000001
 43
0.00000001
 40
0.0
 40
0.0
 40
0.0
 40
0.0
 40
0.1323065044264402
 40
0.2645755999739294
 40
0.3998036789671088
 40
0.535007355676589
 40
0.6501969475405016
 40
0.7654045076453763
 40
0.8826909144168966
 40
1.0
 40
1.0
 40
1.0
 40
1.0
 10
227.5312596422651
 20
91.37362060215663
 30
0.0
 10
227.0128069130566
 20
91.67294942492724
 30
0.0
 10
225.9760480440721
 20
92.27152243702018
 30
0.0
 10
224.3795305988017
 20
93.19327221381296
 30
0.0
 10
222.7529181871218
 20
94.13239732756352
 30
0.0
 10
221.1852374457348
 20
95.03749822560671
 30
0.0
 10
219.7022612517749
 20
95.89369493039126
 30
0.0
 10
218.3027078923495
 20
96.70172743920077
 30
0.0
 10
216.9094824761061
 20
97.50610650831071
 30
0.0
 10
215.990696860488
 20
98.03656763081536
 30
0.0
 10
215.531259642265
 20
98.30182383243213
 30
0.0
  0
SPLINE
  5
113
330
1F
100
AcDbEntity
  8
0
  6
Continuous
 62
     7
370
    25
100
AcDbSpline
210
0.0
220
0.0
230
1.0
 70
    24
 71
     3
 72
    16
 73
    12
 74
     0
 42
0.000000001
 43
0.00000001
 40
0.0
 40
0.0
 40
0.0
 40
0.0
 40
0.1262118512103692
 40
0.2512020653763511
 40
0.3761607760521393
 40
0.5042162939840997
 40
0.6322727081776326
 40
0.7237405332378762
 40
0.8152173057580782
 40
0.9076044663789503
 40
1.0
 40
1.0
 40
1.0
 40
1.0
 10
227.5312596422651
 20
77.5172141416056
 30
0.0
 10
227.5312596422651
 20
78.08817145217797
 30
0.0
 10
227.5312596422651
 20
79.2245596303249
 30
0.0
 10
227.5312596422651
 20
80.95730309650952
 30
0.0
 10
227.5312596422651
 20
82.7174484894876
 30
0.0
 10
227.5312596422651
 20
84.50505936082125
 30
0.0
 10
227.5312596422651
 20
86.13508160025553
 30
0.0
 10
227.5312596422651
 20
87.58389914581568
 30
0.0
 10
227.5312596422651
 20
88.85616238416415
 30
0.0
 10
227.5312596422651
 20
90.12116906933633
 30
0.0
 10
227.5312596422651
 20
90.95612414653081
 30
0.0
 10
227.5312596422651
 20
91.37362060215663
 30
0.0
  0
SPLINE
  5
114
330
1F
100
AcDbEntity
  8
0
  6
Continuous
 62
     7
370
    25
100
AcDbSpline
210
0.0
220
0.0
230
1.0
 70
    24
 71
     3
 72
    15
 73
    11
 74
     0
 42
0.000000001
 43
0.00000001
 40
0.0
 40
0.0
 40
0.0
 40
0.0
 40
0.1323065044264402
 40
0.2645755999739297
 40
0.3998036789671092
 40
0.5350073556765894
 40
0.6501969475405021
 40
0.7654045076453765
 40
0.8826909144168967
 40
1.0
 40
1.0
 40
1.0
 40
1.0
 10
215.5312596422651
 20
70.5890109113301
 30
0.0
 10
216.0497123714735
 20
70.88833973410071
 30
0.0
 10
217.0864712404581
 20
71.48691274619365
 30
0.0
 10
218.6829886857284
 20
72.40866252298643
 30
0.0
 10
220.3096010974083
 20
73.347787636737
 30
0.0
 10
221.8772818387953
 20
74.2528885347802
 30
0.0
 10
223.3602580327552
 20
75.10908523956473
 30
0.0
 10
224.7598113921806
 20
75.91711774837422
 30
0.0
 10
226.153036808424
 20
76.72149681748418
 30
0.0
 10
227.0718224240421
 20
77.25195793998881
 30
0.0
 10
227.5312596422651
 20
77.5172141416056
 30
0.0
  0
SPLINE
  5
115
330
1F
100
AcDbEntity
  8
0
  6
Continuous
 62
     7
370
    25
100
AcDbSpline
210
0.0
220
0.0
230
1.0
 70
    24
 71
     3
 72
    15
 73
    11
 74
     0
 42
0.000000001
 43
0.00000001
 40
0.0
 40
0.0
 40
0.0
 40
0.0
 40
0.1323065044264404
 40
0.2645755999739298
 40
0.3998036789671093
 40
0.5350073556765895
 40
0.6501969475405022
 40
0.7654045076453766
 40
0.8826909144168967
 40
1.0
 40
1.0
 40
1.0
 40
1.0
 10
203.5312596422651
 20
77.5172141416056
 30
0.0
 10
204.0497123714735
 20
77.217885318835
 30
0.0
 10
205.086471240458
 20
76.61931230674206
 30
0.0
 10
206.6829886857284
 20
75.69756252994928
 30
0.0
 10
208.3096010974083
 20
74.75843741619872
 30
0.0
 10
209.8772818387953
 20
73.85333651815553
 30
0.0
 10
211.3602580327552
 20
72.99713981337096
 30
0.0
 10
212.7598113921806
 20
72.18910730456146
 30
0.0
 10
214.153036808424
 20
71.38472823545155
 30
0.0
 10
215.071822424042
 20
70.85426711294689
 30
0.0
 10
215.5312596422651
 20
70.5890109113301
 30
0.0
  0
SPLINE
  5
116
330
1F
100
AcDbEntity
  8
0
  6
Continuous
 62
     7
370
    25
100
AcDbSpline
210
0.0
220
0.0
230
1.0
 70
    24
 71
     3
 72
    16
 73
    12
 74
     0
 42
0.000000001
 43
0.00000001
 40
0.0
 40
0.0
 40
0.0
 40
0.0
 40
0.0915356978782496
 40
0.1830633432235329
 40
0.2753996771146608
 40
0.3677267146962474
 40
0.4925705318074073
 40
0.6174129202940688
 40
0.7455832490327828
 40
0.8737882839722
 40
1.0
 40
1.0
 40
1.0
 40
1.0
 10
203.5312596422651
 20
91.37362060215662
 30
0.0
 10
203.5312596422651
 20
90.96002087360239
 30
0.0
 10
203.5312596422651
 20
90.1328578014839
 30
0.0
 10
203.5312596422651
 20
88.87198257000101
 30
0.0
 10
203.531259642265
 20
87.59590315493426
 30
0.0
 10
203.5312596422651
 20
86.15407004876309
 30
0.0
 10
203.5312596422651
 20
84.55034129385726
 30
0.0
 10
203.531259642265
 20
82.777698951208
 30
0.0
 10
203.5312596422651
 20
81.00182920236983
 30
0.0
 10
203.5312596422651
 20
79.23910986245521
 30
0.0
 10
203.5312596422651
 20
78.08817357473755
 30
0.0
 10
203.5312596422651
 20
77.5172141416056
 30
0.0
  0
SPLINE
  5
117
330
1F
100
AcDbEntity
  8
0
  6
Continuous
 62
     7
370
    25
100
AcDbSpline
210
0.0
220
0.0
230
1.0
 70
    24
 71
     3
 72
    15
 73
    11
 74
     0
 42
0.000000001
 43
0.00000001
 40
0.0
 40
0.0
 40
0.0
 40
0.0
 40
0.1323065044264402
 40
0.2645755999739297
 40
0.3998036789671093
 40
0.5350073556765894
 40
0.6501969475405022
 40
0.7654045076453766
 40
0.8826909144168968
 40
1.0
 40
1.0
 40
1.0
 40
1.0
 10
215.531259642265
 20
98.30182383243213
 30
0.0
 10
215.0128069130566
 20
98.00249500966154
 30
0.0
 10
213.9760480440721
 20
97.4039219975686
 30
0.0
 10
212.3795305988017
 20
96.48217222077581
 30
0.0
 10
210.7529181871218
 20
95.54304710702525
 30
0.0
 10
209.1852374457348
 20
94.63794620898206
 30
0.0
 10
207.7022612517749
 20
93.7817495041975
 30
0.0
 10
206.3027078923495
 20
92.97371699538799
 30
0.0
 10
204.9094824761061
 20
92.16933792627806
 30
0.0
 10
203.9906968604881
 20
91.6388768037734
 30
0.0
 10
203.5312596422651
 20
91.37362060215662
 30
0.0
  0
INSERT
  5
123
330
1F
100
AcDbEntity
  8
0
  6
Continuous
 62
     7
370
    18
100
AcDbBlockReference
  2
SW_CENTERMARKSYMBOL_0
 10
215.5312596423
 20
84.4454173719
 30
0.0
  0
LINE
  5
124
330
1F
100
AcDbEntity
  8
0
  6
Continuous
 62
     7
370
    25
100
AcDbLine
 10
150.0757027765
 20
121.0124369324
 30
0.0
 11
156.5757027765
 21
121.0124369324
 31
0.0
  0
LINE
  5
125
330
1F
100
AcDbEntity
  8
0
  6
Continuous
 62
     7
370
    25
100
AcDbLine
 10
156.5757027765
 20
137.0124369324
 30
0.0
 11
150.0757027765
 21
137.0124369324
 31
0.0
  0
LINE
  5
126
330
1F
100
AcDbEntity
  8
0
  6
Continuous
 62
     7
370
    25
100
AcDbLine
 10
156.5757027765
 20
121.0124369324
 30
0.0
 11
161.0757027765
 21
121.7624369324
 31
0.0
  0
LINE
  5
127
330
1F
100
AcDbEntity
  8
0
  6
Continuous
 62
     7
370
    25
100
AcDbLine
 10
161.0757027765
 20
136.2624369324
 30
0.0
 11
156.5757027765
 21
137.0124369324
 31
0.0
  0
ARC
  5
128
330
1F
100
AcDbEntity
  8
0
  6
Continuous
 62
     7
370
    25
100
AcDbCircle
 10
174.6757027765
 20
136.9002349914
 30
0.0
 40
0.1000000000000227
100
AcDbArc
 50
83.4180553448
 51
180.0
  0
ARC
  5
129
330
1F
100
AcDbEntity
  8
0
  6
Continuous
 62
     7
370
    25
100
AcDbCircle
 10
174.6757027765
 20
121.1246388734
 30
0.0
 40
0.1000000000000227
100
AcDbArc
 50
180.0
 51
276.5819446552
  0
LINE
  5
12A
330
1F
100
AcDbEntity
  8
0
  6
Continuous
 62
     7
370
    25
100
AcDbLine
 10
174.6871651873
 20
121.0252979798
 30
0.0
 11
180.479657415
 21
121.6936624676
 31
0.0
  0
LINE
  5
12B
330
1F
100
AcDbEntity
  8
0
  6
Continuous
 62
     7
370
    25
100
AcDbLine
 10
180.479657415
 20
136.3312113972
 30
0.0
 11
174.6871651873
 21
136.999575885
 31
0.0
  0
ARC
  5
12C
330
1F
100
AcDbEntity
  8
0
  6
Continuous
 62
     7
370
    25
100
AcDbCircle
 10
165.6757027765
 20
136.8943908903
 30
0.0
 40
0.100000000000015
100
AcDbArc
 50
80.537677792
 51
180.0
  0
ARC
  5
12D
330
1F
100
AcDbEntity
  8
0
  6
Continuous
 62
     7
370
    25
100
AcDbCircle
 10
165.6757027765
 20
121.1304829746
 30
0.0
 40
0.100000000000001
100
AcDbArc
 50
180.0
 51
279.462322208
  0
ARC
  5
12E
330
1F
100
AcDbEntity
  8
0
  6
Continuous
 62
     7
370
    25
100
AcDbCircle
 10
161.1757027765
 20
136.8943908903
 30
0.0
 40
0.100000000000015
100
AcDbArc
 50
80.537677792
 51
180.0
  0
ARC
  5
12F
330
1F
100
AcDbEntity
  8
0
  6
Continuous
 62
     7
370
    25
100
AcDbCircle
 10
161.1757027765
 20
121.1304829746
 30
0.0
 40
0.100000000000001
100
AcDbArc
 50
180.0
 51
279.462322208
  0
ARC
  5
130
330
1F
100
AcDbEntity
  8
0
  6
Continuous
 62
     7
370
    25
100
AcDbCircle
 10
170.1757027765
 20
136.8943908903
 30
0.0
 40
0.0999999999999943
100
AcDbArc
 50
80.537677792
 51
180.0
  0
ARC
  5
131
330
1F
100
AcDbEntity
  8
0
  6
Continuous
 62
     7
370
    25
100
AcDbCircle
 10
170.1757027765
 20
121.1304829746
 30
0.0
 40
0.0999999999999943
100
AcDbArc
 50
180.0
 51
279.462322208
  0
LINE
  5
132
330
1F
100
AcDbEntity
  8
0
  6
Continuous
 62
     7
370
    25
100
AcDbLine
 10
165.6921426753
 20
121.0318435822
 30
0.0
 11
170.0757027765
 21
121.7624369324
 31
0.0
  0
LINE
  5
133
330
1F
100
AcDbEntity
  8
0
  6
Continuous
 62
     7
370
    25
100
AcDbLine
 10
170.0757027765
 20
136.2624369324
 30
0.0
 11
165.6921426753
 21
136.9930302826
 31
0.0
  0
LINE
  5
134
330
1F
100
AcDbEntity
  8
0
  6
Continuous
 62
     7
370
    25
100
AcDbLine
 10
161.1921426753
 20
121.0318435822
 30
0.0
 11
165.5757027765
 21
121.7624369324
 31
0.0
  0
LINE
  5
135
330
1F
100
AcDbEntity
  8
0
  6
Continuous
 62
     7
370
    25
100
AcDbLine
 10
165.5757027765
 20
136.2624369324
 30
0.0
 11
161.1921426753
 21
136.9930302826
 31
0.0
  0
LINE
  5
136
330
1F
100
AcDbEntity
  8
0
  6
Continuous
 62
     7
370
    25
100
AcDbLine
 10
170.1921426753
 20
121.0318435822
 30
0.0
 11
174.5757027765
 21
121.7624369324
 31
0.0
  0
LINE
  5
137
330
1F
100
AcDbEntity
  8
0
  6
Continuous
 62
     7
370
    25
100
AcDbLine
 10
174.5757027765
 20
136.2624369324
 30
0.0
 11
170.1921426753
 21
136.9930302826
 31
0.0
  0
LINE
  5
138
330
1F
100
AcDbEntity
  8
0
  6
Continuous
 62
     7
370
    25
100
AcDbLine
 10
180.479657415
 20
121.6936624676
 30
0.0
 11
181.0757027765
 21
122.3624369324
 31
0.0
  0
LINE
  5
139
330
1F
100
AcDbEntity
  8
0
  6
Continuous
 62
     7
370
    25
100
AcDbLine
 10
181.0757027765
 20
135.6624369324
 30
0.0
 11
180.479657415
 21
136.3312113972
 31
0.0
  0
LINE
  5
13A
330
1F
100
AcDbEntity
  8
0
  6
Continuous
 62
     7
370
    25
100
AcDbLine
 10
147.9313652092
 20
117.0124369324
 30
0.0
 11
148.0757027765
 21
117.2624369324
 31
0.0
  0
LINE
  5
13B
330
1F
100
AcDbEntity
  8
0
  6
Continuous
 62
     7
370
    25
100
AcDbLine
 10
148.0757027765
 20
140.7624369324
 30
0.0
 11
147.9313652092
 21
141.0124369324
 31
0.0
  0
LINE
  5
13C
330
1F
100
AcDbEntity
  8
0
  6
Continuous
 62
     7
370
    25
100
AcDbLine
 10
136.2200403438
 20
141.0124369324
 30
0.0
 11
136.0757027765
 21
140.7624369324
 31
0.0
  0
LINE
  5
13D
330
1F
100
AcDbEntity
  8
0
  6
Continuous
 62
     7
370
    25
100
AcDbLine
 10
136.0757027765
 20
117.2624369324
 30
0.0
 11
136.2200403438
 21
117.0124369324
 31
0.0
  0
LINE
  5
13E
330
1F
100
AcDbEntity
  8
0
  6
Continuous
 62
     7
370
    25
100
AcDbLine
 10
148.0757027765
 20
117.2624369324
 30
0.0
 11
149.5757027765
 21
117.2624369324
 31
0.0
  0
LINE
  5
13F
330
1F
100
AcDbEntity
  8
0
  6
Continuous
 62
     7
370
    25
100
AcDbLine
 10
149.5757027765
 20
140.7624369324
 30
0.0
 11
148.0757027765
 21
140.7624369324
 31
0.0
  0
LINE
  5
140
330
1F
100
AcDbEntity
  8
0
  6
Continuous
 62
     7
370
    25
100
AcDbLine
 10
149.5757027765
 20
117.2624369324
 30
0.0
 11
150.0757027765
 21
117.7624369324
 31
0.0
  0
LINE
  5
141
330
1F
100
AcDbEntity
  8
0
  6
Continuous
 62
     7
370
    25
100
AcDbLine
 10
150.0757027765
 20
140.2624369324
 30
0.0
 11
149.5757027765
 21
140.7624369324
 31
0.0
  0
LINE
  5
142
330
1F
100
AcDbEntity
  8
0
  6
Continuous
 62
     7
370
    25
100
AcDbLine
 10
134.5757027765
 20
140.7624369324
 30
0.0
 11
134.0757027765
 21
140.2624369324
 31
0.0
  0
LINE
  5
143
330
1F
100
AcDbEntity
  8
0
  6
Continuous
 62
     7
370
    25
100
AcDbLine
 10
134.0757027765
 20
117.7624369324
 30
0.0
 11
134.5757027765
 21
117.2624369324
 31
0.0
  0
LINE
  5
144
330
1F
100
AcDbEntity
  8
0
  6
Continuous
 62
     7
370
    25
100
AcDbLine
 10
136.0757027765
 20
140.7624369324
 30
0.0
 11
134.5757027765
 21
140.7624369324
 31
0.0
  0
LINE
  5
145
330
1F
100
AcDbEntity
  8
0
  6
Continuous
 62
     7
370
    25
100
AcDbLine
 10
134.5757027765
 20
117.2624369324
 30
0.0
 11
136.0757027765
 21
117.2624369324
 31
0.0
  0
LINE
  5
146
330
1F
100
AcDbEntity
  8
0
  6
Continuous
 62
     7
370
    25
100
AcDbLine
 10
122.2511292571
 20
140.0124369324
 30
0.0
 11
122.1067916898
 21
139.7624369324
 31
0.0
  0
LINE
  5
147
330
1F
100
AcDbEntity
  8
0
  6
Continuous
 62
     7
370
    25
100
AcDbLine
 10
122.1067916898
 20
118.2624369324
 30
0.0
 11
122.2511292571
 21
118.0124369324
 31
0.0
  0
LINE
  5
148
330
1F
100
AcDbEntity
  8
0
  6
Continuous
 62
     7
370
    25
100
AcDbLine
 10
128.9624541225
 20
118.0124369324
 30
0.0
 11
129.1067916898
 21
118.2624369324
 31
0.0
  0
LINE
  5
149
330
1F
100
AcDbEntity
  8
0
  6
Continuous
 62
     7
370
    25
100
AcDbLine
 10
129.1067916898
 20
139.7624369324
 30
0.0
 11
128.9624541225
 21
140.0124369324
 31
0.0
  0
LINE
  5
14A
330
1F
100
AcDbEntity
  8
0
  6
Continuous
 62
     7
370
    25
100
AcDbLine
 10
122.1067916898
 20
139.6724369324
 30
0.0
 11
110.8031829627
 21
139.3191991597
 31
0.0
  0
LINE
  5
14B
330
1F
100
AcDbEntity
  8
0
  6
Continuous
 62
     7
370
    25
100
AcDbLine
 10
110.8031829627
 20
118.7056747052
 30
0.0
 11
122.1067916898
 21
118.3524369324
 31
0.0
  0
LINE
  5
14C
330
1F
100
AcDbEntity
  8
0
  6
Continuous
 62
     7
370
    25
100
AcDbLine
 10
132.6067916898
 20
118.5349369324
 30
0.0
 11
134.0757027765
 21
118.5349369324
 31
0.0
  0
LINE
  5
14D
330
1F
100
AcDbEntity
  8
0
  6
Continuous
 62
     7
370
    25
100
AcDbLine
 10
134.0757027765
 20
139.4899369324
 30
0.0
 11
132.6067916898
 21
139.4899369324
 31
0.0
  0
LINE
  5
14E
330
1F
100
AcDbEntity
  8
0
  6
Continuous
 62
     7
370
    25
100
AcDbLine
 10
132.6067916898
 20
139.4899369324
 30
0.0
 11
131.6067916898
 21
138.4899369324
 31
0.0
  0
LINE
  5
14F
330
1F
100
AcDbEntity
  8
0
  6
Continuous
 62
     7
370
    25
100
AcDbLine
 10
131.6067916898
 20
119.5349369324
 30
0.0
 11
132.6067916898
 21
118.5349369324
 31
0.0
  0
LINE
  5
150
330
1F
100
AcDbEntity
  8
0
  6
Continuous
 62
     7
370
    25
100
AcDbLine
 10
110.8031829627
 20
139.3191991597
 30
0.0
 11
108.1067916898
 21
137.7624369324
 31
0.0
  0
LINE
  5
151
330
1F
100
AcDbEntity
  8
0
  6
Continuous
 62
     7
370
    25
100
AcDbLine
 10
108.1067916898
 20
120.2624369324
 30
0.0
 11
110.8031829627
 21
118.7056747052
 31
0.0
  0
LINE
  5
152
330
1F
100
AcDbEntity
  8
0
  6
Continuous
 62
     7
370
    25
100
AcDbLine
 10
129.1067916898
 20
120.0124369324
 30
0.0
 11
131.6067916898
 21
120.0124369324
 31
0.0
  0
LINE
  5
153
330
1F
100
AcDbEntity
  8
0
  6
Continuous
 62
     7
370
    25
100
AcDbLine
 10
131.6067916898
 20
138.0124369324
 30
0.0
 11
129.1067916898
 21
138.0124369324
 31
0.0
  0
LINE
  5
154
330
1F
100
AcDbEntity
  8
0
  6
Continuous
 62
     7
370
    25
100
AcDbLine
 10
156.5757027765
 20
121.0124369324
 30
0.0
 11
156.5757027765
 21
137.0124369324
 31
0.0
  0
LINE
  5
155
330
1F
100
AcDbEntity
  8
0
  6
Continuous
 62
     7
370
    25
100
AcDbLine
 10
174.5757027765
 20
129.0124369324
 30
0.0
 11
174.5757027765
 21
136.9002349914
 31
0.0
  0
LINE
  5
156
330
1F
100
AcDbEntity
  8
0
  6
Continuous
 62
     7
370
    25
100
AcDbLine
 10
174.5757027765
 20
121.1246388734
 30
0.0
 11
174.5757027765
 21
129.0124369324
 31
0.0
  0
LINE
  5
157
330
1F
100
AcDbEntity
  8
0
  6
Continuous
 62
     7
370
    25
100
AcDbLine
 10
180.479657415
 20
129.0124369324
 30
0.0
 11
180.479657415
 21
136.3312113972
 31
0.0
  0
LINE
  5
158
330
1F
100
AcDbEntity
  8
0
  6
Continuous
 62
     7
370
    25
100
AcDbLine
 10
180.479657415
 20
121.6936624676
 30
0.0
 11
180.479657415
 21
129.0124369324
 31
0.0
  0
LINE
  5
159
330
1F
100
AcDbEntity
  8
0
  6
Continuous
 62
     7
370
    25
100
AcDbLine
 10
165.5757027765
 20
129.0124369324
 30
0.0
 11
165.5757027765
 21
136.8943908903
 31
0.0
  0
LINE
  5
15A
330
1F
100
AcDbEntity
  8
0
  6
Continuous
 62
     7
370
    25
100
AcDbLine
 10
165.5757027765
 20
121.1304829746
 30
0.0
 11
165.5757027765
 21
129.0124369324
 31
0.0
  0
LINE
  5
15B
330
1F
100
AcDbEntity
  8
0
  6
Continuous
 62
     7
370
    25
100
AcDbLine
 10
161.0757027765
 20
129.0124369324
 30
0.0
 11
161.0757027765
 21
136.8943908903
 31
0.0
  0
LINE
  5
15C
330
1F
100
AcDbEntity
  8
0
  6
Continuous
 62
     7
370
    25
100
AcDbLine
 10
161.0757027765
 20
121.1304829746
 30
0.0
 11
161.0757027765
 21
129.0124369324
 31
0.0
  0
LINE
  5
15D
330
1F
100
AcDbEntity
  8
0
  6
Continuous
 62
     7
370
    25
100
AcDbLine
 10
170.0757027765
 20
129.0124369324
 30
0.0
 11
170.0757027765
 21
136.8943908903
 31
0.0
  0
LINE
  5
15E
330
1F
100
AcDbEntity
  8
0
  6
Continuous
 62
     7
370
    25
100
AcDbLine
 10
170.0757027765
 20
121.1304829746
 30
0.0
 11
170.0757027765
 21
129.0124369324
 31
0.0
  0
LINE
  5
15F
330
1F
100
AcDbEntity
  8
0
  6
Continuous
 62
     7
370
    25
100
AcDbLine
 10
181.0757027765
 20
135.6624369324
 30
0.0
 11
181.0757027765
 21
122.3624369324
 31
0.0
  0
SPLINE
  5
160
330
1F
100
AcDbEntity
  8
0
  6
Continuous
 62
     7
370
    25
100
AcDbSpline
210
0.0
220
0.0
230
1.0
 70
     8
 71
     3
 72
    15
 73
    11
 74
     0
 42
0.000000001
 43
0.00000001
 40
0.0
 40
0.0
 40
0.0
 40
0.0
 40
0.1323065044264402
 40
0.2645755999739294
 40
0.3998036789671088
 40
0.5350073556765889
 40
0.6501969475405015
 40
0.765404507645376
 40
0.8826909144168964
 40
0.9999999999999999
 40
0.9999999999999999
 40
0.9999999999999999
 40
0.9999999999999999
 10
146.8595684395048
 20
141.0124369324314
 30
0.0
 10
147.0227275214225
 20
140.4939842032229
 30
0.0
 10
147.3489995529958
 20
139.4572253342384
 30
0.0
 10
147.7000542560157
 20
137.860707888968
 30
0.0
 10
147.9111310415449
 20
136.2340954772881
 30
0.0
 10
147.9529283518305
 20
134.6664147359011
 30
0.0
 10
147.8444697191297
 20
133.1834385419412
 30
0.0
 10
147.6222438100688
 20
131.7838851825158
 30
0.0
 10
147.2962660367825
 20
130.3906597662724
 30
0.0
 10
147.0051436863891
 20
129.4718741506544
 30
0.0
 10
146.8595684395048
 20
129.0124369324314
 30
0.0
  0
SPLINE
  5
161
330
1F
100
AcDbEntity
  8
0
  6
Continuous
 62
     7
370
    25
100
AcDbSpline
210
0.0
220
0.0
230
1.0
 70
    24
 71
     3
 72
    13
 73
     9
 74
     0
 42
0.000000001
 43
0.00000001
 40
0.0
 40
0.0
 40
0.0
 40
0.0
 40
0.0074794268088855
 40
0.2645403638909603
 40
0.4472089068488358
 40
0.6304324418490956
 40
0.8150423145752518
 40
0.9999999999999999
 40
0.9999999999999999
 40
0.9999999999999999
 40
0.9999999999999999
 10
147.9291755076896
 20
141.0124369324314
 30
0.0
 10
147.9299026950185
 20
141.0124369324314
 30
0.0
 10
147.9556226339288
 20
141.0124369324314
 30
0.0
 10
147.8738552069141
 20
141.0124369324314
 30
0.0
 10
147.7121803236102
 20
141.0124369324314
 30
0.0
 10
147.4880167221638
 20
141.0124369324314
 30
0.0
 10
147.2072887134611
 20
141.0124369324314
 30
0.0
 10
146.9755478972325
 20
141.0124369324314
 30
0.0
 10
146.8595684395048
 20
141.0124369324314
 30
0.0
  0
SPLINE
  5
162
330
1F
100
AcDbEntity
  8
0
  6
Continuous
 62
     7
370
    25
100
AcDbSpline
210
0.0
220
0.0
230
1.0
 70
    24
 71
     3
 72
    13
 73
     9
 74
     0
 42
0.000000001
 43
0.00000001
 40
0.0
 40
0.0
 40
0.0
 40
0.0
 40
0.1829110580115794
 40
0.3661269173550583
 40
0.5505245674166973
 40
0.735454646125069
 40
0.9842724754053466
 40
1.0
 40
1.0
 40
1.0
 40
1.0
 10
146.8595684395048
 20
117.0124369324314
 30
0.0
 10
146.9743083165721
 20
117.0124369324314
 30
0.0
 10
147.2039792721996
 20
117.0124369324314
 30
0.0
 10
147.4844559882065
 20
117.0124369324314
 30
0.0
 10
147.7103654596941
 20
117.0124369324314
 30
0.0
 10
147.8718224306891
 20
117.0124369324314
 30
0.0
 10
147.9527018146784
 20
117.0124369324314
 30
0.0
 10
147.9284381877056
 20
117.0124369324314
 30
0.0
 10
147.9269956872634
 20
117.0124369324314
 30
0.0
  0
SPLINE
  5
163
330
1F
100
AcDbEntity
  8
0
  6
Continuous
 62
     7
370
    25
100
AcDbSpline
210
0.0
220
0.0
230
1.0
 70
     8
 71
     3
 72
    15
 73
    11
 74
     0
 42
0.000000001
 43
0.00000001
 40
0.0
 40
0.0
 40
0.0
 40
0.0
 40
0.1323065044264402
 40
0.2645755999739297
 40
0.3998036789671092
 40
0.5350073556765893
 40
0.6501969475405021
 40
0.7654045076453766
 40
0.8826909144168968
 40
1.0
 40
1.0
 40
1.0
 40
1.0
 10
146.8595684395048
 20
129.0124369324314
 30
0.0
 10
147.0227275214225
 20
128.4939842032229
 30
0.0
 10
147.3489995529958
 20
127.4572253342384
 30
0.0
 10
147.7000542560157
 20
125.860707888968
 30
0.0
 10
147.9111310415449
 20
124.2340954772881
 30
0.0
 10
147.9529283518305
 20
122.6664147359011
 30
0.0
 10
147.8444697191297
 20
121.1834385419412
 30
0.0
 10
147.6222438100688
 20
119.7838851825158
 30
0.0
 10
147.2962660367825
 20
118.3906597662724
 30
0.0
 10
147.0051436863891
 20
117.4718741506544
 30
0.0
 10
146.8595684395048
 20
117.0124369324314
 30
0.0
  0
LINE
  5
164
330
1F
100
AcDbEntity
  8
0
  6
Continuous
 62
     7
370
    25
100
AcDbLine
 10
148.0757027765
 20
140.7624369324
 30
0.0
 11
148.0757027765
 21
117.2624369324
 31
0.0
  0
LINE
  5
165
330
1F
100
AcDbEntity
  8
0
  6
Continuous
 62
     7
370
    25
100
AcDbLine
 10
142.2096773727
 20
141.0124369324
 30
0.0
 11
142.0757027765
 21
140.0913339736
 31
0.0
  0
LINE
  5
166
330
1F
100
AcDbEntity
  8
0
  6
Continuous
 62
     7
370
    25
100
AcDbLine
 10
146.8595684395
 20
141.0124369324
 30
0.0
 11
142.2096773727
 21
141.0124369324
 31
0.0
  0
LINE
  5
167
330
1F
100
AcDbEntity
  8
0
  6
Continuous
 62
     7
370
    25
100
AcDbLine
 10
146.8595684395
 20
129.0124369324
 30
0.0
 11
142.2096773727
 21
129.0124369324
 31
0.0
  0
LINE
  5
168
330
1F
100
AcDbEntity
  8
0
  6
Continuous
 62
     7
370
    25
100
AcDbLine
 10
142.0757027765
 20
129.9335398913
 30
0.0
 11
142.2096773727
 21
129.0124369324
 31
0.0
  0
LINE
  5
169
330
1F
100
AcDbEntity
  8
0
  6
Continuous
 62
     7
370
    25
100
AcDbLine
 10
142.0757027765
 20
129.9335398913
 30
0.0
 11
141.9417281803
 21
129.0124369324
 31
0.0
  0
LINE
  5
16A
330
1F
100
AcDbEntity
  8
0
  6
Continuous
 62
     7
370
    25
100
AcDbLine
 10
141.9417281803
 20
129.0124369324
 30
0.0
 11
137.2918371135
 21
129.0124369324
 31
0.0
  0
SPLINE
  5
16B
330
1F
100
AcDbEntity
  8
0
  6
Continuous
 62
     7
370
    25
100
AcDbSpline
210
0.0
220
0.0
230
1.0
 70
     8
 71
     3
 72
    15
 73
    11
 74
     0
 42
0.000000001
 43
0.00000001
 40
0.0
 40
0.0
 40
0.0
 40
0.0
 40
0.1323065044264401
 40
0.2645755999739293
 40
0.3998036789671087
 40
0.5350073556765887
 40
0.6501969475405015
 40
0.765404507645376
 40
0.8826909144168964
 40
1.0
 40
1.0
 40
1.0
 40
1.0
 10
137.2918371135486
 20
141.0124369324314
 30
0.0
 10
137.1286780316309
 20
140.4939842032229
 30
0.0
 10
136.8024060000576
 20
139.4572253342384
 30
0.0
 10
136.4513512970377
 20
137.860707888968
 30
0.0
 10
136.2402745115085
 20
136.2340954772881
 30
0.0
 10
136.1984772012229
 20
134.6664147359011
 30
0.0
 10
136.3069358339237
 20
133.1834385419412
 30
0.0
 10
136.5291617429846
 20
131.7838851825158
 30
0.0
 10
136.8551395162709
 20
130.3906597662724
 30
0.0
 10
137.1462618666643
 20
129.4718741506544
 30
0.0
 10
137.2918371135486
 20
129.0124369324314
 30
0.0
  0
LINE
  5
16C
330
1F
100
AcDbEntity
  8
0
  6
Continuous
 62
     7
370
    25
100
AcDbLine
 10
141.9417281803
 20
141.0124369324
 30
0.0
 11
137.2918371135
 21
141.0124369324
 31
0.0
  0
LINE
  5
16D
330
1F
100
AcDbEntity
  8
0
  6
Continuous
 62
     7
370
    25
100
AcDbLine
 10
141.9417281803
 20
141.0124369324
 30
0.0
 11
142.0757027765
 21
140.0913339736
 31
0.0
  0
SPLINE
  5
16E
330
1F
100
AcDbEntity
  8
0
  6
Continuous
 62
     7
370
    25
100
AcDbSpline
210
0.0
220
0.0
230
1.0
 70
     8
 71
     3
 72
    15
 73
    11
 74
     0
 42
0.000000001
 43
0.00000001
 40
0.0
 40
0.0
 40
0.0
 40
0.0
 40
0.1323065044264403
 40
0.2645755999739298
 40
0.3998036789671095
 40
0.5350073556765896
 40
0.6501969475405023
 40
0.7654045076453768
 40
0.882690914416897
 40
1.0
 40
1.0
 40
1.0
 40
1.0
 10
137.2918371135486
 20
129.0124369324314
 30
0.0
 10
137.1286780316309
 20
128.4939842032229
 30
0.0
 10
136.8024060000576
 20
127.4572253342384
 30
0.0
 10
136.4513512970377
 20
125.860707888968
 30
0.0
 10
136.2402745115085
 20
124.2340954772881
 30
0.0
 10
136.198477201223
 20
122.6664147359011
 30
0.0
 10
136.3069358339237
 20
121.1834385419412
 30
0.0
 10
136.5291617429846
 20
119.7838851825158
 30
0.0
 10
136.8551395162709
 20
118.3906597662724
 30
0.0
 10
137.1462618666643
 20
117.4718741506544
 30
0.0
 10
137.2918371135486
 20
117.0124369324314
 30
0.0
  0
SPLINE
  5
16F
330
1F
100
AcDbEntity
  8
0
  6
Continuous
 62
     7
370
    25
100
AcDbSpline
210
0.0
220
0.0
230
1.0
 70
    24
 71
     3
 72
    13
 73
     9
 74
     0
 42
0.000000001
 43
0.00000001
 40
0.0
 40
0.0
 40
0.0
 40
0.0
 40
0.1829110580115799
 40
0.3661269173550593
 40
0.5505245674166988
 40
0.7354546461250707
 40
0.9842724754053488
 40
0.9999999999999999
 40
0.9999999999999999
 40
0.9999999999999999
 40
0.9999999999999999
 10
137.2918371135486
 20
117.0124369324314
 30
0.0
 10
137.1770972364812
 20
117.0124369324314
 30
0.0
 10
136.9474262808537
 20
117.0124369324314
 30
0.0
 10
136.6669495648469
 20
117.0124369324314
 30
0.0
 10
136.4410400933593
 20
117.0124369324314
 30
0.0
 10
136.2795831223643
 20
117.0124369324314
 30
0.0
 10
136.1987037383751
 20
117.0124369324314
 30
0.0
 10
136.2229673653478
 20
117.0124369324314
 30
0.0
 10
136.2244098657901
 20
117.0124369324314
 30
0.0
  0
SPLINE
  5
170
330
1F
100
AcDbEntity
  8
0
  6
Continuous
 62
     7
370
    25
100
AcDbSpline
210
0.0
220
0.0
230
1.0
 70
    24
 71
     3
 72
    13
 73
     9
 74
     0
 42
0.000000001
 43
0.00000001
 40
0.0
 40
0.0
 40
0.0
 40
0.0
 40
0.0074794268088826
 40
0.264540363890958
 40
0.4472089068488341
 40
0.6304324418490944
 40
0.8150423145752512
 40
0.9999999999999999
 40
0.9999999999999999
 40
0.9999999999999999
 40
0.9999999999999999
 10
136.2222300453638
 20
141.0124369324314
 30
0.0
 10
136.2215028580349
 20
141.0124369324314
 30
0.0
 10
136.1957829191246
 20
141.0124369324313
 30
0.0
 10
136.2775503461393
 20
141.0124369324314
 30
0.0
 10
136.4392252294432
 20
141.0124369324314
 30
0.0
 10
136.6633888308896
 20
141.0124369324314
 30
0.0
 10
136.9441168395923
 20
141.0124369324314
 30
0.0
 10
137.1758576558209
 20
141.0124369324314
 30
0.0
 10
137.2918371135486
 20
141.0124369324314
 30
0.0
  0
LINE
  5
171
330
1F
100
AcDbEntity
  8
0
  6
Continuous
 62
     7
370
    25
100
AcDbLine
 10
136.0757027765
 20
140.7624369324
 30
0.0
 11
136.0757027765
 21
117.2624369324
 31
0.0
  0
LINE
  5
172
330
1F
100
AcDbEntity
  8
0
  6
Continuous
 62
     7
370
    25
100
AcDbLine
 10
142.2096773727
 20
129.0124369324
 30
0.0
 11
142.0757027765
 21
128.0913339736
 31
0.0
  0
LINE
  5
173
330
1F
100
AcDbEntity
  8
0
  6
Continuous
 62
     7
370
    25
100
AcDbLine
 10
142.0757027765
 20
129.9335398913
 30
0.0
 11
142.0757027765
 21
128.0913339736
 31
0.0
  0
LINE
  5
174
330
1F
100
AcDbEntity
  8
0
  6
Continuous
 62
     7
370
    25
100
AcDbLine
 10
141.9417281803
 20
129.0124369324
 30
0.0
 11
142.0757027765
 21
128.0913339736
 31
0.0
  0
LINE
  5
175
330
1F
100
AcDbEntity
  8
0
  6
Continuous
 62
     7
370
    25
100
AcDbLine
 10
146.8595684395
 20
117.0124369324
 30
0.0
 11
142.2096773727
 21
117.0124369324
 31
0.0
  0
LINE
  5
176
330
1F
100
AcDbEntity
  8
0
  6
Continuous
 62
     7
370
    25
100
AcDbLine
 10
142.0757027765
 20
117.9335398913
 30
0.0
 11
142.2096773727
 21
117.0124369324
 31
0.0
  0
LINE
  5
177
330
1F
100
AcDbEntity
  8
0
  6
Continuous
 62
     7
370
    25
100
AcDbLine
 10
142.0757027765
 20
117.9335398913
 30
0.0
 11
141.9417281803
 21
117.0124369324
 31
0.0
  0
LINE
  5
178
330
1F
100
AcDbEntity
  8
0
  6
Continuous
 62
     7
370
    25
100
AcDbLine
 10
141.9417281803
 20
117.0124369324
 30
0.0
 11
137.2918371135
 21
117.0124369324
 31
0.0
  0
LINE
  5
179
330
1F
100
AcDbEntity
  8
0
  6
Continuous
 62
     7
370
    25
100
AcDbLine
 10
149.5757027765
 20
117.2624369324
 30
0.0
 11
149.5757027765
 21
140.7624369324
 31
0.0
  0
LINE
  5
17A
330
1F
100
AcDbEntity
  8
0
  6
Continuous
 62
     7
370
    25
100
AcDbLine
 10
150.0757027765
 20
140.2624369324
 30
0.0
 11
150.0757027765
 21
117.7624369324
 31
0.0
  0
LINE
  5
17B
330
1F
100
AcDbEntity
  8
0
  6
Continuous
 62
     7
370
    25
100
AcDbLine
 10
134.5757027765
 20
140.7624369324
 30
0.0
 11
134.5757027765
 21
117.2624369324
 31
0.0
  0
LINE
  5
17C
330
1F
100
AcDbEntity
  8
0
  6
Continuous
 62
     7
370
    25
100
AcDbLine
 10
134.0757027765
 20
117.7624369324
 30
0.0
 11
134.0757027765
 21
140.2624369324
 31
0.0
  0
LINE
  5
17D
330
1F
100
AcDbEntity
  8
0
  6
Continuous
 62
     7
370
    25
100
AcDbLine
 10
142.0757027765
 20
141.0124369324
 30
0.0
 11
141.9417281803
 21
141.0124369324
 31
0.0
  0
LINE
  5
17E
330
1F
100
AcDbEntity
  8
0
  6
Continuous
 62
     7
370
    25
100
AcDbLine
 10
142.0757027765
 20
141.0124369324
 30
0.0
 11
142.0757027765
 21
140.0913339736
 31
0.0
  0
LINE
  5
17F
330
1F
100
AcDbEntity
  8
0
  6
Continuous
 62
     7
370
    25
100
AcDbLine
 10
142.0757027765
 20
141.0124369324
 30
0.0
 11
142.2096773727
 21
141.0124369324
 31
0.0
  0
LINE
  5
180
330
1F
100
AcDbEntity
  8
0
  6
Continuous
 62
     7
370
    25
100
AcDbLine
 10
142.2096773727
 20
117.0124369324
 30
0.0
 11
142.0757027765
 21
117.0124369324
 31
0.0
  0
LINE
  5
181
330
1F
100
AcDbEntity
  8
0
  6
Continuous
 62
     7
370
    25
100
AcDbLine
 10
142.0757027765
 20
117.9335398913
 30
0.0
 11
142.0757027765
 21
117.0124369324
 31
0.0
  0
LINE
  5
182
330
1F
100
AcDbEntity
  8
0
  6
Continuous
 62
     7
370
    25
100
AcDbLine
 10
141.9417281803
 20
117.0124369324
 30
0.0
 11
142.0757027765
 21
117.0124369324
 31
0.0
  0
SPLINE
  5
183
330
1F
100
AcDbEntity
  8
0
  6
Continuous
 62
     7
370
    25
100
AcDbSpline
210
0.0
220
0.0
230
1.0
 70
    24
 71
     3
 72
    13
 73
     9
 74
     0
 42
0.000000001
 43
0.00000001
 40
0.0
 40
0.0
 40
0.0
 40
0.0
 40
0.1856671128603256
 40
0.3716542815457716
 40
0.5588863368473324
 40
0.7466808510290941
 40
0.9962121849766495
 40
1.0
 40
1.0
 40
1.0
 40
1.0
 10
123.2336096293171
 20
118.0124369324314
 30
0.0
 10
123.126902664234
 20
118.0124369324314
 30
0.0
 10
122.9133047909599
 20
118.0124369324314
 30
0.0
 10
122.6535494700561
 20
118.0124369324314
 30
0.0
 10
122.4453698144482
 20
118.0124369324314
 30
0.0
 10
122.3007487536366
 20
118.0124369324314
 30
0.0
 10
122.2292061084335
 20
118.0124369324314
 30
0.0
 10
122.2518069445138
 20
118.0124369324314
 30
0.0
 10
122.2521448889084
 20
118.0124369324314
 30
0.0
  0
SPLINE
  5
184
330
1F
100
AcDbEntity
  8
0
  6
Continuous
 62
     7
370
    25
100
AcDbSpline
210
0.0
220
0.0
230
1.0
 70
    24
 71
     3
 72
    12
 73
     8
 74
     0
 42
0.000000001
 43
0.00000001
 40
0.0
 40
0.0
 40
0.0
 40
0.0
 40
0.2533843235850669
 40
0.4387763307693558
 40
0.6247539702518065
 40
0.8121939217449051
 40
1.0
 40
1.0
 40
1.0
 40
1.0
 10
122.2523338887416
 20
140.0124369324314
 30
0.0
 10
122.265125325625
 20
140.0124369324314
 30
0.0
 10
122.2872757872699
 20
140.0124369324314
 30
0.0
 10
122.4466072665076
 20
140.0124369324314
 30
0.0
 10
122.6493377309781
 20
140.0124369324314
 30
0.0
 10
122.9103108340493
 20
140.0124369324314
 30
0.0
 10
123.1257732888065
 20
140.0124369324314
 30
0.0
 10
123.2336096293171
 20
140.0124369324314
 30
0.0
  0
SPLINE
  5
185
330
1F
100
AcDbEntity
  8
0
  6
Continuous
 62
     7
370
    25
100
AcDbSpline
210
0.0
220
0.0
230
1.0
 70
     8
 71
     3
 72
    16
 73
    12
 74
     0
 42
0.000000001
 43
0.00000001
 40
0.0
 40
0.0
 40
0.0
 40
0.0
 40
0.25
 40
0.25
 40
0.5000000000000001
 40
0.5000000000000001
 40
0.6250000000000002
 40
0.6250000000000002
 40
0.7500000000000002
 40
0.7500000000000002
 40
1.0
 40
1.0
 40
1.0
 40
1.0
 10
123.2336096293167
 20
140.0124369324314
 30
0.0
 10
122.9342610711337
 20
139.1143912578823
 30
0.0
 10
122.6875436442721
 20
138.2097981569738
 30
0.0
 10
122.3457599119159
 20
136.3817462282655
 30
0.0
 10
122.2518210035309
 20
135.4581471498314
 30
0.0
 10
122.2507891820514
 20
134.0553475884942
 30
0.0
 10
122.2737535889077
 20
133.5855472445491
 30
0.0
 10
122.3633027151933
 20
132.656232660142
 30
0.0
 10
122.4297965492609
 20
132.194691013119
 30
0.0
 10
122.6865598460747
 20
130.8182831870687
 30
0.0
 10
122.9338879050951
 20
129.9116021050968
 30
0.0
 10
123.2336096293169
 20
129.0124369324313
 30
0.0
  0
SPLINE
  5
186
330
1F
100
AcDbEntity
  8
0
  6
Continuous
 62
     7
370
    25
100
AcDbSpline
210
0.0
220
0.0
230
1.0
 70
     8
 71
     3
 72
    16
 73
    12
 74
     0
 42
0.000000001
 43
0.00000001
 40
0.0
 40
0.0
 40
0.0
 40
0.0
 40
0.2499999999999999
 40
0.2499999999999999
 40
0.4999999999999999
 40
0.4999999999999999
 40
0.6249999999999999
 40
0.6249999999999999
 40
0.7499999999999998
 40
0.7499999999999998
 40
1.0
 40
1.0
 40
1.0
 40
1.0
 10
123.2336096293167
 20
129.0124369324314
 30
0.0
 10
122.9342610711337
 20
128.1143912578823
 30
0.0
 10
122.6875436442721
 20
127.2097981569738
 30
0.0
 10
122.3457599119159
 20
125.3817462282655
 30
0.0
 10
122.2518210035309
 20
124.4581471498314
 30
0.0
 10
122.2507891820514
 20
123.0553475884942
 30
0.0
 10
122.2737535889078
 20
122.5855472445491
 30
0.0
 10
122.3633027151933
 20
121.6562326601421
 30
0.0
 10
122.4297965492609
 20
121.1946910131191
 30
0.0
 10
122.6865598460747
 20
119.8182831870688
 30
0.0
 10
122.9338879050951
 20
118.9116021050968
 30
0.0
 10
123.2336096293169
 20
118.0124369324314
 30
0.0
  0
LINE
  5
187
330
1F
100
AcDbEntity
  8
0
  6
Continuous
 62
     7
370
    25
100
AcDbLine
 10
122.1067916898
 20
139.7624369324
 30
0.0
 11
122.1067916898
 21
118.2624369324
 31
0.0
  0
SPLINE
  5
188
330
1F
100
AcDbEntity
  8
0
  6
Continuous
 62
     7
370
    25
100
AcDbSpline
210
0.0
220
0.0
230
1.0
 70
     8
 71
     3
 72
    16
 73
    12
 74
     0
 42
0.000000001
 43
0.00000001
 40
0.0
 40
0.0
 40
0.0
 40
0.0
 40
0.2499999999999999
 40
0.2499999999999999
 40
0.4999999999999999
 40
0.4999999999999999
 40
0.6249999999999999
 40
0.6249999999999999
 40
0.75
 40
0.75
 40
1.0
 40
1.0
 40
1.0
 40
1.0
 10
127.9799737502277
 20
140.0124369324314
 30
0.0
 10
128.2793223084107
 20
139.1143912578823
 30
0.0
 10
128.5260397352723
 20
138.2097981569738
 30
0.0
 10
128.8678234676285
 20
136.3817462282655
 30
0.0
 10
128.9617623760135
 20
135.4581471498314
 30
0.0
 10
128.9627941974931
 20
134.0553475884942
 30
0.0
 10
128.9398297906367
 20
133.5855472445491
 30
0.0
 10
128.8502806643511
 20
132.656232660142
 30
0.0
 10
128.7837868302836
 20
132.194691013119
 30
0.0
 10
128.5270235334698
 20
130.8182831870687
 30
0.0
 10
128.2796954744493
 20
129.9116021050968
 30
0.0
 10
127.9799737502275
 20
129.0124369324313
 30
0.0
  0
SPLINE
  5
189
330
1F
100
AcDbEntity
  8
0
  6
Continuous
 62
     7
370
    25
100
AcDbSpline
210
0.0
220
0.0
230
1.0
 70
    24
 71
     3
 72
    12
 73
     8
 74
     0
 42
0.000000001
 43
0.00000001
 40
0.0
 40
0.0
 40
0.0
 40
0.0
 40
0.253384323585067
 40
0.438776330769356
 40
0.6247539702518066
 40
0.8121939217449051
 40
1.0
 40
1.0
 40
1.0
 40
1.0
 10
128.9612494908029
 20
140.0124369324314
 30
0.0
 10
128.9484580539194
 20
140.0124369324314
 30
0.0
 10
128.9263075922745
 20
140.0124369324314
 30
0.0
 10
128.7669761130368
 20
140.0124369324314
 30
0.0
 10
128.5642456485663
 20
140.0124369324314
 30
0.0
 10
128.3032725454951
 20
140.0124369324314
 30
0.0
 10
128.0878100907379
 20
140.0124369324314
 30
0.0
 10
127.9799737502273
 20
140.0124369324314
 30
0.0
  0
SPLINE
  5
18A
330
1F
100
AcDbEntity
  8
0
  6
Continuous
 62
     7
370
    25
100
AcDbSpline
210
0.0
220
0.0
230
1.0
 70
    24
 71
     3
 72
    13
 73
     9
 74
     0
 42
0.000000001
 43
0.00000001
 40
0.0
 40
0.0
 40
0.0
 40
0.0
 40
0.1856671128603256
 40
0.3716542815457716
 40
0.5588863368473324
 40
0.7466808510290941
 40
0.9962121849766495
 40
1.0
 40
1.0
 40
1.0
 40
1.0
 10
127.9799737502273
 20
118.0124369324314
 30
0.0
 10
128.0866807153105
 20
118.0124369324314
 30
0.0
 10
128.3002785885845
 20
118.0124369324314
 30
0.0
 10
128.5600339094883
 20
118.0124369324314
 30
0.0
 10
128.7682135650961
 20
118.0124369324314
 30
0.0
 10
128.9128346259078
 20
118.0124369324314
 30
0.0
 10
128.9843772711109
 20
118.0124369324314
 30
0.0
 10
128.9617764350306
 20
118.0124369324314
 30
0.0
 10
128.961438490636
 20
118.0124369324314
 30
0.0
  0
SPLINE
  5
18B
330
1F
100
AcDbEntity
  8
0
  6
Continuous
 62
     7
370
    25
100
AcDbSpline
210
0.0
220
0.0
230
1.0
 70
     8
 71
     3
 72
    16
 73
    12
 74
     0
 42
0.000000001
 43
0.00000001
 40
0.0
 40
0.0
 40
0.0
 40
0.0
 40
0.2499999999999999
 40
0.2499999999999999
 40
0.4999999999999999
 40
0.4999999999999999
 40
0.6249999999999999
 40
0.6249999999999999
 40
0.7499999999999998
 40
0.7499999999999998
 40
1.0
 40
1.0
 40
1.0
 40
1.0
 10
127.9799737502277
 20
129.0124369324314
 30
0.0
 10
128.2793223084107
 20
128.1143912578823
 30
0.0
 10
128.5260397352723
 20
127.2097981569738
 30
0.0
 10
128.8678234676285
 20
125.3817462282655
 30
0.0
 10
128.9617623760135
 20
124.4581471498314
 30
0.0
 10
128.962794197493
 20
123.0553475884942
 30
0.0
 10
128.9398297906367
 20
122.5855472445491
 30
0.0
 10
128.8502806643511
 20
121.6562326601421
 30
0.0
 10
128.7837868302835
 20
121.1946910131191
 30
0.0
 10
128.5270235334697
 20
119.8182831870688
 30
0.0
 10
128.2796954744493
 20
118.9116021050968
 30
0.0
 10
127.9799737502275
 20
118.0124369324314
 30
0.0
  0
LINE
  5
18C
330
1F
100
AcDbEntity
  8
0
  6
Continuous
 62
     7
370
    25
100
AcDbLine
 10
129.1067916898
 20
139.7624369324
 30
0.0
 11
129.1067916898
 21
118.2624369324
 31
0.0
  0
LINE
  5
18D
330
1F
100
AcDbEntity
  8
0
  6
Continuous
 62
     7
370
    25
100
AcDbLine
 10
123.2336096293
 20
129.0124369324
 30
0.0
 11
125.5532018513
 21
129.0124369324
 31
0.0
  0
LINE
  5
18E
330
1F
100
AcDbEntity
  8
0
  6
Continuous
 62
     7
370
    25
100
AcDbLine
 10
123.2336096293
 20
140.0124369324
 30
0.0
 11
125.5532018513
 21
140.0124369324
 31
0.0
  0
SPLINE
  5
18F
330
1F
100
AcDbEntity
  8
0
  6
Continuous
 62
     7
370
    25
100
AcDbSpline
210
0.0
220
0.0
230
1.0
 70
     8
 71
     3
 72
     8
 73
     4
 74
     0
 42
0.000000001
 43
0.00000001
 40
0.0
 40
0.0
 40
0.0
 40
0.0
 40
1.0
 40
1.0
 40
1.0
 40
1.0
 10
125.6067916897722
 20
139.6572875836504
 30
0.0
 10
125.5893766739922
 20
139.7757359812286
 30
0.0
 10
125.5715058539348
 20
139.8941179993455
 30
0.0
 10
125.553201851286
 20
140.0124369324314
 30
0.0
  0
SPLINE
  5
190
330
1F
100
AcDbEntity
  8
0
  6
Continuous
 62
     7
370
    25
100
AcDbSpline
210
0.0
220
0.0
230
1.0
 70
     8
 71
     3
 72
     8
 73
     4
 74
     0
 42
0.000000001
 43
0.00000001
 40
0.0
 40
0.0
 40
0.0
 40
0.0
 40
1.0
 40
1.0
 40
1.0
 40
1.0
 10
125.6603815282584
 20
140.0124369324314
 30
0.0
 10
125.6420734890071
 20
139.8940919063369
 30
0.0
 10
125.6242028010259
 20
139.7757094245549
 30
0.0
 10
125.6067916897722
 20
139.6572875836504
 30
0.0
  0
LINE
  5
191
330
1F
100
AcDbEntity
  8
0
  6
Continuous
 62
     7
370
    25
100
AcDbLine
 10
125.6603815283
 20
140.0124369324
 30
0.0
 11
127.9799737502
 21
140.0124369324
 31
0.0
  0
LINE
  5
192
330
1F
100
AcDbEntity
  8
0
  6
Continuous
 62
     7
370
    25
100
AcDbLine
 10
125.6603815283
 20
129.0124369324
 30
0.0
 11
127.9799737502
 21
129.0124369324
 31
0.0
  0
SPLINE
  5
193
330
1F
100
AcDbEntity
  8
0
  6
Continuous
 62
     7
370
    25
100
AcDbSpline
210
0.0
220
0.0
230
1.0
 70
     8
 71
     3
 72
     8
 73
     4
 74
     0
 42
0.000000001
 43
0.00000001
 40
0.0
 40
0.0
 40
0.0
 40
0.0
 40
1.0
 40
1.0
 40
1.0
 40
1.0
 10
125.6067916897722
 20
129.3675862812124
 30
0.0
 10
125.6242067055522
 20
129.2491378836342
 30
0.0
 10
125.6420775256096
 20
129.1307558655172
 30
0.0
 10
125.6603815282584
 20
129.0124369324314
 30
0.0
  0
SPLINE
  5
194
330
1F
100
AcDbEntity
  8
0
  6
Continuous
 62
     7
370
    25
100
AcDbSpline
210
0.0
220
0.0
230
1.0
 70
     8
 71
     3
 72
     8
 73
     4
 74
     0
 42
0.000000001
 43
0.00000001
 40
0.0
 40
0.0
 40
0.0
 40
0.0
 40
1.0
 40
1.0
 40
1.0
 40
1.0
 10
125.553201851286
 20
129.0124369324314
 30
0.0
 10
125.5715098905373
 20
129.1307819585259
 30
0.0
 10
125.5893805785185
 20
129.2491644403078
 30
0.0
 10
125.6067916897722
 20
129.3675862812124
 30
0.0
  0
LINE
  5
195
330
1F
100
AcDbEntity
  8
0
  6
Continuous
 62
     7
370
    25
100
AcDbLine
 10
125.6067916898
 20
128.6572875837
 30
0.0
 11
125.6067916898
 21
129.3675862812
 31
0.0
  0
SPLINE
  5
196
330
1F
100
AcDbEntity
  8
0
  6
Continuous
 62
     7
370
    25
100
AcDbSpline
210
0.0
220
0.0
230
1.0
 70
     8
 71
     3
 72
     8
 73
     4
 74
     0
 42
0.000000001
 43
0.00000001
 40
0.0
 40
0.0
 40
0.0
 40
0.0
 40
1.0
 40
1.0
 40
1.0
 40
1.0
 10
125.6067916897722
 20
128.6572875836504
 30
0.0
 10
125.5893766739922
 20
128.7757359812285
 30
0.0
 10
125.5715058539348
 20
128.8941179993455
 30
0.0
 10
125.553201851286
 20
129.0124369324314
 30
0.0
  0
SPLINE
  5
197
330
1F
100
AcDbEntity
  8
0
  6
Continuous
 62
     7
370
    25
100
AcDbSpline
210
0.0
220
0.0
230
1.0
 70
     8
 71
     3
 72
     8
 73
     4
 74
     0
 42
0.000000001
 43
0.00000001
 40
0.0
 40
0.0
 40
0.0
 40
0.0
 40
1.0
 40
1.0
 40
1.0
 40
1.0
 10
125.6603815282584
 20
129.0124369324314
 30
0.0
 10
125.6420734890071
 20
128.8940919063369
 30
0.0
 10
125.6242028010259
 20
128.7757094245549
 30
0.0
 10
125.6067916897722
 20
128.6572875836504
 30
0.0
  0
LINE
  5
198
330
1F
100
AcDbEntity
  8
0
  6
Continuous
 62
     7
370
    25
100
AcDbLine
 10
123.2336096293
 20
118.0124369324
 30
0.0
 11
125.5532018513
 21
118.0124369324
 31
0.0
  0
LINE
  5
199
330
1F
100
AcDbEntity
  8
0
  6
Continuous
 62
     7
370
    25
100
AcDbLine
 10
125.6603815283
 20
118.0124369324
 30
0.0
 11
127.9799737502
 21
118.0124369324
 31
0.0
  0
SPLINE
  5
19A
330
1F
100
AcDbEntity
  8
0
  6
Continuous
 62
     7
370
    25
100
AcDbSpline
210
0.0
220
0.0
230
1.0
 70
     8
 71
     3
 72
     8
 73
     4
 74
     0
 42
0.000000001
 43
0.00000001
 40
0.0
 40
0.0
 40
0.0
 40
0.0
 40
1.0
 40
1.0
 40
1.0
 40
1.0
 10
125.6067916897722
 20
118.3675862812125
 30
0.0
 10
125.6242067055522
 20
118.2491378836343
 30
0.0
 10
125.6420775256096
 20
118.1307558655173
 30
0.0
 10
125.6603815282584
 20
118.0124369324314
 30
0.0
  0
SPLINE
  5
19B
330
1F
100
AcDbEntity
  8
0
  6
Continuous
 62
     7
370
    25
100
AcDbSpline
210
0.0
220
0.0
230
1.0
 70
     8
 71
     3
 72
     8
 73
     4
 74
     0
 42
0.000000001
 43
0.00000001
 40
0.0
 40
0.0
 40
0.0
 40
0.0
 40
1.0
 40
1.0
 40
1.0
 40
1.0
 10
125.553201851286
 20
118.0124369324314
 30
0.0
 10
125.5715098905373
 20
118.1307819585259
 30
0.0
 10
125.5893805785185
 20
118.2491644403079
 30
0.0
 10
125.6067916897722
 20
118.3675862812124
 30
0.0
  0
LINE
  5
19C
330
1F
100
AcDbEntity
  8
0
  6
Continuous
 62
     7
370
    25
100
AcDbLine
 10
110.8031829627
 20
139.3191991597
 30
0.0
 11
110.8031829627
 21
118.7056747052
 31
0.0
  0
LINE
  5
19D
330
1F
100
AcDbEntity
  8
0
  6
Continuous
 62
     7
370
    25
100
AcDbLine
 10
132.6067916898
 20
139.4899369324
 30
0.0
 11
132.6067916898
 21
118.5349369324
 31
0.0
  0
LINE
  5
19E
330
1F
100
AcDbEntity
  8
0
  6
Continuous
 62
     7
370
    25
100
AcDbLine
 10
131.6067916898
 20
119.5349369324
 30
0.0
 11
131.6067916898
 21
138.4899369324
 31
0.0
  0
LINE
  5
19F
330
1F
100
AcDbEntity
  8
0
  6
Continuous
 62
     7
370
    25
100
AcDbLine
 10
108.1067916898
 20
120.2624369324
 30
0.0
 11
108.1067916898
 21
137.7624369324
 31
0.0
  0
SPLINE
  5
1A0
330
1F
100
AcDbEntity
  8
0
  6
Continuous
 62
     7
370
    25
100
AcDbSpline
210
0.0
220
0.0
230
1.0
 70
    24
 71
     3
 72
     8
 73
     4
 74
     0
 42
0.000000001
 43
0.00000001
 40
0.0
 40
0.0
 40
0.0
 40
0.0
 40
1.0
 40
1.0
 40
1.0
 40
1.0
 10
125.6067916897722
 20
118.0124369324314
 30
0.0
 10
125.5893768748626
 20
118.0124369324314
 30
0.0
 10
125.5715060615123
 20
118.0124369324314
 30
0.0
 10
125.553201851286
 20
118.0124369324314
 30
0.0
  0
LINE
  5
1A1
330
1F
100
AcDbEntity
  8
0
  6
Continuous
 62
     7
370
    25
100
AcDbLine
 10
125.6067916898
 20
118.0124369324
 30
0.0
 11
125.6067916898
 21
118.3675862812
 31
0.0
  0
SPLINE
  5
1A2
330
1F
100
AcDbEntity
  8
0
  6
Continuous
 62
     7
370
    25
100
AcDbSpline
210
0.0
220
0.0
230
1.0
 70
    24
 71
     3
 72
     8
 73
     4
 74
     0
 42
0.000000001
 43
0.00000001
 40
0.0
 40
0.0
 40
0.0
 40
0.0
 40
1.0
 40
1.0
 40
1.0
 40
1.0
 10
125.6603815282584
 20
118.0124369324314
 30
0.0
 10
125.6420728967855
 20
118.0124369324314
 30
0.0
 10
125.6242022284736
 20
118.0124369324314
 30
0.0
 10
125.6067916897722
 20
118.0124369324314
 30
0.0
  0
SPLINE
  5
1A3
330
1F
100
AcDbEntity
  8
0
  6
Continuous
 62
     7
370
    25
100
AcDbSpline
210
0.0
220
0.0
230
1.0
 70
    24
 71
     3
 72
     8
 73
     4
 74
     0
 42
0.000000001
 43
0.00000001
 40
0.0
 40
0.0
 40
0.0
 40
0.0
 40
1.0
 40
1.0
 40
1.0
 40
1.0
 10
125.553201851286
 20
140.0124369324314
 30
0.0
 10
125.5715104827589
 20
140.0124369324314
 30
0.0
 10
125.5893811510708
 20
140.0124369324314
 30
0.0
 10
125.6067916897722
 20
140.0124369324314
 30
0.0
  0
LINE
  5
1A4
330
1F
100
AcDbEntity
  8
0
  6
Continuous
 62
     7
370
    25
100
AcDbLine
 10
125.6067916898
 20
139.6572875837
 30
0.0
 11
125.6067916898
 21
140.0124369324
 31
0.0
  0
SPLINE
  5
1A5
330
1F
100
AcDbEntity
  8
0
  6
Continuous
 62
     7
370
    25
100
AcDbSpline
210
0.0
220
0.0
230
1.0
 70
    24
 71
     3
 72
     8
 73
     4
 74
     0
 42
0.000000001
 43
0.00000001
 40
0.0
 40
0.0
 40
0.0
 40
0.0
 40
1.0
 40
1.0
 40
1.0
 40
1.0
 10
125.6067916897722
 20
140.0124369324314
 30
0.0
 10
125.6242065046819
 20
140.0124369324314
 30
0.0
 10
125.6420773180321
 20
140.0124369324314
 30
0.0
 10
125.6603815282584
 20
140.0124369324314
 30
0.0
  0
LINE
  5
1A6
330
1F
100
AcDbEntity
  8
0
  6
Continuous
 62
     8
370
    25
100
AcDbLine
 10
174.6871651873
 20
129.0124369324
 30
0.0
 11
174.6871651873
 21
121.0252979798
 31
0.0
  0
LINE
  5
1A7
330
1F
100
AcDbEntity
  8
0
  6
Continuous
 62
     8
370
    25
100
AcDbLine
 10
174.6871651873
 20
136.999575885
 30
0.0
 11
174.6871651873
 21
129.0124369324
 31
0.0
  0
LINE
  5
1A8
330
1F
100
AcDbEntity
  8
0
  6
Continuous
 62
     8
370
    25
100
AcDbLine
 10
165.6921426753
 20
129.0124369324
 30
0.0
 11
165.6921426753
 21
121.0318435822
 31
0.0
  0
LINE
  5
1A9
330
1F
100
AcDbEntity
  8
0
  6
Continuous
 62
     8
370
    25
100
AcDbLine
 10
165.6921426753
 20
136.9930302826
 30
0.0
 11
165.6921426753
 21
129.0124369324
 31
0.0
  0
LINE
  5
1AA
330
1F
100
AcDbEntity
  8
0
  6
Continuous
 62
     8
370
    25
100
AcDbLine
 10
161.1921426753
 20
129.0124369324
 30
0.0
 11
161.1921426753
 21
121.0318435822
 31
0.0
  0
LINE
  5
1AB
330
1F
100
AcDbEntity
  8
0
  6
Continuous
 62
     8
370
    25
100
AcDbLine
 10
161.1921426753
 20
136.9930302826
 30
0.0
 11
161.1921426753
 21
129.0124369324
 31
0.0
  0
LINE
  5
1AC
330
1F
100
AcDbEntity
  8
0
  6
Continuous
 62
     8
370
    25
100
AcDbLine
 10
170.1921426753
 20
129.0124369324
 30
0.0
 11
170.1921426753
 21
121.0318435822
 31
0.0
  0
LINE
  5
1AD
330
1F
100
AcDbEntity
  8
0
  6
Continuous
 62
     8
370
    25
100
AcDbLine
 10
170.1921426753
 20
136.9930302826
 30
0.0
 11
170.1921426753
 21
129.0124369324
 31
0.0
  0
LINE
  5
1AE
330
1F
100
AcDbEntity
  8
0
  6
Continuous
 62
     7
370
     0
100
AcDbLine
 10
109.1423158085
 20
138.3602970611
 30
0.0
 11
121.6067916898
 21
138.7498119324
 31
0.0
  0
LINE
  5
1AF
330
1F
100
AcDbEntity
  8
0
  6
Continuous
 62
     7
370
     0
100
AcDbLine
 10
109.1423158085
 20
119.6645768037
 30
0.0
 11
121.6067916898
 21
119.2750619324
 31
0.0
  0
LINE
  5
1B0
330
1F
100
AcDbEntity
  8
0
  6
Continuous
 62
     7
370
     0
100
AcDbLine
 10
121.6067916898
 20
118.3680619324
 30
0.0
 11
121.6067916898
 21
139.6568119324
 31
0.0
  0
LINE
  5
1B1
330
1F
100
AcDbEntity
  8
0
  6
CENTERX2
 62
     7
370
    18
100
AcDbLine
 10
137.0757027765
 20
129.0124369324
 30
0.0
 11
105.894971536
 21
129.0124369324
 31
0.0
  0
LINE
  5
1B2
330
1F
100
AcDbEntity
  8
0
  6
CENTERX2
 62
     7
370
    18
100
AcDbLine
 10
183.0757027765
 20
129.0124369324
 30
0.0
 11
137.0757027765
 21
129.0124369324
 31
0.0
  0
ENDSEC
  0
SECTION
  2
OBJECTS
  0
DICTIONARY
  5
C
330
0
100
AcDbDictionary
281
     1
  3
ACAD_GROUP
350
D
  3
ACAD_LAYOUT
350
1A
  3
ACAD_MLINESTYLE
350
17
  3
ACAD_PLOTSETTINGS
350
19
  3
ACAD_PLOTSTYLENAME
350
E
  3
ACAD_SCALELIST
350
47
  0
DICTIONARY
  5
D
102
{ACAD_REACTORS
330
C
102
}
330
C
100
AcDbDictionary
281
     1
  0
DICTIONARY
  5
1A
102
{ACAD_REACTORS
330
C
102
}
330
C
100
AcDbDictionary
281
     1
  3
Layout1
350
1E
  3
Layout2
350
26
  3
Model
350
22
  0
DICTIONARY
  5
17
102
{ACAD_REACTORS
330
C
102
}
330
C
100
AcDbDictionary
281
     1
  3
Standard
350
18
  0
DICTIONARY
  5
19
102
{ACAD_REACTORS
330
C
102
}
330
C
100
AcDbDictionary
281
     1
  0
ACDBDICTIONARYWDFLT
  5
E
102
{ACAD_REACTORS
330
C
102
}
330
C
100
AcDbDictionary
281
     1
  3
Normal
350
F
100
AcDbDictionaryWithDefault
340
F
  0
DICTIONARY
  5
47
102
{ACAD_REACTORS
330
C
102
}
330
C
100
AcDbDictionary
281
     1
  3
A0
350
48
  3
A1
350
49
  3
A2
350
4A
  3
A3
350
4B
  3
A4
350
4C
  3
A5
350
4D
  3
A6
350
4E
  3
A7
350
4F
  3
A8
350
50
  3
A9
350
51
  3
B0
350
52
  3
B1
350
53
  3
B2
350
54
  3
B3
350
55
  3
B4
350
56
  3
B5
350
57
  3
B6
350
58
  3
B7
350
59
  3
B8
350
5A
  3
B9
350
5B
  3
C0
350
5C
  3
C1
350
5D
  3
C2
350
5E
  3
C3
350
5F
  3
C4
350
60
  3
C5
350
61
  3
C6
350
62
  3
C7
350
63
  3
C8
350
64
  3
C9
350
65
  3
D0
350
66
  3
D1
350
67
  3
D2
350
68
  0
LAYOUT
  5
1E
102
{ACAD_REACTORS
330
1A
102
}
330
1A
100
AcDbPlotSettings
  1

  2
none_device
  4

  6

 40
0.0
 41
0.0
 42
0.0
 43
0.0
 44
0.0
 45
0.0
 46
0.0
 47
0.0
 48
0.0
 49
0.0
140
0.0
141
0.0
142
1.0
143
1.0
 70
   688
 72
     1
 73
     0
 74
     5
  7

 75
    16
147
1.0
148
0.0
149
0.0
100
AcDbLayout
  1
Layout1
 70
     1
 71
     1
 10
0.0
 20
0.0
 11
420.0
 21
297.0
 12
0.0
 22
0.0
 32
0.0
 14
1.0000000000E+20
 24
1.0000000000E+20
 34
1.0000000000E+20
 15
-1.0000000000E+20
 25
-1.0000000000E+20
 35
-1.0000000000E+20
146
0.0
 13
0.0
 23
0.0
 33
0.0
 16
1.0
 26
0.0
 36
0.0
 17
0.0
 27
1.0
 37
0.0
 76
     0
330
1B
  0
LAYOUT
  5
26
102
{ACAD_REACTORS
330
1A
102
}
330
1A
100
AcDbPlotSettings
  1

  2
none_device
  4

  6

 40
0.0
 41
0.0
 42
0.0
 43
0.0
 44
0.0
 45
0.0
 46
0.0
 47
0.0
 48
0.0
 49
0.0
140
0.0
141
0.0
142
1.0
143
1.0
 70
   688
 72
     1
 73
     0
 74
     5
  7

 75
    16
147
1.0
148
0.0
149
0.0
100
AcDbLayout
  1
Layout2
 70
     1
 71
     2
 10
0.0
 20
0.0
 11
0.0
 21
0.0
 12
0.0
 22
0.0
 32
0.0
 14
0.0
 24
0.0
 34
0.0
 15
0.0
 25
0.0
 35
0.0
146
0.0
 13
0.0
 23
0.0
 33
0.0
 16
1.0
 26
0.0
 36
0.0
 17
0.0
 27
1.0
 37
0.0
 76
     0
330
23
  0
LAYOUT
  5
22
102
{ACAD_REACTORS
330
1A
102
}
330
1A
100
AcDbPlotSettings
  1

  2
none_device
  4
Letter_(8.50_x_11.00_Inches)
  6

 40
6.35
 41
6.35
 42
6.35000508
 43
6.35000508
 44
215.9
 45
279.4
 46
0.0
 47
0.0
 48
0.0
 49
0.0
140
0.0
141
0.0
142
1.0
143
1.0
 70
  1712
 72
     1
 73
     0
 74
     0
  7

 75
     0
147
1.0
148
0.0
149
0.0
100
AcDbLayout
  1
Model
 70
     1
 71
     0
 10
0.0
 20
0.0
 11
431.8
 21
279.4
 12
0.0
 22
0.0
 32
0.0
 14
0.0
 24
0.0
 34
0.0
 15
431.8
 25
279.4
 35
0.0
146
0.0
 13
0.0
 23
0.0
 33
0.0
 16
1.0
 26
0.0
 36
0.0
 17
0.0
 27
1.0
 37
0.0
 76
     0
330
1F
331
29
  0
MLINESTYLE
  5
18
102
{ACAD_REACTORS
330
17
102
}
330
17
100
AcDbMlineStyle
  2
Standard
 70
     0
  3

 62
   256
 51
90.0
 52
90.0
 71
     2
 49
0.5
 62
   256
  6
BYLAYER
 49
-0.5
 62
   256
  6
BYLAYER
  0
ACDBPLACEHOLDER
  5
F
102
{ACAD_REACTORS
330
E
102
}
330
E
  0
SCALE
  5
48
102
{ACAD_REACTORS
330
47
102
}
330
47
100
AcDbScale
 70
     0
300
1:1
140
1.0
141
1.0
290
     1
  0
SCALE
  5
49
102
{ACAD_REACTORS
330
47
102
}
330
47
100
AcDbScale
 70
     0
300
1:2
140
1.0
141
2.0
290
     0
  0
SCALE
  5
4A
102
{ACAD_REACTORS
330
47
102
}
330
47
100
AcDbScale
 70
     0
300
1:4
140
1.0
141
4.0
290
     0
  0
SCALE
  5
4B
102
{ACAD_REACTORS
330
47
102
}
330
47
100
AcDbScale
 70
     0
300
1:5
140
1.0
141
5.0
290
     0
  0
SCALE
  5
4C
102
{ACAD_REACTORS
330
47
102
}
330
47
100
AcDbScale
 70
     0
300
1:8
140
1.0
141
8.0
290
     0
  0
SCALE
  5
4D
102
{ACAD_REACTORS
330
47
102
}
330
47
100
AcDbScale
 70
     0
300
1:10
140
1.0
141
10.0
290
     0
  0
SCALE
  5
4E
102
{ACAD_REACTORS
330
47
102
}
330
47
100
AcDbScale
 70
     0
300
1:16
140
1.0
141
16.0
290
     0
  0
SCALE
  5
4F
102
{ACAD_REACTORS
330
47
102
}
330
47
100
AcDbScale
 70
     0
300
1:20
140
1.0
141
20.0
290
     0
  0
SCALE
  5
50
102
{ACAD_REACTORS
330
47
102
}
330
47
100
AcDbScale
 70
     0
300
1:30
140
1.0
141
30.0
290
     0
  0
SCALE
  5
51
102
{ACAD_REACTORS
330
47
102
}
330
47
100
AcDbScale
 70
     0
300
1:40
140
1.0
141
40.0
290
     0
  0
SCALE
  5
52
102
{ACAD_REACTORS
330
47
102
}
330
47
100
AcDbScale
 70
     0
300
1:50
140
1.0
141
50.0
290
     0
  0
SCALE
  5
53
102
{ACAD_REACTORS
330
47
102
}
330
47
100
AcDbScale
 70
     0
300
1:100
140
1.0
141
100.0
290
     0
  0
SCALE
  5
54
102
{ACAD_REACTORS
330
47
102
}
330
47
100
AcDbScale
 70
     0
300
2:1
140
2.0
141
1.0
290
     0
  0
SCALE
  5
55
102
{ACAD_REACTORS
330
47
102
}
330
47
100
AcDbScale
 70
     0
300
4:1
140
4.0
141
1.0
290
     0
  0
SCALE
  5
56
102
{ACAD_REACTORS
330
47
102
}
330
47
100
AcDbScale
 70
     0
300
8:1
140
8.0
141
1.0
290
     0
  0
SCALE
  5
57
102
{ACAD_REACTORS
330
47
102
}
330
47
100
AcDbScale
 70
     0
300
10:1
140
10.0
141
1.0
290
     0
  0
SCALE
  5
58
102
{ACAD_REACTORS
330
47
102
}
330
47
100
AcDbScale
 70
     0
300
100:1
140
100.0
141
1.0
290
     0
  0
SCALE
  5
59
102
{ACAD_REACTORS
330
47
102
}
330
47
100
AcDbScale
 70
     0
300
1/128" = 1'-0"
140
0.0078125
141
12.0
290
     0
  0
SCALE
  5
5A
102
{ACAD_REACTORS
330
47
102
}
330
47
100
AcDbScale
 70
     0
300
1/64" = 1'-0"
140
0.015625
141
12.0
290
     0
  0
SCALE
  5
5B
102
{ACAD_REACTORS
330
47
102
}
330
47
100
AcDbScale
 70
     0
300
1/32" = 1'-0"
140
0.03125
141
12.0
290
     0
  0
SCALE
  5
5C
102
{ACAD_REACTORS
330
47
102
}
330
47
100
AcDbScale
 70
     0
300
1/16" = 1'-0"
140
0.0625
141
12.0
290
     0
  0
SCALE
  5
5D
102
{ACAD_REACTORS
330
47
102
}
330
47
100
AcDbScale
 70
     0
300
3/32" = 1'-0"
140
0.09375
141
12.0
290
     0
  0
SCALE
  5
5E
102
{ACAD_REACTORS
330
47
102
}
330
47
100
AcDbScale
 70
     0
300
1/8" = 1'-0"
140
0.125
141
12.0
290
     0
  0
SCALE
  5
5F
102
{ACAD_REACTORS
330
47
102
}
330
47
100
AcDbScale
 70
     0
300
3/16" = 1'-0"
140
0.1875
141
12.0
290
     0
  0
SCALE
  5
60
102
{ACAD_REACTORS
330
47
102
}
330
47
100
AcDbScale
 70
     0
300
1/4" = 1'-0"
140
0.25
141
12.0
290
     0
  0
SCALE
  5
61
102
{ACAD_REACTORS
330
47
102
}
330
47
100
AcDbScale
 70
     0
300
3/8" = 1'-0"
140
0.375
141
12.0
290
     0
  0
SCALE
  5
62
102
{ACAD_REACTORS
330
47
102
}
330
47
100
AcDbScale
 70
     0
300
1/2" = 1'-0"
140
0.5
141
12.0
290
     0
  0
SCALE
  5
63
102
{ACAD_REACTORS
330
47
102
}
330
47
100
AcDbScale
 70
     0
300
3/4" = 1'-0"
140
0.75
141
12.0
290
     0
  0
SCALE
  5
64
102
{ACAD_REACTORS
330
47
102
}
330
47
100
AcDbScale
 70
     0
300
1" = 1'-0"
140
1.0
141
12.0
290
     0
  0
SCALE
  5
65
102
{ACAD_REACTORS
330
47
102
}
330
47
100
AcDbScale
 70
     0
300
1-1/2" = 1'-0"
140
1.5
141
12.0
290
     0
  0
SCALE
  5
66
102
{ACAD_REACTORS
330
47
102
}
330
47
100
AcDbScale
 70
     0
300
3" = 1'-0"
140
3.0
141
12.0
290
     0
  0
SCALE
  5
67
102
{ACAD_REACTORS
330
47
102
}
330
47
100
AcDbScale
 70
     0
300
6" = 1'-0"
140
6.0
141
12.0
290
     0
  0
SCALE
  5
68
102
{ACAD_REACTORS
330
47
102
}
330
47
100
AcDbScale
 70
     0
300
1'-0" = 1'-0"
140
12.0
141
12.0
290
     0
  0
ENDSEC
  0
EOF
