  0
SECTION
  2
HEADER
  9
$ACADVER
  1
AC1015
  9
$ACADMAINTVER
 70
     6
  9
$DWGCODEPAGE
  3
DOS932
  9
$INSBASE
 10
0.0
 20
0.0
 30
0.0
  9
$EXTMIN
 10
0.0
 20
0.0
 30
0.0
  9
$EXTMAX
 10
431.8
 20
279.4
 30
0.0
  9
$LIMMIN
 10
0.0
 20
0.0
  9
$LIMMAX
 10
431.8
 20
279.4
  9
$ORTHOMODE
 70
     0
  9
$REGENMODE
 70
     1
  9
$FILLMODE
 70
     1
  9
$QTEXTMODE
 70
     0
  9
$MIRRTEXT
 70
     1
  9
$LTSCALE
 40
1.0
  9
$ATTMODE
 70
     1
  9
$TEXTSIZE
 40
3.5
  9
$TRACEWID
 40
1.0
  9
$TEXTSTYLE
  7
Standard
  9
$CLAYER
  8
0
  9
$CELTYPE
  6
ByLayer
  9
$CECOLOR
 62
   256
  9
$CELTSCALE
 40
1.0
  9
$DISPSILH
 70
     0
  9
$DIMSCALE
 40
1.0
  9
$DIMASZ
 40
3.302
  9
$DIMEXO
 40
1.0
  9
$DIMDLI
 40
3.75
  9
$DIMRND
 40
0.0
  9
$DIMDLE
 40
0.0
  9
$DIMEXE
 40
1.0
  9
$DIMTP
 40
0.0
  9
$DIMTM
 40
0.0
  9
$DIMTXT
 40
3.5
  9
$DIMCEN
 40
2.5
  9
$DIMTSZ
 40
0.0
  9
$DIMTOL
 70
     0
  9
$DIMLIM
 70
     0
  9
$DIMTIH
 70
     1
  9
$DIMTOH
 70
     1
  9
$DIMSE1
 70
     0
  9
$DIMSE2
 70
     0
  9
$DIMTAD
 70
     1
  9
$DIMZIN
 70
     1
  9
$DIMBLK
  1

  9
$DIMASO
 70
     1
  9
$DIMSHO
 70
     1
  9
$DIMPOST
  1

  9
$DIMAPOST
  1

  9
$DIMALT
 70
     0
  9
$DIMALTD
 70
     3
  9
$DIMALTF
 40
0.0393700787
  9
$DIMLFAC
 40
1.0
  9
$DIMTOFL
 70
     1
  9
$DIMTVP
 40
0.0
  9
$DIMTIX
 70
     0
  9
$DIMSOXD
 70
     0
  9
$DIMSAH
 70
     0
  9
$DIMBLK1
  1

  9
$DIMBLK2
  1

  9
$DIMSTYLE
  2
ISO-25
  9
$DIMCLRD
 70
     0
  9
$DIMCLRE
 70
     0
  9
$DIMCLRT
 70
     0
  9
$DIMTFAC
 40
1.0
  9
$DIMGAP
 40
1.524
  9
$DIMJUST
 70
     0
  9
$DIMSD1
 70
     0
  9
$DIMSD2
 70
     0
  9
$DIMTOLJ
 70
     0
  9
$DIMTZIN
 70
     1
  9
$DIMALTZ
 70
     0
  9
$DIMALTTZ
 70
     0
  9
$DIMUPT
 70
     0
  9
$DIMDEC
 70
     2
  9
$DIMTDEC
 70
     2
  9
$DIMALTU
 70
     2
  9
$DIMALTTD
 70
     3
  9
$DIMTXSTY
  7
Standard
  9
$DIMAUNIT
 70
     0
  9
$DIMADEC
 70
     2
  9
$DIMALTRND
 40
0.0
  9
$DIMAZIN
 70
     0
  9
$DIMDSEP
 70
    44
  9
$DIMATFIT
 70
     3
  9
$DIMFRAC
 70
     0
  9
$DIMLDRBLK
  1

  9
$DIMLUNIT
 70
     2
  9
$DIMLWD
 70
    -2
  9
$DIMLWE
 70
    -2
  9
$DIMTMOVE
 70
     0
  9
$LUNITS
 70
     2
  9
$LUPREC
 70
     2
  9
$SKETCHINC
 40
1.0
  9
$FILLETRAD
 40
10.0
  9
$AUNITS
 70
     0
  9
$AUPREC
 70
     2
  9
$MENU
  1
.
  9
$ELEVATION
 40
0.0
  9
$PELEVATION
 40
0.0
  9
$THICKNESS
 40
0.0
  9
$LIMCHECK
 70
     0
  9
$CHAMFERA
 40
0.0
  9
$CHAMFERB
 40
0.0
  9
$CHAMFERC
 40
0.0
  9
$CHAMFERD
 40
0.0
  9
$SKPOLY
 70
     0
  9
$TDCREATE
 40
2459486.412906782
  9
$TDUCREATE
 40
2459486.037906782
  9
$TDUPDATE
 40
2459486.412907511
  9
$TDUUPDATE
 40
2459486.037907511
  9
$TDINDWG
 40
0.0000000116
  9
$TDUSRTIMER
 40
0.0000000116
  9
$USRTIMER
 70
     1
  9
$ANGBASE
 50
0.0
  9
$ANGDIR
 70
     0
  9
$PDMODE
 70
     0
  9
$PDSIZE
 40
-1.0
  9
$PLINEWID
 40
0.0
  9
$SPLFRAME
 70
     0
  9
$SPLINETYPE
 70
     6
  9
$SPLINESEGS
 70
     8
  9
$HANDSEED
  5
18D
  9
$SURFTAB1
 70
     6
  9
$SURFTAB2
 70
     6
  9
$SURFTYPE
 70
     6
  9
$SURFU
 70
     6
  9
$SURFV
 70
     6
  9
$UCSBASE
  2

  9
$UCSNAME
  2

  9
$UCSORG
 10
0.0
 20
0.0
 30
0.0
  9
$UCSXDIR
 10
1.0
 20
0.0
 30
0.0
  9
$UCSYDIR
 10
0.0
 20
1.0
 30
0.0
  9
$UCSORTHOREF
  2

  9
$UCSORTHOVIEW
 70
     0
  9
$UCSORGTOP
 10
0.0
 20
0.0
 30
0.0
  9
$UCSORGBOTTOM
 10
0.0
 20
0.0
 30
0.0
  9
$UCSORGLEFT
 10
0.0
 20
0.0
 30
0.0
  9
$UCSORGRIGHT
 10
0.0
 20
0.0
 30
0.0
  9
$UCSORGFRONT
 10
0.0
 20
0.0
 30
0.0
  9
$UCSORGBACK
 10
0.0
 20
0.0
 30
0.0
  9
$PUCSBASE
  2

  9
$PUCSNAME
  2

  9
$PUCSORG
 10
0.0
 20
0.0
 30
0.0
  9
$PUCSXDIR
 10
1.0
 20
0.0
 30
0.0
  9
$PUCSYDIR
 10
0.0
 20
1.0
 30
0.0
  9
$PUCSORTHOREF
  2

  9
$PUCSORTHOVIEW
 70
     0
  9
$PUCSORGTOP
 10
0.0
 20
0.0
 30
0.0
  9
$PUCSORGBOTTOM
 10
0.0
 20
0.0
 30
0.0
  9
$PUCSORGLEFT
 10
0.0
 20
0.0
 30
0.0
  9
$PUCSORGRIGHT
 10
0.0
 20
0.0
 30
0.0
  9
$PUCSORGFRONT
 10
0.0
 20
0.0
 30
0.0
  9
$PUCSORGBACK
 10
0.0
 20
0.0
 30
0.0
  9
$USERI1
 70
     0
  9
$USERI2
 70
     0
  9
$USERI3
 70
     0
  9
$USERI4
 70
     0
  9
$USERI5
 70
     0
  9
$USERR1
 40
0.0
  9
$USERR2
 40
0.0
  9
$USERR3
 40
0.0
  9
$USERR4
 40
0.0
  9
$USERR5
 40
0.0
  9
$WORLDVIEW
 70
     1
  9
$SHADEDGE
 70
     3
  9
$SHADEDIF
 70
    70
  9
$TILEMODE
 70
     1
  9
$MAXACTVP
 70
    64
  9
$PINSBASE
 10
0.0
 20
0.0
 30
0.0
  9
$PLIMCHECK
 70
     0
  9
$PEXTMIN
 10
1.0000000000E+20
 20
1.0000000000E+20
 30
1.0000000000E+20
  9
$PEXTMAX
 10
-1.0000000000E+20
 20
-1.0000000000E+20
 30
-1.0000000000E+20
  9
$PLIMMIN
 10
0.0
 20
0.0
  9
$PLIMMAX
 10
420.0
 20
297.0
  9
$UNITMODE
 70
     0
  9
$VISRETAIN
 70
     1
  9
$PLINEGEN
 70
     0
  9
$PSLTSCALE
 70
     1
  9
$TREEDEPTH
 70
  3020
  9
$CMLSTYLE
  2
Standard
  9
$CMLJUST
 70
     0
  9
$CMLSCALE
 40
20.0
  9
$PROXYGRAPHICS
 70
     1
  9
$MEASUREMENT
 70
     1
  9
$CELWEIGHT
370
    -1
  9
$ENDCAPS
280
     0
  9
$JOINSTYLE
280
     0
  9
$LWDISPLAY
290
     1
  9
$INSUNITS
 70
     4
  9
$HYPERLINKBASE
  1

  9
$STYLESHEET
  1

  9
$XEDIT
290
     1
  9
$CEPSNTYPE
380
     0
  9
$PSTYLEMODE
290
     1
  9
$FINGERPRINTGUID
  2
{9E18D803-58A3-474B-89C5-FF048EE5D922}
  9
$VERSIONGUID
  2
{FAEB1C32-E019-11D5-929B-00C0DF256EC4}
  9
$EXTNAMES
290
     1
  9
$PSVPSCALE
 40
0.0
  9
$OLESTARTUP
290
     0
  0
ENDSEC
  0
SECTION
  2
CLASSES
  0
CLASS
  1
ACDBDICTIONARYWDFLT
  2
AcDbDictionaryWithDefault
  3
ObjectDBX Classes
 90
        0
280
     0
281
     0
  0
CLASS
  1
VISUALSTYLE
  2
AcDbVisualStyle
  3
ObjectDBX Classes
 90
     4095
280
     0
281
     0
  0
CLASS
  1
MATERIAL
  2
AcDbMaterial
  3
ObjectDBX Classes
 90
     1153
280
     0
281
     0
  0
CLASS
  1
SCALE
  2
AcDbScale
  3
ObjectDBX Classes
 90
     1153
280
     0
281
     0
  0
CLASS
  1
TABLESTYLE
  2
AcDbTableStyle
  3
ObjectDBX Classes
 90
     4095
280
     0
281
     0
  0
CLASS
  1
MLEADERSTYLE
  2
AcDbMLeaderStyle
  3
ACDB_MLEADERSTYLE_CLASS
 90
     4095
280
     0
281
     0
  0
CLASS
  1
SUN
  2
AcDbSun
  3
SCENEOE
 90
     1153
280
     0
281
     0
  0
CLASS
  1
ACDBPLACEHOLDER
  2
AcDbPlaceHolder
  3
ObjectDBX Classes
 90
        0
280
     0
281
     0
  0
CLASS
  1
LAYOUT
  2
AcDbLayout
  3
ObjectDBX Classes
 90
        0
280
     0
281
     0
  0
ENDSEC
  0
SECTION
  2
TABLES
  0
TABLE
  2
VPORT
  5
8
330
0
100
AcDbSymbolTable
 70
     1
  0
VPORT
  5
29
330
8
100
AcDbSymbolTableRecord
100
AcDbViewportTableRecord
  2
*Active
 70
     0
 10
0.0
 20
0.0
 11
1.0
 21
1.0
 12
215.9
 22
139.7
 13
0.0
 23
0.0
 14
10.0
 24
10.0
 15
10.0
 25
10.0
 16
0.0
 26
0.0
 36
1.0
 17
0.0
 27
0.0
 37
0.0
 40
279.4
 41
1.5454545455
 42
50.0
 43
0.0
 44
0.0
 50
0.0
 51
0.0
 71
     0
 72
  2000
 73
     1
 74
     3
 75
     0
 76
     0
 77
     0
 78
     0
281
     0
 65
     1
110
0.0
120
0.0
130
0.0
111
1.0
121
0.0
131
0.0
112
0.0
122
1.0
132
0.0
 79
     0
146
0.0
  0
ENDTAB
  0
TABLE
  2
LTYPE
  5
5
330
0
100
AcDbSymbolTable
 70
     6
  0
LTYPE
  5
14
330
5
100
AcDbSymbolTableRecord
100
AcDbLinetypeTableRecord
  2
ByBlock
 70
     0
  3

 72
    65
 73
     0
 40
0.0
  0
LTYPE
  5
15
330
5
100
AcDbSymbolTableRecord
100
AcDbLinetypeTableRecord
  2
ByLayer
 70
     0
  3

 72
    65
 73
     0
 40
0.0
  0
LTYPE
  5
16
330
5
100
AcDbSymbolTableRecord
100
AcDbLinetypeTableRecord
  2
Continuous
 70
     0
  3
Solid line
 72
    65
 73
     0
 40
0.0
  0
LTYPE
  5
6E
330
5
100
AcDbSymbolTableRecord
100
AcDbLinetypeTableRecord
  2
HIDDEN
 70
     0
  3
Hidden __ __ __ __ __ __ __ __ __ __ __ __ __ __
 72
    65
 73
     2
 40
1.905
 49
1.27
 74
     0
 49
-0.635
 74
     0
  0
LTYPE
  5
6F
330
5
100
AcDbSymbolTableRecord
100
AcDbLinetypeTableRecord
  2
PHANTOM
 70
     0
  3
Phantom ______  __  __  ______  __  __  ______
 72
    65
 73
     6
 40
12.7
 49
6.35
 74
     0
 49
-1.27
 74
     0
 49
1.27
 74
     0
 49
-1.27
 74
     0
 49
1.27
 74
     0
 49
-1.27
 74
     0
  0
LTYPE
  5
70
330
5
100
AcDbSymbolTableRecord
100
AcDbLinetypeTableRecord
  2
CENTER
 70
     0
  3
Center ____ _ ____ _ ____ _ ____ _ ____ _ ____
 72
    65
 73
     4
 40
10.16
 49
6.35
 74
     0
 49
-1.27
 74
     0
 49
1.27
 74
     0
 49
-1.27
 74
     0
  0
LTYPE
  5
71
330
5
100
AcDbSymbolTableRecord
100
AcDbLinetypeTableRecord
  2
CENTERX2
 70
     0
  3
Center (2x) ________  __  ________  __  _____
 72
    65
 73
     4
 40
20.32
 49
12.7
 74
     0
 49
-2.54
 74
     0
 49
2.54
 74
     0
 49
-2.54
 74
     0
  0
LTYPE
  5
72
330
5
100
AcDbSymbolTableRecord
100
AcDbLinetypeTableRecord
  2
DOT2
 70
     0
  3
Dot (.5x) ........................................
 72
    65
 73
     2
 40
0.635
 49
0.0
 74
     0
 49
-0.635
 74
     0
  0
ENDTAB
  0
TABLE
  2
LAYER
  5
2
330
0
100
AcDbSymbolTable
 70
     1
  0
LAYER
  5
10
330
2
100
AcDbSymbolTableRecord
100
AcDbLayerTableRecord
  2
0
 70
     0
 62
     7
  6
Continuous
370
    -3
390
F
  0
ENDTAB
  0
TABLE
  2
STYLE
  5
3
330
0
100
AcDbSymbolTable
 70
     2
  0
STYLE
  5
11
330
3
100
AcDbSymbolTableRecord
100
AcDbTextStyleTableRecord
  2
Standard
 70
     0
 40
0.0
 41
1.0
 50
0.0
 71
     0
 42
3.5
  3
txt
  4
bigfont
  0
STYLE
  5
73
330
3
100
AcDbSymbolTableRecord
100
AcDbTextStyleTableRecord
  2
SLDTEXTSTYLE0
 70
     0
 40
0.0
 41
0.7
 50
0.0
 71
     0
 42
3.5
  3
TXT
  4
bigfont
  0
ENDTAB
  0
TABLE
  2
VIEW
  5
6
330
0
100
AcDbSymbolTable
 70
     0
  0
ENDTAB
  0
TABLE
  2
UCS
  5
7
330
0
100
AcDbSymbolTable
 70
     0
  0
ENDTAB
  0
TABLE
  2
APPID
  5
9
330
0
100
AcDbSymbolTable
 70
     1
  0
APPID
  5
12
330
9
100
AcDbSymbolTableRecord
100
AcDbRegAppTableRecord
  2
ACAD
 70
     0
  0
ENDTAB
  0
TABLE
  2
DIMSTYLE
  5
A
330
0
100
AcDbSymbolTable
 70
     1
100
AcDbDimStyleTable
  0
DIMSTYLE
105
27
330
A
100
AcDbSymbolTableRecord
100
AcDbDimStyleTableRecord
  2
ISO-25
 70
     0
 41
2.5
 42
0.625
 43
3.75
 44
1.25
 73
     0
 74
     0
 77
     1
 78
     8
140
2.5
141
2.5
143
0.0393700787
147
0.625
171
     3
172
     1
178
     0
271
     2
272
     2
274
     3
278
    44
283
     0
284
     8
340
11
  0
ENDTAB
  0
TABLE
  2
BLOCK_RECORD
  5
1
330
0
100
AcDbSymbolTable
 70
     2
  0
BLOCK_RECORD
  5
1F
330
1
100
AcDbSymbolTableRecord
100
AcDbBlockTableRecord
  2
*Model_Space
340
22
  0
BLOCK_RECORD
  5
1B
330
1
100
AcDbSymbolTableRecord
100
AcDbBlockTableRecord
  2
*Paper_Space
340
1E
  0
BLOCK_RECORD
  5
23
330
1
100
AcDbSymbolTableRecord
100
AcDbBlockTableRecord
  2
*Paper_Space0
340
26
  0
BLOCK_RECORD
  5
113
330
1
100
AcDbSymbolTableRecord
100
AcDbBlockTableRecord
  2
SW_CENTERMARKSYMBOL_0
340
0
102
{BLKREFS
331
11E
102
}
  0
ENDTAB
  0
ENDSEC
  0
SECTION
  2
BLOCKS
  0
BLOCK
  5
20
330
1F
100
AcDbEntity
  8
0
100
AcDbBlockBegin
  2
*Model_Space
 70
     0
 10
0.0
 20
0.0
 30
0.0
  3
*Model_Space
  1

  0
ENDBLK
  5
21
330
1F
100
AcDbEntity
  8
0
100
AcDbBlockEnd
  0
BLOCK
  5
1C
330
1B
100
AcDbEntity
 67
     1
  8
0
100
AcDbBlockBegin
  2
*Paper_Space
 70
     0
 10
0.0
 20
0.0
 30
0.0
  3
*Paper_Space
  1

  0
ENDBLK
  5
1D
330
1B
100
AcDbEntity
 67
     1
  8
0
100
AcDbBlockEnd
  0
BLOCK
  5
24
330
23
100
AcDbEntity
  8
0
100
AcDbBlockBegin
  2
*Paper_Space0
 70
     0
 10
0.0
 20
0.0
 30
0.0
  3
*Paper_Space0
  1

  0
ENDBLK
  5
25
330
23
100
AcDbEntity
  8
0
100
AcDbBlockEnd
  0
BLOCK
  5
114
330
113
100
AcDbEntity
  8
0
100
AcDbBlockBegin
  2
SW_CENTERMARKSYMBOL_0
 70
     0
 10
0.0
 20
0.0
 30
0.0
  3
SW_CENTERMARKSYMBOL_0
  1

  0
LINE
  5
116
330
113
100
AcDbEntity
  8
0
  6
Continuous
 62
     0
370
    18
100
AcDbLine
 10
0.0
 20
0.0
 30
0.0
 11
0.0
 21
2.5
 31
0.0
  0
LINE
  5
117
330
113
100
AcDbEntity
  8
0
  6
Continuous
 62
     0
370
    18
100
AcDbLine
 10
0.0
 20
0.0
 30
0.0
 11
-2.5
 21
0.0
 31
0.0
  0
LINE
  5
118
330
113
100
AcDbEntity
  8
0
  6
Continuous
 62
     0
370
    18
100
AcDbLine
 10
0.0
 20
0.0
 30
0.0
 11
0.0
 21
-2.5
 31
0.0
  0
LINE
  5
119
330
113
100
AcDbEntity
  8
0
  6
Continuous
 62
     0
370
    18
100
AcDbLine
 10
0.0
 20
0.0
 30
0.0
 11
2.5
 21
0.0
 31
0.0
  0
LINE
  5
11A
330
113
100
AcDbEntity
  8
0
  6
Continuous
 62
     0
370
    18
100
AcDbLine
 10
0.0
 20
5.0
 30
0.0
 11
0.0
 21
13.25
 31
0.0
  0
LINE
  5
11B
330
113
100
AcDbEntity
  8
0
  6
Continuous
 62
     0
370
    18
100
AcDbLine
 10
-5.0
 20
0.0
 30
0.0
 11
-13.25
 21
0.0
 31
0.0
  0
LINE
  5
11C
330
113
100
AcDbEntity
  8
0
  6
Continuous
 62
     0
370
    18
100
AcDbLine
 10
0.0
 20
-5.0
 30
0.0
 11
0.0
 21
-13.25
 31
0.0
  0
LINE
  5
11D
330
113
100
AcDbEntity
  8
0
  6
Continuous
 62
     0
370
    18
100
AcDbLine
 10
5.0
 20
0.0
 30
0.0
 11
13.25
 21
0.0
 31
0.0
  0
ENDBLK
  5
115
330
113
100
AcDbEntity
  8
0
100
AcDbBlockEnd
  0
ENDSEC
  0
SECTION
  2
ENTITIES
  0
MTEXT
  5
74
330
1F
100
AcDbEntity
  8
0
  6
Continuous
 62
     7
370
     0
100
AcDbMText
 10
186.4119541651
 20
107.9426270238
 30
0.0
 40
4.2333333333
 41
0.0
 71
     1
 72
     1
  1
HS-1410R
  7
SLDTEXTSTYLE0
 73
     1
 44
1.0
  0
LINE
  5
75
330
1F
100
AcDbEntity
  8
0
  6
Continuous
 62
     7
370
    25
100
AcDbLine
 10
160.303797983
 20
77.287667052
 30
0.0
 11
164.303797983
 21
78.037667052
 31
0.0
  0
LINE
  5
76
330
1F
100
AcDbEntity
  8
0
  6
Continuous
 62
     7
370
    25
100
AcDbLine
 10
164.303797983
 20
87.037667052
 30
0.0
 11
160.303797983
 21
87.787667052
 31
0.0
  0
LINE
  5
77
330
1F
100
AcDbEntity
  8
0
  6
Continuous
 62
     7
370
    25
100
AcDbLine
 10
155.803797983
 20
77.287667052
 30
0.0
 11
160.303797983
 21
77.287667052
 31
0.0
  0
LINE
  5
78
330
1F
100
AcDbEntity
  8
0
  6
Continuous
 62
     7
370
    25
100
AcDbLine
 10
160.303797983
 20
87.787667052
 30
0.0
 11
155.803797983
 21
87.787667052
 31
0.0
  0
LINE
  5
79
330
1F
100
AcDbEntity
  8
0
  6
Continuous
 62
     7
370
    25
100
AcDbLine
 10
164.303797983
 20
77.287667052
 30
0.0
 11
168.303797983
 21
78.037667052
 31
0.0
  0
LINE
  5
7A
330
1F
100
AcDbEntity
  8
0
  6
Continuous
 62
     7
370
    25
100
AcDbLine
 10
168.303797983
 20
87.037667052
 30
0.0
 11
164.303797983
 21
87.787667052
 31
0.0
  0
LINE
  5
7B
330
1F
100
AcDbEntity
  8
0
  6
Continuous
 62
     7
370
    25
100
AcDbLine
 10
168.303797983
 20
77.287667052
 30
0.0
 11
172.303797983
 21
78.037667052
 31
0.0
  0
LINE
  5
7C
330
1F
100
AcDbEntity
  8
0
  6
Continuous
 62
     7
370
    25
100
AcDbLine
 10
172.303797983
 20
87.037667052
 30
0.0
 11
168.303797983
 21
87.787667052
 31
0.0
  0
LINE
  5
7D
330
1F
100
AcDbEntity
  8
0
  6
Continuous
 62
     7
370
    25
100
AcDbLine
 10
176.303797983
 20
77.287667052
 30
0.0
 11
181.8466551259
 21
77.9805241949
 31
0.0
  0
LINE
  5
7E
330
1F
100
AcDbEntity
  8
0
  6
Continuous
 62
     7
370
    25
100
AcDbLine
 10
181.8466551259
 20
87.0948099092
 30
0.0
 11
176.303797983
 21
87.787667052
 31
0.0
  0
LINE
  5
7F
330
1F
100
AcDbEntity
  8
0
  6
Continuous
 62
     7
370
    25
100
AcDbLine
 10
172.303797983
 20
77.287667052
 30
0.0
 11
176.303797983
 21
78.037667052
 31
0.0
  0
LINE
  5
80
330
1F
100
AcDbEntity
  8
0
  6
Continuous
 62
     7
370
    25
100
AcDbLine
 10
176.303797983
 20
87.037667052
 30
0.0
 11
172.303797983
 21
87.787667052
 31
0.0
  0
LINE
  5
81
330
1F
100
AcDbEntity
  8
0
  6
Continuous
 62
     7
370
    25
100
AcDbLine
 10
181.8466551259
 20
77.9805241949
 30
0.0
 11
182.303797983
 21
78.437667052
 31
0.0
  0
LINE
  5
82
330
1F
100
AcDbEntity
  8
0
  6
Continuous
 62
     7
370
    25
100
AcDbLine
 10
182.303797983
 20
86.637667052
 30
0.0
 11
181.8466551259
 21
87.0948099092
 31
0.0
  0
LINE
  5
83
330
1F
100
AcDbEntity
  8
0
  6
Continuous
 62
     7
370
    25
100
AcDbLine
 10
144.7389062994
 20
93.5073221666
 30
0.0
 11
143.803797983
 21
91.887667052
 31
0.0
  0
LINE
  5
84
330
1F
100
AcDbEntity
  8
0
  6
Continuous
 62
     7
370
    25
100
AcDbLine
 10
143.803797983
 20
73.187667052
 30
0.0
 11
144.7389062994
 21
71.5680119374
 31
0.0
  0
LINE
  5
85
330
1F
100
AcDbEntity
  8
0
  6
Continuous
 62
     7
370
    25
100
AcDbLine
 10
152.8686896666
 20
71.5680119374
 30
0.0
 11
153.803797983
 21
73.187667052
 31
0.0
  0
LINE
  5
86
330
1F
100
AcDbEntity
  8
0
  6
Continuous
 62
     7
370
    25
100
AcDbLine
 10
153.803797983
 20
91.887667052
 30
0.0
 11
152.8686896666
 21
93.5073221666
 31
0.0
  0
ARC
  5
87
330
1F
100
AcDbEntity
  8
0
  6
Continuous
 62
     7
370
    25
100
AcDbCircle
 10
142.103797983
 20
73.487667052
 30
0.0
 40
0.2999999999999972
100
AcDbArc
 50
180.0
 51
270.0
  0
ARC
  5
88
330
1F
100
AcDbEntity
  8
0
  6
Continuous
 62
     7
370
    25
100
AcDbCircle
 10
142.103797983
 20
91.587667052
 30
0.0
 40
0.2999999999999972
100
AcDbArc
 50
90.0
 51
180.0
  0
LINE
  5
89
330
1F
100
AcDbEntity
  8
0
  6
Continuous
 62
     7
370
    25
100
AcDbLine
 10
153.803797983
 20
73.187667052
 30
0.0
 11
155.503797983
 21
73.187667052
 31
0.0
  0
LINE
  5
8A
330
1F
100
AcDbEntity
  8
0
  6
Continuous
 62
     7
370
    25
100
AcDbLine
 10
155.503797983
 20
91.887667052
 30
0.0
 11
153.803797983
 21
91.887667052
 31
0.0
  0
ARC
  5
8B
330
1F
100
AcDbEntity
  8
0
  6
Continuous
 62
     7
370
    25
100
AcDbCircle
 10
155.503797983
 20
91.587667052
 30
0.0
 40
0.2999999999999972
100
AcDbArc
 50
0.0
 51
90.0
  0
ARC
  5
8C
330
1F
100
AcDbEntity
  8
0
  6
Continuous
 62
     7
370
    25
100
AcDbCircle
 10
155.503797983
 20
73.487667052
 30
0.0
 40
0.2999999999999972
100
AcDbArc
 50
270.0
 51
0.0
  0
LINE
  5
8D
330
1F
100
AcDbEntity
  8
0
  6
Continuous
 62
     7
370
    25
100
AcDbLine
 10
143.803797983
 20
91.887667052
 30
0.0
 11
142.103797983
 21
91.887667052
 31
0.0
  0
LINE
  5
8E
330
1F
100
AcDbEntity
  8
0
  6
Continuous
 62
     7
370
    25
100
AcDbLine
 10
142.103797983
 20
73.187667052
 30
0.0
 11
143.803797983
 21
73.187667052
 31
0.0
  0
LINE
  5
8F
330
1F
100
AcDbEntity
  8
0
  6
Continuous
 62
     7
370
    25
100
AcDbLine
 10
148.9599680982
 20
93.5073221666
 30
0.0
 11
148.803797983
 21
93.2073221666
 31
0.0
  0
LINE
  5
90
330
1F
100
AcDbEntity
  8
0
  6
Continuous
 62
     7
370
    25
100
AcDbLine
 10
148.803797983
 20
93.2073221666
 30
0.0
 11
148.6476278679
 21
93.5073221666
 31
0.0
  0
LINE
  5
91
330
1F
100
AcDbEntity
  8
0
  6
Continuous
 62
     7
370
    25
100
AcDbLine
 10
148.6476278679
 20
71.5680119374
 30
0.0
 11
148.803797983
 21
71.8680119374
 31
0.0
  0
LINE
  5
92
330
1F
100
AcDbEntity
  8
0
  6
Continuous
 62
     7
370
    25
100
AcDbLine
 10
148.803797983
 20
71.8680119374
 30
0.0
 11
148.9599680982
 21
71.5680119374
 31
0.0
  0
LINE
  5
93
330
1F
100
AcDbEntity
  8
0
  6
Continuous
 62
     7
370
    25
100
AcDbLine
 10
138.9008892797
 20
69.8359611299
 30
0.0
 11
140.0277072193
 21
71.787667052
 31
0.0
  0
LINE
  5
94
330
1F
100
AcDbEntity
  8
0
  6
Continuous
 62
     7
370
    25
100
AcDbLine
 10
140.0277072193
 20
93.287667052
 30
0.0
 11
138.9008892797
 21
95.2393729742
 31
0.0
  0
LINE
  5
95
330
1F
100
AcDbEntity
  8
0
  6
Continuous
 62
     7
370
    25
100
AcDbLine
 10
133.0277072193
 20
93.197667052
 30
0.0
 11
121.7240984922
 21
92.8444292793
 31
0.0
  0
LINE
  5
96
330
1F
100
AcDbEntity
  8
0
  6
Continuous
 62
     7
370
    25
100
AcDbLine
 10
121.7240984922
 20
72.2309048247
 30
0.0
 11
133.0277072193
 21
71.877667052
 31
0.0
  0
LINE
  5
97
330
1F
100
AcDbEntity
  8
0
  6
Continuous
 62
     7
370
    25
100
AcDbLine
 10
121.7240984922
 20
92.8444292793
 30
0.0
 11
119.0277072193
 21
91.287667052
 31
0.0
  0
LINE
  5
98
330
1F
100
AcDbEntity
  8
0
  6
Continuous
 62
     7
370
    25
100
AcDbLine
 10
119.0277072193
 20
73.787667052
 30
0.0
 11
121.7240984922
 21
72.2309048247
 31
0.0
  0
LINE
  5
99
330
1F
100
AcDbEntity
  8
0
  6
Continuous
 62
     7
370
    25
100
AcDbLine
 10
140.0277072193
 20
75.537667052
 30
0.0
 11
141.803797983
 21
75.537667052
 31
0.0
  0
LINE
  5
9A
330
1F
100
AcDbEntity
  8
0
  6
Continuous
 62
     7
370
    25
100
AcDbLine
 10
141.803797983
 20
89.537667052
 30
0.0
 11
140.0277072193
 21
89.537667052
 31
0.0
  0
LINE
  5
9B
330
1F
100
AcDbEntity
  8
0
  6
Continuous
 62
     7
370
    25
100
AcDbLine
 10
135.9642982495
 20
70.1359611299
 30
0.0
 11
136.0446830072
 21
69.8359611299
 31
0.0
  0
LINE
  5
9C
330
1F
100
AcDbEntity
  8
0
  6
Continuous
 62
     7
370
    25
100
AcDbLine
 10
135.8839134918
 20
69.8359611299
 30
0.0
 11
135.9642982495
 21
70.1359611299
 31
0.0
  0
LINE
  5
9D
330
1F
100
AcDbEntity
  8
0
  6
Continuous
 62
     7
370
    25
100
AcDbLine
 10
136.0446830072
 20
95.2393729742
 30
0.0
 11
135.9642982495
 21
94.9393729742
 31
0.0
  0
LINE
  5
9E
330
1F
100
AcDbEntity
  8
0
  6
Continuous
 62
     7
370
    25
100
AcDbLine
 10
135.9642982495
 20
94.9393729742
 30
0.0
 11
135.8839134918
 21
95.2393729742
 31
0.0
  0
LINE
  5
9F
330
1F
100
AcDbEntity
  8
0
  6
Continuous
 62
     7
370
    25
100
AcDbLine
 10
160.303797983
 20
82.537667052
 30
0.0
 11
160.303797983
 21
87.787667052
 31
0.0
  0
LINE
  5
A0
330
1F
100
AcDbEntity
  8
0
  6
Continuous
 62
     7
370
    25
100
AcDbLine
 10
160.303797983
 20
77.287667052
 30
0.0
 11
160.303797983
 21
82.537667052
 31
0.0
  0
LINE
  5
A1
330
1F
100
AcDbEntity
  8
0
  6
Continuous
 62
     7
370
    25
100
AcDbLine
 10
164.303797983
 20
82.537667052
 30
0.0
 11
164.303797983
 21
87.787667052
 31
0.0
  0
LINE
  5
A2
330
1F
100
AcDbEntity
  8
0
  6
Continuous
 62
     7
370
    25
100
AcDbLine
 10
164.303797983
 20
77.287667052
 30
0.0
 11
164.303797983
 21
82.537667052
 31
0.0
  0
LINE
  5
A3
330
1F
100
AcDbEntity
  8
0
  6
Continuous
 62
     7
370
    25
100
AcDbLine
 10
168.303797983
 20
82.537667052
 30
0.0
 11
168.303797983
 21
87.787667052
 31
0.0
  0
LINE
  5
A4
330
1F
100
AcDbEntity
  8
0
  6
Continuous
 62
     7
370
    25
100
AcDbLine
 10
168.303797983
 20
77.287667052
 30
0.0
 11
168.303797983
 21
82.537667052
 31
0.0
  0
LINE
  5
A5
330
1F
100
AcDbEntity
  8
0
  6
Continuous
 62
     7
370
    25
100
AcDbLine
 10
176.303797983
 20
82.537667052
 30
0.0
 11
176.303797983
 21
87.787667052
 31
0.0
  0
LINE
  5
A6
330
1F
100
AcDbEntity
  8
0
  6
Continuous
 62
     7
370
    25
100
AcDbLine
 10
176.303797983
 20
77.287667052
 30
0.0
 11
176.303797983
 21
82.537667052
 31
0.0
  0
LINE
  5
A7
330
1F
100
AcDbEntity
  8
0
  6
Continuous
 62
     7
370
    25
100
AcDbLine
 10
181.8466551259
 20
77.9805241949
 30
0.0
 11
181.8466551259
 21
87.0948099092
 31
0.0
  0
LINE
  5
A8
330
1F
100
AcDbEntity
  8
0
  6
Continuous
 62
     7
370
    25
100
AcDbLine
 10
172.303797983
 20
82.537667052
 30
0.0
 11
172.303797983
 21
87.787667052
 31
0.0
  0
LINE
  5
A9
330
1F
100
AcDbEntity
  8
0
  6
Continuous
 62
     7
370
    25
100
AcDbLine
 10
172.303797983
 20
77.287667052
 30
0.0
 11
172.303797983
 21
82.537667052
 31
0.0
  0
LINE
  5
AA
330
1F
100
AcDbEntity
  8
0
  6
Continuous
 62
     7
370
    25
100
AcDbLine
 10
182.303797983
 20
86.637667052
 30
0.0
 11
182.303797983
 21
78.437667052
 31
0.0
  0
LINE
  5
AB
330
1F
100
AcDbEntity
  8
0
  6
Continuous
 62
     7
370
    25
100
AcDbLine
 10
152.8686896666
 20
93.5073221666
 30
0.0
 11
148.9599680982
 21
93.5073221666
 31
0.0
  0
SPLINE
  5
AC
330
1F
100
AcDbEntity
  8
0
  6
Continuous
 62
     7
370
    25
100
AcDbSpline
210
0.0
220
0.0
230
1.0
 70
     8
 71
     3
 72
    15
 73
    11
 74
     0
 42
0.000000001
 43
0.00000001
 40
0.0
 40
0.0
 40
0.0
 40
0.0
 40
0.1323056949471119
 40
0.2645739819647156
 40
0.3998011884071379
 40
0.5350039926534309
 40
0.6501943985256686
 40
0.7654027729264455
 40
0.8826900467077625
 40
1.0
 40
1.0
 40
1.0
 40
1.0
 10
152.8686896666092
 20
88.02249460932457
 30
0.0
 10
152.9978565270428
 20
88.25946180415613
 30
0.0
 10
153.2561537274503
 20
88.73332919404179
 30
0.0
 10
153.5340712365852
 20
89.46304312001996
 30
0.0
 10
153.7011745661402
 20
90.2065123326769
 30
0.0
 10
153.7342668598332
 20
90.92304876518708
 30
0.0
 10
153.6484062485934
 20
91.60087265574361
 30
0.0
 10
153.4724777951957
 20
92.24056977237136
 30
0.0
 10
153.214411031016
 20
92.8773746065857
 30
0.0
 10
152.9839375483618
 20
93.29732611378029
 30
0.0
 10
152.8686896666092
 20
93.50732216662603
 30
0.0
  0
LINE
  5
AD
330
1F
100
AcDbEntity
  8
0
  6
Continuous
 62
     7
370
    25
100
AcDbLine
 10
152.8686896666
 20
88.0224946093
 30
0.0
 11
148.9599680982
 21
88.0224946093
 31
0.0
  0
LINE
  5
AE
330
1F
100
AcDbEntity
  8
0
  6
Continuous
 62
     7
370
    25
100
AcDbLine
 10
148.803797983
 20
88.3363522189
 30
0.0
 11
148.9599680982
 21
88.0224946093
 31
0.0
  0
LINE
  5
AF
330
1F
100
AcDbEntity
  8
0
  6
Continuous
 62
     7
370
    25
100
AcDbLine
 10
148.6476278679
 20
88.0224946093
 30
0.0
 11
148.803797983
 21
88.3363522189
 31
0.0
  0
LINE
  5
B0
330
1F
100
AcDbEntity
  8
0
  6
Continuous
 62
     7
370
    25
100
AcDbLine
 10
148.6476278679
 20
88.0224946093
 30
0.0
 11
144.7389062994
 21
88.0224946093
 31
0.0
  0
SPLINE
  5
B1
330
1F
100
AcDbEntity
  8
0
  6
Continuous
 62
     7
370
    25
100
AcDbSpline
210
0.0
220
0.0
230
1.0
 70
     8
 71
     3
 72
    15
 73
    11
 74
     0
 42
0.000000001
 43
0.00000001
 40
0.0
 40
0.0
 40
0.0
 40
0.0
 40
0.1323056949471119
 40
0.2645739819647156
 40
0.3998011884071379
 40
0.5350039926534309
 40
0.6501943985256686
 40
0.7654027729264458
 40
0.8826900467077626
 40
1.0
 40
1.0
 40
1.0
 40
1.0
 10
144.7389062994299
 20
88.02249460932457
 30
0.0
 10
144.6097394389963
 20
88.25946180415613
 30
0.0
 10
144.3514422385888
 20
88.73332919404179
 30
0.0
 10
144.0735247294539
 20
89.46304312001998
 30
0.0
 10
143.906421399899
 20
90.2065123326769
 30
0.0
 10
143.8733291062058
 20
90.92304876518708
 30
0.0
 10
143.9591897174457
 20
91.60087265574361
 30
0.0
 10
144.1351181708434
 20
92.24056977237136
 30
0.0
 10
144.3931849350231
 20
92.8773746065857
 30
0.0
 10
144.6236584176773
 20
93.29732611378029
 30
0.0
 10
144.7389062994299
 20
93.50732216662603
 30
0.0
  0
LINE
  5
B2
330
1F
100
AcDbEntity
  8
0
  6
Continuous
 62
     7
370
    25
100
AcDbLine
 10
148.6476278679
 20
93.5073221666
 30
0.0
 11
144.7389062994
 21
93.5073221666
 31
0.0
  0
LINE
  5
B3
330
1F
100
AcDbEntity
  8
0
  6
Continuous
 62
     7
370
    25
100
AcDbLine
 10
148.803797983
 20
93.193464557
 30
0.0
 11
148.6476278679
 21
93.5073221666
 31
0.0
  0
LINE
  5
B4
330
1F
100
AcDbEntity
  8
0
  6
Continuous
 62
     7
370
    25
100
AcDbLine
 10
148.9599680982
 20
93.5073221666
 30
0.0
 11
148.803797983
 21
93.193464557
 31
0.0
  0
LINE
  5
B5
330
1F
100
AcDbEntity
  8
0
  6
Continuous
 62
     7
370
    25
100
AcDbLine
 10
148.803797983
 20
87.3947793901
 30
0.0
 11
148.6476278679
 21
88.0224946093
 31
0.0
  0
LINE
  5
B6
330
1F
100
AcDbEntity
  8
0
  6
Continuous
 62
     7
370
    25
100
AcDbLine
 10
148.803797983
 20
88.3363522189
 30
0.0
 11
148.803797983
 21
87.3947793901
 31
0.0
  0
SPLINE
  5
B7
330
1F
100
AcDbEntity
  8
0
  6
Continuous
 62
     7
370
    25
100
AcDbSpline
210
0.0
220
0.0
230
1.0
 70
     8
 71
     3
 72
    16
 73
    12
 74
     0
 42
0.000000001
 43
0.00000001
 40
0.0
 40
0.0
 40
0.0
 40
0.0
 40
0.1187721435844975
 40
0.2441491713813143
 40
0.3694941462363441
 40
0.4979334251312961
 40
0.6263722645127591
 40
0.7192884549559206
 40
0.8122141015734952
 40
0.9061025727606724
 40
1.0
 40
1.0
 40
1.0
 40
1.0
 10
144.7389062994299
 20
77.05283949472168
 30
0.0
 10
144.6222564572022
 20
77.47809733342301
 30
0.0
 10
144.3824699090931
 20
78.35226147502135
 30
0.0
 10
144.1143478321449
 20
79.69862816830982
 30
0.0
 10
143.9331336248553
 20
81.0955854978886
 30
0.0
 10
143.8705849239329
 20
82.51479601361044
 30
0.0
 10
143.9244566037119
 20
83.81370330330066
 30
0.0
 10
144.0581779632353
 20
84.97324348586896
 30
0.0
 10
144.2343503973667
 20
85.9969287321946
 30
0.0
 10
144.4595076121285
 20
87.01480246130183
 30
0.0
 10
144.6457704425252
 20
87.68658654687555
 30
0.0
 10
144.7389062994299
 20
88.02249460932457
 30
0.0
  0
SPLINE
  5
B8
330
1F
100
AcDbEntity
  8
0
  6
Continuous
 62
     7
370
    25
100
AcDbSpline
210
0.0
220
0.0
230
1.0
 70
     8
 71
     3
 72
    15
 73
    11
 74
     0
 42
0.000000001
 43
0.00000001
 40
0.0
 40
0.0
 40
0.0
 40
0.0
 40
0.1323056949471119
 40
0.2645739819647155
 40
0.3998011884071376
 40
0.5350039926534307
 40
0.6501943985256685
 40
0.7654027729264455
 40
0.8826900467077625
 40
1.0
 40
1.0
 40
1.0
 40
1.0
 10
144.7389062994299
 20
71.56801193742024
 30
0.0
 10
144.6097394389963
 20
71.8049791322518
 30
0.0
 10
144.3514422385888
 20
72.27884652213746
 30
0.0
 10
144.0735247294539
 20
73.00856044811565
 30
0.0
 10
143.9064213998989
 20
73.75202966077256
 30
0.0
 10
143.8733291062058
 20
74.46856609328275
 30
0.0
 10
143.9591897174457
 20
75.14638998383927
 30
0.0
 10
144.1351181708434
 20
75.78608710046703
 30
0.0
 10
144.3931849350231
 20
76.42289193468137
 30
0.0
 10
144.6236584176773
 20
76.84284344187594
 30
0.0
 10
144.7389062994299
 20
77.05283949472168
 30
0.0
  0
LINE
  5
B9
330
1F
100
AcDbEntity
  8
0
  6
Continuous
 62
     7
370
    25
100
AcDbLine
 10
143.803797983
 20
73.187667052
 30
0.0
 11
143.803797983
 21
91.887667052
 31
0.0
  0
SPLINE
  5
BA
330
1F
100
AcDbEntity
  8
0
  6
Continuous
 62
     7
370
    25
100
AcDbSpline
210
0.0
220
0.0
230
1.0
 70
     8
 71
     3
 72
    16
 73
    12
 74
     0
 42
0.000000001
 43
0.00000001
 40
0.0
 40
0.0
 40
0.0
 40
0.0
 40
0.1187721435844975
 40
0.2441491713813143
 40
0.3694941462363441
 40
0.4979334251312962
 40
0.6263722645127592
 40
0.7192884549559208
 40
0.8122141015734953
 40
0.9061025727606726
 40
1.0
 40
1.0
 40
1.0
 40
1.0
 10
152.8686896666092
 20
77.05283949472168
 30
0.0
 10
152.9853395088369
 20
77.47809733342301
 30
0.0
 10
153.2251260569459
 20
78.35226147502135
 30
0.0
 10
153.4932481338942
 20
79.69862816830982
 30
0.0
 10
153.6744623411837
 20
81.0955854978886
 30
0.0
 10
153.7370110421062
 20
82.51479601361044
 30
0.0
 10
153.6831393623272
 20
83.81370330330066
 30
0.0
 10
153.5494180028037
 20
84.97324348586896
 30
0.0
 10
153.3732455686724
 20
85.9969287321946
 30
0.0
 10
153.1480883539106
 20
87.01480246130183
 30
0.0
 10
152.9618255235139
 20
87.68658654687555
 30
0.0
 10
152.8686896666092
 20
88.02249460932457
 30
0.0
  0
LINE
  5
BB
330
1F
100
AcDbEntity
  8
0
  6
Continuous
 62
     7
370
    25
100
AcDbLine
 10
152.8686896666
 20
77.0528394947
 30
0.0
 11
148.9599680982
 21
77.0528394947
 31
0.0
  0
LINE
  5
BC
330
1F
100
AcDbEntity
  8
0
  6
Continuous
 62
     7
370
    25
100
AcDbLine
 10
148.803797983
 20
77.680554714
 30
0.0
 11
148.9599680982
 21
77.0528394947
 31
0.0
  0
LINE
  5
BD
330
1F
100
AcDbEntity
  8
0
  6
Continuous
 62
     7
370
    25
100
AcDbLine
 10
148.6476278679
 20
77.0528394947
 30
0.0
 11
148.803797983
 21
77.680554714
 31
0.0
  0
LINE
  5
BE
330
1F
100
AcDbEntity
  8
0
  6
Continuous
 62
     7
370
    25
100
AcDbLine
 10
148.6476278679
 20
77.0528394947
 30
0.0
 11
144.7389062994
 21
77.0528394947
 31
0.0
  0
LINE
  5
BF
330
1F
100
AcDbEntity
  8
0
  6
Continuous
 62
     7
370
    25
100
AcDbLine
 10
148.9599680982
 20
88.0224946093
 30
0.0
 11
148.803797983
 21
87.3947793901
 31
0.0
  0
SPLINE
  5
C0
330
1F
100
AcDbEntity
  8
0
  6
Continuous
 62
     7
370
    25
100
AcDbSpline
210
0.0
220
0.0
230
1.0
 70
     8
 71
     3
 72
    15
 73
    11
 74
     0
 42
0.000000001
 43
0.00000001
 40
0.0
 40
0.0
 40
0.0
 40
0.0
 40
0.1323056949471119
 40
0.2645739819647156
 40
0.3998011884071376
 40
0.5350039926534307
 40
0.6501943985256685
 40
0.7654027729264457
 40
0.8826900467077625
 40
1.0
 40
1.0
 40
1.0
 40
1.0
 10
152.8686896666092
 20
71.56801193742024
 30
0.0
 10
152.9978565270428
 20
71.80497913225182
 30
0.0
 10
153.2561537274503
 20
72.27884652213746
 30
0.0
 10
153.5340712365852
 20
73.00856044811563
 30
0.0
 10
153.7011745661401
 20
73.75202966077256
 30
0.0
 10
153.7342668598332
 20
74.46856609328273
 30
0.0
 10
153.6484062485934
 20
75.14638998383927
 30
0.0
 10
153.4724777951957
 20
75.78608710046703
 30
0.0
 10
153.214411031016
 20
76.42289193468137
 30
0.0
 10
152.9839375483618
 20
76.84284344187594
 30
0.0
 10
152.8686896666092
 20
77.05283949472168
 30
0.0
  0
LINE
  5
C1
330
1F
100
AcDbEntity
  8
0
  6
Continuous
 62
     7
370
    25
100
AcDbLine
 10
153.803797983
 20
73.187667052
 30
0.0
 11
153.803797983
 21
91.887667052
 31
0.0
  0
LINE
  5
C2
330
1F
100
AcDbEntity
  8
0
  6
Continuous
 62
     7
370
    25
100
AcDbLine
 10
148.803797983
 20
76.7389818851
 30
0.0
 11
148.6476278679
 21
77.0528394947
 31
0.0
  0
LINE
  5
C3
330
1F
100
AcDbEntity
  8
0
  6
Continuous
 62
     7
370
    25
100
AcDbLine
 10
148.803797983
 20
77.680554714
 30
0.0
 11
148.803797983
 21
76.7389818851
 31
0.0
  0
LINE
  5
C4
330
1F
100
AcDbEntity
  8
0
  6
Continuous
 62
     7
370
    25
100
AcDbLine
 10
148.9599680982
 20
77.0528394947
 30
0.0
 11
148.803797983
 21
76.7389818851
 31
0.0
  0
LINE
  5
C5
330
1F
100
AcDbEntity
  8
0
  6
Continuous
 62
     7
370
    25
100
AcDbLine
 10
152.8686896666
 20
71.5680119374
 30
0.0
 11
148.9599680982
 21
71.5680119374
 31
0.0
  0
LINE
  5
C6
330
1F
100
AcDbEntity
  8
0
  6
Continuous
 62
     7
370
    25
100
AcDbLine
 10
148.803797983
 20
71.881869547
 30
0.0
 11
148.9599680982
 21
71.5680119374
 31
0.0
  0
LINE
  5
C7
330
1F
100
AcDbEntity
  8
0
  6
Continuous
 62
     7
370
    25
100
AcDbLine
 10
148.6476278679
 20
71.5680119374
 30
0.0
 11
148.803797983
 21
71.881869547
 31
0.0
  0
LINE
  5
C8
330
1F
100
AcDbEntity
  8
0
  6
Continuous
 62
     7
370
    25
100
AcDbLine
 10
148.6476278679
 20
71.5680119374
 30
0.0
 11
144.7389062994
 21
71.5680119374
 31
0.0
  0
LINE
  5
C9
330
1F
100
AcDbEntity
  8
0
  6
Continuous
 62
     7
370
    25
100
AcDbLine
 10
141.803797983
 20
82.537667052
 30
0.0
 11
141.803797983
 21
91.587667052
 31
0.0
  0
LINE
  5
CA
330
1F
100
AcDbEntity
  8
0
  6
Continuous
 62
     7
370
    25
100
AcDbLine
 10
141.803797983
 20
73.487667052
 30
0.0
 11
141.803797983
 21
82.537667052
 31
0.0
  0
LINE
  5
CB
330
1F
100
AcDbEntity
  8
0
  6
Continuous
 62
     7
370
    25
100
AcDbLine
 10
155.803797983
 20
91.587667052
 30
0.0
 11
155.803797983
 21
73.487667052
 31
0.0
  0
LINE
  5
CC
330
1F
100
AcDbEntity
  8
0
  6
Continuous
 62
     7
370
    25
100
AcDbLine
 10
148.803797983
 20
93.2073221666
 30
0.0
 11
148.803797983
 21
93.193464557
 31
0.0
  0
LINE
  5
CD
330
1F
100
AcDbEntity
  8
0
  6
Continuous
 62
     7
370
    25
100
AcDbLine
 10
148.803797983
 20
71.881869547
 30
0.0
 11
148.803797983
 21
71.8680119374
 31
0.0
  0
SPLINE
  5
CE
330
1F
100
AcDbEntity
  8
0
  6
Continuous
 62
     7
370
    25
100
AcDbSpline
210
0.0
220
0.0
230
1.0
 70
     8
 71
     3
 72
     8
 73
     4
 74
     0
 42
0.000000001
 43
0.00000001
 40
0.0
 40
0.0
 40
0.0
 40
0.0
 40
1.0
 40
1.0
 40
1.0
 40
1.0
 10
135.8839134917908
 20
76.18681409093736
 30
0.0
 10
135.9117465453467
 20
76.39456283093816
 30
0.0
 10
135.938567533117
 20
76.60240147741115
 30
0.0
 10
135.9642982495201
 20
76.81033697771896
 30
0.0
  0
LINE
  5
CF
330
1F
100
AcDbEntity
  8
0
  6
Continuous
 62
     7
370
    25
100
AcDbLine
 10
135.9642982495
 20
75.8750526475
 30
0.0
 11
135.9642982495
 21
76.8103369777
 31
0.0
  0
SPLINE
  5
D0
330
1F
100
AcDbEntity
  8
0
  6
Continuous
 62
     7
370
    25
100
AcDbSpline
210
0.0
220
0.0
230
1.0
 70
     8
 71
     3
 72
     8
 73
     4
 74
     0
 42
0.000000001
 43
0.00000001
 40
0.0
 40
0.0
 40
0.0
 40
0.0
 40
1.0
 40
1.0
 40
1.0
 40
1.0
 10
135.9642982495201
 20
75.87505264754655
 30
0.0
 10
135.9385572996868
 20
75.97906174698491
 30
0.0
 10
135.9117357554259
 20
76.08297998946954
 30
0.0
 10
135.8839134917908
 20
76.18681409093736
 30
0.0
  0
SPLINE
  5
D1
330
1F
100
AcDbEntity
  8
0
  6
Continuous
 62
     7
370
    25
100
AcDbSpline
210
0.0
220
0.0
230
1.0
 70
     8
 71
     3
 72
     8
 73
     4
 74
     0
 42
0.000000001
 43
0.00000001
 40
0.0
 40
0.0
 40
0.0
 40
0.0
 40
1.0
 40
1.0
 40
1.0
 40
1.0
 10
135.9642982495201
 20
76.81033697771896
 30
0.0
 10
135.9900387400897
 20
76.60232249025175
 30
0.0
 10
136.0168602597392
 20
76.3944859055666
 30
0.0
 10
136.0446830072495
 20
76.18681409093736
 30
0.0
  0
SPLINE
  5
D2
330
1F
100
AcDbEntity
  8
0
  6
Continuous
 62
     7
370
    25
100
AcDbSpline
210
0.0
220
0.0
230
1.0
 70
     8
 71
     3
 72
     8
 73
     4
 74
     0
 42
0.000000001
 43
0.00000001
 40
0.0
 40
0.0
 40
0.0
 40
0.0
 40
1.0
 40
1.0
 40
1.0
 40
1.0
 10
136.0446830072495
 20
76.18681409093736
 30
0.0
 10
136.0168513341924
 20
76.08294487302861
 30
0.0
 10
135.9900302743263
 20
75.97902568444486
 30
0.0
 10
135.9642982495201
 20
75.87505264754655
 30
0.0
  0
SPLINE
  5
D3
330
1F
100
AcDbEntity
  8
0
  6
Continuous
 62
     7
370
    25
100
AcDbSpline
210
0.0
220
0.0
230
1.0
 70
     8
 71
     3
 72
     8
 73
     4
 74
     0
 42
0.000000001
 43
0.00000001
 40
0.0
 40
0.0
 40
0.0
 40
0.0
 40
1.0
 40
1.0
 40
1.0
 40
1.0
 10
135.9642982495201
 20
88.26499712632756
 30
0.0
 10
135.9385577589505
 20
88.47301161379477
 30
0.0
 10
135.9117362393011
 20
88.68084819847994
 30
0.0
 10
135.8839134917908
 20
88.88852001310917
 30
0.0
  0
SPLINE
  5
D4
330
1F
100
AcDbEntity
  8
0
  6
Continuous
 62
     7
370
    25
100
AcDbSpline
210
0.0
220
0.0
230
1.0
 70
     8
 71
     3
 72
     8
 73
     4
 74
     0
 42
0.000000001
 43
0.00000001
 40
0.0
 40
0.0
 40
0.0
 40
0.0
 40
1.0
 40
1.0
 40
1.0
 40
1.0
 10
135.8839134917908
 20
88.88852001310917
 30
0.0
 10
135.9117451648479
 20
88.99238923101792
 30
0.0
 10
135.938566224714
 20
89.09630841960166
 30
0.0
 10
135.9642982495201
 20
89.20028145649997
 30
0.0
  0
LINE
  5
D5
330
1F
100
AcDbEntity
  8
0
  6
Continuous
 62
     7
370
    25
100
AcDbLine
 10
135.9642982495
 20
88.2649971263
 30
0.0
 11
135.9642982495
 21
89.2002814565
 31
0.0
  0
SPLINE
  5
D6
330
1F
100
AcDbEntity
  8
0
  6
Continuous
 62
     7
370
    25
100
AcDbSpline
210
0.0
220
0.0
230
1.0
 70
     8
 71
     3
 72
     8
 73
     4
 74
     0
 42
0.000000001
 43
0.00000001
 40
0.0
 40
0.0
 40
0.0
 40
0.0
 40
1.0
 40
1.0
 40
1.0
 40
1.0
 10
136.0446830072495
 20
88.88852001310917
 30
0.0
 10
136.0168499536936
 20
88.68077127310838
 30
0.0
 10
135.9900289659233
 20
88.47293262663536
 30
0.0
 10
135.9642982495201
 20
88.26499712632756
 30
0.0
  0
SPLINE
  5
D7
330
1F
100
AcDbEntity
  8
0
  6
Continuous
 62
     7
370
    25
100
AcDbSpline
210
0.0
220
0.0
230
1.0
 70
     8
 71
     3
 72
     8
 73
     4
 74
     0
 42
0.000000001
 43
0.00000001
 40
0.0
 40
0.0
 40
0.0
 40
0.0
 40
1.0
 40
1.0
 40
1.0
 40
1.0
 10
135.9642982495201
 20
89.20028145649997
 30
0.0
 10
135.9900391993534
 20
89.09627235706161
 30
0.0
 10
136.0168607436144
 20
88.992354114577
 30
0.0
 10
136.0446830072495
 20
88.88852001310917
 30
0.0
  0
SPLINE
  5
D8
330
1F
100
AcDbEntity
  8
0
  6
Continuous
 62
     7
370
    25
100
AcDbSpline
210
0.0
220
0.0
230
1.0
 70
     8
 71
     3
 72
    16
 73
    12
 74
     0
 42
0.000000001
 43
0.00000001
 40
0.0
 40
0.0
 40
0.0
 40
0.0
 40
0.2499999999999998
 40
0.2499999999999998
 40
0.4999999999999996
 40
0.4999999999999996
 40
0.6249999999999997
 40
0.6249999999999997
 40
0.7499999999999998
 40
0.7499999999999998
 40
1.0
 40
1.0
 40
1.0
 40
1.0
 10
138.900889279748
 20
76.18681409093739
 30
0.0
 10
139.200237837931
 20
75.66832717899189
 30
0.0
 10
139.4469552647926
 20
75.14606010867524
 30
0.0
 10
139.7887389971489
 20
74.09063383554287
 30
0.0
 10
139.8826779055339
 20
73.55739365898567
 30
0.0
 10
139.8837097270134
 20
72.74748695462853
 30
0.0
 10
139.860745320157
 20
72.47624759958643
 30
0.0
 10
139.7711961938714
 20
71.93970757411716
 30
0.0
 10
139.7047023598039
 20
71.67323637996621
 30
0.0
 10
139.4479390629901
 20
70.87856695108135
 30
0.0
 10
139.2006110039697
 20
70.3550943843357
 30
0.0
 10
138.9008892797479
 20
69.83596112985136
 30
0.0
  0
SPLINE
  5
D9
330
1F
100
AcDbEntity
  8
0
  6
Continuous
 62
     7
370
    25
100
AcDbSpline
210
0.0
220
0.0
230
1.0
 70
     8
 71
     3
 72
    16
 73
    12
 74
     0
 42
0.000000001
 43
0.00000001
 40
0.0
 40
0.0
 40
0.0
 40
0.0
 40
0.2500000000000001
 40
0.2500000000000001
 40
0.5000000000000001
 40
0.5000000000000001
 40
0.6250000000000001
 40
0.6250000000000001
 40
0.7500000000000002
 40
0.7500000000000002
 40
1.0
 40
1.0
 40
1.0
 40
1.0
 10
138.9008892797477
 20
76.18681409093735
 30
0.0
 10
139.1993078440178
 20
77.22056632141235
 30
0.0
 10
139.4493717639546
 20
78.27866926958443
 30
0.0
 10
139.7912208103392
 20
80.39914521052836
 30
0.0
 10
139.8834884182732
 20
81.46573204163137
 30
0.0
 10
139.8833100937868
 20
83.07679787101208
 30
0.0
 10
139.8604239237664
 20
83.61566229318348
 30
0.0
 10
139.7695308917695
 20
84.69703309302201
 30
0.0
 10
139.7022158325427
 20
85.23209726606973
 30
0.0
 10
139.4440248821025
 20
86.8219197778599
 30
0.0
 10
139.197263143457
 20
87.86185083314925
 30
0.0
 10
138.9008892797477
 20
88.88852001310917
 30
0.0
  0
SPLINE
  5
DA
330
1F
100
AcDbEntity
  8
0
  6
Continuous
 62
     7
370
    25
100
AcDbSpline
210
0.0
220
0.0
230
1.0
 70
     8
 71
     3
 72
    16
 73
    12
 74
     0
 42
0.000000001
 43
0.00000001
 40
0.0
 40
0.0
 40
0.0
 40
0.0
 40
0.2499999999999997
 40
0.2499999999999997
 40
0.4999999999999994
 40
0.4999999999999994
 40
0.6249999999999996
 40
0.6249999999999996
 40
0.7499999999999996
 40
0.7499999999999996
 40
1.0
 40
1.0
 40
1.0
 40
1.0
 10
138.900889279748
 20
95.23937297419495
 30
0.0
 10
139.200237837931
 20
94.72088606224948
 30
0.0
 10
139.4469552647926
 20
94.19861899193285
 30
0.0
 10
139.7887389971489
 20
93.14319271880052
 30
0.0
 10
139.8826779055339
 20
92.60995254224333
 30
0.0
 10
139.8837097270134
 20
91.80004583788623
 30
0.0
 10
139.860745320157
 20
91.52880648284413
 30
0.0
 10
139.7711961938714
 20
90.9922664573749
 30
0.0
 10
139.7047023598039
 20
90.72579526322394
 30
0.0
 10
139.4479390629901
 20
89.93112583433911
 30
0.0
 10
139.2006110039697
 20
89.40765326759346
 30
0.0
 10
138.9008892797479
 20
88.88852001310916
 30
0.0
  0
LINE
  5
DB
330
1F
100
AcDbEntity
  8
0
  6
Continuous
 62
     7
370
    25
100
AcDbLine
 10
140.0277072193
 20
93.287667052
 30
0.0
 11
140.0277072193
 21
71.787667052
 31
0.0
  0
LINE
  5
DC
330
1F
100
AcDbEntity
  8
0
  6
Continuous
 62
     7
370
    25
100
AcDbLine
 10
133.0277072193
 20
69.8359611299
 30
0.0
 11
135.8839134918
 21
69.8359611299
 31
0.0
  0
LINE
  5
DD
330
1F
100
AcDbEntity
  8
0
  6
Continuous
 62
     7
370
    25
100
AcDbLine
 10
133.0277072193
 20
69.8359611299
 30
0.0
 11
133.0277072193
 21
76.1868140909
 31
0.0
  0
LINE
  5
DE
330
1F
100
AcDbEntity
  8
0
  6
Continuous
 62
     7
370
    25
100
AcDbLine
 10
133.0277072193
 20
76.1868140909
 30
0.0
 11
135.8839134918
 21
76.1868140909
 31
0.0
  0
LINE
  5
DF
330
1F
100
AcDbEntity
  8
0
  6
Continuous
 62
     7
370
    25
100
AcDbLine
 10
136.0446830072
 20
76.1868140909
 30
0.0
 11
138.9008892797
 21
76.1868140909
 31
0.0
  0
LINE
  5
E0
330
1F
100
AcDbEntity
  8
0
  6
Continuous
 62
     7
370
    25
100
AcDbLine
 10
136.0446830072
 20
69.8359611299
 30
0.0
 11
138.9008892797
 21
69.8359611299
 31
0.0
  0
SPLINE
  5
E1
330
1F
100
AcDbEntity
  8
0
  6
Continuous
 62
     7
370
    25
100
AcDbSpline
210
0.0
220
0.0
230
1.0
 70
     8
 71
     3
 72
     8
 73
     4
 74
     0
 42
0.000000001
 43
0.00000001
 40
0.0
 40
0.0
 40
0.0
 40
0.0
 40
1.0
 40
1.0
 40
1.0
 40
1.0
 10
135.9642982495201
 20
70.14772257324218
 30
0.0
 10
135.9900391993534
 20
70.04371347380382
 30
0.0
 10
136.0168607436144
 20
69.9397952313192
 30
0.0
 10
136.0446830072495
 20
69.83596112985137
 30
0.0
  0
SPLINE
  5
E2
330
1F
100
AcDbEntity
  8
0
  6
Continuous
 62
     7
370
    25
100
AcDbSpline
210
0.0
220
0.0
230
1.0
 70
     8
 71
     3
 72
     8
 73
     4
 74
     0
 42
0.000000001
 43
0.00000001
 40
0.0
 40
0.0
 40
0.0
 40
0.0
 40
1.0
 40
1.0
 40
1.0
 40
1.0
 10
135.8839134917908
 20
69.83596112985137
 30
0.0
 10
135.9117451648479
 20
69.93983034776012
 30
0.0
 10
135.938566224714
 20
70.04374953634387
 30
0.0
 10
135.9642982495201
 20
70.14772257324218
 30
0.0
  0
LINE
  5
E3
330
1F
100
AcDbEntity
  8
0
  6
Continuous
 62
     7
370
    25
100
AcDbLine
 10
133.0277072193
 20
88.8885200131
 30
0.0
 11
135.8839134918
 21
88.8885200131
 31
0.0
  0
LINE
  5
E4
330
1F
100
AcDbEntity
  8
0
  6
Continuous
 62
     7
370
    25
100
AcDbLine
 10
136.0446830072
 20
88.8885200131
 30
0.0
 11
138.9008892797
 21
88.8885200131
 31
0.0
  0
LINE
  5
E5
330
1F
100
AcDbEntity
  8
0
  6
Continuous
 62
     7
370
    25
100
AcDbLine
 10
133.0277072193
 20
76.1868140909
 30
0.0
 11
133.0277072193
 21
88.8885200131
 31
0.0
  0
LINE
  5
E6
330
1F
100
AcDbEntity
  8
0
  6
Continuous
 62
     7
370
    25
100
AcDbLine
 10
133.0277072193
 20
95.2393729742
 30
0.0
 11
135.8839134918
 21
95.2393729742
 31
0.0
  0
SPLINE
  5
E7
330
1F
100
AcDbEntity
  8
0
  6
Continuous
 62
     7
370
    25
100
AcDbSpline
210
0.0
220
0.0
230
1.0
 70
     8
 71
     3
 72
     8
 73
     4
 74
     0
 42
0.000000001
 43
0.00000001
 40
0.0
 40
0.0
 40
0.0
 40
0.0
 40
1.0
 40
1.0
 40
1.0
 40
1.0
 10
135.9642982495201
 20
94.92761153080411
 30
0.0
 10
135.9385572996868
 20
95.03162063024247
 30
0.0
 10
135.9117357554259
 20
95.1355388727271
 30
0.0
 10
135.8839134917908
 20
95.23937297419492
 30
0.0
  0
SPLINE
  5
E8
330
1F
100
AcDbEntity
  8
0
  6
Continuous
 62
     7
370
    25
100
AcDbSpline
210
0.0
220
0.0
230
1.0
 70
     8
 71
     3
 72
     8
 73
     4
 74
     0
 42
0.000000001
 43
0.00000001
 40
0.0
 40
0.0
 40
0.0
 40
0.0
 40
1.0
 40
1.0
 40
1.0
 40
1.0
 10
136.0446830072495
 20
95.23937297419492
 30
0.0
 10
136.0168513341924
 20
95.13550375628617
 30
0.0
 10
135.9900302743263
 20
95.03158456770242
 30
0.0
 10
135.9642982495201
 20
94.92761153080411
 30
0.0
  0
LINE
  5
E9
330
1F
100
AcDbEntity
  8
0
  6
Continuous
 62
     7
370
    25
100
AcDbLine
 10
136.0446830072
 20
95.2393729742
 30
0.0
 11
138.9008892797
 21
95.2393729742
 31
0.0
  0
LINE
  5
EA
330
1F
100
AcDbEntity
  8
0
  6
Continuous
 62
     7
370
    25
100
AcDbLine
 10
133.0277072193
 20
88.8885200131
 30
0.0
 11
133.0277072193
 21
95.2393729742
 31
0.0
  0
LINE
  5
EB
330
1F
100
AcDbEntity
  8
0
  6
Continuous
 62
     7
370
    25
100
AcDbLine
 10
121.7240984922
 20
92.8444292793
 30
0.0
 11
121.7240984922
 21
72.2309048247
 31
0.0
  0
LINE
  5
EC
330
1F
100
AcDbEntity
  8
0
  6
Continuous
 62
     7
370
    25
100
AcDbLine
 10
119.0277072193
 20
82.537667052
 30
0.0
 11
119.0277072193
 21
91.287667052
 31
0.0
  0
LINE
  5
ED
330
1F
100
AcDbEntity
  8
0
  6
Continuous
 62
     7
370
    25
100
AcDbLine
 10
119.0277072193
 20
73.787667052
 30
0.0
 11
119.0277072193
 21
82.537667052
 31
0.0
  0
LINE
  5
EE
330
1F
100
AcDbEntity
  8
0
  6
Continuous
 62
     7
370
    25
100
AcDbLine
 10
135.9642982495
 20
70.1359611299
 30
0.0
 11
135.9642982495
 21
70.1477225732
 31
0.0
  0
LINE
  5
EF
330
1F
100
AcDbEntity
  8
0
  6
Continuous
 62
     7
370
    25
100
AcDbLine
 10
135.9642982495
 20
94.9276115308
 30
0.0
 11
135.9642982495
 21
94.9393729742
 31
0.0
  0
LINE
  5
F0
330
1F
100
AcDbEntity
  8
0
  6
Continuous
 62
     8
370
    25
100
AcDbLine
 10
142.103797983
 20
82.537667052
 30
0.0
 11
142.103797983
 21
73.187667052
 31
0.0
  0
LINE
  5
F1
330
1F
100
AcDbEntity
  8
0
  6
Continuous
 62
     8
370
    25
100
AcDbLine
 10
142.103797983
 20
91.887667052
 30
0.0
 11
142.103797983
 21
82.537667052
 31
0.0
  0
LINE
  5
F2
330
1F
100
AcDbEntity
  8
0
  6
Continuous
 62
     8
370
    25
100
AcDbLine
 10
155.503797983
 20
73.187667052
 30
0.0
 11
155.503797983
 21
91.887667052
 31
0.0
  0
LINE
  5
F3
330
1F
100
AcDbEntity
  8
0
  6
Continuous
 62
     7
370
     0
100
AcDbLine
 10
119.9089332502
 20
91.7964431382
 30
0.0
 11
132.5277072193
 21
92.1907798247
 31
0.0
  0
LINE
  5
F4
330
1F
100
AcDbEntity
  8
0
  6
Continuous
 62
     7
370
     0
100
AcDbLine
 10
119.9089332502
 20
73.2788909658
 30
0.0
 11
132.5277072193
 21
72.8845542793
 31
0.0
  0
LINE
  5
F5
330
1F
100
AcDbEntity
  8
0
  6
Continuous
 62
     7
370
     0
100
AcDbLine
 10
132.5277072193
 20
71.893292052
 30
0.0
 11
132.5277072193
 21
93.182042052
 31
0.0
  0
LINE
  5
F6
330
1F
100
AcDbEntity
  8
0
  6
CENTERX2
 62
     7
370
    18
100
AcDbLine
 10
184.203797983
 20
82.537667052
 30
0.0
 11
116.9433960401
 21
82.537667052
 31
0.0
  0
CIRCLE
  5
F7
330
1F
100
AcDbEntity
  8
0
  6
Continuous
 62
     7
370
    25
100
AcDbCircle
 10
214.9909331451
 20
82.537667052
 30
0.0
 40
3.599999999999994
  0
CIRCLE
  5
F8
330
1F
100
AcDbEntity
  8
0
  6
Continuous
 62
     7
370
    25
100
AcDbCircle
 10
214.9909331451
 20
82.537667052
 30
0.0
 40
3.499999999999972
  0
CIRCLE
  5
F9
330
1F
100
AcDbEntity
  8
0
  6
Continuous
 62
     7
370
    25
100
AcDbCircle
 10
214.9909331451
 20
82.537667052
 30
0.0
 40
4.557142857142821
  0
CIRCLE
  5
FA
330
1F
100
AcDbEntity
  8
0
  6
Continuous
 62
     7
370
    25
100
AcDbCircle
 10
214.9909331451
 20
82.537667052
 30
0.0
 40
4.099999999999994
  0
CIRCLE
  5
FB
330
1F
100
AcDbEntity
  8
0
  6
Continuous
 62
     7
370
    25
100
AcDbCircle
 10
214.9909331451
 20
82.537667052
 30
0.0
 40
5.25
  0
CIRCLE
  5
FC
330
1F
100
AcDbEntity
  8
0
  6
Continuous
 62
     7
370
    25
100
AcDbCircle
 10
214.9909331451
 20
82.537667052
 30
0.0
 40
9.049999999999955
  0
CIRCLE
  5
FD
330
1F
100
AcDbEntity
  8
0
  6
Continuous
 62
     7
370
    25
100
AcDbCircle
 10
214.9909331451
 20
82.537667052
 30
0.0
 40
5.599999999999994
  0
CIRCLE
  5
FE
330
1F
100
AcDbEntity
  8
0
  6
Continuous
 62
     7
370
    25
100
AcDbCircle
 10
214.9909331451
 20
82.537667052
 30
0.0
 40
9.349999999999994
  0
CIRCLE
  5
FF
330
1F
100
AcDbEntity
  8
0
  6
Continuous
 62
     7
370
    25
100
AcDbCircle
 10
214.9909331451
 20
82.537667052
 30
0.0
 40
5.499999999999972
  0
SPLINE
  5
100
330
1F
100
AcDbEntity
  8
0
  6
Continuous
 62
     7
370
    25
100
AcDbSpline
210
0.0
220
0.0
230
1.0
 70
    24
 71
     3
 72
    15
 73
    11
 74
     0
 42
0.000000001
 43
0.00000001
 40
0.0
 40
0.0
 40
0.0
 40
0.0
 40
0.1323056949471119
 40
0.2645739819647157
 40
0.3998011884071379
 40
0.535003992653431
 40
0.6501943985256687
 40
0.7654027729264458
 40
0.8826900467077626
 40
1.0
 40
1.0
 40
1.0
 40
1.0
 10
205.4909331451031
 20
88.02249460932457
 30
0.0
 10
205.9013723662784
 20
88.25946180415613
 30
0.0
 10
206.7221347616104
 20
88.73332919404179
 30
0.0
 10
207.9860363563952
 20
89.46304312001996
 30
0.0
 10
209.2737628065802
 20
90.2065123326769
 30
0.0
 10
210.514840313162
 20
90.92304876518708
 30
0.0
 10
211.6888657301899
 20
91.60087265574361
 30
0.0
 10
212.7968536376445
 20
92.24056977237137
 30
0.0
 10
213.8998319650092
 20
92.8773746065857
 30
0.0
 10
214.6272093121854
 20
93.29732611378029
 30
0.0
 10
214.9909331451031
 20
93.50732216662603
 30
0.0
  0
SPLINE
  5
101
330
1F
100
AcDbEntity
  8
0
  6
Continuous
 62
     7
370
    25
100
AcDbSpline
210
0.0
220
0.0
230
1.0
 70
    24
 71
     3
 72
    15
 73
    11
 74
     0
 42
0.000000001
 43
0.00000001
 40
0.0
 40
0.0
 40
0.0
 40
0.0
 40
0.1323056949471118
 40
0.2645739819647153
 40
0.3998011884071372
 40
0.5350039926534302
 40
0.6501943985256681
 40
0.7654027729264453
 40
0.8826900467077624
 40
1.0
 40
1.0
 40
1.0
 40
1.0
 10
214.9909331451031
 20
93.50732216662603
 30
0.0
 10
215.4013723662784
 20
93.27035497179446
 30
0.0
 10
216.2221347616104
 20
92.7964875819088
 30
0.0
 10
217.4860363563951
 20
92.06677365593063
 30
0.0
 10
218.7737628065802
 20
91.3233044432737
 30
0.0
 10
220.014840313162
 20
90.60676801076353
 30
0.0
 10
221.1888657301899
 20
89.92894412020699
 30
0.0
 10
222.2968536376445
 20
89.28924700357923
 30
0.0
 10
223.3998319650092
 20
88.65244216936487
 30
0.0
 10
224.1272093121854
 20
88.23249066217032
 30
0.0
 10
224.4909331451031
 20
88.02249460932457
 30
0.0
  0
SPLINE
  5
102
330
1F
100
AcDbEntity
  8
0
  6
Continuous
 62
     7
370
    25
100
AcDbSpline
210
0.0
220
0.0
230
1.0
 70
    24
 71
     3
 72
    16
 73
    12
 74
     0
 42
0.000000001
 43
0.00000001
 40
0.0
 40
0.0
 40
0.0
 40
0.0
 40
0.0929885214947443
 40
0.1859684433169224
 40
0.2798026993360917
 40
0.3736271140500715
 40
0.4988494963801859
 40
0.6240716520771021
 40
0.7526321570051048
 40
0.8812279891506409
 40
1.0
 40
1.0
 40
1.0
 40
1.0
 10
224.4909331451031
 20
88.02249460932457
 30
0.0
 10
224.4909331451031
 20
87.68984784516331
 30
0.0
 10
224.4909331451031
 20
87.02458508035019
 30
0.0
 10
224.4909331451031
 20
86.01017224533965
 30
0.0
 10
224.4909331451031
 20
84.98329306333143
 30
0.0
 10
224.4909331451031
 20
83.82893732019419
 30
0.0
 10
224.4909331451031
 20
82.55069295580799
 30
0.0
 10
224.4909331451031
 20
81.14332388105122
 30
0.0
 10
224.4909331451031
 20
79.73389386108936
 30
0.0
 10
224.4909331451031
 20
78.36379135705454
 30
0.0
 10
224.4909331451031
 20
77.47809882440454
 30
0.0
 10
224.4909331451031
 20
77.0528394947217
 30
0.0
  0
SPLINE
  5
103
330
1F
100
AcDbEntity
  8
0
  6
Continuous
 62
     7
370
    25
100
AcDbSpline
210
0.0
220
0.0
230
1.0
 70
    24
 71
     3
 72
    15
 73
    11
 74
     0
 42
0.000000001
 43
0.00000001
 40
0.0
 40
0.0
 40
0.0
 40
0.0
 40
0.1323056949471119
 40
0.2645739819647158
 40
0.3998011884071378
 40
0.5350039926534308
 40
0.6501943985256685
 40
0.7654027729264457
 40
0.8826900467077626
 40
1.0
 40
1.0
 40
1.0
 40
1.0
 10
224.4909331451031
 20
77.0528394947217
 30
0.0
 10
224.0804939239277
 20
76.81587229989012
 30
0.0
 10
223.2597315285958
 20
76.34200491000448
 30
0.0
 10
221.995829933811
 20
75.61229098402629
 30
0.0
 10
220.708103483626
 20
74.86882177136937
 30
0.0
 10
219.4670259770442
 20
74.15228533885919
 30
0.0
 10
218.2930005600163
 20
73.47446144830266
 30
0.0
 10
217.1850126525617
 20
72.83476433167489
 30
0.0
 10
216.0820343251969
 20
72.19795949746054
 30
0.0
 10
215.3546569780208
 20
71.77800799026598
 30
0.0
 10
214.9909331451031
 20
71.56801193742024
 30
0.0
  0
SPLINE
  5
104
330
1F
100
AcDbEntity
  8
0
  6
Continuous
 62
     7
370
    25
100
AcDbSpline
210
0.0
220
0.0
230
1.0
 70
    24
 71
     3
 72
    15
 73
    11
 74
     0
 42
0.000000001
 43
0.00000001
 40
0.0
 40
0.0
 40
0.0
 40
0.0
 40
0.1323056949471119
 40
0.2645739819647157
 40
0.3998011884071377
 40
0.5350039926534308
 40
0.6501943985256685
 40
0.7654027729264455
 40
0.8826900467077625
 40
1.0
 40
1.0
 40
1.0
 40
1.0
 10
214.9909331451031
 20
71.56801193742024
 30
0.0
 10
214.5804939239277
 20
71.80497913225182
 30
0.0
 10
213.7597315285958
 20
72.27884652213747
 30
0.0
 10
212.495829933811
 20
73.00856044811563
 30
0.0
 10
211.208103483626
 20
73.75202966077258
 30
0.0
 10
209.9670259770442
 20
74.46856609328275
 30
0.0
 10
208.7930005600163
 20
75.14638998383928
 30
0.0
 10
207.6850126525617
 20
75.78608710046703
 30
0.0
 10
206.582034325197
 20
76.42289193468137
 30
0.0
 10
205.8546569780208
 20
76.84284344187594
 30
0.0
 10
205.4909331451031
 20
77.05283949472168
 30
0.0
  0
SPLINE
  5
105
330
1F
100
AcDbEntity
  8
0
  6
Continuous
 62
     7
370
    25
100
AcDbSpline
210
0.0
220
0.0
230
1.0
 70
    24
 71
     3
 72
    16
 73
    12
 74
     0
 42
0.000000001
 43
0.00000001
 40
0.0
 40
0.0
 40
0.0
 40
0.0
 40
0.1187721435844975
 40
0.2441491713813144
 40
0.3694941462363442
 40
0.4979334251312963
 40
0.6263722645127593
 40
0.7192884549559209
 40
0.8122141015734954
 40
0.9061025727606725
 40
1.0
 40
1.0
 40
1.0
 40
1.0
 10
205.4909331451031
 20
77.05283949472168
 30
0.0
 10
205.4909331451031
 20
77.47809733342301
 30
0.0
 10
205.4909331451031
 20
78.35226147502135
 30
0.0
 10
205.4909331451031
 20
79.69862816830982
 30
0.0
 10
205.4909331451031
 20
81.0955854978886
 30
0.0
 10
205.4909331451031
 20
82.51479601361044
 30
0.0
 10
205.4909331451031
 20
83.81370330330066
 30
0.0
 10
205.4909331451031
 20
84.97324348586896
 30
0.0
 10
205.4909331451031
 20
85.9969287321946
 30
0.0
 10
205.4909331451031
 20
87.01480246130183
 30
0.0
 10
205.4909331451031
 20
87.68658654687555
 30
0.0
 10
205.4909331451031
 20
88.02249460932457
 30
0.0
  0
SPLINE
  5
106
330
1F
100
AcDbEntity
  8
0
  6
Continuous
 62
     7
370
    25
100
AcDbSpline
210
0.0
220
0.0
230
1.0
 70
    24
 71
     3
 72
    16
 73
    12
 74
     0
 42
0.000000001
 43
0.00000001
 40
0.0
 40
0.0
 40
0.0
 40
0.0
 40
0.2499999999999999
 40
0.2499999999999999
 40
0.4999999999999999
 40
0.4999999999999999
 40
0.6249999999999999
 40
0.6249999999999999
 40
0.75
 40
0.75
 40
1.0
 40
1.0
 40
1.0
 40
1.0
 10
225.9909331451031
 20
88.88852001310899
 30
0.0
 10
225.0928874705541
 20
89.40700692505447
 30
0.0
 10
224.1882943696455
 20
89.9292739953711
 30
0.0
 10
222.3602424409372
 20
90.98470026850347
 30
0.0
 10
221.4366433625031
 20
91.51794044506066
 30
0.0
 10
220.0338438011659
 20
92.3278471494178
 30
0.0
 10
219.5640434572208
 20
92.59908650445989
 30
0.0
 10
218.6347288728138
 20
93.13562652992916
 30
0.0
 10
218.1731872257907
 20
93.40209772408011
 30
0.0
 10
216.7967793997405
 20
94.19676715296495
 30
0.0
 10
215.8900983177685
 20
94.7202397197106
 30
0.0
 10
214.9909331451031
 20
95.23937297419494
 30
0.0
  0
SPLINE
  5
107
330
1F
100
AcDbEntity
  8
0
  6
Continuous
 62
     7
370
    25
100
AcDbSpline
210
0.0
220
0.0
230
1.0
 70
    24
 71
     3
 72
    16
 73
    12
 74
     0
 42
0.000000001
 43
0.00000001
 40
0.0
 40
0.0
 40
0.0
 40
0.0
 40
0.2500000000000001
 40
0.2500000000000001
 40
0.5000000000000002
 40
0.5000000000000002
 40
0.6250000000000002
 40
0.6250000000000002
 40
0.7500000000000002
 40
0.7500000000000002
 40
1.0
 40
1.0
 40
1.0
 40
1.0
 10
225.990933145103
 20
76.18681409093719
 30
0.0
 10
225.990933145103
 20
77.22056632141219
 30
0.0
 10
225.9909331451031
 20
78.27866926958428
 30
0.0
 10
225.9909331451031
 20
80.39914521052822
 30
0.0
 10
225.9909331451031
 20
81.46573204163121
 30
0.0
 10
225.9909331451031
 20
83.07679787101192
 30
0.0
 10
225.9909331451031
 20
83.6156622931833
 30
0.0
 10
225.9909331451031
 20
84.69703309302186
 30
0.0
 10
225.9909331451031
 20
85.23209726606957
 30
0.0
 10
225.9909331451031
 20
86.82191977785975
 30
0.0
 10
225.9909331451031
 20
87.86185083314909
 30
0.0
 10
225.9909331451031
 20
88.88852001310902
 30
0.0
  0
SPLINE
  5
108
330
1F
100
AcDbEntity
  8
0
  6
Continuous
 62
     7
370
    25
100
AcDbSpline
210
0.0
220
0.0
230
1.0
 70
    24
 71
     3
 72
    16
 73
    12
 74
     0
 42
0.000000001
 43
0.00000001
 40
0.0
 40
0.0
 40
0.0
 40
0.0
 40
0.2500000000000001
 40
0.2500000000000001
 40
0.5000000000000002
 40
0.5000000000000002
 40
0.6250000000000001
 40
0.6250000000000001
 40
0.7500000000000001
 40
0.7500000000000001
 40
1.0
 40
1.0
 40
1.0
 40
1.0
 10
214.990933145103
 20
69.83596112985134
 30
0.0
 10
215.888978819652
 20
70.35444804179681
 30
0.0
 10
216.7935719205606
 20
70.87671511211344
 30
0.0
 10
218.6216238492689
 20
71.9321413852458
 30
0.0
 10
219.545222927703
 20
72.46538156180299
 30
0.0
 10
220.9480224890402
 20
73.27528826616012
 30
0.0
 10
221.4178228329853
 20
73.5465276212022
 30
0.0
 10
222.3471374173924
 20
74.08306764667145
 30
0.0
 10
222.8086790644154
 20
74.3495388408224
 30
0.0
 10
224.1850868904656
 20
75.14420826970724
 30
0.0
 10
225.0917679724376
 20
75.66768083645289
 30
0.0
 10
225.9909331451031
 20
76.18681409093722
 30
0.0
  0
SPLINE
  5
109
330
1F
100
AcDbEntity
  8
0
  6
Continuous
 62
     7
370
    25
100
AcDbSpline
210
0.0
220
0.0
230
1.0
 70
    24
 71
     3
 72
    16
 73
    12
 74
     0
 42
0.000000001
 43
0.00000001
 40
0.0
 40
0.0
 40
0.0
 40
0.0
 40
0.2499999999999998
 40
0.2499999999999998
 40
0.4999999999999996
 40
0.4999999999999996
 40
0.6249999999999997
 40
0.6249999999999997
 40
0.7499999999999998
 40
0.7499999999999998
 40
1.0
 40
1.0
 40
1.0
 40
1.0
 10
203.990933145103
 20
76.18681409093739
 30
0.0
 10
204.888978819652
 20
75.66832717899189
 30
0.0
 10
205.7935719205606
 20
75.14606010867524
 30
0.0
 10
207.6216238492689
 20
74.09063383554287
 30
0.0
 10
208.545222927703
 20
73.55739365898567
 30
0.0
 10
209.9480224890401
 20
72.74748695462853
 30
0.0
 10
210.4178228329853
 20
72.47624759958643
 30
0.0
 10
211.3471374173923
 20
71.93970757411716
 30
0.0
 10
211.8086790644153
 20
71.67323637996621
 30
0.0
 10
213.1850868904656
 20
70.87856695108135
 30
0.0
 10
214.0917679724376
 20
70.3550943843357
 30
0.0
 10
214.990933145103
 20
69.83596112985136
 30
0.0
  0
SPLINE
  5
10A
330
1F
100
AcDbEntity
  8
0
  6
Continuous
 62
     7
370
    25
100
AcDbSpline
210
0.0
220
0.0
230
1.0
 70
    24
 71
     3
 72
    16
 73
    12
 74
     0
 42
0.000000001
 43
0.00000001
 40
0.0
 40
0.0
 40
0.0
 40
0.0
 40
0.2500000000000001
 40
0.2500000000000001
 40
0.5000000000000001
 40
0.5000000000000001
 40
0.6250000000000001
 40
0.6250000000000001
 40
0.7500000000000002
 40
0.7500000000000002
 40
1.0
 40
1.0
 40
1.0
 40
1.0
 10
203.990933145103
 20
76.18681409093735
 30
0.0
 10
203.990933145103
 20
77.22056632141235
 30
0.0
 10
203.990933145103
 20
78.27866926958443
 30
0.0
 10
203.990933145103
 20
80.39914521052836
 30
0.0
 10
203.990933145103
 20
81.46573204163137
 30
0.0
 10
203.9909331451031
 20
83.07679787101208
 30
0.0
 10
203.9909331451031
 20
83.61566229318348
 30
0.0
 10
203.9909331451031
 20
84.69703309302201
 30
0.0
 10
203.9909331451031
 20
85.23209726606973
 30
0.0
 10
203.9909331451031
 20
86.8219197778599
 30
0.0
 10
203.9909331451031
 20
87.86185083314925
 30
0.0
 10
203.9909331451031
 20
88.88852001310917
 30
0.0
  0
SPLINE
  5
10B
330
1F
100
AcDbEntity
  8
0
  6
Continuous
 62
     7
370
    25
100
AcDbSpline
210
0.0
220
0.0
230
1.0
 70
    24
 71
     3
 72
    16
 73
    12
 74
     0
 42
0.000000001
 43
0.00000001
 40
0.0
 40
0.0
 40
0.0
 40
0.0
 40
0.2499999999999997
 40
0.2499999999999997
 40
0.4999999999999994
 40
0.4999999999999994
 40
0.6249999999999996
 40
0.6249999999999996
 40
0.7499999999999996
 40
0.7499999999999996
 40
1.0
 40
1.0
 40
1.0
 40
1.0
 10
214.9909331451031
 20
95.23937297419495
 30
0.0
 10
214.092887470554
 20
94.72088606224948
 30
0.0
 10
213.1882943696455
 20
94.19861899193285
 30
0.0
 10
211.3602424409372
 20
93.14319271880052
 30
0.0
 10
210.4366433625031
 20
92.60995254224333
 30
0.0
 10
209.033843801166
 20
91.80004583788623
 30
0.0
 10
208.5640434572209
 20
91.52880648284413
 30
0.0
 10
207.6347288728138
 20
90.9922664573749
 30
0.0
 10
207.1731872257908
 20
90.72579526322394
 30
0.0
 10
205.7967793997405
 20
89.93112583433911
 30
0.0
 10
204.8900983177685
 20
89.40765326759346
 30
0.0
 10
203.9909331451031
 20
88.88852001310916
 30
0.0
  0
ARC
  5
10C
330
1F
100
AcDbEntity
  8
0
  6
Continuous
 62
     7
370
    25
100
AcDbCircle
 10
214.9909331451
 20
82.537667052
 30
0.0
 40
10.75
100
AcDbArc
 50
0.0
 51
27.6631178506
  0
ARC
  5
10D
330
1F
100
AcDbEntity
  8
0
  6
Continuous
 62
     7
370
    25
100
AcDbCircle
 10
214.9909331451
 20
82.537667052
 30
0.0
 40
10.75
100
AcDbArc
 50
32.2361979484
 51
87.6839753585
  0
ARC
  5
10E
330
1F
100
AcDbEntity
  8
0
  6
Continuous
 62
     7
370
    25
100
AcDbCircle
 10
214.9909331451
 20
82.537667052
 30
0.0
 40
10.75000000000003
100
AcDbArc
 50
92.1632865683
 51
147.8027053018
  0
ARC
  5
10F
330
1F
100
AcDbEntity
  8
0
  6
Continuous
 62
     7
370
    25
100
AcDbCircle
 10
214.9909331451
 20
82.537667052
 30
0.0
 40
10.75000000000004
100
AcDbArc
 50
152.2993397227
 51
207.8013353375
  0
ARC
  5
110
330
1F
100
AcDbEntity
  8
0
  6
Continuous
 62
     7
370
    25
100
AcDbCircle
 10
214.9909331451
 20
82.537667052
 30
0.0
 40
10.75000000000001
100
AcDbArc
 50
212.3416018724
 51
267.6727359663
  0
ARC
  5
111
330
1F
100
AcDbEntity
  8
0
  6
Continuous
 62
     7
370
    25
100
AcDbCircle
 10
214.9909331451
 20
82.537667052
 30
0.0
 40
10.74999999999998
100
AcDbArc
 50
272.2675902962
 51
327.6712369135
  0
ARC
  5
112
330
1F
100
AcDbEntity
  8
0
  6
Continuous
 62
     7
370
    25
100
AcDbCircle
 10
214.9909331451
 20
82.537667052
 30
0.0
 40
10.74999999999998
100
AcDbArc
 50
332.1262049421
 51
0.0
  0
INSERT
  5
11E
330
1F
100
AcDbEntity
  8
0
  6
Continuous
 62
     7
370
    18
100
AcDbBlockReference
  2
SW_CENTERMARKSYMBOL_0
 10
214.9909331451
 20
82.537667052
 30
0.0
  0
LINE
  5
11F
330
1F
100
AcDbEntity
  8
0
  6
Continuous
 62
     7
370
    25
100
AcDbLine
 10
155.803797983
 20
119.5442052412
 30
0.0
 11
160.303797983
 21
119.5442052412
 31
0.0
  0
LINE
  5
120
330
1F
100
AcDbEntity
  8
0
  6
Continuous
 62
     7
370
    25
100
AcDbLine
 10
160.303797983
 20
130.0442052412
 30
0.0
 11
155.803797983
 21
130.0442052412
 31
0.0
  0
LINE
  5
121
330
1F
100
AcDbEntity
  8
0
  6
Continuous
 62
     7
370
    25
100
AcDbLine
 10
160.303797983
 20
119.5442052412
 30
0.0
 11
164.303797983
 21
120.2942052412
 31
0.0
  0
LINE
  5
122
330
1F
100
AcDbEntity
  8
0
  6
Continuous
 62
     7
370
    25
100
AcDbLine
 10
164.303797983
 20
129.2942052412
 30
0.0
 11
160.303797983
 21
130.0442052412
 31
0.0
  0
LINE
  5
123
330
1F
100
AcDbEntity
  8
0
  6
Continuous
 62
     7
370
    25
100
AcDbLine
 10
164.303797983
 20
119.5442052412
 30
0.0
 11
168.303797983
 21
120.2942052412
 31
0.0
  0
LINE
  5
124
330
1F
100
AcDbEntity
  8
0
  6
Continuous
 62
     7
370
    25
100
AcDbLine
 10
168.303797983
 20
129.2942052412
 30
0.0
 11
164.303797983
 21
130.0442052412
 31
0.0
  0
LINE
  5
125
330
1F
100
AcDbEntity
  8
0
  6
Continuous
 62
     7
370
    25
100
AcDbLine
 10
168.303797983
 20
119.5442052412
 30
0.0
 11
172.303797983
 21
120.2942052412
 31
0.0
  0
LINE
  5
126
330
1F
100
AcDbEntity
  8
0
  6
Continuous
 62
     7
370
    25
100
AcDbLine
 10
172.303797983
 20
129.2942052412
 30
0.0
 11
168.303797983
 21
130.0442052412
 31
0.0
  0
LINE
  5
127
330
1F
100
AcDbEntity
  8
0
  6
Continuous
 62
     7
370
    25
100
AcDbLine
 10
176.303797983
 20
119.5442052412
 30
0.0
 11
181.8466551259
 21
120.237062384
 31
0.0
  0
LINE
  5
128
330
1F
100
AcDbEntity
  8
0
  6
Continuous
 62
     7
370
    25
100
AcDbLine
 10
181.8466551259
 20
129.3513480983
 30
0.0
 11
176.303797983
 21
130.0442052412
 31
0.0
  0
LINE
  5
129
330
1F
100
AcDbEntity
  8
0
  6
Continuous
 62
     7
370
    25
100
AcDbLine
 10
172.303797983
 20
119.5442052412
 30
0.0
 11
176.303797983
 21
120.2942052412
 31
0.0
  0
LINE
  5
12A
330
1F
100
AcDbEntity
  8
0
  6
Continuous
 62
     7
370
    25
100
AcDbLine
 10
176.303797983
 20
129.2942052412
 30
0.0
 11
172.303797983
 21
130.0442052412
 31
0.0
  0
LINE
  5
12B
330
1F
100
AcDbEntity
  8
0
  6
Continuous
 62
     7
370
    25
100
AcDbLine
 10
181.8466551259
 20
120.237062384
 30
0.0
 11
182.303797983
 21
120.6942052412
 31
0.0
  0
LINE
  5
12C
330
1F
100
AcDbEntity
  8
0
  6
Continuous
 62
     7
370
    25
100
AcDbLine
 10
182.303797983
 20
128.8942052412
 30
0.0
 11
181.8466551259
 21
129.3513480983
 31
0.0
  0
LINE
  5
12D
330
1F
100
AcDbEntity
  8
0
  6
Continuous
 62
     7
370
    25
100
AcDbLine
 10
153.7171954426
 20
115.2942052412
 30
0.0
 11
153.803797983
 21
115.4442052412
 31
0.0
  0
LINE
  5
12E
330
1F
100
AcDbEntity
  8
0
  6
Continuous
 62
     7
370
    25
100
AcDbLine
 10
153.803797983
 20
134.1442052412
 30
0.0
 11
153.7171954426
 21
134.2942052412
 31
0.0
  0
LINE
  5
12F
330
1F
100
AcDbEntity
  8
0
  6
Continuous
 62
     7
370
    25
100
AcDbLine
 10
143.8904005234
 20
134.2942052412
 30
0.0
 11
143.803797983
 21
134.1442052412
 31
0.0
  0
LINE
  5
130
330
1F
100
AcDbEntity
  8
0
  6
Continuous
 62
     7
370
    25
100
AcDbLine
 10
143.803797983
 20
115.4442052412
 30
0.0
 11
143.8904005234
 21
115.2942052412
 31
0.0
  0
ARC
  5
131
330
1F
100
AcDbEntity
  8
0
  6
Continuous
 62
     7
370
    25
100
AcDbCircle
 10
155.503797983
 20
133.8442052412
 30
0.0
 40
0.2999999999999829
100
AcDbArc
 50
0.0
 51
90.0
  0
ARC
  5
132
330
1F
100
AcDbEntity
  8
0
  6
Continuous
 62
     7
370
    25
100
AcDbCircle
 10
155.503797983
 20
115.7442052412
 30
0.0
 40
0.2999999999999972
100
AcDbArc
 50
270.0
 51
0.0
  0
LINE
  5
133
330
1F
100
AcDbEntity
  8
0
  6
Continuous
 62
     7
370
    25
100
AcDbLine
 10
153.803797983
 20
115.4442052412
 30
0.0
 11
155.503797983
 21
115.4442052412
 31
0.0
  0
LINE
  5
134
330
1F
100
AcDbEntity
  8
0
  6
Continuous
 62
     7
370
    25
100
AcDbLine
 10
155.503797983
 20
134.1442052412
 30
0.0
 11
153.803797983
 21
134.1442052412
 31
0.0
  0
LINE
  5
135
330
1F
100
AcDbEntity
  8
0
  6
Continuous
 62
     7
370
    25
100
AcDbLine
 10
143.803797983
 20
134.1442052412
 30
0.0
 11
142.103797983
 21
134.1442052412
 31
0.0
  0
LINE
  5
136
330
1F
100
AcDbEntity
  8
0
  6
Continuous
 62
     7
370
    25
100
AcDbLine
 10
142.103797983
 20
115.4442052412
 30
0.0
 11
143.803797983
 21
115.4442052412
 31
0.0
  0
ARC
  5
137
330
1F
100
AcDbEntity
  8
0
  6
Continuous
 62
     7
370
    25
100
AcDbCircle
 10
142.103797983
 20
115.7442052412
 30
0.0
 40
0.2999999999999972
100
AcDbArc
 50
180.0
 51
270.0
  0
ARC
  5
138
330
1F
100
AcDbEntity
  8
0
  6
Continuous
 62
     7
370
    25
100
AcDbCircle
 10
142.103797983
 20
133.8442052412
 30
0.0
 40
0.2999999999999829
100
AcDbArc
 50
90.0
 51
180.0
  0
LINE
  5
139
330
1F
100
AcDbEntity
  8
0
  6
Continuous
 62
     7
370
    25
100
AcDbLine
 10
139.883369652
 20
113.7942052412
 30
0.0
 11
140.0277072193
 21
114.0442052412
 31
0.0
  0
LINE
  5
13A
330
1F
100
AcDbEntity
  8
0
  6
Continuous
 62
     7
370
    25
100
AcDbLine
 10
140.0277072193
 20
135.5442052412
 30
0.0
 11
139.883369652
 21
135.7942052412
 31
0.0
  0
LINE
  5
13B
330
1F
100
AcDbEntity
  8
0
  6
Continuous
 62
     7
370
    25
100
AcDbLine
 10
133.0277072193
 20
135.4542052412
 30
0.0
 11
121.7240984922
 21
135.1009674685
 31
0.0
  0
LINE
  5
13C
330
1F
100
AcDbEntity
  8
0
  6
Continuous
 62
     7
370
    25
100
AcDbLine
 10
121.7240984922
 20
114.4874430139
 30
0.0
 11
133.0277072193
 21
114.1342052412
 31
0.0
  0
LINE
  5
13D
330
1F
100
AcDbEntity
  8
0
  6
Continuous
 62
     7
370
    25
100
AcDbLine
 10
121.7240984922
 20
135.1009674685
 30
0.0
 11
119.0277072193
 21
133.5442052412
 31
0.0
  0
LINE
  5
13E
330
1F
100
AcDbEntity
  8
0
  6
Continuous
 62
     7
370
    25
100
AcDbLine
 10
119.0277072193
 20
116.0442052412
 30
0.0
 11
121.7240984922
 21
114.4874430139
 31
0.0
  0
LINE
  5
13F
330
1F
100
AcDbEntity
  8
0
  6
Continuous
 62
     7
370
    25
100
AcDbLine
 10
140.0277072193
 20
117.7942052412
 30
0.0
 11
141.803797983
 21
117.7942052412
 31
0.0
  0
LINE
  5
140
330
1F
100
AcDbEntity
  8
0
  6
Continuous
 62
     7
370
    25
100
AcDbLine
 10
141.803797983
 20
131.7942052412
 30
0.0
 11
140.0277072193
 21
131.7942052412
 31
0.0
  0
LINE
  5
141
330
1F
100
AcDbEntity
  8
0
  6
Continuous
 62
     7
370
    25
100
AcDbLine
 10
160.303797983
 20
119.5442052412
 30
0.0
 11
160.303797983
 21
130.0442052412
 31
0.0
  0
LINE
  5
142
330
1F
100
AcDbEntity
  8
0
  6
Continuous
 62
     7
370
    25
100
AcDbLine
 10
164.303797983
 20
119.5442052412
 30
0.0
 11
164.303797983
 21
130.0442052412
 31
0.0
  0
LINE
  5
143
330
1F
100
AcDbEntity
  8
0
  6
Continuous
 62
     7
370
    25
100
AcDbLine
 10
168.303797983
 20
119.5442052412
 30
0.0
 11
168.303797983
 21
130.0442052412
 31
0.0
  0
LINE
  5
144
330
1F
100
AcDbEntity
  8
0
  6
Continuous
 62
     7
370
    25
100
AcDbLine
 10
176.303797983
 20
119.5442052412
 30
0.0
 11
176.303797983
 21
130.0442052412
 31
0.0
  0
LINE
  5
145
330
1F
100
AcDbEntity
  8
0
  6
Continuous
 62
     7
370
    25
100
AcDbLine
 10
181.8466551259
 20
120.237062384
 30
0.0
 11
181.8466551259
 21
129.3513480983
 31
0.0
  0
LINE
  5
146
330
1F
100
AcDbEntity
  8
0
  6
Continuous
 62
     7
370
    25
100
AcDbLine
 10
172.303797983
 20
119.5442052412
 30
0.0
 11
172.303797983
 21
130.0442052412
 31
0.0
  0
LINE
  5
147
330
1F
100
AcDbEntity
  8
0
  6
Continuous
 62
     7
370
    25
100
AcDbLine
 10
182.303797983
 20
128.8942052412
 30
0.0
 11
182.303797983
 21
120.6942052412
 31
0.0
  0
LINE
  5
148
330
1F
100
AcDbEntity
  8
0
  6
Continuous
 62
     7
370
    25
100
AcDbLine
 10
152.8686896666
 20
134.2942052412
 30
0.0
 11
148.9599680982
 21
134.2942052412
 31
0.0
  0
SPLINE
  5
149
330
1F
100
AcDbEntity
  8
0
  6
Continuous
 62
     7
370
    25
100
AcDbSpline
210
0.0
220
0.0
230
1.0
 70
     8
 71
     3
 72
    15
 73
    11
 74
     0
 42
0.000000001
 43
0.00000001
 40
0.0
 40
0.0
 40
0.0
 40
0.0
 40
0.1323056949471119
 40
0.2645739819647153
 40
0.3998011884071374
 40
0.5350039926534303
 40
0.6501943985256683
 40
0.7654027729264453
 40
0.8826900467077623
 40
1.0
 40
1.0
 40
1.0
 40
1.0
 10
152.8686896666092
 20
124.7942052411802
 30
0.0
 10
152.9978565270428
 20
125.2046444623556
 30
0.0
 10
153.2561537274503
 20
126.0254068576876
 30
0.0
 10
153.5340712365852
 20
127.2893084524723
 30
0.0
 10
153.7011745661402
 20
128.5770349026573
 30
0.0
 10
153.7342668598332
 20
129.8181124092391
 30
0.0
 10
153.6484062485934
 20
130.9921378262671
 30
0.0
 10
153.4724777951957
 20
132.1001257337217
 30
0.0
 10
153.214411031016
 20
133.2031040610864
 30
0.0
 10
152.9839375483618
 20
133.9304814082625
 30
0.0
 10
152.8686896666092
 20
134.2942052411802
 30
0.0
  0
LINE
  5
14A
330
1F
100
AcDbEntity
  8
0
  6
Continuous
 62
     7
370
    25
100
AcDbLine
 10
152.8686896666
 20
124.7942052412
 30
0.0
 11
148.9599680982
 21
124.7942052412
 31
0.0
  0
LINE
  5
14B
330
1F
100
AcDbEntity
  8
0
  6
Continuous
 62
     7
370
    25
100
AcDbLine
 10
148.803797983
 20
125.3378225674
 30
0.0
 11
148.9599680982
 21
124.7942052412
 31
0.0
  0
LINE
  5
14C
330
1F
100
AcDbEntity
  8
0
  6
Continuous
 62
     7
370
    25
100
AcDbLine
 10
148.6476278679
 20
124.7942052412
 30
0.0
 11
148.803797983
 21
125.3378225674
 31
0.0
  0
LINE
  5
14D
330
1F
100
AcDbEntity
  8
0
  6
Continuous
 62
     7
370
    25
100
AcDbLine
 10
148.6476278679
 20
124.7942052412
 30
0.0
 11
144.7389062994
 21
124.7942052412
 31
0.0
  0
SPLINE
  5
14E
330
1F
100
AcDbEntity
  8
0
  6
Continuous
 62
     7
370
    25
100
AcDbSpline
210
0.0
220
0.0
230
1.0
 70
     8
 71
     3
 72
    15
 73
    11
 74
     0
 42
0.000000001
 43
0.00000001
 40
0.0
 40
0.0
 40
0.0
 40
0.0
 40
0.1323056949471118
 40
0.2645739819647153
 40
0.3998011884071374
 40
0.5350039926534303
 40
0.6501943985256682
 40
0.7654027729264454
 40
0.8826900467077624
 40
1.0
 40
1.0
 40
1.0
 40
1.0
 10
144.7389062994299
 20
124.7942052411802
 30
0.0
 10
144.6097394389963
 20
125.2046444623556
 30
0.0
 10
144.3514422385888
 20
126.0254068576876
 30
0.0
 10
144.0735247294539
 20
127.2893084524723
 30
0.0
 10
143.906421399899
 20
128.5770349026574
 30
0.0
 10
143.8733291062058
 20
129.8181124092391
 30
0.0
 10
143.9591897174457
 20
130.9921378262671
 30
0.0
 10
144.1351181708434
 20
132.1001257337217
 30
0.0
 10
144.3931849350231
 20
133.2031040610864
 30
0.0
 10
144.6236584176773
 20
133.9304814082625
 30
0.0
 10
144.7389062994299
 20
134.2942052411802
 30
0.0
  0
LINE
  5
14F
330
1F
100
AcDbEntity
  8
0
  6
Continuous
 62
     7
370
    25
100
AcDbLine
 10
148.6476278679
 20
134.2942052412
 30
0.0
 11
144.7389062994
 21
134.2942052412
 31
0.0
  0
LINE
  5
150
330
1F
100
AcDbEntity
  8
0
  6
Continuous
 62
     7
370
    25
100
AcDbLine
 10
148.803797983
 20
133.750587915
 30
0.0
 11
148.6476278679
 21
134.2942052412
 31
0.0
  0
LINE
  5
151
330
1F
100
AcDbEntity
  8
0
  6
Continuous
 62
     7
370
    25
100
AcDbLine
 10
148.9599680982
 20
134.2942052412
 30
0.0
 11
148.803797983
 21
133.750587915
 31
0.0
  0
SPLINE
  5
152
330
1F
100
AcDbEntity
  8
0
  6
Continuous
 62
     7
370
    25
100
AcDbSpline
210
0.0
220
0.0
230
1.0
 70
     8
 71
     3
 72
    15
 73
    11
 74
     0
 42
0.000000001
 43
0.00000001
 40
0.0
 40
0.0
 40
0.0
 40
0.0
 40
0.1323056949471119
 40
0.2645739819647155
 40
0.3998011884071378
 40
0.5350039926534309
 40
0.6501943985256685
 40
0.7654027729264457
 40
0.8826900467077625
 40
1.0
 40
1.0
 40
1.0
 40
1.0
 10
152.8686896666092
 20
115.2942052411802
 30
0.0
 10
152.9978565270428
 20
115.7046444623556
 30
0.0
 10
153.2561537274503
 20
116.5254068576876
 30
0.0
 10
153.5340712365852
 20
117.7893084524723
 30
0.0
 10
153.7011745661402
 20
119.0770349026574
 30
0.0
 10
153.7342668598332
 20
120.3181124092391
 30
0.0
 10
153.6484062485934
 20
121.4921378262671
 30
0.0
 10
153.4724777951957
 20
122.6001257337216
 30
0.0
 10
153.214411031016
 20
123.7031040610864
 30
0.0
 10
152.9839375483618
 20
124.4304814082625
 30
0.0
 10
152.8686896666092
 20
124.7942052411802
 30
0.0
  0
SPLINE
  5
153
330
1F
100
AcDbEntity
  8
0
  6
Continuous
 62
     7
370
    25
100
AcDbSpline
210
0.0
220
0.0
230
1.0
 70
    24
 71
     3
 72
    13
 73
     9
 74
     0
 42
0.000000001
 43
0.00000001
 40
0.0
 40
0.0
 40
0.0
 40
0.0
 40
0.1858094814447848
 40
0.3719398209115689
 40
0.5593183710023736
 40
0.7472609639128799
 40
0.9968296383592269
 40
1.0
 40
1.0
 40
1.0
 40
1.0
 10
152.8686896666092
 20
134.2942052411802
 30
0.0
 10
152.960913809362
 20
134.2942052411802
 30
0.0
 10
153.1455213486138
 20
134.2942052411802
 30
0.0
 10
153.3699726412424
 20
134.2942052411802
 30
0.0
 10
153.5498118865313
 20
134.2942052411802
 30
0.0
 10
153.6745561059386
 20
134.2942052411802
 30
0.0
 10
153.7362340741714
 20
134.2942052411802
 30
0.0
 10
153.716704367324
 20
134.2942052411802
 30
0.0
 10
153.7164593864362
 20
134.2942052411802
 30
0.0
  0
SPLINE
  5
154
330
1F
100
AcDbEntity
  8
0
  6
Continuous
 62
     7
370
    25
100
AcDbSpline
210
0.0
220
0.0
230
1.0
 70
    24
 71
     3
 72
    12
 73
     8
 74
     0
 42
0.000000001
 43
0.00000001
 40
0.0
 40
0.0
 40
0.0
 40
0.0
 40
0.2528053454342985
 40
0.4383386390749121
 40
0.6244591808300458
 40
0.8120460439513613
 40
0.9999999999999999
 40
0.9999999999999999
 40
0.9999999999999999
 40
0.9999999999999999
 10
153.7160114516519
 20
115.2942052411802
 30
0.0
 10
153.7050772766655
 20
115.2942052411802
 30
0.0
 10
153.6861185344178
 20
115.2942052411802
 30
0.0
 10
153.5487297389622
 20
115.2942052411802
 30
0.0
 10
153.3736211932387
 20
115.2942052411802
 30
0.0
 10
153.1481132541169
 20
115.2942052411802
 30
0.0
 10
152.9618915399806
 20
115.2942052411802
 30
0.0
 10
152.8686896666092
 20
115.2942052411802
 30
0.0
  0
LINE
  5
155
330
1F
100
AcDbEntity
  8
0
  6
Continuous
 62
     7
370
    25
100
AcDbLine
 10
153.803797983
 20
115.4442052412
 30
0.0
 11
153.803797983
 21
134.1442052412
 31
0.0
  0
SPLINE
  5
156
330
1F
100
AcDbEntity
  8
0
  6
Continuous
 62
     7
370
    25
100
AcDbSpline
210
0.0
220
0.0
230
1.0
 70
     8
 71
     3
 72
    15
 73
    11
 74
     0
 42
0.000000001
 43
0.00000001
 40
0.0
 40
0.0
 40
0.0
 40
0.0
 40
0.1323056949471118
 40
0.2645739819647155
 40
0.3998011884071377
 40
0.5350039926534308
 40
0.6501943985256685
 40
0.7654027729264457
 40
0.8826900467077626
 40
1.0
 40
1.0
 40
1.0
 40
1.0
 10
144.7389062994299
 20
115.2942052411802
 30
0.0
 10
144.6097394389963
 20
115.7046444623556
 30
0.0
 10
144.3514422385888
 20
116.5254068576876
 30
0.0
 10
144.0735247294539
 20
117.7893084524723
 30
0.0
 10
143.906421399899
 20
119.0770349026574
 30
0.0
 10
143.8733291062058
 20
120.3181124092391
 30
0.0
 10
143.9591897174457
 20
121.4921378262671
 30
0.0
 10
144.1351181708434
 20
122.6001257337216
 30
0.0
 10
144.3931849350231
 20
123.7031040610864
 30
0.0
 10
144.6236584176773
 20
124.4304814082625
 30
0.0
 10
144.7389062994299
 20
124.7942052411802
 30
0.0
  0
SPLINE
  5
157
330
1F
100
AcDbEntity
  8
0
  6
Continuous
 62
     7
370
    25
100
AcDbSpline
210
0.0
220
0.0
230
1.0
 70
    24
 71
     3
 72
    12
 73
     8
 74
     0
 42
0.000000001
 43
0.00000001
 40
0.0
 40
0.0
 40
0.0
 40
0.0
 40
0.2528053454342966
 40
0.4383386390749107
 40
0.6244591808300448
 40
0.8120460439513609
 40
1.0
 40
1.0
 40
1.0
 40
1.0
 10
143.8915845143871
 20
115.2942052411802
 30
0.0
 10
143.9025186893736
 20
115.2942052411802
 30
0.0
 10
143.9214774316213
 20
115.2942052411802
 30
0.0
 10
144.0588662270769
 20
115.2942052411802
 30
0.0
 10
144.2339747728004
 20
115.2942052411802
 30
0.0
 10
144.4594827119222
 20
115.2942052411802
 30
0.0
 10
144.6457044260585
 20
115.2942052411802
 30
0.0
 10
144.7389062994299
 20
115.2942052411802
 30
0.0
  0
SPLINE
  5
158
330
1F
100
AcDbEntity
  8
0
  6
Continuous
 62
     7
370
    25
100
AcDbSpline
210
0.0
220
0.0
230
1.0
 70
    24
 71
     3
 72
    13
 73
     9
 74
     0
 42
0.000000001
 43
0.00000001
 40
0.0
 40
0.0
 40
0.0
 40
0.0
 40
0.1858094814447852
 40
0.3719398209115699
 40
0.5593183710023752
 40
0.7472609639128819
 40
0.9968296383592294
 40
1.0
 40
1.0
 40
1.0
 40
1.0
 10
144.7389062994299
 20
134.2942052411802
 30
0.0
 10
144.6466821566771
 20
134.2942052411802
 30
0.0
 10
144.4620746174253
 20
134.2942052411802
 30
0.0
 10
144.2376233247966
 20
134.2942052411802
 30
0.0
 10
144.0577840795078
 20
134.2942052411802
 30
0.0
 10
143.9330398601005
 20
134.2942052411803
 30
0.0
 10
143.8713618918678
 20
134.2942052411802
 30
0.0
 10
143.8908915987151
 20
134.2942052411802
 30
0.0
 10
143.8911365796029
 20
134.2942052411802
 30
0.0
  0
LINE
  5
159
330
1F
100
AcDbEntity
  8
0
  6
Continuous
 62
     7
370
    25
100
AcDbLine
 10
143.803797983
 20
115.4442052412
 30
0.0
 11
143.803797983
 21
134.1442052412
 31
0.0
  0
LINE
  5
15A
330
1F
100
AcDbEntity
  8
0
  6
Continuous
 62
     7
370
    25
100
AcDbLine
 10
148.9599680982
 20
124.7942052412
 30
0.0
 11
148.803797983
 21
124.250587915
 31
0.0
  0
LINE
  5
15B
330
1F
100
AcDbEntity
  8
0
  6
Continuous
 62
     7
370
    25
100
AcDbLine
 10
148.803797983
 20
125.3378225674
 30
0.0
 11
148.803797983
 21
124.250587915
 31
0.0
  0
LINE
  5
15C
330
1F
100
AcDbEntity
  8
0
  6
Continuous
 62
     7
370
    25
100
AcDbLine
 10
152.8686896666
 20
115.2942052412
 30
0.0
 11
148.9599680982
 21
115.2942052412
 31
0.0
  0
LINE
  5
15D
330
1F
100
AcDbEntity
  8
0
  6
Continuous
 62
     7
370
    25
100
AcDbLine
 10
148.803797983
 20
115.8378225674
 30
0.0
 11
148.9599680982
 21
115.2942052412
 31
0.0
  0
LINE
  5
15E
330
1F
100
AcDbEntity
  8
0
  6
Continuous
 62
     7
370
    25
100
AcDbLine
 10
148.6476278679
 20
115.2942052412
 30
0.0
 11
148.803797983
 21
115.8378225674
 31
0.0
  0
LINE
  5
15F
330
1F
100
AcDbEntity
  8
0
  6
Continuous
 62
     7
370
    25
100
AcDbLine
 10
148.6476278679
 20
115.2942052412
 30
0.0
 11
144.7389062994
 21
115.2942052412
 31
0.0
  0
LINE
  5
160
330
1F
100
AcDbEntity
  8
0
  6
Continuous
 62
     7
370
    25
100
AcDbLine
 10
148.803797983
 20
124.250587915
 30
0.0
 11
148.6476278679
 21
124.7942052412
 31
0.0
  0
LINE
  5
161
330
1F
100
AcDbEntity
  8
0
  6
Continuous
 62
     7
370
    25
100
AcDbLine
 10
155.803797983
 20
133.8442052412
 30
0.0
 11
155.803797983
 21
115.7442052424
 31
0.0
  0
LINE
  5
162
330
1F
100
AcDbEntity
  8
0
  6
Continuous
 62
     7
370
    25
100
AcDbLine
 10
141.803797983
 20
115.7442052412
 30
0.0
 11
141.803797983
 21
133.8442052399
 31
0.0
  0
LINE
  5
163
330
1F
100
AcDbEntity
  8
0
  6
Continuous
 62
     7
370
    25
100
AcDbLine
 10
148.803797983
 20
134.2942052412
 30
0.0
 11
148.803797983
 21
133.750587915
 31
0.0
  0
LINE
  5
164
330
1F
100
AcDbEntity
  8
0
  6
Continuous
 62
     7
370
    25
100
AcDbLine
 10
148.803797983
 20
134.2942052412
 30
0.0
 11
148.9599680982
 21
134.2942052412
 31
0.0
  0
LINE
  5
165
330
1F
100
AcDbEntity
  8
0
  6
Continuous
 62
     7
370
    25
100
AcDbLine
 10
148.6476278679
 20
134.2942052412
 30
0.0
 11
148.803797983
 21
134.2942052412
 31
0.0
  0
LINE
  5
166
330
1F
100
AcDbEntity
  8
0
  6
Continuous
 62
     7
370
    25
100
AcDbLine
 10
148.803797983
 20
115.2942052412
 30
0.0
 11
148.6476278679
 21
115.2942052412
 31
0.0
  0
LINE
  5
167
330
1F
100
AcDbEntity
  8
0
  6
Continuous
 62
     7
370
    25
100
AcDbLine
 10
148.803797983
 20
115.8378225674
 30
0.0
 11
148.803797983
 21
115.2942052412
 31
0.0
  0
LINE
  5
168
330
1F
100
AcDbEntity
  8
0
  6
Continuous
 62
     7
370
    25
100
AcDbLine
 10
148.9599680982
 20
115.2942052412
 30
0.0
 11
148.803797983
 21
115.2942052412
 31
0.0
  0
LINE
  5
169
330
1F
100
AcDbEntity
  8
0
  6
Continuous
 62
     7
370
    25
100
AcDbLine
 10
133.0277072193
 20
124.7942052412
 30
0.0
 11
135.8839134918
 21
124.7942052412
 31
0.0
  0
LINE
  5
16A
330
1F
100
AcDbEntity
  8
0
  6
Continuous
 62
     7
370
    25
100
AcDbLine
 10
133.0277072193
 20
124.7942052412
 30
0.0
 11
133.0277072193
 21
135.7942052412
 31
0.0
  0
LINE
  5
16B
330
1F
100
AcDbEntity
  8
0
  6
Continuous
 62
     7
370
    25
100
AcDbLine
 10
133.0277072193
 20
135.7942052412
 30
0.0
 11
135.8839134918
 21
135.7942052412
 31
0.0
  0
SPLINE
  5
16C
330
1F
100
AcDbEntity
  8
0
  6
Continuous
 62
     7
370
    25
100
AcDbSpline
210
0.0
220
0.0
230
1.0
 70
     8
 71
     3
 72
     8
 73
     4
 74
     0
 42
0.000000001
 43
0.00000001
 40
0.0
 40
0.0
 40
0.0
 40
0.0
 40
1.0
 40
1.0
 40
1.0
 40
1.0
 10
135.9642982495201
 20
135.2542185813864
 30
0.0
 10
135.9385572996868
 20
135.4343676260631
 30
0.0
 10
135.9117357554259
 20
135.6143593018797
 30
0.0
 10
135.8839134917908
 20
135.7942052411803
 30
0.0
  0
SPLINE
  5
16D
330
1F
100
AcDbEntity
  8
0
  6
Continuous
 62
     7
370
    25
100
AcDbSpline
210
0.0
220
0.0
230
1.0
 70
     8
 71
     3
 72
     8
 73
     4
 74
     0
 42
0.000000001
 43
0.00000001
 40
0.0
 40
0.0
 40
0.0
 40
0.0
 40
1.0
 40
1.0
 40
1.0
 40
1.0
 10
136.0446830072495
 20
135.7942052411803
 30
0.0
 10
136.0168513341924
 20
135.6142984784199
 30
0.0
 10
135.9900302743263
 20
135.4343051639115
 30
0.0
 10
135.9642982495201
 20
135.2542185813864
 30
0.0
  0
LINE
  5
16E
330
1F
100
AcDbEntity
  8
0
  6
Continuous
 62
     7
370
    25
100
AcDbLine
 10
136.0446830072
 20
135.7942052412
 30
0.0
 11
138.9008892797
 21
135.7942052412
 31
0.0
  0
SPLINE
  5
16F
330
1F
100
AcDbEntity
  8
0
  6
Continuous
 62
     7
370
    25
100
AcDbSpline
210
0.0
220
0.0
230
1.0
 70
     8
 71
     3
 72
    16
 73
    12
 74
     0
 42
0.000000001
 43
0.00000001
 40
0.0
 40
0.0
 40
0.0
 40
0.0
 40
0.2499999999999999
 40
0.2499999999999999
 40
0.4999999999999999
 40
0.4999999999999999
 40
0.6249999999999999
 40
0.6249999999999999
 40
0.75
 40
0.75
 40
1.0
 40
1.0
 40
1.0
 40
1.0
 10
138.900889279748
 20
135.7942052411803
 30
0.0
 10
139.200237837931
 20
134.8961595666312
 30
0.0
 10
139.4469552647926
 20
133.9915664657227
 30
0.0
 10
139.7887389971489
 20
132.1635145370144
 30
0.0
 10
139.8826779055339
 20
131.2399154585803
 30
0.0
 10
139.8837097270134
 20
129.8371158972431
 30
0.0
 10
139.860745320157
 20
129.367315553298
 30
0.0
 10
139.7711961938714
 20
128.4380009688909
 30
0.0
 10
139.7047023598039
 20
127.9764593218679
 30
0.0
 10
139.4479390629901
 20
126.6000514958176
 30
0.0
 10
139.2006110039697
 20
125.6933704138457
 30
0.0
 10
138.9008892797479
 20
124.7942052411802
 30
0.0
  0
LINE
  5
170
330
1F
100
AcDbEntity
  8
0
  6
Continuous
 62
     7
370
    25
100
AcDbLine
 10
136.0446830072
 20
124.7942052412
 30
0.0
 11
138.9008892797
 21
124.7942052412
 31
0.0
  0
SPLINE
  5
171
330
1F
100
AcDbEntity
  8
0
  6
Continuous
 62
     7
370
    25
100
AcDbSpline
210
0.0
220
0.0
230
1.0
 70
     8
 71
     3
 72
     8
 73
     4
 74
     0
 42
0.000000001
 43
0.00000001
 40
0.0
 40
0.0
 40
0.0
 40
0.0
 40
1.0
 40
1.0
 40
1.0
 40
1.0
 10
135.9642982495201
 20
125.3341919009741
 30
0.0
 10
135.9900391993534
 20
125.1540428562974
 30
0.0
 10
136.0168607436144
 20
124.9740511804808
 30
0.0
 10
136.0446830072495
 20
124.7942052411802
 30
0.0
  0
SPLINE
  5
172
330
1F
100
AcDbEntity
  8
0
  6
Continuous
 62
     7
370
    25
100
AcDbSpline
210
0.0
220
0.0
230
1.0
 70
     8
 71
     3
 72
     8
 73
     4
 74
     0
 42
0.000000001
 43
0.00000001
 40
0.0
 40
0.0
 40
0.0
 40
0.0
 40
1.0
 40
1.0
 40
1.0
 40
1.0
 10
135.8839134917908
 20
124.7942052411802
 30
0.0
 10
135.9117451648479
 20
124.9741120039406
 30
0.0
 10
135.938566224714
 20
125.154105318449
 30
0.0
 10
135.9642982495201
 20
125.3341919009741
 30
0.0
  0
SPLINE
  5
173
330
1F
100
AcDbEntity
  8
0
  6
Continuous
 62
     7
370
    25
100
AcDbSpline
210
0.0
220
0.0
230
1.0
 70
    24
 71
     3
 72
    12
 73
     8
 74
     0
 42
0.000000001
 43
0.00000001
 40
0.0
 40
0.0
 40
0.0
 40
0.0
 40
0.2531443042321821
 40
0.4385949021349645
 40
0.6246317930800481
 40
0.8121326355712094
 40
1.0
 40
1.0
 40
1.0
 40
1.0
 10
139.882095669438
 20
135.7942052411802
 30
0.0
 10
139.8693577420881
 20
135.7942052411802
 30
0.0
 10
139.8472881560614
 20
135.7942052411802
 30
0.0
 10
139.6880595136746
 20
135.7942052411802
 30
0.0
 10
139.4853181857092
 20
135.7942052411802
 30
0.0
 10
139.2242875141098
 20
135.7942052411803
 30
0.0
 10
139.0087588409777
 20
135.7942052411803
 30
0.0
 10
138.9008892797477
 20
135.7942052411803
 30
0.0
  0
SPLINE
  5
174
330
1F
100
AcDbEntity
  8
0
  6
Continuous
 62
     7
370
    25
100
AcDbSpline
210
0.0
220
0.0
230
1.0
 70
    24
 71
     3
 72
    13
 73
     9
 74
     0
 42
0.000000001
 43
0.00000001
 40
0.0
 40
0.0
 40
0.0
 40
0.0
 40
0.1857239991780135
 40
0.3717683787012615
 40
0.5590589899269843
 40
0.7469127011404662
 40
0.9964578002604967
 40
1.0
 40
1.0
 40
1.0
 40
1.0
 10
138.9008892797477
 20
113.7942052411803
 30
0.0
 10
139.0076283529821
 20
113.7942052411803
 30
0.0
 10
139.2212906280572
 20
113.7942052411803
 30
0.0
 10
139.4811012039187
 20
113.7942052411803
 30
0.0
 10
139.6893032726858
 20
113.7942052411803
 30
0.0
 10
139.8338513764497
 20
113.7942052411803
 30
0.0
 10
139.9053422817881
 20
113.7942052411802
 30
0.0
 10
139.8827352993703
 20
113.7942052411802
 30
0.0
 10
139.8824188929461
 20
113.7942052411802
 30
0.0
  0
SPLINE
  5
175
330
1F
100
AcDbEntity
  8
0
  6
Continuous
 62
     7
370
    25
100
AcDbSpline
210
0.0
220
0.0
230
1.0
 70
     8
 71
     3
 72
    16
 73
    12
 74
     0
 42
0.000000001
 43
0.00000001
 40
0.0
 40
0.0
 40
0.0
 40
0.0
 40
0.2499999999999997
 40
0.2499999999999997
 40
0.4999999999999994
 40
0.4999999999999994
 40
0.6249999999999996
 40
0.6249999999999996
 40
0.7499999999999996
 40
0.7499999999999996
 40
1.0
 40
1.0
 40
1.0
 40
1.0
 10
138.900889279748
 20
124.7942052411803
 30
0.0
 10
139.200237837931
 20
123.8961595666312
 30
0.0
 10
139.4469552647926
 20
122.9915664657227
 30
0.0
 10
139.7887389971489
 20
121.1635145370144
 30
0.0
 10
139.8826779055339
 20
120.2399154585803
 30
0.0
 10
139.8837097270134
 20
118.8371158972431
 30
0.0
 10
139.860745320157
 20
118.367315553298
 30
0.0
 10
139.7711961938714
 20
117.438000968891
 30
0.0
 10
139.7047023598039
 20
116.9764593218679
 30
0.0
 10
139.4479390629901
 20
115.6000514958177
 30
0.0
 10
139.2006110039697
 20
114.6933704138457
 30
0.0
 10
138.9008892797479
 20
113.7942052411803
 30
0.0
  0
LINE
  5
176
330
1F
100
AcDbEntity
  8
0
  6
Continuous
 62
     7
370
    25
100
AcDbLine
 10
140.0277072193
 20
135.5442052412
 30
0.0
 11
140.0277072193
 21
114.0442052412
 31
0.0
  0
SPLINE
  5
177
330
1F
100
AcDbEntity
  8
0
  6
Continuous
 62
     7
370
    25
100
AcDbSpline
210
0.0
220
0.0
230
1.0
 70
     8
 71
     3
 72
     8
 73
     4
 74
     0
 42
0.000000001
 43
0.00000001
 40
0.0
 40
0.0
 40
0.0
 40
0.0
 40
1.0
 40
1.0
 40
1.0
 40
1.0
 10
136.0446830072495
 20
124.7942052411802
 30
0.0
 10
136.0168513341924
 20
124.6142984784198
 30
0.0
 10
135.9900302743263
 20
124.4343051639115
 30
0.0
 10
135.9642982495201
 20
124.2542185813864
 30
0.0
  0
LINE
  5
178
330
1F
100
AcDbEntity
  8
0
  6
Continuous
 62
     7
370
    25
100
AcDbLine
 10
135.9642982495
 20
124.2542185814
 30
0.0
 11
135.9642982495
 21
125.334191901
 31
0.0
  0
SPLINE
  5
179
330
1F
100
AcDbEntity
  8
0
  6
Continuous
 62
     7
370
    25
100
AcDbSpline
210
0.0
220
0.0
230
1.0
 70
     8
 71
     3
 72
     8
 73
     4
 74
     0
 42
0.000000001
 43
0.00000001
 40
0.0
 40
0.0
 40
0.0
 40
0.0
 40
1.0
 40
1.0
 40
1.0
 40
1.0
 10
135.9642982495201
 20
124.2542185813864
 30
0.0
 10
135.9385572996868
 20
124.4343676260631
 30
0.0
 10
135.9117357554259
 20
124.6143593018797
 30
0.0
 10
135.8839134917908
 20
124.7942052411802
 30
0.0
  0
LINE
  5
17A
330
1F
100
AcDbEntity
  8
0
  6
Continuous
 62
     7
370
    25
100
AcDbLine
 10
133.0277072193
 20
113.7942052412
 30
0.0
 11
135.8839134918
 21
113.7942052412
 31
0.0
  0
LINE
  5
17B
330
1F
100
AcDbEntity
  8
0
  6
Continuous
 62
     7
370
    25
100
AcDbLine
 10
136.0446830072
 20
113.7942052412
 30
0.0
 11
138.9008892797
 21
113.7942052412
 31
0.0
  0
SPLINE
  5
17C
330
1F
100
AcDbEntity
  8
0
  6
Continuous
 62
     7
370
    25
100
AcDbSpline
210
0.0
220
0.0
230
1.0
 70
     8
 71
     3
 72
     8
 73
     4
 74
     0
 42
0.000000001
 43
0.00000001
 40
0.0
 40
0.0
 40
0.0
 40
0.0
 40
1.0
 40
1.0
 40
1.0
 40
1.0
 10
135.9642982495201
 20
114.3341919009742
 30
0.0
 10
135.9900391993534
 20
114.1540428562975
 30
0.0
 10
136.0168607436144
 20
113.9740511804808
 30
0.0
 10
136.0446830072495
 20
113.7942052411803
 30
0.0
  0
SPLINE
  5
17D
330
1F
100
AcDbEntity
  8
0
  6
Continuous
 62
     7
370
    25
100
AcDbSpline
210
0.0
220
0.0
230
1.0
 70
     8
 71
     3
 72
     8
 73
     4
 74
     0
 42
0.000000001
 43
0.00000001
 40
0.0
 40
0.0
 40
0.0
 40
0.0
 40
1.0
 40
1.0
 40
1.0
 40
1.0
 10
135.8839134917908
 20
113.7942052411803
 30
0.0
 10
135.9117451648479
 20
113.9741120039407
 30
0.0
 10
135.938566224714
 20
114.1541053184491
 30
0.0
 10
135.9642982495201
 20
114.3341919009742
 30
0.0
  0
LINE
  5
17E
330
1F
100
AcDbEntity
  8
0
  6
Continuous
 62
     7
370
    25
100
AcDbLine
 10
133.0277072193
 20
113.7942052412
 30
0.0
 11
133.0277072193
 21
124.7942052412
 31
0.0
  0
LINE
  5
17F
330
1F
100
AcDbEntity
  8
0
  6
Continuous
 62
     7
370
    25
100
AcDbLine
 10
121.7240984922
 20
135.1009674685
 30
0.0
 11
121.7240984922
 21
114.4874430139
 31
0.0
  0
LINE
  5
180
330
1F
100
AcDbEntity
  8
0
  6
Continuous
 62
     7
370
    25
100
AcDbLine
 10
119.0277072193
 20
116.0442052412
 30
0.0
 11
119.0277072193
 21
133.5442052412
 31
0.0
  0
SPLINE
  5
181
330
1F
100
AcDbEntity
  8
0
  6
Continuous
 62
     7
370
    25
100
AcDbSpline
210
0.0
220
0.0
230
1.0
 70
    24
 71
     3
 72
     8
 73
     4
 74
     0
 42
0.000000001
 43
0.00000001
 40
0.0
 40
0.0
 40
0.0
 40
0.0
 40
1.0
 40
1.0
 40
1.0
 40
1.0
 10
136.0446830072495
 20
113.7942052411803
 30
0.0
 10
136.0168499536936
 20
113.7942052411803
 30
0.0
 10
135.9900289659233
 20
113.7942052411803
 30
0.0
 10
135.9642982495201
 20
113.7942052411803
 30
0.0
  0
LINE
  5
182
330
1F
100
AcDbEntity
  8
0
  6
Continuous
 62
     7
370
    25
100
AcDbLine
 10
135.9642982495
 20
113.7942052412
 30
0.0
 11
135.9642982495
 21
114.334191901
 31
0.0
  0
SPLINE
  5
183
330
1F
100
AcDbEntity
  8
0
  6
Continuous
 62
     7
370
    25
100
AcDbSpline
210
0.0
220
0.0
230
1.0
 70
    24
 71
     3
 72
     8
 73
     4
 74
     0
 42
0.000000001
 43
0.00000001
 40
0.0
 40
0.0
 40
0.0
 40
0.0
 40
1.0
 40
1.0
 40
1.0
 40
1.0
 10
135.9642982495201
 20
113.7942052411803
 30
0.0
 10
135.9385577589505
 20
113.7942052411803
 30
0.0
 10
135.9117362393011
 20
113.7942052411803
 30
0.0
 10
135.8839134917908
 20
113.7942052411803
 30
0.0
  0
SPLINE
  5
184
330
1F
100
AcDbEntity
  8
0
  6
Continuous
 62
     7
370
    25
100
AcDbSpline
210
0.0
220
0.0
230
1.0
 70
    24
 71
     3
 72
     8
 73
     4
 74
     0
 42
0.000000001
 43
0.00000001
 40
0.0
 40
0.0
 40
0.0
 40
0.0
 40
1.0
 40
1.0
 40
1.0
 40
1.0
 10
135.9642982495201
 20
135.7942052411803
 30
0.0
 10
135.9900387400897
 20
135.7942052411803
 30
0.0
 10
136.0168602597392
 20
135.7942052411803
 30
0.0
 10
136.0446830072495
 20
135.7942052411803
 30
0.0
  0
LINE
  5
185
330
1F
100
AcDbEntity
  8
0
  6
Continuous
 62
     7
370
    25
100
AcDbLine
 10
135.9642982495
 20
135.2542185814
 30
0.0
 11
135.9642982495
 21
135.7942052412
 31
0.0
  0
SPLINE
  5
186
330
1F
100
AcDbEntity
  8
0
  6
Continuous
 62
     7
370
    25
100
AcDbSpline
210
0.0
220
0.0
230
1.0
 70
    24
 71
     3
 72
     8
 73
     4
 74
     0
 42
0.000000001
 43
0.00000001
 40
0.0
 40
0.0
 40
0.0
 40
0.0
 40
1.0
 40
1.0
 40
1.0
 40
1.0
 10
135.8839134917908
 20
135.7942052411803
 30
0.0
 10
135.9117465453467
 20
135.7942052411803
 30
0.0
 10
135.938567533117
 20
135.7942052411803
 30
0.0
 10
135.9642982495201
 20
135.7942052411803
 30
0.0
  0
LINE
  5
187
330
1F
100
AcDbEntity
  8
0
  6
Continuous
 62
     8
370
    25
100
AcDbLine
 10
155.503797983
 20
115.4442052412
 30
0.0
 11
155.503797983
 21
134.1442052412
 31
0.0
  0
LINE
  5
188
330
1F
100
AcDbEntity
  8
0
  6
Continuous
 62
     8
370
    25
100
AcDbLine
 10
142.103797983
 20
134.1442052412
 30
0.0
 11
142.103797983
 21
115.4442052412
 31
0.0
  0
LINE
  5
189
330
1F
100
AcDbEntity
  8
0
  6
Continuous
 62
     7
370
     0
100
AcDbLine
 10
119.9089332502
 20
134.0529813274
 30
0.0
 11
132.5277072193
 21
134.4473180139
 31
0.0
  0
LINE
  5
18A
330
1F
100
AcDbEntity
  8
0
  6
Continuous
 62
     7
370
     0
100
AcDbLine
 10
119.9089332502
 20
115.535429155
 30
0.0
 11
132.5277072193
 21
115.1410924685
 31
0.0
  0
LINE
  5
18B
330
1F
100
AcDbEntity
  8
0
  6
Continuous
 62
     7
370
     0
100
AcDbLine
 10
132.5277072193
 20
114.1498302412
 30
0.0
 11
132.5277072193
 21
135.4385802412
 31
0.0
  0
LINE
  5
18C
330
1F
100
AcDbEntity
  8
0
  6
CENTERX2
 62
     7
370
    18
100
AcDbLine
 10
184.203797983
 20
124.7942052412
 30
0.0
 11
116.870888548
 21
124.7942052412
 31
0.0
  0
ENDSEC
  0
SECTION
  2
OBJECTS
  0
DICTIONARY
  5
C
330
0
100
AcDbDictionary
281
     1
  3
ACAD_GROUP
350
D
  3
ACAD_LAYOUT
350
1A
  3
ACAD_MLINESTYLE
350
17
  3
ACAD_PLOTSETTINGS
350
19
  3
ACAD_PLOTSTYLENAME
350
E
  3
ACAD_SCALELIST
350
47
  0
DICTIONARY
  5
D
102
{ACAD_REACTORS
330
C
102
}
330
C
100
AcDbDictionary
281
     1
  0
DICTIONARY
  5
1A
102
{ACAD_REACTORS
330
C
102
}
330
C
100
AcDbDictionary
281
     1
  3
Layout1
350
1E
  3
Layout2
350
26
  3
Model
350
22
  0
DICTIONARY
  5
17
102
{ACAD_REACTORS
330
C
102
}
330
C
100
AcDbDictionary
281
     1
  3
Standard
350
18
  0
DICTIONARY
  5
19
102
{ACAD_REACTORS
330
C
102
}
330
C
100
AcDbDictionary
281
     1
  0
ACDBDICTIONARYWDFLT
  5
E
102
{ACAD_REACTORS
330
C
102
}
330
C
100
AcDbDictionary
281
     1
  3
Normal
350
F
100
AcDbDictionaryWithDefault
340
F
  0
DICTIONARY
  5
47
102
{ACAD_REACTORS
330
C
102
}
330
C
100
AcDbDictionary
281
     1
  3
A0
350
48
  3
A1
350
49
  3
A2
350
4A
  3
A3
350
4B
  3
A4
350
4C
  3
A5
350
4D
  3
A6
350
4E
  3
A7
350
4F
  3
A8
350
50
  3
A9
350
51
  3
B0
350
52
  3
B1
350
53
  3
B2
350
54
  3
B3
350
55
  3
B4
350
56
  3
B5
350
57
  3
B6
350
58
  3
B7
350
59
  3
B8
350
5A
  3
B9
350
5B
  3
C0
350
5C
  3
C1
350
5D
  3
C2
350
5E
  3
C3
350
5F
  3
C4
350
60
  3
C5
350
61
  3
C6
350
62
  3
C7
350
63
  3
C8
350
64
  3
C9
350
65
  3
D0
350
66
  3
D1
350
67
  3
D2
350
68
  0
LAYOUT
  5
1E
102
{ACAD_REACTORS
330
1A
102
}
330
1A
100
AcDbPlotSettings
  1

  2
none_device
  4

  6

 40
0.0
 41
0.0
 42
0.0
 43
0.0
 44
0.0
 45
0.0
 46
0.0
 47
0.0
 48
0.0
 49
0.0
140
0.0
141
0.0
142
1.0
143
1.0
 70
   688
 72
     1
 73
     0
 74
     5
  7

 75
    16
147
1.0
148
0.0
149
0.0
100
AcDbLayout
  1
Layout1
 70
     1
 71
     1
 10
0.0
 20
0.0
 11
420.0
 21
297.0
 12
0.0
 22
0.0
 32
0.0
 14
1.0000000000E+20
 24
1.0000000000E+20
 34
1.0000000000E+20
 15
-1.0000000000E+20
 25
-1.0000000000E+20
 35
-1.0000000000E+20
146
0.0
 13
0.0
 23
0.0
 33
0.0
 16
1.0
 26
0.0
 36
0.0
 17
0.0
 27
1.0
 37
0.0
 76
     0
330
1B
  0
LAYOUT
  5
26
102
{ACAD_REACTORS
330
1A
102
}
330
1A
100
AcDbPlotSettings
  1

  2
none_device
  4

  6

 40
0.0
 41
0.0
 42
0.0
 43
0.0
 44
0.0
 45
0.0
 46
0.0
 47
0.0
 48
0.0
 49
0.0
140
0.0
141
0.0
142
1.0
143
1.0
 70
   688
 72
     1
 73
     0
 74
     5
  7

 75
    16
147
1.0
148
0.0
149
0.0
100
AcDbLayout
  1
Layout2
 70
     1
 71
     2
 10
0.0
 20
0.0
 11
0.0
 21
0.0
 12
0.0
 22
0.0
 32
0.0
 14
0.0
 24
0.0
 34
0.0
 15
0.0
 25
0.0
 35
0.0
146
0.0
 13
0.0
 23
0.0
 33
0.0
 16
1.0
 26
0.0
 36
0.0
 17
0.0
 27
1.0
 37
0.0
 76
     0
330
23
  0
LAYOUT
  5
22
102
{ACAD_REACTORS
330
1A
102
}
330
1A
100
AcDbPlotSettings
  1

  2
none_device
  4
Letter_(8.50_x_11.00_Inches)
  6

 40
6.35
 41
6.35
 42
6.35000508
 43
6.35000508
 44
215.9
 45
279.4
 46
0.0
 47
0.0
 48
0.0
 49
0.0
140
0.0
141
0.0
142
1.0
143
1.0
 70
  1712
 72
     1
 73
     0
 74
     0
  7

 75
     0
147
1.0
148
0.0
149
0.0
100
AcDbLayout
  1
Model
 70
     1
 71
     0
 10
0.0
 20
0.0
 11
431.8
 21
279.4
 12
0.0
 22
0.0
 32
0.0
 14
0.0
 24
0.0
 34
0.0
 15
431.8
 25
279.4
 35
0.0
146
0.0
 13
0.0
 23
0.0
 33
0.0
 16
1.0
 26
0.0
 36
0.0
 17
0.0
 27
1.0
 37
0.0
 76
     0
330
1F
331
29
  0
MLINESTYLE
  5
18
102
{ACAD_REACTORS
330
17
102
}
330
17
100
AcDbMlineStyle
  2
Standard
 70
     0
  3

 62
   256
 51
90.0
 52
90.0
 71
     2
 49
0.5
 62
   256
  6
BYLAYER
 49
-0.5
 62
   256
  6
BYLAYER
  0
ACDBPLACEHOLDER
  5
F
102
{ACAD_REACTORS
330
E
102
}
330
E
  0
SCALE
  5
48
102
{ACAD_REACTORS
330
47
102
}
330
47
100
AcDbScale
 70
     0
300
1:1
140
1.0
141
1.0
290
     1
  0
SCALE
  5
49
102
{ACAD_REACTORS
330
47
102
}
330
47
100
AcDbScale
 70
     0
300
1:2
140
1.0
141
2.0
290
     0
  0
SCALE
  5
4A
102
{ACAD_REACTORS
330
47
102
}
330
47
100
AcDbScale
 70
     0
300
1:4
140
1.0
141
4.0
290
     0
  0
SCALE
  5
4B
102
{ACAD_REACTORS
330
47
102
}
330
47
100
AcDbScale
 70
     0
300
1:5
140
1.0
141
5.0
290
     0
  0
SCALE
  5
4C
102
{ACAD_REACTORS
330
47
102
}
330
47
100
AcDbScale
 70
     0
300
1:8
140
1.0
141
8.0
290
     0
  0
SCALE
  5
4D
102
{ACAD_REACTORS
330
47
102
}
330
47
100
AcDbScale
 70
     0
300
1:10
140
1.0
141
10.0
290
     0
  0
SCALE
  5
4E
102
{ACAD_REACTORS
330
47
102
}
330
47
100
AcDbScale
 70
     0
300
1:16
140
1.0
141
16.0
290
     0
  0
SCALE
  5
4F
102
{ACAD_REACTORS
330
47
102
}
330
47
100
AcDbScale
 70
     0
300
1:20
140
1.0
141
20.0
290
     0
  0
SCALE
  5
50
102
{ACAD_REACTORS
330
47
102
}
330
47
100
AcDbScale
 70
     0
300
1:30
140
1.0
141
30.0
290
     0
  0
SCALE
  5
51
102
{ACAD_REACTORS
330
47
102
}
330
47
100
AcDbScale
 70
     0
300
1:40
140
1.0
141
40.0
290
     0
  0
SCALE
  5
52
102
{ACAD_REACTORS
330
47
102
}
330
47
100
AcDbScale
 70
     0
300
1:50
140
1.0
141
50.0
290
     0
  0
SCALE
  5
53
102
{ACAD_REACTORS
330
47
102
}
330
47
100
AcDbScale
 70
     0
300
1:100
140
1.0
141
100.0
290
     0
  0
SCALE
  5
54
102
{ACAD_REACTORS
330
47
102
}
330
47
100
AcDbScale
 70
     0
300
2:1
140
2.0
141
1.0
290
     0
  0
SCALE
  5
55
102
{ACAD_REACTORS
330
47
102
}
330
47
100
AcDbScale
 70
     0
300
4:1
140
4.0
141
1.0
290
     0
  0
SCALE
  5
56
102
{ACAD_REACTORS
330
47
102
}
330
47
100
AcDbScale
 70
     0
300
8:1
140
8.0
141
1.0
290
     0
  0
SCALE
  5
57
102
{ACAD_REACTORS
330
47
102
}
330
47
100
AcDbScale
 70
     0
300
10:1
140
10.0
141
1.0
290
     0
  0
SCALE
  5
58
102
{ACAD_REACTORS
330
47
102
}
330
47
100
AcDbScale
 70
     0
300
100:1
140
100.0
141
1.0
290
     0
  0
SCALE
  5
59
102
{ACAD_REACTORS
330
47
102
}
330
47
100
AcDbScale
 70
     0
300
1/128" = 1'-0"
140
0.0078125
141
12.0
290
     0
  0
SCALE
  5
5A
102
{ACAD_REACTORS
330
47
102
}
330
47
100
AcDbScale
 70
     0
300
1/64" = 1'-0"
140
0.015625
141
12.0
290
     0
  0
SCALE
  5
5B
102
{ACAD_REACTORS
330
47
102
}
330
47
100
AcDbScale
 70
     0
300
1/32" = 1'-0"
140
0.03125
141
12.0
290
     0
  0
SCALE
  5
5C
102
{ACAD_REACTORS
330
47
102
}
330
47
100
AcDbScale
 70
     0
300
1/16" = 1'-0"
140
0.0625
141
12.0
290
     0
  0
SCALE
  5
5D
102
{ACAD_REACTORS
330
47
102
}
330
47
100
AcDbScale
 70
     0
300
3/32" = 1'-0"
140
0.09375
141
12.0
290
     0
  0
SCALE
  5
5E
102
{ACAD_REACTORS
330
47
102
}
330
47
100
AcDbScale
 70
     0
300
1/8" = 1'-0"
140
0.125
141
12.0
290
     0
  0
SCALE
  5
5F
102
{ACAD_REACTORS
330
47
102
}
330
47
100
AcDbScale
 70
     0
300
3/16" = 1'-0"
140
0.1875
141
12.0
290
     0
  0
SCALE
  5
60
102
{ACAD_REACTORS
330
47
102
}
330
47
100
AcDbScale
 70
     0
300
1/4" = 1'-0"
140
0.25
141
12.0
290
     0
  0
SCALE
  5
61
102
{ACAD_REACTORS
330
47
102
}
330
47
100
AcDbScale
 70
     0
300
3/8" = 1'-0"
140
0.375
141
12.0
290
     0
  0
SCALE
  5
62
102
{ACAD_REACTORS
330
47
102
}
330
47
100
AcDbScale
 70
     0
300
1/2" = 1'-0"
140
0.5
141
12.0
290
     0
  0
SCALE
  5
63
102
{ACAD_REACTORS
330
47
102
}
330
47
100
AcDbScale
 70
     0
300
3/4" = 1'-0"
140
0.75
141
12.0
290
     0
  0
SCALE
  5
64
102
{ACAD_REACTORS
330
47
102
}
330
47
100
AcDbScale
 70
     0
300
1" = 1'-0"
140
1.0
141
12.0
290
     0
  0
SCALE
  5
65
102
{ACAD_REACTORS
330
47
102
}
330
47
100
AcDbScale
 70
     0
300
1-1/2" = 1'-0"
140
1.5
141
12.0
290
     0
  0
SCALE
  5
66
102
{ACAD_REACTORS
330
47
102
}
330
47
100
AcDbScale
 70
     0
300
3" = 1'-0"
140
3.0
141
12.0
290
     0
  0
SCALE
  5
67
102
{ACAD_REACTORS
330
47
102
}
330
47
100
AcDbScale
 70
     0
300
6" = 1'-0"
140
6.0
141
12.0
290
     0
  0
SCALE
  5
68
102
{ACAD_REACTORS
330
47
102
}
330
47
100
AcDbScale
 70
     0
300
1'-0" = 1'-0"
140
12.0
141
12.0
290
     0
  0
ENDSEC
  0
EOF
