  0
SECTION
  2
HEADER
  9
$ACADVER
  1
AC1015
  9
$ACADMAINTVER
 70
     6
  9
$DWGCODEPAGE
  3
DOS932
  9
$INSBASE
 10
0.0
 20
0.0
 30
0.0
  9
$EXTMIN
 10
0.0
 20
0.0
 30
0.0
  9
$EXTMAX
 10
431.8
 20
279.4
 30
0.0
  9
$LIMMIN
 10
0.0
 20
0.0
  9
$LIMMAX
 10
431.8
 20
279.4
  9
$ORTHOMODE
 70
     0
  9
$REGENMODE
 70
     1
  9
$FILLMODE
 70
     1
  9
$QTEXTMODE
 70
     0
  9
$MIRRTEXT
 70
     1
  9
$LTSCALE
 40
1.0
  9
$ATTMODE
 70
     1
  9
$TEXTSIZE
 40
3.5
  9
$TRACEWID
 40
1.0
  9
$TEXTSTYLE
  7
Standard
  9
$CLAYER
  8
0
  9
$CELTYPE
  6
ByLayer
  9
$CECOLOR
 62
   256
  9
$CELTSCALE
 40
1.0
  9
$DISPSILH
 70
     0
  9
$DIMSCALE
 40
1.0
  9
$DIMASZ
 40
3.302
  9
$DIMEXO
 40
1.0
  9
$DIMDLI
 40
3.75
  9
$DIMRND
 40
0.0
  9
$DIMDLE
 40
0.0
  9
$DIMEXE
 40
1.0
  9
$DIMTP
 40
0.0
  9
$DIMTM
 40
0.0
  9
$DIMTXT
 40
3.5
  9
$DIMCEN
 40
2.5
  9
$DIMTSZ
 40
0.0
  9
$DIMTOL
 70
     0
  9
$DIMLIM
 70
     0
  9
$DIMTIH
 70
     1
  9
$DIMTOH
 70
     1
  9
$DIMSE1
 70
     0
  9
$DIMSE2
 70
     0
  9
$DIMTAD
 70
     1
  9
$DIMZIN
 70
     1
  9
$DIMBLK
  1

  9
$DIMASO
 70
     1
  9
$DIMSHO
 70
     1
  9
$DIMPOST
  1

  9
$DIMAPOST
  1

  9
$DIMALT
 70
     0
  9
$DIMALTD
 70
     3
  9
$DIMALTF
 40
0.0393700787
  9
$DIMLFAC
 40
1.0
  9
$DIMTOFL
 70
     1
  9
$DIMTVP
 40
0.0
  9
$DIMTIX
 70
     0
  9
$DIMSOXD
 70
     0
  9
$DIMSAH
 70
     0
  9
$DIMBLK1
  1

  9
$DIMBLK2
  1

  9
$DIMSTYLE
  2
ISO-25
  9
$DIMCLRD
 70
     0
  9
$DIMCLRE
 70
     0
  9
$DIMCLRT
 70
     0
  9
$DIMTFAC
 40
1.0
  9
$DIMGAP
 40
1.524
  9
$DIMJUST
 70
     0
  9
$DIMSD1
 70
     0
  9
$DIMSD2
 70
     0
  9
$DIMTOLJ
 70
     0
  9
$DIMTZIN
 70
     1
  9
$DIMALTZ
 70
     0
  9
$DIMALTTZ
 70
     0
  9
$DIMUPT
 70
     0
  9
$DIMDEC
 70
     2
  9
$DIMTDEC
 70
     2
  9
$DIMALTU
 70
     2
  9
$DIMALTTD
 70
     3
  9
$DIMTXSTY
  7
Standard
  9
$DIMAUNIT
 70
     0
  9
$DIMADEC
 70
     2
  9
$DIMALTRND
 40
0.0
  9
$DIMAZIN
 70
     0
  9
$DIMDSEP
 70
    44
  9
$DIMATFIT
 70
     3
  9
$DIMFRAC
 70
     0
  9
$DIMLDRBLK
  1

  9
$DIMLUNIT
 70
     2
  9
$DIMLWD
 70
    -2
  9
$DIMLWE
 70
    -2
  9
$DIMTMOVE
 70
     0
  9
$LUNITS
 70
     2
  9
$LUPREC
 70
     2
  9
$SKETCHINC
 40
1.0
  9
$FILLETRAD
 40
10.0
  9
$AUNITS
 70
     0
  9
$AUPREC
 70
     2
  9
$MENU
  1
.
  9
$ELEVATION
 40
0.0
  9
$PELEVATION
 40
0.0
  9
$THICKNESS
 40
0.0
  9
$LIMCHECK
 70
     0
  9
$CHAMFERA
 40
0.0
  9
$CHAMFERB
 40
0.0
  9
$CHAMFERC
 40
0.0
  9
$CHAMFERD
 40
0.0
  9
$SKPOLY
 70
     0
  9
$TDCREATE
 40
2459285.483573067
  9
$TDUCREATE
 40
2459285.108573067
  9
$TDUPDATE
 40
2459285.483573611
  9
$TDUUPDATE
 40
2459285.108573611
  9
$TDINDWG
 40
0.0000000116
  9
$TDUSRTIMER
 40
0.0000000116
  9
$USRTIMER
 70
     1
  9
$ANGBASE
 50
0.0
  9
$ANGDIR
 70
     0
  9
$PDMODE
 70
     0
  9
$PDSIZE
 40
-1.0
  9
$PLINEWID
 40
0.0
  9
$SPLFRAME
 70
     0
  9
$SPLINETYPE
 70
     6
  9
$SPLINESEGS
 70
     8
  9
$HANDSEED
  5
1AE
  9
$SURFTAB1
 70
     6
  9
$SURFTAB2
 70
     6
  9
$SURFTYPE
 70
     6
  9
$SURFU
 70
     6
  9
$SURFV
 70
     6
  9
$UCSBASE
  2

  9
$UCSNAME
  2

  9
$UCSORG
 10
0.0
 20
0.0
 30
0.0
  9
$UCSXDIR
 10
1.0
 20
0.0
 30
0.0
  9
$UCSYDIR
 10
0.0
 20
1.0
 30
0.0
  9
$UCSORTHOREF
  2

  9
$UCSORTHOVIEW
 70
     0
  9
$UCSORGTOP
 10
0.0
 20
0.0
 30
0.0
  9
$UCSORGBOTTOM
 10
0.0
 20
0.0
 30
0.0
  9
$UCSORGLEFT
 10
0.0
 20
0.0
 30
0.0
  9
$UCSORGRIGHT
 10
0.0
 20
0.0
 30
0.0
  9
$UCSORGFRONT
 10
0.0
 20
0.0
 30
0.0
  9
$UCSORGBACK
 10
0.0
 20
0.0
 30
0.0
  9
$PUCSBASE
  2

  9
$PUCSNAME
  2

  9
$PUCSORG
 10
0.0
 20
0.0
 30
0.0
  9
$PUCSXDIR
 10
1.0
 20
0.0
 30
0.0
  9
$PUCSYDIR
 10
0.0
 20
1.0
 30
0.0
  9
$PUCSORTHOREF
  2

  9
$PUCSORTHOVIEW
 70
     0
  9
$PUCSORGTOP
 10
0.0
 20
0.0
 30
0.0
  9
$PUCSORGBOTTOM
 10
0.0
 20
0.0
 30
0.0
  9
$PUCSORGLEFT
 10
0.0
 20
0.0
 30
0.0
  9
$PUCSORGRIGHT
 10
0.0
 20
0.0
 30
0.0
  9
$PUCSORGFRONT
 10
0.0
 20
0.0
 30
0.0
  9
$PUCSORGBACK
 10
0.0
 20
0.0
 30
0.0
  9
$USERI1
 70
     0
  9
$USERI2
 70
     0
  9
$USERI3
 70
     0
  9
$USERI4
 70
     0
  9
$USERI5
 70
     0
  9
$USERR1
 40
0.0
  9
$USERR2
 40
0.0
  9
$USERR3
 40
0.0
  9
$USERR4
 40
0.0
  9
$USERR5
 40
0.0
  9
$WORLDVIEW
 70
     1
  9
$SHADEDGE
 70
     3
  9
$SHADEDIF
 70
    70
  9
$TILEMODE
 70
     1
  9
$MAXACTVP
 70
    64
  9
$PINSBASE
 10
0.0
 20
0.0
 30
0.0
  9
$PLIMCHECK
 70
     0
  9
$PEXTMIN
 10
1.0000000000E+20
 20
1.0000000000E+20
 30
1.0000000000E+20
  9
$PEXTMAX
 10
-1.0000000000E+20
 20
-1.0000000000E+20
 30
-1.0000000000E+20
  9
$PLIMMIN
 10
0.0
 20
0.0
  9
$PLIMMAX
 10
420.0
 20
297.0
  9
$UNITMODE
 70
     0
  9
$VISRETAIN
 70
     1
  9
$PLINEGEN
 70
     0
  9
$PSLTSCALE
 70
     1
  9
$TREEDEPTH
 70
  3020
  9
$CMLSTYLE
  2
Standard
  9
$CMLJUST
 70
     0
  9
$CMLSCALE
 40
20.0
  9
$PROXYGRAPHICS
 70
     1
  9
$MEASUREMENT
 70
     1
  9
$CELWEIGHT
370
    -1
  9
$ENDCAPS
280
     0
  9
$JOINSTYLE
280
     0
  9
$LWDISPLAY
290
     1
  9
$INSUNITS
 70
     4
  9
$HYPERLINKBASE
  1

  9
$STYLESHEET
  1

  9
$XEDIT
290
     1
  9
$CEPSNTYPE
380
     0
  9
$PSTYLEMODE
290
     1
  9
$FINGERPRINTGUID
  2
{36D248F3-0C37-48E9-BE51-581EF91DB7A0}
  9
$VERSIONGUID
  2
{FAEB1C32-E019-11D5-929B-00C0DF256EC4}
  9
$EXTNAMES
290
     1
  9
$PSVPSCALE
 40
0.0
  9
$OLESTARTUP
290
     0
  0
ENDSEC
  0
SECTION
  2
CLASSES
  0
CLASS
  1
ACDBDICTIONARYWDFLT
  2
AcDbDictionaryWithDefault
  3
ObjectDBX Classes
 90
        0
280
     0
281
     0
  0
CLASS
  1
VISUALSTYLE
  2
AcDbVisualStyle
  3
ObjectDBX Classes
 90
     4095
280
     0
281
     0
  0
CLASS
  1
MATERIAL
  2
AcDbMaterial
  3
ObjectDBX Classes
 90
     1153
280
     0
281
     0
  0
CLASS
  1
SCALE
  2
AcDbScale
  3
ObjectDBX Classes
 90
     1153
280
     0
281
     0
  0
CLASS
  1
TABLESTYLE
  2
AcDbTableStyle
  3
ObjectDBX Classes
 90
     4095
280
     0
281
     0
  0
CLASS
  1
MLEADERSTYLE
  2
AcDbMLeaderStyle
  3
ACDB_MLEADERSTYLE_CLASS
 90
     4095
280
     0
281
     0
  0
CLASS
  1
SUN
  2
AcDbSun
  3
SCENEOE
 90
     1153
280
     0
281
     0
  0
CLASS
  1
ACDBPLACEHOLDER
  2
AcDbPlaceHolder
  3
ObjectDBX Classes
 90
        0
280
     0
281
     0
  0
CLASS
  1
LAYOUT
  2
AcDbLayout
  3
ObjectDBX Classes
 90
        0
280
     0
281
     0
  0
ENDSEC
  0
SECTION
  2
TABLES
  0
TABLE
  2
VPORT
  5
8
330
0
100
AcDbSymbolTable
 70
     1
  0
VPORT
  5
29
330
8
100
AcDbSymbolTableRecord
100
AcDbViewportTableRecord
  2
*Active
 70
     0
 10
0.0
 20
0.0
 11
1.0
 21
1.0
 12
215.9
 22
139.7
 13
0.0
 23
0.0
 14
10.0
 24
10.0
 15
10.0
 25
10.0
 16
0.0
 26
0.0
 36
1.0
 17
0.0
 27
0.0
 37
0.0
 40
279.4
 41
1.5454545455
 42
50.0
 43
0.0
 44
0.0
 50
0.0
 51
0.0
 71
     0
 72
  2000
 73
     1
 74
     3
 75
     0
 76
     0
 77
     0
 78
     0
281
     0
 65
     1
110
0.0
120
0.0
130
0.0
111
1.0
121
0.0
131
0.0
112
0.0
122
1.0
132
0.0
 79
     0
146
0.0
  0
ENDTAB
  0
TABLE
  2
LTYPE
  5
5
330
0
100
AcDbSymbolTable
 70
     6
  0
LTYPE
  5
14
330
5
100
AcDbSymbolTableRecord
100
AcDbLinetypeTableRecord
  2
ByBlock
 70
     0
  3

 72
    65
 73
     0
 40
0.0
  0
LTYPE
  5
15
330
5
100
AcDbSymbolTableRecord
100
AcDbLinetypeTableRecord
  2
ByLayer
 70
     0
  3

 72
    65
 73
     0
 40
0.0
  0
LTYPE
  5
16
330
5
100
AcDbSymbolTableRecord
100
AcDbLinetypeTableRecord
  2
Continuous
 70
     0
  3
Solid line
 72
    65
 73
     0
 40
0.0
  0
LTYPE
  5
6E
330
5
100
AcDbSymbolTableRecord
100
AcDbLinetypeTableRecord
  2
HIDDEN
 70
     0
  3
Hidden __ __ __ __ __ __ __ __ __ __ __ __ __ __
 72
    65
 73
     2
 40
1.905
 49
1.27
 74
     0
 49
-0.635
 74
     0
  0
LTYPE
  5
6F
330
5
100
AcDbSymbolTableRecord
100
AcDbLinetypeTableRecord
  2
PHANTOM
 70
     0
  3
Phantom ______  __  __  ______  __  __  ______
 72
    65
 73
     6
 40
12.7
 49
6.35
 74
     0
 49
-1.27
 74
     0
 49
1.27
 74
     0
 49
-1.27
 74
     0
 49
1.27
 74
     0
 49
-1.27
 74
     0
  0
LTYPE
  5
70
330
5
100
AcDbSymbolTableRecord
100
AcDbLinetypeTableRecord
  2
CENTER
 70
     0
  3
Center ____ _ ____ _ ____ _ ____ _ ____ _ ____
 72
    65
 73
     4
 40
10.16
 49
6.35
 74
     0
 49
-1.27
 74
     0
 49
1.27
 74
     0
 49
-1.27
 74
     0
  0
LTYPE
  5
71
330
5
100
AcDbSymbolTableRecord
100
AcDbLinetypeTableRecord
  2
CENTERX2
 70
     0
  3
Center (2x) ________  __  ________  __  _____
 72
    65
 73
     4
 40
20.32
 49
12.7
 74
     0
 49
-2.54
 74
     0
 49
2.54
 74
     0
 49
-2.54
 74
     0
  0
LTYPE
  5
72
330
5
100
AcDbSymbolTableRecord
100
AcDbLinetypeTableRecord
  2
DOT2
 70
     0
  3
Dot (.5x) ........................................
 72
    65
 73
     2
 40
0.635
 49
0.0
 74
     0
 49
-0.635
 74
     0
  0
ENDTAB
  0
TABLE
  2
LAYER
  5
2
330
0
100
AcDbSymbolTable
 70
     1
  0
LAYER
  5
10
330
2
100
AcDbSymbolTableRecord
100
AcDbLayerTableRecord
  2
0
 70
     0
 62
     7
  6
Continuous
370
    -3
390
F
  0
ENDTAB
  0
TABLE
  2
STYLE
  5
3
330
0
100
AcDbSymbolTable
 70
     2
  0
STYLE
  5
11
330
3
100
AcDbSymbolTableRecord
100
AcDbTextStyleTableRecord
  2
Standard
 70
     0
 40
0.0
 41
1.0
 50
0.0
 71
     0
 42
3.5
  3
txt
  4
bigfont
  0
STYLE
  5
73
330
3
100
AcDbSymbolTableRecord
100
AcDbTextStyleTableRecord
  2
SLDTEXTSTYLE0
 70
     0
 40
0.0
 41
0.7
 50
0.0
 71
     0
 42
3.5
  3
TXT
  4
bigfont
  0
ENDTAB
  0
TABLE
  2
VIEW
  5
6
330
0
100
AcDbSymbolTable
 70
     0
  0
ENDTAB
  0
TABLE
  2
UCS
  5
7
330
0
100
AcDbSymbolTable
 70
     0
  0
ENDTAB
  0
TABLE
  2
APPID
  5
9
330
0
100
AcDbSymbolTable
 70
     1
  0
APPID
  5
12
330
9
100
AcDbSymbolTableRecord
100
AcDbRegAppTableRecord
  2
ACAD
 70
     0
  0
ENDTAB
  0
TABLE
  2
DIMSTYLE
  5
A
330
0
100
AcDbSymbolTable
 70
     1
100
AcDbDimStyleTable
  0
DIMSTYLE
105
27
330
A
100
AcDbSymbolTableRecord
100
AcDbDimStyleTableRecord
  2
ISO-25
 70
     0
 41
2.5
 42
0.625
 43
3.75
 44
1.25
 73
     0
 74
     0
 77
     1
 78
     8
140
2.5
141
2.5
143
0.0393700787
147
0.625
171
     3
172
     1
178
     0
271
     2
272
     2
274
     3
278
    44
283
     0
284
     8
340
11
  0
ENDTAB
  0
TABLE
  2
BLOCK_RECORD
  5
1
330
0
100
AcDbSymbolTable
 70
     2
  0
BLOCK_RECORD
  5
1F
330
1
100
AcDbSymbolTableRecord
100
AcDbBlockTableRecord
  2
*Model_Space
340
22
  0
BLOCK_RECORD
  5
1B
330
1
100
AcDbSymbolTableRecord
100
AcDbBlockTableRecord
  2
*Paper_Space
340
1E
  0
BLOCK_RECORD
  5
23
330
1
100
AcDbSymbolTableRecord
100
AcDbBlockTableRecord
  2
*Paper_Space0
340
26
  0
BLOCK_RECORD
  5
118
330
1
100
AcDbSymbolTableRecord
100
AcDbBlockTableRecord
  2
SW_CENTERMARKSYMBOL_0
340
0
102
{BLKREFS
331
123
102
}
  0
ENDTAB
  0
ENDSEC
  0
SECTION
  2
BLOCKS
  0
BLOCK
  5
20
330
1F
100
AcDbEntity
  8
0
100
AcDbBlockBegin
  2
*Model_Space
 70
     0
 10
0.0
 20
0.0
 30
0.0
  3
*Model_Space
  1

  0
ENDBLK
  5
21
330
1F
100
AcDbEntity
  8
0
100
AcDbBlockEnd
  0
BLOCK
  5
1C
330
1B
100
AcDbEntity
 67
     1
  8
0
100
AcDbBlockBegin
  2
*Paper_Space
 70
     0
 10
0.0
 20
0.0
 30
0.0
  3
*Paper_Space
  1

  0
ENDBLK
  5
1D
330
1B
100
AcDbEntity
 67
     1
  8
0
100
AcDbBlockEnd
  0
BLOCK
  5
24
330
23
100
AcDbEntity
  8
0
100
AcDbBlockBegin
  2
*Paper_Space0
 70
     0
 10
0.0
 20
0.0
 30
0.0
  3
*Paper_Space0
  1

  0
ENDBLK
  5
25
330
23
100
AcDbEntity
  8
0
100
AcDbBlockEnd
  0
BLOCK
  5
119
330
118
100
AcDbEntity
  8
0
100
AcDbBlockBegin
  2
SW_CENTERMARKSYMBOL_0
 70
     0
 10
0.0
 20
0.0
 30
0.0
  3
SW_CENTERMARKSYMBOL_0
  1

  0
LINE
  5
11B
330
118
100
AcDbEntity
  8
0
  6
Continuous
 62
     0
370
    18
100
AcDbLine
 10
0.0
 20
0.0
 30
0.0
 11
0.0
 21
2.5
 31
0.0
  0
LINE
  5
11C
330
118
100
AcDbEntity
  8
0
  6
Continuous
 62
     0
370
    18
100
AcDbLine
 10
0.0
 20
0.0
 30
0.0
 11
-2.5
 21
0.0
 31
0.0
  0
LINE
  5
11D
330
118
100
AcDbEntity
  8
0
  6
Continuous
 62
     0
370
    18
100
AcDbLine
 10
0.0
 20
0.0
 30
0.0
 11
0.0
 21
-2.5
 31
0.0
  0
LINE
  5
11E
330
118
100
AcDbEntity
  8
0
  6
Continuous
 62
     0
370
    18
100
AcDbLine
 10
0.0
 20
0.0
 30
0.0
 11
2.5
 21
0.0
 31
0.0
  0
LINE
  5
11F
330
118
100
AcDbEntity
  8
0
  6
Continuous
 62
     0
370
    18
100
AcDbLine
 10
0.0
 20
5.0
 30
0.0
 11
0.0
 21
15.3188611551
 31
0.0
  0
LINE
  5
120
330
118
100
AcDbEntity
  8
0
  6
Continuous
 62
     0
370
    18
100
AcDbLine
 10
-5.0
 20
0.0
 30
0.0
 11
-14.25
 21
0.0
 31
0.0
  0
LINE
  5
121
330
118
100
AcDbEntity
  8
0
  6
Continuous
 62
     0
370
    18
100
AcDbLine
 10
0.0
 20
-5.0
 30
0.0
 11
0.0
 21
-15.2903890752
 31
0.0
  0
LINE
  5
122
330
118
100
AcDbEntity
  8
0
  6
Continuous
 62
     0
370
    18
100
AcDbLine
 10
5.0
 20
0.0
 30
0.0
 11
14.25
 21
0.0
 31
0.0
  0
ENDBLK
  5
11A
330
118
100
AcDbEntity
  8
0
100
AcDbBlockEnd
  0
ENDSEC
  0
SECTION
  2
ENTITIES
  0
MTEXT
  5
74
330
1F
100
AcDbEntity
  8
0
  6
Continuous
 62
     7
370
     0
100
AcDbMText
 10
194.6374136266
 20
100.4196135067
 30
0.0
 40
4.7625
 41
0.0
 71
     1
 72
     1
  1
HS-1316R
  7
SLDTEXTSTYLE0
 73
     1
 44
1.0
  0
LINE
  5
75
330
1F
100
AcDbEntity
  8
0
  6
Continuous
 62
     7
370
    25
100
AcDbLine
 10
162.3394298124
 20
65.8823115611
 30
0.0
 11
168.8394298124
 21
65.8823115611
 31
0.0
  0
LINE
  5
76
330
1F
100
AcDbEntity
  8
0
  6
Continuous
 62
     7
370
    25
100
AcDbLine
 10
168.8394298124
 20
81.8823115611
 30
0.0
 11
162.3394298124
 21
81.8823115611
 31
0.0
  0
LINE
  5
77
330
1F
100
AcDbEntity
  8
0
  6
Continuous
 62
     7
370
    25
100
AcDbLine
 10
168.8394298124
 20
65.8823115611
 30
0.0
 11
173.3394298124
 21
66.6323115611
 31
0.0
  0
LINE
  5
78
330
1F
100
AcDbEntity
  8
0
  6
Continuous
 62
     7
370
    25
100
AcDbLine
 10
173.3394298124
 20
81.1323115611
 30
0.0
 11
168.8394298124
 21
81.8823115611
 31
0.0
  0
ARC
  5
79
330
1F
100
AcDbEntity
  8
0
  6
Continuous
 62
     7
370
    25
100
AcDbCircle
 10
186.9394298124
 20
81.7701096201
 30
0.0
 40
0.0999999999999988
100
AcDbArc
 50
83.4180553448
 51
180.0
  0
ARC
  5
7A
330
1F
100
AcDbEntity
  8
0
  6
Continuous
 62
     7
370
    25
100
AcDbCircle
 10
186.9394298124
 20
65.9945135021
 30
0.0
 40
0.0999999999999988
100
AcDbArc
 50
180.0
 51
276.5819446552
  0
LINE
  5
7B
330
1F
100
AcDbEntity
  8
0
  6
Continuous
 62
     7
370
    25
100
AcDbLine
 10
186.9508922232
 20
65.8951726085
 30
0.0
 11
192.7433844509
 21
66.5635370963
 31
0.0
  0
LINE
  5
7C
330
1F
100
AcDbEntity
  8
0
  6
Continuous
 62
     7
370
    25
100
AcDbLine
 10
192.7433844509
 20
81.2010860259
 30
0.0
 11
186.9508922232
 21
81.8694505137
 31
0.0
  0
ARC
  5
7D
330
1F
100
AcDbEntity
  8
0
  6
Continuous
 62
     7
370
    25
100
AcDbCircle
 10
177.9394298124
 20
81.7642655189
 30
0.0
 40
0.1000000000000104
100
AcDbArc
 50
80.537677792
 51
180.0
  0
ARC
  5
7E
330
1F
100
AcDbEntity
  8
0
  6
Continuous
 62
     7
370
    25
100
AcDbCircle
 10
177.9394298124
 20
66.0003576033
 30
0.0
 40
0.1000000000000104
100
AcDbArc
 50
180.0
 51
279.462322208
  0
ARC
  5
7F
330
1F
100
AcDbEntity
  8
0
  6
Continuous
 62
     7
370
    25
100
AcDbCircle
 10
173.4394298124
 20
81.7642655189
 30
0.0
 40
0.1000000000000104
100
AcDbArc
 50
80.537677792
 51
180.0
  0
ARC
  5
80
330
1F
100
AcDbEntity
  8
0
  6
Continuous
 62
     7
370
    25
100
AcDbCircle
 10
173.4394298124
 20
66.0003576033
 30
0.0
 40
0.1000000000000104
100
AcDbArc
 50
180.0
 51
279.462322208
  0
ARC
  5
81
330
1F
100
AcDbEntity
  8
0
  6
Continuous
 62
     7
370
    25
100
AcDbCircle
 10
182.4394298124
 20
81.7642655189
 30
0.0
 40
0.1000000000000104
100
AcDbArc
 50
80.537677792
 51
180.0
  0
ARC
  5
82
330
1F
100
AcDbEntity
  8
0
  6
Continuous
 62
     7
370
    25
100
AcDbCircle
 10
182.4394298124
 20
66.0003576033
 30
0.0
 40
0.1000000000000104
100
AcDbArc
 50
180.0
 51
279.462322208
  0
LINE
  5
83
330
1F
100
AcDbEntity
  8
0
  6
Continuous
 62
     7
370
    25
100
AcDbLine
 10
173.4558697111
 20
65.9017182109
 30
0.0
 11
177.8394298124
 21
66.6323115611
 31
0.0
  0
LINE
  5
84
330
1F
100
AcDbEntity
  8
0
  6
Continuous
 62
     7
370
    25
100
AcDbLine
 10
177.8394298124
 20
81.1323115611
 30
0.0
 11
173.4558697111
 21
81.8629049113
 31
0.0
  0
LINE
  5
85
330
1F
100
AcDbEntity
  8
0
  6
Continuous
 62
     7
370
    25
100
AcDbLine
 10
177.9558697111
 20
65.9017182109
 30
0.0
 11
182.3394298124
 21
66.6323115611
 31
0.0
  0
LINE
  5
86
330
1F
100
AcDbEntity
  8
0
  6
Continuous
 62
     7
370
    25
100
AcDbLine
 10
182.3394298124
 20
81.1323115611
 30
0.0
 11
177.9558697111
 21
81.8629049113
 31
0.0
  0
LINE
  5
87
330
1F
100
AcDbEntity
  8
0
  6
Continuous
 62
     7
370
    25
100
AcDbLine
 10
182.4558697111
 20
65.9017182109
 30
0.0
 11
186.8394298124
 21
66.6323115611
 31
0.0
  0
LINE
  5
88
330
1F
100
AcDbEntity
  8
0
  6
Continuous
 62
     7
370
    25
100
AcDbLine
 10
186.8394298124
 20
81.1323115611
 30
0.0
 11
182.4558697111
 21
81.8629049113
 31
0.0
  0
LINE
  5
89
330
1F
100
AcDbEntity
  8
0
  6
Continuous
 62
     7
370
    25
100
AcDbLine
 10
192.7433844509
 20
66.5635370963
 30
0.0
 11
193.3394298124
 21
67.2323115611
 31
0.0
  0
LINE
  5
8A
330
1F
100
AcDbEntity
  8
0
  6
Continuous
 62
     7
370
    25
100
AcDbLine
 10
193.3394298124
 20
80.5323115611
 30
0.0
 11
192.7433844509
 21
81.2010860259
 31
0.0
  0
LINE
  5
8B
330
1F
100
AcDbEntity
  8
0
  6
Continuous
 62
     7
370
    25
100
AcDbLine
 10
159.1232954754
 20
60.0259051005
 30
0.0
 11
160.3394298124
 21
62.1323115611
 31
0.0
  0
LINE
  5
8C
330
1F
100
AcDbEntity
  8
0
  6
Continuous
 62
     7
370
    25
100
AcDbLine
 10
160.3394298124
 20
85.6323115611
 30
0.0
 11
159.1232954754
 21
87.7387180216
 31
0.0
  0
LINE
  5
8D
330
1F
100
AcDbEntity
  8
0
  6
Continuous
 62
     7
370
    25
100
AcDbLine
 10
149.5555641494
 20
87.7387180216
 30
0.0
 11
148.3394298124
 21
85.6323115611
 31
0.0
  0
LINE
  5
8E
330
1F
100
AcDbEntity
  8
0
  6
Continuous
 62
     7
370
    25
100
AcDbLine
 10
148.3394298124
 20
62.1323115611
 30
0.0
 11
149.5555641494
 21
60.0259051005
 31
0.0
  0
LINE
  5
8F
330
1F
100
AcDbEntity
  8
0
  6
Continuous
 62
     7
370
    25
100
AcDbLine
 10
146.8394298124
 20
85.6323115611
 30
0.0
 11
146.3394298124
 21
85.1323115611
 31
0.0
  0
LINE
  5
90
330
1F
100
AcDbEntity
  8
0
  6
Continuous
 62
     7
370
    25
100
AcDbLine
 10
146.3394298124
 20
62.6323115611
 30
0.0
 11
146.8394298124
 21
62.1323115611
 31
0.0
  0
LINE
  5
91
330
1F
100
AcDbEntity
  8
0
  6
Continuous
 62
     7
370
    25
100
AcDbLine
 10
161.8394298124
 20
62.1323115611
 30
0.0
 11
162.3394298124
 21
62.6323115611
 31
0.0
  0
LINE
  5
92
330
1F
100
AcDbEntity
  8
0
  6
Continuous
 62
     7
370
    25
100
AcDbLine
 10
162.3394298124
 20
85.1323115611
 30
0.0
 11
161.8394298124
 21
85.6323115611
 31
0.0
  0
LINE
  5
93
330
1F
100
AcDbEntity
  8
0
  6
Continuous
 62
     7
370
    25
100
AcDbLine
 10
148.3394298124
 20
85.6323115611
 30
0.0
 11
146.8394298124
 21
85.6323115611
 31
0.0
  0
LINE
  5
94
330
1F
100
AcDbEntity
  8
0
  6
Continuous
 62
     7
370
    25
100
AcDbLine
 10
146.8394298124
 20
62.1323115611
 30
0.0
 11
148.3394298124
 21
62.1323115611
 31
0.0
  0
LINE
  5
95
330
1F
100
AcDbEntity
  8
0
  6
Continuous
 62
     7
370
    25
100
AcDbLine
 10
160.3394298124
 20
62.1323115611
 30
0.0
 11
161.8394298124
 21
62.1323115611
 31
0.0
  0
LINE
  5
96
330
1F
100
AcDbEntity
  8
0
  6
Continuous
 62
     7
370
    25
100
AcDbLine
 10
161.8394298124
 20
85.6323115611
 30
0.0
 11
160.3394298124
 21
85.6323115611
 31
0.0
  0
LINE
  5
97
330
1F
100
AcDbEntity
  8
0
  6
Continuous
 62
     7
370
    25
100
AcDbLine
 10
154.3394298124
 20
87.2387180216
 30
0.0
 11
154.2054552162
 21
87.7387180216
 31
0.0
  0
LINE
  5
98
330
1F
100
AcDbEntity
  8
0
  6
Continuous
 62
     7
370
    25
100
AcDbLine
 10
154.4734044086
 20
87.7387180216
 30
0.0
 11
154.3394298124
 21
87.2387180216
 31
0.0
  0
LINE
  5
99
330
1F
100
AcDbEntity
  8
0
  6
Continuous
 62
     7
370
    25
100
AcDbLine
 10
154.3394298124
 20
60.5259051005
 30
0.0
 11
154.4734044086
 21
60.0259051005
 31
0.0
  0
LINE
  5
9A
330
1F
100
AcDbEntity
  8
0
  6
Continuous
 62
     7
370
    25
100
AcDbLine
 10
154.2054552162
 20
60.0259051005
 30
0.0
 11
154.3394298124
 21
60.5259051005
 31
0.0
  0
LINE
  5
9B
330
1F
100
AcDbEntity
  8
0
  6
Continuous
 62
     7
370
    25
100
AcDbLine
 10
139.8106880842
 20
61.1806056389
 30
0.0
 11
140.9375060237
 21
63.1323115611
 31
0.0
  0
LINE
  5
9C
330
1F
100
AcDbEntity
  8
0
  6
Continuous
 62
     7
370
    25
100
AcDbLine
 10
140.9375060237
 20
84.6323115611
 30
0.0
 11
139.8106880842
 21
86.5840174833
 31
0.0
  0
LINE
  5
9D
330
1F
100
AcDbEntity
  8
0
  6
Continuous
 62
     7
370
    25
100
AcDbLine
 10
144.9375060237
 20
63.4048115611
 30
0.0
 11
146.3394298124
 21
63.4048115611
 31
0.0
  0
LINE
  5
9E
330
1F
100
AcDbEntity
  8
0
  6
Continuous
 62
     7
370
    25
100
AcDbLine
 10
146.3394298124
 20
84.3598115611
 30
0.0
 11
144.9375060237
 21
84.3598115611
 31
0.0
  0
LINE
  5
9F
330
1F
100
AcDbEntity
  8
0
  6
Continuous
 62
     7
370
    25
100
AcDbLine
 10
144.9375060237
 20
84.3598115611
 30
0.0
 11
143.4600060237
 21
82.8823115611
 31
0.0
  0
LINE
  5
A0
330
1F
100
AcDbEntity
  8
0
  6
Continuous
 62
     7
370
    25
100
AcDbLine
 10
143.4600060237
 20
64.8823115611
 30
0.0
 11
144.9375060237
 21
63.4048115611
 31
0.0
  0
LINE
  5
A1
330
1F
100
AcDbEntity
  8
0
  6
Continuous
 62
     7
370
    25
100
AcDbLine
 10
140.9375060237
 20
64.8823115611
 30
0.0
 11
143.4600060237
 21
64.8823115611
 31
0.0
  0
LINE
  5
A2
330
1F
100
AcDbEntity
  8
0
  6
Continuous
 62
     7
370
    25
100
AcDbLine
 10
143.4600060237
 20
82.8823115611
 30
0.0
 11
140.9375060237
 21
82.8823115611
 31
0.0
  0
LINE
  5
A3
330
1F
100
AcDbEntity
  8
0
  6
Continuous
 62
     7
370
    25
100
AcDbLine
 10
134.9375060237
 20
82.3898740611
 30
0.0
 11
125.0114154574
 21
82.0796837309
 31
0.0
  0
LINE
  5
A4
330
1F
100
AcDbEntity
  8
0
  6
Continuous
 62
     7
370
    25
100
AcDbLine
 10
125.0114154574
 20
65.6849393913
 30
0.0
 11
134.9375060237
 21
65.3747490611
 31
0.0
  0
LINE
  5
A5
330
1F
100
AcDbEntity
  8
0
  6
Continuous
 62
     7
370
    25
100
AcDbLine
 10
125.0114154574
 20
82.0796837309
 30
0.0
 11
122.9375060237
 21
80.8823115611
 31
0.0
  0
LINE
  5
A6
330
1F
100
AcDbEntity
  8
0
  6
Continuous
 62
     7
370
    25
100
AcDbLine
 10
122.9375060237
 20
66.8823115611
 30
0.0
 11
125.0114154574
 21
65.6849393913
 31
0.0
  0
LINE
  5
A7
330
1F
100
AcDbEntity
  8
0
  6
Continuous
 62
     7
370
    25
100
AcDbLine
 10
137.374097054
 20
61.4806056389
 30
0.0
 11
137.4544818117
 21
61.1806056389
 31
0.0
  0
LINE
  5
A8
330
1F
100
AcDbEntity
  8
0
  6
Continuous
 62
     7
370
    25
100
AcDbLine
 10
137.2937122962
 20
61.1806056389
 30
0.0
 11
137.374097054
 21
61.4806056389
 31
0.0
  0
LINE
  5
A9
330
1F
100
AcDbEntity
  8
0
  6
Continuous
 62
     7
370
    25
100
AcDbLine
 10
137.4544818117
 20
86.5840174833
 30
0.0
 11
137.374097054
 21
86.2840174833
 31
0.0
  0
LINE
  5
AA
330
1F
100
AcDbEntity
  8
0
  6
Continuous
 62
     7
370
    25
100
AcDbLine
 10
137.374097054
 20
86.2840174833
 30
0.0
 11
137.2937122962
 21
86.5840174833
 31
0.0
  0
LINE
  5
AB
330
1F
100
AcDbEntity
  8
0
  6
Continuous
 62
     7
370
    25
100
AcDbLine
 10
168.8394298124
 20
65.8823115611
 30
0.0
 11
168.8394298124
 21
81.8823115611
 31
0.0
  0
LINE
  5
AC
330
1F
100
AcDbEntity
  8
0
  6
Continuous
 62
     7
370
    25
100
AcDbLine
 10
186.8394298124
 20
65.9945135032
 30
0.0
 11
186.8394298124
 21
81.7701096201
 31
0.0
  0
LINE
  5
AD
330
1F
100
AcDbEntity
  8
0
  6
Continuous
 62
     7
370
    25
100
AcDbLine
 10
192.7433844509
 20
66.5635370963
 30
0.0
 11
192.7433844509
 21
81.2010860259
 31
0.0
  0
LINE
  5
AE
330
1F
100
AcDbEntity
  8
0
  6
Continuous
 62
     7
370
    25
100
AcDbLine
 10
177.8394298124
 20
66.0003576046
 30
0.0
 11
177.8394298124
 21
81.7642655189
 31
0.0
  0
LINE
  5
AF
330
1F
100
AcDbEntity
  8
0
  6
Continuous
 62
     7
370
    25
100
AcDbLine
 10
173.3394298124
 20
66.0003576046
 30
0.0
 11
173.3394298124
 21
81.7642655189
 31
0.0
  0
LINE
  5
B0
330
1F
100
AcDbEntity
  8
0
  6
Continuous
 62
     7
370
    25
100
AcDbLine
 10
182.3394298124
 20
66.0003576046
 30
0.0
 11
182.3394298124
 21
81.7642655189
 31
0.0
  0
LINE
  5
B1
330
1F
100
AcDbEntity
  8
0
  6
Continuous
 62
     7
370
    25
100
AcDbLine
 10
193.3394298124
 20
80.5323115611
 30
0.0
 11
193.3394298124
 21
67.2323115611
 31
0.0
  0
LINE
  5
B2
330
1F
100
AcDbEntity
  8
0
  6
Continuous
 62
     7
370
    25
100
AcDbLine
 10
154.3394298124
 20
81.3423138326
 30
0.0
 11
154.2054552162
 21
80.8105147914
 31
0.0
  0
LINE
  5
B3
330
1F
100
AcDbEntity
  8
0
  6
Continuous
 62
     7
370
    25
100
AcDbLine
 10
154.3394298124
 20
81.3423138326
 30
0.0
 11
154.3394298124
 21
79.7469167089
 31
0.0
  0
LINE
  5
B4
330
1F
100
AcDbEntity
  8
0
  6
Continuous
 62
     7
370
    25
100
AcDbLine
 10
154.2054552162
 20
80.8105147914
 30
0.0
 11
154.3394298124
 21
79.7469167089
 31
0.0
  0
LINE
  5
B5
330
1F
100
AcDbEntity
  8
0
  6
Continuous
 62
     7
370
    25
100
AcDbLine
 10
154.4734044086
 20
80.8105147914
 30
0.0
 11
154.3394298124
 21
79.7469167089
 31
0.0
  0
LINE
  5
B6
330
1F
100
AcDbEntity
  8
0
  6
Continuous
 62
     7
370
    25
100
AcDbLine
 10
159.1232954754
 20
80.8105147914
 30
0.0
 11
154.4734044086
 21
80.8105147914
 31
0.0
  0
SPLINE
  5
B7
330
1F
100
AcDbEntity
  8
0
  6
Continuous
 62
     7
370
    25
100
AcDbSpline
210
0.0
220
0.0
230
1.0
 70
     8
 71
     3
 72
    16
 73
    12
 74
     0
 42
0.000000001
 43
0.00000001
 40
0.0
 40
0.0
 40
0.0
 40
0.0
 40
0.0915356978782496
 40
0.183063343223533
 40
0.2753996771146607
 40
0.3677267146962474
 40
0.4925705318074073
 40
0.6174129202940688
 40
0.7455832490327828
 40
0.8737882839722001
 40
1.0
 40
1.0
 40
1.0
 40
1.0
 10
159.1232954753631
 20
80.81051479135813
 30
0.0
 10
159.2380908240351
 20
80.3969150628039
 30
0.0
 10
159.4676714226597
 20
79.5697519906854
 30
0.0
 10
159.7489057841931
 20
78.30887675920252
 30
0.0
 10
159.9722287415811
 20
77.03279734413577
 30
0.0
 10
160.1435893913624
 20
75.5909642379646
 30
0.0
 10
160.2185359250183
 20
73.98723548305877
 30
0.0
 10
160.1539443367842
 20
72.2145931404095
 30
0.0
 10
159.9364539807168
 20
70.43872339157133
 30
0.0
 10
159.5941634801435
 20
68.67600405165672
 30
0.0
 10
159.2794295117244
 20
67.52506776393906
 30
0.0
 10
159.1232954753631
 20
66.95410833080712
 30
0.0
  0
LINE
  5
B8
330
1F
100
AcDbEntity
  8
0
  6
Continuous
 62
     7
370
    25
100
AcDbLine
 10
159.1232954754
 20
66.9541083308
 30
0.0
 11
154.4734044086
 21
66.9541083308
 31
0.0
  0
LINE
  5
B9
330
1F
100
AcDbEntity
  8
0
  6
Continuous
 62
     7
370
    25
100
AcDbLine
 10
154.3394298124
 20
68.0177064133
 30
0.0
 11
154.4734044086
 21
66.9541083308
 31
0.0
  0
LINE
  5
BA
330
1F
100
AcDbEntity
  8
0
  6
Continuous
 62
     7
370
    25
100
AcDbLine
 10
154.3394298124
 20
68.0177064133
 30
0.0
 11
154.2054552162
 21
66.9541083308
 31
0.0
  0
LINE
  5
BB
330
1F
100
AcDbEntity
  8
0
  6
Continuous
 62
     7
370
    25
100
AcDbLine
 10
154.2054552162
 20
66.9541083308
 30
0.0
 11
149.5555641494
 21
66.9541083308
 31
0.0
  0
SPLINE
  5
BC
330
1F
100
AcDbEntity
  8
0
  6
Continuous
 62
     7
370
    25
100
AcDbSpline
210
0.0
220
0.0
230
1.0
 70
     8
 71
     3
 72
    16
 73
    12
 74
     0
 42
0.000000001
 43
0.00000001
 40
0.0
 40
0.0
 40
0.0
 40
0.0
 40
0.0915356978782496
 40
0.183063343223533
 40
0.2753996771146608
 40
0.3677267146962475
 40
0.4925705318074075
 40
0.6174129202940689
 40
0.7455832490327831
 40
0.8737882839722002
 40
1.0
 40
1.0
 40
1.0
 40
1.0
 10
149.5555641494069
 20
80.81051479135813
 30
0.0
 10
149.4407688007349
 20
80.3969150628039
 30
0.0
 10
149.2111882021103
 20
79.5697519906854
 30
0.0
 10
148.929953840577
 20
78.30887675920252
 30
0.0
 10
148.706630883189
 20
77.03279734413577
 30
0.0
 10
148.5352702334076
 20
75.5909642379646
 30
0.0
 10
148.4603236997518
 20
73.98723548305877
 30
0.0
 10
148.5249152879859
 20
72.2145931404095
 30
0.0
 10
148.7424056440532
 20
70.43872339157134
 30
0.0
 10
149.0846961446265
 20
68.67600405165672
 30
0.0
 10
149.3994301130457
 20
67.52506776393906
 30
0.0
 10
149.5555641494069
 20
66.95410833080712
 30
0.0
  0
LINE
  5
BD
330
1F
100
AcDbEntity
  8
0
  6
Continuous
 62
     7
370
    25
100
AcDbLine
 10
154.2054552162
 20
80.8105147914
 30
0.0
 11
149.5555641494
 21
80.8105147914
 31
0.0
  0
LINE
  5
BE
330
1F
100
AcDbEntity
  8
0
  6
Continuous
 62
     7
370
    25
100
AcDbLine
 10
154.4734044086
 20
87.7387180216
 30
0.0
 11
154.3394298124
 21
87.2069189804
 31
0.0
  0
LINE
  5
BF
330
1F
100
AcDbEntity
  8
0
  6
Continuous
 62
     7
370
    25
100
AcDbLine
 10
159.1232954754
 20
87.7387180216
 30
0.0
 11
154.4734044086
 21
87.7387180216
 31
0.0
  0
SPLINE
  5
C0
330
1F
100
AcDbEntity
  8
0
  6
Continuous
 62
     7
370
    25
100
AcDbSpline
210
0.0
220
0.0
230
1.0
 70
     8
 71
     3
 72
    15
 73
    11
 74
     0
 42
0.000000001
 43
0.00000001
 40
0.0
 40
0.0
 40
0.0
 40
0.0
 40
0.1323065044264402
 40
0.2645755999739297
 40
0.3998036789671093
 40
0.5350073556765894
 40
0.6501969475405022
 40
0.7654045076453766
 40
0.8826909144168968
 40
1.0
 40
1.0
 40
1.0
 40
1.0
 10
159.1232954753631
 20
87.73871802163364
 30
0.0
 10
159.2864545572808
 20
87.43938919886304
 30
0.0
 10
159.6127265888542
 20
86.8408161867701
 30
0.0
 10
159.9637812918741
 20
85.91906640997732
 30
0.0
 10
160.1748580774032
 20
84.97994129622676
 30
0.0
 10
160.2166553876888
 20
84.07484039818355
 30
0.0
 10
160.108196754988
 20
83.21864369339902
 30
0.0
 10
159.8859708459271
 20
82.4106111845895
 30
0.0
 10
159.5599930726409
 20
81.60623211547957
 30
0.0
 10
159.2688707222474
 20
81.07577099297491
 30
0.0
 10
159.1232954753631
 20
80.81051479135813
 30
0.0
  0
LINE
  5
C1
330
1F
100
AcDbEntity
  8
0
  6
Continuous
 62
     7
370
    25
100
AcDbLine
 10
154.3394298124
 20
81.3423138326
 30
0.0
 11
154.4734044086
 21
80.8105147914
 31
0.0
  0
SPLINE
  5
C2
330
1F
100
AcDbEntity
  8
0
  6
Continuous
 62
     7
370
    25
100
AcDbSpline
210
0.0
220
0.0
230
1.0
 70
     8
 71
     3
 72
    15
 73
    11
 74
     0
 42
0.000000001
 43
0.00000001
 40
0.0
 40
0.0
 40
0.0
 40
0.0
 40
0.1323065044264403
 40
0.2645755999739297
 40
0.3998036789671093
 40
0.5350073556765894
 40
0.6501969475405022
 40
0.7654045076453766
 40
0.8826909144168968
 40
1.0
 40
1.0
 40
1.0
 40
1.0
 10
149.5555641494069
 20
87.73871802163364
 30
0.0
 10
149.3924050674892
 20
87.43938919886304
 30
0.0
 10
149.0661330359159
 20
86.84081618677011
 30
0.0
 10
148.715078332896
 20
85.91906640997732
 30
0.0
 10
148.5040015473669
 20
84.97994129622676
 30
0.0
 10
148.4622042370813
 20
84.07484039818355
 30
0.0
 10
148.570662869782
 20
83.21864369339902
 30
0.0
 10
148.7928887788429
 20
82.4106111845895
 30
0.0
 10
149.1188665521292
 20
81.60623211547957
 30
0.0
 10
149.4099889025227
 20
81.07577099297491
 30
0.0
 10
149.5555641494069
 20
80.81051479135813
 30
0.0
  0
LINE
  5
C3
330
1F
100
AcDbEntity
  8
0
  6
Continuous
 62
     7
370
    25
100
AcDbLine
 10
154.2054552162
 20
87.7387180216
 30
0.0
 11
149.5555641494
 21
87.7387180216
 31
0.0
  0
LINE
  5
C4
330
1F
100
AcDbEntity
  8
0
  6
Continuous
 62
     7
370
    25
100
AcDbLine
 10
154.2054552162
 20
87.7387180216
 30
0.0
 11
154.3394298124
 21
87.2069189804
 31
0.0
  0
SPLINE
  5
C5
330
1F
100
AcDbEntity
  8
0
  6
Continuous
 62
     7
370
    25
100
AcDbSpline
210
0.0
220
0.0
230
1.0
 70
     8
 71
     3
 72
    15
 73
    11
 74
     0
 42
0.000000001
 43
0.00000001
 40
0.0
 40
0.0
 40
0.0
 40
0.0
 40
0.1323065044264403
 40
0.2645755999739297
 40
0.3998036789671093
 40
0.5350073556765894
 40
0.6501969475405022
 40
0.7654045076453765
 40
0.8826909144168967
 40
1.0
 40
1.0
 40
1.0
 40
1.0
 10
159.1232954753631
 20
66.95410833080712
 30
0.0
 10
159.2864545572808
 20
66.65477950803651
 30
0.0
 10
159.6127265888542
 20
66.05620649594357
 30
0.0
 10
159.9637812918741
 20
65.13445671915079
 30
0.0
 10
160.1748580774032
 20
64.19533160540023
 30
0.0
 10
160.2166553876888
 20
63.29023070735703
 30
0.0
 10
160.108196754988
 20
62.43403400257247
 30
0.0
 10
159.8859708459271
 20
61.62600149376298
 30
0.0
 10
159.5599930726409
 20
60.82162242465305
 30
0.0
 10
159.2688707222474
 20
60.2911613021484
 30
0.0
 10
159.1232954753631
 20
60.02590510053162
 30
0.0
  0
LINE
  5
C6
330
1F
100
AcDbEntity
  8
0
  6
Continuous
 62
     7
370
    25
100
AcDbLine
 10
160.3394298124
 20
85.6323115611
 30
0.0
 11
160.3394298124
 21
62.1323115611
 31
0.0
  0
SPLINE
  5
C7
330
1F
100
AcDbEntity
  8
0
  6
Continuous
 62
     7
370
    25
100
AcDbSpline
210
0.0
220
0.0
230
1.0
 70
     8
 71
     3
 72
    15
 73
    11
 74
     0
 42
0.000000001
 43
0.00000001
 40
0.0
 40
0.0
 40
0.0
 40
0.0
 40
0.1323065044264403
 40
0.2645755999739298
 40
0.3998036789671094
 40
0.5350073556765895
 40
0.6501969475405022
 40
0.7654045076453765
 40
0.8826909144168967
 40
1.0
 40
1.0
 40
1.0
 40
1.0
 10
149.5555641494069
 20
66.95410833080712
 30
0.0
 10
149.3924050674892
 20
66.65477950803651
 30
0.0
 10
149.0661330359159
 20
66.05620649594357
 30
0.0
 10
148.715078332896
 20
65.13445671915079
 30
0.0
 10
148.5040015473669
 20
64.19533160540023
 30
0.0
 10
148.4622042370813
 20
63.29023070735703
 30
0.0
 10
148.570662869782
 20
62.43403400257248
 30
0.0
 10
148.7928887788429
 20
61.62600149376298
 30
0.0
 10
149.1188665521292
 20
60.82162242465306
 30
0.0
 10
149.4099889025227
 20
60.2911613021484
 30
0.0
 10
149.5555641494069
 20
60.02590510053162
 30
0.0
  0
LINE
  5
C8
330
1F
100
AcDbEntity
  8
0
  6
Continuous
 62
     7
370
    25
100
AcDbLine
 10
148.3394298124
 20
85.6323115611
 30
0.0
 11
148.3394298124
 21
62.1323115611
 31
0.0
  0
LINE
  5
C9
330
1F
100
AcDbEntity
  8
0
  6
Continuous
 62
     7
370
    25
100
AcDbLine
 10
154.4734044086
 20
66.9541083308
 30
0.0
 11
154.3394298124
 21
66.4223092896
 31
0.0
  0
LINE
  5
CA
330
1F
100
AcDbEntity
  8
0
  6
Continuous
 62
     7
370
    25
100
AcDbLine
 10
159.1232954754
 20
60.0259051005
 30
0.0
 11
154.4734044086
 21
60.0259051005
 31
0.0
  0
LINE
  5
CB
330
1F
100
AcDbEntity
  8
0
  6
Continuous
 62
     7
370
    25
100
AcDbLine
 10
154.3394298124
 20
60.5577041418
 30
0.0
 11
154.4734044086
 21
60.0259051005
 31
0.0
  0
LINE
  5
CC
330
1F
100
AcDbEntity
  8
0
  6
Continuous
 62
     7
370
    25
100
AcDbLine
 10
154.3394298124
 20
60.5577041418
 30
0.0
 11
154.2054552162
 21
60.0259051005
 31
0.0
  0
LINE
  5
CD
330
1F
100
AcDbEntity
  8
0
  6
Continuous
 62
     7
370
    25
100
AcDbLine
 10
154.2054552162
 20
60.0259051005
 30
0.0
 11
149.5555641494
 21
60.0259051005
 31
0.0
  0
LINE
  5
CE
330
1F
100
AcDbEntity
  8
0
  6
Continuous
 62
     7
370
    25
100
AcDbLine
 10
154.2054552162
 20
66.9541083308
 30
0.0
 11
154.3394298124
 21
66.4223092896
 31
0.0
  0
LINE
  5
CF
330
1F
100
AcDbEntity
  8
0
  6
Continuous
 62
     7
370
    25
100
AcDbLine
 10
154.3394298124
 20
68.0177064133
 30
0.0
 11
154.3394298124
 21
66.4223092896
 31
0.0
  0
LINE
  5
D0
330
1F
100
AcDbEntity
  8
0
  6
Continuous
 62
     7
370
    25
100
AcDbLine
 10
146.8394298124
 20
73.8823115611
 30
0.0
 11
146.8394298124
 21
62.1323115611
 31
0.0
  0
LINE
  5
D1
330
1F
100
AcDbEntity
  8
0
  6
Continuous
 62
     7
370
    25
100
AcDbLine
 10
146.8394298124
 20
85.6323115611
 30
0.0
 11
146.8394298124
 21
73.8823115611
 31
0.0
  0
LINE
  5
D2
330
1F
100
AcDbEntity
  8
0
  6
Continuous
 62
     7
370
    25
100
AcDbLine
 10
146.3394298124
 20
73.8823115611
 30
0.0
 11
146.3394298124
 21
85.1323115611
 31
0.0
  0
LINE
  5
D3
330
1F
100
AcDbEntity
  8
0
  6
Continuous
 62
     7
370
    25
100
AcDbLine
 10
146.3394298124
 20
62.6323115611
 30
0.0
 11
146.3394298124
 21
73.8823115611
 31
0.0
  0
LINE
  5
D4
330
1F
100
AcDbEntity
  8
0
  6
Continuous
 62
     7
370
    25
100
AcDbLine
 10
162.3394298124
 20
85.1323115611
 30
0.0
 11
162.3394298124
 21
62.6323115611
 31
0.0
  0
LINE
  5
D5
330
1F
100
AcDbEntity
  8
0
  6
Continuous
 62
     7
370
    25
100
AcDbLine
 10
161.8394298124
 20
62.1323115611
 30
0.0
 11
161.8394298124
 21
85.6323115611
 31
0.0
  0
LINE
  5
D6
330
1F
100
AcDbEntity
  8
0
  6
Continuous
 62
     7
370
    25
100
AcDbLine
 10
154.3394298124
 20
87.2387180216
 30
0.0
 11
154.3394298124
 21
87.2069189804
 31
0.0
  0
LINE
  5
D7
330
1F
100
AcDbEntity
  8
0
  6
Continuous
 62
     7
370
    25
100
AcDbLine
 10
154.3394298124
 20
60.5577041418
 30
0.0
 11
154.3394298124
 21
60.5259051005
 31
0.0
  0
LINE
  5
D8
330
1F
100
AcDbEntity
  8
0
  6
Continuous
 62
     7
370
    25
100
AcDbLine
 10
134.9375060237
 20
61.1806056389
 30
0.0
 11
137.2937122962
 21
61.1806056389
 31
0.0
  0
LINE
  5
D9
330
1F
100
AcDbEntity
  8
0
  6
Continuous
 62
     7
370
    25
100
AcDbLine
 10
134.9375060237
 20
61.1806056389
 30
0.0
 11
134.9375060237
 21
67.5314586
 31
0.0
  0
LINE
  5
DA
330
1F
100
AcDbEntity
  8
0
  6
Continuous
 62
     7
370
    25
100
AcDbLine
 10
134.9375060237
 20
67.5314586
 30
0.0
 11
137.2937122962
 21
67.5314586
 31
0.0
  0
SPLINE
  5
DB
330
1F
100
AcDbEntity
  8
0
  6
Continuous
 62
     7
370
    25
100
AcDbSpline
210
0.0
220
0.0
230
1.0
 70
     8
 71
     3
 72
     8
 73
     4
 74
     0
 42
0.000000001
 43
0.00000001
 40
0.0
 40
0.0
 40
0.0
 40
0.0
 40
1.0
 40
1.0
 40
1.0
 40
1.0
 10
137.3740970539659
 20
67.21969715660606
 30
0.0
 10
137.3483561041326
 20
67.3237062560444
 30
0.0
 10
137.3215345598717
 20
67.42762449852903
 30
0.0
 10
137.2937122962366
 20
67.53145859999687
 30
0.0
  0
SPLINE
  5
DC
330
1F
100
AcDbEntity
  8
0
  6
Continuous
 62
     7
370
    25
100
AcDbSpline
210
0.0
220
0.0
230
1.0
 70
     8
 71
     3
 72
     8
 73
     4
 74
     0
 42
0.000000001
 43
0.00000001
 40
0.0
 40
0.0
 40
0.0
 40
0.0
 40
1.0
 40
1.0
 40
1.0
 40
1.0
 10
137.4544818116952
 20
67.53145859999687
 30
0.0
 10
137.4266501386381
 20
67.4275893820881
 30
0.0
 10
137.3998290787721
 20
67.32367019350437
 30
0.0
 10
137.3740970539659
 20
67.21969715660606
 30
0.0
  0
LINE
  5
DD
330
1F
100
AcDbEntity
  8
0
  6
Continuous
 62
     7
370
    25
100
AcDbLine
 10
137.4544818117
 20
67.5314586
 30
0.0
 11
139.8106880842
 21
67.5314586
 31
0.0
  0
SPLINE
  5
DE
330
1F
100
AcDbEntity
  8
0
  6
Continuous
 62
     7
370
    25
100
AcDbSpline
210
0.0
220
0.0
230
1.0
 70
     8
 71
     3
 72
    16
 73
    12
 74
     0
 42
0.000000001
 43
0.00000001
 40
0.0
 40
0.0
 40
0.0
 40
0.0
 40
0.2500000000000001
 40
0.2500000000000001
 40
0.5000000000000001
 40
0.5000000000000001
 40
0.6250000000000001
 40
0.6250000000000001
 40
0.7500000000000001
 40
0.7500000000000001
 40
1.0
 40
1.0
 40
1.0
 40
1.0
 10
139.8106880841938
 20
67.53145859999688
 30
0.0
 10
140.1100366423768
 20
67.01297168805138
 30
0.0
 10
140.3567540692384
 20
66.49070461773475
 30
0.0
 10
140.6985378015947
 20
65.43527834460238
 30
0.0
 10
140.7924767099797
 20
64.90203816804517
 30
0.0
 10
140.7935085314592
 20
64.09213146368803
 30
0.0
 10
140.7705441246028
 20
63.82089210864593
 30
0.0
 10
140.6809949983172
 20
63.28435208317666
 30
0.0
 10
140.6145011642497
 20
63.01788088902571
 30
0.0
 10
140.3577378674359
 20
62.22321146014087
 30
0.0
 10
140.1104098084154
 20
61.69973889339519
 30
0.0
 10
139.8106880841936
 20
61.18060563891085
 30
0.0
  0
LINE
  5
DF
330
1F
100
AcDbEntity
  8
0
  6
Continuous
 62
     7
370
    25
100
AcDbLine
 10
137.4544818117
 20
61.1806056389
 30
0.0
 11
139.8106880842
 21
61.1806056389
 31
0.0
  0
SPLINE
  5
E0
330
1F
100
AcDbEntity
  8
0
  6
Continuous
 62
     7
370
    25
100
AcDbSpline
210
0.0
220
0.0
230
1.0
 70
     8
 71
     3
 72
     8
 73
     4
 74
     0
 42
0.000000001
 43
0.00000001
 40
0.0
 40
0.0
 40
0.0
 40
0.0
 40
1.0
 40
1.0
 40
1.0
 40
1.0
 10
137.3740970539659
 20
61.49236708230167
 30
0.0
 10
137.3998380037992
 20
61.38835798286332
 30
0.0
 10
137.4266595480601
 20
61.28443974037869
 30
0.0
 10
137.4544818116952
 20
61.18060563891087
 30
0.0
  0
SPLINE
  5
E1
330
1F
100
AcDbEntity
  8
0
  6
Continuous
 62
     7
370
    25
100
AcDbSpline
210
0.0
220
0.0
230
1.0
 70
     8
 71
     3
 72
     8
 73
     4
 74
     0
 42
0.000000001
 43
0.00000001
 40
0.0
 40
0.0
 40
0.0
 40
0.0
 40
1.0
 40
1.0
 40
1.0
 40
1.0
 10
137.2937122962366
 20
61.18060563891087
 30
0.0
 10
137.3215439692937
 20
61.28447485681962
 30
0.0
 10
137.3483650291597
 20
61.38839404540336
 30
0.0
 10
137.3740970539659
 20
61.49236708230167
 30
0.0
  0
SPLINE
  5
E2
330
1F
100
AcDbEntity
  8
0
  6
Continuous
 62
     7
370
    25
100
AcDbSpline
210
0.0
220
0.0
230
1.0
 70
     8
 71
     3
 72
     8
 73
     4
 74
     0
 42
0.000000001
 43
0.00000001
 40
0.0
 40
0.0
 40
0.0
 40
0.0
 40
1.0
 40
1.0
 40
1.0
 40
1.0
 10
137.3740970539659
 20
68.15498148677845
 30
0.0
 10
137.3998375445355
 20
67.94696699931126
 30
0.0
 10
137.4266590641849
 20
67.73913041462609
 30
0.0
 10
137.4544818116952
 20
67.53145859999687
 30
0.0
  0
LINE
  5
E3
330
1F
100
AcDbEntity
  8
0
  6
Continuous
 62
     7
370
    25
100
AcDbLine
 10
137.374097054
 20
67.2196971566
 30
0.0
 11
137.374097054
 21
68.1549814868
 31
0.0
  0
LINE
  5
E4
330
1F
100
AcDbEntity
  8
0
  6
Continuous
 62
     7
370
    25
100
AcDbLine
 10
134.9375060237
 20
67.5314586
 30
0.0
 11
134.9375060237
 21
80.2331645222
 31
0.0
  0
LINE
  5
E5
330
1F
100
AcDbEntity
  8
0
  6
Continuous
 62
     7
370
    25
100
AcDbLine
 10
134.9375060237
 20
80.2331645222
 30
0.0
 11
137.2937122962
 21
80.2331645222
 31
0.0
  0
SPLINE
  5
E6
330
1F
100
AcDbEntity
  8
0
  6
Continuous
 62
     7
370
    25
100
AcDbSpline
210
0.0
220
0.0
230
1.0
 70
     8
 71
     3
 72
     8
 73
     4
 74
     0
 42
0.000000001
 43
0.00000001
 40
0.0
 40
0.0
 40
0.0
 40
0.0
 40
1.0
 40
1.0
 40
1.0
 40
1.0
 10
137.3740970539659
 20
79.60964163538706
 30
0.0
 10
137.3483565633963
 20
79.81765612285427
 30
0.0
 10
137.3215350437469
 20
80.02549270753941
 30
0.0
 10
137.2937122962366
 20
80.23316452216866
 30
0.0
  0
SPLINE
  5
E7
330
1F
100
AcDbEntity
  8
0
  6
Continuous
 62
     7
370
    25
100
AcDbSpline
210
0.0
220
0.0
230
1.0
 70
     8
 71
     3
 72
     8
 73
     4
 74
     0
 42
0.000000001
 43
0.00000001
 40
0.0
 40
0.0
 40
0.0
 40
0.0
 40
1.0
 40
1.0
 40
1.0
 40
1.0
 10
137.4544818116952
 20
80.23316452216866
 30
0.0
 10
137.4266487581394
 20
80.02541578216787
 30
0.0
 10
137.3998277703691
 20
79.81757713569486
 30
0.0
 10
137.3740970539659
 20
79.60964163538706
 30
0.0
  0
LINE
  5
E8
330
1F
100
AcDbEntity
  8
0
  6
Continuous
 62
     7
370
    25
100
AcDbLine
 10
137.4544818117
 20
80.2331645222
 30
0.0
 11
139.8106880842
 21
80.2331645222
 31
0.0
  0
SPLINE
  5
E9
330
1F
100
AcDbEntity
  8
0
  6
Continuous
 62
     7
370
    25
100
AcDbSpline
210
0.0
220
0.0
230
1.0
 70
     8
 71
     3
 72
    16
 73
    12
 74
     0
 42
0.000000001
 43
0.00000001
 40
0.0
 40
0.0
 40
0.0
 40
0.0
 40
0.2500000000000001
 40
0.2500000000000001
 40
0.5000000000000001
 40
0.5000000000000001
 40
0.6250000000000001
 40
0.6250000000000001
 40
0.7500000000000002
 40
0.7500000000000002
 40
1.0
 40
1.0
 40
1.0
 40
1.0
 10
139.8106880841935
 20
67.53145859999685
 30
0.0
 10
140.1091746782003
 20
68.56544649239277
 30
0.0
 10
140.3591912243796
 20
69.62344858551444
 30
0.0
 10
140.7009919116384
 20
71.7436111995582
 30
0.0
 10
140.7932924861091
 20
72.81022285489355
 30
0.0
 10
140.7931062507478
 20
74.42165880089856
 30
0.0
 10
140.7701816405288
 20
74.96099794979929
 30
0.0
 10
140.6792666629297
 20
76.04222496859094
 30
0.0
 10
140.6119705505146
 20
76.57704410296606
 30
0.0
 10
140.3538124670506
 20
78.16657162691727
 30
0.0
 10
140.1070737627857
 20
79.20645441425373
 30
0.0
 10
139.8106880841935
 20
80.23316452216866
 30
0.0
  0
SPLINE
  5
EA
330
1F
100
AcDbEntity
  8
0
  6
Continuous
 62
     7
370
    25
100
AcDbSpline
210
0.0
220
0.0
230
1.0
 70
     8
 71
     3
 72
     8
 73
     4
 74
     0
 42
0.000000001
 43
0.00000001
 40
0.0
 40
0.0
 40
0.0
 40
0.0
 40
1.0
 40
1.0
 40
1.0
 40
1.0
 10
137.2937122962366
 20
67.53145859999687
 30
0.0
 10
137.3215453497925
 20
67.73920733999765
 30
0.0
 10
137.3483663375628
 20
67.94704598647066
 30
0.0
 10
137.3740970539659
 20
68.15498148677845
 30
0.0
  0
LINE
  5
EB
330
1F
100
AcDbEntity
  8
0
  6
Continuous
 62
     7
370
    25
100
AcDbLine
 10
137.374097054
 20
79.6096416354
 30
0.0
 11
137.374097054
 21
80.5449259656
 31
0.0
  0
SPLINE
  5
EC
330
1F
100
AcDbEntity
  8
0
  6
Continuous
 62
     7
370
    25
100
AcDbSpline
210
0.0
220
0.0
230
1.0
 70
     8
 71
     3
 72
     8
 73
     4
 74
     0
 42
0.000000001
 43
0.00000001
 40
0.0
 40
0.0
 40
0.0
 40
0.0
 40
1.0
 40
1.0
 40
1.0
 40
1.0
 10
137.3740970539659
 20
80.54492596555947
 30
0.0
 10
137.3998380037992
 20
80.4409168661211
 30
0.0
 10
137.4266595480601
 20
80.33699862363649
 30
0.0
 10
137.4544818116952
 20
80.23316452216866
 30
0.0
  0
SPLINE
  5
ED
330
1F
100
AcDbEntity
  8
0
  6
Continuous
 62
     7
370
    25
100
AcDbSpline
210
0.0
220
0.0
230
1.0
 70
     8
 71
     3
 72
     8
 73
     4
 74
     0
 42
0.000000001
 43
0.00000001
 40
0.0
 40
0.0
 40
0.0
 40
0.0
 40
1.0
 40
1.0
 40
1.0
 40
1.0
 10
137.2937122962366
 20
80.23316452216866
 30
0.0
 10
137.3215439692937
 20
80.33703374007742
 30
0.0
 10
137.3483650291597
 20
80.44095292866116
 30
0.0
 10
137.3740970539659
 20
80.54492596555947
 30
0.0
  0
SPLINE
  5
EE
330
1F
100
AcDbEntity
  8
0
  6
Continuous
 62
     7
370
    25
100
AcDbSpline
210
0.0
220
0.0
230
1.0
 70
     8
 71
     3
 72
    16
 73
    12
 74
     0
 42
0.000000001
 43
0.00000001
 40
0.0
 40
0.0
 40
0.0
 40
0.0
 40
0.2499999999999998
 40
0.2499999999999998
 40
0.4999999999999997
 40
0.4999999999999997
 40
0.6249999999999997
 40
0.6249999999999997
 40
0.7499999999999997
 40
0.7499999999999997
 40
1.0
 40
1.0
 40
1.0
 40
1.0
 10
139.8106880841938
 20
86.58401748325446
 30
0.0
 10
140.1100366423768
 20
86.06553057130897
 30
0.0
 10
140.3567540692384
 20
85.54326350099235
 30
0.0
 10
140.6985378015947
 20
84.48783722786001
 30
0.0
 10
140.7924767099796
 20
83.95459705130283
 30
0.0
 10
140.7935085314591
 20
83.14469034694572
 30
0.0
 10
140.7705441246028
 20
82.87345099190362
 30
0.0
 10
140.6809949983172
 20
82.33691096643439
 30
0.0
 10
140.6145011642496
 20
82.07043977228342
 30
0.0
 10
140.3577378674358
 20
81.27577034339862
 30
0.0
 10
140.1104098084154
 20
80.75229777665297
 30
0.0
 10
139.8106880841936
 20
80.23316452216865
 30
0.0
  0
LINE
  5
EF
330
1F
100
AcDbEntity
  8
0
  6
Continuous
 62
     7
370
    25
100
AcDbLine
 10
140.9375060237
 20
84.6323115611
 30
0.0
 11
140.9375060237
 21
63.1323115611
 31
0.0
  0
LINE
  5
F0
330
1F
100
AcDbEntity
  8
0
  6
Continuous
 62
     7
370
    25
100
AcDbLine
 10
134.9375060237
 20
86.5840174833
 30
0.0
 11
137.2937122962
 21
86.5840174833
 31
0.0
  0
SPLINE
  5
F1
330
1F
100
AcDbEntity
  8
0
  6
Continuous
 62
     7
370
    25
100
AcDbSpline
210
0.0
220
0.0
230
1.0
 70
     8
 71
     3
 72
     8
 73
     4
 74
     0
 42
0.000000001
 43
0.00000001
 40
0.0
 40
0.0
 40
0.0
 40
0.0
 40
1.0
 40
1.0
 40
1.0
 40
1.0
 10
137.3740970539659
 20
86.27225603986362
 30
0.0
 10
137.3483561041326
 20
86.37626513930196
 30
0.0
 10
137.3215345598717
 20
86.48018338178659
 30
0.0
 10
137.2937122962366
 20
86.58401748325443
 30
0.0
  0
SPLINE
  5
F2
330
1F
100
AcDbEntity
  8
0
  6
Continuous
 62
     7
370
    25
100
AcDbSpline
210
0.0
220
0.0
230
1.0
 70
     8
 71
     3
 72
     8
 73
     4
 74
     0
 42
0.000000001
 43
0.00000001
 40
0.0
 40
0.0
 40
0.0
 40
0.0
 40
1.0
 40
1.0
 40
1.0
 40
1.0
 10
137.4544818116952
 20
86.58401748325443
 30
0.0
 10
137.4266501386381
 20
86.48014826534566
 30
0.0
 10
137.3998290787721
 20
86.37622907676193
 30
0.0
 10
137.3740970539659
 20
86.27225603986362
 30
0.0
  0
LINE
  5
F3
330
1F
100
AcDbEntity
  8
0
  6
Continuous
 62
     7
370
    25
100
AcDbLine
 10
137.4544818117
 20
86.5840174833
 30
0.0
 11
139.8106880842
 21
86.5840174833
 31
0.0
  0
LINE
  5
F4
330
1F
100
AcDbEntity
  8
0
  6
Continuous
 62
     7
370
    25
100
AcDbLine
 10
134.9375060237
 20
80.2331645222
 30
0.0
 11
134.9375060237
 21
86.5840174833
 31
0.0
  0
LINE
  5
F5
330
1F
100
AcDbEntity
  8
0
  6
Continuous
 62
     7
370
    25
100
AcDbLine
 10
144.9375060237
 20
84.3598115611
 30
0.0
 11
144.9375060237
 21
63.4048115611
 31
0.0
  0
LINE
  5
F6
330
1F
100
AcDbEntity
  8
0
  6
Continuous
 62
     7
370
    25
100
AcDbLine
 10
143.4600060237
 20
64.8823115611
 30
0.0
 11
143.4600060237
 21
82.8823115611
 31
0.0
  0
LINE
  5
F7
330
1F
100
AcDbEntity
  8
0
  6
Continuous
 62
     7
370
    25
100
AcDbLine
 10
125.0114154574
 20
82.0796837309
 30
0.0
 11
125.0114154574
 21
65.6849393913
 31
0.0
  0
LINE
  5
F8
330
1F
100
AcDbEntity
  8
0
  6
Continuous
 62
     7
370
    25
100
AcDbLine
 10
122.9375060237
 20
73.8823115611
 30
0.0
 11
122.9375060237
 21
80.8823115611
 31
0.0
  0
LINE
  5
F9
330
1F
100
AcDbEntity
  8
0
  6
Continuous
 62
     7
370
    25
100
AcDbLine
 10
122.9375060237
 20
66.8823115611
 30
0.0
 11
122.9375060237
 21
73.8823115611
 31
0.0
  0
LINE
  5
FA
330
1F
100
AcDbEntity
  8
0
  6
Continuous
 62
     7
370
    25
100
AcDbLine
 10
137.374097054
 20
61.4806056389
 30
0.0
 11
137.374097054
 21
61.4923670823
 31
0.0
  0
LINE
  5
FB
330
1F
100
AcDbEntity
  8
0
  6
Continuous
 62
     7
370
    25
100
AcDbLine
 10
137.374097054
 20
86.2722560399
 30
0.0
 11
137.374097054
 21
86.2840174833
 31
0.0
  0
LINE
  5
FC
330
1F
100
AcDbEntity
  8
0
  6
Continuous
 62
     8
370
    25
100
AcDbLine
 10
186.9508922232
 20
81.8694505137
 30
0.0
 11
186.9508922232
 21
65.8951726085
 31
0.0
  0
LINE
  5
FD
330
1F
100
AcDbEntity
  8
0
  6
Continuous
 62
     8
370
    25
100
AcDbLine
 10
177.9558697111
 20
81.8629049113
 30
0.0
 11
177.9558697111
 21
65.9017182109
 31
0.0
  0
LINE
  5
FE
330
1F
100
AcDbEntity
  8
0
  6
Continuous
 62
     8
370
    25
100
AcDbLine
 10
173.4558697111
 20
81.8629049113
 30
0.0
 11
173.4558697111
 21
65.9017182109
 31
0.0
  0
LINE
  5
FF
330
1F
100
AcDbEntity
  8
0
  6
Continuous
 62
     8
370
    25
100
AcDbLine
 10
182.4558697111
 20
81.8629049113
 30
0.0
 11
182.4558697111
 21
65.9017182109
 31
0.0
  0
LINE
  5
100
330
1F
100
AcDbEntity
  8
0
  6
Continuous
 62
     7
370
     0
100
AcDbLine
 10
123.6886324255
 20
81.3159745913
 30
0.0
 11
134.4375060237
 21
81.6518768913
 31
0.0
  0
LINE
  5
101
330
1F
100
AcDbEntity
  8
0
  6
Continuous
 62
     7
370
     0
100
AcDbLine
 10
123.6886324255
 20
66.4486485308
 30
0.0
 11
134.4375060237
 21
66.1127462309
 31
0.0
  0
LINE
  5
102
330
1F
100
AcDbEntity
  8
0
  6
Continuous
 62
     7
370
     0
100
AcDbLine
 10
134.4375060237
 20
65.3903740611
 30
0.0
 11
134.4375060237
 21
82.3742490611
 31
0.0
  0
LINE
  5
103
330
1F
100
AcDbEntity
  8
0
  6
CENTERX2
 62
     7
370
    18
100
AcDbLine
 10
195.3394298124
 20
73.8823115611
 30
0.0
 11
138.9375060237
 21
73.8823115611
 31
0.0
  0
LINE
  5
104
330
1F
100
AcDbEntity
  8
0
  6
CENTERX2
 62
     7
370
    18
100
AcDbLine
 10
120.9375060237
 20
73.8823115611
 30
0.0
 11
136.9375060237
 21
73.8823115611
 31
0.0
  0
LINE
  5
105
330
1F
100
AcDbEntity
  8
0
  6
CENTERX2
 62
     7
370
    18
100
AcDbLine
 10
134.1959939177
 20
73.8823115611
 30
0.0
 11
140.5522001902
 21
73.8823115611
 31
0.0
  0
CIRCLE
  5
106
330
1F
100
AcDbEntity
  8
0
  6
Continuous
 62
     7
370
    25
100
AcDbCircle
 10
225.7168593053
 20
73.8823115611
 30
0.0
 40
7.987798059013045
  0
CIRCLE
  5
107
330
1F
100
AcDbEntity
  8
0
  6
Continuous
 62
     7
370
    25
100
AcDbCircle
 10
225.7168593053
 20
73.8823115611
 30
0.0
 40
7.318774464791076
  0
CIRCLE
  5
108
330
1F
100
AcDbEntity
  8
0
  6
Continuous
 62
     7
370
    25
100
AcDbCircle
 10
225.7168593053
 20
73.8823115611
 30
0.0
 40
6.650000000000006
  0
CIRCLE
  5
109
330
1F
100
AcDbEntity
  8
0
  6
Continuous
 62
     7
370
    25
100
AcDbCircle
 10
225.7168593053
 20
73.8823115611
 30
0.0
 40
5.950000000000003
  0
CIRCLE
  5
10A
330
1F
100
AcDbEntity
  8
0
  6
Continuous
 62
     7
370
    25
100
AcDbCircle
 10
225.7168593053
 20
73.8823115611
 30
0.0
 40
5.749999999999986
  0
CIRCLE
  5
10B
330
1F
100
AcDbEntity
  8
0
  6
Continuous
 62
     7
370
    25
100
AcDbCircle
 10
225.7168593053
 20
73.8823115611
 30
0.0
 40
7.987138952600176
  0
CIRCLE
  5
10C
330
1F
100
AcDbEntity
  8
0
  6
Continuous
 62
     7
370
    25
100
AcDbCircle
 10
225.7168593053
 20
73.8823115611
 30
0.0
 40
8.0
  0
CIRCLE
  5
10D
330
1F
100
AcDbEntity
  8
0
  6
Continuous
 62
     7
370
    25
100
AcDbCircle
 10
225.7168593053
 20
73.8823115611
 30
0.0
 40
11.24999999999997
  0
CIRCLE
  5
10E
330
1F
100
AcDbEntity
  8
0
  6
Continuous
 62
     7
370
    25
100
AcDbCircle
 10
225.7168593053
 20
73.8823115611
 30
0.0
 40
11.74999999999997
  0
CIRCLE
  5
10F
330
1F
100
AcDbEntity
  8
0
  6
Continuous
 62
     7
370
    25
100
AcDbCircle
 10
225.7168593053
 20
73.8823115611
 30
0.0
 40
8.349999999999966
  0
CIRCLE
  5
110
330
1F
100
AcDbEntity
  8
0
  6
Continuous
 62
     7
370
    25
100
AcDbCircle
 10
225.7168593053
 20
73.8823115611
 30
0.0
 40
8.249999999999972
  0
SPLINE
  5
111
330
1F
100
AcDbEntity
  8
0
  6
Continuous
 62
     7
370
    25
100
AcDbSpline
210
0.0
220
0.0
230
1.0
 70
    24
 71
     3
 72
    15
 73
    11
 74
     0
 42
0.000000001
 43
0.00000001
 40
0.0
 40
0.0
 40
0.0
 40
0.0
 40
0.1323065044264402
 40
0.2645755999739294
 40
0.3998036789671088
 40
0.535007355676589
 40
0.6501969475405016
 40
0.7654045076453763
 40
0.8826909144168966
 40
1.0
 40
1.0
 40
1.0
 40
1.0
 10
237.716859305261
 20
80.81051479135814
 30
0.0
 10
237.1984065760525
 20
81.10984361412875
 30
0.0
 10
236.161647707068
 20
81.70841662622169
 30
0.0
 10
234.5651302617976
 20
82.63016640301447
 30
0.0
 10
232.9385178501177
 20
83.56929151676503
 30
0.0
 10
231.3708371087307
 20
84.47439241480822
 30
0.0
 10
229.8878609147708
 20
85.33058911959277
 30
0.0
 10
228.4883075553454
 20
86.13862162840228
 30
0.0
 10
227.095082139102
 20
86.94300069751222
 30
0.0
 10
226.176296523484
 20
87.47346182001687
 30
0.0
 10
225.716859305261
 20
87.73871802163366
 30
0.0
  0
SPLINE
  5
112
330
1F
100
AcDbEntity
  8
0
  6
Continuous
 62
     7
370
    25
100
AcDbSpline
210
0.0
220
0.0
230
1.0
 70
    24
 71
     3
 72
    16
 73
    12
 74
     0
 42
0.000000001
 43
0.00000001
 40
0.0
 40
0.0
 40
0.0
 40
0.0
 40
0.1262118512103692
 40
0.2512020653763511
 40
0.3761607760521393
 40
0.5042162939840997
 40
0.6322727081776326
 40
0.7237405332378762
 40
0.815217305758078
 40
0.9076044663789501
 40
1.0
 40
1.0
 40
1.0
 40
1.0
 10
237.716859305261
 20
66.95410833080712
 30
0.0
 10
237.716859305261
 20
67.52506564137947
 30
0.0
 10
237.716859305261
 20
68.6614538195264
 30
0.0
 10
237.716859305261
 20
70.39419728571103
 30
0.0
 10
237.716859305261
 20
72.1543426786891
 30
0.0
 10
237.716859305261
 20
73.94195355002277
 30
0.0
 10
237.716859305261
 20
75.57197578945704
 30
0.0
 10
237.716859305261
 20
77.02079333501719
 30
0.0
 10
237.716859305261
 20
78.29305657336566
 30
0.0
 10
237.716859305261
 20
79.55806325853784
 30
0.0
 10
237.716859305261
 20
80.39301833573232
 30
0.0
 10
237.716859305261
 20
80.81051479135814
 30
0.0
  0
SPLINE
  5
113
330
1F
100
AcDbEntity
  8
0
  6
Continuous
 62
     7
370
    25
100
AcDbSpline
210
0.0
220
0.0
230
1.0
 70
    24
 71
     3
 72
    15
 73
    11
 74
     0
 42
0.000000001
 43
0.00000001
 40
0.0
 40
0.0
 40
0.0
 40
0.0
 40
0.1323065044264402
 40
0.2645755999739297
 40
0.3998036789671092
 40
0.5350073556765894
 40
0.6501969475405021
 40
0.7654045076453765
 40
0.8826909144168966
 40
1.0
 40
1.0
 40
1.0
 40
1.0
 10
225.716859305261
 20
60.02590510053162
 30
0.0
 10
226.2353120344694
 20
60.32523392330222
 30
0.0
 10
227.2720709034539
 20
60.92380693539516
 30
0.0
 10
228.8685883487243
 20
61.84555671218795
 30
0.0
 10
230.4952007604042
 20
62.78468182593851
 30
0.0
 10
232.0628815017912
 20
63.68978272398171
 30
0.0
 10
233.5458576957511
 20
64.54597942876624
 30
0.0
 10
234.9454110551765
 20
65.35401193757575
 30
0.0
 10
236.3386364714199
 20
66.15839100668569
 30
0.0
 10
237.257422087038
 20
66.68885212919034
 30
0.0
 10
237.716859305261
 20
66.95410833080712
 30
0.0
  0
SPLINE
  5
114
330
1F
100
AcDbEntity
  8
0
  6
Continuous
 62
     7
370
    25
100
AcDbSpline
210
0.0
220
0.0
230
1.0
 70
    24
 71
     3
 72
    15
 73
    11
 74
     0
 42
0.000000001
 43
0.00000001
 40
0.0
 40
0.0
 40
0.0
 40
0.0
 40
0.1323065044264403
 40
0.2645755999739298
 40
0.3998036789671093
 40
0.5350073556765895
 40
0.6501969475405022
 40
0.7654045076453766
 40
0.8826909144168967
 40
1.0
 40
1.0
 40
1.0
 40
1.0
 10
213.716859305261
 20
66.95410833080712
 30
0.0
 10
214.2353120344694
 20
66.65477950803651
 30
0.0
 10
215.272070903454
 20
66.05620649594357
 30
0.0
 10
216.8685883487243
 20
65.13445671915079
 30
0.0
 10
218.4952007604042
 20
64.19533160540023
 30
0.0
 10
220.0628815017912
 20
63.29023070735704
 30
0.0
 10
221.5458576957511
 20
62.43403400257248
 30
0.0
 10
222.9454110551765
 20
61.62600149376298
 30
0.0
 10
224.3386364714199
 20
60.82162242465306
 30
0.0
 10
225.257422087038
 20
60.2911613021484
 30
0.0
 10
225.716859305261
 20
60.02590510053162
 30
0.0
  0
SPLINE
  5
115
330
1F
100
AcDbEntity
  8
0
  6
Continuous
 62
     7
370
    25
100
AcDbSpline
210
0.0
220
0.0
230
1.0
 70
    24
 71
     3
 72
    16
 73
    12
 74
     0
 42
0.000000001
 43
0.00000001
 40
0.0
 40
0.0
 40
0.0
 40
0.0
 40
0.0915356978782496
 40
0.1830633432235329
 40
0.2753996771146607
 40
0.3677267146962474
 40
0.4925705318074073
 40
0.6174129202940688
 40
0.7455832490327828
 40
0.8737882839722
 40
1.0
 40
1.0
 40
1.0
 40
1.0
 10
213.716859305261
 20
80.81051479135813
 30
0.0
 10
213.716859305261
 20
80.3969150628039
 30
0.0
 10
213.716859305261
 20
79.5697519906854
 30
0.0
 10
213.716859305261
 20
78.30887675920252
 30
0.0
 10
213.716859305261
 20
77.03279734413577
 30
0.0
 10
213.716859305261
 20
75.5909642379646
 30
0.0
 10
213.716859305261
 20
73.98723548305877
 30
0.0
 10
213.716859305261
 20
72.2145931404095
 30
0.0
 10
213.716859305261
 20
70.43872339157134
 30
0.0
 10
213.716859305261
 20
68.67600405165672
 30
0.0
 10
213.716859305261
 20
67.52506776393906
 30
0.0
 10
213.716859305261
 20
66.95410833080712
 30
0.0
  0
SPLINE
  5
116
330
1F
100
AcDbEntity
  8
0
  6
Continuous
 62
     7
370
    25
100
AcDbSpline
210
0.0
220
0.0
230
1.0
 70
    24
 71
     3
 72
    15
 73
    11
 74
     0
 42
0.000000001
 43
0.00000001
 40
0.0
 40
0.0
 40
0.0
 40
0.0
 40
0.1323065044264402
 40
0.2645755999739297
 40
0.3998036789671093
 40
0.5350073556765894
 40
0.6501969475405022
 40
0.7654045076453766
 40
0.8826909144168968
 40
1.0
 40
1.0
 40
1.0
 40
1.0
 10
225.716859305261
 20
87.73871802163366
 30
0.0
 10
225.1984065760525
 20
87.43938919886305
 30
0.0
 10
224.161647707068
 20
86.84081618677011
 30
0.0
 10
222.5651302617976
 20
85.91906640997732
 30
0.0
 10
220.9385178501177
 20
84.97994129622676
 30
0.0
 10
219.3708371087307
 20
84.07484039818355
 30
0.0
 10
217.8878609147708
 20
83.21864369339902
 30
0.0
 10
216.4883075553454
 20
82.4106111845895
 30
0.0
 10
215.095082139102
 20
81.60623211547957
 30
0.0
 10
214.176296523484
 20
81.07577099297491
 30
0.0
 10
213.716859305261
 20
80.81051479135813
 30
0.0
  0
CIRCLE
  5
117
330
1F
100
AcDbEntity
  8
0
  6
Continuous
 62
     7
370
    25
100
AcDbCircle
 10
225.7168593053
 20
73.8823115611
 30
0.0
 40
5.0
  0
INSERT
  5
123
330
1F
100
AcDbEntity
  8
0
  6
Continuous
 62
     7
370
    18
100
AcDbBlockReference
  2
SW_CENTERMARKSYMBOL_0
 10
225.7168593053
 20
73.8823115611
 30
0.0
  0
LINE
  5
124
330
1F
100
AcDbEntity
  8
0
  6
Continuous
 62
     7
370
    25
100
AcDbLine
 10
162.3394298124
 20
109.7940089182
 30
0.0
 11
168.8394298124
 21
109.7940089182
 31
0.0
  0
LINE
  5
125
330
1F
100
AcDbEntity
  8
0
  6
Continuous
 62
     7
370
    25
100
AcDbLine
 10
168.8394298124
 20
125.7940089182
 30
0.0
 11
162.3394298124
 21
125.7940089182
 31
0.0
  0
LINE
  5
126
330
1F
100
AcDbEntity
  8
0
  6
Continuous
 62
     7
370
    25
100
AcDbLine
 10
168.8394298124
 20
109.7940089182
 30
0.0
 11
173.3394298124
 21
110.5440089182
 31
0.0
  0
LINE
  5
127
330
1F
100
AcDbEntity
  8
0
  6
Continuous
 62
     7
370
    25
100
AcDbLine
 10
173.3394298124
 20
125.0440089182
 30
0.0
 11
168.8394298124
 21
125.7940089182
 31
0.0
  0
ARC
  5
128
330
1F
100
AcDbEntity
  8
0
  6
Continuous
 62
     7
370
    25
100
AcDbCircle
 10
186.9394298124
 20
125.6818069772
 30
0.0
 40
0.0999999999999943
100
AcDbArc
 50
83.4180553448
 51
180.0
  0
ARC
  5
129
330
1F
100
AcDbEntity
  8
0
  6
Continuous
 62
     7
370
    25
100
AcDbCircle
 10
186.9394298124
 20
109.9062108592
 30
0.0
 40
0.0999999999999988
100
AcDbArc
 50
180.0
 51
276.5819446552
  0
LINE
  5
12A
330
1F
100
AcDbEntity
  8
0
  6
Continuous
 62
     7
370
    25
100
AcDbLine
 10
186.9508922232
 20
109.8068699656
 30
0.0
 11
192.7433844509
 21
110.4752344534
 31
0.0
  0
LINE
  5
12B
330
1F
100
AcDbEntity
  8
0
  6
Continuous
 62
     7
370
    25
100
AcDbLine
 10
192.7433844509
 20
125.112783383
 30
0.0
 11
186.9508922232
 21
125.7811478708
 31
0.0
  0
ARC
  5
12C
330
1F
100
AcDbEntity
  8
0
  6
Continuous
 62
     7
370
    25
100
AcDbCircle
 10
173.4394298124
 20
125.675962876
 30
0.0
 40
0.1000000000000104
100
AcDbArc
 50
80.537677792
 51
180.0
  0
ARC
  5
12D
330
1F
100
AcDbEntity
  8
0
  6
Continuous
 62
     7
370
    25
100
AcDbCircle
 10
173.4394298124
 20
109.9120549603
 30
0.0
 40
0.1000000000000104
100
AcDbArc
 50
180.0
 51
279.462322208
  0
ARC
  5
12E
330
1F
100
AcDbEntity
  8
0
  6
Continuous
 62
     7
370
    25
100
AcDbCircle
 10
177.9394298124
 20
125.675962876
 30
0.0
 40
0.1000000000000104
100
AcDbArc
 50
80.537677792
 51
180.0
  0
ARC
  5
12F
330
1F
100
AcDbEntity
  8
0
  6
Continuous
 62
     7
370
    25
100
AcDbCircle
 10
177.9394298124
 20
109.9120549603
 30
0.0
 40
0.1000000000000104
100
AcDbArc
 50
180.0
 51
279.462322208
  0
ARC
  5
130
330
1F
100
AcDbEntity
  8
0
  6
Continuous
 62
     7
370
    25
100
AcDbCircle
 10
182.4394298124
 20
125.675962876
 30
0.0
 40
0.0999999999999943
100
AcDbArc
 50
80.537677792
 51
180.0
  0
ARC
  5
131
330
1F
100
AcDbEntity
  8
0
  6
Continuous
 62
     7
370
    25
100
AcDbCircle
 10
182.4394298124
 20
109.9120549603
 30
0.0
 40
0.0999999999999964
100
AcDbArc
 50
180.0
 51
279.462322208
  0
LINE
  5
132
330
1F
100
AcDbEntity
  8
0
  6
Continuous
 62
     7
370
    25
100
AcDbLine
 10
177.9558697111
 20
109.813415568
 30
0.0
 11
182.3394298124
 21
110.5440089182
 31
0.0
  0
LINE
  5
133
330
1F
100
AcDbEntity
  8
0
  6
Continuous
 62
     7
370
    25
100
AcDbLine
 10
182.3394298124
 20
125.0440089182
 30
0.0
 11
177.9558697111
 21
125.7746022684
 31
0.0
  0
LINE
  5
134
330
1F
100
AcDbEntity
  8
0
  6
Continuous
 62
     7
370
    25
100
AcDbLine
 10
173.4558697111
 20
109.813415568
 30
0.0
 11
177.8394298124
 21
110.5440089182
 31
0.0
  0
LINE
  5
135
330
1F
100
AcDbEntity
  8
0
  6
Continuous
 62
     7
370
    25
100
AcDbLine
 10
177.8394298124
 20
125.0440089182
 30
0.0
 11
173.4558697111
 21
125.7746022684
 31
0.0
  0
LINE
  5
136
330
1F
100
AcDbEntity
  8
0
  6
Continuous
 62
     7
370
    25
100
AcDbLine
 10
182.4558697111
 20
109.813415568
 30
0.0
 11
186.8394298124
 21
110.5440089182
 31
0.0
  0
LINE
  5
137
330
1F
100
AcDbEntity
  8
0
  6
Continuous
 62
     7
370
    25
100
AcDbLine
 10
186.8394298124
 20
125.0440089182
 30
0.0
 11
182.4558697111
 21
125.7746022684
 31
0.0
  0
LINE
  5
138
330
1F
100
AcDbEntity
  8
0
  6
Continuous
 62
     7
370
    25
100
AcDbLine
 10
192.7433844509
 20
110.4752344534
 30
0.0
 11
193.3394298124
 21
111.1440089182
 31
0.0
  0
LINE
  5
139
330
1F
100
AcDbEntity
  8
0
  6
Continuous
 62
     7
370
    25
100
AcDbLine
 10
193.3394298124
 20
124.4440089182
 30
0.0
 11
192.7433844509
 21
125.112783383
 31
0.0
  0
LINE
  5
13A
330
1F
100
AcDbEntity
  8
0
  6
Continuous
 62
     7
370
    25
100
AcDbLine
 10
160.1950922451
 20
105.7940089182
 30
0.0
 11
160.3394298124
 21
106.0440089182
 31
0.0
  0
LINE
  5
13B
330
1F
100
AcDbEntity
  8
0
  6
Continuous
 62
     7
370
    25
100
AcDbLine
 10
160.3394298124
 20
129.5440089182
 30
0.0
 11
160.1950922451
 21
129.7940089182
 31
0.0
  0
LINE
  5
13C
330
1F
100
AcDbEntity
  8
0
  6
Continuous
 62
     7
370
    25
100
AcDbLine
 10
148.4837673797
 20
129.7940089182
 30
0.0
 11
148.3394298124
 21
129.5440089182
 31
0.0
  0
LINE
  5
13D
330
1F
100
AcDbEntity
  8
0
  6
Continuous
 62
     7
370
    25
100
AcDbLine
 10
148.3394298124
 20
106.0440089182
 30
0.0
 11
148.4837673797
 21
105.7940089182
 31
0.0
  0
LINE
  5
13E
330
1F
100
AcDbEntity
  8
0
  6
Continuous
 62
     7
370
    25
100
AcDbLine
 10
161.8394298124
 20
106.0440089182
 30
0.0
 11
162.3394298124
 21
106.5440089182
 31
0.0
  0
LINE
  5
13F
330
1F
100
AcDbEntity
  8
0
  6
Continuous
 62
     7
370
    25
100
AcDbLine
 10
162.3394298124
 20
129.0440089182
 30
0.0
 11
161.8394298124
 21
129.5440089182
 31
0.0
  0
LINE
  5
140
330
1F
100
AcDbEntity
  8
0
  6
Continuous
 62
     7
370
    25
100
AcDbLine
 10
160.3394298124
 20
106.0440089182
 30
0.0
 11
161.8394298124
 21
106.0440089182
 31
0.0
  0
LINE
  5
141
330
1F
100
AcDbEntity
  8
0
  6
Continuous
 62
     7
370
    25
100
AcDbLine
 10
161.8394298124
 20
129.5440089182
 30
0.0
 11
160.3394298124
 21
129.5440089182
 31
0.0
  0
LINE
  5
142
330
1F
100
AcDbEntity
  8
0
  6
Continuous
 62
     7
370
    25
100
AcDbLine
 10
146.8394298124
 20
129.5440089182
 30
0.0
 11
146.3394298124
 21
129.0440089182
 31
0.0
  0
LINE
  5
143
330
1F
100
AcDbEntity
  8
0
  6
Continuous
 62
     7
370
    25
100
AcDbLine
 10
146.3394298124
 20
106.5440089182
 30
0.0
 11
146.8394298124
 21
106.0440089182
 31
0.0
  0
LINE
  5
144
330
1F
100
AcDbEntity
  8
0
  6
Continuous
 62
     7
370
    25
100
AcDbLine
 10
148.3394298124
 20
129.5440089182
 30
0.0
 11
146.8394298124
 21
129.5440089182
 31
0.0
  0
LINE
  5
145
330
1F
100
AcDbEntity
  8
0
  6
Continuous
 62
     7
370
    25
100
AcDbLine
 10
146.8394298124
 20
106.0440089182
 30
0.0
 11
148.3394298124
 21
106.0440089182
 31
0.0
  0
LINE
  5
146
330
1F
100
AcDbEntity
  8
0
  6
Continuous
 62
     7
370
    25
100
AcDbLine
 10
140.7931684564
 20
106.7940089182
 30
0.0
 11
140.9375060237
 21
107.0440089182
 31
0.0
  0
LINE
  5
147
330
1F
100
AcDbEntity
  8
0
  6
Continuous
 62
     7
370
    25
100
AcDbLine
 10
140.9375060237
 20
128.5440089182
 30
0.0
 11
140.7931684564
 21
128.7940089182
 31
0.0
  0
LINE
  5
148
330
1F
100
AcDbEntity
  8
0
  6
Continuous
 62
     7
370
    25
100
AcDbLine
 10
144.9375060237
 20
107.3165089182
 30
0.0
 11
146.3394298124
 21
107.3165089182
 31
0.0
  0
LINE
  5
149
330
1F
100
AcDbEntity
  8
0
  6
Continuous
 62
     7
370
    25
100
AcDbLine
 10
146.3394298124
 20
128.2715089182
 30
0.0
 11
144.9375060237
 21
128.2715089182
 31
0.0
  0
LINE
  5
14A
330
1F
100
AcDbEntity
  8
0
  6
Continuous
 62
     7
370
    25
100
AcDbLine
 10
144.9375060237
 20
128.2715089182
 30
0.0
 11
143.4600060237
 21
126.7940089182
 31
0.0
  0
LINE
  5
14B
330
1F
100
AcDbEntity
  8
0
  6
Continuous
 62
     7
370
    25
100
AcDbLine
 10
143.4600060237
 20
108.7940089182
 30
0.0
 11
144.9375060237
 21
107.3165089182
 31
0.0
  0
LINE
  5
14C
330
1F
100
AcDbEntity
  8
0
  6
Continuous
 62
     7
370
    25
100
AcDbLine
 10
140.9375060237
 20
108.7940089182
 30
0.0
 11
143.4600060237
 21
108.7940089182
 31
0.0
  0
LINE
  5
14D
330
1F
100
AcDbEntity
  8
0
  6
Continuous
 62
     7
370
    25
100
AcDbLine
 10
143.4600060237
 20
126.7940089182
 30
0.0
 11
140.9375060237
 21
126.7940089182
 31
0.0
  0
LINE
  5
14E
330
1F
100
AcDbEntity
  8
0
  6
Continuous
 62
     7
370
    25
100
AcDbLine
 10
134.9375060237
 20
126.3015714182
 30
0.0
 11
125.0114154574
 21
125.991381088
 31
0.0
  0
LINE
  5
14F
330
1F
100
AcDbEntity
  8
0
  6
Continuous
 62
     7
370
    25
100
AcDbLine
 10
125.0114154574
 20
109.5966367484
 30
0.0
 11
134.9375060237
 21
109.2864464182
 31
0.0
  0
LINE
  5
150
330
1F
100
AcDbEntity
  8
0
  6
Continuous
 62
     7
370
    25
100
AcDbLine
 10
125.0114154574
 20
125.991381088
 30
0.0
 11
122.9375060237
 21
124.7940089182
 31
0.0
  0
LINE
  5
151
330
1F
100
AcDbEntity
  8
0
  6
Continuous
 62
     7
370
    25
100
AcDbLine
 10
122.9375060237
 20
110.7940089182
 30
0.0
 11
125.0114154574
 21
109.5966367484
 31
0.0
  0
LINE
  5
152
330
1F
100
AcDbEntity
  8
0
  6
Continuous
 62
     7
370
    25
100
AcDbLine
 10
168.8394298124
 20
109.7940089182
 30
0.0
 11
168.8394298124
 21
125.7940089182
 31
0.0
  0
LINE
  5
153
330
1F
100
AcDbEntity
  8
0
  6
Continuous
 62
     7
370
    25
100
AcDbLine
 10
186.8394298124
 20
117.7940089182
 30
0.0
 11
186.8394298124
 21
125.6818069772
 31
0.0
  0
LINE
  5
154
330
1F
100
AcDbEntity
  8
0
  6
Continuous
 62
     7
370
    25
100
AcDbLine
 10
186.8394298124
 20
109.9062108592
 30
0.0
 11
186.8394298124
 21
117.7940089182
 31
0.0
  0
LINE
  5
155
330
1F
100
AcDbEntity
  8
0
  6
Continuous
 62
     7
370
    25
100
AcDbLine
 10
192.7433844509
 20
117.7940089182
 30
0.0
 11
192.7433844509
 21
125.112783383
 31
0.0
  0
LINE
  5
156
330
1F
100
AcDbEntity
  8
0
  6
Continuous
 62
     7
370
    25
100
AcDbLine
 10
192.7433844509
 20
110.4752344534
 30
0.0
 11
192.7433844509
 21
117.7940089182
 31
0.0
  0
LINE
  5
157
330
1F
100
AcDbEntity
  8
0
  6
Continuous
 62
     7
370
    25
100
AcDbLine
 10
173.3394298124
 20
117.7940089182
 30
0.0
 11
173.3394298124
 21
125.675962876
 31
0.0
  0
LINE
  5
158
330
1F
100
AcDbEntity
  8
0
  6
Continuous
 62
     7
370
    25
100
AcDbLine
 10
173.3394298124
 20
109.9120549603
 30
0.0
 11
173.3394298124
 21
117.7940089182
 31
0.0
  0
LINE
  5
159
330
1F
100
AcDbEntity
  8
0
  6
Continuous
 62
     7
370
    25
100
AcDbLine
 10
177.8394298124
 20
117.7940089182
 30
0.0
 11
177.8394298124
 21
125.675962876
 31
0.0
  0
LINE
  5
15A
330
1F
100
AcDbEntity
  8
0
  6
Continuous
 62
     7
370
    25
100
AcDbLine
 10
177.8394298124
 20
109.9120549603
 30
0.0
 11
177.8394298124
 21
117.7940089182
 31
0.0
  0
LINE
  5
15B
330
1F
100
AcDbEntity
  8
0
  6
Continuous
 62
     7
370
    25
100
AcDbLine
 10
182.3394298124
 20
117.7940089182
 30
0.0
 11
182.3394298124
 21
125.675962876
 31
0.0
  0
LINE
  5
15C
330
1F
100
AcDbEntity
  8
0
  6
Continuous
 62
     7
370
    25
100
AcDbLine
 10
182.3394298124
 20
109.9120549603
 30
0.0
 11
182.3394298124
 21
117.7940089182
 31
0.0
  0
LINE
  5
15D
330
1F
100
AcDbEntity
  8
0
  6
Continuous
 62
     7
370
    25
100
AcDbLine
 10
193.3394298124
 20
124.4440089182
 30
0.0
 11
193.3394298124
 21
111.1440089182
 31
0.0
  0
SPLINE
  5
15E
330
1F
100
AcDbEntity
  8
0
  6
Continuous
 62
     7
370
    25
100
AcDbSpline
210
0.0
220
0.0
230
1.0
 70
     8
 71
     3
 72
    15
 73
    11
 74
     0
 42
0.000000001
 43
0.00000001
 40
0.0
 40
0.0
 40
0.0
 40
0.0
 40
0.1323065044264403
 40
0.2645755999739294
 40
0.3998036789671088
 40
0.5350073556765889
 40
0.6501969475405015
 40
0.765404507645376
 40
0.8826909144168964
 40
0.9999999999999999
 40
0.9999999999999999
 40
0.9999999999999999
 40
0.9999999999999999
 10
159.1232954753631
 20
129.7940089181657
 30
0.0
 10
159.2864545572808
 20
129.2755561889572
 30
0.0
 10
159.6127265888542
 20
128.2387973199727
 30
0.0
 10
159.9637812918741
 20
126.6422798747024
 30
0.0
 10
160.1748580774032
 20
125.0156674630225
 30
0.0
 10
160.2166553876888
 20
123.4479867216355
 30
0.0
 10
160.108196754988
 20
121.9650105276756
 30
0.0
 10
159.8859708459272
 20
120.5654571682502
 30
0.0
 10
159.5599930726409
 20
119.1722317520068
 30
0.0
 10
159.2688707222474
 20
118.2534461363887
 30
0.0
 10
159.1232954753631
 20
117.7940089181657
 30
0.0
  0
SPLINE
  5
15F
330
1F
100
AcDbEntity
  8
0
  6
Continuous
 62
     7
370
    25
100
AcDbSpline
210
0.0
220
0.0
230
1.0
 70
    24
 71
     3
 72
    13
 73
     9
 74
     0
 42
0.000000001
 43
0.00000001
 40
0.0
 40
0.0
 40
0.0
 40
0.0
 40
0.0074805398740651
 40
0.2645411886743794
 40
0.4472095267780685
 40
0.6304328563017444
 40
0.8150425219966039
 40
1.0
 40
1.0
 40
1.0
 40
1.0
 10
160.1929022253277
 20
129.7940089181657
 30
0.0
 10
160.193629524552
 20
129.7940089181657
 30
0.0
 10
160.219349673705
 20
129.7940089181658
 30
0.0
 10
160.1375823067069
 20
129.7940089181657
 30
0.0
 10
159.9759073448115
 20
129.7940089181657
 30
0.0
 10
159.7517437619685
 20
129.7940089181657
 30
0.0
 10
159.4710157483276
 20
129.7940089181657
 30
0.0
 10
159.23927493276
 20
129.7940089181657
 30
0.0
 10
159.1232954753631
 20
129.7940089181657
 30
0.0
  0
SPLINE
  5
160
330
1F
100
AcDbEntity
  8
0
  6
Continuous
 62
     7
370
    25
100
AcDbSpline
210
0.0
220
0.0
230
1.0
 70
    24
 71
     3
 72
    13
 73
     9
 74
     0
 42
0.000000001
 43
0.00000001
 40
0.0
 40
0.0
 40
0.0
 40
0.0
 40
0.1829108694329372
 40
0.3661265398835281
 40
0.5505239998338701
 40
0.7354538878820186
 40
0.9842714606347307
 40
0.9999999999999999
 40
0.9999999999999999
 40
0.9999999999999999
 40
0.9999999999999999
 10
159.1232954753631
 20
105.7940089181657
 30
0.0
 10
159.238035352146
 20
105.7940089181657
 30
0.0
 10
159.4677063072041
 20
105.7940089181657
 30
0.0
 10
159.7481830274964
 20
105.7940089181657
 30
0.0
 10
159.9740924825765
 20
105.7940089181657
 30
0.0
 10
160.1355495222325
 20
105.7940089181657
 30
0.0
 10
160.2164288646752
 20
105.7940089181657
 30
0.0
 10
160.19216505626
 20
105.7940089181657
 30
0.0
 10
160.1907224560919
 20
105.7940089181657
 30
0.0
  0
SPLINE
  5
161
330
1F
100
AcDbEntity
  8
0
  6
Continuous
 62
     7
370
    25
100
AcDbSpline
210
0.0
220
0.0
230
1.0
 70
     8
 71
     3
 72
    15
 73
    11
 74
     0
 42
0.000000001
 43
0.00000001
 40
0.0
 40
0.0
 40
0.0
 40
0.0
 40
0.1323065044264402
 40
0.2645755999739297
 40
0.3998036789671092
 40
0.5350073556765893
 40
0.6501969475405021
 40
0.7654045076453766
 40
0.8826909144168968
 40
1.0
 40
1.0
 40
1.0
 40
1.0
 10
159.1232954753631
 20
117.7940089181657
 30
0.0
 10
159.2864545572808
 20
117.2755561889572
 30
0.0
 10
159.6127265888542
 20
116.2387973199727
 30
0.0
 10
159.9637812918741
 20
114.6422798747024
 30
0.0
 10
160.1748580774032
 20
113.0156674630225
 30
0.0
 10
160.2166553876888
 20
111.4479867216354
 30
0.0
 10
160.108196754988
 20
109.9650105276756
 30
0.0
 10
159.8859708459271
 20
108.5654571682502
 30
0.0
 10
159.5599930726409
 20
107.1722317520068
 30
0.0
 10
159.2688707222474
 20
106.2534461363887
 30
0.0
 10
159.1232954753631
 20
105.7940089181657
 30
0.0
  0
LINE
  5
162
330
1F
100
AcDbEntity
  8
0
  6
Continuous
 62
     7
370
    25
100
AcDbLine
 10
160.3394298124
 20
129.5440089182
 30
0.0
 11
160.3394298124
 21
106.0440089182
 31
0.0
  0
LINE
  5
163
330
1F
100
AcDbEntity
  8
0
  6
Continuous
 62
     7
370
    25
100
AcDbLine
 10
154.4734044086
 20
129.7940089182
 30
0.0
 11
154.3394298124
 21
128.8729059593
 31
0.0
  0
LINE
  5
164
330
1F
100
AcDbEntity
  8
0
  6
Continuous
 62
     7
370
    25
100
AcDbLine
 10
159.1232954754
 20
129.7940089182
 30
0.0
 11
154.4734044086
 21
129.7940089182
 31
0.0
  0
LINE
  5
165
330
1F
100
AcDbEntity
  8
0
  6
Continuous
 62
     7
370
    25
100
AcDbLine
 10
159.1232954754
 20
117.7940089182
 30
0.0
 11
154.4734044086
 21
117.7940089182
 31
0.0
  0
LINE
  5
166
330
1F
100
AcDbEntity
  8
0
  6
Continuous
 62
     7
370
    25
100
AcDbLine
 10
154.3394298124
 20
118.715111877
 30
0.0
 11
154.4734044086
 21
117.7940089182
 31
0.0
  0
LINE
  5
167
330
1F
100
AcDbEntity
  8
0
  6
Continuous
 62
     7
370
    25
100
AcDbLine
 10
154.3394298124
 20
118.715111877
 30
0.0
 11
154.2054552162
 21
117.7940089182
 31
0.0
  0
LINE
  5
168
330
1F
100
AcDbEntity
  8
0
  6
Continuous
 62
     7
370
    25
100
AcDbLine
 10
154.2054552162
 20
117.7940089182
 30
0.0
 11
149.5555641494
 21
117.7940089182
 31
0.0
  0
SPLINE
  5
169
330
1F
100
AcDbEntity
  8
0
  6
Continuous
 62
     7
370
    25
100
AcDbSpline
210
0.0
220
0.0
230
1.0
 70
     8
 71
     3
 72
    15
 73
    11
 74
     0
 42
0.000000001
 43
0.00000001
 40
0.0
 40
0.0
 40
0.0
 40
0.0
 40
0.1323065044264402
 40
0.2645755999739293
 40
0.3998036789671088
 40
0.5350073556765889
 40
0.6501969475405016
 40
0.7654045076453762
 40
0.8826909144168965
 40
1.0
 40
1.0
 40
1.0
 40
1.0
 10
149.5555641494069
 20
129.7940089181657
 30
0.0
 10
149.3924050674892
 20
129.2755561889572
 30
0.0
 10
149.0661330359159
 20
128.2387973199727
 30
0.0
 10
148.715078332896
 20
126.6422798747024
 30
0.0
 10
148.5040015473669
 20
125.0156674630225
 30
0.0
 10
148.4622042370813
 20
123.4479867216355
 30
0.0
 10
148.570662869782
 20
121.9650105276756
 30
0.0
 10
148.7928887788429
 20
120.5654571682502
 30
0.0
 10
149.1188665521292
 20
119.1722317520068
 30
0.0
 10
149.4099889025227
 20
118.2534461363887
 30
0.0
 10
149.5555641494069
 20
117.7940089181657
 30
0.0
  0
LINE
  5
16A
330
1F
100
AcDbEntity
  8
0
  6
Continuous
 62
     7
370
    25
100
AcDbLine
 10
154.2054552162
 20
129.7940089182
 30
0.0
 11
149.5555641494
 21
129.7940089182
 31
0.0
  0
LINE
  5
16B
330
1F
100
AcDbEntity
  8
0
  6
Continuous
 62
     7
370
    25
100
AcDbLine
 10
154.2054552162
 20
129.7940089182
 30
0.0
 11
154.3394298124
 21
128.8729059593
 31
0.0
  0
SPLINE
  5
16C
330
1F
100
AcDbEntity
  8
0
  6
Continuous
 62
     7
370
    25
100
AcDbSpline
210
0.0
220
0.0
230
1.0
 70
     8
 71
     3
 72
    15
 73
    11
 74
     0
 42
0.000000001
 43
0.00000001
 40
0.0
 40
0.0
 40
0.0
 40
0.0
 40
0.1323065044264403
 40
0.2645755999739298
 40
0.3998036789671094
 40
0.5350073556765895
 40
0.6501969475405022
 40
0.7654045076453766
 40
0.8826909144168968
 40
1.0
 40
1.0
 40
1.0
 40
1.0
 10
149.5555641494069
 20
117.7940089181657
 30
0.0
 10
149.3924050674892
 20
117.2755561889572
 30
0.0
 10
149.0661330359159
 20
116.2387973199727
 30
0.0
 10
148.715078332896
 20
114.6422798747024
 30
0.0
 10
148.5040015473669
 20
113.0156674630225
 30
0.0
 10
148.4622042370813
 20
111.4479867216354
 30
0.0
 10
148.570662869782
 20
109.9650105276756
 30
0.0
 10
148.7928887788429
 20
108.5654571682502
 30
0.0
 10
149.1188665521292
 20
107.1722317520068
 30
0.0
 10
149.4099889025227
 20
106.2534461363887
 30
0.0
 10
149.5555641494069
 20
105.7940089181657
 30
0.0
  0
SPLINE
  5
16D
330
1F
100
AcDbEntity
  8
0
  6
Continuous
 62
     7
370
    25
100
AcDbSpline
210
0.0
220
0.0
230
1.0
 70
    24
 71
     3
 72
    13
 73
     9
 74
     0
 42
0.000000001
 43
0.00000001
 40
0.0
 40
0.0
 40
0.0
 40
0.0
 40
0.1829108694329378
 40
0.3661265398835292
 40
0.5505239998338716
 40
0.7354538878820206
 40
0.9842714606347331
 40
1.0
 40
1.0
 40
1.0
 40
1.0
 10
149.5555641494069
 20
105.7940089181657
 30
0.0
 10
149.4408242726241
 20
105.7940089181657
 30
0.0
 10
149.211153317566
 20
105.7940089181657
 30
0.0
 10
148.9306765972737
 20
105.7940089181657
 30
0.0
 10
148.7047671421936
 20
105.7940089181657
 30
0.0
 10
148.5433101025376
 20
105.7940089181657
 30
0.0
 10
148.4624307600949
 20
105.7940089181657
 30
0.0
 10
148.4866945685101
 20
105.7940089181657
 30
0.0
 10
148.4881371686782
 20
105.7940089181657
 30
0.0
  0
SPLINE
  5
16E
330
1F
100
AcDbEntity
  8
0
  6
Continuous
 62
     7
370
    25
100
AcDbSpline
210
0.0
220
0.0
230
1.0
 70
    24
 71
     3
 72
    13
 73
     9
 74
     0
 42
0.000000001
 43
0.00000001
 40
0.0
 40
0.0
 40
0.0
 40
0.0
 40
0.0074805398740622
 40
0.2645411886743771
 40
0.4472095267780669
 40
0.6304328563017432
 40
0.8150425219966034
 40
1.0
 40
1.0
 40
1.0
 40
1.0
 10
148.4859573994423
 20
129.7940089181657
 30
0.0
 10
148.485230100218
 20
129.7940089181657
 30
0.0
 10
148.4595099510652
 20
129.7940089181657
 30
0.0
 10
148.5412773180632
 20
129.7940089181657
 30
0.0
 10
148.7029522799586
 20
129.7940089181657
 30
0.0
 10
148.9271158628015
 20
129.7940089181657
 30
0.0
 10
149.2078438764425
 20
129.7940089181657
 30
0.0
 10
149.4395846920101
 20
129.7940089181657
 30
0.0
 10
149.5555641494069
 20
129.7940089181657
 30
0.0
  0
LINE
  5
16F
330
1F
100
AcDbEntity
  8
0
  6
Continuous
 62
     7
370
    25
100
AcDbLine
 10
148.3394298124
 20
129.5440089182
 30
0.0
 11
148.3394298124
 21
106.0440089182
 31
0.0
  0
LINE
  5
170
330
1F
100
AcDbEntity
  8
0
  6
Continuous
 62
     7
370
    25
100
AcDbLine
 10
154.4734044086
 20
117.7940089182
 30
0.0
 11
154.3394298124
 21
116.8729059593
 31
0.0
  0
LINE
  5
171
330
1F
100
AcDbEntity
  8
0
  6
Continuous
 62
     7
370
    25
100
AcDbLine
 10
154.3394298124
 20
118.715111877
 30
0.0
 11
154.3394298124
 21
116.8729059593
 31
0.0
  0
LINE
  5
172
330
1F
100
AcDbEntity
  8
0
  6
Continuous
 62
     7
370
    25
100
AcDbLine
 10
154.2054552162
 20
117.7940089182
 30
0.0
 11
154.3394298124
 21
116.8729059593
 31
0.0
  0
LINE
  5
173
330
1F
100
AcDbEntity
  8
0
  6
Continuous
 62
     7
370
    25
100
AcDbLine
 10
159.1232954754
 20
105.7940089182
 30
0.0
 11
154.4734044086
 21
105.7940089182
 31
0.0
  0
LINE
  5
174
330
1F
100
AcDbEntity
  8
0
  6
Continuous
 62
     7
370
    25
100
AcDbLine
 10
154.3394298124
 20
106.715111877
 30
0.0
 11
154.4734044086
 21
105.7940089182
 31
0.0
  0
LINE
  5
175
330
1F
100
AcDbEntity
  8
0
  6
Continuous
 62
     7
370
    25
100
AcDbLine
 10
154.3394298124
 20
106.715111877
 30
0.0
 11
154.2054552162
 21
105.7940089182
 31
0.0
  0
LINE
  5
176
330
1F
100
AcDbEntity
  8
0
  6
Continuous
 62
     7
370
    25
100
AcDbLine
 10
154.2054552162
 20
105.7940089182
 30
0.0
 11
149.5555641494
 21
105.7940089182
 31
0.0
  0
LINE
  5
177
330
1F
100
AcDbEntity
  8
0
  6
Continuous
 62
     7
370
    25
100
AcDbLine
 10
162.3394298124
 20
129.0440089182
 30
0.0
 11
162.3394298124
 21
106.5440089182
 31
0.0
  0
LINE
  5
178
330
1F
100
AcDbEntity
  8
0
  6
Continuous
 62
     7
370
    25
100
AcDbLine
 10
161.8394298124
 20
106.0440089182
 30
0.0
 11
161.8394298124
 21
129.5440089182
 31
0.0
  0
LINE
  5
179
330
1F
100
AcDbEntity
  8
0
  6
Continuous
 62
     7
370
    25
100
AcDbLine
 10
146.8394298124
 20
129.5440089182
 30
0.0
 11
146.8394298124
 21
106.0440089182
 31
0.0
  0
LINE
  5
17A
330
1F
100
AcDbEntity
  8
0
  6
Continuous
 62
     7
370
    25
100
AcDbLine
 10
146.3394298124
 20
106.5440089182
 30
0.0
 11
146.3394298124
 21
129.0440089182
 31
0.0
  0
LINE
  5
17B
330
1F
100
AcDbEntity
  8
0
  6
Continuous
 62
     7
370
    25
100
AcDbLine
 10
154.3394298124
 20
129.7940089182
 30
0.0
 11
154.3394298124
 21
128.8729059593
 31
0.0
  0
LINE
  5
17C
330
1F
100
AcDbEntity
  8
0
  6
Continuous
 62
     7
370
    25
100
AcDbLine
 10
154.3394298124
 20
129.7940089182
 30
0.0
 11
154.4734044086
 21
129.7940089182
 31
0.0
  0
LINE
  5
17D
330
1F
100
AcDbEntity
  8
0
  6
Continuous
 62
     7
370
    25
100
AcDbLine
 10
154.3394298124
 20
129.7940089182
 30
0.0
 11
154.2054552162
 21
129.7940089182
 31
0.0
  0
LINE
  5
17E
330
1F
100
AcDbEntity
  8
0
  6
Continuous
 62
     7
370
    25
100
AcDbLine
 10
154.3394298124
 20
106.715111877
 30
0.0
 11
154.3394298124
 21
105.7940089182
 31
0.0
  0
LINE
  5
17F
330
1F
100
AcDbEntity
  8
0
  6
Continuous
 62
     7
370
    25
100
AcDbLine
 10
154.2054552162
 20
105.7940089182
 30
0.0
 11
154.3394298124
 21
105.7940089182
 31
0.0
  0
LINE
  5
180
330
1F
100
AcDbEntity
  8
0
  6
Continuous
 62
     7
370
    25
100
AcDbLine
 10
154.4734044086
 20
105.7940089182
 30
0.0
 11
154.3394298124
 21
105.7940089182
 31
0.0
  0
LINE
  5
181
330
1F
100
AcDbEntity
  8
0
  6
Continuous
 62
     7
370
    25
100
AcDbLine
 10
134.9375060237
 20
117.7940089182
 30
0.0
 11
137.2937122962
 21
117.7940089182
 31
0.0
  0
LINE
  5
182
330
1F
100
AcDbEntity
  8
0
  6
Continuous
 62
     7
370
    25
100
AcDbLine
 10
134.9375060237
 20
128.7940089182
 30
0.0
 11
137.2937122962
 21
128.7940089182
 31
0.0
  0
SPLINE
  5
183
330
1F
100
AcDbEntity
  8
0
  6
Continuous
 62
     7
370
    25
100
AcDbSpline
210
0.0
220
0.0
230
1.0
 70
     8
 71
     3
 72
     8
 73
     4
 74
     0
 42
0.000000001
 43
0.00000001
 40
0.0
 40
0.0
 40
0.0
 40
0.0
 40
1.0
 40
1.0
 40
1.0
 40
1.0
 10
137.3740970539659
 20
128.2540222583719
 30
0.0
 10
137.3483561041326
 20
128.4341713030486
 30
0.0
 10
137.3215345598717
 20
128.6141629788652
 30
0.0
 10
137.2937122962366
 20
128.7940089181658
 30
0.0
  0
SPLINE
  5
184
330
1F
100
AcDbEntity
  8
0
  6
Continuous
 62
     7
370
    25
100
AcDbSpline
210
0.0
220
0.0
230
1.0
 70
     8
 71
     3
 72
     8
 73
     4
 74
     0
 42
0.000000001
 43
0.00000001
 40
0.0
 40
0.0
 40
0.0
 40
0.0
 40
1.0
 40
1.0
 40
1.0
 40
1.0
 10
137.4544818116952
 20
128.7940089181658
 30
0.0
 10
137.4266501386381
 20
128.6141021554053
 30
0.0
 10
137.3998290787721
 20
128.434108840897
 30
0.0
 10
137.3740970539659
 20
128.2540222583719
 30
0.0
  0
LINE
  5
185
330
1F
100
AcDbEntity
  8
0
  6
Continuous
 62
     7
370
    25
100
AcDbLine
 10
137.4544818117
 20
128.7940089182
 30
0.0
 11
139.8106880842
 21
128.7940089182
 31
0.0
  0
SPLINE
  5
186
330
1F
100
AcDbEntity
  8
0
  6
Continuous
 62
     7
370
    25
100
AcDbSpline
210
0.0
220
0.0
230
1.0
 70
     8
 71
     3
 72
    16
 73
    12
 74
     0
 42
0.000000001
 43
0.00000001
 40
0.0
 40
0.0
 40
0.0
 40
0.0
 40
0.2499999999999999
 40
0.2499999999999999
 40
0.4999999999999999
 40
0.4999999999999999
 40
0.6249999999999999
 40
0.6249999999999999
 40
0.75
 40
0.75
 40
1.0
 40
1.0
 40
1.0
 40
1.0
 10
139.8106880841938
 20
128.7940089181658
 30
0.0
 10
140.1100366423768
 20
127.8959632436167
 30
0.0
 10
140.3567540692384
 20
126.9913701427081
 30
0.0
 10
140.6985378015947
 20
125.1633182139999
 30
0.0
 10
140.7924767099796
 20
124.2397191355658
 30
0.0
 10
140.7935085314592
 20
122.8369195742286
 30
0.0
 10
140.7705441246028
 20
122.3671192302834
 30
0.0
 10
140.6809949983172
 20
121.4378046458764
 30
0.0
 10
140.6145011642497
 20
120.9762629988534
 30
0.0
 10
140.3577378674359
 20
119.5998551728031
 30
0.0
 10
140.1104098084154
 20
118.6931740908311
 30
0.0
 10
139.8106880841936
 20
117.7940089181657
 30
0.0
  0
LINE
  5
187
330
1F
100
AcDbEntity
  8
0
  6
Continuous
 62
     7
370
    25
100
AcDbLine
 10
137.4544818117
 20
117.7940089182
 30
0.0
 11
139.8106880842
 21
117.7940089182
 31
0.0
  0
SPLINE
  5
188
330
1F
100
AcDbEntity
  8
0
  6
Continuous
 62
     7
370
    25
100
AcDbSpline
210
0.0
220
0.0
230
1.0
 70
     8
 71
     3
 72
     8
 73
     4
 74
     0
 42
0.000000001
 43
0.00000001
 40
0.0
 40
0.0
 40
0.0
 40
0.0
 40
1.0
 40
1.0
 40
1.0
 40
1.0
 10
137.3740970539659
 20
118.3339955779596
 30
0.0
 10
137.3998380037992
 20
118.1538465332829
 30
0.0
 10
137.4266595480601
 20
117.9738548574663
 30
0.0
 10
137.4544818116952
 20
117.7940089181657
 30
0.0
  0
SPLINE
  5
189
330
1F
100
AcDbEntity
  8
0
  6
Continuous
 62
     7
370
    25
100
AcDbSpline
210
0.0
220
0.0
230
1.0
 70
     8
 71
     3
 72
     8
 73
     4
 74
     0
 42
0.000000001
 43
0.00000001
 40
0.0
 40
0.0
 40
0.0
 40
0.0
 40
1.0
 40
1.0
 40
1.0
 40
1.0
 10
137.2937122962366
 20
117.7940089181657
 30
0.0
 10
137.3215439692937
 20
117.9739156809261
 30
0.0
 10
137.3483650291597
 20
118.1539089954345
 30
0.0
 10
137.3740970539659
 20
118.3339955779596
 30
0.0
  0
LINE
  5
18A
330
1F
100
AcDbEntity
  8
0
  6
Continuous
 62
     7
370
    25
100
AcDbLine
 10
134.9375060237
 20
117.7940089182
 30
0.0
 11
134.9375060237
 21
128.7940089182
 31
0.0
  0
SPLINE
  5
18B
330
1F
100
AcDbEntity
  8
0
  6
Continuous
 62
     7
370
    25
100
AcDbSpline
210
0.0
220
0.0
230
1.0
 70
    24
 71
     3
 72
    12
 73
     8
 74
     0
 42
0.000000001
 43
0.00000001
 40
0.0
 40
0.0
 40
0.0
 40
0.0
 40
0.2463835164551645
 40
0.4334834883408993
 40
0.6211888230875384
 40
0.8104054478701584
 40
0.9999999999999999
 40
0.9999999999999999
 40
0.9999999999999999
 40
0.9999999999999999
 10
140.7900026188914
 20
128.7940089181657
 30
0.0
 10
140.7787586884463
 20
128.7940089181657
 30
0.0
 10
140.7589762847281
 20
128.7940089181657
 30
0.0
 10
140.6026470808997
 20
128.7940089181657
 30
0.0
 10
140.399611046504
 20
128.7940089181657
 30
0.0
 10
140.1369371749406
 20
128.7940089181658
 30
0.0
 10
139.919510087707
 20
128.7940089181658
 30
0.0
 10
139.8106880841935
 20
128.7940089181658
 30
0.0
  0
SPLINE
  5
18C
330
1F
100
AcDbEntity
  8
0
  6
Continuous
 62
     7
370
    25
100
AcDbSpline
210
0.0
220
0.0
230
1.0
 70
    24
 71
     3
 72
    12
 73
     8
 74
     0
 42
0.000000001
 43
0.00000001
 40
0.0
 40
0.0
 40
0.0
 40
0.0
 40
0.1873679190935504
 40
0.3750656457080209
 40
0.5640487141878238
 40
0.7536135345631048
 40
0.9999999999999999
 40
0.9999999999999999
 40
0.9999999999999999
 40
0.9999999999999999
 10
139.8106880841935
 20
106.7940089181658
 30
0.0
 10
139.9182814491994
 20
106.7940089181658
 30
0.0
 10
140.1336575664936
 20
106.7940089181658
 30
0.0
 10
140.3960373081827
 20
106.7940089181658
 30
0.0
 10
140.6010664525179
 20
106.7940089181657
 30
0.0
 10
140.7583876218968
 20
106.7940089181657
 30
0.0
 10
140.7799998043224
 20
106.7940089181657
 30
0.0
 10
140.7922143553779
 20
106.7940089181657
 30
0.0
  0
SPLINE
  5
18D
330
1F
100
AcDbEntity
  8
0
  6
Continuous
 62
     7
370
    25
100
AcDbSpline
210
0.0
220
0.0
230
1.0
 70
     8
 71
     3
 72
    16
 73
    12
 74
     0
 42
0.000000001
 43
0.00000001
 40
0.0
 40
0.0
 40
0.0
 40
0.0
 40
0.2499999999999998
 40
0.2499999999999998
 40
0.4999999999999997
 40
0.4999999999999997
 40
0.6249999999999997
 40
0.6249999999999997
 40
0.7499999999999997
 40
0.7499999999999997
 40
1.0
 40
1.0
 40
1.0
 40
1.0
 10
139.8106880841938
 20
117.7940089181658
 30
0.0
 10
140.1100366423768
 20
116.8959632436167
 30
0.0
 10
140.3567540692384
 20
115.9913701427081
 30
0.0
 10
140.6985378015947
 20
114.1633182139999
 30
0.0
 10
140.7924767099796
 20
113.2397191355658
 30
0.0
 10
140.7935085314591
 20
111.8369195742286
 30
0.0
 10
140.7705441246028
 20
111.3671192302835
 30
0.0
 10
140.6809949983172
 20
110.4378046458764
 30
0.0
 10
140.6145011642496
 20
109.9762629988534
 30
0.0
 10
140.3577378674358
 20
108.5998551728032
 30
0.0
 10
140.1104098084154
 20
107.6931740908312
 30
0.0
 10
139.8106880841936
 20
106.7940089181658
 30
0.0
  0
LINE
  5
18E
330
1F
100
AcDbEntity
  8
0
  6
Continuous
 62
     7
370
    25
100
AcDbLine
 10
140.9375060237
 20
128.5440089182
 30
0.0
 11
140.9375060237
 21
107.0440089182
 31
0.0
  0
LINE
  5
18F
330
1F
100
AcDbEntity
  8
0
  6
Continuous
 62
     7
370
    25
100
AcDbLine
 10
137.374097054
 20
117.2540222584
 30
0.0
 11
137.374097054
 21
118.333995578
 31
0.0
  0
SPLINE
  5
190
330
1F
100
AcDbEntity
  8
0
  6
Continuous
 62
     7
370
    25
100
AcDbSpline
210
0.0
220
0.0
230
1.0
 70
     8
 71
     3
 72
     8
 73
     4
 74
     0
 42
0.000000001
 43
0.00000001
 40
0.0
 40
0.0
 40
0.0
 40
0.0
 40
1.0
 40
1.0
 40
1.0
 40
1.0
 10
137.3740970539659
 20
117.2540222583718
 30
0.0
 10
137.3483561041326
 20
117.4341713030485
 30
0.0
 10
137.3215345598717
 20
117.6141629788652
 30
0.0
 10
137.2937122962366
 20
117.7940089181657
 30
0.0
  0
SPLINE
  5
191
330
1F
100
AcDbEntity
  8
0
  6
Continuous
 62
     7
370
    25
100
AcDbSpline
210
0.0
220
0.0
230
1.0
 70
     8
 71
     3
 72
     8
 73
     4
 74
     0
 42
0.000000001
 43
0.00000001
 40
0.0
 40
0.0
 40
0.0
 40
0.0
 40
1.0
 40
1.0
 40
1.0
 40
1.0
 10
137.4544818116952
 20
117.7940089181657
 30
0.0
 10
137.4266501386381
 20
117.6141021554053
 30
0.0
 10
137.3998290787721
 20
117.434108840897
 30
0.0
 10
137.3740970539659
 20
117.2540222583718
 30
0.0
  0
LINE
  5
192
330
1F
100
AcDbEntity
  8
0
  6
Continuous
 62
     7
370
    25
100
AcDbLine
 10
134.9375060237
 20
106.7940089182
 30
0.0
 11
137.2937122962
 21
106.7940089182
 31
0.0
  0
LINE
  5
193
330
1F
100
AcDbEntity
  8
0
  6
Continuous
 62
     7
370
    25
100
AcDbLine
 10
137.4544818117
 20
106.7940089182
 30
0.0
 11
139.8106880842
 21
106.7940089182
 31
0.0
  0
SPLINE
  5
194
330
1F
100
AcDbEntity
  8
0
  6
Continuous
 62
     7
370
    25
100
AcDbSpline
210
0.0
220
0.0
230
1.0
 70
     8
 71
     3
 72
     8
 73
     4
 74
     0
 42
0.000000001
 43
0.00000001
 40
0.0
 40
0.0
 40
0.0
 40
0.0
 40
1.0
 40
1.0
 40
1.0
 40
1.0
 10
137.3740970539659
 20
107.3339955779597
 30
0.0
 10
137.3998380037992
 20
107.153846533283
 30
0.0
 10
137.4266595480601
 20
106.9738548574663
 30
0.0
 10
137.4544818116952
 20
106.7940089181658
 30
0.0
  0
SPLINE
  5
195
330
1F
100
AcDbEntity
  8
0
  6
Continuous
 62
     7
370
    25
100
AcDbSpline
210
0.0
220
0.0
230
1.0
 70
     8
 71
     3
 72
     8
 73
     4
 74
     0
 42
0.000000001
 43
0.00000001
 40
0.0
 40
0.0
 40
0.0
 40
0.0
 40
1.0
 40
1.0
 40
1.0
 40
1.0
 10
137.2937122962366
 20
106.7940089181658
 30
0.0
 10
137.3215439692937
 20
106.9739156809262
 30
0.0
 10
137.3483650291597
 20
107.1539089954346
 30
0.0
 10
137.3740970539659
 20
107.3339955779597
 30
0.0
  0
LINE
  5
196
330
1F
100
AcDbEntity
  8
0
  6
Continuous
 62
     7
370
    25
100
AcDbLine
 10
134.9375060237
 20
106.7940089182
 30
0.0
 11
134.9375060237
 21
117.7940089182
 31
0.0
  0
LINE
  5
197
330
1F
100
AcDbEntity
  8
0
  6
Continuous
 62
     7
370
    25
100
AcDbLine
 10
144.9375060237
 20
128.2715089182
 30
0.0
 11
144.9375060237
 21
107.3165089182
 31
0.0
  0
LINE
  5
198
330
1F
100
AcDbEntity
  8
0
  6
Continuous
 62
     7
370
    25
100
AcDbLine
 10
143.4600060237
 20
108.7940089182
 30
0.0
 11
143.4600060237
 21
126.7940089182
 31
0.0
  0
LINE
  5
199
330
1F
100
AcDbEntity
  8
0
  6
Continuous
 62
     7
370
    25
100
AcDbLine
 10
125.0114154574
 20
125.991381088
 30
0.0
 11
125.0114154574
 21
109.5966367484
 31
0.0
  0
LINE
  5
19A
330
1F
100
AcDbEntity
  8
0
  6
Continuous
 62
     7
370
    25
100
AcDbLine
 10
122.9375060237
 20
110.7940089182
 30
0.0
 11
122.9375060237
 21
124.7940089182
 31
0.0
  0
SPLINE
  5
19B
330
1F
100
AcDbEntity
  8
0
  6
Continuous
 62
     7
370
    25
100
AcDbSpline
210
0.0
220
0.0
230
1.0
 70
    24
 71
     3
 72
     8
 73
     4
 74
     0
 42
0.000000001
 43
0.00000001
 40
0.0
 40
0.0
 40
0.0
 40
0.0
 40
1.0
 40
1.0
 40
1.0
 40
1.0
 10
137.3740970539659
 20
106.7940089181658
 30
0.0
 10
137.3483565633963
 20
106.7940089181658
 30
0.0
 10
137.3215350437469
 20
106.7940089181658
 30
0.0
 10
137.2937122962366
 20
106.7940089181658
 30
0.0
  0
LINE
  5
19C
330
1F
100
AcDbEntity
  8
0
  6
Continuous
 62
     7
370
    25
100
AcDbLine
 10
137.374097054
 20
106.7940089182
 30
0.0
 11
137.374097054
 21
107.333995578
 31
0.0
  0
SPLINE
  5
19D
330
1F
100
AcDbEntity
  8
0
  6
Continuous
 62
     7
370
    25
100
AcDbSpline
210
0.0
220
0.0
230
1.0
 70
    24
 71
     3
 72
     8
 73
     4
 74
     0
 42
0.000000001
 43
0.00000001
 40
0.0
 40
0.0
 40
0.0
 40
0.0
 40
1.0
 40
1.0
 40
1.0
 40
1.0
 10
137.4544818116952
 20
106.7940089181658
 30
0.0
 10
137.4266487581394
 20
106.7940089181658
 30
0.0
 10
137.3998277703691
 20
106.7940089181658
 30
0.0
 10
137.3740970539659
 20
106.7940089181658
 30
0.0
  0
SPLINE
  5
19E
330
1F
100
AcDbEntity
  8
0
  6
Continuous
 62
     7
370
    25
100
AcDbSpline
210
0.0
220
0.0
230
1.0
 70
    24
 71
     3
 72
     8
 73
     4
 74
     0
 42
0.000000001
 43
0.00000001
 40
0.0
 40
0.0
 40
0.0
 40
0.0
 40
1.0
 40
1.0
 40
1.0
 40
1.0
 10
137.3740970539659
 20
128.7940089181658
 30
0.0
 10
137.3998375445355
 20
128.7940089181658
 30
0.0
 10
137.4266590641849
 20
128.7940089181658
 30
0.0
 10
137.4544818116952
 20
128.7940089181658
 30
0.0
  0
LINE
  5
19F
330
1F
100
AcDbEntity
  8
0
  6
Continuous
 62
     7
370
    25
100
AcDbLine
 10
137.374097054
 20
128.2540222584
 30
0.0
 11
137.374097054
 21
128.7940089182
 31
0.0
  0
SPLINE
  5
1A0
330
1F
100
AcDbEntity
  8
0
  6
Continuous
 62
     7
370
    25
100
AcDbSpline
210
0.0
220
0.0
230
1.0
 70
    24
 71
     3
 72
     8
 73
     4
 74
     0
 42
0.000000001
 43
0.00000001
 40
0.0
 40
0.0
 40
0.0
 40
0.0
 40
1.0
 40
1.0
 40
1.0
 40
1.0
 10
137.2937122962366
 20
128.7940089181658
 30
0.0
 10
137.3215453497925
 20
128.7940089181658
 30
0.0
 10
137.3483663375628
 20
128.7940089181658
 30
0.0
 10
137.3740970539659
 20
128.7940089181658
 30
0.0
  0
LINE
  5
1A1
330
1F
100
AcDbEntity
  8
0
  6
Continuous
 62
     8
370
    25
100
AcDbLine
 10
186.9508922232
 20
117.7940089182
 30
0.0
 11
186.9508922232
 21
109.8068699656
 31
0.0
  0
LINE
  5
1A2
330
1F
100
AcDbEntity
  8
0
  6
Continuous
 62
     8
370
    25
100
AcDbLine
 10
186.9508922232
 20
125.7811478708
 30
0.0
 11
186.9508922232
 21
117.7940089182
 31
0.0
  0
LINE
  5
1A3
330
1F
100
AcDbEntity
  8
0
  6
Continuous
 62
     8
370
    25
100
AcDbLine
 10
173.4558697111
 20
117.7940089182
 30
0.0
 11
173.4558697111
 21
109.813415568
 31
0.0
  0
LINE
  5
1A4
330
1F
100
AcDbEntity
  8
0
  6
Continuous
 62
     8
370
    25
100
AcDbLine
 10
173.4558697111
 20
125.7746022684
 30
0.0
 11
173.4558697111
 21
117.7940089182
 31
0.0
  0
LINE
  5
1A5
330
1F
100
AcDbEntity
  8
0
  6
Continuous
 62
     8
370
    25
100
AcDbLine
 10
177.9558697111
 20
117.7940089182
 30
0.0
 11
177.9558697111
 21
109.813415568
 31
0.0
  0
LINE
  5
1A6
330
1F
100
AcDbEntity
  8
0
  6
Continuous
 62
     8
370
    25
100
AcDbLine
 10
177.9558697111
 20
125.7746022684
 30
0.0
 11
177.9558697111
 21
117.7940089182
 31
0.0
  0
LINE
  5
1A7
330
1F
100
AcDbEntity
  8
0
  6
Continuous
 62
     8
370
    25
100
AcDbLine
 10
182.4558697111
 20
117.7940089182
 30
0.0
 11
182.4558697111
 21
109.813415568
 31
0.0
  0
LINE
  5
1A8
330
1F
100
AcDbEntity
  8
0
  6
Continuous
 62
     8
370
    25
100
AcDbLine
 10
182.4558697111
 20
125.7746022684
 30
0.0
 11
182.4558697111
 21
117.7940089182
 31
0.0
  0
LINE
  5
1A9
330
1F
100
AcDbEntity
  8
0
  6
Continuous
 62
     7
370
     0
100
AcDbLine
 10
123.6886324255
 20
125.2276719484
 30
0.0
 11
134.4375060237
 21
125.5635742484
 31
0.0
  0
LINE
  5
1AA
330
1F
100
AcDbEntity
  8
0
  6
Continuous
 62
     7
370
     0
100
AcDbLine
 10
123.6886324255
 20
110.3603458879
 30
0.0
 11
134.4375060237
 21
110.024443588
 31
0.0
  0
LINE
  5
1AB
330
1F
100
AcDbEntity
  8
0
  6
Continuous
 62
     7
370
     0
100
AcDbLine
 10
134.4375060237
 20
109.3020714182
 30
0.0
 11
134.4375060237
 21
126.2859464182
 31
0.0
  0
LINE
  5
1AC
330
1F
100
AcDbEntity
  8
0
  6
CENTERX2
 62
     7
370
    18
100
AcDbLine
 10
120.9375060237
 20
117.7940089182
 30
0.0
 11
136.9375060237
 21
117.7940089182
 31
0.0
  0
LINE
  5
1AD
330
1F
100
AcDbEntity
  8
0
  6
CENTERX2
 62
     7
370
    18
100
AcDbLine
 10
195.3394298124
 20
117.7940089182
 30
0.0
 11
138.9375060237
 21
117.7940089182
 31
0.0
  0
ENDSEC
  0
SECTION
  2
OBJECTS
  0
DICTIONARY
  5
C
330
0
100
AcDbDictionary
281
     1
  3
ACAD_GROUP
350
D
  3
ACAD_LAYOUT
350
1A
  3
ACAD_MLINESTYLE
350
17
  3
ACAD_PLOTSETTINGS
350
19
  3
ACAD_PLOTSTYLENAME
350
E
  3
ACAD_SCALELIST
350
47
  0
DICTIONARY
  5
D
102
{ACAD_REACTORS
330
C
102
}
330
C
100
AcDbDictionary
281
     1
  0
DICTIONARY
  5
1A
102
{ACAD_REACTORS
330
C
102
}
330
C
100
AcDbDictionary
281
     1
  3
Layout1
350
1E
  3
Layout2
350
26
  3
Model
350
22
  0
DICTIONARY
  5
17
102
{ACAD_REACTORS
330
C
102
}
330
C
100
AcDbDictionary
281
     1
  3
Standard
350
18
  0
DICTIONARY
  5
19
102
{ACAD_REACTORS
330
C
102
}
330
C
100
AcDbDictionary
281
     1
  0
ACDBDICTIONARYWDFLT
  5
E
102
{ACAD_REACTORS
330
C
102
}
330
C
100
AcDbDictionary
281
     1
  3
Normal
350
F
100
AcDbDictionaryWithDefault
340
F
  0
DICTIONARY
  5
47
102
{ACAD_REACTORS
330
C
102
}
330
C
100
AcDbDictionary
281
     1
  3
A0
350
48
  3
A1
350
49
  3
A2
350
4A
  3
A3
350
4B
  3
A4
350
4C
  3
A5
350
4D
  3
A6
350
4E
  3
A7
350
4F
  3
A8
350
50
  3
A9
350
51
  3
B0
350
52
  3
B1
350
53
  3
B2
350
54
  3
B3
350
55
  3
B4
350
56
  3
B5
350
57
  3
B6
350
58
  3
B7
350
59
  3
B8
350
5A
  3
B9
350
5B
  3
C0
350
5C
  3
C1
350
5D
  3
C2
350
5E
  3
C3
350
5F
  3
C4
350
60
  3
C5
350
61
  3
C6
350
62
  3
C7
350
63
  3
C8
350
64
  3
C9
350
65
  3
D0
350
66
  3
D1
350
67
  3
D2
350
68
  0
LAYOUT
  5
1E
102
{ACAD_REACTORS
330
1A
102
}
330
1A
100
AcDbPlotSettings
  1

  2
none_device
  4

  6

 40
0.0
 41
0.0
 42
0.0
 43
0.0
 44
0.0
 45
0.0
 46
0.0
 47
0.0
 48
0.0
 49
0.0
140
0.0
141
0.0
142
1.0
143
1.0
 70
   688
 72
     1
 73
     0
 74
     5
  7

 75
    16
147
1.0
148
0.0
149
0.0
100
AcDbLayout
  1
Layout1
 70
     1
 71
     1
 10
0.0
 20
0.0
 11
420.0
 21
297.0
 12
0.0
 22
0.0
 32
0.0
 14
1.0000000000E+20
 24
1.0000000000E+20
 34
1.0000000000E+20
 15
-1.0000000000E+20
 25
-1.0000000000E+20
 35
-1.0000000000E+20
146
0.0
 13
0.0
 23
0.0
 33
0.0
 16
1.0
 26
0.0
 36
0.0
 17
0.0
 27
1.0
 37
0.0
 76
     0
330
1B
  0
LAYOUT
  5
26
102
{ACAD_REACTORS
330
1A
102
}
330
1A
100
AcDbPlotSettings
  1

  2
none_device
  4

  6

 40
0.0
 41
0.0
 42
0.0
 43
0.0
 44
0.0
 45
0.0
 46
0.0
 47
0.0
 48
0.0
 49
0.0
140
0.0
141
0.0
142
1.0
143
1.0
 70
   688
 72
     1
 73
     0
 74
     5
  7

 75
    16
147
1.0
148
0.0
149
0.0
100
AcDbLayout
  1
Layout2
 70
     1
 71
     2
 10
0.0
 20
0.0
 11
0.0
 21
0.0
 12
0.0
 22
0.0
 32
0.0
 14
0.0
 24
0.0
 34
0.0
 15
0.0
 25
0.0
 35
0.0
146
0.0
 13
0.0
 23
0.0
 33
0.0
 16
1.0
 26
0.0
 36
0.0
 17
0.0
 27
1.0
 37
0.0
 76
     0
330
23
  0
LAYOUT
  5
22
102
{ACAD_REACTORS
330
1A
102
}
330
1A
100
AcDbPlotSettings
  1

  2
none_device
  4
Letter_(8.50_x_11.00_Inches)
  6

 40
6.35
 41
6.35
 42
6.35000508
 43
6.35000508
 44
215.9
 45
279.4
 46
0.0
 47
0.0
 48
0.0
 49
0.0
140
0.0
141
0.0
142
1.0
143
1.0
 70
  1712
 72
     1
 73
     0
 74
     0
  7

 75
     0
147
1.0
148
0.0
149
0.0
100
AcDbLayout
  1
Model
 70
     1
 71
     0
 10
0.0
 20
0.0
 11
431.8
 21
279.4
 12
0.0
 22
0.0
 32
0.0
 14
0.0
 24
0.0
 34
0.0
 15
431.8
 25
279.4
 35
0.0
146
0.0
 13
0.0
 23
0.0
 33
0.0
 16
1.0
 26
0.0
 36
0.0
 17
0.0
 27
1.0
 37
0.0
 76
     0
330
1F
331
29
  0
MLINESTYLE
  5
18
102
{ACAD_REACTORS
330
17
102
}
330
17
100
AcDbMlineStyle
  2
Standard
 70
     0
  3

 62
   256
 51
90.0
 52
90.0
 71
     2
 49
0.5
 62
   256
  6
BYLAYER
 49
-0.5
 62
   256
  6
BYLAYER
  0
ACDBPLACEHOLDER
  5
F
102
{ACAD_REACTORS
330
E
102
}
330
E
  0
SCALE
  5
48
102
{ACAD_REACTORS
330
47
102
}
330
47
100
AcDbScale
 70
     0
300
1:1
140
1.0
141
1.0
290
     1
  0
SCALE
  5
49
102
{ACAD_REACTORS
330
47
102
}
330
47
100
AcDbScale
 70
     0
300
1:2
140
1.0
141
2.0
290
     0
  0
SCALE
  5
4A
102
{ACAD_REACTORS
330
47
102
}
330
47
100
AcDbScale
 70
     0
300
1:4
140
1.0
141
4.0
290
     0
  0
SCALE
  5
4B
102
{ACAD_REACTORS
330
47
102
}
330
47
100
AcDbScale
 70
     0
300
1:5
140
1.0
141
5.0
290
     0
  0
SCALE
  5
4C
102
{ACAD_REACTORS
330
47
102
}
330
47
100
AcDbScale
 70
     0
300
1:8
140
1.0
141
8.0
290
     0
  0
SCALE
  5
4D
102
{ACAD_REACTORS
330
47
102
}
330
47
100
AcDbScale
 70
     0
300
1:10
140
1.0
141
10.0
290
     0
  0
SCALE
  5
4E
102
{ACAD_REACTORS
330
47
102
}
330
47
100
AcDbScale
 70
     0
300
1:16
140
1.0
141
16.0
290
     0
  0
SCALE
  5
4F
102
{ACAD_REACTORS
330
47
102
}
330
47
100
AcDbScale
 70
     0
300
1:20
140
1.0
141
20.0
290
     0
  0
SCALE
  5
50
102
{ACAD_REACTORS
330
47
102
}
330
47
100
AcDbScale
 70
     0
300
1:30
140
1.0
141
30.0
290
     0
  0
SCALE
  5
51
102
{ACAD_REACTORS
330
47
102
}
330
47
100
AcDbScale
 70
     0
300
1:40
140
1.0
141
40.0
290
     0
  0
SCALE
  5
52
102
{ACAD_REACTORS
330
47
102
}
330
47
100
AcDbScale
 70
     0
300
1:50
140
1.0
141
50.0
290
     0
  0
SCALE
  5
53
102
{ACAD_REACTORS
330
47
102
}
330
47
100
AcDbScale
 70
     0
300
1:100
140
1.0
141
100.0
290
     0
  0
SCALE
  5
54
102
{ACAD_REACTORS
330
47
102
}
330
47
100
AcDbScale
 70
     0
300
2:1
140
2.0
141
1.0
290
     0
  0
SCALE
  5
55
102
{ACAD_REACTORS
330
47
102
}
330
47
100
AcDbScale
 70
     0
300
4:1
140
4.0
141
1.0
290
     0
  0
SCALE
  5
56
102
{ACAD_REACTORS
330
47
102
}
330
47
100
AcDbScale
 70
     0
300
8:1
140
8.0
141
1.0
290
     0
  0
SCALE
  5
57
102
{ACAD_REACTORS
330
47
102
}
330
47
100
AcDbScale
 70
     0
300
10:1
140
10.0
141
1.0
290
     0
  0
SCALE
  5
58
102
{ACAD_REACTORS
330
47
102
}
330
47
100
AcDbScale
 70
     0
300
100:1
140
100.0
141
1.0
290
     0
  0
SCALE
  5
59
102
{ACAD_REACTORS
330
47
102
}
330
47
100
AcDbScale
 70
     0
300
1/128" = 1'-0"
140
0.0078125
141
12.0
290
     0
  0
SCALE
  5
5A
102
{ACAD_REACTORS
330
47
102
}
330
47
100
AcDbScale
 70
     0
300
1/64" = 1'-0"
140
0.015625
141
12.0
290
     0
  0
SCALE
  5
5B
102
{ACAD_REACTORS
330
47
102
}
330
47
100
AcDbScale
 70
     0
300
1/32" = 1'-0"
140
0.03125
141
12.0
290
     0
  0
SCALE
  5
5C
102
{ACAD_REACTORS
330
47
102
}
330
47
100
AcDbScale
 70
     0
300
1/16" = 1'-0"
140
0.0625
141
12.0
290
     0
  0
SCALE
  5
5D
102
{ACAD_REACTORS
330
47
102
}
330
47
100
AcDbScale
 70
     0
300
3/32" = 1'-0"
140
0.09375
141
12.0
290
     0
  0
SCALE
  5
5E
102
{ACAD_REACTORS
330
47
102
}
330
47
100
AcDbScale
 70
     0
300
1/8" = 1'-0"
140
0.125
141
12.0
290
     0
  0
SCALE
  5
5F
102
{ACAD_REACTORS
330
47
102
}
330
47
100
AcDbScale
 70
     0
300
3/16" = 1'-0"
140
0.1875
141
12.0
290
     0
  0
SCALE
  5
60
102
{ACAD_REACTORS
330
47
102
}
330
47
100
AcDbScale
 70
     0
300
1/4" = 1'-0"
140
0.25
141
12.0
290
     0
  0
SCALE
  5
61
102
{ACAD_REACTORS
330
47
102
}
330
47
100
AcDbScale
 70
     0
300
3/8" = 1'-0"
140
0.375
141
12.0
290
     0
  0
SCALE
  5
62
102
{ACAD_REACTORS
330
47
102
}
330
47
100
AcDbScale
 70
     0
300
1/2" = 1'-0"
140
0.5
141
12.0
290
     0
  0
SCALE
  5
63
102
{ACAD_REACTORS
330
47
102
}
330
47
100
AcDbScale
 70
     0
300
3/4" = 1'-0"
140
0.75
141
12.0
290
     0
  0
SCALE
  5
64
102
{ACAD_REACTORS
330
47
102
}
330
47
100
AcDbScale
 70
     0
300
1" = 1'-0"
140
1.0
141
12.0
290
     0
  0
SCALE
  5
65
102
{ACAD_REACTORS
330
47
102
}
330
47
100
AcDbScale
 70
     0
300
1-1/2" = 1'-0"
140
1.5
141
12.0
290
     0
  0
SCALE
  5
66
102
{ACAD_REACTORS
330
47
102
}
330
47
100
AcDbScale
 70
     0
300
3" = 1'-0"
140
3.0
141
12.0
290
     0
  0
SCALE
  5
67
102
{ACAD_REACTORS
330
47
102
}
330
47
100
AcDbScale
 70
     0
300
6" = 1'-0"
140
6.0
141
12.0
290
     0
  0
SCALE
  5
68
102
{ACAD_REACTORS
330
47
102
}
330
47
100
AcDbScale
 70
     0
300
1'-0" = 1'-0"
140
12.0
141
12.0
290
     0
  0
ENDSEC
  0
EOF
