  0
SECTION
  2
HEADER
  9
$ACADVER
  1
AC1015
  9
$ACADMAINTVER
 70
     6
  9
$DWGCODEPAGE
  3
DOS932
  9
$INSBASE
 10
0.0
 20
0.0
 30
0.0
  9
$EXTMIN
 10
0.0
 20
0.0
 30
0.0
  9
$EXTMAX
 10
431.8
 20
279.4
 30
0.0
  9
$LIMMIN
 10
0.0
 20
0.0
  9
$LIMMAX
 10
431.8
 20
279.4
  9
$ORTHOMODE
 70
     0
  9
$REGENMODE
 70
     1
  9
$FILLMODE
 70
     1
  9
$QTEXTMODE
 70
     0
  9
$MIRRTEXT
 70
     1
  9
$LTSCALE
 40
1.0
  9
$ATTMODE
 70
     1
  9
$TEXTSIZE
 40
3.5
  9
$TRACEWID
 40
1.0
  9
$TEXTSTYLE
  7
Standard
  9
$CLAYER
  8
0
  9
$CELTYPE
  6
ByLayer
  9
$CECOLOR
 62
   256
  9
$CELTSCALE
 40
1.0
  9
$DISPSILH
 70
     0
  9
$DIMSCALE
 40
1.0
  9
$DIMASZ
 40
3.302
  9
$DIMEXO
 40
1.0
  9
$DIMDLI
 40
3.75
  9
$DIMRND
 40
0.0
  9
$DIMDLE
 40
0.0
  9
$DIMEXE
 40
1.0
  9
$DIMTP
 40
0.0
  9
$DIMTM
 40
0.0
  9
$DIMTXT
 40
3.5
  9
$DIMCEN
 40
2.5
  9
$DIMTSZ
 40
0.0
  9
$DIMTOL
 70
     0
  9
$DIMLIM
 70
     0
  9
$DIMTIH
 70
     1
  9
$DIMTOH
 70
     1
  9
$DIMSE1
 70
     0
  9
$DIMSE2
 70
     0
  9
$DIMTAD
 70
     1
  9
$DIMZIN
 70
     1
  9
$DIMBLK
  1

  9
$DIMASO
 70
     1
  9
$DIMSHO
 70
     1
  9
$DIMPOST
  1

  9
$DIMAPOST
  1

  9
$DIMALT
 70
     0
  9
$DIMALTD
 70
     3
  9
$DIMALTF
 40
0.0393700787
  9
$DIMLFAC
 40
1.0
  9
$DIMTOFL
 70
     1
  9
$DIMTVP
 40
0.0
  9
$DIMTIX
 70
     0
  9
$DIMSOXD
 70
     0
  9
$DIMSAH
 70
     0
  9
$DIMBLK1
  1

  9
$DIMBLK2
  1

  9
$DIMSTYLE
  2
ISO-25
  9
$DIMCLRD
 70
     0
  9
$DIMCLRE
 70
     0
  9
$DIMCLRT
 70
     0
  9
$DIMTFAC
 40
1.0
  9
$DIMGAP
 40
1.524
  9
$DIMJUST
 70
     0
  9
$DIMSD1
 70
     0
  9
$DIMSD2
 70
     0
  9
$DIMTOLJ
 70
     0
  9
$DIMTZIN
 70
     1
  9
$DIMALTZ
 70
     0
  9
$DIMALTTZ
 70
     0
  9
$DIMUPT
 70
     0
  9
$DIMDEC
 70
     2
  9
$DIMTDEC
 70
     2
  9
$DIMALTU
 70
     2
  9
$DIMALTTD
 70
     3
  9
$DIMTXSTY
  7
Standard
  9
$DIMAUNIT
 70
     0
  9
$DIMADEC
 70
     2
  9
$DIMALTRND
 40
0.0
  9
$DIMAZIN
 70
     0
  9
$DIMDSEP
 70
    44
  9
$DIMATFIT
 70
     3
  9
$DIMFRAC
 70
     0
  9
$DIMLDRBLK
  1

  9
$DIMLUNIT
 70
     2
  9
$DIMLWD
 70
    -2
  9
$DIMLWE
 70
    -2
  9
$DIMTMOVE
 70
     0
  9
$LUNITS
 70
     2
  9
$LUPREC
 70
     2
  9
$SKETCHINC
 40
1.0
  9
$FILLETRAD
 40
10.0
  9
$AUNITS
 70
     0
  9
$AUPREC
 70
     2
  9
$MENU
  1
.
  9
$ELEVATION
 40
0.0
  9
$PELEVATION
 40
0.0
  9
$THICKNESS
 40
0.0
  9
$LIMCHECK
 70
     0
  9
$CHAMFERA
 40
0.0
  9
$CHAMFERB
 40
0.0
  9
$CHAMFERC
 40
0.0
  9
$CHAMFERD
 40
0.0
  9
$SKPOLY
 70
     0
  9
$TDCREATE
 40
2459285.479127361
  9
$TDUCREATE
 40
2459285.104127361
  9
$TDUPDATE
 40
2459285.479127905
  9
$TDUUPDATE
 40
2459285.104127905
  9
$TDINDWG
 40
0.0000000116
  9
$TDUSRTIMER
 40
0.0000000116
  9
$USRTIMER
 70
     1
  9
$ANGBASE
 50
0.0
  9
$ANGDIR
 70
     0
  9
$PDMODE
 70
     0
  9
$PDSIZE
 40
-1.0
  9
$PLINEWID
 40
0.0
  9
$SPLFRAME
 70
     0
  9
$SPLINETYPE
 70
     6
  9
$SPLINESEGS
 70
     8
  9
$HANDSEED
  5
19B
  9
$SURFTAB1
 70
     6
  9
$SURFTAB2
 70
     6
  9
$SURFTYPE
 70
     6
  9
$SURFU
 70
     6
  9
$SURFV
 70
     6
  9
$UCSBASE
  2

  9
$UCSNAME
  2

  9
$UCSORG
 10
0.0
 20
0.0
 30
0.0
  9
$UCSXDIR
 10
1.0
 20
0.0
 30
0.0
  9
$UCSYDIR
 10
0.0
 20
1.0
 30
0.0
  9
$UCSORTHOREF
  2

  9
$UCSORTHOVIEW
 70
     0
  9
$UCSORGTOP
 10
0.0
 20
0.0
 30
0.0
  9
$UCSORGBOTTOM
 10
0.0
 20
0.0
 30
0.0
  9
$UCSORGLEFT
 10
0.0
 20
0.0
 30
0.0
  9
$UCSORGRIGHT
 10
0.0
 20
0.0
 30
0.0
  9
$UCSORGFRONT
 10
0.0
 20
0.0
 30
0.0
  9
$UCSORGBACK
 10
0.0
 20
0.0
 30
0.0
  9
$PUCSBASE
  2

  9
$PUCSNAME
  2

  9
$PUCSORG
 10
0.0
 20
0.0
 30
0.0
  9
$PUCSXDIR
 10
1.0
 20
0.0
 30
0.0
  9
$PUCSYDIR
 10
0.0
 20
1.0
 30
0.0
  9
$PUCSORTHOREF
  2

  9
$PUCSORTHOVIEW
 70
     0
  9
$PUCSORGTOP
 10
0.0
 20
0.0
 30
0.0
  9
$PUCSORGBOTTOM
 10
0.0
 20
0.0
 30
0.0
  9
$PUCSORGLEFT
 10
0.0
 20
0.0
 30
0.0
  9
$PUCSORGRIGHT
 10
0.0
 20
0.0
 30
0.0
  9
$PUCSORGFRONT
 10
0.0
 20
0.0
 30
0.0
  9
$PUCSORGBACK
 10
0.0
 20
0.0
 30
0.0
  9
$USERI1
 70
     0
  9
$USERI2
 70
     0
  9
$USERI3
 70
     0
  9
$USERI4
 70
     0
  9
$USERI5
 70
     0
  9
$USERR1
 40
0.0
  9
$USERR2
 40
0.0
  9
$USERR3
 40
0.0
  9
$USERR4
 40
0.0
  9
$USERR5
 40
0.0
  9
$WORLDVIEW
 70
     1
  9
$SHADEDGE
 70
     3
  9
$SHADEDIF
 70
    70
  9
$TILEMODE
 70
     1
  9
$MAXACTVP
 70
    64
  9
$PINSBASE
 10
0.0
 20
0.0
 30
0.0
  9
$PLIMCHECK
 70
     0
  9
$PEXTMIN
 10
1.0000000000E+20
 20
1.0000000000E+20
 30
1.0000000000E+20
  9
$PEXTMAX
 10
-1.0000000000E+20
 20
-1.0000000000E+20
 30
-1.0000000000E+20
  9
$PLIMMIN
 10
0.0
 20
0.0
  9
$PLIMMAX
 10
420.0
 20
297.0
  9
$UNITMODE
 70
     0
  9
$VISRETAIN
 70
     1
  9
$PLINEGEN
 70
     0
  9
$PSLTSCALE
 70
     1
  9
$TREEDEPTH
 70
  3020
  9
$CMLSTYLE
  2
Standard
  9
$CMLJUST
 70
     0
  9
$CMLSCALE
 40
20.0
  9
$PROXYGRAPHICS
 70
     1
  9
$MEASUREMENT
 70
     1
  9
$CELWEIGHT
370
    -1
  9
$ENDCAPS
280
     0
  9
$JOINSTYLE
280
     0
  9
$LWDISPLAY
290
     1
  9
$INSUNITS
 70
     4
  9
$HYPERLINKBASE
  1

  9
$STYLESHEET
  1

  9
$XEDIT
290
     1
  9
$CEPSNTYPE
380
     0
  9
$PSTYLEMODE
290
     1
  9
$FINGERPRINTGUID
  2
{AE72B5E6-004E-482B-85A8-835166EA178A}
  9
$VERSIONGUID
  2
{FAEB1C32-E019-11D5-929B-00C0DF256EC4}
  9
$EXTNAMES
290
     1
  9
$PSVPSCALE
 40
0.0
  9
$OLESTARTUP
290
     0
  0
ENDSEC
  0
SECTION
  2
CLASSES
  0
CLASS
  1
ACDBDICTIONARYWDFLT
  2
AcDbDictionaryWithDefault
  3
ObjectDBX Classes
 90
        0
280
     0
281
     0
  0
CLASS
  1
VISUALSTYLE
  2
AcDbVisualStyle
  3
ObjectDBX Classes
 90
     4095
280
     0
281
     0
  0
CLASS
  1
MATERIAL
  2
AcDbMaterial
  3
ObjectDBX Classes
 90
     1153
280
     0
281
     0
  0
CLASS
  1
SCALE
  2
AcDbScale
  3
ObjectDBX Classes
 90
     1153
280
     0
281
     0
  0
CLASS
  1
TABLESTYLE
  2
AcDbTableStyle
  3
ObjectDBX Classes
 90
     4095
280
     0
281
     0
  0
CLASS
  1
MLEADERSTYLE
  2
AcDbMLeaderStyle
  3
ACDB_MLEADERSTYLE_CLASS
 90
     4095
280
     0
281
     0
  0
CLASS
  1
SUN
  2
AcDbSun
  3
SCENEOE
 90
     1153
280
     0
281
     0
  0
CLASS
  1
ACDBPLACEHOLDER
  2
AcDbPlaceHolder
  3
ObjectDBX Classes
 90
        0
280
     0
281
     0
  0
CLASS
  1
LAYOUT
  2
AcDbLayout
  3
ObjectDBX Classes
 90
        0
280
     0
281
     0
  0
ENDSEC
  0
SECTION
  2
TABLES
  0
TABLE
  2
VPORT
  5
8
330
0
100
AcDbSymbolTable
 70
     1
  0
VPORT
  5
29
330
8
100
AcDbSymbolTableRecord
100
AcDbViewportTableRecord
  2
*Active
 70
     0
 10
0.0
 20
0.0
 11
1.0
 21
1.0
 12
215.9
 22
139.7
 13
0.0
 23
0.0
 14
10.0
 24
10.0
 15
10.0
 25
10.0
 16
0.0
 26
0.0
 36
1.0
 17
0.0
 27
0.0
 37
0.0
 40
279.4
 41
1.5454545455
 42
50.0
 43
0.0
 44
0.0
 50
0.0
 51
0.0
 71
     0
 72
  2000
 73
     1
 74
     3
 75
     0
 76
     0
 77
     0
 78
     0
281
     0
 65
     1
110
0.0
120
0.0
130
0.0
111
1.0
121
0.0
131
0.0
112
0.0
122
1.0
132
0.0
 79
     0
146
0.0
  0
ENDTAB
  0
TABLE
  2
LTYPE
  5
5
330
0
100
AcDbSymbolTable
 70
     6
  0
LTYPE
  5
14
330
5
100
AcDbSymbolTableRecord
100
AcDbLinetypeTableRecord
  2
ByBlock
 70
     0
  3

 72
    65
 73
     0
 40
0.0
  0
LTYPE
  5
15
330
5
100
AcDbSymbolTableRecord
100
AcDbLinetypeTableRecord
  2
ByLayer
 70
     0
  3

 72
    65
 73
     0
 40
0.0
  0
LTYPE
  5
16
330
5
100
AcDbSymbolTableRecord
100
AcDbLinetypeTableRecord
  2
Continuous
 70
     0
  3
Solid line
 72
    65
 73
     0
 40
0.0
  0
LTYPE
  5
6E
330
5
100
AcDbSymbolTableRecord
100
AcDbLinetypeTableRecord
  2
HIDDEN
 70
     0
  3
Hidden __ __ __ __ __ __ __ __ __ __ __ __ __ __
 72
    65
 73
     2
 40
1.905
 49
1.27
 74
     0
 49
-0.635
 74
     0
  0
LTYPE
  5
6F
330
5
100
AcDbSymbolTableRecord
100
AcDbLinetypeTableRecord
  2
PHANTOM
 70
     0
  3
Phantom ______  __  __  ______  __  __  ______
 72
    65
 73
     6
 40
12.7
 49
6.35
 74
     0
 49
-1.27
 74
     0
 49
1.27
 74
     0
 49
-1.27
 74
     0
 49
1.27
 74
     0
 49
-1.27
 74
     0
  0
LTYPE
  5
70
330
5
100
AcDbSymbolTableRecord
100
AcDbLinetypeTableRecord
  2
CENTER
 70
     0
  3
Center ____ _ ____ _ ____ _ ____ _ ____ _ ____
 72
    65
 73
     4
 40
10.16
 49
6.35
 74
     0
 49
-1.27
 74
     0
 49
1.27
 74
     0
 49
-1.27
 74
     0
  0
LTYPE
  5
71
330
5
100
AcDbSymbolTableRecord
100
AcDbLinetypeTableRecord
  2
CENTERX2
 70
     0
  3
Center (2x) ________  __  ________  __  _____
 72
    65
 73
     4
 40
20.32
 49
12.7
 74
     0
 49
-2.54
 74
     0
 49
2.54
 74
     0
 49
-2.54
 74
     0
  0
LTYPE
  5
72
330
5
100
AcDbSymbolTableRecord
100
AcDbLinetypeTableRecord
  2
DOT2
 70
     0
  3
Dot (.5x) ........................................
 72
    65
 73
     2
 40
0.635
 49
0.0
 74
     0
 49
-0.635
 74
     0
  0
ENDTAB
  0
TABLE
  2
LAYER
  5
2
330
0
100
AcDbSymbolTable
 70
     1
  0
LAYER
  5
10
330
2
100
AcDbSymbolTableRecord
100
AcDbLayerTableRecord
  2
0
 70
     0
 62
     7
  6
Continuous
370
    -3
390
F
  0
ENDTAB
  0
TABLE
  2
STYLE
  5
3
330
0
100
AcDbSymbolTable
 70
     2
  0
STYLE
  5
11
330
3
100
AcDbSymbolTableRecord
100
AcDbTextStyleTableRecord
  2
Standard
 70
     0
 40
0.0
 41
1.0
 50
0.0
 71
     0
 42
3.5
  3
txt
  4
bigfont
  0
STYLE
  5
73
330
3
100
AcDbSymbolTableRecord
100
AcDbTextStyleTableRecord
  2
SLDTEXTSTYLE0
 70
     0
 40
0.0
 41
0.7
 50
0.0
 71
     0
 42
3.5
  3
TXT
  4
bigfont
  0
ENDTAB
  0
TABLE
  2
VIEW
  5
6
330
0
100
AcDbSymbolTable
 70
     0
  0
ENDTAB
  0
TABLE
  2
UCS
  5
7
330
0
100
AcDbSymbolTable
 70
     0
  0
ENDTAB
  0
TABLE
  2
APPID
  5
9
330
0
100
AcDbSymbolTable
 70
     1
  0
APPID
  5
12
330
9
100
AcDbSymbolTableRecord
100
AcDbRegAppTableRecord
  2
ACAD
 70
     0
  0
ENDTAB
  0
TABLE
  2
DIMSTYLE
  5
A
330
0
100
AcDbSymbolTable
 70
     1
100
AcDbDimStyleTable
  0
DIMSTYLE
105
27
330
A
100
AcDbSymbolTableRecord
100
AcDbDimStyleTableRecord
  2
ISO-25
 70
     0
 41
2.5
 42
0.625
 43
3.75
 44
1.25
 73
     0
 74
     0
 77
     1
 78
     8
140
2.5
141
2.5
143
0.0393700787
147
0.625
171
     3
172
     1
178
     0
271
     2
272
     2
274
     3
278
    44
283
     0
284
     8
340
11
  0
ENDTAB
  0
TABLE
  2
BLOCK_RECORD
  5
1
330
0
100
AcDbSymbolTable
 70
     2
  0
BLOCK_RECORD
  5
1F
330
1
100
AcDbSymbolTableRecord
100
AcDbBlockTableRecord
  2
*Model_Space
340
22
  0
BLOCK_RECORD
  5
1B
330
1
100
AcDbSymbolTableRecord
100
AcDbBlockTableRecord
  2
*Paper_Space
340
1E
  0
BLOCK_RECORD
  5
23
330
1
100
AcDbSymbolTableRecord
100
AcDbBlockTableRecord
  2
*Paper_Space0
340
26
  0
BLOCK_RECORD
  5
114
330
1
100
AcDbSymbolTableRecord
100
AcDbBlockTableRecord
  2
SW_CENTERMARKSYMBOL_0
340
0
102
{BLKREFS
331
11F
102
}
  0
ENDTAB
  0
ENDSEC
  0
SECTION
  2
BLOCKS
  0
BLOCK
  5
20
330
1F
100
AcDbEntity
  8
0
100
AcDbBlockBegin
  2
*Model_Space
 70
     0
 10
0.0
 20
0.0
 30
0.0
  3
*Model_Space
  1

  0
ENDBLK
  5
21
330
1F
100
AcDbEntity
  8
0
100
AcDbBlockEnd
  0
BLOCK
  5
1C
330
1B
100
AcDbEntity
 67
     1
  8
0
100
AcDbBlockBegin
  2
*Paper_Space
 70
     0
 10
0.0
 20
0.0
 30
0.0
  3
*Paper_Space
  1

  0
ENDBLK
  5
1D
330
1B
100
AcDbEntity
 67
     1
  8
0
100
AcDbBlockEnd
  0
BLOCK
  5
24
330
23
100
AcDbEntity
  8
0
100
AcDbBlockBegin
  2
*Paper_Space0
 70
     0
 10
0.0
 20
0.0
 30
0.0
  3
*Paper_Space0
  1

  0
ENDBLK
  5
25
330
23
100
AcDbEntity
  8
0
100
AcDbBlockEnd
  0
BLOCK
  5
115
330
114
100
AcDbEntity
  8
0
100
AcDbBlockBegin
  2
SW_CENTERMARKSYMBOL_0
 70
     0
 10
0.0
 20
0.0
 30
0.0
  3
SW_CENTERMARKSYMBOL_0
  1

  0
LINE
  5
117
330
114
100
AcDbEntity
  8
0
  6
Continuous
 62
     0
370
    18
100
AcDbLine
 10
0.0
 20
0.0
 30
0.0
 11
0.0
 21
2.5
 31
0.0
  0
LINE
  5
118
330
114
100
AcDbEntity
  8
0
  6
Continuous
 62
     0
370
    18
100
AcDbLine
 10
0.0
 20
0.0
 30
0.0
 11
-2.5
 21
0.0
 31
0.0
  0
LINE
  5
119
330
114
100
AcDbEntity
  8
0
  6
Continuous
 62
     0
370
    18
100
AcDbLine
 10
0.0
 20
0.0
 30
0.0
 11
0.0
 21
-2.5
 31
0.0
  0
LINE
  5
11A
330
114
100
AcDbEntity
  8
0
  6
Continuous
 62
     0
370
    18
100
AcDbLine
 10
0.0
 20
0.0
 30
0.0
 11
2.5
 21
0.0
 31
0.0
  0
LINE
  5
11B
330
114
100
AcDbEntity
  8
0
  6
Continuous
 62
     0
370
    18
100
AcDbLine
 10
0.0
 20
5.0
 30
0.0
 11
0.0
 21
11.85
 31
0.0
  0
LINE
  5
11C
330
114
100
AcDbEntity
  8
0
  6
Continuous
 62
     0
370
    18
100
AcDbLine
 10
-5.0
 20
0.0
 30
0.0
 11
-11.85
 21
0.0
 31
0.0
  0
LINE
  5
11D
330
114
100
AcDbEntity
  8
0
  6
Continuous
 62
     0
370
    18
100
AcDbLine
 10
0.0
 20
-5.0
 30
0.0
 11
0.0
 21
-11.85
 31
0.0
  0
LINE
  5
11E
330
114
100
AcDbEntity
  8
0
  6
Continuous
 62
     0
370
    18
100
AcDbLine
 10
5.0
 20
0.0
 30
0.0
 11
11.85
 21
0.0
 31
0.0
  0
ENDBLK
  5
116
330
114
100
AcDbEntity
  8
0
100
AcDbBlockEnd
  0
ENDSEC
  0
SECTION
  2
ENTITIES
  0
MTEXT
  5
74
330
1F
100
AcDbEntity
  8
0
  6
Continuous
 62
     7
370
     0
100
AcDbMText
 10
194.7332270984
 20
100.2279865632
 30
0.0
 40
4.7625
 41
0.0
 71
     1
 72
     1
  1
HS-1310R
  7
SLDTEXTSTYLE0
 73
     1
 44
1.0
  0
LINE
  5
75
330
1F
100
AcDbEntity
  8
0
  6
Continuous
 62
     7
370
    25
100
AcDbLine
 10
163.4325409013
 20
69.795765112
 30
0.0
 11
167.9325409013
 21
69.795765112
 31
0.0
  0
LINE
  5
76
330
1F
100
AcDbEntity
  8
0
  6
Continuous
 62
     7
370
    25
100
AcDbLine
 10
167.9325409013
 20
80.295765112
 30
0.0
 11
163.4325409013
 21
80.295765112
 31
0.0
  0
LINE
  5
77
330
1F
100
AcDbEntity
  8
0
  6
Continuous
 62
     7
370
    25
100
AcDbLine
 10
167.9325409013
 20
69.795765112
 30
0.0
 11
171.9325409013
 21
70.545765112
 31
0.0
  0
LINE
  5
78
330
1F
100
AcDbEntity
  8
0
  6
Continuous
 62
     7
370
    25
100
AcDbLine
 10
171.9325409013
 20
79.545765112
 30
0.0
 11
167.9325409013
 21
80.295765112
 31
0.0
  0
LINE
  5
79
330
1F
100
AcDbEntity
  8
0
  6
Continuous
 62
     7
370
    25
100
AcDbLine
 10
171.9325409013
 20
69.795765112
 30
0.0
 11
175.9325409013
 21
70.545765112
 31
0.0
  0
LINE
  5
7A
330
1F
100
AcDbEntity
  8
0
  6
Continuous
 62
     7
370
    25
100
AcDbLine
 10
175.9325409013
 20
79.545765112
 30
0.0
 11
171.9325409013
 21
80.295765112
 31
0.0
  0
LINE
  5
7B
330
1F
100
AcDbEntity
  8
0
  6
Continuous
 62
     7
370
    25
100
AcDbLine
 10
175.9325409013
 20
69.795765112
 30
0.0
 11
179.9325409013
 21
70.545765112
 31
0.0
  0
LINE
  5
7C
330
1F
100
AcDbEntity
  8
0
  6
Continuous
 62
     7
370
    25
100
AcDbLine
 10
179.9325409013
 20
79.545765112
 30
0.0
 11
175.9325409013
 21
80.295765112
 31
0.0
  0
LINE
  5
7D
330
1F
100
AcDbEntity
  8
0
  6
Continuous
 62
     7
370
    25
100
AcDbLine
 10
183.9325409013
 20
69.795765112
 30
0.0
 11
189.4753980441
 21
70.4886222549
 31
0.0
  0
LINE
  5
7E
330
1F
100
AcDbEntity
  8
0
  6
Continuous
 62
     7
370
    25
100
AcDbLine
 10
189.4753980441
 20
79.6029079692
 30
0.0
 11
183.9325409013
 21
80.295765112
 31
0.0
  0
LINE
  5
7F
330
1F
100
AcDbEntity
  8
0
  6
Continuous
 62
     7
370
    25
100
AcDbLine
 10
179.9325409013
 20
69.795765112
 30
0.0
 11
183.9325409013
 21
70.545765112
 31
0.0
  0
LINE
  5
80
330
1F
100
AcDbEntity
  8
0
  6
Continuous
 62
     7
370
    25
100
AcDbLine
 10
183.9325409013
 20
79.545765112
 30
0.0
 11
179.9325409013
 21
80.295765112
 31
0.0
  0
LINE
  5
81
330
1F
100
AcDbEntity
  8
0
  6
Continuous
 62
     7
370
    25
100
AcDbLine
 10
189.4753980441
 20
70.4886222549
 30
0.0
 11
189.9325409013
 21
70.945765112
 31
0.0
  0
LINE
  5
82
330
1F
100
AcDbEntity
  8
0
  6
Continuous
 62
     7
370
    25
100
AcDbLine
 10
189.9325409013
 20
79.145765112
 30
0.0
 11
189.4753980441
 21
79.6029079692
 31
0.0
  0
LINE
  5
83
330
1F
100
AcDbEntity
  8
0
  6
Continuous
 62
     7
370
    25
100
AcDbLine
 10
160.4974325849
 20
64.0761099974
 30
0.0
 11
161.4325409013
 21
65.695765112
 31
0.0
  0
LINE
  5
84
330
1F
100
AcDbEntity
  8
0
  6
Continuous
 62
     7
370
    25
100
AcDbLine
 10
161.4325409013
 20
84.395765112
 30
0.0
 11
160.4974325849
 21
86.0154202266
 31
0.0
  0
LINE
  5
85
330
1F
100
AcDbEntity
  8
0
  6
Continuous
 62
     7
370
    25
100
AcDbLine
 10
152.3676492177
 20
86.0154202266
 30
0.0
 11
151.4325409013
 21
84.395765112
 31
0.0
  0
LINE
  5
86
330
1F
100
AcDbEntity
  8
0
  6
Continuous
 62
     7
370
    25
100
AcDbLine
 10
151.4325409013
 20
65.695765112
 30
0.0
 11
152.3676492177
 21
64.0761099974
 31
0.0
  0
ARC
  5
87
330
1F
100
AcDbEntity
  8
0
  6
Continuous
 62
     7
370
    25
100
AcDbCircle
 10
163.1325409013
 20
84.095765112
 30
0.0
 40
0.3000000000000114
100
AcDbArc
 50
0.0
 51
90.0
  0
ARC
  5
88
330
1F
100
AcDbEntity
  8
0
  6
Continuous
 62
     7
370
    25
100
AcDbCircle
 10
163.1325409013
 20
65.995765112
 30
0.0
 40
0.3000000000000114
100
AcDbArc
 50
270.0
 51
0.0
  0
LINE
  5
89
330
1F
100
AcDbEntity
  8
0
  6
Continuous
 62
     7
370
    25
100
AcDbLine
 10
161.4325409013
 20
65.695765112
 30
0.0
 11
163.1325409013
 21
65.695765112
 31
0.0
  0
LINE
  5
8A
330
1F
100
AcDbEntity
  8
0
  6
Continuous
 62
     7
370
    25
100
AcDbLine
 10
163.1325409013
 20
84.395765112
 30
0.0
 11
161.4325409013
 21
84.395765112
 31
0.0
  0
LINE
  5
8B
330
1F
100
AcDbEntity
  8
0
  6
Continuous
 62
     7
370
    25
100
AcDbLine
 10
151.4325409013
 20
84.395765112
 30
0.0
 11
149.7325409013
 21
84.395765112
 31
0.0
  0
LINE
  5
8C
330
1F
100
AcDbEntity
  8
0
  6
Continuous
 62
     7
370
    25
100
AcDbLine
 10
149.7325409013
 20
65.695765112
 30
0.0
 11
151.4325409013
 21
65.695765112
 31
0.0
  0
ARC
  5
8D
330
1F
100
AcDbEntity
  8
0
  6
Continuous
 62
     7
370
    25
100
AcDbCircle
 10
149.7325409013
 20
65.995765112
 30
0.0
 40
0.2999999999999972
100
AcDbArc
 50
180.0
 51
270.0
  0
ARC
  5
8E
330
1F
100
AcDbEntity
  8
0
  6
Continuous
 62
     7
370
    25
100
AcDbCircle
 10
149.7325409013
 20
84.095765112
 30
0.0
 40
0.2999999999999829
100
AcDbArc
 50
90.0
 51
180.0
  0
LINE
  5
8F
330
1F
100
AcDbEntity
  8
0
  6
Continuous
 62
     7
370
    25
100
AcDbLine
 10
156.5887110165
 20
86.0154202266
 30
0.0
 11
156.4325409013
 21
85.7154202266
 31
0.0
  0
LINE
  5
90
330
1F
100
AcDbEntity
  8
0
  6
Continuous
 62
     7
370
    25
100
AcDbLine
 10
156.4325409013
 20
85.7154202266
 30
0.0
 11
156.2763707861
 21
86.0154202266
 31
0.0
  0
LINE
  5
91
330
1F
100
AcDbEntity
  8
0
  6
Continuous
 62
     7
370
    25
100
AcDbLine
 10
156.4325409013
 20
64.3761099974
 30
0.0
 11
156.5887110165
 21
64.0761099974
 31
0.0
  0
LINE
  5
92
330
1F
100
AcDbEntity
  8
0
  6
Continuous
 62
     7
370
    25
100
AcDbLine
 10
156.2763707861
 20
64.0761099974
 30
0.0
 11
156.4325409013
 21
64.3761099974
 31
0.0
  0
LINE
  5
93
330
1F
100
AcDbEntity
  8
0
  6
Continuous
 62
     7
370
    25
100
AcDbLine
 10
140.7038221934
 20
83.552827612
 30
0.0
 11
130.7768160443
 21
83.2426086699
 31
0.0
  0
LINE
  5
94
330
1F
100
AcDbEntity
  8
0
  6
Continuous
 62
     7
370
    25
100
AcDbLine
 10
130.7768160443
 20
66.8489215542
 30
0.0
 11
140.7038221934
 21
66.538702612
 31
0.0
  0
LINE
  5
95
330
1F
100
AcDbEntity
  8
0
  6
Continuous
 62
     7
370
    25
100
AcDbLine
 10
144.8002952475
 20
65.2308105358
 30
0.0
 11
145.7038221934
 21
66.795765112
 31
0.0
  0
LINE
  5
96
330
1F
100
AcDbEntity
  8
0
  6
Continuous
 62
     7
370
    25
100
AcDbLine
 10
145.7038221934
 20
83.295765112
 30
0.0
 11
144.8002952475
 21
84.8607196883
 31
0.0
  0
LINE
  5
97
330
1F
100
AcDbEntity
  8
0
  6
Continuous
 62
     7
370
    25
100
AcDbLine
 10
149.2038221934
 20
66.714765112
 30
0.0
 11
149.4325409013
 21
66.714765112
 31
0.0
  0
LINE
  5
98
330
1F
100
AcDbEntity
  8
0
  6
Continuous
 62
     7
370
    25
100
AcDbLine
 10
149.4325409013
 20
83.376765112
 30
0.0
 11
149.2038221934
 21
83.376765112
 31
0.0
  0
LINE
  5
99
330
1F
100
AcDbEntity
  8
0
  6
Continuous
 62
     7
370
    25
100
AcDbLine
 10
149.2038221934
 20
83.376765112
 30
0.0
 11
148.2038221934
 21
82.376765112
 31
0.0
  0
LINE
  5
9A
330
1F
100
AcDbEntity
  8
0
  6
Continuous
 62
     7
370
    25
100
AcDbLine
 10
148.2038221934
 20
67.714765112
 30
0.0
 11
149.2038221934
 21
66.714765112
 31
0.0
  0
LINE
  5
9B
330
1F
100
AcDbEntity
  8
0
  6
Continuous
 62
     7
370
    25
100
AcDbLine
 10
130.7768160443
 20
83.2426086699
 30
0.0
 11
128.7038221934
 21
82.045765112
 31
0.0
  0
LINE
  5
9C
330
1F
100
AcDbEntity
  8
0
  6
Continuous
 62
     7
370
    25
100
AcDbLine
 10
128.7038221934
 20
68.045765112
 30
0.0
 11
130.7768160443
 21
66.8489215542
 31
0.0
  0
LINE
  5
9D
330
1F
100
AcDbEntity
  8
0
  6
Continuous
 62
     7
370
    25
100
AcDbLine
 10
145.7038221934
 20
68.095765112
 30
0.0
 11
148.2038221934
 21
68.095765112
 31
0.0
  0
LINE
  5
9E
330
1F
100
AcDbEntity
  8
0
  6
Continuous
 62
     7
370
    25
100
AcDbLine
 10
148.2038221934
 20
81.995765112
 30
0.0
 11
145.7038221934
 21
81.995765112
 31
0.0
  0
LINE
  5
9F
330
1F
100
AcDbEntity
  8
0
  6
Continuous
 62
     7
370
    25
100
AcDbLine
 10
143.2038221934
 20
65.4308105358
 30
0.0
 11
143.2574120319
 21
65.2308105358
 31
0.0
  0
LINE
  5
A0
330
1F
100
AcDbEntity
  8
0
  6
Continuous
 62
     7
370
    25
100
AcDbLine
 10
143.1502323549
 20
65.2308105358
 30
0.0
 11
143.2038221934
 21
65.4308105358
 31
0.0
  0
LINE
  5
A1
330
1F
100
AcDbEntity
  8
0
  6
Continuous
 62
     7
370
    25
100
AcDbLine
 10
143.2038221934
 20
84.6607196883
 30
0.0
 11
143.1502323549
 21
84.8607196883
 31
0.0
  0
LINE
  5
A2
330
1F
100
AcDbEntity
  8
0
  6
Continuous
 62
     7
370
    25
100
AcDbLine
 10
143.2574120319
 20
84.8607196883
 30
0.0
 11
143.2038221934
 21
84.6607196883
 31
0.0
  0
LINE
  5
A3
330
1F
100
AcDbEntity
  8
0
  6
Continuous
 62
     7
370
    25
100
AcDbLine
 10
167.9325409013
 20
75.045765112
 30
0.0
 11
167.9325409013
 21
80.295765112
 31
0.0
  0
LINE
  5
A4
330
1F
100
AcDbEntity
  8
0
  6
Continuous
 62
     7
370
    25
100
AcDbLine
 10
167.9325409013
 20
69.795765112
 30
0.0
 11
167.9325409013
 21
75.045765112
 31
0.0
  0
LINE
  5
A5
330
1F
100
AcDbEntity
  8
0
  6
Continuous
 62
     7
370
    25
100
AcDbLine
 10
171.9325409013
 20
75.045765112
 30
0.0
 11
171.9325409013
 21
80.295765112
 31
0.0
  0
LINE
  5
A6
330
1F
100
AcDbEntity
  8
0
  6
Continuous
 62
     7
370
    25
100
AcDbLine
 10
171.9325409013
 20
69.795765112
 30
0.0
 11
171.9325409013
 21
75.045765112
 31
0.0
  0
LINE
  5
A7
330
1F
100
AcDbEntity
  8
0
  6
Continuous
 62
     7
370
    25
100
AcDbLine
 10
175.9325409013
 20
75.045765112
 30
0.0
 11
175.9325409013
 21
80.295765112
 31
0.0
  0
LINE
  5
A8
330
1F
100
AcDbEntity
  8
0
  6
Continuous
 62
     7
370
    25
100
AcDbLine
 10
175.9325409013
 20
69.795765112
 30
0.0
 11
175.9325409013
 21
75.045765112
 31
0.0
  0
LINE
  5
A9
330
1F
100
AcDbEntity
  8
0
  6
Continuous
 62
     7
370
    25
100
AcDbLine
 10
183.9325409013
 20
75.045765112
 30
0.0
 11
183.9325409013
 21
80.295765112
 31
0.0
  0
LINE
  5
AA
330
1F
100
AcDbEntity
  8
0
  6
Continuous
 62
     7
370
    25
100
AcDbLine
 10
183.9325409013
 20
69.795765112
 30
0.0
 11
183.9325409013
 21
75.045765112
 31
0.0
  0
LINE
  5
AB
330
1F
100
AcDbEntity
  8
0
  6
Continuous
 62
     7
370
    25
100
AcDbLine
 10
189.4753980441
 20
70.4886222549
 30
0.0
 11
189.4753980441
 21
79.6029079692
 31
0.0
  0
LINE
  5
AC
330
1F
100
AcDbEntity
  8
0
  6
Continuous
 62
     7
370
    25
100
AcDbLine
 10
179.9325409013
 20
75.045765112
 30
0.0
 11
179.9325409013
 21
80.295765112
 31
0.0
  0
LINE
  5
AD
330
1F
100
AcDbEntity
  8
0
  6
Continuous
 62
     7
370
    25
100
AcDbLine
 10
179.9325409013
 20
69.795765112
 30
0.0
 11
179.9325409013
 21
75.045765112
 31
0.0
  0
LINE
  5
AE
330
1F
100
AcDbEntity
  8
0
  6
Continuous
 62
     7
370
    25
100
AcDbLine
 10
189.9325409013
 20
79.145765112
 30
0.0
 11
189.9325409013
 21
70.945765112
 31
0.0
  0
LINE
  5
AF
330
1F
100
AcDbEntity
  8
0
  6
Continuous
 62
     7
370
    25
100
AcDbLine
 10
156.4325409013
 20
79.9028774501
 30
0.0
 11
156.2763707861
 21
80.5305926693
 31
0.0
  0
LINE
  5
B0
330
1F
100
AcDbEntity
  8
0
  6
Continuous
 62
     7
370
    25
100
AcDbLine
 10
156.2763707861
 20
80.5305926693
 30
0.0
 11
156.4325409013
 21
80.8444502789
 31
0.0
  0
LINE
  5
B1
330
1F
100
AcDbEntity
  8
0
  6
Continuous
 62
     7
370
    25
100
AcDbLine
 10
156.4325409013
 20
80.8444502789
 30
0.0
 11
156.4325409013
 21
79.9028774501
 31
0.0
  0
SPLINE
  5
B2
330
1F
100
AcDbEntity
  8
0
  6
Continuous
 62
     7
370
    25
100
AcDbSpline
210
0.0
220
0.0
230
1.0
 70
     8
 71
     3
 72
    15
 73
    11
 74
     0
 42
0.000000001
 43
0.00000001
 40
0.0
 40
0.0
 40
0.0
 40
0.0
 40
0.1323056949471118
 40
0.2645739819647156
 40
0.3998011884071378
 40
0.5350039926534309
 40
0.6501943985256686
 40
0.7654027729264457
 40
0.8826900467077625
 40
1.0
 40
1.0
 40
1.0
 40
1.0
 10
160.4974325848771
 20
80.53059266932831
 30
0.0
 10
160.6265994453107
 20
80.76755986415988
 30
0.0
 10
160.8848966457182
 20
81.24142725404552
 30
0.0
 10
161.1628141548531
 20
81.97114118002372
 30
0.0
 10
161.329917484408
 20
82.71461039268063
 30
0.0
 10
161.3630097781011
 20
83.43114682519082
 30
0.0
 10
161.2771491668613
 20
84.10897071574736
 30
0.0
 10
161.1012207134636
 20
84.7486678323751
 30
0.0
 10
160.8431539492839
 20
85.38547266658945
 30
0.0
 10
160.6126804666297
 20
85.80542417378403
 30
0.0
 10
160.4974325848771
 20
86.01542022662977
 30
0.0
  0
SPLINE
  5
B3
330
1F
100
AcDbEntity
  8
0
  6
Continuous
 62
     7
370
    25
100
AcDbSpline
210
0.0
220
0.0
230
1.0
 70
     8
 71
     3
 72
    15
 73
    11
 74
     0
 42
0.000000001
 43
0.00000001
 40
0.0
 40
0.0
 40
0.0
 40
0.0
 40
0.132305694947112
 40
0.2645739819647156
 40
0.3998011884071376
 40
0.5350039926534307
 40
0.6501943985256685
 40
0.7654027729264457
 40
0.8826900467077625
 40
1.0
 40
1.0
 40
1.0
 40
1.0
 10
160.4974325848771
 20
64.07610999742398
 30
0.0
 10
160.6265994453107
 20
64.31307719225555
 30
0.0
 10
160.8848966457182
 20
64.7869445821412
 30
0.0
 10
161.1628141548531
 20
65.51665850811938
 30
0.0
 10
161.329917484408
 20
66.2601277207763
 30
0.0
 10
161.3630097781011
 20
66.97666415328649
 30
0.0
 10
161.2771491668613
 20
67.65448804384302
 30
0.0
 10
161.1012207134636
 20
68.29418516047078
 30
0.0
 10
160.8431539492839
 20
68.9309899946851
 30
0.0
 10
160.6126804666297
 20
69.35094150187969
 30
0.0
 10
160.4974325848771
 20
69.56093755472543
 30
0.0
  0
SPLINE
  5
B4
330
1F
100
AcDbEntity
  8
0
  6
Continuous
 62
     7
370
    25
100
AcDbSpline
210
0.0
220
0.0
230
1.0
 70
     8
 71
     3
 72
    16
 73
    12
 74
     0
 42
0.000000001
 43
0.00000001
 40
0.0
 40
0.0
 40
0.0
 40
0.0
 40
0.1187721435844975
 40
0.2441491713813144
 40
0.3694941462363442
 40
0.4979334251312963
 40
0.6263722645127593
 40
0.7192884549559209
 40
0.8122141015734954
 40
0.9061025727606725
 40
1.0
 40
1.0
 40
1.0
 40
1.0
 10
160.4974325848771
 20
69.56093755472543
 30
0.0
 10
160.6140824271048
 20
69.98619539342675
 30
0.0
 10
160.8538689752138
 20
70.8603595350251
 30
0.0
 10
161.1219910521621
 20
72.20672622831356
 30
0.0
 10
161.3032052594516
 20
73.60368355789235
 30
0.0
 10
161.3657539603741
 20
75.02289407361418
 30
0.0
 10
161.3118822805951
 20
76.32180136330439
 30
0.0
 10
161.1781609210717
 20
77.48134154587271
 30
0.0
 10
161.0019884869403
 20
78.50502679219835
 30
0.0
 10
160.7768312721785
 20
79.52290052130557
 30
0.0
 10
160.5905684417818
 20
80.19468460687929
 30
0.0
 10
160.4974325848771
 20
80.53059266932831
 30
0.0
  0
LINE
  5
B5
330
1F
100
AcDbEntity
  8
0
  6
Continuous
 62
     7
370
    25
100
AcDbLine
 10
161.4325409013
 20
65.695765112
 30
0.0
 11
161.4325409013
 21
84.395765112
 31
0.0
  0
LINE
  5
B6
330
1F
100
AcDbEntity
  8
0
  6
Continuous
 62
     7
370
    25
100
AcDbLine
 10
160.4974325849
 20
80.5305926693
 30
0.0
 11
156.5887110165
 21
80.5305926693
 31
0.0
  0
LINE
  5
B7
330
1F
100
AcDbEntity
  8
0
  6
Continuous
 62
     7
370
    25
100
AcDbLine
 10
160.4974325849
 20
69.5609375547
 30
0.0
 11
156.5887110165
 21
69.5609375547
 31
0.0
  0
LINE
  5
B8
330
1F
100
AcDbEntity
  8
0
  6
Continuous
 62
     7
370
    25
100
AcDbLine
 10
156.4325409013
 20
70.188652774
 30
0.0
 11
156.5887110165
 21
69.5609375547
 31
0.0
  0
LINE
  5
B9
330
1F
100
AcDbEntity
  8
0
  6
Continuous
 62
     7
370
    25
100
AcDbLine
 10
156.2763707861
 20
69.5609375547
 30
0.0
 11
156.4325409013
 21
70.188652774
 31
0.0
  0
LINE
  5
BA
330
1F
100
AcDbEntity
  8
0
  6
Continuous
 62
     7
370
    25
100
AcDbLine
 10
156.2763707861
 20
69.5609375547
 30
0.0
 11
152.3676492177
 21
69.5609375547
 31
0.0
  0
SPLINE
  5
BB
330
1F
100
AcDbEntity
  8
0
  6
Continuous
 62
     7
370
    25
100
AcDbSpline
210
0.0
220
0.0
230
1.0
 70
     8
 71
     3
 72
    16
 73
    12
 74
     0
 42
0.000000001
 43
0.00000001
 40
0.0
 40
0.0
 40
0.0
 40
0.0
 40
0.1187721435844975
 40
0.2441491713813143
 40
0.3694941462363441
 40
0.4979334251312962
 40
0.6263722645127592
 40
0.7192884549559208
 40
0.8122141015734952
 40
0.9061025727606724
 40
1.0
 40
1.0
 40
1.0
 40
1.0
 10
152.3676492176978
 20
69.56093755472543
 30
0.0
 10
152.2509993754701
 20
69.98619539342675
 30
0.0
 10
152.011212827361
 20
70.8603595350251
 30
0.0
 10
151.7430907504128
 20
72.20672622831356
 30
0.0
 10
151.5618765431232
 20
73.60368355789235
 30
0.0
 10
151.4993278422008
 20
75.02289407361418
 30
0.0
 10
151.5531995219798
 20
76.32180136330439
 30
0.0
 10
151.6869208815032
 20
77.48134154587271
 30
0.0
 10
151.8630933156346
 20
78.50502679219835
 30
0.0
 10
152.0882505303964
 20
79.52290052130557
 30
0.0
 10
152.2745133607931
 20
80.19468460687929
 30
0.0
 10
152.3676492176978
 20
80.53059266932831
 30
0.0
  0
LINE
  5
BC
330
1F
100
AcDbEntity
  8
0
  6
Continuous
 62
     7
370
    25
100
AcDbLine
 10
156.2763707861
 20
80.5305926693
 30
0.0
 11
152.3676492177
 21
80.5305926693
 31
0.0
  0
LINE
  5
BD
330
1F
100
AcDbEntity
  8
0
  6
Continuous
 62
     7
370
    25
100
AcDbLine
 10
156.5887110165
 20
80.5305926693
 30
0.0
 11
156.4325409013
 21
79.9028774501
 31
0.0
  0
LINE
  5
BE
330
1F
100
AcDbEntity
  8
0
  6
Continuous
 62
     7
370
    25
100
AcDbLine
 10
160.4974325849
 20
86.0154202266
 30
0.0
 11
156.5887110165
 21
86.0154202266
 31
0.0
  0
LINE
  5
BF
330
1F
100
AcDbEntity
  8
0
  6
Continuous
 62
     7
370
    25
100
AcDbLine
 10
156.4325409013
 20
80.8444502789
 30
0.0
 11
156.5887110165
 21
80.5305926693
 31
0.0
  0
SPLINE
  5
C0
330
1F
100
AcDbEntity
  8
0
  6
Continuous
 62
     7
370
    25
100
AcDbSpline
210
0.0
220
0.0
230
1.0
 70
     8
 71
     3
 72
    15
 73
    11
 74
     0
 42
0.000000001
 43
0.00000001
 40
0.0
 40
0.0
 40
0.0
 40
0.0
 40
0.1323056949471119
 40
0.2645739819647155
 40
0.3998011884071378
 40
0.5350039926534309
 40
0.6501943985256687
 40
0.7654027729264458
 40
0.8826900467077626
 40
1.0
 40
1.0
 40
1.0
 40
1.0
 10
152.3676492176978
 20
80.53059266932831
 30
0.0
 10
152.2384823572642
 20
80.76755986415988
 30
0.0
 10
151.9801851568567
 20
81.24142725404552
 30
0.0
 10
151.7022676477218
 20
81.97114118002371
 30
0.0
 10
151.5351643181668
 20
82.71461039268063
 30
0.0
 10
151.5020720244737
 20
83.43114682519082
 30
0.0
 10
151.5879326357136
 20
84.10897071574736
 30
0.0
 10
151.7638610891113
 20
84.74866783237512
 30
0.0
 10
152.021927853291
 20
85.38547266658945
 30
0.0
 10
152.2524013359452
 20
85.80542417378403
 30
0.0
 10
152.3676492176978
 20
86.01542022662977
 30
0.0
  0
LINE
  5
C1
330
1F
100
AcDbEntity
  8
0
  6
Continuous
 62
     7
370
    25
100
AcDbLine
 10
156.2763707861
 20
86.0154202266
 30
0.0
 11
152.3676492177
 21
86.0154202266
 31
0.0
  0
LINE
  5
C2
330
1F
100
AcDbEntity
  8
0
  6
Continuous
 62
     7
370
    25
100
AcDbLine
 10
156.4325409013
 20
85.701562617
 30
0.0
 11
156.2763707861
 21
86.0154202266
 31
0.0
  0
LINE
  5
C3
330
1F
100
AcDbEntity
  8
0
  6
Continuous
 62
     7
370
    25
100
AcDbLine
 10
156.5887110165
 20
86.0154202266
 30
0.0
 11
156.4325409013
 21
85.701562617
 31
0.0
  0
SPLINE
  5
C4
330
1F
100
AcDbEntity
  8
0
  6
Continuous
 62
     7
370
    25
100
AcDbSpline
210
0.0
220
0.0
230
1.0
 70
     8
 71
     3
 72
    15
 73
    11
 74
     0
 42
0.000000001
 43
0.00000001
 40
0.0
 40
0.0
 40
0.0
 40
0.0
 40
0.1323056949471119
 40
0.2645739819647155
 40
0.3998011884071376
 40
0.5350039926534307
 40
0.6501943985256685
 40
0.7654027729264455
 40
0.8826900467077625
 40
1.0
 40
1.0
 40
1.0
 40
1.0
 10
152.3676492176978
 20
64.07610999742398
 30
0.0
 10
152.2384823572642
 20
64.31307719225555
 30
0.0
 10
151.9801851568567
 20
64.7869445821412
 30
0.0
 10
151.7022676477218
 20
65.51665850811939
 30
0.0
 10
151.5351643181668
 20
66.2601277207763
 30
0.0
 10
151.5020720244737
 20
66.97666415328649
 30
0.0
 10
151.5879326357136
 20
67.65448804384302
 30
0.0
 10
151.7638610891113
 20
68.29418516047078
 30
0.0
 10
152.021927853291
 20
68.9309899946851
 30
0.0
 10
152.2524013359452
 20
69.35094150187969
 30
0.0
 10
152.3676492176978
 20
69.56093755472543
 30
0.0
  0
LINE
  5
C5
330
1F
100
AcDbEntity
  8
0
  6
Continuous
 62
     7
370
    25
100
AcDbLine
 10
151.4325409013
 20
65.695765112
 30
0.0
 11
151.4325409013
 21
84.395765112
 31
0.0
  0
LINE
  5
C6
330
1F
100
AcDbEntity
  8
0
  6
Continuous
 62
     7
370
    25
100
AcDbLine
 10
156.4325409013
 20
69.2470799451
 30
0.0
 11
156.2763707861
 21
69.5609375547
 31
0.0
  0
LINE
  5
C7
330
1F
100
AcDbEntity
  8
0
  6
Continuous
 62
     7
370
    25
100
AcDbLine
 10
156.4325409013
 20
70.188652774
 30
0.0
 11
156.4325409013
 21
69.2470799451
 31
0.0
  0
LINE
  5
C8
330
1F
100
AcDbEntity
  8
0
  6
Continuous
 62
     7
370
    25
100
AcDbLine
 10
156.5887110165
 20
69.5609375547
 30
0.0
 11
156.4325409013
 21
69.2470799451
 31
0.0
  0
LINE
  5
C9
330
1F
100
AcDbEntity
  8
0
  6
Continuous
 62
     7
370
    25
100
AcDbLine
 10
160.4974325849
 20
64.0761099974
 30
0.0
 11
156.5887110165
 21
64.0761099974
 31
0.0
  0
LINE
  5
CA
330
1F
100
AcDbEntity
  8
0
  6
Continuous
 62
     7
370
    25
100
AcDbLine
 10
156.4325409013
 20
64.389967607
 30
0.0
 11
156.5887110165
 21
64.0761099974
 31
0.0
  0
LINE
  5
CB
330
1F
100
AcDbEntity
  8
0
  6
Continuous
 62
     7
370
    25
100
AcDbLine
 10
156.2763707861
 20
64.0761099974
 30
0.0
 11
156.4325409013
 21
64.389967607
 31
0.0
  0
LINE
  5
CC
330
1F
100
AcDbEntity
  8
0
  6
Continuous
 62
     7
370
    25
100
AcDbLine
 10
156.2763707861
 20
64.0761099974
 30
0.0
 11
152.3676492177
 21
64.0761099974
 31
0.0
  0
LINE
  5
CD
330
1F
100
AcDbEntity
  8
0
  6
Continuous
 62
     7
370
    25
100
AcDbLine
 10
163.4325409013
 20
84.095765112
 30
0.0
 11
163.4325409013
 21
65.995765112
 31
0.0
  0
LINE
  5
CE
330
1F
100
AcDbEntity
  8
0
  6
Continuous
 62
     7
370
    25
100
AcDbLine
 10
149.4325409013
 20
75.045765112
 30
0.0
 11
149.4325409013
 21
84.095765112
 31
0.0
  0
LINE
  5
CF
330
1F
100
AcDbEntity
  8
0
  6
Continuous
 62
     7
370
    25
100
AcDbLine
 10
149.4325409013
 20
65.995765112
 30
0.0
 11
149.4325409013
 21
75.045765112
 31
0.0
  0
LINE
  5
D0
330
1F
100
AcDbEntity
  8
0
  6
Continuous
 62
     7
370
    25
100
AcDbLine
 10
156.4325409013
 20
85.7154202266
 30
0.0
 11
156.4325409013
 21
85.701562617
 31
0.0
  0
LINE
  5
D1
330
1F
100
AcDbEntity
  8
0
  6
Continuous
 62
     7
370
    25
100
AcDbLine
 10
156.4325409013
 20
64.389967607
 30
0.0
 11
156.4325409013
 21
64.3761099974
 31
0.0
  0
LINE
  5
D2
330
1F
100
AcDbEntity
  8
0
  6
Continuous
 62
     7
370
    25
100
AcDbLine
 10
130.7768160443
 20
83.2426086699
 30
0.0
 11
130.7768160443
 21
66.8489215542
 31
0.0
  0
LINE
  5
D3
330
1F
100
AcDbEntity
  8
0
  6
Continuous
 62
     7
370
    25
100
AcDbLine
 10
140.7038221934
 20
67.5112630156
 30
0.0
 11
140.7038221934
 21
67.8578353441
 31
0.0
  0
LINE
  5
D4
330
1F
100
AcDbEntity
  8
0
  6
Continuous
 62
     7
370
    25
100
AcDbLine
 10
140.7038221934
 20
82.2336948799
 30
0.0
 11
140.7038221934
 21
82.5802672085
 31
0.0
  0
LINE
  5
D5
330
1F
100
AcDbEntity
  8
0
  6
Continuous
 62
     7
370
    25
100
AcDbLine
 10
140.7038221934
 20
74.6991927835
 30
0.0
 11
140.7038221934
 21
75.3923374406
 31
0.0
  0
LINE
  5
D6
330
1F
100
AcDbEntity
  8
0
  6
Continuous
 62
     7
370
    25
100
AcDbLine
 10
140.7038221934
 20
70.1382878239
 30
0.0
 11
143.1502323549
 21
70.1382878239
 31
0.0
  0
LINE
  5
D7
330
1F
100
AcDbEntity
  8
0
  6
Continuous
 62
     7
370
    25
100
AcDbLine
 10
140.7038221934
 20
70.1382878239
 30
0.0
 11
140.7038221934
 21
74.6991927835
 31
0.0
  0
LINE
  5
D8
330
1F
100
AcDbEntity
  8
0
  6
Continuous
 62
     7
370
    25
100
AcDbLine
 10
140.7038221934
 20
75.3923374406
 30
0.0
 11
140.7038221934
 21
79.9532424001
 31
0.0
  0
LINE
  5
D9
330
1F
100
AcDbEntity
  8
0
  6
Continuous
 62
     7
370
    25
100
AcDbLine
 10
140.7038221934
 20
79.9532424001
 30
0.0
 11
143.1502323549
 21
79.9532424001
 31
0.0
  0
SPLINE
  5
DA
330
1F
100
AcDbEntity
  8
0
  6
Continuous
 62
     7
370
    25
100
AcDbSpline
210
0.0
220
0.0
230
1.0
 70
     8
 71
     3
 72
     8
 73
     4
 74
     0
 42
0.000000001
 43
0.00000001
 40
0.0
 40
0.0
 40
0.0
 40
0.0
 40
1.0
 40
1.0
 40
1.0
 40
1.0
 10
143.2038221933976
 20
79.53991147177584
 30
0.0
 10
143.1865543599698
 20
79.67778643929589
 30
0.0
 10
143.1686781268965
 20
79.8155612836718
 30
0.0
 10
143.1502323549114
 20
79.9532424001388
 30
0.0
  0
SPLINE
  5
DB
330
1F
100
AcDbEntity
  8
0
  6
Continuous
 62
     7
370
    25
100
AcDbSpline
210
0.0
220
0.0
230
1.0
 70
     8
 71
     3
 72
     8
 73
     4
 74
     0
 42
0.000000001
 43
0.00000001
 40
0.0
 40
0.0
 40
0.0
 40
0.0
 40
1.0
 40
1.0
 40
1.0
 40
1.0
 10
143.2574120318838
 20
79.9532424001388
 30
0.0
 10
143.2389604192489
 20
79.81551768846856
 30
0.0
 10
143.2210844411424
 20
79.67774184042602
 30
0.0
 10
143.2038221933976
 20
79.53991147177584
 30
0.0
  0
LINE
  5
DC
330
1F
100
AcDbEntity
  8
0
  6
Continuous
 62
     7
370
    25
100
AcDbLine
 10
143.2574120319
 20
79.9532424001
 30
0.0
 11
144.8002952475
 21
79.9532424001
 31
0.0
  0
SPLINE
  5
DD
330
1F
100
AcDbEntity
  8
0
  6
Continuous
 62
     7
370
    25
100
AcDbSpline
210
0.0
220
0.0
230
1.0
 70
     8
 71
     3
 72
    14
 73
    10
 74
     0
 42
0.000000001
 43
0.00000001
 40
0.0
 40
0.0
 40
0.0
 40
0.0
 40
0.25
 40
0.25
 40
0.5
 40
0.5
 40
0.7500000000000001
 40
0.7500000000000001
 40
1.0
 40
1.0
 40
1.0
 40
1.0
 10
144.8002952475453
 20
70.13828782391512
 30
0.0
 10
145.0309238408086
 20
70.93720870633545
 30
0.0
 10
145.2241329602724
 20
71.7547881435307
 30
0.0
 10
145.4882655760013
 20
73.39318689278578
 30
0.0
 10
145.559578887895
 20
74.21737875816859
 30
0.0
 10
145.5593901740625
 20
75.87749860567033
 30
0.0
 10
145.4859794345752
 20
76.71851756532585
 30
0.0
 10
145.219985413035
 20
78.35632829589494
 30
0.0
 10
145.0293169348528
 20
79.15988800323535
 30
0.0
 10
144.8002952475453
 20
79.9532424001388
 30
0.0
  0
LINE
  5
DE
330
1F
100
AcDbEntity
  8
0
  6
Continuous
 62
     7
370
    25
100
AcDbLine
 10
143.2574120319
 20
70.1382878239
 30
0.0
 11
144.8002952475
 21
70.1382878239
 31
0.0
  0
SPLINE
  5
DF
330
1F
100
AcDbEntity
  8
0
  6
Continuous
 62
     7
370
    25
100
AcDbSpline
210
0.0
220
0.0
230
1.0
 70
     8
 71
     3
 72
     8
 73
     4
 74
     0
 42
0.000000001
 43
0.00000001
 40
0.0
 40
0.0
 40
0.0
 40
0.0
 40
1.0
 40
1.0
 40
1.0
 40
1.0
 10
143.2038221933976
 20
70.5516187522781
 30
0.0
 10
143.2210900268254
 20
70.41374378475805
 30
0.0
 10
143.2389662598986
 20
70.27596894038214
 30
0.0
 10
143.2574120318838
 20
70.13828782391514
 30
0.0
  0
SPLINE
  5
E0
330
1F
100
AcDbEntity
  8
0
  6
Continuous
 62
     7
370
    25
100
AcDbSpline
210
0.0
220
0.0
230
1.0
 70
     8
 71
     3
 72
     8
 73
     4
 74
     0
 42
0.000000001
 43
0.00000001
 40
0.0
 40
0.0
 40
0.0
 40
0.0
 40
1.0
 40
1.0
 40
1.0
 40
1.0
 10
143.1502323549114
 20
70.13828782391514
 30
0.0
 10
143.1686839675463
 20
70.27601253558538
 30
0.0
 10
143.1865599456528
 20
70.41378838362793
 30
0.0
 10
143.2038221933976
 20
70.55161875227812
 30
0.0
  0
SPLINE
  5
E1
330
1F
100
AcDbEntity
  8
0
  6
Continuous
 62
     7
370
    25
100
AcDbSpline
210
0.0
220
0.0
230
1.0
 70
     8
 71
     3
 72
     8
 73
     4
 74
     0
 42
0.000000001
 43
0.00000001
 40
0.0
 40
0.0
 40
0.0
 40
0.0
 40
1.0
 40
1.0
 40
1.0
 40
1.0
 10
143.2574120318838
 20
70.13828782391514
 30
0.0
 10
143.238961201608
 20
70.06942838788426
 30
0.0
 10
143.2210851889339
 20
70.00054052942839
 30
0.0
 10
143.2038221933976
 20
69.93162235973365
 30
0.0
  0
LINE
  5
E2
330
1F
100
AcDbEntity
  8
0
  6
Continuous
 62
     7
370
    25
100
AcDbLine
 10
143.2038221934
 20
69.9316223597
 30
0.0
 11
143.2038221934
 21
70.5516187523
 31
0.0
  0
LINE
  5
E3
330
1F
100
AcDbEntity
  8
0
  6
Continuous
 62
     7
370
    25
100
AcDbLine
 10
140.7038221934
 20
65.2308105358
 30
0.0
 11
143.1502323549
 21
65.2308105358
 31
0.0
  0
LINE
  5
E4
330
1F
100
AcDbEntity
  8
0
  6
Continuous
 62
     7
370
    25
100
AcDbLine
 10
140.7038221934
 20
65.2308105358
 30
0.0
 11
140.7038221934
 21
67.5112630156
 31
0.0
  0
LINE
  5
E5
330
1F
100
AcDbEntity
  8
0
  6
Continuous
 62
     7
370
    25
100
AcDbLine
 10
140.7038221934
 20
67.8578353441
 30
0.0
 11
140.7038221934
 21
70.1382878239
 31
0.0
  0
SPLINE
  5
E6
330
1F
100
AcDbEntity
  8
0
  6
Continuous
 62
     7
370
    25
100
AcDbSpline
210
0.0
220
0.0
230
1.0
 70
     8
 71
     3
 72
     8
 73
     4
 74
     0
 42
0.000000001
 43
0.00000001
 40
0.0
 40
0.0
 40
0.0
 40
0.0
 40
1.0
 40
1.0
 40
1.0
 40
1.0
 10
143.2038221933976
 20
69.93162235973365
 30
0.0
 10
143.1865540975419
 20
70.00056089117103
 30
0.0
 10
143.1686778526736
 20
70.06944828909565
 30
0.0
 10
143.1502323549114
 20
70.13828782391514
 30
0.0
  0
SPLINE
  5
E7
330
1F
100
AcDbEntity
  8
0
  6
Continuous
 62
     7
370
    25
100
AcDbSpline
210
0.0
220
0.0
230
1.0
 70
     8
 71
     3
 72
    16
 73
    12
 74
     0
 42
0.000000001
 43
0.00000001
 40
0.0
 40
0.0
 40
0.0
 40
0.0
 40
0.2499999999999999
 40
0.2499999999999999
 40
0.4999999999999998
 40
0.4999999999999998
 40
0.6249999999999998
 40
0.6249999999999998
 40
0.7499999999999998
 40
0.7499999999999998
 40
1.0
 40
1.0
 40
1.0
 40
1.0
 10
144.8002952475457
 20
70.13828782391516
 30
0.0
 10
145.0316100012284
 20
69.73763891799658
 30
0.0
 10
145.2222552945588
 20
69.33406892831172
 30
0.0
 10
145.4863609509661
 20
68.51851214197062
 30
0.0
 10
145.5589501422801
 20
68.10646277340729
 30
0.0
 10
145.559747388371
 20
67.48062540535769
 30
0.0
 10
145.5420021317476
 20
67.27103142189456
 30
0.0
 10
145.4728050482178
 20
66.85643240451832
 30
0.0
 10
145.4214234421555
 20
66.65052289249614
 30
0.0
 10
145.2230154434189
 20
66.03646029444297
 30
0.0
 10
145.0318983417149
 20
65.63195886209478
 30
0.0
 10
144.8002952475455
 20
65.23081053580322
 30
0.0
  0
LINE
  5
E8
330
1F
100
AcDbEntity
  8
0
  6
Continuous
 62
     7
370
    25
100
AcDbLine
 10
143.2574120319
 20
65.2308105358
 30
0.0
 11
144.8002952475
 21
65.2308105358
 31
0.0
  0
SPLINE
  5
E9
330
1F
100
AcDbEntity
  8
0
  6
Continuous
 62
     7
370
    25
100
AcDbSpline
210
0.0
220
0.0
230
1.0
 70
     8
 71
     3
 72
     8
 73
     4
 74
     0
 42
0.000000001
 43
0.00000001
 40
0.0
 40
0.0
 40
0.0
 40
0.0
 40
1.0
 40
1.0
 40
1.0
 40
1.0
 10
143.2038221933976
 20
65.43747599998471
 30
0.0
 10
143.2210902892532
 20
65.36853746854734
 30
0.0
 10
143.2389665341216
 20
65.29965007062273
 30
0.0
 10
143.2574120318838
 20
65.23081053580323
 30
0.0
  0
SPLINE
  5
EA
330
1F
100
AcDbEntity
  8
0
  6
Continuous
 62
     7
370
    25
100
AcDbSpline
210
0.0
220
0.0
230
1.0
 70
     8
 71
     3
 72
     8
 73
     4
 74
     0
 42
0.000000001
 43
0.00000001
 40
0.0
 40
0.0
 40
0.0
 40
0.0
 40
1.0
 40
1.0
 40
1.0
 40
1.0
 10
143.1502323549114
 20
65.23081053580323
 30
0.0
 10
143.1686831851871
 20
65.29966997183412
 30
0.0
 10
143.1865591978612
 20
65.36855783028999
 30
0.0
 10
143.2038221933976
 20
65.43747599998471
 30
0.0
  0
LINE
  5
EB
330
1F
100
AcDbEntity
  8
0
  6
Continuous
 62
     7
370
    25
100
AcDbLine
 10
143.2038221934
 20
79.5399114718
 30
0.0
 11
143.2038221934
 21
80.1599078643
 31
0.0
  0
SPLINE
  5
EC
330
1F
100
AcDbEntity
  8
0
  6
Continuous
 62
     7
370
    25
100
AcDbSpline
210
0.0
220
0.0
230
1.0
 70
     8
 71
     3
 72
     8
 73
     4
 74
     0
 42
0.000000001
 43
0.00000001
 40
0.0
 40
0.0
 40
0.0
 40
0.0
 40
1.0
 40
1.0
 40
1.0
 40
1.0
 10
143.2038221933976
 20
80.15990786432029
 30
0.0
 10
143.2210902892532
 20
80.09096933288292
 30
0.0
 10
143.2389665341216
 20
80.0220819349583
 30
0.0
 10
143.2574120318838
 20
79.9532424001388
 30
0.0
  0
SPLINE
  5
ED
330
1F
100
AcDbEntity
  8
0
  6
Continuous
 62
     7
370
    25
100
AcDbSpline
210
0.0
220
0.0
230
1.0
 70
     8
 71
     3
 72
    16
 73
    12
 74
     0
 42
0.000000001
 43
0.00000001
 40
0.0
 40
0.0
 40
0.0
 40
0.0
 40
0.2499999999999999
 40
0.2499999999999999
 40
0.4999999999999998
 40
0.4999999999999998
 40
0.6249999999999999
 40
0.6249999999999999
 40
0.7500000000000001
 40
0.7500000000000001
 40
1.0
 40
1.0
 40
1.0
 40
1.0
 10
144.8002952475457
 20
84.86071968825055
 30
0.0
 10
145.0316100012284
 20
84.46007078233197
 30
0.0
 10
145.2222552945588
 20
84.05650079264713
 30
0.0
 10
145.4863609509661
 20
83.24094400630607
 30
0.0
 10
145.5589501422801
 20
82.82889463774275
 30
0.0
 10
145.559747388371
 20
82.20305726969316
 30
0.0
 10
145.5420021317476
 20
81.99346328623005
 30
0.0
 10
145.4728050482178
 20
81.57886426885383
 30
0.0
 10
145.4214234421555
 20
81.37295475683165
 30
0.0
 10
145.2230154434189
 20
80.75889215877851
 30
0.0
 10
145.0318983417149
 20
80.35439072643032
 30
0.0
 10
144.8002952475455
 20
79.95324240013879
 30
0.0
  0
LINE
  5
EE
330
1F
100
AcDbEntity
  8
0
  6
Continuous
 62
     7
370
    25
100
AcDbLine
 10
145.7038221934
 20
83.295765112
 30
0.0
 11
145.7038221934
 21
66.795765112
 31
0.0
  0
SPLINE
  5
EF
330
1F
100
AcDbEntity
  8
0
  6
Continuous
 62
     7
370
    25
100
AcDbSpline
210
0.0
220
0.0
230
1.0
 70
     8
 71
     3
 72
     8
 73
     4
 74
     0
 42
0.000000001
 43
0.00000001
 40
0.0
 40
0.0
 40
0.0
 40
0.0
 40
1.0
 40
1.0
 40
1.0
 40
1.0
 10
143.1502323549114
 20
79.9532424001388
 30
0.0
 10
143.1686831851871
 20
80.02210183616968
 30
0.0
 10
143.1865591978612
 20
80.09098969462555
 30
0.0
 10
143.2038221933976
 20
80.15990786432029
 30
0.0
  0
LINE
  5
F0
330
1F
100
AcDbEntity
  8
0
  6
Continuous
 62
     7
370
    25
100
AcDbLine
 10
140.7038221934
 20
82.5802672085
 30
0.0
 11
140.7038221934
 21
84.8607196883
 31
0.0
  0
LINE
  5
F1
330
1F
100
AcDbEntity
  8
0
  6
Continuous
 62
     7
370
    25
100
AcDbLine
 10
140.7038221934
 20
84.8607196883
 30
0.0
 11
143.1502323549
 21
84.8607196883
 31
0.0
  0
SPLINE
  5
F2
330
1F
100
AcDbEntity
  8
0
  6
Continuous
 62
     7
370
    25
100
AcDbSpline
210
0.0
220
0.0
230
1.0
 70
     8
 71
     3
 72
     8
 73
     4
 74
     0
 42
0.000000001
 43
0.00000001
 40
0.0
 40
0.0
 40
0.0
 40
0.0
 40
1.0
 40
1.0
 40
1.0
 40
1.0
 10
143.2038221933976
 20
84.65405422406904
 30
0.0
 10
143.1865540975419
 20
84.72299275550643
 30
0.0
 10
143.1686778526736
 20
84.79188015343104
 30
0.0
 10
143.1502323549114
 20
84.86071968825053
 30
0.0
  0
SPLINE
  5
F3
330
1F
100
AcDbEntity
  8
0
  6
Continuous
 62
     7
370
    25
100
AcDbSpline
210
0.0
220
0.0
230
1.0
 70
     8
 71
     3
 72
     8
 73
     4
 74
     0
 42
0.000000001
 43
0.00000001
 40
0.0
 40
0.0
 40
0.0
 40
0.0
 40
1.0
 40
1.0
 40
1.0
 40
1.0
 10
143.2574120318838
 20
84.86071968825053
 30
0.0
 10
143.238961201608
 20
84.79186025221965
 30
0.0
 10
143.2210851889339
 20
84.72297239376378
 30
0.0
 10
143.2038221933976
 20
84.65405422406904
 30
0.0
  0
LINE
  5
F4
330
1F
100
AcDbEntity
  8
0
  6
Continuous
 62
     7
370
    25
100
AcDbLine
 10
143.2574120319
 20
84.8607196883
 30
0.0
 11
144.8002952475
 21
84.8607196883
 31
0.0
  0
LINE
  5
F5
330
1F
100
AcDbEntity
  8
0
  6
Continuous
 62
     7
370
    25
100
AcDbLine
 10
140.7038221934
 20
79.9532424001
 30
0.0
 11
140.7038221934
 21
82.2336948799
 31
0.0
  0
LINE
  5
F6
330
1F
100
AcDbEntity
  8
0
  6
Continuous
 62
     7
370
    25
100
AcDbLine
 10
149.2038221934
 20
83.376765112
 30
0.0
 11
149.2038221934
 21
66.714765112
 31
0.0
  0
LINE
  5
F7
330
1F
100
AcDbEntity
  8
0
  6
Continuous
 62
     7
370
    25
100
AcDbLine
 10
148.2038221934
 20
67.714765112
 30
0.0
 11
148.2038221934
 21
82.376765112
 31
0.0
  0
LINE
  5
F8
330
1F
100
AcDbEntity
  8
0
  6
Continuous
 62
     7
370
    25
100
AcDbLine
 10
128.7038221934
 20
75.045765112
 30
0.0
 11
128.7038221934
 21
82.045765112
 31
0.0
  0
LINE
  5
F9
330
1F
100
AcDbEntity
  8
0
  6
Continuous
 62
     7
370
    25
100
AcDbLine
 10
128.7038221934
 20
68.045765112
 30
0.0
 11
128.7038221934
 21
75.045765112
 31
0.0
  0
LINE
  5
FA
330
1F
100
AcDbEntity
  8
0
  6
Continuous
 62
     7
370
    25
100
AcDbLine
 10
143.2038221934
 20
65.4308105358
 30
0.0
 11
143.2038221934
 21
65.437476
 31
0.0
  0
LINE
  5
FB
330
1F
100
AcDbEntity
  8
0
  6
Continuous
 62
     7
370
    25
100
AcDbLine
 10
143.2038221934
 20
84.6540542241
 30
0.0
 11
143.2038221934
 21
84.6607196883
 31
0.0
  0
LINE
  5
FC
330
1F
100
AcDbEntity
  8
0
  6
Continuous
 62
     8
370
    25
100
AcDbLine
 10
163.1325409013
 20
65.695765112
 30
0.0
 11
163.1325409013
 21
84.395765112
 31
0.0
  0
LINE
  5
FD
330
1F
100
AcDbEntity
  8
0
  6
Continuous
 62
     8
370
    25
100
AcDbLine
 10
149.7325409013
 20
75.045765112
 30
0.0
 11
149.7325409013
 21
65.695765112
 31
0.0
  0
LINE
  5
FE
330
1F
100
AcDbEntity
  8
0
  6
Continuous
 62
     8
370
    25
100
AcDbLine
 10
149.7325409013
 20
84.395765112
 30
0.0
 11
149.7325409013
 21
75.045765112
 31
0.0
  0
LINE
  5
FF
330
1F
100
AcDbEntity
  8
0
  6
Continuous
 62
     7
370
     0
100
AcDbLine
 10
129.4550009884
 20
82.4794583915
 30
0.0
 11
140.2038221934
 21
82.8153590542
 31
0.0
  0
LINE
  5
100
330
1F
100
AcDbEntity
  8
0
  6
Continuous
 62
     7
370
     0
100
AcDbLine
 10
129.4550009884
 20
67.6120718325
 30
0.0
 11
140.2038221934
 21
67.2761711699
 31
0.0
  0
LINE
  5
101
330
1F
100
AcDbEntity
  8
0
  6
Continuous
 62
     7
370
     0
100
AcDbLine
 10
140.2038221934
 20
66.554327612
 30
0.0
 11
140.2038221934
 21
83.537202612
 31
0.0
  0
LINE
  5
102
330
1F
100
AcDbEntity
  8
0
  6
CENTERX2
 62
     7
370
    18
100
AcDbLine
 10
191.8325409013
 20
75.045765112
 30
0.0
 11
143.7038221934
 21
75.045765112
 31
0.0
  0
LINE
  5
103
330
1F
100
AcDbEntity
  8
0
  6
CENTERX2
 62
     7
370
    18
100
AcDbLine
 10
126.7038221934
 20
75.045765112
 30
0.0
 11
142.7038221934
 21
75.045765112
 31
0.0
  0
LINE
  5
104
330
1F
100
AcDbEntity
  8
0
  6
CENTERX2
 62
     7
370
    18
100
AcDbLine
 10
139.9806171126
 20
75.045765112
 30
0.0
 11
145.9752638012
 21
75.045765112
 31
0.0
  0
CIRCLE
  5
105
330
1F
100
AcDbEntity
  8
0
  6
Continuous
 62
     7
370
    25
100
AcDbCircle
 10
215.2155729722
 20
75.045765112
 30
0.0
 40
4.099999999999994
  0
CIRCLE
  5
106
330
1F
100
AcDbEntity
  8
0
  6
Continuous
 62
     7
370
    25
100
AcDbCircle
 10
215.2155729722
 20
75.045765112
 30
0.0
 40
3.600000000000023
  0
CIRCLE
  5
107
330
1F
100
AcDbEntity
  8
0
  6
Continuous
 62
     7
370
    25
100
AcDbCircle
 10
215.2155729722
 20
75.045765112
 30
0.0
 40
3.5
  0
CIRCLE
  5
108
330
1F
100
AcDbEntity
  8
0
  6
Continuous
 62
     7
370
    25
100
AcDbCircle
 10
215.2155729722
 20
75.045765112
 30
0.0
 40
4.55714285714285
  0
CIRCLE
  5
109
330
1F
100
AcDbEntity
  8
0
  6
Continuous
 62
     7
370
    25
100
AcDbCircle
 10
215.2155729722
 20
75.045765112
 30
0.0
 40
5.25
  0
CIRCLE
  5
10A
330
1F
100
AcDbEntity
  8
0
  6
Continuous
 62
     7
370
    25
100
AcDbCircle
 10
215.2155729722
 20
75.045765112
 30
0.0
 40
9.050000000000011
  0
CIRCLE
  5
10B
330
1F
100
AcDbEntity
  8
0
  6
Continuous
 62
     7
370
    25
100
AcDbCircle
 10
215.2155729722
 20
75.045765112
 30
0.0
 40
5.599999999999994
  0
CIRCLE
  5
10C
330
1F
100
AcDbEntity
  8
0
  6
Continuous
 62
     7
370
    25
100
AcDbCircle
 10
215.2155729722
 20
75.045765112
 30
0.0
 40
9.349999999999994
  0
CIRCLE
  5
10D
330
1F
100
AcDbEntity
  8
0
  6
Continuous
 62
     7
370
    25
100
AcDbCircle
 10
215.2155729722
 20
75.045765112
 30
0.0
 40
5.5
  0
SPLINE
  5
10E
330
1F
100
AcDbEntity
  8
0
  6
Continuous
 62
     7
370
    25
100
AcDbSpline
210
0.0
220
0.0
230
1.0
 70
    24
 71
     3
 72
    15
 73
    11
 74
     0
 42
0.000000001
 43
0.00000001
 40
0.0
 40
0.0
 40
0.0
 40
0.0
 40
0.1323056949471119
 40
0.2645739819647156
 40
0.3998011884071379
 40
0.535003992653431
 40
0.6501943985256687
 40
0.7654027729264458
 40
0.8826900467077626
 40
1.0
 40
1.0
 40
1.0
 40
1.0
 10
205.7155729722005
 20
80.53059266932831
 30
0.0
 10
206.1260121933758
 20
80.76755986415988
 30
0.0
 10
206.9467745887078
 20
81.24142725404552
 30
0.0
 10
208.2106761834926
 20
81.97114118002371
 30
0.0
 10
209.4984026336776
 20
82.71461039268063
 30
0.0
 10
210.7394801402594
 20
83.43114682519082
 30
0.0
 10
211.9135055572873
 20
84.10897071574736
 30
0.0
 10
213.0214934647419
 20
84.74866783237512
 30
0.0
 10
214.1244717921066
 20
85.38547266658945
 30
0.0
 10
214.8518491392827
 20
85.80542417378403
 30
0.0
 10
215.2155729722005
 20
86.01542022662977
 30
0.0
  0
SPLINE
  5
10F
330
1F
100
AcDbEntity
  8
0
  6
Continuous
 62
     7
370
    25
100
AcDbSpline
210
0.0
220
0.0
230
1.0
 70
    24
 71
     3
 72
    15
 73
    11
 74
     0
 42
0.000000001
 43
0.00000001
 40
0.0
 40
0.0
 40
0.0
 40
0.0
 40
0.1323056949471118
 40
0.2645739819647153
 40
0.3998011884071372
 40
0.5350039926534302
 40
0.6501943985256682
 40
0.7654027729264454
 40
0.8826900467077623
 40
1.0
 40
1.0
 40
1.0
 40
1.0
 10
215.2155729722005
 20
86.01542022662977
 30
0.0
 10
215.6260121933758
 20
85.77845303179821
 30
0.0
 10
216.4467745887078
 20
85.30458564191255
 30
0.0
 10
217.7106761834926
 20
84.57487171593438
 30
0.0
 10
218.9984026336776
 20
83.83140250327745
 30
0.0
 10
220.2394801402594
 20
83.11486607076728
 30
0.0
 10
221.4135055572873
 20
82.43704218021074
 30
0.0
 10
222.5214934647419
 20
81.79734506358298
 30
0.0
 10
223.6244717921066
 20
81.16054022936862
 30
0.0
 10
224.3518491392827
 20
80.74058872217404
 30
0.0
 10
224.7155729722005
 20
80.53059266932831
 30
0.0
  0
SPLINE
  5
110
330
1F
100
AcDbEntity
  8
0
  6
Continuous
 62
     7
370
    25
100
AcDbSpline
210
0.0
220
0.0
230
1.0
 70
    24
 71
     3
 72
    16
 73
    12
 74
     0
 42
0.000000001
 43
0.00000001
 40
0.0
 40
0.0
 40
0.0
 40
0.0
 40
0.0929885214947442
 40
0.1859684433169223
 40
0.2798026993360916
 40
0.3736271140500713
 40
0.4988494963801857
 40
0.624071652077102
 40
0.7526321570051048
 40
0.881227989150641
 40
1.0
 40
1.0
 40
1.0
 40
1.0
 10
224.7155729722005
 20
80.53059266932831
 30
0.0
 10
224.7155729722005
 20
80.19794590516707
 30
0.0
 10
224.7155729722005
 20
79.53268314035392
 30
0.0
 10
224.7155729722005
 20
78.51827030534339
 30
0.0
 10
224.7155729722005
 20
77.49139112333516
 30
0.0
 10
224.7155729722005
 20
76.33703538019793
 30
0.0
 10
224.7155729722005
 20
75.05879101581172
 30
0.0
 10
224.7155729722005
 20
73.65142194105496
 30
0.0
 10
224.7155729722005
 20
72.2419919210931
 30
0.0
 10
224.7155729722005
 20
70.87188941705828
 30
0.0
 10
224.7155729722005
 20
69.98619688440829
 30
0.0
 10
224.7155729722005
 20
69.56093755472543
 30
0.0
  0
SPLINE
  5
111
330
1F
100
AcDbEntity
  8
0
  6
Continuous
 62
     7
370
    25
100
AcDbSpline
210
0.0
220
0.0
230
1.0
 70
    24
 71
     3
 72
    15
 73
    11
 74
     0
 42
0.000000001
 43
0.00000001
 40
0.0
 40
0.0
 40
0.0
 40
0.0
 40
0.1323056949471119
 40
0.2645739819647158
 40
0.3998011884071379
 40
0.5350039926534309
 40
0.6501943985256686
 40
0.7654027729264458
 40
0.8826900467077626
 40
1.0
 40
1.0
 40
1.0
 40
1.0
 10
224.7155729722005
 20
69.56093755472544
 30
0.0
 10
224.3051337510252
 20
69.32397035989386
 30
0.0
 10
223.4843713556932
 20
68.85010297000822
 30
0.0
 10
222.2204697609084
 20
68.12038904403003
 30
0.0
 10
220.9327433107233
 20
67.37691983137312
 30
0.0
 10
219.6916658041416
 20
66.66038339886293
 30
0.0
 10
218.5176403871137
 20
65.98255950830641
 30
0.0
 10
217.4096524796591
 20
65.34286239167865
 30
0.0
 10
216.3066741522943
 20
64.70605755746429
 30
0.0
 10
215.5792968051182
 20
64.28610605026971
 30
0.0
 10
215.2155729722005
 20
64.07610999742398
 30
0.0
  0
SPLINE
  5
112
330
1F
100
AcDbEntity
  8
0
  6
Continuous
 62
     7
370
    25
100
AcDbSpline
210
0.0
220
0.0
230
1.0
 70
    24
 71
     3
 72
    15
 73
    11
 74
     0
 42
0.000000001
 43
0.00000001
 40
0.0
 40
0.0
 40
0.0
 40
0.0
 40
0.1323056949471119
 40
0.2645739819647157
 40
0.3998011884071378
 40
0.5350039926534308
 40
0.6501943985256685
 40
0.7654027729264458
 40
0.8826900467077625
 40
1.0
 40
1.0
 40
1.0
 40
1.0
 10
215.2155729722005
 20
64.07610999742398
 30
0.0
 10
214.8051337510252
 20
64.31307719225555
 30
0.0
 10
213.9843713556932
 20
64.78694458214119
 30
0.0
 10
212.7204697609084
 20
65.51665850811939
 30
0.0
 10
211.4327433107234
 20
66.2601277207763
 30
0.0
 10
210.1916658041416
 20
66.97666415328649
 30
0.0
 10
209.0176403871137
 20
67.65448804384302
 30
0.0
 10
207.9096524796591
 20
68.29418516047078
 30
0.0
 10
206.8066741522943
 20
68.93098999468512
 30
0.0
 10
206.0792968051182
 20
69.35094150187969
 30
0.0
 10
205.7155729722005
 20
69.56093755472543
 30
0.0
  0
SPLINE
  5
113
330
1F
100
AcDbEntity
  8
0
  6
Continuous
 62
     7
370
    25
100
AcDbSpline
210
0.0
220
0.0
230
1.0
 70
    24
 71
     3
 72
    16
 73
    12
 74
     0
 42
0.000000001
 43
0.00000001
 40
0.0
 40
0.0
 40
0.0
 40
0.0
 40
0.1187721435844976
 40
0.2441491713813145
 40
0.3694941462363444
 40
0.4979334251312964
 40
0.6263722645127594
 40
0.7192884549559209
 40
0.8122141015734954
 40
0.9061025727606725
 40
1.0
 40
1.0
 40
1.0
 40
1.0
 10
205.7155729722005
 20
69.56093755472543
 30
0.0
 10
205.7155729722005
 20
69.98619539342675
 30
0.0
 10
205.7155729722005
 20
70.8603595350251
 30
0.0
 10
205.7155729722005
 20
72.20672622831356
 30
0.0
 10
205.7155729722005
 20
73.60368355789235
 30
0.0
 10
205.7155729722005
 20
75.02289407361418
 30
0.0
 10
205.7155729722005
 20
76.32180136330439
 30
0.0
 10
205.7155729722005
 20
77.48134154587271
 30
0.0
 10
205.7155729722005
 20
78.50502679219835
 30
0.0
 10
205.7155729722005
 20
79.52290052130557
 30
0.0
 10
205.7155729722005
 20
80.19468460687929
 30
0.0
 10
205.7155729722005
 20
80.53059266932831
 30
0.0
  0
INSERT
  5
11F
330
1F
100
AcDbEntity
  8
0
  6
Continuous
 62
     7
370
    18
100
AcDbBlockReference
  2
SW_CENTERMARKSYMBOL_0
 10
215.2155729722
 20
75.045765112
 30
0.0
  0
LINE
  5
120
330
1F
100
AcDbEntity
  8
0
  6
Continuous
 62
     7
370
    25
100
AcDbLine
 10
163.4325409013
 20
107.7461679858
 30
0.0
 11
167.9325409013
 21
107.7461679858
 31
0.0
  0
LINE
  5
121
330
1F
100
AcDbEntity
  8
0
  6
Continuous
 62
     7
370
    25
100
AcDbLine
 10
167.9325409013
 20
118.2461679858
 30
0.0
 11
163.4325409013
 21
118.2461679858
 31
0.0
  0
LINE
  5
122
330
1F
100
AcDbEntity
  8
0
  6
Continuous
 62
     7
370
    25
100
AcDbLine
 10
167.9325409013
 20
107.7461679858
 30
0.0
 11
171.9325409013
 21
108.4961679858
 31
0.0
  0
LINE
  5
123
330
1F
100
AcDbEntity
  8
0
  6
Continuous
 62
     7
370
    25
100
AcDbLine
 10
171.9325409013
 20
117.4961679858
 30
0.0
 11
167.9325409013
 21
118.2461679858
 31
0.0
  0
LINE
  5
124
330
1F
100
AcDbEntity
  8
0
  6
Continuous
 62
     7
370
    25
100
AcDbLine
 10
171.9325409013
 20
107.7461679858
 30
0.0
 11
175.9325409013
 21
108.4961679858
 31
0.0
  0
LINE
  5
125
330
1F
100
AcDbEntity
  8
0
  6
Continuous
 62
     7
370
    25
100
AcDbLine
 10
175.9325409013
 20
117.4961679858
 30
0.0
 11
171.9325409013
 21
118.2461679858
 31
0.0
  0
LINE
  5
126
330
1F
100
AcDbEntity
  8
0
  6
Continuous
 62
     7
370
    25
100
AcDbLine
 10
175.9325409013
 20
107.7461679858
 30
0.0
 11
179.9325409013
 21
108.4961679858
 31
0.0
  0
LINE
  5
127
330
1F
100
AcDbEntity
  8
0
  6
Continuous
 62
     7
370
    25
100
AcDbLine
 10
179.9325409013
 20
117.4961679858
 30
0.0
 11
175.9325409013
 21
118.2461679858
 31
0.0
  0
LINE
  5
128
330
1F
100
AcDbEntity
  8
0
  6
Continuous
 62
     7
370
    25
100
AcDbLine
 10
183.9325409013
 20
107.7461679858
 30
0.0
 11
189.4753980441
 21
108.4390251286
 31
0.0
  0
LINE
  5
129
330
1F
100
AcDbEntity
  8
0
  6
Continuous
 62
     7
370
    25
100
AcDbLine
 10
189.4753980441
 20
117.5533108429
 30
0.0
 11
183.9325409013
 21
118.2461679858
 31
0.0
  0
LINE
  5
12A
330
1F
100
AcDbEntity
  8
0
  6
Continuous
 62
     7
370
    25
100
AcDbLine
 10
179.9325409013
 20
107.7461679858
 30
0.0
 11
183.9325409013
 21
108.4961679858
 31
0.0
  0
LINE
  5
12B
330
1F
100
AcDbEntity
  8
0
  6
Continuous
 62
     7
370
    25
100
AcDbLine
 10
183.9325409013
 20
117.4961679858
 30
0.0
 11
179.9325409013
 21
118.2461679858
 31
0.0
  0
LINE
  5
12C
330
1F
100
AcDbEntity
  8
0
  6
Continuous
 62
     7
370
    25
100
AcDbLine
 10
189.4753980441
 20
108.4390251286
 30
0.0
 11
189.9325409013
 21
108.8961679858
 31
0.0
  0
LINE
  5
12D
330
1F
100
AcDbEntity
  8
0
  6
Continuous
 62
     7
370
    25
100
AcDbLine
 10
189.9325409013
 20
117.0961679858
 30
0.0
 11
189.4753980441
 21
117.5533108429
 31
0.0
  0
LINE
  5
12E
330
1F
100
AcDbEntity
  8
0
  6
Continuous
 62
     7
370
    25
100
AcDbLine
 10
161.3459383609
 20
103.4961679858
 30
0.0
 11
161.4325409013
 21
103.6461679858
 31
0.0
  0
LINE
  5
12F
330
1F
100
AcDbEntity
  8
0
  6
Continuous
 62
     7
370
    25
100
AcDbLine
 10
161.4325409013
 20
122.3461679858
 30
0.0
 11
161.3459383609
 21
122.4961679858
 31
0.0
  0
LINE
  5
130
330
1F
100
AcDbEntity
  8
0
  6
Continuous
 62
     7
370
    25
100
AcDbLine
 10
151.5191434417
 20
122.4961679858
 30
0.0
 11
151.4325409013
 21
122.3461679858
 31
0.0
  0
LINE
  5
131
330
1F
100
AcDbEntity
  8
0
  6
Continuous
 62
     7
370
    25
100
AcDbLine
 10
151.4325409013
 20
103.6461679858
 30
0.0
 11
151.5191434417
 21
103.4961679858
 31
0.0
  0
ARC
  5
132
330
1F
100
AcDbEntity
  8
0
  6
Continuous
 62
     7
370
    25
100
AcDbCircle
 10
163.1325409013
 20
122.0461679858
 30
0.0
 40
0.3000000000000114
100
AcDbArc
 50
0.0
 51
90.0
  0
ARC
  5
133
330
1F
100
AcDbEntity
  8
0
  6
Continuous
 62
     7
370
    25
100
AcDbCircle
 10
163.1325409013
 20
103.9461679858
 30
0.0
 40
0.3000000000000114
100
AcDbArc
 50
270.0
 51
0.0
  0
LINE
  5
134
330
1F
100
AcDbEntity
  8
0
  6
Continuous
 62
     7
370
    25
100
AcDbLine
 10
161.4325409013
 20
103.6461679858
 30
0.0
 11
163.1325409013
 21
103.6461679858
 31
0.0
  0
LINE
  5
135
330
1F
100
AcDbEntity
  8
0
  6
Continuous
 62
     7
370
    25
100
AcDbLine
 10
163.1325409013
 20
122.3461679858
 30
0.0
 11
161.4325409013
 21
122.3461679858
 31
0.0
  0
LINE
  5
136
330
1F
100
AcDbEntity
  8
0
  6
Continuous
 62
     7
370
    25
100
AcDbLine
 10
151.4325409013
 20
122.3461679858
 30
0.0
 11
149.7325409013
 21
122.3461679858
 31
0.0
  0
LINE
  5
137
330
1F
100
AcDbEntity
  8
0
  6
Continuous
 62
     7
370
    25
100
AcDbLine
 10
149.7325409013
 20
103.6461679858
 30
0.0
 11
151.4325409013
 21
103.6461679858
 31
0.0
  0
ARC
  5
138
330
1F
100
AcDbEntity
  8
0
  6
Continuous
 62
     7
370
    25
100
AcDbCircle
 10
149.7325409013
 20
103.9461679858
 30
0.0
 40
0.2999999999999972
100
AcDbArc
 50
180.0
 51
270.0
  0
ARC
  5
139
330
1F
100
AcDbEntity
  8
0
  6
Continuous
 62
     7
370
    25
100
AcDbCircle
 10
149.7325409013
 20
122.0461679858
 30
0.0
 40
0.2999999999999829
100
AcDbArc
 50
90.0
 51
180.0
  0
LINE
  5
13A
330
1F
100
AcDbEntity
  8
0
  6
Continuous
 62
     7
370
    25
100
AcDbLine
 10
145.5594846261
 20
104.4961679858
 30
0.0
 11
145.7038221934
 21
104.7461679858
 31
0.0
  0
LINE
  5
13B
330
1F
100
AcDbEntity
  8
0
  6
Continuous
 62
     7
370
    25
100
AcDbLine
 10
145.7038221934
 20
121.2461679858
 30
0.0
 11
145.5594846261
 21
121.4961679858
 31
0.0
  0
LINE
  5
13C
330
1F
100
AcDbEntity
  8
0
  6
Continuous
 62
     7
370
    25
100
AcDbLine
 10
140.7038221934
 20
121.5032304858
 30
0.0
 11
130.7768160443
 21
121.1930115436
 31
0.0
  0
LINE
  5
13D
330
1F
100
AcDbEntity
  8
0
  6
Continuous
 62
     7
370
    25
100
AcDbLine
 10
130.7768160443
 20
104.7993244279
 30
0.0
 11
140.7038221934
 21
104.4891054858
 31
0.0
  0
LINE
  5
13E
330
1F
100
AcDbEntity
  8
0
  6
Continuous
 62
     7
370
    25
100
AcDbLine
 10
149.2038221934
 20
104.6651679858
 30
0.0
 11
149.4325409013
 21
104.6651679858
 31
0.0
  0
LINE
  5
13F
330
1F
100
AcDbEntity
  8
0
  6
Continuous
 62
     7
370
    25
100
AcDbLine
 10
149.4325409013
 20
121.3271679858
 30
0.0
 11
149.2038221934
 21
121.3271679858
 31
0.0
  0
LINE
  5
140
330
1F
100
AcDbEntity
  8
0
  6
Continuous
 62
     7
370
    25
100
AcDbLine
 10
149.2038221934
 20
121.3271679858
 30
0.0
 11
148.2038221934
 21
120.3271679858
 31
0.0
  0
LINE
  5
141
330
1F
100
AcDbEntity
  8
0
  6
Continuous
 62
     7
370
    25
100
AcDbLine
 10
148.2038221934
 20
105.6651679858
 30
0.0
 11
149.2038221934
 21
104.6651679858
 31
0.0
  0
LINE
  5
142
330
1F
100
AcDbEntity
  8
0
  6
Continuous
 62
     7
370
    25
100
AcDbLine
 10
130.7768160443
 20
121.1930115436
 30
0.0
 11
128.7038221934
 21
119.9961679858
 31
0.0
  0
LINE
  5
143
330
1F
100
AcDbEntity
  8
0
  6
Continuous
 62
     7
370
    25
100
AcDbLine
 10
128.7038221934
 20
105.9961679858
 30
0.0
 11
130.7768160443
 21
104.7993244279
 31
0.0
  0
LINE
  5
144
330
1F
100
AcDbEntity
  8
0
  6
Continuous
 62
     7
370
    25
100
AcDbLine
 10
145.7038221934
 20
106.0461679858
 30
0.0
 11
148.2038221934
 21
106.0461679858
 31
0.0
  0
LINE
  5
145
330
1F
100
AcDbEntity
  8
0
  6
Continuous
 62
     7
370
    25
100
AcDbLine
 10
148.2038221934
 20
119.9461679858
 30
0.0
 11
145.7038221934
 21
119.9461679858
 31
0.0
  0
LINE
  5
146
330
1F
100
AcDbEntity
  8
0
  6
Continuous
 62
     7
370
    25
100
AcDbLine
 10
167.9325409013
 20
107.7461679858
 30
0.0
 11
167.9325409013
 21
118.2461679858
 31
0.0
  0
LINE
  5
147
330
1F
100
AcDbEntity
  8
0
  6
Continuous
 62
     7
370
    25
100
AcDbLine
 10
171.9325409013
 20
107.7461679858
 30
0.0
 11
171.9325409013
 21
118.2461679858
 31
0.0
  0
LINE
  5
148
330
1F
100
AcDbEntity
  8
0
  6
Continuous
 62
     7
370
    25
100
AcDbLine
 10
175.9325409013
 20
107.7461679858
 30
0.0
 11
175.9325409013
 21
118.2461679858
 31
0.0
  0
LINE
  5
149
330
1F
100
AcDbEntity
  8
0
  6
Continuous
 62
     7
370
    25
100
AcDbLine
 10
183.9325409013
 20
107.7461679858
 30
0.0
 11
183.9325409013
 21
118.2461679858
 31
0.0
  0
LINE
  5
14A
330
1F
100
AcDbEntity
  8
0
  6
Continuous
 62
     7
370
    25
100
AcDbLine
 10
189.4753980441
 20
108.4390251286
 30
0.0
 11
189.4753980441
 21
117.5533108429
 31
0.0
  0
LINE
  5
14B
330
1F
100
AcDbEntity
  8
0
  6
Continuous
 62
     7
370
    25
100
AcDbLine
 10
179.9325409013
 20
107.7461679858
 30
0.0
 11
179.9325409013
 21
118.2461679858
 31
0.0
  0
LINE
  5
14C
330
1F
100
AcDbEntity
  8
0
  6
Continuous
 62
     7
370
    25
100
AcDbLine
 10
189.9325409013
 20
117.0961679858
 30
0.0
 11
189.9325409013
 21
108.8961679858
 31
0.0
  0
LINE
  5
14D
330
1F
100
AcDbEntity
  8
0
  6
Continuous
 62
     7
370
    25
100
AcDbLine
 10
160.4974325849
 20
122.4961679858
 30
0.0
 11
156.5887110165
 21
122.4961679858
 31
0.0
  0
SPLINE
  5
14E
330
1F
100
AcDbEntity
  8
0
  6
Continuous
 62
     7
370
    25
100
AcDbSpline
210
0.0
220
0.0
230
1.0
 70
     8
 71
     3
 72
    15
 73
    11
 74
     0
 42
0.000000001
 43
0.00000001
 40
0.0
 40
0.0
 40
0.0
 40
0.0
 40
0.1323056949471118
 40
0.2645739819647152
 40
0.3998011884071374
 40
0.5350039926534303
 40
0.6501943985256683
 40
0.7654027729264453
 40
0.8826900467077623
 40
1.0
 40
1.0
 40
1.0
 40
1.0
 10
160.4974325848771
 20
112.9961679857598
 30
0.0
 10
160.6265994453107
 20
113.4066072069352
 30
0.0
 10
160.8848966457182
 20
114.2273696022672
 30
0.0
 10
161.1628141548531
 20
115.4912711970519
 30
0.0
 10
161.3299174844081
 20
116.7789976472369
 30
0.0
 10
161.3630097781011
 20
118.0200751538187
 30
0.0
 10
161.2771491668613
 20
119.1941005708467
 30
0.0
 10
161.1012207134636
 20
120.3020884783012
 30
0.0
 10
160.8431539492839
 20
121.405066805666
 30
0.0
 10
160.6126804666297
 20
122.1324441528421
 30
0.0
 10
160.4974325848771
 20
122.4961679857598
 30
0.0
  0
LINE
  5
14F
330
1F
100
AcDbEntity
  8
0
  6
Continuous
 62
     7
370
    25
100
AcDbLine
 10
160.4974325849
 20
112.9961679858
 30
0.0
 11
156.5887110165
 21
112.9961679858
 31
0.0
  0
LINE
  5
150
330
1F
100
AcDbEntity
  8
0
  6
Continuous
 62
     7
370
    25
100
AcDbLine
 10
156.4325409013
 20
113.539785312
 30
0.0
 11
156.5887110165
 21
112.9961679858
 31
0.0
  0
LINE
  5
151
330
1F
100
AcDbEntity
  8
0
  6
Continuous
 62
     7
370
    25
100
AcDbLine
 10
156.2763707861
 20
112.9961679858
 30
0.0
 11
156.4325409013
 21
113.539785312
 31
0.0
  0
LINE
  5
152
330
1F
100
AcDbEntity
  8
0
  6
Continuous
 62
     7
370
    25
100
AcDbLine
 10
156.2763707861
 20
112.9961679858
 30
0.0
 11
152.3676492177
 21
112.9961679858
 31
0.0
  0
SPLINE
  5
153
330
1F
100
AcDbEntity
  8
0
  6
Continuous
 62
     7
370
    25
100
AcDbSpline
210
0.0
220
0.0
230
1.0
 70
     8
 71
     3
 72
    15
 73
    11
 74
     0
 42
0.000000001
 43
0.00000001
 40
0.0
 40
0.0
 40
0.0
 40
0.0
 40
0.1323056949471118
 40
0.2645739819647153
 40
0.3998011884071373
 40
0.5350039926534302
 40
0.6501943985256682
 40
0.7654027729264454
 40
0.8826900467077625
 40
1.0
 40
1.0
 40
1.0
 40
1.0
 10
152.3676492176978
 20
112.9961679857598
 30
0.0
 10
152.2384823572642
 20
113.4066072069352
 30
0.0
 10
151.9801851568567
 20
114.2273696022672
 30
0.0
 10
151.7022676477218
 20
115.4912711970519
 30
0.0
 10
151.5351643181669
 20
116.7789976472369
 30
0.0
 10
151.5020720244737
 20
118.0200751538187
 30
0.0
 10
151.5879326357136
 20
119.1941005708467
 30
0.0
 10
151.7638610891113
 20
120.3020884783012
 30
0.0
 10
152.021927853291
 20
121.405066805666
 30
0.0
 10
152.2524013359452
 20
122.1324441528421
 30
0.0
 10
152.3676492176978
 20
122.4961679857598
 30
0.0
  0
LINE
  5
154
330
1F
100
AcDbEntity
  8
0
  6
Continuous
 62
     7
370
    25
100
AcDbLine
 10
156.2763707861
 20
122.4961679858
 30
0.0
 11
152.3676492177
 21
122.4961679858
 31
0.0
  0
LINE
  5
155
330
1F
100
AcDbEntity
  8
0
  6
Continuous
 62
     7
370
    25
100
AcDbLine
 10
156.4325409013
 20
121.9525506596
 30
0.0
 11
156.2763707861
 21
122.4961679858
 31
0.0
  0
LINE
  5
156
330
1F
100
AcDbEntity
  8
0
  6
Continuous
 62
     7
370
    25
100
AcDbLine
 10
156.5887110165
 20
122.4961679858
 30
0.0
 11
156.4325409013
 21
121.9525506596
 31
0.0
  0
SPLINE
  5
157
330
1F
100
AcDbEntity
  8
0
  6
Continuous
 62
     7
370
    25
100
AcDbSpline
210
0.0
220
0.0
230
1.0
 70
     8
 71
     3
 72
    15
 73
    11
 74
     0
 42
0.000000001
 43
0.00000001
 40
0.0
 40
0.0
 40
0.0
 40
0.0
 40
0.1323056949471119
 40
0.2645739819647157
 40
0.399801188407138
 40
0.535003992653431
 40
0.6501943985256687
 40
0.7654027729264458
 40
0.8826900467077626
 40
1.0
 40
1.0
 40
1.0
 40
1.0
 10
160.4974325848771
 20
103.4961679857598
 30
0.0
 10
160.6265994453107
 20
103.9066072069352
 30
0.0
 10
160.8848966457182
 20
104.7273696022672
 30
0.0
 10
161.1628141548531
 20
105.9912711970519
 30
0.0
 10
161.329917484408
 20
107.278997647237
 30
0.0
 10
161.3630097781011
 20
108.5200751538187
 30
0.0
 10
161.2771491668613
 20
109.6941005708467
 30
0.0
 10
161.1012207134636
 20
110.8020884783013
 30
0.0
 10
160.8431539492839
 20
111.905066805666
 30
0.0
 10
160.6126804666297
 20
112.6324441528421
 30
0.0
 10
160.4974325848771
 20
112.9961679857598
 30
0.0
  0
SPLINE
  5
158
330
1F
100
AcDbEntity
  8
0
  6
Continuous
 62
     7
370
    25
100
AcDbSpline
210
0.0
220
0.0
230
1.0
 70
    24
 71
     3
 72
    13
 73
     9
 74
     0
 42
0.000000001
 43
0.00000001
 40
0.0
 40
0.0
 40
0.0
 40
0.0
 40
0.1858090257995749
 40
0.3719389088343352
 40
0.5593169994322328
 40
0.7472591314666763
 40
0.9968271939164224
 40
1.0
 40
1.0
 40
1.0
 40
1.0
 10
160.4974325848771
 20
122.4961679857598
 30
0.0
 10
160.5896567270166
 20
122.4961679857599
 30
0.0
 10
160.7742642650408
 20
122.4961679857599
 30
0.0
 10
160.9987155669093
 20
122.4961679857598
 30
0.0
 10
161.1785547768112
 20
122.4961679857599
 30
0.0
 10
161.3032991435512
 20
122.4961679857598
 30
0.0
 10
161.3649769867773
 20
122.4961679857599
 30
0.0
 10
161.3454469154929
 20
122.4961679857598
 30
0.0
 10
161.3452017429201
 20
122.4961679857598
 30
0.0
  0
SPLINE
  5
159
330
1F
100
AcDbEntity
  8
0
  6
Continuous
 62
     7
370
    25
100
AcDbSpline
210
0.0
220
0.0
230
1.0
 70
    24
 71
     3
 72
    12
 73
     8
 74
     0
 42
0.000000001
 43
0.00000001
 40
0.0
 40
0.0
 40
0.0
 40
0.0
 40
0.2528034915430488
 40
0.4383372455169202
 40
0.624458249062354
 40
0.8120455776121117
 40
1.0
 40
1.0
 40
1.0
 40
1.0
 10
161.344753795046
 20
103.4961679857598
 30
0.0
 10
161.3338196946023
 20
103.4961679857598
 30
0.0
 10
161.3148610028474
 20
103.4961679857598
 30
0.0
 10
161.1774726348492
 20
103.4961679857598
 30
0.0
 10
161.002364117535
 20
103.4961679857599
 30
0.0
 10
160.7768561708693
 20
103.4961679857598
 30
0.0
 10
160.590634457743
 20
103.4961679857598
 30
0.0
 10
160.4974325848771
 20
103.4961679857598
 30
0.0
  0
LINE
  5
15A
330
1F
100
AcDbEntity
  8
0
  6
Continuous
 62
     7
370
    25
100
AcDbLine
 10
161.4325409013
 20
103.6461679858
 30
0.0
 11
161.4325409013
 21
122.3461679858
 31
0.0
  0
SPLINE
  5
15B
330
1F
100
AcDbEntity
  8
0
  6
Continuous
 62
     7
370
    25
100
AcDbSpline
210
0.0
220
0.0
230
1.0
 70
     8
 71
     3
 72
    15
 73
    11
 74
     0
 42
0.000000001
 43
0.00000001
 40
0.0
 40
0.0
 40
0.0
 40
0.0
 40
0.1323056949471118
 40
0.2645739819647155
 40
0.3998011884071377
 40
0.5350039926534309
 40
0.6501943985256686
 40
0.7654027729264457
 40
0.8826900467077626
 40
1.0
 40
1.0
 40
1.0
 40
1.0
 10
152.3676492176978
 20
103.4961679857598
 30
0.0
 10
152.2384823572642
 20
103.9066072069352
 30
0.0
 10
151.9801851568567
 20
104.7273696022672
 30
0.0
 10
151.7022676477218
 20
105.9912711970519
 30
0.0
 10
151.5351643181668
 20
107.278997647237
 30
0.0
 10
151.5020720244737
 20
108.5200751538187
 30
0.0
 10
151.5879326357136
 20
109.6941005708467
 30
0.0
 10
151.7638610891113
 20
110.8020884783013
 30
0.0
 10
152.021927853291
 20
111.905066805666
 30
0.0
 10
152.2524013359452
 20
112.6324441528421
 30
0.0
 10
152.3676492176978
 20
112.9961679857598
 30
0.0
  0
SPLINE
  5
15C
330
1F
100
AcDbEntity
  8
0
  6
Continuous
 62
     7
370
    25
100
AcDbSpline
210
0.0
220
0.0
230
1.0
 70
    24
 71
     3
 72
    12
 73
     8
 74
     0
 42
0.000000001
 43
0.00000001
 40
0.0
 40
0.0
 40
0.0
 40
0.0
 40
0.2528034915430469
 40
0.4383372455169187
 40
0.624458249062353
 40
0.8120455776121113
 40
1.0
 40
1.0
 40
1.0
 40
1.0
 10
151.5203280075289
 20
103.4961679857599
 30
0.0
 10
151.5312621079726
 20
103.4961679857598
 30
0.0
 10
151.5502207997275
 20
103.4961679857598
 30
0.0
 10
151.6876091677257
 20
103.4961679857599
 30
0.0
 10
151.8627176850399
 20
103.4961679857598
 30
0.0
 10
152.0882256317056
 20
103.4961679857598
 30
0.0
 10
152.2744473448319
 20
103.4961679857598
 30
0.0
 10
152.3676492176978
 20
103.4961679857598
 30
0.0
  0
SPLINE
  5
15D
330
1F
100
AcDbEntity
  8
0
  6
Continuous
 62
     7
370
    25
100
AcDbSpline
210
0.0
220
0.0
230
1.0
 70
    24
 71
     3
 72
    13
 73
     9
 74
     0
 42
0.000000001
 43
0.00000001
 40
0.0
 40
0.0
 40
0.0
 40
0.0
 40
0.1858090257995752
 40
0.3719389088343363
 40
0.5593169994322342
 40
0.7472591314666784
 40
0.9968271939164253
 40
1.0
 40
1.0
 40
1.0
 40
1.0
 10
152.3676492176978
 20
122.4961679857598
 30
0.0
 10
152.2754250755583
 20
122.4961679857598
 30
0.0
 10
152.0908175375341
 20
122.4961679857598
 30
0.0
 10
151.8663662356656
 20
122.4961679857599
 30
0.0
 10
151.6865270257637
 20
122.4961679857598
 30
0.0
 10
151.5617826590238
 20
122.4961679857599
 30
0.0
 10
151.5001048157974
 20
122.4961679857598
 30
0.0
 10
151.519634887082
 20
122.4961679857599
 30
0.0
 10
151.5198800596548
 20
122.4961679857598
 30
0.0
  0
LINE
  5
15E
330
1F
100
AcDbEntity
  8
0
  6
Continuous
 62
     7
370
    25
100
AcDbLine
 10
151.4325409013
 20
103.6461679858
 30
0.0
 11
151.4325409013
 21
122.3461679858
 31
0.0
  0
LINE
  5
15F
330
1F
100
AcDbEntity
  8
0
  6
Continuous
 62
     7
370
    25
100
AcDbLine
 10
156.5887110165
 20
112.9961679858
 30
0.0
 11
156.4325409013
 21
112.4525506596
 31
0.0
  0
LINE
  5
160
330
1F
100
AcDbEntity
  8
0
  6
Continuous
 62
     7
370
    25
100
AcDbLine
 10
156.4325409013
 20
113.539785312
 30
0.0
 11
156.4325409013
 21
112.4525506596
 31
0.0
  0
LINE
  5
161
330
1F
100
AcDbEntity
  8
0
  6
Continuous
 62
     7
370
    25
100
AcDbLine
 10
160.4974325849
 20
103.4961679858
 30
0.0
 11
156.5887110165
 21
103.4961679858
 31
0.0
  0
LINE
  5
162
330
1F
100
AcDbEntity
  8
0
  6
Continuous
 62
     7
370
    25
100
AcDbLine
 10
156.4325409013
 20
104.039785312
 30
0.0
 11
156.5887110165
 21
103.4961679858
 31
0.0
  0
LINE
  5
163
330
1F
100
AcDbEntity
  8
0
  6
Continuous
 62
     7
370
    25
100
AcDbLine
 10
156.2763707861
 20
103.4961679858
 30
0.0
 11
156.4325409013
 21
104.039785312
 31
0.0
  0
LINE
  5
164
330
1F
100
AcDbEntity
  8
0
  6
Continuous
 62
     7
370
    25
100
AcDbLine
 10
156.2763707861
 20
103.4961679858
 30
0.0
 11
152.3676492177
 21
103.4961679858
 31
0.0
  0
LINE
  5
165
330
1F
100
AcDbEntity
  8
0
  6
Continuous
 62
     7
370
    25
100
AcDbLine
 10
156.4325409013
 20
112.4525506596
 30
0.0
 11
156.2763707861
 21
112.9961679858
 31
0.0
  0
LINE
  5
166
330
1F
100
AcDbEntity
  8
0
  6
Continuous
 62
     7
370
    25
100
AcDbLine
 10
163.4325409013
 20
122.0461679858
 30
0.0
 11
163.4325409013
 21
103.946167986
 31
0.0
  0
LINE
  5
167
330
1F
100
AcDbEntity
  8
0
  6
Continuous
 62
     7
370
    25
100
AcDbLine
 10
149.4325409013
 20
103.9461679858
 30
0.0
 11
149.4325409013
 21
122.0461679856
 31
0.0
  0
LINE
  5
168
330
1F
100
AcDbEntity
  8
0
  6
Continuous
 62
     7
370
    25
100
AcDbLine
 10
156.2763707861
 20
122.4961679858
 30
0.0
 11
156.4325409013
 21
122.4961679858
 31
0.0
  0
LINE
  5
169
330
1F
100
AcDbEntity
  8
0
  6
Continuous
 62
     7
370
    25
100
AcDbLine
 10
156.4325409013
 20
122.4961679858
 30
0.0
 11
156.4325409013
 21
121.9525506596
 31
0.0
  0
LINE
  5
16A
330
1F
100
AcDbEntity
  8
0
  6
Continuous
 62
     7
370
    25
100
AcDbLine
 10
156.4325409013
 20
122.4961679858
 30
0.0
 11
156.5887110165
 21
122.4961679858
 31
0.0
  0
LINE
  5
16B
330
1F
100
AcDbEntity
  8
0
  6
Continuous
 62
     7
370
    25
100
AcDbLine
 10
156.5887110165
 20
103.4961679858
 30
0.0
 11
156.4325409013
 21
103.4961679858
 31
0.0
  0
LINE
  5
16C
330
1F
100
AcDbEntity
  8
0
  6
Continuous
 62
     7
370
    25
100
AcDbLine
 10
156.4325409013
 20
104.039785312
 30
0.0
 11
156.4325409013
 21
103.4961679858
 31
0.0
  0
LINE
  5
16D
330
1F
100
AcDbEntity
  8
0
  6
Continuous
 62
     7
370
    25
100
AcDbLine
 10
156.4325409013
 20
103.4961679858
 30
0.0
 11
156.2763707861
 21
103.4961679858
 31
0.0
  0
SPLINE
  5
16E
330
1F
100
AcDbEntity
  8
0
  6
Continuous
 62
     7
370
    25
100
AcDbSpline
210
0.0
220
0.0
230
1.0
 70
     8
 71
     3
 72
    16
 73
    12
 74
     0
 42
0.000000001
 43
0.00000001
 40
0.0
 40
0.0
 40
0.0
 40
0.0
 40
0.2500000000000001
 40
0.2500000000000001
 40
0.5000000000000001
 40
0.5000000000000001
 40
0.625
 40
0.625
 40
0.7499999999999999
 40
0.7499999999999999
 40
1.0
 40
1.0
 40
1.0
 40
1.0
 10
144.8002952475457
 20
121.4961679857599
 30
0.0
 10
145.0316100012284
 20
120.802223724712
 30
0.0
 10
145.2222552945588
 20
120.1032199981678
 30
0.0
 10
145.4863609509661
 20
118.6906342077675
 30
0.0
 10
145.5589501422801
 20
117.9769437661891
 30
0.0
 10
145.559747388371
 20
116.892961647452
 30
0.0
 10
145.5420021317476
 20
116.5299342191332
 30
0.0
 10
145.4728050482178
 20
115.8118276562694
 30
0.0
 10
145.4214234421555
 20
115.4551819196853
 30
0.0
 10
145.2230154434189
 20
114.3915943008294
 30
0.0
 10
145.0318983417149
 20
113.690977268268
 30
0.0
 10
144.8002952475455
 20
112.9961679857598
 30
0.0
  0
SPLINE
  5
16F
330
1F
100
AcDbEntity
  8
0
  6
Continuous
 62
     7
370
    25
100
AcDbSpline
210
0.0
220
0.0
230
1.0
 70
    24
 71
     3
 72
    12
 73
     8
 74
     0
 42
0.000000001
 43
0.00000001
 40
0.0
 40
0.0
 40
0.0
 40
0.0
 40
0.2489778471599984
 40
0.4354449913490224
 40
0.6225101399495906
 40
0.8110683071845447
 40
1.0
 40
1.0
 40
1.0
 40
1.0
 10
145.5575901733966
 20
121.4961679857599
 30
0.0
 10
145.5484654245976
 20
121.4961679857599
 30
0.0
 10
145.5325068716292
 20
121.4961679857599
 30
0.0
 10
145.4108508568168
 20
121.4961679857599
 30
0.0
 10
145.2540431909483
 20
121.4961679857599
 30
0.0
 10
145.0515530919414
 20
121.4961679857599
 30
0.0
 10
144.8841030928413
 20
121.4961679857599
 30
0.0
 10
144.8002952475453
 20
121.4961679857599
 30
0.0
  0
SPLINE
  5
170
330
1F
100
AcDbEntity
  8
0
  6
Continuous
 62
     7
370
    25
100
AcDbSpline
210
0.0
220
0.0
230
1.0
 70
    24
 71
     3
 72
    11
 73
     7
 74
     0
 42
0.000000001
 43
0.00000001
 40
0.0
 40
0.0
 40
0.0
 40
0.0
 40
0.3737352794996531
 40
0.5620792679362961
 40
0.7509978394655396
 40
1.0
 40
1.0
 40
1.0
 40
1.0
 10
144.8002952475453
 20
104.4961679857599
 30
0.0
 10
144.9607538602373
 20
104.4961679857599
 30
0.0
 10
145.2020756312959
 20
104.4961679857599
 30
0.0
 10
145.4090502875097
 20
104.4961679857599
 30
0.0
 10
145.5322550435629
 20
104.4961679857599
 30
0.0
 10
145.549506487042
 20
104.4961679857599
 30
0.0
 10
145.5593156748336
 20
104.4961679857598
 30
0.0
  0
SPLINE
  5
171
330
1F
100
AcDbEntity
  8
0
  6
Continuous
 62
     7
370
    25
100
AcDbSpline
210
0.0
220
0.0
230
1.0
 70
     8
 71
     3
 72
    16
 73
    12
 74
     0
 42
0.000000001
 43
0.00000001
 40
0.0
 40
0.0
 40
0.0
 40
0.0
 40
0.2499999999999999
 40
0.2499999999999999
 40
0.4999999999999998
 40
0.4999999999999998
 40
0.6249999999999999
 40
0.6249999999999999
 40
0.7500000000000001
 40
0.7500000000000001
 40
1.0
 40
1.0
 40
1.0
 40
1.0
 10
144.8002952475457
 20
112.9961679857599
 30
0.0
 10
145.0316100012284
 20
112.302223724712
 30
0.0
 10
145.2222552945588
 20
111.6032199981678
 30
0.0
 10
145.4863609509661
 20
110.1906342077675
 30
0.0
 10
145.5589501422801
 20
109.4769437661891
 30
0.0
 10
145.559747388371
 20
108.392961647452
 30
0.0
 10
145.5420021317476
 20
108.0299342191332
 30
0.0
 10
145.4728050482178
 20
107.3118276562694
 30
0.0
 10
145.4214234421555
 20
106.9551819196853
 30
0.0
 10
145.2230154434189
 20
105.8915943008295
 30
0.0
 10
145.0318983417149
 20
105.190977268268
 30
0.0
 10
144.8002952475455
 20
104.4961679857599
 30
0.0
  0
LINE
  5
172
330
1F
100
AcDbEntity
  8
0
  6
Continuous
 62
     7
370
    25
100
AcDbLine
 10
145.7038221934
 20
121.2461679858
 30
0.0
 11
145.7038221934
 21
104.7461679858
 31
0.0
  0
LINE
  5
173
330
1F
100
AcDbEntity
  8
0
  6
Continuous
 62
     7
370
    25
100
AcDbLine
 10
140.7038221934
 20
112.9961679858
 30
0.0
 11
143.1502323549
 21
112.9961679858
 31
0.0
  0
LINE
  5
174
330
1F
100
AcDbEntity
  8
0
  6
Continuous
 62
     7
370
    25
100
AcDbLine
 10
140.7038221934
 20
112.9961679858
 30
0.0
 11
140.7038221934
 21
116.946027545
 31
0.0
  0
LINE
  5
175
330
1F
100
AcDbEntity
  8
0
  6
Continuous
 62
     7
370
    25
100
AcDbLine
 10
140.7038221934
 20
117.5463084265
 30
0.0
 11
140.7038221934
 21
121.4961679858
 31
0.0
  0
LINE
  5
176
330
1F
100
AcDbEntity
  8
0
  6
Continuous
 62
     7
370
    25
100
AcDbLine
 10
140.7038221934
 20
121.4961679858
 30
0.0
 11
143.1502323549
 21
121.4961679858
 31
0.0
  0
SPLINE
  5
177
330
1F
100
AcDbEntity
  8
0
  6
Continuous
 62
     7
370
    25
100
AcDbSpline
210
0.0
220
0.0
230
1.0
 70
     8
 71
     3
 72
     8
 73
     4
 74
     0
 42
0.000000001
 43
0.00000001
 40
0.0
 40
0.0
 40
0.0
 40
0.0
 40
1.0
 40
1.0
 40
1.0
 40
1.0
 10
143.2038221933976
 20
121.1382129016277
 30
0.0
 10
143.1865540975419
 20
121.2576179406765
 30
0.0
 10
143.1686778526736
 20
121.3769344138831
 30
0.0
 10
143.1502323549114
 20
121.4961679857599
 30
0.0
  0
SPLINE
  5
178
330
1F
100
AcDbEntity
  8
0
  6
Continuous
 62
     7
370
    25
100
AcDbSpline
210
0.0
220
0.0
230
1.0
 70
     8
 71
     3
 72
     8
 73
     4
 74
     0
 42
0.000000001
 43
0.00000001
 40
0.0
 40
0.0
 40
0.0
 40
0.0
 40
1.0
 40
1.0
 40
1.0
 40
1.0
 10
143.2574120318838
 20
121.4961679857599
 30
0.0
 10
143.238961201608
 20
121.3768999439738
 30
0.0
 10
143.2210851889339
 20
121.2575826731037
 30
0.0
 10
143.2038221933976
 20
121.1382129016277
 30
0.0
  0
LINE
  5
179
330
1F
100
AcDbEntity
  8
0
  6
Continuous
 62
     7
370
    25
100
AcDbLine
 10
143.2574120319
 20
121.4961679858
 30
0.0
 11
144.8002952475
 21
121.4961679858
 31
0.0
  0
LINE
  5
17A
330
1F
100
AcDbEntity
  8
0
  6
Continuous
 62
     7
370
    25
100
AcDbLine
 10
143.2574120319
 20
112.9961679858
 30
0.0
 11
144.8002952475
 21
112.9961679858
 31
0.0
  0
SPLINE
  5
17B
330
1F
100
AcDbEntity
  8
0
  6
Continuous
 62
     7
370
    25
100
AcDbSpline
210
0.0
220
0.0
230
1.0
 70
     8
 71
     3
 72
     8
 73
     4
 74
     0
 42
0.000000001
 43
0.00000001
 40
0.0
 40
0.0
 40
0.0
 40
0.0
 40
1.0
 40
1.0
 40
1.0
 40
1.0
 10
143.2038221933976
 20
113.354123069892
 30
0.0
 10
143.2210902892532
 20
113.2347180308433
 30
0.0
 10
143.2389665341216
 20
113.1154015576366
 30
0.0
 10
143.2574120318838
 20
112.9961679857598
 30
0.0
  0
SPLINE
  5
17C
330
1F
100
AcDbEntity
  8
0
  6
Continuous
 62
     7
370
    25
100
AcDbSpline
210
0.0
220
0.0
230
1.0
 70
     8
 71
     3
 72
     8
 73
     4
 74
     0
 42
0.000000001
 43
0.00000001
 40
0.0
 40
0.0
 40
0.0
 40
0.0
 40
1.0
 40
1.0
 40
1.0
 40
1.0
 10
143.1502323549114
 20
112.9961679857598
 30
0.0
 10
143.1686831851871
 20
113.1154360275459
 30
0.0
 10
143.1865591978612
 20
113.2347532984161
 30
0.0
 10
143.2038221933976
 20
113.354123069892
 30
0.0
  0
LINE
  5
17D
330
1F
100
AcDbEntity
  8
0
  6
Continuous
 62
     7
370
    25
100
AcDbLine
 10
143.2038221934
 20
112.6382129016
 30
0.0
 11
143.2038221934
 21
113.3541230699
 31
0.0
  0
SPLINE
  5
17E
330
1F
100
AcDbEntity
  8
0
  6
Continuous
 62
     7
370
    25
100
AcDbSpline
210
0.0
220
0.0
230
1.0
 70
     8
 71
     3
 72
     8
 73
     4
 74
     0
 42
0.000000001
 43
0.00000001
 40
0.0
 40
0.0
 40
0.0
 40
0.0
 40
1.0
 40
1.0
 40
1.0
 40
1.0
 10
143.2038221933976
 20
112.6382129016277
 30
0.0
 10
143.1865540975419
 20
112.7576179406764
 30
0.0
 10
143.1686778526736
 20
112.8769344138831
 30
0.0
 10
143.1502323549114
 20
112.9961679857598
 30
0.0
  0
SPLINE
  5
17F
330
1F
100
AcDbEntity
  8
0
  6
Continuous
 62
     7
370
    25
100
AcDbSpline
210
0.0
220
0.0
230
1.0
 70
     8
 71
     3
 72
     8
 73
     4
 74
     0
 42
0.000000001
 43
0.00000001
 40
0.0
 40
0.0
 40
0.0
 40
0.0
 40
1.0
 40
1.0
 40
1.0
 40
1.0
 10
143.2574120318838
 20
112.9961679857598
 30
0.0
 10
143.238961201608
 20
112.8768999439738
 30
0.0
 10
143.2210851889339
 20
112.7575826731036
 30
0.0
 10
143.2038221933976
 20
112.6382129016277
 30
0.0
  0
LINE
  5
180
330
1F
100
AcDbEntity
  8
0
  6
Continuous
 62
     7
370
    25
100
AcDbLine
 10
140.7038221934
 20
104.4961679858
 30
0.0
 11
143.1502323549
 21
104.4961679858
 31
0.0
  0
LINE
  5
181
330
1F
100
AcDbEntity
  8
0
  6
Continuous
 62
     7
370
    25
100
AcDbLine
 10
140.7038221934
 20
104.4961679858
 30
0.0
 11
140.7038221934
 21
108.446027545
 31
0.0
  0
LINE
  5
182
330
1F
100
AcDbEntity
  8
0
  6
Continuous
 62
     7
370
    25
100
AcDbLine
 10
143.2574120319
 20
104.4961679858
 30
0.0
 11
144.8002952475
 21
104.4961679858
 31
0.0
  0
SPLINE
  5
183
330
1F
100
AcDbEntity
  8
0
  6
Continuous
 62
     7
370
    25
100
AcDbSpline
210
0.0
220
0.0
230
1.0
 70
     8
 71
     3
 72
     8
 73
     4
 74
     0
 42
0.000000001
 43
0.00000001
 40
0.0
 40
0.0
 40
0.0
 40
0.0
 40
1.0
 40
1.0
 40
1.0
 40
1.0
 10
143.2038221933976
 20
104.854123069892
 30
0.0
 10
143.2210902892532
 20
104.7347180308433
 30
0.0
 10
143.2389665341216
 20
104.6154015576367
 30
0.0
 10
143.2574120318838
 20
104.4961679857599
 30
0.0
  0
SPLINE
  5
184
330
1F
100
AcDbEntity
  8
0
  6
Continuous
 62
     7
370
    25
100
AcDbSpline
210
0.0
220
0.0
230
1.0
 70
     8
 71
     3
 72
     8
 73
     4
 74
     0
 42
0.000000001
 43
0.00000001
 40
0.0
 40
0.0
 40
0.0
 40
0.0
 40
1.0
 40
1.0
 40
1.0
 40
1.0
 10
143.1502323549114
 20
104.4961679857599
 30
0.0
 10
143.1686831851871
 20
104.6154360275459
 30
0.0
 10
143.1865591978612
 20
104.7347532984161
 30
0.0
 10
143.2038221933976
 20
104.854123069892
 30
0.0
  0
LINE
  5
185
330
1F
100
AcDbEntity
  8
0
  6
Continuous
 62
     7
370
    25
100
AcDbLine
 10
140.7038221934
 20
109.0463084265
 30
0.0
 11
140.7038221934
 21
112.9961679858
 31
0.0
  0
LINE
  5
186
330
1F
100
AcDbEntity
  8
0
  6
Continuous
 62
     7
370
    25
100
AcDbLine
 10
130.7768160443
 20
121.1930115436
 30
0.0
 11
130.7768160443
 21
104.7993244279
 31
0.0
  0
LINE
  5
187
330
1F
100
AcDbEntity
  8
0
  6
Continuous
 62
     7
370
    25
100
AcDbLine
 10
140.7038221934
 20
104.4891054858
 30
0.0
 11
140.7038221934
 21
104.4961679858
 31
0.0
  0
LINE
  5
188
330
1F
100
AcDbEntity
  8
0
  6
Continuous
 62
     7
370
    25
100
AcDbLine
 10
140.7038221934
 20
121.4961679858
 30
0.0
 11
140.7038221934
 21
121.5032304858
 31
0.0
  0
LINE
  5
189
330
1F
100
AcDbEntity
  8
0
  6
Continuous
 62
     7
370
    25
100
AcDbLine
 10
140.7038221934
 20
116.946027545
 30
0.0
 11
140.7038221934
 21
117.5463084265
 31
0.0
  0
LINE
  5
18A
330
1F
100
AcDbEntity
  8
0
  6
Continuous
 62
     7
370
    25
100
AcDbLine
 10
140.7038221934
 20
108.446027545
 30
0.0
 11
140.7038221934
 21
109.0463084265
 31
0.0
  0
LINE
  5
18B
330
1F
100
AcDbEntity
  8
0
  6
Continuous
 62
     7
370
    25
100
AcDbLine
 10
149.2038221934
 20
121.3271679858
 30
0.0
 11
149.2038221934
 21
104.6651679858
 31
0.0
  0
LINE
  5
18C
330
1F
100
AcDbEntity
  8
0
  6
Continuous
 62
     7
370
    25
100
AcDbLine
 10
148.2038221934
 20
105.6651679858
 30
0.0
 11
148.2038221934
 21
120.3271679858
 31
0.0
  0
LINE
  5
18D
330
1F
100
AcDbEntity
  8
0
  6
Continuous
 62
     7
370
    25
100
AcDbLine
 10
128.7038221934
 20
105.9961679858
 30
0.0
 11
128.7038221934
 21
119.9961679858
 31
0.0
  0
SPLINE
  5
18E
330
1F
100
AcDbEntity
  8
0
  6
Continuous
 62
     7
370
    25
100
AcDbSpline
210
0.0
220
0.0
230
1.0
 70
    24
 71
     3
 72
     8
 73
     4
 74
     0
 42
0.000000001
 43
0.00000001
 40
0.0
 40
0.0
 40
0.0
 40
0.0
 40
1.0
 40
1.0
 40
1.0
 40
1.0
 10
143.2574120318838
 20
104.4961679857599
 30
0.0
 10
143.2389604192489
 20
104.4961679857599
 30
0.0
 10
143.2210844411424
 20
104.4961679857599
 30
0.0
 10
143.2038221933976
 20
104.4961679857599
 30
0.0
  0
LINE
  5
18F
330
1F
100
AcDbEntity
  8
0
  6
Continuous
 62
     7
370
    25
100
AcDbLine
 10
143.2038221934
 20
104.4961679858
 30
0.0
 11
143.2038221934
 21
104.8541230699
 31
0.0
  0
SPLINE
  5
190
330
1F
100
AcDbEntity
  8
0
  6
Continuous
 62
     7
370
    25
100
AcDbSpline
210
0.0
220
0.0
230
1.0
 70
    24
 71
     3
 72
     8
 73
     4
 74
     0
 42
0.000000001
 43
0.00000001
 40
0.0
 40
0.0
 40
0.0
 40
0.0
 40
1.0
 40
1.0
 40
1.0
 40
1.0
 10
143.2038221933976
 20
104.4961679857599
 30
0.0
 10
143.1865543599698
 20
104.4961679857599
 30
0.0
 10
143.1686781268965
 20
104.4961679857599
 30
0.0
 10
143.1502323549114
 20
104.4961679857599
 30
0.0
  0
SPLINE
  5
191
330
1F
100
AcDbEntity
  8
0
  6
Continuous
 62
     7
370
    25
100
AcDbSpline
210
0.0
220
0.0
230
1.0
 70
    24
 71
     3
 72
     8
 73
     4
 74
     0
 42
0.000000001
 43
0.00000001
 40
0.0
 40
0.0
 40
0.0
 40
0.0
 40
1.0
 40
1.0
 40
1.0
 40
1.0
 10
143.1502323549114
 20
121.4961679857599
 30
0.0
 10
143.1686839675463
 20
121.4961679857599
 30
0.0
 10
143.1865599456528
 20
121.4961679857599
 30
0.0
 10
143.2038221933976
 20
121.4961679857599
 30
0.0
  0
LINE
  5
192
330
1F
100
AcDbEntity
  8
0
  6
Continuous
 62
     7
370
    25
100
AcDbLine
 10
143.2038221934
 20
121.1382129016
 30
0.0
 11
143.2038221934
 21
121.4961679858
 31
0.0
  0
SPLINE
  5
193
330
1F
100
AcDbEntity
  8
0
  6
Continuous
 62
     7
370
    25
100
AcDbSpline
210
0.0
220
0.0
230
1.0
 70
    24
 71
     3
 72
     8
 73
     4
 74
     0
 42
0.000000001
 43
0.00000001
 40
0.0
 40
0.0
 40
0.0
 40
0.0
 40
1.0
 40
1.0
 40
1.0
 40
1.0
 10
143.2038221933976
 20
121.4961679857599
 30
0.0
 10
143.2210900268254
 20
121.4961679857599
 30
0.0
 10
143.2389662598986
 20
121.4961679857599
 30
0.0
 10
143.2574120318838
 20
121.4961679857599
 30
0.0
  0
LINE
  5
194
330
1F
100
AcDbEntity
  8
0
  6
Continuous
 62
     8
370
    25
100
AcDbLine
 10
163.1325409013
 20
103.6461679858
 30
0.0
 11
163.1325409013
 21
122.3461679858
 31
0.0
  0
LINE
  5
195
330
1F
100
AcDbEntity
  8
0
  6
Continuous
 62
     8
370
    25
100
AcDbLine
 10
149.7325409013
 20
122.3461679858
 30
0.0
 11
149.7325409013
 21
103.6461679858
 31
0.0
  0
LINE
  5
196
330
1F
100
AcDbEntity
  8
0
  6
Continuous
 62
     7
370
     0
100
AcDbLine
 10
129.4550009884
 20
120.4298612653
 30
0.0
 11
140.2038221934
 21
120.7657619279
 31
0.0
  0
LINE
  5
197
330
1F
100
AcDbEntity
  8
0
  6
Continuous
 62
     7
370
     0
100
AcDbLine
 10
129.4550009884
 20
105.5624747063
 30
0.0
 11
140.2038221934
 21
105.2265740436
 31
0.0
  0
LINE
  5
198
330
1F
100
AcDbEntity
  8
0
  6
Continuous
 62
     7
370
     0
100
AcDbLine
 10
140.2038221934
 20
104.5047304858
 30
0.0
 11
140.2038221934
 21
121.4876054858
 31
0.0
  0
LINE
  5
199
330
1F
100
AcDbEntity
  8
0
  6
CENTERX2
 62
     7
370
    18
100
AcDbLine
 10
126.7038221934
 20
112.9961679858
 30
0.0
 11
142.7038221934
 21
112.9961679858
 31
0.0
  0
LINE
  5
19A
330
1F
100
AcDbEntity
  8
0
  6
CENTERX2
 62
     7
370
    18
100
AcDbLine
 10
191.8325409013
 20
112.9961679858
 30
0.0
 11
143.7038221934
 21
112.9961679858
 31
0.0
  0
ENDSEC
  0
SECTION
  2
OBJECTS
  0
DICTIONARY
  5
C
330
0
100
AcDbDictionary
281
     1
  3
ACAD_GROUP
350
D
  3
ACAD_LAYOUT
350
1A
  3
ACAD_MLINESTYLE
350
17
  3
ACAD_PLOTSETTINGS
350
19
  3
ACAD_PLOTSTYLENAME
350
E
  3
ACAD_SCALELIST
350
47
  0
DICTIONARY
  5
D
102
{ACAD_REACTORS
330
C
102
}
330
C
100
AcDbDictionary
281
     1
  0
DICTIONARY
  5
1A
102
{ACAD_REACTORS
330
C
102
}
330
C
100
AcDbDictionary
281
     1
  3
Layout1
350
1E
  3
Layout2
350
26
  3
Model
350
22
  0
DICTIONARY
  5
17
102
{ACAD_REACTORS
330
C
102
}
330
C
100
AcDbDictionary
281
     1
  3
Standard
350
18
  0
DICTIONARY
  5
19
102
{ACAD_REACTORS
330
C
102
}
330
C
100
AcDbDictionary
281
     1
  0
ACDBDICTIONARYWDFLT
  5
E
102
{ACAD_REACTORS
330
C
102
}
330
C
100
AcDbDictionary
281
     1
  3
Normal
350
F
100
AcDbDictionaryWithDefault
340
F
  0
DICTIONARY
  5
47
102
{ACAD_REACTORS
330
C
102
}
330
C
100
AcDbDictionary
281
     1
  3
A0
350
48
  3
A1
350
49
  3
A2
350
4A
  3
A3
350
4B
  3
A4
350
4C
  3
A5
350
4D
  3
A6
350
4E
  3
A7
350
4F
  3
A8
350
50
  3
A9
350
51
  3
B0
350
52
  3
B1
350
53
  3
B2
350
54
  3
B3
350
55
  3
B4
350
56
  3
B5
350
57
  3
B6
350
58
  3
B7
350
59
  3
B8
350
5A
  3
B9
350
5B
  3
C0
350
5C
  3
C1
350
5D
  3
C2
350
5E
  3
C3
350
5F
  3
C4
350
60
  3
C5
350
61
  3
C6
350
62
  3
C7
350
63
  3
C8
350
64
  3
C9
350
65
  3
D0
350
66
  3
D1
350
67
  3
D2
350
68
  0
LAYOUT
  5
1E
102
{ACAD_REACTORS
330
1A
102
}
330
1A
100
AcDbPlotSettings
  1

  2
none_device
  4

  6

 40
0.0
 41
0.0
 42
0.0
 43
0.0
 44
0.0
 45
0.0
 46
0.0
 47
0.0
 48
0.0
 49
0.0
140
0.0
141
0.0
142
1.0
143
1.0
 70
   688
 72
     1
 73
     0
 74
     5
  7

 75
    16
147
1.0
148
0.0
149
0.0
100
AcDbLayout
  1
Layout1
 70
     1
 71
     1
 10
0.0
 20
0.0
 11
420.0
 21
297.0
 12
0.0
 22
0.0
 32
0.0
 14
1.0000000000E+20
 24
1.0000000000E+20
 34
1.0000000000E+20
 15
-1.0000000000E+20
 25
-1.0000000000E+20
 35
-1.0000000000E+20
146
0.0
 13
0.0
 23
0.0
 33
0.0
 16
1.0
 26
0.0
 36
0.0
 17
0.0
 27
1.0
 37
0.0
 76
     0
330
1B
  0
LAYOUT
  5
26
102
{ACAD_REACTORS
330
1A
102
}
330
1A
100
AcDbPlotSettings
  1

  2
none_device
  4

  6

 40
0.0
 41
0.0
 42
0.0
 43
0.0
 44
0.0
 45
0.0
 46
0.0
 47
0.0
 48
0.0
 49
0.0
140
0.0
141
0.0
142
1.0
143
1.0
 70
   688
 72
     1
 73
     0
 74
     5
  7

 75
    16
147
1.0
148
0.0
149
0.0
100
AcDbLayout
  1
Layout2
 70
     1
 71
     2
 10
0.0
 20
0.0
 11
0.0
 21
0.0
 12
0.0
 22
0.0
 32
0.0
 14
0.0
 24
0.0
 34
0.0
 15
0.0
 25
0.0
 35
0.0
146
0.0
 13
0.0
 23
0.0
 33
0.0
 16
1.0
 26
0.0
 36
0.0
 17
0.0
 27
1.0
 37
0.0
 76
     0
330
23
  0
LAYOUT
  5
22
102
{ACAD_REACTORS
330
1A
102
}
330
1A
100
AcDbPlotSettings
  1

  2
none_device
  4
Letter_(8.50_x_11.00_Inches)
  6

 40
6.35
 41
6.35
 42
6.35000508
 43
6.35000508
 44
215.9
 45
279.4
 46
0.0
 47
0.0
 48
0.0
 49
0.0
140
0.0
141
0.0
142
1.0
143
1.0
 70
  1712
 72
     1
 73
     0
 74
     0
  7

 75
     0
147
1.0
148
0.0
149
0.0
100
AcDbLayout
  1
Model
 70
     1
 71
     0
 10
0.0
 20
0.0
 11
431.8
 21
279.4
 12
0.0
 22
0.0
 32
0.0
 14
0.0
 24
0.0
 34
0.0
 15
431.8
 25
279.4
 35
0.0
146
0.0
 13
0.0
 23
0.0
 33
0.0
 16
1.0
 26
0.0
 36
0.0
 17
0.0
 27
1.0
 37
0.0
 76
     0
330
1F
331
29
  0
MLINESTYLE
  5
18
102
{ACAD_REACTORS
330
17
102
}
330
17
100
AcDbMlineStyle
  2
Standard
 70
     0
  3

 62
   256
 51
90.0
 52
90.0
 71
     2
 49
0.5
 62
   256
  6
BYLAYER
 49
-0.5
 62
   256
  6
BYLAYER
  0
ACDBPLACEHOLDER
  5
F
102
{ACAD_REACTORS
330
E
102
}
330
E
  0
SCALE
  5
48
102
{ACAD_REACTORS
330
47
102
}
330
47
100
AcDbScale
 70
     0
300
1:1
140
1.0
141
1.0
290
     1
  0
SCALE
  5
49
102
{ACAD_REACTORS
330
47
102
}
330
47
100
AcDbScale
 70
     0
300
1:2
140
1.0
141
2.0
290
     0
  0
SCALE
  5
4A
102
{ACAD_REACTORS
330
47
102
}
330
47
100
AcDbScale
 70
     0
300
1:4
140
1.0
141
4.0
290
     0
  0
SCALE
  5
4B
102
{ACAD_REACTORS
330
47
102
}
330
47
100
AcDbScale
 70
     0
300
1:5
140
1.0
141
5.0
290
     0
  0
SCALE
  5
4C
102
{ACAD_REACTORS
330
47
102
}
330
47
100
AcDbScale
 70
     0
300
1:8
140
1.0
141
8.0
290
     0
  0
SCALE
  5
4D
102
{ACAD_REACTORS
330
47
102
}
330
47
100
AcDbScale
 70
     0
300
1:10
140
1.0
141
10.0
290
     0
  0
SCALE
  5
4E
102
{ACAD_REACTORS
330
47
102
}
330
47
100
AcDbScale
 70
     0
300
1:16
140
1.0
141
16.0
290
     0
  0
SCALE
  5
4F
102
{ACAD_REACTORS
330
47
102
}
330
47
100
AcDbScale
 70
     0
300
1:20
140
1.0
141
20.0
290
     0
  0
SCALE
  5
50
102
{ACAD_REACTORS
330
47
102
}
330
47
100
AcDbScale
 70
     0
300
1:30
140
1.0
141
30.0
290
     0
  0
SCALE
  5
51
102
{ACAD_REACTORS
330
47
102
}
330
47
100
AcDbScale
 70
     0
300
1:40
140
1.0
141
40.0
290
     0
  0
SCALE
  5
52
102
{ACAD_REACTORS
330
47
102
}
330
47
100
AcDbScale
 70
     0
300
1:50
140
1.0
141
50.0
290
     0
  0
SCALE
  5
53
102
{ACAD_REACTORS
330
47
102
}
330
47
100
AcDbScale
 70
     0
300
1:100
140
1.0
141
100.0
290
     0
  0
SCALE
  5
54
102
{ACAD_REACTORS
330
47
102
}
330
47
100
AcDbScale
 70
     0
300
2:1
140
2.0
141
1.0
290
     0
  0
SCALE
  5
55
102
{ACAD_REACTORS
330
47
102
}
330
47
100
AcDbScale
 70
     0
300
4:1
140
4.0
141
1.0
290
     0
  0
SCALE
  5
56
102
{ACAD_REACTORS
330
47
102
}
330
47
100
AcDbScale
 70
     0
300
8:1
140
8.0
141
1.0
290
     0
  0
SCALE
  5
57
102
{ACAD_REACTORS
330
47
102
}
330
47
100
AcDbScale
 70
     0
300
10:1
140
10.0
141
1.0
290
     0
  0
SCALE
  5
58
102
{ACAD_REACTORS
330
47
102
}
330
47
100
AcDbScale
 70
     0
300
100:1
140
100.0
141
1.0
290
     0
  0
SCALE
  5
59
102
{ACAD_REACTORS
330
47
102
}
330
47
100
AcDbScale
 70
     0
300
1/128" = 1'-0"
140
0.0078125
141
12.0
290
     0
  0
SCALE
  5
5A
102
{ACAD_REACTORS
330
47
102
}
330
47
100
AcDbScale
 70
     0
300
1/64" = 1'-0"
140
0.015625
141
12.0
290
     0
  0
SCALE
  5
5B
102
{ACAD_REACTORS
330
47
102
}
330
47
100
AcDbScale
 70
     0
300
1/32" = 1'-0"
140
0.03125
141
12.0
290
     0
  0
SCALE
  5
5C
102
{ACAD_REACTORS
330
47
102
}
330
47
100
AcDbScale
 70
     0
300
1/16" = 1'-0"
140
0.0625
141
12.0
290
     0
  0
SCALE
  5
5D
102
{ACAD_REACTORS
330
47
102
}
330
47
100
AcDbScale
 70
     0
300
3/32" = 1'-0"
140
0.09375
141
12.0
290
     0
  0
SCALE
  5
5E
102
{ACAD_REACTORS
330
47
102
}
330
47
100
AcDbScale
 70
     0
300
1/8" = 1'-0"
140
0.125
141
12.0
290
     0
  0
SCALE
  5
5F
102
{ACAD_REACTORS
330
47
102
}
330
47
100
AcDbScale
 70
     0
300
3/16" = 1'-0"
140
0.1875
141
12.0
290
     0
  0
SCALE
  5
60
102
{ACAD_REACTORS
330
47
102
}
330
47
100
AcDbScale
 70
     0
300
1/4" = 1'-0"
140
0.25
141
12.0
290
     0
  0
SCALE
  5
61
102
{ACAD_REACTORS
330
47
102
}
330
47
100
AcDbScale
 70
     0
300
3/8" = 1'-0"
140
0.375
141
12.0
290
     0
  0
SCALE
  5
62
102
{ACAD_REACTORS
330
47
102
}
330
47
100
AcDbScale
 70
     0
300
1/2" = 1'-0"
140
0.5
141
12.0
290
     0
  0
SCALE
  5
63
102
{ACAD_REACTORS
330
47
102
}
330
47
100
AcDbScale
 70
     0
300
3/4" = 1'-0"
140
0.75
141
12.0
290
     0
  0
SCALE
  5
64
102
{ACAD_REACTORS
330
47
102
}
330
47
100
AcDbScale
 70
     0
300
1" = 1'-0"
140
1.0
141
12.0
290
     0
  0
SCALE
  5
65
102
{ACAD_REACTORS
330
47
102
}
330
47
100
AcDbScale
 70
     0
300
1-1/2" = 1'-0"
140
1.5
141
12.0
290
     0
  0
SCALE
  5
66
102
{ACAD_REACTORS
330
47
102
}
330
47
100
AcDbScale
 70
     0
300
3" = 1'-0"
140
3.0
141
12.0
290
     0
  0
SCALE
  5
67
102
{ACAD_REACTORS
330
47
102
}
330
47
100
AcDbScale
 70
     0
300
6" = 1'-0"
140
6.0
141
12.0
290
     0
  0
SCALE
  5
68
102
{ACAD_REACTORS
330
47
102
}
330
47
100
AcDbScale
 70
     0
300
1'-0" = 1'-0"
140
12.0
141
12.0
290
     0
  0
ENDSEC
  0
EOF
