  0
SECTION
  2
HEADER
  9
$ACADVER
  1
AC1015
  9
$ACADMAINTVER
 70
     6
  9
$DWGCODEPAGE
  3
DOS932
  9
$INSBASE
 10
0.0
 20
0.0
 30
0.0
  9
$EXTMIN
 10
0.0
 20
0.0
 30
0.0
  9
$EXTMAX
 10
431.8
 20
279.4
 30
0.0
  9
$LIMMIN
 10
0.0
 20
0.0
  9
$LIMMAX
 10
431.8
 20
279.4
  9
$ORTHOMODE
 70
     0
  9
$REGENMODE
 70
     1
  9
$FILLMODE
 70
     1
  9
$QTEXTMODE
 70
     0
  9
$MIRRTEXT
 70
     1
  9
$LTSCALE
 40
1.0
  9
$ATTMODE
 70
     1
  9
$TEXTSIZE
 40
3.5
  9
$TRACEWID
 40
1.0
  9
$TEXTSTYLE
  7
Standard
  9
$CLAYER
  8
0
  9
$CELTYPE
  6
ByLayer
  9
$CECOLOR
 62
   256
  9
$CELTSCALE
 40
1.0
  9
$DISPSILH
 70
     0
  9
$DIMSCALE
 40
1.0
  9
$DIMASZ
 40
3.302
  9
$DIMEXO
 40
1.0
  9
$DIMDLI
 40
3.75
  9
$DIMRND
 40
0.0
  9
$DIMDLE
 40
0.0
  9
$DIMEXE
 40
1.0
  9
$DIMTP
 40
0.0
  9
$DIMTM
 40
0.0
  9
$DIMTXT
 40
3.5
  9
$DIMCEN
 40
2.5
  9
$DIMTSZ
 40
0.0
  9
$DIMTOL
 70
     0
  9
$DIMLIM
 70
     0
  9
$DIMTIH
 70
     1
  9
$DIMTOH
 70
     1
  9
$DIMSE1
 70
     0
  9
$DIMSE2
 70
     0
  9
$DIMTAD
 70
     1
  9
$DIMZIN
 70
     1
  9
$DIMBLK
  1

  9
$DIMASO
 70
     1
  9
$DIMSHO
 70
     1
  9
$DIMPOST
  1

  9
$DIMAPOST
  1

  9
$DIMALT
 70
     0
  9
$DIMALTD
 70
     3
  9
$DIMALTF
 40
0.0393700787
  9
$DIMLFAC
 40
1.0
  9
$DIMTOFL
 70
     1
  9
$DIMTVP
 40
0.0
  9
$DIMTIX
 70
     0
  9
$DIMSOXD
 70
     0
  9
$DIMSAH
 70
     0
  9
$DIMBLK1
  1

  9
$DIMBLK2
  1

  9
$DIMSTYLE
  2
ISO-25
  9
$DIMCLRD
 70
     0
  9
$DIMCLRE
 70
     0
  9
$DIMCLRT
 70
     0
  9
$DIMTFAC
 40
1.0
  9
$DIMGAP
 40
1.524
  9
$DIMJUST
 70
     0
  9
$DIMSD1
 70
     0
  9
$DIMSD2
 70
     0
  9
$DIMTOLJ
 70
     0
  9
$DIMTZIN
 70
     1
  9
$DIMALTZ
 70
     0
  9
$DIMALTTZ
 70
     0
  9
$DIMUPT
 70
     0
  9
$DIMDEC
 70
     2
  9
$DIMTDEC
 70
     2
  9
$DIMALTU
 70
     2
  9
$DIMALTTD
 70
     3
  9
$DIMTXSTY
  7
Standard
  9
$DIMAUNIT
 70
     0
  9
$DIMADEC
 70
     2
  9
$DIMALTRND
 40
0.0
  9
$DIMAZIN
 70
     0
  9
$DIMDSEP
 70
    44
  9
$DIMATFIT
 70
     3
  9
$DIMFRAC
 70
     0
  9
$DIMLDRBLK
  1

  9
$DIMLUNIT
 70
     2
  9
$DIMLWD
 70
    -2
  9
$DIMLWE
 70
    -2
  9
$DIMTMOVE
 70
     0
  9
$LUNITS
 70
     2
  9
$LUPREC
 70
     2
  9
$SKETCHINC
 40
1.0
  9
$FILLETRAD
 40
10.0
  9
$AUNITS
 70
     0
  9
$AUPREC
 70
     2
  9
$MENU
  1
.
  9
$ELEVATION
 40
0.0
  9
$PELEVATION
 40
0.0
  9
$THICKNESS
 40
0.0
  9
$LIMCHECK
 70
     0
  9
$CHAMFERA
 40
0.0
  9
$CHAMFERB
 40
0.0
  9
$CHAMFERC
 40
0.0
  9
$CHAMFERD
 40
0.0
  9
$SKPOLY
 70
     0
  9
$TDCREATE
 40
2459285.472695208
  9
$TDUCREATE
 40
2459285.097695208
  9
$TDUPDATE
 40
2459285.472695753
  9
$TDUUPDATE
 40
2459285.097695753
  9
$TDINDWG
 40
0.0000000116
  9
$TDUSRTIMER
 40
0.0000000116
  9
$USRTIMER
 70
     1
  9
$ANGBASE
 50
0.0
  9
$ANGDIR
 70
     0
  9
$PDMODE
 70
     0
  9
$PDSIZE
 40
-1.0
  9
$PLINEWID
 40
0.0
  9
$SPLFRAME
 70
     0
  9
$SPLINETYPE
 70
     6
  9
$SPLINESEGS
 70
     8
  9
$HANDSEED
  5
1B2
  9
$SURFTAB1
 70
     6
  9
$SURFTAB2
 70
     6
  9
$SURFTYPE
 70
     6
  9
$SURFU
 70
     6
  9
$SURFV
 70
     6
  9
$UCSBASE
  2

  9
$UCSNAME
  2

  9
$UCSORG
 10
0.0
 20
0.0
 30
0.0
  9
$UCSXDIR
 10
1.0
 20
0.0
 30
0.0
  9
$UCSYDIR
 10
0.0
 20
1.0
 30
0.0
  9
$UCSORTHOREF
  2

  9
$UCSORTHOVIEW
 70
     0
  9
$UCSORGTOP
 10
0.0
 20
0.0
 30
0.0
  9
$UCSORGBOTTOM
 10
0.0
 20
0.0
 30
0.0
  9
$UCSORGLEFT
 10
0.0
 20
0.0
 30
0.0
  9
$UCSORGRIGHT
 10
0.0
 20
0.0
 30
0.0
  9
$UCSORGFRONT
 10
0.0
 20
0.0
 30
0.0
  9
$UCSORGBACK
 10
0.0
 20
0.0
 30
0.0
  9
$PUCSBASE
  2

  9
$PUCSNAME
  2

  9
$PUCSORG
 10
0.0
 20
0.0
 30
0.0
  9
$PUCSXDIR
 10
1.0
 20
0.0
 30
0.0
  9
$PUCSYDIR
 10
0.0
 20
1.0
 30
0.0
  9
$PUCSORTHOREF
  2

  9
$PUCSORTHOVIEW
 70
     0
  9
$PUCSORGTOP
 10
0.0
 20
0.0
 30
0.0
  9
$PUCSORGBOTTOM
 10
0.0
 20
0.0
 30
0.0
  9
$PUCSORGLEFT
 10
0.0
 20
0.0
 30
0.0
  9
$PUCSORGRIGHT
 10
0.0
 20
0.0
 30
0.0
  9
$PUCSORGFRONT
 10
0.0
 20
0.0
 30
0.0
  9
$PUCSORGBACK
 10
0.0
 20
0.0
 30
0.0
  9
$USERI1
 70
     0
  9
$USERI2
 70
     0
  9
$USERI3
 70
     0
  9
$USERI4
 70
     0
  9
$USERI5
 70
     0
  9
$USERR1
 40
0.0
  9
$USERR2
 40
0.0
  9
$USERR3
 40
0.0
  9
$USERR4
 40
0.0
  9
$USERR5
 40
0.0
  9
$WORLDVIEW
 70
     1
  9
$SHADEDGE
 70
     3
  9
$SHADEDIF
 70
    70
  9
$TILEMODE
 70
     1
  9
$MAXACTVP
 70
    64
  9
$PINSBASE
 10
0.0
 20
0.0
 30
0.0
  9
$PLIMCHECK
 70
     0
  9
$PEXTMIN
 10
1.0000000000E+20
 20
1.0000000000E+20
 30
1.0000000000E+20
  9
$PEXTMAX
 10
-1.0000000000E+20
 20
-1.0000000000E+20
 30
-1.0000000000E+20
  9
$PLIMMIN
 10
0.0
 20
0.0
  9
$PLIMMAX
 10
420.0
 20
297.0
  9
$UNITMODE
 70
     0
  9
$VISRETAIN
 70
     1
  9
$PLINEGEN
 70
     0
  9
$PSLTSCALE
 70
     1
  9
$TREEDEPTH
 70
  3020
  9
$CMLSTYLE
  2
Standard
  9
$CMLJUST
 70
     0
  9
$CMLSCALE
 40
20.0
  9
$PROXYGRAPHICS
 70
     1
  9
$MEASUREMENT
 70
     1
  9
$CELWEIGHT
370
    -1
  9
$ENDCAPS
280
     0
  9
$JOINSTYLE
280
     0
  9
$LWDISPLAY
290
     1
  9
$INSUNITS
 70
     4
  9
$HYPERLINKBASE
  1

  9
$STYLESHEET
  1

  9
$XEDIT
290
     1
  9
$CEPSNTYPE
380
     0
  9
$PSTYLEMODE
290
     1
  9
$FINGERPRINTGUID
  2
{E4B46743-5341-479C-B629-C8DCFF5CC69E}
  9
$VERSIONGUID
  2
{FAEB1C32-E019-11D5-929B-00C0DF256EC4}
  9
$EXTNAMES
290
     1
  9
$PSVPSCALE
 40
0.0
  9
$OLESTARTUP
290
     0
  0
ENDSEC
  0
SECTION
  2
CLASSES
  0
CLASS
  1
ACDBDICTIONARYWDFLT
  2
AcDbDictionaryWithDefault
  3
ObjectDBX Classes
 90
        0
280
     0
281
     0
  0
CLASS
  1
VISUALSTYLE
  2
AcDbVisualStyle
  3
ObjectDBX Classes
 90
     4095
280
     0
281
     0
  0
CLASS
  1
MATERIAL
  2
AcDbMaterial
  3
ObjectDBX Classes
 90
     1153
280
     0
281
     0
  0
CLASS
  1
SCALE
  2
AcDbScale
  3
ObjectDBX Classes
 90
     1153
280
     0
281
     0
  0
CLASS
  1
TABLESTYLE
  2
AcDbTableStyle
  3
ObjectDBX Classes
 90
     4095
280
     0
281
     0
  0
CLASS
  1
MLEADERSTYLE
  2
AcDbMLeaderStyle
  3
ACDB_MLEADERSTYLE_CLASS
 90
     4095
280
     0
281
     0
  0
CLASS
  1
SUN
  2
AcDbSun
  3
SCENEOE
 90
     1153
280
     0
281
     0
  0
CLASS
  1
ACDBPLACEHOLDER
  2
AcDbPlaceHolder
  3
ObjectDBX Classes
 90
        0
280
     0
281
     0
  0
CLASS
  1
LAYOUT
  2
AcDbLayout
  3
ObjectDBX Classes
 90
        0
280
     0
281
     0
  0
ENDSEC
  0
SECTION
  2
TABLES
  0
TABLE
  2
VPORT
  5
8
330
0
100
AcDbSymbolTable
 70
     1
  0
VPORT
  5
29
330
8
100
AcDbSymbolTableRecord
100
AcDbViewportTableRecord
  2
*Active
 70
     0
 10
0.0
 20
0.0
 11
1.0
 21
1.0
 12
215.9
 22
139.7
 13
0.0
 23
0.0
 14
10.0
 24
10.0
 15
10.0
 25
10.0
 16
0.0
 26
0.0
 36
1.0
 17
0.0
 27
0.0
 37
0.0
 40
279.4
 41
1.5454545455
 42
50.0
 43
0.0
 44
0.0
 50
0.0
 51
0.0
 71
     0
 72
  2000
 73
     1
 74
     3
 75
     0
 76
     0
 77
     0
 78
     0
281
     0
 65
     1
110
0.0
120
0.0
130
0.0
111
1.0
121
0.0
131
0.0
112
0.0
122
1.0
132
0.0
 79
     0
146
0.0
  0
ENDTAB
  0
TABLE
  2
LTYPE
  5
5
330
0
100
AcDbSymbolTable
 70
     6
  0
LTYPE
  5
14
330
5
100
AcDbSymbolTableRecord
100
AcDbLinetypeTableRecord
  2
ByBlock
 70
     0
  3

 72
    65
 73
     0
 40
0.0
  0
LTYPE
  5
15
330
5
100
AcDbSymbolTableRecord
100
AcDbLinetypeTableRecord
  2
ByLayer
 70
     0
  3

 72
    65
 73
     0
 40
0.0
  0
LTYPE
  5
16
330
5
100
AcDbSymbolTableRecord
100
AcDbLinetypeTableRecord
  2
Continuous
 70
     0
  3
Solid line
 72
    65
 73
     0
 40
0.0
  0
LTYPE
  5
6E
330
5
100
AcDbSymbolTableRecord
100
AcDbLinetypeTableRecord
  2
HIDDEN
 70
     0
  3
Hidden __ __ __ __ __ __ __ __ __ __ __ __ __ __
 72
    65
 73
     2
 40
1.905
 49
1.27
 74
     0
 49
-0.635
 74
     0
  0
LTYPE
  5
6F
330
5
100
AcDbSymbolTableRecord
100
AcDbLinetypeTableRecord
  2
PHANTOM
 70
     0
  3
Phantom ______  __  __  ______  __  __  ______
 72
    65
 73
     6
 40
12.7
 49
6.35
 74
     0
 49
-1.27
 74
     0
 49
1.27
 74
     0
 49
-1.27
 74
     0
 49
1.27
 74
     0
 49
-1.27
 74
     0
  0
LTYPE
  5
70
330
5
100
AcDbSymbolTableRecord
100
AcDbLinetypeTableRecord
  2
CENTER
 70
     0
  3
Center ____ _ ____ _ ____ _ ____ _ ____ _ ____
 72
    65
 73
     4
 40
10.16
 49
6.35
 74
     0
 49
-1.27
 74
     0
 49
1.27
 74
     0
 49
-1.27
 74
     0
  0
LTYPE
  5
71
330
5
100
AcDbSymbolTableRecord
100
AcDbLinetypeTableRecord
  2
CENTERX2
 70
     0
  3
Center (2x) ________  __  ________  __  _____
 72
    65
 73
     4
 40
20.32
 49
12.7
 74
     0
 49
-2.54
 74
     0
 49
2.54
 74
     0
 49
-2.54
 74
     0
  0
LTYPE
  5
72
330
5
100
AcDbSymbolTableRecord
100
AcDbLinetypeTableRecord
  2
DOT2
 70
     0
  3
Dot (.5x) ........................................
 72
    65
 73
     2
 40
0.635
 49
0.0
 74
     0
 49
-0.635
 74
     0
  0
ENDTAB
  0
TABLE
  2
LAYER
  5
2
330
0
100
AcDbSymbolTable
 70
     1
  0
LAYER
  5
10
330
2
100
AcDbSymbolTableRecord
100
AcDbLayerTableRecord
  2
0
 70
     0
 62
     7
  6
Continuous
370
    -3
390
F
  0
ENDTAB
  0
TABLE
  2
STYLE
  5
3
330
0
100
AcDbSymbolTable
 70
     2
  0
STYLE
  5
11
330
3
100
AcDbSymbolTableRecord
100
AcDbTextStyleTableRecord
  2
Standard
 70
     0
 40
0.0
 41
1.0
 50
0.0
 71
     0
 42
3.5
  3
txt
  4
bigfont
  0
STYLE
  5
73
330
3
100
AcDbSymbolTableRecord
100
AcDbTextStyleTableRecord
  2
SLDTEXTSTYLE0
 70
     0
 40
0.0
 41
0.7
 50
0.0
 71
     0
 42
3.5
  3
TXT
  4
bigfont
  0
ENDTAB
  0
TABLE
  2
VIEW
  5
6
330
0
100
AcDbSymbolTable
 70
     0
  0
ENDTAB
  0
TABLE
  2
UCS
  5
7
330
0
100
AcDbSymbolTable
 70
     0
  0
ENDTAB
  0
TABLE
  2
APPID
  5
9
330
0
100
AcDbSymbolTable
 70
     1
  0
APPID
  5
12
330
9
100
AcDbSymbolTableRecord
100
AcDbRegAppTableRecord
  2
ACAD
 70
     0
  0
ENDTAB
  0
TABLE
  2
DIMSTYLE
  5
A
330
0
100
AcDbSymbolTable
 70
     1
100
AcDbDimStyleTable
  0
DIMSTYLE
105
27
330
A
100
AcDbSymbolTableRecord
100
AcDbDimStyleTableRecord
  2
ISO-25
 70
     0
 41
2.5
 42
0.625
 43
3.75
 44
1.25
 73
     0
 74
     0
 77
     1
 78
     8
140
2.5
141
2.5
143
0.0393700787
147
0.625
171
     3
172
     1
178
     0
271
     2
272
     2
274
     3
278
    44
283
     0
284
     8
340
11
  0
ENDTAB
  0
TABLE
  2
BLOCK_RECORD
  5
1
330
0
100
AcDbSymbolTable
 70
     2
  0
BLOCK_RECORD
  5
1F
330
1
100
AcDbSymbolTableRecord
100
AcDbBlockTableRecord
  2
*Model_Space
340
22
  0
BLOCK_RECORD
  5
1B
330
1
100
AcDbSymbolTableRecord
100
AcDbBlockTableRecord
  2
*Paper_Space
340
1E
  0
BLOCK_RECORD
  5
23
330
1
100
AcDbSymbolTableRecord
100
AcDbBlockTableRecord
  2
*Paper_Space0
340
26
  0
BLOCK_RECORD
  5
127
330
1
100
AcDbSymbolTableRecord
100
AcDbBlockTableRecord
  2
SW_CENTERMARKSYMBOL_0
340
0
102
{BLKREFS
331
132
102
}
  0
ENDTAB
  0
ENDSEC
  0
SECTION
  2
BLOCKS
  0
BLOCK
  5
20
330
1F
100
AcDbEntity
  8
0
100
AcDbBlockBegin
  2
*Model_Space
 70
     0
 10
0.0
 20
0.0
 30
0.0
  3
*Model_Space
  1

  0
ENDBLK
  5
21
330
1F
100
AcDbEntity
  8
0
100
AcDbBlockEnd
  0
BLOCK
  5
1C
330
1B
100
AcDbEntity
 67
     1
  8
0
100
AcDbBlockBegin
  2
*Paper_Space
 70
     0
 10
0.0
 20
0.0
 30
0.0
  3
*Paper_Space
  1

  0
ENDBLK
  5
1D
330
1B
100
AcDbEntity
 67
     1
  8
0
100
AcDbBlockEnd
  0
BLOCK
  5
24
330
23
100
AcDbEntity
  8
0
100
AcDbBlockBegin
  2
*Paper_Space0
 70
     0
 10
0.0
 20
0.0
 30
0.0
  3
*Paper_Space0
  1

  0
ENDBLK
  5
25
330
23
100
AcDbEntity
  8
0
100
AcDbBlockEnd
  0
BLOCK
  5
128
330
127
100
AcDbEntity
  8
0
100
AcDbBlockBegin
  2
SW_CENTERMARKSYMBOL_0
 70
     0
 10
0.0
 20
0.0
 30
0.0
  3
SW_CENTERMARKSYMBOL_0
  1

  0
LINE
  5
12A
330
127
100
AcDbEntity
  8
0
  6
Continuous
 62
     0
370
    18
100
AcDbLine
 10
0.0
 20
0.0
 30
0.0
 11
0.0
 21
2.5
 31
0.0
  0
LINE
  5
12B
330
127
100
AcDbEntity
  8
0
  6
Continuous
 62
     0
370
    18
100
AcDbLine
 10
0.0
 20
0.0
 30
0.0
 11
-2.5
 21
0.0
 31
0.0
  0
LINE
  5
12C
330
127
100
AcDbEntity
  8
0
  6
Continuous
 62
     0
370
    18
100
AcDbLine
 10
0.0
 20
0.0
 30
0.0
 11
0.0
 21
-2.5
 31
0.0
  0
LINE
  5
12D
330
127
100
AcDbEntity
  8
0
  6
Continuous
 62
     0
370
    18
100
AcDbLine
 10
0.0
 20
0.0
 30
0.0
 11
2.5
 21
0.0
 31
0.0
  0
LINE
  5
12E
330
127
100
AcDbEntity
  8
0
  6
Continuous
 62
     0
370
    18
100
AcDbLine
 10
0.0
 20
5.0
 30
0.0
 11
0.0
 21
10.35
 31
0.0
  0
LINE
  5
12F
330
127
100
AcDbEntity
  8
0
  6
Continuous
 62
     0
370
    18
100
AcDbLine
 10
-5.0
 20
0.0
 30
0.0
 11
-10.35
 21
0.0
 31
0.0
  0
LINE
  5
130
330
127
100
AcDbEntity
  8
0
  6
Continuous
 62
     0
370
    18
100
AcDbLine
 10
0.0
 20
-5.0
 30
0.0
 11
0.0
 21
-10.35
 31
0.0
  0
LINE
  5
131
330
127
100
AcDbEntity
  8
0
  6
Continuous
 62
     0
370
    18
100
AcDbLine
 10
5.0
 20
0.0
 30
0.0
 11
10.35
 21
0.0
 31
0.0
  0
ENDBLK
  5
129
330
127
100
AcDbEntity
  8
0
100
AcDbBlockEnd
  0
ENDSEC
  0
SECTION
  2
ENTITIES
  0
MTEXT
  5
74
330
1F
100
AcDbEntity
  8
0
  6
Continuous
 62
     7
370
     0
100
AcDbMText
 10
189.1201140301
 20
99.5082702501
 30
0.0
 40
4.7625
 41
0.0
 71
     1
 72
     1
  1
HS-1307R
  7
SLDTEXTSTYLE0
 73
     1
 44
1.0
  0
LINE
  5
75
330
1F
100
AcDbEntity
  8
0
  6
Continuous
 62
     7
370
    25
100
AcDbLine
 10
165.9867310861
 20
72.4792714313
 30
0.0
 11
166.4867310861
 21
72.4792714313
 31
0.0
  0
LINE
  5
76
330
1F
100
AcDbEntity
  8
0
  6
Continuous
 62
     7
370
    25
100
AcDbLine
 10
166.4867310861
 20
81.4792714313
 30
0.0
 11
165.9867310861
 21
81.4792714313
 31
0.0
  0
LINE
  5
77
330
1F
100
AcDbEntity
  8
0
  6
Continuous
 62
     7
370
    25
100
AcDbLine
 10
170.4867310861
 20
73.4792714313
 30
0.0
 11
174.4867310861
 21
74.1292714313
 31
0.0
  0
LINE
  5
78
330
1F
100
AcDbEntity
  8
0
  6
Continuous
 62
     7
370
    25
100
AcDbLine
 10
174.4867310861
 20
79.8292714313
 30
0.0
 11
170.4867310861
 21
80.4792714313
 31
0.0
  0
LINE
  5
79
330
1F
100
AcDbEntity
  8
0
  6
Continuous
 62
     7
370
    25
100
AcDbLine
 10
166.4867310861
 20
73.4792714313
 30
0.0
 11
170.4867310861
 21
73.4792714313
 31
0.0
  0
LINE
  5
7A
330
1F
100
AcDbEntity
  8
0
  6
Continuous
 62
     7
370
    25
100
AcDbLine
 10
170.4867310861
 20
80.4792714313
 30
0.0
 11
166.4867310861
 21
80.4792714313
 31
0.0
  0
LINE
  5
7B
330
1F
100
AcDbEntity
  8
0
  6
Continuous
 62
     7
370
    25
100
AcDbLine
 10
186.4867310861
 20
73.4792714313
 30
0.0
 11
191.2829751291
 21
74.0461002727
 31
0.0
  0
LINE
  5
7C
330
1F
100
AcDbEntity
  8
0
  6
Continuous
 62
     7
370
    25
100
AcDbLine
 10
191.2829751291
 20
79.9124425898
 30
0.0
 11
186.4867310861
 21
80.4792714313
 31
0.0
  0
LINE
  5
7D
330
1F
100
AcDbEntity
  8
0
  6
Continuous
 62
     7
370
    25
100
AcDbLine
 10
178.4867310861
 20
73.4792714313
 30
0.0
 11
182.4867310861
 21
74.1292714313
 31
0.0
  0
LINE
  5
7E
330
1F
100
AcDbEntity
  8
0
  6
Continuous
 62
     7
370
    25
100
AcDbLine
 10
182.4867310861
 20
79.8292714313
 30
0.0
 11
178.4867310861
 21
80.4792714313
 31
0.0
  0
LINE
  5
7F
330
1F
100
AcDbEntity
  8
0
  6
Continuous
 62
     7
370
    25
100
AcDbLine
 10
182.4867310861
 20
73.4792714313
 30
0.0
 11
186.4867310861
 21
74.1292714313
 31
0.0
  0
LINE
  5
80
330
1F
100
AcDbEntity
  8
0
  6
Continuous
 62
     7
370
    25
100
AcDbLine
 10
186.4867310861
 20
79.8292714313
 30
0.0
 11
182.4867310861
 21
80.4792714313
 31
0.0
  0
LINE
  5
81
330
1F
100
AcDbEntity
  8
0
  6
Continuous
 62
     7
370
    25
100
AcDbLine
 10
174.4867310861
 20
73.4792714313
 30
0.0
 11
178.4867310861
 21
74.1292714313
 31
0.0
  0
LINE
  5
82
330
1F
100
AcDbEntity
  8
0
  6
Continuous
 62
     7
370
    25
100
AcDbLine
 10
178.4867310861
 20
79.8292714313
 30
0.0
 11
174.4867310861
 21
80.4792714313
 31
0.0
  0
ARC
  5
83
330
1F
100
AcDbEntity
  8
0
  6
Continuous
 62
     7
370
    25
100
AcDbCircle
 10
191.1890830933
 20
79.117971517
 30
0.0
 40
0.8000000000000157
100
AcDbArc
 50
4.3945905239
 51
83.2599439021
  0
ARC
  5
84
330
1F
100
AcDbEntity
  8
0
  6
Continuous
 62
     7
370
    25
100
AcDbCircle
 10
191.1890830933
 20
74.8405713456
 30
0.0
 40
0.8000000000000157
100
AcDbArc
 50
276.7400560979
 51
355.6054094761
  0
LINE
  5
85
330
1F
100
AcDbEntity
  8
0
  6
Continuous
 62
     7
370
    25
100
AcDbLine
 10
155.7878648063
 20
86.2168757383
 30
0.0
 11
154.9867310861
 21
84.8292714313
 31
0.0
  0
LINE
  5
86
330
1F
100
AcDbEntity
  8
0
  6
Continuous
 62
     7
370
    25
100
AcDbLine
 10
154.9867310861
 20
69.1292714313
 30
0.0
 11
155.7878648063
 21
67.7416671242
 31
0.0
  0
LINE
  5
87
330
1F
100
AcDbEntity
  8
0
  6
Continuous
 62
     7
370
    25
100
AcDbLine
 10
163.1855973659
 20
67.7416671242
 30
0.0
 11
163.9867310861
 21
69.1292714313
 31
0.0
  0
LINE
  5
88
330
1F
100
AcDbEntity
  8
0
  6
Continuous
 62
     7
370
    25
100
AcDbLine
 10
163.9867310861
 20
84.8292714313
 30
0.0
 11
163.1855973659
 21
86.2168757383
 31
0.0
  0
ARC
  5
89
330
1F
100
AcDbEntity
  8
0
  6
Continuous
 62
     7
370
    25
100
AcDbCircle
 10
153.2867310861
 20
69.4292714313
 30
0.0
 40
0.3000000000000114
100
AcDbArc
 50
180.0
 51
270.0
  0
ARC
  5
8A
330
1F
100
AcDbEntity
  8
0
  6
Continuous
 62
     7
370
    25
100
AcDbCircle
 10
153.2867310861
 20
84.5292714313
 30
0.0
 40
0.3000000000000114
100
AcDbArc
 50
90.0
 51
180.0
  0
LINE
  5
8B
330
1F
100
AcDbEntity
  8
0
  6
Continuous
 62
     7
370
    25
100
AcDbLine
 10
154.9867310861
 20
84.8292714313
 30
0.0
 11
153.2867310861
 21
84.8292714313
 31
0.0
  0
LINE
  5
8C
330
1F
100
AcDbEntity
  8
0
  6
Continuous
 62
     7
370
    25
100
AcDbLine
 10
153.2867310861
 20
69.1292714313
 30
0.0
 11
154.9867310861
 21
69.1292714313
 31
0.0
  0
ARC
  5
8D
330
1F
100
AcDbEntity
  8
0
  6
Continuous
 62
     7
370
    25
100
AcDbCircle
 10
165.6867310861
 20
84.5292714313
 30
0.0
 40
0.3000000000000114
100
AcDbArc
 50
0.0
 51
90.0
  0
ARC
  5
8E
330
1F
100
AcDbEntity
  8
0
  6
Continuous
 62
     7
370
    25
100
AcDbCircle
 10
165.6867310861
 20
69.4292714313
 30
0.0
 40
0.3000000000000114
100
AcDbArc
 50
270.0
 51
0.0
  0
LINE
  5
8F
330
1F
100
AcDbEntity
  8
0
  6
Continuous
 62
     7
370
    25
100
AcDbLine
 10
163.9867310861
 20
69.1292714313
 30
0.0
 11
165.6867310861
 21
69.1292714313
 31
0.0
  0
LINE
  5
90
330
1F
100
AcDbEntity
  8
0
  6
Continuous
 62
     7
370
    25
100
AcDbLine
 10
165.6867310861
 20
84.8292714313
 30
0.0
 11
163.9867310861
 21
84.8292714313
 31
0.0
  0
LINE
  5
91
330
1F
100
AcDbEntity
  8
0
  6
Continuous
 62
     7
370
    25
100
AcDbLine
 10
159.4331412476
 20
67.7416671242
 30
0.0
 11
159.4867310861
 21
67.9416671242
 31
0.0
  0
LINE
  5
92
330
1F
100
AcDbEntity
  8
0
  6
Continuous
 62
     7
370
    25
100
AcDbLine
 10
159.4867310861
 20
67.9416671242
 30
0.0
 11
159.5403209246
 21
67.7416671242
 31
0.0
  0
LINE
  5
93
330
1F
100
AcDbEntity
  8
0
  6
Continuous
 62
     7
370
    25
100
AcDbLine
 10
159.4867310861
 20
86.0168757383
 30
0.0
 11
159.4331412476
 21
86.2168757383
 31
0.0
  0
LINE
  5
94
330
1F
100
AcDbEntity
  8
0
  6
Continuous
 62
     7
370
    25
100
AcDbLine
 10
159.5403209246
 20
86.2168757383
 30
0.0
 11
159.4867310861
 21
86.0168757383
 31
0.0
  0
LINE
  5
95
330
1F
100
AcDbEntity
  8
0
  6
Continuous
 62
     7
370
    25
100
AcDbLine
 10
143.7324461678
 20
85.4868339313
 30
0.0
 11
133.8063556015
 21
85.1766436011
 31
0.0
  0
LINE
  5
96
330
1F
100
AcDbEntity
  8
0
  6
Continuous
 62
     7
370
    25
100
AcDbLine
 10
133.8063556015
 20
68.7818992615
 30
0.0
 11
143.7324461678
 21
68.4717089313
 31
0.0
  0
LINE
  5
97
330
1F
100
AcDbEntity
  8
0
  6
Continuous
 62
     7
370
    25
100
AcDbLine
 10
148.8289192219
 20
67.164316855
 30
0.0
 11
149.7324461678
 21
68.7292714313
 31
0.0
  0
LINE
  5
98
330
1F
100
AcDbEntity
  8
0
  6
Continuous
 62
     7
370
    25
100
AcDbLine
 10
149.7324461678
 20
85.2292714313
 30
0.0
 11
148.8289192219
 21
86.7942260075
 31
0.0
  0
LINE
  5
99
330
1F
100
AcDbEntity
  8
0
  6
Continuous
 62
     7
370
    25
100
AcDbLine
 10
133.8063556015
 20
85.1766436011
 30
0.0
 11
131.7324461678
 21
83.9792714313
 31
0.0
  0
LINE
  5
9A
330
1F
100
AcDbEntity
  8
0
  6
Continuous
 62
     7
370
    25
100
AcDbLine
 10
131.7324461678
 20
69.9792714313
 30
0.0
 11
133.8063556015
 21
68.7818992615
 31
0.0
  0
LINE
  5
9B
330
1F
100
AcDbEntity
  8
0
  6
Continuous
 62
     7
370
    25
100
AcDbLine
 10
152.7324461678
 20
83.5577714313
 30
0.0
 11
151.7324461678
 21
82.5577714313
 31
0.0
  0
LINE
  5
9C
330
1F
100
AcDbEntity
  8
0
  6
Continuous
 62
     7
370
    25
100
AcDbLine
 10
151.7324461678
 20
71.4007714313
 30
0.0
 11
152.7324461678
 21
70.4007714313
 31
0.0
  0
LINE
  5
9D
330
1F
100
AcDbEntity
  8
0
  6
Continuous
 62
     7
370
    25
100
AcDbLine
 10
152.7324461678
 20
70.4007714313
 30
0.0
 11
152.9867310861
 21
70.4007714313
 31
0.0
  0
LINE
  5
9E
330
1F
100
AcDbEntity
  8
0
  6
Continuous
 62
     7
370
    25
100
AcDbLine
 10
152.9867310861
 20
83.5577714313
 30
0.0
 11
152.7324461678
 21
83.5577714313
 31
0.0
  0
LINE
  5
9F
330
1F
100
AcDbEntity
  8
0
  6
Continuous
 62
     7
370
    25
100
AcDbLine
 10
149.7324461678
 20
71.4792714313
 30
0.0
 11
151.7324461678
 21
71.4792714313
 31
0.0
  0
LINE
  5
A0
330
1F
100
AcDbEntity
  8
0
  6
Continuous
 62
     7
370
    25
100
AcDbLine
 10
151.7324461678
 20
82.4792714313
 30
0.0
 11
149.7324461678
 21
82.4792714313
 31
0.0
  0
LINE
  5
A1
330
1F
100
AcDbEntity
  8
0
  6
Continuous
 62
     7
370
    25
100
AcDbLine
 10
146.2002979371
 20
67.164316855
 30
0.0
 11
146.2806826949
 21
67.464316855
 31
0.0
  0
LINE
  5
A2
330
1F
100
AcDbEntity
  8
0
  6
Continuous
 62
     7
370
    25
100
AcDbLine
 10
146.2806826949
 20
67.464316855
 30
0.0
 11
146.3610674526
 21
67.164316855
 31
0.0
  0
LINE
  5
A3
330
1F
100
AcDbEntity
  8
0
  6
Continuous
 62
     7
370
    25
100
AcDbLine
 10
146.2806826949
 20
86.4942260075
 30
0.0
 11
146.2002979371
 21
86.7942260075
 31
0.0
  0
LINE
  5
A4
330
1F
100
AcDbEntity
  8
0
  6
Continuous
 62
     7
370
    25
100
AcDbLine
 10
146.3610674526
 20
86.7942260075
 30
0.0
 11
146.2806826949
 21
86.4942260075
 31
0.0
  0
LINE
  5
A5
330
1F
100
AcDbEntity
  8
0
  6
Continuous
 62
     7
370
    25
100
AcDbLine
 10
166.4867310861
 20
81.4792714313
 30
0.0
 11
166.4867310861
 21
72.4792714313
 31
0.0
  0
LINE
  5
A6
330
1F
100
AcDbEntity
  8
0
  6
Continuous
 62
     7
370
    25
100
AcDbLine
 10
170.4867310861
 20
76.9792714313
 30
0.0
 11
170.4867310861
 21
80.4792714313
 31
0.0
  0
LINE
  5
A7
330
1F
100
AcDbEntity
  8
0
  6
Continuous
 62
     7
370
    25
100
AcDbLine
 10
170.4867310861
 20
73.4792714313
 30
0.0
 11
170.4867310861
 21
76.9792714313
 31
0.0
  0
LINE
  5
A8
330
1F
100
AcDbEntity
  8
0
  6
Continuous
 62
     7
370
    25
100
AcDbLine
 10
186.4867310861
 20
76.9792714313
 30
0.0
 11
186.4867310861
 21
80.4792714313
 31
0.0
  0
LINE
  5
A9
330
1F
100
AcDbEntity
  8
0
  6
Continuous
 62
     7
370
    25
100
AcDbLine
 10
186.4867310861
 20
73.4792714313
 30
0.0
 11
186.4867310861
 21
76.9792714313
 31
0.0
  0
LINE
  5
AA
330
1F
100
AcDbEntity
  8
0
  6
Continuous
 62
     7
370
    25
100
AcDbLine
 10
178.4867310861
 20
76.9792714313
 30
0.0
 11
178.4867310861
 21
80.4792714313
 31
0.0
  0
LINE
  5
AB
330
1F
100
AcDbEntity
  8
0
  6
Continuous
 62
     7
370
    25
100
AcDbLine
 10
178.4867310861
 20
73.4792714313
 30
0.0
 11
178.4867310861
 21
76.9792714313
 31
0.0
  0
LINE
  5
AC
330
1F
100
AcDbEntity
  8
0
  6
Continuous
 62
     7
370
    25
100
AcDbLine
 10
182.4867310861
 20
76.9792714313
 30
0.0
 11
182.4867310861
 21
80.4792714313
 31
0.0
  0
LINE
  5
AD
330
1F
100
AcDbEntity
  8
0
  6
Continuous
 62
     7
370
    25
100
AcDbLine
 10
182.4867310861
 20
73.4792714313
 30
0.0
 11
182.4867310861
 21
76.9792714313
 31
0.0
  0
LINE
  5
AE
330
1F
100
AcDbEntity
  8
0
  6
Continuous
 62
     7
370
    25
100
AcDbLine
 10
174.4867310861
 20
76.9792714313
 30
0.0
 11
174.4867310861
 21
80.4792714313
 31
0.0
  0
LINE
  5
AF
330
1F
100
AcDbEntity
  8
0
  6
Continuous
 62
     7
370
    25
100
AcDbLine
 10
174.4867310861
 20
73.4792714313
 30
0.0
 11
174.4867310861
 21
76.9792714313
 31
0.0
  0
LINE
  5
B0
330
1F
100
AcDbEntity
  8
0
  6
Continuous
 62
     7
370
    25
100
AcDbLine
 10
191.9867310861
 20
76.9792714313
 30
0.0
 11
191.9867310861
 21
79.1792714313
 31
0.0
  0
LINE
  5
B1
330
1F
100
AcDbEntity
  8
0
  6
Continuous
 62
     7
370
    25
100
AcDbLine
 10
191.9867310861
 20
74.7792714313
 30
0.0
 11
191.9867310861
 21
76.9792714313
 31
0.0
  0
LINE
  5
B2
330
1F
100
AcDbEntity
  8
0
  6
Continuous
 62
     7
370
    25
100
AcDbLine
 10
155.7878648063
 20
72.3604692777
 30
0.0
 11
159.4331412476
 21
72.3604692777
 31
0.0
  0
SPLINE
  5
B3
330
1F
100
AcDbEntity
  8
0
  6
Continuous
 62
     7
370
    25
100
AcDbSpline
210
0.0
220
0.0
230
1.0
 70
     8
 71
     3
 72
    16
 73
    12
 74
     0
 42
0.000000001
 43
0.00000001
 40
0.0
 40
0.0
 40
0.0
 40
0.0
 40
0.1051935664218023
 40
0.2312918996997604
 40
0.3573572448607639
 40
0.4865103187026856
 40
0.6156604465364214
 40
0.7112032284208155
 40
0.806756420180822
 40
0.9033731629575484
 40
0.9999999999999999
 40
0.9999999999999999
 40
0.9999999999999999
 40
0.9999999999999999
 10
155.787864806311
 20
72.36046927774831
 30
0.0
 10
155.7004225010452
 20
72.6774971186575
 30
0.0
 10
155.5081607726239
 20
73.37455468668001
 30
0.0
 10
155.2820468489098
 20
74.46947227495515
 30
0.0
 10
155.1195676744381
 20
75.65133572965516
 30
0.0
 10
155.0570352771527
 20
76.85270537551213
 30
0.0
 10
155.0946087318747
 20
77.9595313200207
 30
0.0
 10
155.2035205409125
 20
78.95522212971174
 30
0.0
 10
155.3527296430217
 20
79.84247438417309
 30
0.0
 10
155.5460107796312
 20
80.72474507997676
 30
0.0
 10
155.7072439900267
 20
81.30695394576564
 30
0.0
 10
155.787864806311
 20
81.59807358478236
 30
0.0
  0
LINE
  5
B4
330
1F
100
AcDbEntity
  8
0
  6
Continuous
 62
     7
370
    25
100
AcDbLine
 10
155.7878648063
 20
81.5980735848
 30
0.0
 11
159.4331412476
 21
81.5980735848
 31
0.0
  0
LINE
  5
B5
330
1F
100
AcDbEntity
  8
0
  6
Continuous
 62
     7
370
    25
100
AcDbLine
 10
159.4867310861
 20
81.1838274852
 30
0.0
 11
159.4331412476
 21
81.5980735848
 31
0.0
  0
LINE
  5
B6
330
1F
100
AcDbEntity
  8
0
  6
Continuous
 62
     7
370
    25
100
AcDbLine
 10
159.5403209246
 20
81.5980735848
 30
0.0
 11
159.4867310861
 21
81.1838274852
 31
0.0
  0
LINE
  5
B7
330
1F
100
AcDbEntity
  8
0
  6
Continuous
 62
     7
370
    25
100
AcDbLine
 10
159.5403209246
 20
81.5980735848
 30
0.0
 11
163.1855973659
 21
81.5980735848
 31
0.0
  0
SPLINE
  5
B8
330
1F
100
AcDbEntity
  8
0
  6
Continuous
 62
     7
370
    25
100
AcDbSpline
210
0.0
220
0.0
230
1.0
 70
     8
 71
     3
 72
    16
 73
    12
 74
     0
 42
0.000000001
 43
0.00000001
 40
0.0
 40
0.0
 40
0.0
 40
0.0
 40
0.1051935664218023
 40
0.2312918996997604
 40
0.3573572448607639
 40
0.4865103187026856
 40
0.6156604465364214
 40
0.7112032284208155
 40
0.806756420180822
 40
0.9033731629575484
 40
0.9999999999999999
 40
0.9999999999999999
 40
0.9999999999999999
 40
0.9999999999999999
 10
163.1855973659215
 20
72.36046927774831
 30
0.0
 10
163.2730396711873
 20
72.6774971186575
 30
0.0
 10
163.4653013996086
 20
73.37455468668001
 30
0.0
 10
163.6914153233227
 20
74.46947227495515
 30
0.0
 10
163.8538944977945
 20
75.65133572965516
 30
0.0
 10
163.9164268950798
 20
76.85270537551213
 30
0.0
 10
163.8788534403578
 20
77.9595313200207
 30
0.0
 10
163.7699416313199
 20
78.95522212971174
 30
0.0
 10
163.6207325292108
 20
79.84247438417309
 30
0.0
 10
163.4274513926013
 20
80.72474507997676
 30
0.0
 10
163.2662181822058
 20
81.30695394576564
 30
0.0
 10
163.1855973659215
 20
81.59807358478236
 30
0.0
  0
LINE
  5
B9
330
1F
100
AcDbEntity
  8
0
  6
Continuous
 62
     7
370
    25
100
AcDbLine
 10
159.5403209246
 20
72.3604692777
 30
0.0
 11
163.1855973659
 21
72.3604692777
 31
0.0
  0
LINE
  5
BA
330
1F
100
AcDbEntity
  8
0
  6
Continuous
 62
     7
370
    25
100
AcDbLine
 10
159.4867310861
 20
72.7747153773
 30
0.0
 11
159.5403209246
 21
72.3604692777
 31
0.0
  0
LINE
  5
BB
330
1F
100
AcDbEntity
  8
0
  6
Continuous
 62
     7
370
    25
100
AcDbLine
 10
159.4331412476
 20
72.3604692777
 30
0.0
 11
159.4867310861
 21
72.7747153773
 31
0.0
  0
LINE
  5
BC
330
1F
100
AcDbEntity
  8
0
  6
Continuous
 62
     7
370
    25
100
AcDbLine
 10
159.5403209246
 20
72.3604692777
 30
0.0
 11
159.4867310861
 21
72.1533462279
 31
0.0
  0
LINE
  5
BD
330
1F
100
AcDbEntity
  8
0
  6
Continuous
 62
     7
370
    25
100
AcDbLine
 10
159.4867310861
 20
72.1533462279
 30
0.0
 11
159.4867310861
 21
72.7747153773
 31
0.0
  0
SPLINE
  5
BE
330
1F
100
AcDbEntity
  8
0
  6
Continuous
 62
     7
370
    25
100
AcDbSpline
210
0.0
220
0.0
230
1.0
 70
     8
 71
     3
 72
    15
 73
    11
 74
     0
 42
0.000000001
 43
0.00000001
 40
0.0
 40
0.0
 40
0.0
 40
0.0
 40
0.13230496641634
 40
0.2645725257576541
 40
0.3997989469058928
 40
0.5350009659368333
 40
0.6501921044151404
 40
0.765401211680801
 40
0.8826892657702317
 40
1.0
 40
1.0
 40
1.0
 40
1.0
 10
155.787864806311
 20
67.74166712423123
 30
0.0
 10
155.6790932787678
 20
67.94121734230036
 30
0.0
 10
155.4615809770598
 20
68.34026135886361
 30
0.0
 10
155.2275457842642
 20
68.95475377435814
 30
0.0
 10
155.0868265283152
 20
69.58082944636507
 30
0.0
 10
155.0589572445916
 20
70.1842271995561
 30
0.0
 10
155.1312590429461
 20
70.75502740157222
 30
0.0
 10
155.2794090229252
 20
71.29372328288606
 30
0.0
 10
155.4967291816298
 20
71.82998357615963
 30
0.0
 10
155.6908133436384
 20
72.1836293141662
 30
0.0
 10
155.787864806311
 20
72.36046927774831
 30
0.0
  0
SPLINE
  5
BF
330
1F
100
AcDbEntity
  8
0
  6
Continuous
 62
     7
370
    25
100
AcDbSpline
210
0.0
220
0.0
230
1.0
 70
     8
 71
     3
 72
    15
 73
    11
 74
     0
 42
0.000000001
 43
0.00000001
 40
0.0
 40
0.0
 40
0.0
 40
0.0
 40
0.1323049664163416
 40
0.2645725257576573
 40
0.3997989469058977
 40
0.5350009659368399
 40
0.6501921044151454
 40
0.7654012116808045
 40
0.8826892657702334
 40
1.0
 40
1.0
 40
1.0
 40
1.0
 10
155.787864806311
 20
81.59807358478236
 30
0.0
 10
155.6790932787678
 20
81.79762380285148
 30
0.0
 10
155.4615809770598
 20
82.19666781941471
 30
0.0
 10
155.2275457842642
 20
82.81116023490922
 30
0.0
 10
155.0868265283152
 20
83.43723590691614
 30
0.0
 10
155.0589572445917
 20
84.04063366010718
 30
0.0
 10
155.1312590429461
 20
84.61143386212325
 30
0.0
 10
155.2794090229252
 20
85.15012974343706
 30
0.0
 10
155.4967291816298
 20
85.68639003671062
 30
0.0
 10
155.6908133436384
 20
86.04003577471715
 30
0.0
 10
155.787864806311
 20
86.21687573829927
 30
0.0
  0
LINE
  5
C0
330
1F
100
AcDbEntity
  8
0
  6
Continuous
 62
     7
370
    25
100
AcDbLine
 10
154.9867310861
 20
76.9792714313
 30
0.0
 11
154.9867310861
 21
84.8292714313
 31
0.0
  0
LINE
  5
C1
330
1F
100
AcDbEntity
  8
0
  6
Continuous
 62
     7
370
    25
100
AcDbLine
 10
154.9867310861
 20
69.1292714313
 30
0.0
 11
154.9867310861
 21
76.9792714313
 31
0.0
  0
LINE
  5
C2
330
1F
100
AcDbEntity
  8
0
  6
Continuous
 62
     7
370
    25
100
AcDbLine
 10
159.4867310861
 20
81.8051966346
 30
0.0
 11
159.5403209246
 21
81.5980735848
 31
0.0
  0
LINE
  5
C3
330
1F
100
AcDbEntity
  8
0
  6
Continuous
 62
     7
370
    25
100
AcDbLine
 10
159.4867310861
 20
81.1838274852
 30
0.0
 11
159.4867310861
 21
81.8051966346
 31
0.0
  0
LINE
  5
C4
330
1F
100
AcDbEntity
  8
0
  6
Continuous
 62
     7
370
    25
100
AcDbLine
 10
155.7878648063
 20
67.7416671242
 30
0.0
 11
159.4331412476
 21
67.7416671242
 31
0.0
  0
LINE
  5
C5
330
1F
100
AcDbEntity
  8
0
  6
Continuous
 62
     7
370
    25
100
AcDbLine
 10
159.4867310861
 20
72.1533462279
 30
0.0
 11
159.4331412476
 21
72.3604692777
 31
0.0
  0
SPLINE
  5
C6
330
1F
100
AcDbEntity
  8
0
  6
Continuous
 62
     7
370
    25
100
AcDbSpline
210
0.0
220
0.0
230
1.0
 70
     8
 71
     3
 72
    15
 73
    11
 74
     0
 42
0.000000001
 43
0.00000001
 40
0.0
 40
0.0
 40
0.0
 40
0.0
 40
0.13230496641634
 40
0.264572525757654
 40
0.3997989469058927
 40
0.5350009659368333
 40
0.6501921044151404
 40
0.765401211680801
 40
0.8826892657702317
 40
1.0
 40
1.0
 40
1.0
 40
1.0
 10
163.1855973659215
 20
67.74166712423123
 30
0.0
 10
163.2943688934647
 20
67.94121734230036
 30
0.0
 10
163.5118811951727
 20
68.34026135886361
 30
0.0
 10
163.7459163879683
 20
68.95475377435814
 30
0.0
 10
163.8866356439174
 20
69.58082944636507
 30
0.0
 10
163.9145049276409
 20
70.1842271995561
 30
0.0
 10
163.8422031292864
 20
70.75502740157222
 30
0.0
 10
163.6940531493073
 20
71.29372328288606
 30
0.0
 10
163.4767329906027
 20
71.82998357615963
 30
0.0
 10
163.2826488285941
 20
72.1836293141662
 30
0.0
 10
163.1855973659215
 20
72.36046927774831
 30
0.0
  0
LINE
  5
C7
330
1F
100
AcDbEntity
  8
0
  6
Continuous
 62
     7
370
    25
100
AcDbLine
 10
159.5403209246
 20
67.7416671242
 30
0.0
 11
163.1855973659
 21
67.7416671242
 31
0.0
  0
LINE
  5
C8
330
1F
100
AcDbEntity
  8
0
  6
Continuous
 62
     7
370
    25
100
AcDbLine
 10
159.4867310861
 20
67.948790174
 30
0.0
 11
159.5403209246
 21
67.7416671242
 31
0.0
  0
LINE
  5
C9
330
1F
100
AcDbEntity
  8
0
  6
Continuous
 62
     7
370
    25
100
AcDbLine
 10
159.4331412476
 20
67.7416671242
 30
0.0
 11
159.4867310861
 21
67.948790174
 31
0.0
  0
SPLINE
  5
CA
330
1F
100
AcDbEntity
  8
0
  6
Continuous
 62
     7
370
    25
100
AcDbSpline
210
0.0
220
0.0
230
1.0
 70
     8
 71
     3
 72
    15
 73
    11
 74
     0
 42
0.000000001
 43
0.00000001
 40
0.0
 40
0.0
 40
0.0
 40
0.0
 40
0.1323049664163416
 40
0.2645725257576573
 40
0.3997989469058977
 40
0.5350009659368399
 40
0.6501921044151454
 40
0.7654012116808045
 40
0.8826892657702333
 40
1.0
 40
1.0
 40
1.0
 40
1.0
 10
163.1855973659215
 20
81.59807358478236
 30
0.0
 10
163.2943688934647
 20
81.79762380285148
 30
0.0
 10
163.5118811951727
 20
82.19666781941473
 30
0.0
 10
163.7459163879683
 20
82.81116023490922
 30
0.0
 10
163.8866356439173
 20
83.43723590691614
 30
0.0
 10
163.9145049276409
 20
84.04063366010718
 30
0.0
 10
163.8422031292864
 20
84.61143386212325
 30
0.0
 10
163.6940531493073
 20
85.15012974343706
 30
0.0
 10
163.4767329906027
 20
85.68639003671062
 30
0.0
 10
163.2826488285941
 20
86.04003577471715
 30
0.0
 10
163.1855973659215
 20
86.21687573829927
 30
0.0
  0
LINE
  5
CB
330
1F
100
AcDbEntity
  8
0
  6
Continuous
 62
     7
370
    25
100
AcDbLine
 10
163.9867310861
 20
76.9792714313
 30
0.0
 11
163.9867310861
 21
84.8292714313
 31
0.0
  0
LINE
  5
CC
330
1F
100
AcDbEntity
  8
0
  6
Continuous
 62
     7
370
    25
100
AcDbLine
 10
163.9867310861
 20
69.1292714313
 30
0.0
 11
163.9867310861
 21
76.9792714313
 31
0.0
  0
LINE
  5
CD
330
1F
100
AcDbEntity
  8
0
  6
Continuous
 62
     7
370
    25
100
AcDbLine
 10
159.4331412476
 20
81.5980735848
 30
0.0
 11
159.4867310861
 21
81.8051966346
 31
0.0
  0
LINE
  5
CE
330
1F
100
AcDbEntity
  8
0
  6
Continuous
 62
     7
370
    25
100
AcDbLine
 10
155.7878648063
 20
86.2168757383
 30
0.0
 11
159.4331412476
 21
86.2168757383
 31
0.0
  0
LINE
  5
CF
330
1F
100
AcDbEntity
  8
0
  6
Continuous
 62
     7
370
    25
100
AcDbLine
 10
159.4867310861
 20
86.0097526885
 30
0.0
 11
159.4331412476
 21
86.2168757383
 31
0.0
  0
LINE
  5
D0
330
1F
100
AcDbEntity
  8
0
  6
Continuous
 62
     7
370
    25
100
AcDbLine
 10
159.5403209246
 20
86.2168757383
 30
0.0
 11
159.4867310861
 21
86.0097526885
 31
0.0
  0
LINE
  5
D1
330
1F
100
AcDbEntity
  8
0
  6
Continuous
 62
     7
370
    25
100
AcDbLine
 10
159.5403209246
 20
86.2168757383
 30
0.0
 11
163.1855973659
 21
86.2168757383
 31
0.0
  0
LINE
  5
D2
330
1F
100
AcDbEntity
  8
0
  6
Continuous
 62
     7
370
    25
100
AcDbLine
 10
152.9867310861
 20
76.9792714313
 30
0.0
 11
152.9867310861
 21
84.5292714313
 31
0.0
  0
LINE
  5
D3
330
1F
100
AcDbEntity
  8
0
  6
Continuous
 62
     7
370
    25
100
AcDbLine
 10
152.9867310861
 20
69.4292714313
 30
0.0
 11
152.9867310861
 21
76.9792714313
 31
0.0
  0
LINE
  5
D4
330
1F
100
AcDbEntity
  8
0
  6
Continuous
 62
     7
370
    25
100
AcDbLine
 10
165.9867310861
 20
84.5292714313
 30
0.0
 11
165.9867310861
 21
69.4292714313
 31
0.0
  0
LINE
  5
D5
330
1F
100
AcDbEntity
  8
0
  6
Continuous
 62
     7
370
    25
100
AcDbLine
 10
159.4867310861
 20
67.9416671242
 30
0.0
 11
159.4867310861
 21
67.948790174
 31
0.0
  0
LINE
  5
D6
330
1F
100
AcDbEntity
  8
0
  6
Continuous
 62
     7
370
    25
100
AcDbLine
 10
159.4867310861
 20
86.0097526885
 30
0.0
 11
159.4867310861
 21
86.0168757383
 31
0.0
  0
LINE
  5
D7
330
1F
100
AcDbEntity
  8
0
  6
Continuous
 62
     7
370
    25
100
AcDbLine
 10
133.8063556015
 20
85.1766436011
 30
0.0
 11
133.8063556015
 21
68.7818992615
 31
0.0
  0
LINE
  5
D8
330
1F
100
AcDbEntity
  8
0
  6
Continuous
 62
     7
370
    25
100
AcDbLine
 10
143.7324461678
 20
84.1611694255
 30
0.0
 11
143.7324461678
 21
84.5198053013
 31
0.0
  0
LINE
  5
D9
330
1F
100
AcDbEntity
  8
0
  6
Continuous
 62
     7
370
    25
100
AcDbLine
 10
143.7324461678
 20
69.4387375612
 30
0.0
 11
143.7324461678
 21
69.797373437
 31
0.0
  0
LINE
  5
DA
330
1F
100
AcDbEntity
  8
0
  6
Continuous
 62
     7
370
    25
100
AcDbLine
 10
143.7324461678
 20
76.6206355555
 30
0.0
 11
143.7324461678
 21
77.3379073071
 31
0.0
  0
LINE
  5
DB
330
1F
100
AcDbEntity
  8
0
  6
Continuous
 62
     7
370
    25
100
AcDbLine
 10
143.7324461678
 20
67.164316855
 30
0.0
 11
146.2002979371
 21
67.164316855
 31
0.0
  0
LINE
  5
DC
330
1F
100
AcDbEntity
  8
0
  6
Continuous
 62
     7
370
    25
100
AcDbLine
 10
143.7324461678
 20
67.164316855
 30
0.0
 11
143.7324461678
 21
69.4387375612
 31
0.0
  0
LINE
  5
DD
330
1F
100
AcDbEntity
  8
0
  6
Continuous
 62
     7
370
    25
100
AcDbLine
 10
143.7324461678
 20
69.797373437
 30
0.0
 11
143.7324461678
 21
72.0717941432
 31
0.0
  0
LINE
  5
DE
330
1F
100
AcDbEntity
  8
0
  6
Continuous
 62
     7
370
    25
100
AcDbLine
 10
143.7324461678
 20
72.0717941432
 30
0.0
 11
146.2002979371
 21
72.0717941432
 31
0.0
  0
SPLINE
  5
DF
330
1F
100
AcDbEntity
  8
0
  6
Continuous
 62
     7
370
    25
100
AcDbSpline
210
0.0
220
0.0
230
1.0
 70
     8
 71
     3
 72
     8
 73
     4
 74
     0
 42
0.000000001
 43
0.00000001
 40
0.0
 40
0.0
 40
0.0
 40
0.0
 40
1.0
 40
1.0
 40
1.0
 40
1.0
 10
146.2806826948657
 20
71.75606629114235
 30
0.0
 10
146.2553080617066
 20
71.86142832728103
 30
0.0
 10
146.2284666604998
 20
71.966667036377
 30
0.0
 10
146.2002979371364
 20
72.0717941431535
 30
0.0
  0
SPLINE
  5
E0
330
1F
100
AcDbEntity
  8
0
  6
Continuous
 62
     7
370
    25
100
AcDbSpline
210
0.0
220
0.0
230
1.0
 70
     8
 71
     3
 72
     8
 73
     4
 74
     0
 42
0.000000001
 43
0.00000001
 40
0.0
 40
0.0
 40
0.0
 40
0.0
 40
1.0
 40
1.0
 40
1.0
 40
1.0
 10
146.3610674525951
 20
72.0717941431535
 30
0.0
 10
146.3328861467719
 20
71.96662007799782
 30
0.0
 10
146.3060456207772
 20
71.86137971576214
 30
0.0
 10
146.2806826948657
 20
71.75606629114235
 30
0.0
  0
LINE
  5
E1
330
1F
100
AcDbEntity
  8
0
  6
Continuous
 62
     7
370
    25
100
AcDbLine
 10
146.3610674526
 20
72.0717941432
 30
0.0
 11
148.8289192219
 21
72.0717941432
 31
0.0
  0
SPLINE
  5
E2
330
1F
100
AcDbEntity
  8
0
  6
Continuous
 62
     7
370
    25
100
AcDbSpline
210
0.0
220
0.0
230
1.0
 70
     8
 71
     3
 72
    16
 73
    12
 74
     0
 42
0.000000001
 43
0.00000001
 40
0.0
 40
0.0
 40
0.0
 40
0.0
 40
0.2500000000000002
 40
0.2500000000000002
 40
0.5000000000000003
 40
0.5000000000000003
 40
0.6250000000000004
 40
0.6250000000000004
 40
0.7500000000000003
 40
0.7500000000000003
 40
1.0
 40
1.0
 40
1.0
 40
1.0
 10
148.8289192219401
 20
72.07179414315344
 30
0.0
 10
149.0602339756227
 20
71.67114523723485
 30
0.0
 10
149.2508792689531
 20
71.26757524755
 30
0.0
 10
149.5149849253604
 20
70.45201846120891
 30
0.0
 10
149.5875741166744
 20
70.0399690926456
 30
0.0
 10
149.5883713627653
 20
69.414131724596
 30
0.0
 10
149.5706261061418
 20
69.20453774113288
 30
0.0
 10
149.5014290226121
 20
68.78993872375665
 30
0.0
 10
149.4500474165498
 20
68.58402921173449
 30
0.0
 10
149.2516394178132
 20
67.96996661368132
 30
0.0
 10
149.0605223161092
 20
67.56546518133314
 30
0.0
 10
148.8289192219398
 20
67.16431685504158
 30
0.0
  0
LINE
  5
E3
330
1F
100
AcDbEntity
  8
0
  6
Continuous
 62
     7
370
    25
100
AcDbLine
 10
146.3610674526
 20
67.164316855
 30
0.0
 11
148.8289192219
 21
67.164316855
 31
0.0
  0
SPLINE
  5
E4
330
1F
100
AcDbEntity
  8
0
  6
Continuous
 62
     7
370
    25
100
AcDbSpline
210
0.0
220
0.0
230
1.0
 70
     8
 71
     3
 72
     8
 73
     4
 74
     0
 42
0.000000001
 43
0.00000001
 40
0.0
 40
0.0
 40
0.0
 40
0.0
 40
1.0
 40
1.0
 40
1.0
 40
1.0
 10
146.2806826948657
 20
67.48004470705277
 30
0.0
 10
146.3060573280249
 20
67.37468267091408
 30
0.0
 10
146.3328987292317
 20
67.26944396181808
 30
0.0
 10
146.3610674525951
 20
67.16431685504159
 30
0.0
  0
SPLINE
  5
E5
330
1F
100
AcDbEntity
  8
0
  6
Continuous
 62
     7
370
    25
100
AcDbSpline
210
0.0
220
0.0
230
1.0
 70
     8
 71
     3
 72
     8
 73
     4
 74
     0
 42
0.000000001
 43
0.00000001
 40
0.0
 40
0.0
 40
0.0
 40
0.0
 40
1.0
 40
1.0
 40
1.0
 40
1.0
 10
146.2002979371364
 20
67.16431685504159
 30
0.0
 10
146.2284792429596
 20
67.2694909201973
 30
0.0
 10
146.2553197689543
 20
67.37473128243296
 30
0.0
 10
146.2806826948657
 20
67.48004470705277
 30
0.0
  0
SPLINE
  5
E6
330
1F
100
AcDbEntity
  8
0
  6
Continuous
 62
     7
370
    25
100
AcDbSpline
210
0.0
220
0.0
230
1.0
 70
     8
 71
     3
 72
     8
 73
     4
 74
     0
 42
0.000000001
 43
0.00000001
 40
0.0
 40
0.0
 40
0.0
 40
0.0
 40
1.0
 40
1.0
 40
1.0
 40
1.0
 10
146.2002979371364
 20
72.0717941431535
 30
0.0
 10
146.2284810890286
 20
72.28215605271141
 30
0.0
 10
146.2553214848267
 20
72.49263724742765
 30
0.0
 10
146.2806826948657
 20
72.70324984717584
 30
0.0
  0
LINE
  5
E7
330
1F
100
AcDbEntity
  8
0
  6
Continuous
 62
     7
370
    25
100
AcDbLine
 10
146.2806826949
 20
71.7560662911
 30
0.0
 11
146.2806826949
 21
72.7032498472
 31
0.0
  0
SPLINE
  5
E8
330
1F
100
AcDbEntity
  8
0
  6
Continuous
 62
     7
370
    25
100
AcDbSpline
210
0.0
220
0.0
230
1.0
 70
     8
 71
     3
 72
     8
 73
     4
 74
     0
 42
0.000000001
 43
0.00000001
 40
0.0
 40
0.0
 40
0.0
 40
0.0
 40
1.0
 40
1.0
 40
1.0
 40
1.0
 10
146.2806826948657
 20
81.25529301535484
 30
0.0
 10
146.2553086642814
 20
81.46601208353914
 30
0.0
 10
146.2284673075644
 20
81.676489676068
 30
0.0
 10
146.2002979371364
 20
81.88674871937718
 30
0.0
  0
SPLINE
  5
E9
330
1F
100
AcDbEntity
  8
0
  6
Continuous
 62
     7
370
    25
100
AcDbSpline
210
0.0
220
0.0
230
1.0
 70
     8
 71
     3
 72
     8
 73
     4
 74
     0
 42
0.000000001
 43
0.00000001
 40
0.0
 40
0.0
 40
0.0
 40
0.0
 40
1.0
 40
1.0
 40
1.0
 40
1.0
 10
146.2002979371364
 20
81.88674871937717
 30
0.0
 10
146.2284792429596
 20
81.99192278453286
 30
0.0
 10
146.2553197689543
 20
82.09716314676852
 30
0.0
 10
146.2806826948657
 20
82.20247657138833
 30
0.0
  0
LINE
  5
EA
330
1F
100
AcDbEntity
  8
0
  6
Continuous
 62
     7
370
    25
100
AcDbLine
 10
146.2806826949
 20
81.2552930154
 30
0.0
 11
146.2806826949
 21
82.2024765714
 31
0.0
  0
SPLINE
  5
EB
330
1F
100
AcDbEntity
  8
0
  6
Continuous
 62
     7
370
    25
100
AcDbSpline
210
0.0
220
0.0
230
1.0
 70
     8
 71
     3
 72
     8
 73
     4
 74
     0
 42
0.000000001
 43
0.00000001
 40
0.0
 40
0.0
 40
0.0
 40
0.0
 40
1.0
 40
1.0
 40
1.0
 40
1.0
 10
146.3610674525951
 20
81.88674871937717
 30
0.0
 10
146.3328843007029
 20
81.67638680981925
 30
0.0
 10
146.3060439049048
 20
81.46590561510301
 30
0.0
 10
146.2806826948657
 20
81.25529301535484
 30
0.0
  0
SPLINE
  5
EC
330
1F
100
AcDbEntity
  8
0
  6
Continuous
 62
     7
370
    25
100
AcDbSpline
210
0.0
220
0.0
230
1.0
 70
     8
 71
     3
 72
     8
 73
     4
 74
     0
 42
0.000000001
 43
0.00000001
 40
0.0
 40
0.0
 40
0.0
 40
0.0
 40
1.0
 40
1.0
 40
1.0
 40
1.0
 10
146.2806826948657
 20
82.20247657138833
 30
0.0
 10
146.3060573280249
 20
82.09711453524964
 30
0.0
 10
146.3328987292317
 20
81.99187582615366
 30
0.0
 10
146.3610674525951
 20
81.88674871937717
 30
0.0
  0
LINE
  5
ED
330
1F
100
AcDbEntity
  8
0
  6
Continuous
 62
     7
370
    25
100
AcDbLine
 10
143.7324461678
 20
72.0717941432
 30
0.0
 11
143.7324461678
 21
76.6206355555
 31
0.0
  0
LINE
  5
EE
330
1F
100
AcDbEntity
  8
0
  6
Continuous
 62
     7
370
    25
100
AcDbLine
 10
143.7324461678
 20
77.3379073071
 30
0.0
 11
143.7324461678
 21
81.8867487194
 31
0.0
  0
LINE
  5
EF
330
1F
100
AcDbEntity
  8
0
  6
Continuous
 62
     7
370
    25
100
AcDbLine
 10
143.7324461678
 20
81.8867487194
 30
0.0
 11
146.2002979371
 21
81.8867487194
 31
0.0
  0
LINE
  5
F0
330
1F
100
AcDbEntity
  8
0
  6
Continuous
 62
     7
370
    25
100
AcDbLine
 10
146.3610674526
 20
81.8867487194
 30
0.0
 11
148.8289192219
 21
81.8867487194
 31
0.0
  0
SPLINE
  5
F1
330
1F
100
AcDbEntity
  8
0
  6
Continuous
 62
     7
370
    25
100
AcDbSpline
210
0.0
220
0.0
230
1.0
 70
     8
 71
     3
 72
    16
 73
    12
 74
     0
 42
0.000000001
 43
0.00000001
 40
0.0
 40
0.0
 40
0.0
 40
0.0
 40
0.25
 40
0.25
 40
0.5
 40
0.5
 40
0.625
 40
0.625
 40
0.75
 40
0.75
 40
1.0
 40
1.0
 40
1.0
 40
1.0
 10
148.8289192219396
 20
72.07179414315327
 30
0.0
 10
149.0597867203522
 20
72.87154261728709
 30
0.0
 10
149.2527859680072
 20
73.68854549518008
 30
0.0
 10
149.5167856279581
 20
75.32597766716451
 30
0.0
 10
149.588223584434
 20
76.15032044049016
 30
0.0
 10
149.5880508965961
 20
77.39680638954032
 30
0.0
 10
149.5701934975072
 20
77.81521698750745
 30
0.0
 10
149.4999356169834
 20
78.64957058507251
 30
0.0
 10
149.4479668847872
 20
79.06241911932057
 30
0.0
 10
149.2485863682138
 20
80.28979069105029
 30
0.0
 10
149.0579927141971
 20
81.09321486486294
 30
0.0
 10
148.8289192219396
 20
81.88674871937718
 30
0.0
  0
SPLINE
  5
F2
330
1F
100
AcDbEntity
  8
0
  6
Continuous
 62
     7
370
    25
100
AcDbSpline
210
0.0
220
0.0
230
1.0
 70
     8
 71
     3
 72
     8
 73
     4
 74
     0
 42
0.000000001
 43
0.00000001
 40
0.0
 40
0.0
 40
0.0
 40
0.0
 40
1.0
 40
1.0
 40
1.0
 40
1.0
 10
146.2806826948657
 20
72.70324984717584
 30
0.0
 10
146.3060567254501
 20
72.49253077899154
 30
0.0
 10
146.3328980821671
 20
72.28205318646268
 30
0.0
 10
146.3610674525951
 20
72.0717941431535
 30
0.0
  0
SPLINE
  5
F3
330
1F
100
AcDbEntity
  8
0
  6
Continuous
 62
     7
370
    25
100
AcDbSpline
210
0.0
220
0.0
230
1.0
 70
     8
 71
     3
 72
    16
 73
    12
 74
     0
 42
0.000000001
 43
0.00000001
 40
0.0
 40
0.0
 40
0.0
 40
0.0
 40
0.2500000000000002
 40
0.2500000000000002
 40
0.5000000000000003
 40
0.5000000000000003
 40
0.6250000000000003
 40
0.6250000000000003
 40
0.7500000000000003
 40
0.7500000000000003
 40
1.0
 40
1.0
 40
1.0
 40
1.0
 10
148.82891922194
 20
86.79422600748893
 30
0.0
 10
149.0602339756227
 20
86.39357710157034
 30
0.0
 10
149.2508792689531
 20
85.99000711188549
 30
0.0
 10
149.5149849253604
 20
85.17445032554443
 30
0.0
 10
149.5875741166743
 20
84.76240095698112
 30
0.0
 10
149.5883713627653
 20
84.13656358893154
 30
0.0
 10
149.5706261061418
 20
83.92696960546841
 30
0.0
 10
149.5014290226121
 20
83.51237058809218
 30
0.0
 10
149.4500474165498
 20
83.30646107607002
 30
0.0
 10
149.2516394178132
 20
82.69239847801687
 30
0.0
 10
149.0605223161092
 20
82.2878970456687
 30
0.0
 10
148.8289192219398
 20
81.88674871937715
 30
0.0
  0
LINE
  5
F4
330
1F
100
AcDbEntity
  8
0
  6
Continuous
 62
     7
370
    25
100
AcDbLine
 10
149.7324461678
 20
85.2292714313
 30
0.0
 11
149.7324461678
 21
68.7292714313
 31
0.0
  0
LINE
  5
F5
330
1F
100
AcDbEntity
  8
0
  6
Continuous
 62
     7
370
    25
100
AcDbLine
 10
143.7324461678
 20
84.5198053013
 30
0.0
 11
143.7324461678
 21
86.7942260075
 31
0.0
  0
LINE
  5
F6
330
1F
100
AcDbEntity
  8
0
  6
Continuous
 62
     7
370
    25
100
AcDbLine
 10
143.7324461678
 20
86.7942260075
 30
0.0
 11
146.2002979371
 21
86.7942260075
 31
0.0
  0
SPLINE
  5
F7
330
1F
100
AcDbEntity
  8
0
  6
Continuous
 62
     7
370
    25
100
AcDbSpline
210
0.0
220
0.0
230
1.0
 70
     8
 71
     3
 72
     8
 73
     4
 74
     0
 42
0.000000001
 43
0.00000001
 40
0.0
 40
0.0
 40
0.0
 40
0.0
 40
1.0
 40
1.0
 40
1.0
 40
1.0
 10
146.2806826948657
 20
86.47849815547772
 30
0.0
 10
146.2553080617066
 20
86.58386019161641
 30
0.0
 10
146.2284666604998
 20
86.6890989007124
 30
0.0
 10
146.2002979371364
 20
86.7942260074889
 30
0.0
  0
SPLINE
  5
F8
330
1F
100
AcDbEntity
  8
0
  6
Continuous
 62
     7
370
    25
100
AcDbSpline
210
0.0
220
0.0
230
1.0
 70
     8
 71
     3
 72
     8
 73
     4
 74
     0
 42
0.000000001
 43
0.00000001
 40
0.0
 40
0.0
 40
0.0
 40
0.0
 40
1.0
 40
1.0
 40
1.0
 40
1.0
 10
146.3610674525951
 20
86.7942260074889
 30
0.0
 10
146.3328861467719
 20
86.6890519423332
 30
0.0
 10
146.3060456207772
 20
86.58381158009753
 30
0.0
 10
146.2806826948657
 20
86.47849815547772
 30
0.0
  0
LINE
  5
F9
330
1F
100
AcDbEntity
  8
0
  6
Continuous
 62
     7
370
    25
100
AcDbLine
 10
146.3610674526
 20
86.7942260075
 30
0.0
 11
148.8289192219
 21
86.7942260075
 31
0.0
  0
LINE
  5
FA
330
1F
100
AcDbEntity
  8
0
  6
Continuous
 62
     7
370
    25
100
AcDbLine
 10
143.7324461678
 20
81.8867487194
 30
0.0
 11
143.7324461678
 21
84.1611694255
 31
0.0
  0
LINE
  5
FB
330
1F
100
AcDbEntity
  8
0
  6
Continuous
 62
     7
370
    25
100
AcDbLine
 10
131.7324461678
 20
76.9792714313
 30
0.0
 11
131.7324461678
 21
83.9792714313
 31
0.0
  0
LINE
  5
FC
330
1F
100
AcDbEntity
  8
0
  6
Continuous
 62
     7
370
    25
100
AcDbLine
 10
131.7324461678
 20
69.9792714313
 30
0.0
 11
131.7324461678
 21
76.9792714313
 31
0.0
  0
LINE
  5
FD
330
1F
100
AcDbEntity
  8
0
  6
Continuous
 62
     7
370
    25
100
AcDbLine
 10
152.7324461678
 20
83.5577714313
 30
0.0
 11
152.7324461678
 21
70.4007714313
 31
0.0
  0
LINE
  5
FE
330
1F
100
AcDbEntity
  8
0
  6
Continuous
 62
     7
370
    25
100
AcDbLine
 10
151.7324461678
 20
71.4007714313
 30
0.0
 11
151.7324461678
 21
82.5577714313
 31
0.0
  0
LINE
  5
FF
330
1F
100
AcDbEntity
  8
0
  6
Continuous
 62
     7
370
    25
100
AcDbLine
 10
146.2806826949
 20
67.464316855
 30
0.0
 11
146.2806826949
 21
67.4800447071
 31
0.0
  0
LINE
  5
100
330
1F
100
AcDbEntity
  8
0
  6
Continuous
 62
     7
370
    25
100
AcDbLine
 10
146.2806826949
 20
86.4784981555
 30
0.0
 11
146.2806826949
 21
86.4942260075
 31
0.0
  0
LINE
  5
101
330
1F
100
AcDbEntity
  8
0
  6
Continuous
 62
     8
370
    25
100
AcDbLine
 10
191.2829751291
 20
74.0461002727
 30
0.0
 11
191.2829751291
 21
79.9124425898
 31
0.0
  0
LINE
  5
102
330
1F
100
AcDbEntity
  8
0
  6
Continuous
 62
     8
370
    25
100
AcDbLine
 10
153.2867310861
 20
76.9792714313
 30
0.0
 11
153.2867310861
 21
69.1292714313
 31
0.0
  0
LINE
  5
103
330
1F
100
AcDbEntity
  8
0
  6
Continuous
 62
     8
370
    25
100
AcDbLine
 10
153.2867310861
 20
84.8292714313
 30
0.0
 11
153.2867310861
 21
76.9792714313
 31
0.0
  0
LINE
  5
104
330
1F
100
AcDbEntity
  8
0
  6
Continuous
 62
     8
370
    25
100
AcDbLine
 10
165.6867310861
 20
69.1292714313
 30
0.0
 11
165.6867310861
 21
84.8292714313
 31
0.0
  0
LINE
  5
105
330
1F
100
AcDbEntity
  8
0
  6
Continuous
 62
     7
370
     0
100
AcDbLine
 10
132.4835725696
 20
84.4129344615
 30
0.0
 11
143.2324461678
 21
84.7488367615
 31
0.0
  0
LINE
  5
106
330
1F
100
AcDbEntity
  8
0
  6
Continuous
 62
     7
370
     0
100
AcDbLine
 10
132.4835725696
 20
69.545608401
 30
0.0
 11
143.2324461678
 21
69.2097061011
 31
0.0
  0
LINE
  5
107
330
1F
100
AcDbEntity
  8
0
  6
Continuous
 62
     7
370
     0
100
AcDbLine
 10
143.2324461678
 20
68.4873339313
 30
0.0
 11
143.2324461678
 21
85.4712089313
 31
0.0
  0
LINE
  5
108
330
1F
100
AcDbEntity
  8
0
  6
CENTERX2
 62
     7
370
    18
100
AcDbLine
 10
129.7324461678
 20
76.9792714313
 30
0.0
 11
145.7324461678
 21
76.9792714313
 31
0.0
  0
LINE
  5
109
330
1F
100
AcDbEntity
  8
0
  6
CENTERX2
 62
     7
370
    18
100
AcDbLine
 10
147.7324461678
 20
76.9792714313
 30
0.0
 11
193.2829751291
 21
76.9792714313
 31
0.0
  0
LINE
  5
10A
330
1F
100
AcDbEntity
  8
0
  6
CENTERX2
 62
     7
370
    18
100
AcDbLine
 10
143.0467568102
 20
76.9792714313
 30
0.0
 11
149.5146085795
 21
76.9792714313
 31
0.0
  0
CIRCLE
  5
10B
330
1F
100
AcDbEntity
  8
0
  6
Continuous
 62
     7
370
    25
100
AcDbCircle
 10
215.9409157341
 20
76.9792714313
 30
0.0
 40
2.200000000000017
  0
CIRCLE
  5
10C
330
1F
100
AcDbEntity
  8
0
  6
Continuous
 62
     7
370
    25
100
AcDbCircle
 10
215.9409157341
 20
76.9792714313
 30
0.0
 40
2.0
  0
CIRCLE
  5
10D
330
1F
100
AcDbEntity
  8
0
  6
Continuous
 62
     7
370
    25
100
AcDbCircle
 10
215.9409157341
 20
76.9792714313
 30
0.0
 40
2.933171158551374
  0
CIRCLE
  5
10E
330
1F
100
AcDbEntity
  8
0
  6
Continuous
 62
     7
370
    25
100
AcDbCircle
 10
215.9409157341
 20
76.9792714313
 30
0.0
 40
3.5
  0
CIRCLE
  5
10F
330
1F
100
AcDbEntity
  8
0
  6
Continuous
 62
     7
370
    25
100
AcDbCircle
 10
215.9409157341
 20
76.9792714313
 30
0.0
 40
4.5
  0
CIRCLE
  5
110
330
1F
100
AcDbEntity
  8
0
  6
Continuous
 62
     7
370
    25
100
AcDbCircle
 10
215.9409157341
 20
76.9792714313
 30
0.0
 40
7.849999999999994
  0
CIRCLE
  5
111
330
1F
100
AcDbEntity
  8
0
  6
Continuous
 62
     7
370
    25
100
AcDbCircle
 10
215.9409157341
 20
76.9792714313
 30
0.0
 40
7.549999999999983
  0
CIRCLE
  5
112
330
1F
100
AcDbEntity
  8
0
  6
Continuous
 62
     7
370
    25
100
AcDbCircle
 10
215.9409157341
 20
76.9792714313
 30
0.0
 40
4.849999999999994
  0
CIRCLE
  5
113
330
1F
100
AcDbEntity
  8
0
  6
Continuous
 62
     7
370
    25
100
AcDbCircle
 10
215.9409157341
 20
76.9792714313
 30
0.0
 40
4.749999999999972
  0
SPLINE
  5
114
330
1F
100
AcDbEntity
  8
0
  6
Continuous
 62
     7
370
    25
100
AcDbSpline
210
0.0
220
0.0
230
1.0
 70
    24
 71
     3
 72
    15
 73
    11
 74
     0
 42
0.000000001
 43
0.00000001
 40
0.0
 40
0.0
 40
0.0
 40
0.0
 40
0.1323049664163417
 40
0.2645725257576573
 40
0.3997989469058977
 40
0.5350009659368399
 40
0.6501921044151454
 40
0.7654012116808045
 40
0.8826892657702333
 40
1.0
 40
1.0
 40
1.0
 40
1.0
 10
207.9409157341387
 20
81.59807358478236
 30
0.0
 10
208.2865468504959
 20
81.79762380285148
 30
0.0
 10
208.9777113616398
 20
82.19666781941471
 30
0.0
 10
210.0420434461421
 20
82.81116023490922
 30
0.0
 10
211.1264383194409
 20
83.43723590691614
 30
0.0
 10
212.1715538851407
 20
84.04063366010718
 30
0.0
 10
213.1602088360031
 20
84.61143386212325
 30
0.0
 10
214.0932574722667
 20
85.15012974343706
 30
0.0
 10
215.0220875462983
 20
85.68639003671062
 30
0.0
 10
215.6346199324059
 20
86.04003577471715
 30
0.0
 10
215.9409157341387
 20
86.21687573829927
 30
0.0
  0
SPLINE
  5
115
330
1F
100
AcDbEntity
  8
0
  6
Continuous
 62
     7
370
    25
100
AcDbSpline
210
0.0
220
0.0
230
1.0
 70
    24
 71
     3
 72
    15
 73
    11
 74
     0
 42
0.000000001
 43
0.00000001
 40
0.0
 40
0.0
 40
0.0
 40
0.0
 40
0.13230496641634
 40
0.2645725257576541
 40
0.3997989469058928
 40
0.5350009659368333
 40
0.6501921044151404
 40
0.7654012116808011
 40
0.8826892657702318
 40
1.0
 40
1.0
 40
1.0
 40
1.0
 10
215.9409157341387
 20
86.21687573829927
 30
0.0
 10
216.2865468504959
 20
86.01732552023013
 30
0.0
 10
216.9777113616398
 20
85.61828150366689
 30
0.0
 10
218.042043446142
 20
85.00378908817238
 30
0.0
 10
219.1264383194408
 20
84.37771341616546
 30
0.0
 10
220.1715538851406
 20
83.77431566297442
 30
0.0
 10
221.1602088360031
 20
83.20351546095831
 30
0.0
 10
222.0932574722667
 20
82.66481957964447
 30
0.0
 10
223.0220875462983
 20
82.12855928637092
 30
0.0
 10
223.6346199324059
 20
81.77491354836435
 30
0.0
 10
223.9409157341387
 20
81.59807358478224
 30
0.0
  0
SPLINE
  5
116
330
1F
100
AcDbEntity
  8
0
  6
Continuous
 62
     7
370
    25
100
AcDbSpline
210
0.0
220
0.0
230
1.0
 70
    24
 71
     3
 72
    16
 73
    12
 74
     0
 42
0.000000001
 43
0.00000001
 40
0.0
 40
0.0
 40
0.0
 40
0.0
 40
0.0956237145789417
 40
0.1912377652649445
 40
0.2877937408434854
 40
0.38433884805827
 40
0.510267629796456
 40
0.6361984448948281
 40
0.765484310715168
 40
0.8948065592131594
 40
1.0
 40
1.0
 40
1.0
 40
1.0
 10
223.9409157341387
 20
81.59807358478224
 30
0.0
 10
223.9409157341387
 20
81.30998555825946
 30
0.0
 10
223.9409157341387
 20
80.7338386198729
 30
0.0
 10
223.9409157341387
 20
79.85479037209402
 30
0.0
 10
223.9409157341387
 20
78.96456888918063
 30
0.0
 10
223.9409157341387
 20
77.97267728188437
 30
0.0
 10
223.9409157341387
 20
76.88298758019481
 30
0.0
 10
223.9409157341387
 20
75.69156918050051
 30
0.0
 10
223.9409157341387
 20
74.49917338812666
 30
0.0
 10
223.9409157341387
 20
73.38427441701343
 30
0.0
 10
223.9409157341387
 20
72.67749809964603
 30
0.0
 10
223.9409157341387
 20
72.3604692777482
 30
0.0
  0
SPLINE
  5
117
330
1F
100
AcDbEntity
  8
0
  6
Continuous
 62
     7
370
    25
100
AcDbSpline
210
0.0
220
0.0
230
1.0
 70
    24
 71
     3
 72
    15
 73
    11
 74
     0
 42
0.000000001
 43
0.00000001
 40
0.0
 40
0.0
 40
0.0
 40
0.0
 40
0.13230496641634
 40
0.2645725257576539
 40
0.3997989469058926
 40
0.5350009659368332
 40
0.6501921044151403
 40
0.7654012116808009
 40
0.8826892657702315
 40
1.0
 40
1.0
 40
1.0
 40
1.0
 10
223.9409157341387
 20
72.3604692777482
 30
0.0
 10
223.5952846177815
 20
72.16091905967907
 30
0.0
 10
222.9041201066376
 20
71.76187504311584
 30
0.0
 10
221.8397880221354
 20
71.14738262762133
 30
0.0
 10
220.7553931488366
 20
70.5213069556144
 30
0.0
 10
219.7102775831368
 20
69.91790920242337
 30
0.0
 10
218.7216226322743
 20
69.34710900040729
 30
0.0
 10
217.7885739960107
 20
68.80841311909346
 30
0.0
 10
216.859743921979
 20
68.2721528258199
 30
0.0
 10
216.2472115358715
 20
67.91850708781334
 30
0.0
 10
215.9409157341387
 20
67.74166712423123
 30
0.0
  0
SPLINE
  5
118
330
1F
100
AcDbEntity
  8
0
  6
Continuous
 62
     7
370
    25
100
AcDbSpline
210
0.0
220
0.0
230
1.0
 70
    24
 71
     3
 72
    15
 73
    11
 74
     0
 42
0.000000001
 43
0.00000001
 40
0.0
 40
0.0
 40
0.0
 40
0.0
 40
0.13230496641634
 40
0.264572525757654
 40
0.3997989469058927
 40
0.5350009659368333
 40
0.6501921044151404
 40
0.765401211680801
 40
0.8826892657702317
 40
1.0
 40
1.0
 40
1.0
 40
1.0
 10
215.9409157341387
 20
67.74166712423123
 30
0.0
 10
215.5952846177815
 20
67.94121734230036
 30
0.0
 10
214.9041201066376
 20
68.34026135886361
 30
0.0
 10
213.8397880221354
 20
68.95475377435814
 30
0.0
 10
212.7553931488365
 20
69.58082944636507
 30
0.0
 10
211.7102775831367
 20
70.1842271995561
 30
0.0
 10
210.7216226322743
 20
70.75502740157222
 30
0.0
 10
209.7885739960107
 20
71.29372328288606
 30
0.0
 10
208.8597439219791
 20
71.82998357615963
 30
0.0
 10
208.2472115358715
 20
72.1836293141662
 30
0.0
 10
207.9409157341387
 20
72.36046927774831
 30
0.0
  0
SPLINE
  5
119
330
1F
100
AcDbEntity
  8
0
  6
Continuous
 62
     7
370
    25
100
AcDbSpline
210
0.0
220
0.0
230
1.0
 70
    24
 71
     3
 72
    16
 73
    12
 74
     0
 42
0.000000001
 43
0.00000001
 40
0.0
 40
0.0
 40
0.0
 40
0.0
 40
0.1051935664218023
 40
0.2312918996997604
 40
0.3573572448607639
 40
0.4865103187026856
 40
0.6156604465364214
 40
0.7112032284208155
 40
0.806756420180822
 40
0.9033731629575484
 40
0.9999999999999999
 40
0.9999999999999999
 40
0.9999999999999999
 40
0.9999999999999999
 10
207.9409157341387
 20
72.36046927774831
 30
0.0
 10
207.9409157341387
 20
72.6774971186575
 30
0.0
 10
207.9409157341387
 20
73.37455468668001
 30
0.0
 10
207.9409157341387
 20
74.46947227495515
 30
0.0
 10
207.9409157341387
 20
75.65133572965516
 30
0.0
 10
207.9409157341387
 20
76.85270537551213
 30
0.0
 10
207.9409157341387
 20
77.9595313200207
 30
0.0
 10
207.9409157341387
 20
78.95522212971174
 30
0.0
 10
207.9409157341387
 20
79.84247438417309
 30
0.0
 10
207.9409157341387
 20
80.72474507997676
 30
0.0
 10
207.9409157341387
 20
81.30695394576564
 30
0.0
 10
207.9409157341387
 20
81.59807358478236
 30
0.0
  0
SPLINE
  5
11A
330
1F
100
AcDbEntity
  8
0
  6
Continuous
 62
     7
370
    25
100
AcDbSpline
210
0.0
220
0.0
230
1.0
 70
    24
 71
     3
 72
    16
 73
    12
 74
     0
 42
0.000000001
 43
0.00000001
 40
0.0
 40
0.0
 40
0.0
 40
0.0
 40
0.2500000000000002
 40
0.2500000000000002
 40
0.5000000000000004
 40
0.5000000000000004
 40
0.6250000000000004
 40
0.6250000000000004
 40
0.7500000000000003
 40
0.7500000000000003
 40
1.0
 40
1.0
 40
1.0
 40
1.0
 10
224.4409157341388
 20
81.88674871937702
 30
0.0
 10
223.7469714730909
 20
82.28739762529563
 30
0.0
 10
223.0479677465467
 20
82.69096761498048
 30
0.0
 10
221.6353819561463
 20
83.50652440132156
 30
0.0
 10
220.921691514568
 20
83.91857376988487
 30
0.0
 10
219.8377093958309
 20
84.54441113793449
 30
0.0
 10
219.474681967512
 20
84.7540051213976
 30
0.0
 10
218.7565754046482
 20
85.16860413877383
 30
0.0
 10
218.3999296680641
 20
85.37451365079602
 30
0.0
 10
217.3363420492083
 20
85.98857624884917
 30
0.0
 10
216.6357250166469
 20
86.39307768119735
 30
0.0
 10
215.9409157341387
 20
86.79422600748892
 30
0.0
  0
SPLINE
  5
11B
330
1F
100
AcDbEntity
  8
0
  6
Continuous
 62
     7
370
    25
100
AcDbSpline
210
0.0
220
0.0
230
1.0
 70
    24
 71
     3
 72
    16
 73
    12
 74
     0
 42
0.000000001
 43
0.00000001
 40
0.0
 40
0.0
 40
0.0
 40
0.0
 40
0.25
 40
0.25
 40
0.5
 40
0.5
 40
0.625
 40
0.625
 40
0.75
 40
0.75
 40
1.0
 40
1.0
 40
1.0
 40
1.0
 10
224.4409157341387
 20
72.07179414315338
 30
0.0
 10
224.4409157341387
 20
72.87154261729098
 30
0.0
 10
224.4409157341387
 20
73.68854549518096
 30
0.0
 10
224.4409157341387
 20
75.32597766712531
 30
0.0
 10
224.4409157341387
 20
76.1503204404203
 30
0.0
 10
224.4409157341387
 20
77.39680638940476
 30
0.0
 10
224.4409157341387
 20
77.81521698730842
 30
0.0
 10
224.4409157341387
 20
78.64957058494483
 30
0.0
 10
224.4409157341387
 20
79.0624191192214
 30
0.0
 10
224.4409157341387
 20
80.28979069101925
 30
0.0
 10
224.4409157341387
 20
81.09321486485432
 30
0.0
 10
224.4409157341387
 20
81.88674871937705
 30
0.0
  0
SPLINE
  5
11C
330
1F
100
AcDbEntity
  8
0
  6
Continuous
 62
     7
370
    25
100
AcDbSpline
210
0.0
220
0.0
230
1.0
 70
    24
 71
     3
 72
    16
 73
    12
 74
     0
 42
0.000000001
 43
0.00000001
 40
0.0
 40
0.0
 40
0.0
 40
0.0
 40
0.2499999999999997
 40
0.2499999999999997
 40
0.4999999999999994
 40
0.4999999999999994
 40
0.6249999999999996
 40
0.6249999999999996
 40
0.7499999999999996
 40
0.7499999999999996
 40
1.0
 40
1.0
 40
1.0
 40
1.0
 10
215.9409157341386
 20
67.16431685504156
 30
0.0
 10
216.6348599951865
 20
67.56496576096016
 30
0.0
 10
217.3338637217307
 20
67.968535750645
 30
0.0
 10
218.7464495121311
 20
68.78409253698608
 30
0.0
 10
219.4601399537094
 20
69.1961419055494
 30
0.0
 10
220.5441220724465
 20
69.821979273599
 30
0.0
 10
220.9071495007654
 20
70.0315732570621
 30
0.0
 10
221.6252560636291
 20
70.44617227443835
 30
0.0
 10
221.9819018002133
 20
70.65208178646051
 30
0.0
 10
223.0454894190691
 20
71.26614438451368
 30
0.0
 10
223.7461064516305
 20
71.67064581686185
 30
0.0
 10
224.4409157341387
 20
72.0717941431534
 30
0.0
  0
SPLINE
  5
11D
330
1F
100
AcDbEntity
  8
0
  6
Continuous
 62
     7
370
    25
100
AcDbSpline
210
0.0
220
0.0
230
1.0
 70
    24
 71
     3
 72
    16
 73
    12
 74
     0
 42
0.000000001
 43
0.00000001
 40
0.0
 40
0.0
 40
0.0
 40
0.0
 40
0.2500000000000002
 40
0.2500000000000002
 40
0.5000000000000003
 40
0.5000000000000003
 40
0.6250000000000004
 40
0.6250000000000004
 40
0.7500000000000003
 40
0.7500000000000003
 40
1.0
 40
1.0
 40
1.0
 40
1.0
 10
207.4409157341387
 20
72.07179414315344
 30
0.0
 10
208.1348599951866
 20
71.67114523723485
 30
0.0
 10
208.8338637217308
 20
71.26757524755
 30
0.0
 10
210.2464495121311
 20
70.45201846120891
 30
0.0
 10
210.9601399537095
 20
70.0399690926456
 30
0.0
 10
212.0441220724466
 20
69.414131724596
 30
0.0
 10
212.4071495007654
 20
69.20453774113288
 30
0.0
 10
213.1252560636292
 20
68.78993872375665
 30
0.0
 10
213.4819018002133
 20
68.58402921173449
 30
0.0
 10
214.5454894190691
 20
67.96996661368132
 30
0.0
 10
215.2461064516305
 20
67.56546518133314
 30
0.0
 10
215.9409157341387
 20
67.16431685504158
 30
0.0
  0
SPLINE
  5
11E
330
1F
100
AcDbEntity
  8
0
  6
Continuous
 62
     7
370
    25
100
AcDbSpline
210
0.0
220
0.0
230
1.0
 70
    24
 71
     3
 72
    16
 73
    12
 74
     0
 42
0.000000001
 43
0.00000001
 40
0.0
 40
0.0
 40
0.0
 40
0.0
 40
0.25
 40
0.25
 40
0.5
 40
0.5
 40
0.625
 40
0.625
 40
0.75
 40
0.75
 40
1.0
 40
1.0
 40
1.0
 40
1.0
 10
207.4409157341387
 20
72.07179414315327
 30
0.0
 10
207.4409157341387
 20
72.87154261728709
 30
0.0
 10
207.4409157341387
 20
73.68854549518008
 30
0.0
 10
207.4409157341387
 20
75.32597766716451
 30
0.0
 10
207.4409157341387
 20
76.15032044049016
 30
0.0
 10
207.4409157341387
 20
77.39680638954032
 30
0.0
 10
207.4409157341387
 20
77.81521698750745
 30
0.0
 10
207.4409157341387
 20
78.64957058507251
 30
0.0
 10
207.4409157341387
 20
79.06241911932057
 30
0.0
 10
207.4409157341387
 20
80.28979069105029
 30
0.0
 10
207.4409157341387
 20
81.09321486486294
 30
0.0
 10
207.4409157341387
 20
81.88674871937718
 30
0.0
  0
SPLINE
  5
11F
330
1F
100
AcDbEntity
  8
0
  6
Continuous
 62
     7
370
    25
100
AcDbSpline
210
0.0
220
0.0
230
1.0
 70
    24
 71
     3
 72
    16
 73
    12
 74
     0
 42
0.000000001
 43
0.00000001
 40
0.0
 40
0.0
 40
0.0
 40
0.0
 40
0.2500000000000002
 40
0.2500000000000002
 40
0.5000000000000003
 40
0.5000000000000003
 40
0.6250000000000003
 40
0.6250000000000003
 40
0.7500000000000003
 40
0.7500000000000003
 40
1.0
 40
1.0
 40
1.0
 40
1.0
 10
215.9409157341388
 20
86.79422600748893
 30
0.0
 10
215.2469714730909
 20
86.39357710157034
 30
0.0
 10
214.5479677465467
 20
85.99000711188549
 30
0.0
 10
213.1353819561463
 20
85.17445032554443
 30
0.0
 10
212.421691514568
 20
84.76240095698112
 30
0.0
 10
211.3377093958309
 20
84.13656358893154
 30
0.0
 10
210.974681967512
 20
83.92696960546841
 30
0.0
 10
210.2565754046483
 20
83.51237058809218
 30
0.0
 10
209.8999296680641
 20
83.30646107607002
 30
0.0
 10
208.8363420492083
 20
82.69239847801687
 30
0.0
 10
208.1357250166469
 20
82.2878970456687
 30
0.0
 10
207.4409157341387
 20
81.88674871937715
 30
0.0
  0
ARC
  5
120
330
1F
100
AcDbEntity
  8
0
  6
Continuous
 62
     7
370
    25
100
AcDbCircle
 10
215.9409157341
 20
76.9792714313
 30
0.0
 40
8.25
100
AcDbArc
 50
0.0
 51
13.5342098096
  0
ARC
  5
121
330
1F
100
AcDbEntity
  8
0
  6
Continuous
 62
     7
370
    25
100
AcDbCircle
 10
215.9409157341
 20
76.9792714313
 30
0.0
 40
8.250000000000007
100
AcDbArc
 50
46.4915138823
 51
73.6298250426
  0
ARC
  5
122
330
1F
100
AcDbEntity
  8
0
  6
Continuous
 62
     7
370
    25
100
AcDbCircle
 10
215.9409157341
 20
76.9792714313
 30
0.0
 40
8.250000000000004
100
AcDbArc
 50
106.4604303428
 51
133.8126637996
  0
ARC
  5
123
330
1F
100
AcDbEntity
  8
0
  6
Continuous
 62
     7
370
    25
100
AcDbCircle
 10
215.9409157341
 20
76.9792714313
 30
0.0
 40
8.250000000000018
100
AcDbArc
 50
166.3826062534
 51
194.1061907293
  0
ARC
  5
124
330
1F
100
AcDbEntity
  8
0
  6
Continuous
 62
     7
370
    25
100
AcDbCircle
 10
215.9409157341
 20
76.9792714313
 30
0.0
 40
8.25000000000001
100
AcDbArc
 50
226.2659167277
 51
253.9708102906
  0
ARC
  5
125
330
1F
100
AcDbEntity
  8
0
  6
Continuous
 62
     7
370
    25
100
AcDbCircle
 10
215.9409157341
 20
76.9792714313
 30
0.0
 40
8.250000000000002
100
AcDbArc
 50
286.1166141513
 51
313.8068170553
  0
ARC
  5
126
330
1F
100
AcDbEntity
  8
0
  6
Continuous
 62
     7
370
    25
100
AcDbCircle
 10
215.9409157341
 20
76.9792714313
 30
0.0
 40
8.25
100
AcDbArc
 50
345.9397286372
 51
0.0
  0
INSERT
  5
132
330
1F
100
AcDbEntity
  8
0
  6
Continuous
 62
     7
370
    18
100
AcDbBlockReference
  2
SW_CENTERMARKSYMBOL_0
 10
215.9409157341
 20
76.9792714313
 30
0.0
  0
LINE
  5
133
330
1F
100
AcDbEntity
  8
0
  6
Continuous
 62
     7
370
    25
100
AcDbLine
 10
165.9867310861
 20
109.6003574564
 30
0.0
 11
166.4867310861
 21
109.6003574564
 31
0.0
  0
LINE
  5
134
330
1F
100
AcDbEntity
  8
0
  6
Continuous
 62
     7
370
    25
100
AcDbLine
 10
166.4867310861
 20
118.6003574564
 30
0.0
 11
165.9867310861
 21
118.6003574564
 31
0.0
  0
LINE
  5
135
330
1F
100
AcDbEntity
  8
0
  6
Continuous
 62
     7
370
    25
100
AcDbLine
 10
170.4867310861
 20
110.6003574564
 30
0.0
 11
174.4867310861
 21
111.2503574564
 31
0.0
  0
LINE
  5
136
330
1F
100
AcDbEntity
  8
0
  6
Continuous
 62
     7
370
    25
100
AcDbLine
 10
174.4867310861
 20
116.9503574564
 30
0.0
 11
170.4867310861
 21
117.6003574564
 31
0.0
  0
LINE
  5
137
330
1F
100
AcDbEntity
  8
0
  6
Continuous
 62
     7
370
    25
100
AcDbLine
 10
166.4867310861
 20
110.6003574564
 30
0.0
 11
170.4867310861
 21
110.6003574564
 31
0.0
  0
LINE
  5
138
330
1F
100
AcDbEntity
  8
0
  6
Continuous
 62
     7
370
    25
100
AcDbLine
 10
170.4867310861
 20
117.6003574564
 30
0.0
 11
166.4867310861
 21
117.6003574564
 31
0.0
  0
LINE
  5
139
330
1F
100
AcDbEntity
  8
0
  6
Continuous
 62
     7
370
    25
100
AcDbLine
 10
186.4867310861
 20
110.6003574564
 30
0.0
 11
191.2829751291
 21
111.1671862979
 31
0.0
  0
LINE
  5
13A
330
1F
100
AcDbEntity
  8
0
  6
Continuous
 62
     7
370
    25
100
AcDbLine
 10
191.2829751291
 20
117.033528615
 30
0.0
 11
186.4867310861
 21
117.6003574564
 31
0.0
  0
LINE
  5
13B
330
1F
100
AcDbEntity
  8
0
  6
Continuous
 62
     7
370
    25
100
AcDbLine
 10
178.4867310861
 20
110.6003574564
 30
0.0
 11
182.4867310861
 21
111.2503574564
 31
0.0
  0
LINE
  5
13C
330
1F
100
AcDbEntity
  8
0
  6
Continuous
 62
     7
370
    25
100
AcDbLine
 10
182.4867310861
 20
116.9503574564
 30
0.0
 11
178.4867310861
 21
117.6003574564
 31
0.0
  0
LINE
  5
13D
330
1F
100
AcDbEntity
  8
0
  6
Continuous
 62
     7
370
    25
100
AcDbLine
 10
182.4867310861
 20
110.6003574564
 30
0.0
 11
186.4867310861
 21
111.2503574564
 31
0.0
  0
LINE
  5
13E
330
1F
100
AcDbEntity
  8
0
  6
Continuous
 62
     7
370
    25
100
AcDbLine
 10
186.4867310861
 20
116.9503574564
 30
0.0
 11
182.4867310861
 21
117.6003574564
 31
0.0
  0
LINE
  5
13F
330
1F
100
AcDbEntity
  8
0
  6
Continuous
 62
     7
370
    25
100
AcDbLine
 10
174.4867310861
 20
110.6003574564
 30
0.0
 11
178.4867310861
 21
111.2503574564
 31
0.0
  0
LINE
  5
140
330
1F
100
AcDbEntity
  8
0
  6
Continuous
 62
     7
370
    25
100
AcDbLine
 10
178.4867310861
 20
116.9503574564
 30
0.0
 11
174.4867310861
 21
117.6003574564
 31
0.0
  0
ARC
  5
141
330
1F
100
AcDbEntity
  8
0
  6
Continuous
 62
     7
370
    25
100
AcDbCircle
 10
191.1890830933
 20
116.2390575421
 30
0.0
 40
0.8000000000000147
100
AcDbArc
 50
4.3945905239
 51
83.2599439021
  0
ARC
  5
142
330
1F
100
AcDbEntity
  8
0
  6
Continuous
 62
     7
370
    25
100
AcDbCircle
 10
191.1890830933
 20
111.9616573707
 30
0.0
 40
0.8000000000000157
100
AcDbArc
 50
276.7400560979
 51
355.6054094761
  0
LINE
  5
143
330
1F
100
AcDbEntity
  8
0
  6
Continuous
 62
     7
370
    25
100
AcDbLine
 10
163.9001285457
 20
106.1003574564
 30
0.0
 11
163.9867310861
 21
106.2503574564
 31
0.0
  0
LINE
  5
144
330
1F
100
AcDbEntity
  8
0
  6
Continuous
 62
     7
370
    25
100
AcDbLine
 10
163.9867310861
 20
121.9503574564
 30
0.0
 11
163.9001285457
 21
122.1003574564
 31
0.0
  0
LINE
  5
145
330
1F
100
AcDbEntity
  8
0
  6
Continuous
 62
     7
370
    25
100
AcDbLine
 10
155.0733336265
 20
122.1003574564
 30
0.0
 11
154.9867310861
 21
121.9503574564
 31
0.0
  0
LINE
  5
146
330
1F
100
AcDbEntity
  8
0
  6
Continuous
 62
     7
370
    25
100
AcDbLine
 10
154.9867310861
 20
106.2503574564
 30
0.0
 11
155.0733336265
 21
106.1003574564
 31
0.0
  0
LINE
  5
147
330
1F
100
AcDbEntity
  8
0
  6
Continuous
 62
     7
370
    25
100
AcDbLine
 10
163.9867310861
 20
106.2503574564
 30
0.0
 11
165.6867310861
 21
106.2503574564
 31
0.0
  0
LINE
  5
148
330
1F
100
AcDbEntity
  8
0
  6
Continuous
 62
     7
370
    25
100
AcDbLine
 10
165.6867310861
 20
121.9503574564
 30
0.0
 11
163.9867310861
 21
121.9503574564
 31
0.0
  0
ARC
  5
149
330
1F
100
AcDbEntity
  8
0
  6
Continuous
 62
     7
370
    25
100
AcDbCircle
 10
165.6867310861
 20
121.6503574564
 30
0.0
 40
0.3000000000000114
100
AcDbArc
 50
0.0
 51
90.0
  0
ARC
  5
14A
330
1F
100
AcDbEntity
  8
0
  6
Continuous
 62
     7
370
    25
100
AcDbCircle
 10
165.6867310861
 20
106.5503574564
 30
0.0
 40
0.3000000000000114
100
AcDbArc
 50
270.0
 51
0.0
  0
LINE
  5
14B
330
1F
100
AcDbEntity
  8
0
  6
Continuous
 62
     7
370
    25
100
AcDbLine
 10
154.9867310861
 20
121.9503574564
 30
0.0
 11
153.2867310861
 21
121.9503574564
 31
0.0
  0
LINE
  5
14C
330
1F
100
AcDbEntity
  8
0
  6
Continuous
 62
     7
370
    25
100
AcDbLine
 10
153.2867310861
 20
106.2503574564
 30
0.0
 11
154.9867310861
 21
106.2503574564
 31
0.0
  0
ARC
  5
14D
330
1F
100
AcDbEntity
  8
0
  6
Continuous
 62
     7
370
    25
100
AcDbCircle
 10
153.2867310861
 20
106.5503574564
 30
0.0
 40
0.3000000000000114
100
AcDbArc
 50
180.0
 51
270.0
  0
ARC
  5
14E
330
1F
100
AcDbEntity
  8
0
  6
Continuous
 62
     7
370
    25
100
AcDbCircle
 10
153.2867310861
 20
121.6503574564
 30
0.0
 40
0.3000000000000114
100
AcDbArc
 50
90.0
 51
180.0
  0
LINE
  5
14F
330
1F
100
AcDbEntity
  8
0
  6
Continuous
 62
     7
370
    25
100
AcDbLine
 10
149.5881086005
 20
105.6003574564
 30
0.0
 11
149.7324461678
 21
105.8503574564
 31
0.0
  0
LINE
  5
150
330
1F
100
AcDbEntity
  8
0
  6
Continuous
 62
     7
370
    25
100
AcDbLine
 10
149.7324461678
 20
122.3503574564
 30
0.0
 11
149.5881086005
 21
122.6003574564
 31
0.0
  0
LINE
  5
151
330
1F
100
AcDbEntity
  8
0
  6
Continuous
 62
     7
370
    25
100
AcDbLine
 10
143.7324461678
 20
122.6079199564
 30
0.0
 11
133.8063556015
 21
122.2977296263
 31
0.0
  0
LINE
  5
152
330
1F
100
AcDbEntity
  8
0
  6
Continuous
 62
     7
370
    25
100
AcDbLine
 10
133.8063556015
 20
105.9029852866
 30
0.0
 11
143.7324461678
 21
105.5927949564
 31
0.0
  0
LINE
  5
153
330
1F
100
AcDbEntity
  8
0
  6
Continuous
 62
     7
370
    25
100
AcDbLine
 10
133.8063556015
 20
122.2977296263
 30
0.0
 11
131.7324461678
 21
121.1003574564
 31
0.0
  0
LINE
  5
154
330
1F
100
AcDbEntity
  8
0
  6
Continuous
 62
     7
370
    25
100
AcDbLine
 10
131.7324461678
 20
107.1003574564
 30
0.0
 11
133.8063556015
 21
105.9029852866
 31
0.0
  0
LINE
  5
155
330
1F
100
AcDbEntity
  8
0
  6
Continuous
 62
     7
370
    25
100
AcDbLine
 10
152.7324461678
 20
120.6788574564
 30
0.0
 11
151.7324461678
 21
119.6788574564
 31
0.0
  0
LINE
  5
156
330
1F
100
AcDbEntity
  8
0
  6
Continuous
 62
     7
370
    25
100
AcDbLine
 10
151.7324461678
 20
108.5218574564
 30
0.0
 11
152.7324461678
 21
107.5218574564
 31
0.0
  0
LINE
  5
157
330
1F
100
AcDbEntity
  8
0
  6
Continuous
 62
     7
370
    25
100
AcDbLine
 10
152.7324461678
 20
107.5218574564
 30
0.0
 11
152.9867310861
 21
107.5218574564
 31
0.0
  0
LINE
  5
158
330
1F
100
AcDbEntity
  8
0
  6
Continuous
 62
     7
370
    25
100
AcDbLine
 10
152.9867310861
 20
120.6788574564
 30
0.0
 11
152.7324461678
 21
120.6788574564
 31
0.0
  0
LINE
  5
159
330
1F
100
AcDbEntity
  8
0
  6
Continuous
 62
     7
370
    25
100
AcDbLine
 10
149.7324461678
 20
108.6003574564
 30
0.0
 11
151.7324461678
 21
108.6003574564
 31
0.0
  0
LINE
  5
15A
330
1F
100
AcDbEntity
  8
0
  6
Continuous
 62
     7
370
    25
100
AcDbLine
 10
151.7324461678
 20
119.6003574564
 30
0.0
 11
149.7324461678
 21
119.6003574564
 31
0.0
  0
LINE
  5
15B
330
1F
100
AcDbEntity
  8
0
  6
Continuous
 62
     7
370
    25
100
AcDbLine
 10
166.4867310861
 20
118.6003574564
 30
0.0
 11
166.4867310861
 21
109.6003574564
 31
0.0
  0
LINE
  5
15C
330
1F
100
AcDbEntity
  8
0
  6
Continuous
 62
     7
370
    25
100
AcDbLine
 10
170.4867310861
 20
110.6003574564
 30
0.0
 11
170.4867310861
 21
117.6003574564
 31
0.0
  0
LINE
  5
15D
330
1F
100
AcDbEntity
  8
0
  6
Continuous
 62
     7
370
    25
100
AcDbLine
 10
186.4867310861
 20
110.6003574564
 30
0.0
 11
186.4867310861
 21
117.6003574564
 31
0.0
  0
LINE
  5
15E
330
1F
100
AcDbEntity
  8
0
  6
Continuous
 62
     7
370
    25
100
AcDbLine
 10
178.4867310861
 20
110.6003574564
 30
0.0
 11
178.4867310861
 21
117.6003574564
 31
0.0
  0
LINE
  5
15F
330
1F
100
AcDbEntity
  8
0
  6
Continuous
 62
     7
370
    25
100
AcDbLine
 10
182.4867310861
 20
110.6003574564
 30
0.0
 11
182.4867310861
 21
117.6003574564
 31
0.0
  0
LINE
  5
160
330
1F
100
AcDbEntity
  8
0
  6
Continuous
 62
     7
370
    25
100
AcDbLine
 10
174.4867310861
 20
110.6003574564
 30
0.0
 11
174.4867310861
 21
117.6003574564
 31
0.0
  0
LINE
  5
161
330
1F
100
AcDbEntity
  8
0
  6
Continuous
 62
     7
370
    25
100
AcDbLine
 10
191.9867310861
 20
111.9003574564
 30
0.0
 11
191.9867310861
 21
116.3003574564
 31
0.0
  0
SPLINE
  5
162
330
1F
100
AcDbEntity
  8
0
  6
Continuous
 62
     7
370
    25
100
AcDbSpline
210
0.0
220
0.0
230
1.0
 70
     8
 71
     3
 72
    15
 73
    11
 74
     0
 42
0.000000001
 43
0.00000001
 40
0.0
 40
0.0
 40
0.0
 40
0.0
 40
0.1323049664163417
 40
0.2645725257576573
 40
0.3997989469058977
 40
0.5350009659368399
 40
0.6501921044151454
 40
0.7654012116808045
 40
0.8826892657702333
 40
1.0
 40
1.0
 40
1.0
 40
1.0
 10
163.1855973659215
 20
106.1003574564494
 30
0.0
 10
163.2943688934647
 20
106.4459885728066
 30
0.0
 10
163.5118811951727
 20
107.1371530839505
 30
0.0
 10
163.7459163879683
 20
108.2014851684527
 30
0.0
 10
163.8866356439173
 20
109.2858800417515
 30
0.0
 10
163.9145049276409
 20
110.3309956074513
 30
0.0
 10
163.8422031292864
 20
111.3196505583138
 30
0.0
 10
163.6940531493073
 20
112.2526991945774
 30
0.0
 10
163.4767329906027
 20
113.181529268609
 30
0.0
 10
163.2826488285941
 20
113.7940616547165
 30
0.0
 10
163.1855973659215
 20
114.1003574564494
 30
0.0
  0
SPLINE
  5
163
330
1F
100
AcDbEntity
  8
0
  6
Continuous
 62
     7
370
    25
100
AcDbSpline
210
0.0
220
0.0
230
1.0
 70
     8
 71
     3
 72
    15
 73
    11
 74
     0
 42
0.000000001
 43
0.00000001
 40
0.0
 40
0.0
 40
0.0
 40
0.0
 40
0.13230496641634
 40
0.2645725257576541
 40
0.3997989469058928
 40
0.5350009659368333
 40
0.6501921044151404
 40
0.7654012116808011
 40
0.8826892657702318
 40
1.0
 40
1.0
 40
1.0
 40
1.0
 10
163.1855973659215
 20
114.1003574564494
 30
0.0
 10
163.2943688934647
 20
114.4459885728066
 30
0.0
 10
163.5118811951727
 20
115.1371530839505
 30
0.0
 10
163.7459163879683
 20
116.2014851684527
 30
0.0
 10
163.8866356439173
 20
117.2858800417515
 30
0.0
 10
163.9145049276409
 20
118.3309956074513
 30
0.0
 10
163.8422031292864
 20
119.3196505583137
 30
0.0
 10
163.6940531493073
 20
120.2526991945774
 30
0.0
 10
163.4767329906027
 20
121.181529268609
 30
0.0
 10
163.2826488285941
 20
121.7940616547165
 30
0.0
 10
163.1855973659215
 20
122.1003574564494
 30
0.0
  0
SPLINE
  5
164
330
1F
100
AcDbEntity
  8
0
  6
Continuous
 62
     7
370
    25
100
AcDbSpline
210
0.0
220
0.0
230
1.0
 70
    24
 71
     3
 72
    12
 73
     8
 74
     0
 42
0.000000001
 43
0.00000001
 40
0.0
 40
0.0
 40
0.0
 40
0.0
 40
0.1910460525914089
 40
0.3824435804373635
 40
0.5752166229272795
 40
0.7686145061501121
 40
1.0
 40
1.0
 40
1.0
 40
1.0
 10
163.1855973659215
 20
122.1003574564494
 30
0.0
 10
163.2653211883546
 20
122.1003574564494
 30
0.0
 10
163.4249155044051
 20
122.1003574564494
 30
0.0
 10
163.6183593076023
 20
122.1003574564494
 30
0.0
 10
163.7679649664031
 20
122.1003574564494
 30
0.0
 10
163.8778316258505
 20
122.1003574564494
 30
0.0
 10
163.8899541878615
 20
122.1003574564494
 30
0.0
 10
163.8965575182861
 20
122.1003574564494
 30
0.0
  0
SPLINE
  5
165
330
1F
100
AcDbEntity
  8
0
  6
Continuous
 62
     7
370
    25
100
AcDbSpline
210
0.0
220
0.0
230
1.0
 70
    24
 71
     3
 72
    12
 73
     8
 74
     0
 42
0.000000001
 43
0.00000001
 40
0.0
 40
0.0
 40
0.0
 40
0.0
 40
0.2313818341739652
 40
0.4221383098337232
 40
0.6135439789437938
 40
0.806569905600257
 40
1.0
 40
1.0
 40
1.0
 40
1.0
 10
163.8950394845984
 20
106.1003574564494
 30
0.0
 10
163.8890987933248
 20
106.1003574564494
 30
0.0
 10
163.878260460305
 20
106.1003574564494
 30
0.0
 10
163.7691590448769
 20
106.1003574564494
 30
0.0
 10
163.6211173184092
 20
106.1003574564494
 30
0.0
 10
163.4274656694106
 20
106.1003574564494
 30
0.0
 10
163.2662763260298
 20
106.1003574564494
 30
0.0
 10
163.1855973659215
 20
106.1003574564494
 30
0.0
  0
LINE
  5
166
330
1F
100
AcDbEntity
  8
0
  6
Continuous
 62
     7
370
    25
100
AcDbLine
 10
163.9867310861
 20
106.2503574564
 30
0.0
 11
163.9867310861
 21
121.9503574564
 31
0.0
  0
LINE
  5
167
330
1F
100
AcDbEntity
  8
0
  6
Continuous
 62
     7
370
    25
100
AcDbLine
 10
155.7878648063
 20
114.1003574564
 30
0.0
 11
159.4331412476
 21
114.1003574564
 31
0.0
  0
SPLINE
  5
168
330
1F
100
AcDbEntity
  8
0
  6
Continuous
 62
     7
370
    25
100
AcDbSpline
210
0.0
220
0.0
230
1.0
 70
     8
 71
     3
 72
    15
 73
    11
 74
     0
 42
0.000000001
 43
0.00000001
 40
0.0
 40
0.0
 40
0.0
 40
0.0
 40
0.1323049664163401
 40
0.2645725257576541
 40
0.3997989469058928
 40
0.5350009659368333
 40
0.6501921044151404
 40
0.7654012116808011
 40
0.8826892657702318
 40
1.0
 40
1.0
 40
1.0
 40
1.0
 10
155.787864806311
 20
114.1003574564494
 30
0.0
 10
155.6790932787678
 20
114.4459885728066
 30
0.0
 10
155.4615809770598
 20
115.1371530839505
 30
0.0
 10
155.2275457842642
 20
116.2014851684527
 30
0.0
 10
155.0868265283152
 20
117.2858800417515
 30
0.0
 10
155.0589572445916
 20
118.3309956074513
 30
0.0
 10
155.1312590429461
 20
119.3196505583137
 30
0.0
 10
155.2794090229252
 20
120.2526991945774
 30
0.0
 10
155.4967291816298
 20
121.181529268609
 30
0.0
 10
155.6908133436384
 20
121.7940616547165
 30
0.0
 10
155.787864806311
 20
122.1003574564494
 30
0.0
  0
LINE
  5
169
330
1F
100
AcDbEntity
  8
0
  6
Continuous
 62
     7
370
    25
100
AcDbLine
 10
155.7878648063
 20
122.1003574564
 30
0.0
 11
159.4331412476
 21
122.1003574564
 31
0.0
  0
LINE
  5
16A
330
1F
100
AcDbEntity
  8
0
  6
Continuous
 62
     7
370
    25
100
AcDbLine
 10
159.4867310861
 20
121.7416098108
 30
0.0
 11
159.4331412476
 21
122.1003574564
 31
0.0
  0
LINE
  5
16B
330
1F
100
AcDbEntity
  8
0
  6
Continuous
 62
     7
370
    25
100
AcDbLine
 10
159.5403209246
 20
122.1003574564
 30
0.0
 11
159.4867310861
 21
121.7416098108
 31
0.0
  0
LINE
  5
16C
330
1F
100
AcDbEntity
  8
0
  6
Continuous
 62
     7
370
    25
100
AcDbLine
 10
159.5403209246
 20
122.1003574564
 30
0.0
 11
163.1855973659
 21
122.1003574564
 31
0.0
  0
LINE
  5
16D
330
1F
100
AcDbEntity
  8
0
  6
Continuous
 62
     7
370
    25
100
AcDbLine
 10
159.5403209246
 20
114.1003574564
 30
0.0
 11
163.1855973659
 21
114.1003574564
 31
0.0
  0
LINE
  5
16E
330
1F
100
AcDbEntity
  8
0
  6
Continuous
 62
     7
370
    25
100
AcDbLine
 10
159.4867310861
 20
114.4591051021
 30
0.0
 11
159.5403209246
 21
114.1003574564
 31
0.0
  0
LINE
  5
16F
330
1F
100
AcDbEntity
  8
0
  6
Continuous
 62
     7
370
    25
100
AcDbLine
 10
159.4331412476
 20
114.1003574564
 30
0.0
 11
159.4867310861
 21
114.4591051021
 31
0.0
  0
SPLINE
  5
170
330
1F
100
AcDbEntity
  8
0
  6
Continuous
 62
     7
370
    25
100
AcDbSpline
210
0.0
220
0.0
230
1.0
 70
    24
 71
     3
 72
    12
 73
     8
 74
     0
 42
0.000000001
 43
0.00000001
 40
0.0
 40
0.0
 40
0.0
 40
0.0
 40
0.2313818341739652
 40
0.4221383098337232
 40
0.6135439789437938
 40
0.8065699056002571
 40
1.0
 40
1.0
 40
1.0
 40
1.0
 10
155.0784226876342
 20
106.1003574564494
 30
0.0
 10
155.0843633789078
 20
106.1003574564494
 30
0.0
 10
155.0952017119274
 20
106.1003574564494
 30
0.0
 10
155.2043031273557
 20
106.1003574564494
 30
0.0
 10
155.3523448538233
 20
106.1003574564494
 30
0.0
 10
155.5459965028219
 20
106.1003574564494
 30
0.0
 10
155.7071858462027
 20
106.1003574564494
 30
0.0
 10
155.787864806311
 20
106.1003574564494
 30
0.0
  0
SPLINE
  5
171
330
1F
100
AcDbEntity
  8
0
  6
Continuous
 62
     7
370
    25
100
AcDbSpline
210
0.0
220
0.0
230
1.0
 70
    24
 71
     3
 72
    12
 73
     8
 74
     0
 42
0.000000001
 43
0.00000001
 40
0.0
 40
0.0
 40
0.0
 40
0.0
 40
0.1910460525914089
 40
0.3824435804373636
 40
0.5752166229272796
 40
0.7686145061501124
 40
1.0
 40
1.0
 40
1.0
 40
1.0
 10
155.787864806311
 20
122.1003574564494
 30
0.0
 10
155.7081409838779
 20
122.1003574564494
 30
0.0
 10
155.5485466678274
 20
122.1003574564494
 30
0.0
 10
155.3551028646302
 20
122.1003574564494
 30
0.0
 10
155.2054972058293
 20
122.1003574564494
 30
0.0
 10
155.0956305463821
 20
122.1003574564494
 30
0.0
 10
155.083507984371
 20
122.1003574564494
 30
0.0
 10
155.0769046539464
 20
122.1003574564494
 30
0.0
  0
SPLINE
  5
172
330
1F
100
AcDbEntity
  8
0
  6
Continuous
 62
     7
370
    25
100
AcDbSpline
210
0.0
220
0.0
230
1.0
 70
     8
 71
     3
 72
    15
 73
    11
 74
     0
 42
0.000000001
 43
0.00000001
 40
0.0
 40
0.0
 40
0.0
 40
0.0
 40
0.1323049664163416
 40
0.2645725257576573
 40
0.3997989469058977
 40
0.5350009659368399
 40
0.6501921044151454
 40
0.7654012116808045
 40
0.8826892657702334
 40
1.0
 40
1.0
 40
1.0
 40
1.0
 10
155.787864806311
 20
106.1003574564494
 30
0.0
 10
155.6790932787678
 20
106.4459885728066
 30
0.0
 10
155.4615809770598
 20
107.1371530839505
 30
0.0
 10
155.2275457842642
 20
108.2014851684527
 30
0.0
 10
155.0868265283152
 20
109.2858800417515
 30
0.0
 10
155.0589572445917
 20
110.3309956074513
 30
0.0
 10
155.1312590429461
 20
111.3196505583138
 30
0.0
 10
155.2794090229252
 20
112.2526991945774
 30
0.0
 10
155.4967291816298
 20
113.181529268609
 30
0.0
 10
155.6908133436384
 20
113.7940616547165
 30
0.0
 10
155.787864806311
 20
114.1003574564494
 30
0.0
  0
LINE
  5
173
330
1F
100
AcDbEntity
  8
0
  6
Continuous
 62
     7
370
    25
100
AcDbLine
 10
154.9867310861
 20
106.2503574564
 30
0.0
 11
154.9867310861
 21
121.9503574564
 31
0.0
  0
LINE
  5
174
330
1F
100
AcDbEntity
  8
0
  6
Continuous
 62
     7
370
    25
100
AcDbLine
 10
159.5403209246
 20
114.1003574564
 30
0.0
 11
159.4867310861
 21
113.7416098108
 31
0.0
  0
LINE
  5
175
330
1F
100
AcDbEntity
  8
0
  6
Continuous
 62
     7
370
    25
100
AcDbLine
 10
159.4867310861
 20
113.7416098108
 30
0.0
 11
159.4867310861
 21
114.4591051021
 31
0.0
  0
LINE
  5
176
330
1F
100
AcDbEntity
  8
0
  6
Continuous
 62
     7
370
    25
100
AcDbLine
 10
159.4867310861
 20
113.7416098108
 30
0.0
 11
159.4331412476
 21
114.1003574564
 31
0.0
  0
LINE
  5
177
330
1F
100
AcDbEntity
  8
0
  6
Continuous
 62
     7
370
    25
100
AcDbLine
 10
155.7878648063
 20
106.1003574564
 30
0.0
 11
159.4331412476
 21
106.1003574564
 31
0.0
  0
LINE
  5
178
330
1F
100
AcDbEntity
  8
0
  6
Continuous
 62
     7
370
    25
100
AcDbLine
 10
159.5403209246
 20
106.1003574564
 30
0.0
 11
163.1855973659
 21
106.1003574564
 31
0.0
  0
LINE
  5
179
330
1F
100
AcDbEntity
  8
0
  6
Continuous
 62
     7
370
    25
100
AcDbLine
 10
159.4867310861
 20
106.4591051021
 30
0.0
 11
159.5403209246
 21
106.1003574564
 31
0.0
  0
LINE
  5
17A
330
1F
100
AcDbEntity
  8
0
  6
Continuous
 62
     7
370
    25
100
AcDbLine
 10
159.4331412476
 20
106.1003574564
 30
0.0
 11
159.4867310861
 21
106.4591051021
 31
0.0
  0
LINE
  5
17B
330
1F
100
AcDbEntity
  8
0
  6
Continuous
 62
     7
370
    25
100
AcDbLine
 10
165.9867310861
 20
121.6503574564
 30
0.0
 11
165.9867310861
 21
106.5503574574
 31
0.0
  0
LINE
  5
17C
330
1F
100
AcDbEntity
  8
0
  6
Continuous
 62
     7
370
    25
100
AcDbLine
 10
152.9867310861
 20
106.5503574564
 30
0.0
 11
152.9867310861
 21
121.6503574555
 31
0.0
  0
LINE
  5
17D
330
1F
100
AcDbEntity
  8
0
  6
Continuous
 62
     7
370
    25
100
AcDbLine
 10
159.5403209246
 20
106.1003574564
 30
0.0
 11
159.4867310861
 21
106.1003574564
 31
0.0
  0
LINE
  5
17E
330
1F
100
AcDbEntity
  8
0
  6
Continuous
 62
     7
370
    25
100
AcDbLine
 10
159.4867310861
 20
106.1003574564
 30
0.0
 11
159.4867310861
 21
106.4591051021
 31
0.0
  0
LINE
  5
17F
330
1F
100
AcDbEntity
  8
0
  6
Continuous
 62
     7
370
    25
100
AcDbLine
 10
159.4867310861
 20
106.1003574564
 30
0.0
 11
159.4331412476
 21
106.1003574564
 31
0.0
  0
LINE
  5
180
330
1F
100
AcDbEntity
  8
0
  6
Continuous
 62
     7
370
    25
100
AcDbLine
 10
159.4331412476
 20
122.1003574564
 30
0.0
 11
159.4867310861
 21
122.1003574564
 31
0.0
  0
LINE
  5
181
330
1F
100
AcDbEntity
  8
0
  6
Continuous
 62
     7
370
    25
100
AcDbLine
 10
159.4867310861
 20
121.7416098108
 30
0.0
 11
159.4867310861
 21
122.1003574564
 31
0.0
  0
LINE
  5
182
330
1F
100
AcDbEntity
  8
0
  6
Continuous
 62
     7
370
    25
100
AcDbLine
 10
159.4867310861
 20
122.1003574564
 30
0.0
 11
159.5403209246
 21
122.1003574564
 31
0.0
  0
LINE
  5
183
330
1F
100
AcDbEntity
  8
0
  6
Continuous
 62
     7
370
    25
100
AcDbLine
 10
143.7324461678
 20
114.1003574564
 30
0.0
 11
146.2002979371
 21
114.1003574564
 31
0.0
  0
LINE
  5
184
330
1F
100
AcDbEntity
  8
0
  6
Continuous
 62
     7
370
    25
100
AcDbLine
 10
143.7324461678
 20
114.1003574564
 30
0.0
 11
143.7324461678
 21
118.0397696773
 31
0.0
  0
LINE
  5
185
330
1F
100
AcDbEntity
  8
0
  6
Continuous
 62
     7
370
    25
100
AcDbLine
 10
143.7324461678
 20
118.6609452356
 30
0.0
 11
143.7324461678
 21
122.6003574564
 31
0.0
  0
LINE
  5
186
330
1F
100
AcDbEntity
  8
0
  6
Continuous
 62
     7
370
    25
100
AcDbLine
 10
143.7324461678
 20
122.6003574564
 30
0.0
 11
146.2002979371
 21
122.6003574564
 31
0.0
  0
SPLINE
  5
187
330
1F
100
AcDbEntity
  8
0
  6
Continuous
 62
     7
370
    25
100
AcDbSpline
210
0.0
220
0.0
230
1.0
 70
     8
 71
     3
 72
     8
 73
     4
 74
     0
 42
0.000000001
 43
0.00000001
 40
0.0
 40
0.0
 40
0.0
 40
0.0
 40
1.0
 40
1.0
 40
1.0
 40
1.0
 10
146.2806826948657
 20
122.0535007754015
 30
0.0
 10
146.2553080617066
 20
122.2359931751826
 30
0.0
 10
146.2284666604998
 20
122.4182719662598
 30
0.0
 10
146.2002979371364
 20
122.6003574564494
 30
0.0
  0
SPLINE
  5
188
330
1F
100
AcDbEntity
  8
0
  6
Continuous
 62
     7
370
    25
100
AcDbSpline
210
0.0
220
0.0
230
1.0
 70
     8
 71
     3
 72
     8
 73
     4
 74
     0
 42
0.000000001
 43
0.00000001
 40
0.0
 40
0.0
 40
0.0
 40
0.0
 40
1.0
 40
1.0
 40
1.0
 40
1.0
 10
146.3610674525951
 20
122.6003574564494
 30
0.0
 10
146.3328861467719
 20
122.4181906319612
 30
0.0
 10
146.3060456207772
 20
122.235908977562
 30
0.0
 10
146.2806826948657
 20
122.0535007754015
 30
0.0
  0
LINE
  5
189
330
1F
100
AcDbEntity
  8
0
  6
Continuous
 62
     7
370
    25
100
AcDbLine
 10
146.3610674526
 20
122.6003574564
 30
0.0
 11
148.8289192219
 21
122.6003574564
 31
0.0
  0
SPLINE
  5
18A
330
1F
100
AcDbEntity
  8
0
  6
Continuous
 62
     7
370
    25
100
AcDbSpline
210
0.0
220
0.0
230
1.0
 70
     8
 71
     3
 72
    16
 73
    12
 74
     0
 42
0.000000001
 43
0.00000001
 40
0.0
 40
0.0
 40
0.0
 40
0.0
 40
0.2500000000000002
 40
0.2500000000000002
 40
0.5000000000000004
 40
0.5000000000000004
 40
0.6250000000000004
 40
0.6250000000000004
 40
0.7500000000000003
 40
0.7500000000000003
 40
1.0
 40
1.0
 40
1.0
 40
1.0
 10
148.82891922194
 20
122.6003574564494
 30
0.0
 10
149.0602339756227
 20
121.9064131954016
 30
0.0
 10
149.2508792689531
 20
121.2074094688573
 30
0.0
 10
149.5149849253604
 20
119.794823678457
 30
0.0
 10
149.5875741166744
 20
119.0811332368786
 30
0.0
 10
149.5883713627653
 20
117.9971511181415
 30
0.0
 10
149.5706261061419
 20
117.6341236898227
 30
0.0
 10
149.5014290226121
 20
116.9160171269589
 30
0.0
 10
149.4500474165498
 20
116.5593713903748
 30
0.0
 10
149.2516394178132
 20
115.495783771519
 30
0.0
 10
149.0605223161092
 20
114.7951667389575
 30
0.0
 10
148.8289192219398
 20
114.1003574564493
 30
0.0
  0
LINE
  5
18B
330
1F
100
AcDbEntity
  8
0
  6
Continuous
 62
     7
370
    25
100
AcDbLine
 10
146.3610674526
 20
114.1003574564
 30
0.0
 11
148.8289192219
 21
114.1003574564
 31
0.0
  0
SPLINE
  5
18C
330
1F
100
AcDbEntity
  8
0
  6
Continuous
 62
     7
370
    25
100
AcDbSpline
210
0.0
220
0.0
230
1.0
 70
     8
 71
     3
 72
     8
 73
     4
 74
     0
 42
0.000000001
 43
0.00000001
 40
0.0
 40
0.0
 40
0.0
 40
0.0
 40
1.0
 40
1.0
 40
1.0
 40
1.0
 10
146.2806826948657
 20
114.6472141374973
 30
0.0
 10
146.3060573280249
 20
114.4647217377162
 30
0.0
 10
146.3328987292317
 20
114.282442946639
 30
0.0
 10
146.3610674525951
 20
114.1003574564494
 30
0.0
  0
SPLINE
  5
18D
330
1F
100
AcDbEntity
  8
0
  6
Continuous
 62
     7
370
    25
100
AcDbSpline
210
0.0
220
0.0
230
1.0
 70
     8
 71
     3
 72
     8
 73
     4
 74
     0
 42
0.000000001
 43
0.00000001
 40
0.0
 40
0.0
 40
0.0
 40
0.0
 40
1.0
 40
1.0
 40
1.0
 40
1.0
 10
146.2002979371364
 20
114.1003574564494
 30
0.0
 10
146.2284792429596
 20
114.2825242809376
 30
0.0
 10
146.2553197689543
 20
114.4648059353367
 30
0.0
 10
146.2806826948657
 20
114.6472141374973
 30
0.0
  0
SPLINE
  5
18E
330
1F
100
AcDbEntity
  8
0
  6
Continuous
 62
     7
370
    25
100
AcDbSpline
210
0.0
220
0.0
230
1.0
 70
    24
 71
     3
 72
    12
 73
     8
 74
     0
 42
0.000000001
 43
0.00000001
 40
0.0
 40
0.0
 40
0.0
 40
0.0
 40
0.2182430402285351
 40
0.4121981173888572
 40
0.6068425141491196
 40
0.8032071412936695
 40
1.0
 40
1.0
 40
1.0
 40
1.0
 10
149.5804313728601
 20
122.6003574564494
 30
0.0
 10
149.5759912408925
 20
122.6003574564494
 30
0.0
 10
149.5676051130413
 20
122.6003574564494
 30
0.0
 10
149.4558507888872
 20
122.6003574564494
 30
0.0
 10
149.2983219567669
 20
122.6003574564494
 30
0.0
 10
149.0901755845155
 20
122.6003574564494
 30
0.0
 10
148.9160678894857
 20
122.6003574564494
 30
0.0
 10
148.8289192219396
 20
122.6003574564494
 30
0.0
  0
SPLINE
  5
18F
330
1F
100
AcDbEntity
  8
0
  6
Continuous
 62
     7
370
    25
100
AcDbSpline
210
0.0
220
0.0
230
1.0
 70
    24
 71
     3
 72
    12
 73
     8
 74
     0
 42
0.000000001
 43
0.00000001
 40
0.0
 40
0.0
 40
0.0
 40
0.0
 40
0.1942646190832476
 40
0.3889004889335481
 40
0.5849945135013158
 40
0.7817529688069483
 40
1.0
 40
1.0
 40
1.0
 40
1.0
 10
148.8289192219396
 20
105.6003574564494
 30
0.0
 10
148.914993217692
 20
105.6003574564494
 30
0.0
 10
149.087305701512
 20
105.6003574564494
 30
0.0
 10
149.2952388872085
 20
105.6003574564494
 30
0.0
 10
149.4545418257091
 20
105.6003574564494
 30
0.0
 10
149.5671505931704
 20
105.6003574564494
 30
0.0
 10
149.5768548305196
 20
105.6003574564494
 30
0.0
 10
149.5819581871265
 20
105.6003574564494
 30
0.0
  0
SPLINE
  5
190
330
1F
100
AcDbEntity
  8
0
  6
Continuous
 62
     7
370
    25
100
AcDbSpline
210
0.0
220
0.0
230
1.0
 70
     8
 71
     3
 72
    16
 73
    12
 74
     0
 42
0.000000001
 43
0.00000001
 40
0.0
 40
0.0
 40
0.0
 40
0.0
 40
0.2500000000000002
 40
0.2500000000000002
 40
0.5000000000000003
 40
0.5000000000000003
 40
0.6250000000000003
 40
0.6250000000000003
 40
0.7500000000000003
 40
0.7500000000000003
 40
1.0
 40
1.0
 40
1.0
 40
1.0
 10
148.82891922194
 20
114.1003574564494
 30
0.0
 10
149.0602339756227
 20
113.4064131954015
 30
0.0
 10
149.2508792689531
 20
112.7074094688573
 30
0.0
 10
149.5149849253604
 20
111.294823678457
 30
0.0
 10
149.5875741166743
 20
110.5811332368787
 30
0.0
 10
149.5883713627653
 20
109.4971511181416
 30
0.0
 10
149.5706261061418
 20
109.1341236898227
 30
0.0
 10
149.5014290226121
 20
108.4160171269589
 30
0.0
 10
149.4500474165498
 20
108.0593713903748
 30
0.0
 10
149.2516394178132
 20
106.995783771519
 30
0.0
 10
149.0605223161092
 20
106.2951667389576
 30
0.0
 10
148.8289192219398
 20
105.6003574564494
 30
0.0
  0
LINE
  5
191
330
1F
100
AcDbEntity
  8
0
  6
Continuous
 62
     7
370
    25
100
AcDbLine
 10
149.7324461678
 20
122.3503574564
 30
0.0
 11
149.7324461678
 21
105.8503574564
 31
0.0
  0
LINE
  5
192
330
1F
100
AcDbEntity
  8
0
  6
Continuous
 62
     7
370
    25
100
AcDbLine
 10
146.2806826949
 20
113.5535007754
 30
0.0
 11
146.2806826949
 21
114.6472141375
 31
0.0
  0
SPLINE
  5
193
330
1F
100
AcDbEntity
  8
0
  6
Continuous
 62
     7
370
    25
100
AcDbSpline
210
0.0
220
0.0
230
1.0
 70
     8
 71
     3
 72
     8
 73
     4
 74
     0
 42
0.000000001
 43
0.00000001
 40
0.0
 40
0.0
 40
0.0
 40
0.0
 40
1.0
 40
1.0
 40
1.0
 40
1.0
 10
146.2806826948657
 20
113.5535007754014
 30
0.0
 10
146.2553080617066
 20
113.7359931751825
 30
0.0
 10
146.2284666604998
 20
113.9182719662598
 30
0.0
 10
146.2002979371364
 20
114.1003574564494
 30
0.0
  0
SPLINE
  5
194
330
1F
100
AcDbEntity
  8
0
  6
Continuous
 62
     7
370
    25
100
AcDbSpline
210
0.0
220
0.0
230
1.0
 70
     8
 71
     3
 72
     8
 73
     4
 74
     0
 42
0.000000001
 43
0.00000001
 40
0.0
 40
0.0
 40
0.0
 40
0.0
 40
1.0
 40
1.0
 40
1.0
 40
1.0
 10
146.3610674525951
 20
114.1003574564494
 30
0.0
 10
146.3328861467719
 20
113.9181906319611
 30
0.0
 10
146.3060456207772
 20
113.735908977562
 30
0.0
 10
146.2806826948657
 20
113.5535007754014
 30
0.0
  0
LINE
  5
195
330
1F
100
AcDbEntity
  8
0
  6
Continuous
 62
     7
370
    25
100
AcDbLine
 10
143.7324461678
 20
105.6003574564
 30
0.0
 11
146.2002979371
 21
105.6003574564
 31
0.0
  0
LINE
  5
196
330
1F
100
AcDbEntity
  8
0
  6
Continuous
 62
     7
370
    25
100
AcDbLine
 10
143.7324461678
 20
105.6003574564
 30
0.0
 11
143.7324461678
 21
109.5397696773
 31
0.0
  0
LINE
  5
197
330
1F
100
AcDbEntity
  8
0
  6
Continuous
 62
     7
370
    25
100
AcDbLine
 10
146.3610674526
 20
105.6003574564
 30
0.0
 11
148.8289192219
 21
105.6003574564
 31
0.0
  0
SPLINE
  5
198
330
1F
100
AcDbEntity
  8
0
  6
Continuous
 62
     7
370
    25
100
AcDbSpline
210
0.0
220
0.0
230
1.0
 70
     8
 71
     3
 72
     8
 73
     4
 74
     0
 42
0.000000001
 43
0.00000001
 40
0.0
 40
0.0
 40
0.0
 40
0.0
 40
1.0
 40
1.0
 40
1.0
 40
1.0
 10
146.2806826948657
 20
106.1472141374974
 30
0.0
 10
146.3060573280249
 20
105.9647217377162
 30
0.0
 10
146.3328987292317
 20
105.782442946639
 30
0.0
 10
146.3610674525951
 20
105.6003574564494
 30
0.0
  0
SPLINE
  5
199
330
1F
100
AcDbEntity
  8
0
  6
Continuous
 62
     7
370
    25
100
AcDbSpline
210
0.0
220
0.0
230
1.0
 70
     8
 71
     3
 72
     8
 73
     4
 74
     0
 42
0.000000001
 43
0.00000001
 40
0.0
 40
0.0
 40
0.0
 40
0.0
 40
1.0
 40
1.0
 40
1.0
 40
1.0
 10
146.2002979371364
 20
105.6003574564494
 30
0.0
 10
146.2284792429596
 20
105.7825242809376
 30
0.0
 10
146.2553197689543
 20
105.9648059353368
 30
0.0
 10
146.2806826948657
 20
106.1472141374974
 30
0.0
  0
LINE
  5
19A
330
1F
100
AcDbEntity
  8
0
  6
Continuous
 62
     7
370
    25
100
AcDbLine
 10
143.7324461678
 20
110.1609452356
 30
0.0
 11
143.7324461678
 21
114.1003574564
 31
0.0
  0
LINE
  5
19B
330
1F
100
AcDbEntity
  8
0
  6
Continuous
 62
     7
370
    25
100
AcDbLine
 10
133.8063556015
 20
114.1003574564
 30
0.0
 11
133.8063556015
 21
105.9029852866
 31
0.0
  0
LINE
  5
19C
330
1F
100
AcDbEntity
  8
0
  6
Continuous
 62
     7
370
    25
100
AcDbLine
 10
133.8063556015
 20
122.2977296263
 30
0.0
 11
133.8063556015
 21
114.1003574564
 31
0.0
  0
LINE
  5
19D
330
1F
100
AcDbEntity
  8
0
  6
Continuous
 62
     7
370
    25
100
AcDbLine
 10
143.7324461678
 20
122.6003574564
 30
0.0
 11
143.7324461678
 21
122.6079199564
 31
0.0
  0
LINE
  5
19E
330
1F
100
AcDbEntity
  8
0
  6
Continuous
 62
     7
370
    25
100
AcDbLine
 10
143.7324461678
 20
118.0397696773
 30
0.0
 11
143.7324461678
 21
118.6609452356
 31
0.0
  0
LINE
  5
19F
330
1F
100
AcDbEntity
  8
0
  6
Continuous
 62
     7
370
    25
100
AcDbLine
 10
143.7324461678
 20
109.5397696773
 30
0.0
 11
143.7324461678
 21
110.1609452356
 31
0.0
  0
LINE
  5
1A0
330
1F
100
AcDbEntity
  8
0
  6
Continuous
 62
     7
370
    25
100
AcDbLine
 10
143.7324461678
 20
105.5927949564
 30
0.0
 11
143.7324461678
 21
105.6003574564
 31
0.0
  0
LINE
  5
1A1
330
1F
100
AcDbEntity
  8
0
  6
Continuous
 62
     7
370
    25
100
AcDbLine
 10
131.7324461678
 20
107.1003574564
 30
0.0
 11
131.7324461678
 21
121.1003574564
 31
0.0
  0
LINE
  5
1A2
330
1F
100
AcDbEntity
  8
0
  6
Continuous
 62
     7
370
    25
100
AcDbLine
 10
152.7324461678
 20
120.6788574564
 30
0.0
 11
152.7324461678
 21
107.5218574564
 31
0.0
  0
LINE
  5
1A3
330
1F
100
AcDbEntity
  8
0
  6
Continuous
 62
     7
370
    25
100
AcDbLine
 10
151.7324461678
 20
108.5218574564
 30
0.0
 11
151.7324461678
 21
119.6788574564
 31
0.0
  0
SPLINE
  5
1A4
330
1F
100
AcDbEntity
  8
0
  6
Continuous
 62
     7
370
    25
100
AcDbSpline
210
0.0
220
0.0
230
1.0
 70
    24
 71
     3
 72
     8
 73
     4
 74
     0
 42
0.000000001
 43
0.00000001
 40
0.0
 40
0.0
 40
0.0
 40
0.0
 40
1.0
 40
1.0
 40
1.0
 40
1.0
 10
146.2806826948657
 20
105.6003574564494
 30
0.0
 10
146.2553086642814
 20
105.6003574564494
 30
0.0
 10
146.2284673075644
 20
105.6003574564494
 30
0.0
 10
146.2002979371364
 20
105.6003574564494
 30
0.0
  0
LINE
  5
1A5
330
1F
100
AcDbEntity
  8
0
  6
Continuous
 62
     7
370
    25
100
AcDbLine
 10
146.2806826949
 20
105.6003574564
 30
0.0
 11
146.2806826949
 21
106.1472141375
 31
0.0
  0
SPLINE
  5
1A6
330
1F
100
AcDbEntity
  8
0
  6
Continuous
 62
     7
370
    25
100
AcDbSpline
210
0.0
220
0.0
230
1.0
 70
    24
 71
     3
 72
     8
 73
     4
 74
     0
 42
0.000000001
 43
0.00000001
 40
0.0
 40
0.0
 40
0.0
 40
0.0
 40
1.0
 40
1.0
 40
1.0
 40
1.0
 10
146.3610674525951
 20
105.6003574564494
 30
0.0
 10
146.3328843007029
 20
105.6003574564494
 30
0.0
 10
146.3060439049048
 20
105.6003574564494
 30
0.0
 10
146.2806826948657
 20
105.6003574564494
 30
0.0
  0
SPLINE
  5
1A7
330
1F
100
AcDbEntity
  8
0
  6
Continuous
 62
     7
370
    25
100
AcDbSpline
210
0.0
220
0.0
230
1.0
 70
    24
 71
     3
 72
     8
 73
     4
 74
     0
 42
0.000000001
 43
0.00000001
 40
0.0
 40
0.0
 40
0.0
 40
0.0
 40
1.0
 40
1.0
 40
1.0
 40
1.0
 10
146.2806826948657
 20
122.6003574564494
 30
0.0
 10
146.3060567254501
 20
122.6003574564494
 30
0.0
 10
146.3328980821671
 20
122.6003574564494
 30
0.0
 10
146.3610674525951
 20
122.6003574564494
 30
0.0
  0
LINE
  5
1A8
330
1F
100
AcDbEntity
  8
0
  6
Continuous
 62
     7
370
    25
100
AcDbLine
 10
146.2806826949
 20
122.0535007754
 30
0.0
 11
146.2806826949
 21
122.6003574564
 31
0.0
  0
SPLINE
  5
1A9
330
1F
100
AcDbEntity
  8
0
  6
Continuous
 62
     7
370
    25
100
AcDbSpline
210
0.0
220
0.0
230
1.0
 70
    24
 71
     3
 72
     8
 73
     4
 74
     0
 42
0.000000001
 43
0.00000001
 40
0.0
 40
0.0
 40
0.0
 40
0.0
 40
1.0
 40
1.0
 40
1.0
 40
1.0
 10
146.2002979371364
 20
122.6003574564494
 30
0.0
 10
146.2284810890286
 20
122.6003574564494
 30
0.0
 10
146.2553214848267
 20
122.6003574564494
 30
0.0
 10
146.2806826948657
 20
122.6003574564494
 30
0.0
  0
LINE
  5
1AA
330
1F
100
AcDbEntity
  8
0
  6
Continuous
 62
     8
370
    25
100
AcDbLine
 10
191.2829751291
 20
111.1671862979
 30
0.0
 11
191.2829751291
 21
117.033528615
 31
0.0
  0
LINE
  5
1AB
330
1F
100
AcDbEntity
  8
0
  6
Continuous
 62
     8
370
    25
100
AcDbLine
 10
165.6867310861
 20
106.2503574564
 30
0.0
 11
165.6867310861
 21
121.9503574564
 31
0.0
  0
LINE
  5
1AC
330
1F
100
AcDbEntity
  8
0
  6
Continuous
 62
     8
370
    25
100
AcDbLine
 10
153.2867310861
 20
121.9503574564
 30
0.0
 11
153.2867310861
 21
106.2503574564
 31
0.0
  0
LINE
  5
1AD
330
1F
100
AcDbEntity
  8
0
  6
Continuous
 62
     7
370
     0
100
AcDbLine
 10
132.4835725696
 20
121.5340204867
 30
0.0
 11
143.2324461678
 21
121.8699227866
 31
0.0
  0
LINE
  5
1AE
330
1F
100
AcDbEntity
  8
0
  6
Continuous
 62
     7
370
     0
100
AcDbLine
 10
132.4835725696
 20
106.6666944262
 30
0.0
 11
143.2324461678
 21
106.3307921263
 31
0.0
  0
LINE
  5
1AF
330
1F
100
AcDbEntity
  8
0
  6
Continuous
 62
     7
370
     0
100
AcDbLine
 10
143.2324461678
 20
105.6084199564
 30
0.0
 11
143.2324461678
 21
122.5922949564
 31
0.0
  0
LINE
  5
1B0
330
1F
100
AcDbEntity
  8
0
  6
CENTERX2
 62
     7
370
    18
100
AcDbLine
 10
129.7324461678
 20
114.1003574564
 30
0.0
 11
145.7324461678
 21
114.1003574564
 31
0.0
  0
LINE
  5
1B1
330
1F
100
AcDbEntity
  8
0
  6
CENTERX2
 62
     7
370
    18
100
AcDbLine
 10
147.7324461678
 20
114.1003574564
 30
0.0
 11
193.2829751291
 21
114.1003574564
 31
0.0
  0
ENDSEC
  0
SECTION
  2
OBJECTS
  0
DICTIONARY
  5
C
330
0
100
AcDbDictionary
281
     1
  3
ACAD_GROUP
350
D
  3
ACAD_LAYOUT
350
1A
  3
ACAD_MLINESTYLE
350
17
  3
ACAD_PLOTSETTINGS
350
19
  3
ACAD_PLOTSTYLENAME
350
E
  3
ACAD_SCALELIST
350
47
  0
DICTIONARY
  5
D
102
{ACAD_REACTORS
330
C
102
}
330
C
100
AcDbDictionary
281
     1
  0
DICTIONARY
  5
1A
102
{ACAD_REACTORS
330
C
102
}
330
C
100
AcDbDictionary
281
     1
  3
Layout1
350
1E
  3
Layout2
350
26
  3
Model
350
22
  0
DICTIONARY
  5
17
102
{ACAD_REACTORS
330
C
102
}
330
C
100
AcDbDictionary
281
     1
  3
Standard
350
18
  0
DICTIONARY
  5
19
102
{ACAD_REACTORS
330
C
102
}
330
C
100
AcDbDictionary
281
     1
  0
ACDBDICTIONARYWDFLT
  5
E
102
{ACAD_REACTORS
330
C
102
}
330
C
100
AcDbDictionary
281
     1
  3
Normal
350
F
100
AcDbDictionaryWithDefault
340
F
  0
DICTIONARY
  5
47
102
{ACAD_REACTORS
330
C
102
}
330
C
100
AcDbDictionary
281
     1
  3
A0
350
48
  3
A1
350
49
  3
A2
350
4A
  3
A3
350
4B
  3
A4
350
4C
  3
A5
350
4D
  3
A6
350
4E
  3
A7
350
4F
  3
A8
350
50
  3
A9
350
51
  3
B0
350
52
  3
B1
350
53
  3
B2
350
54
  3
B3
350
55
  3
B4
350
56
  3
B5
350
57
  3
B6
350
58
  3
B7
350
59
  3
B8
350
5A
  3
B9
350
5B
  3
C0
350
5C
  3
C1
350
5D
  3
C2
350
5E
  3
C3
350
5F
  3
C4
350
60
  3
C5
350
61
  3
C6
350
62
  3
C7
350
63
  3
C8
350
64
  3
C9
350
65
  3
D0
350
66
  3
D1
350
67
  3
D2
350
68
  0
LAYOUT
  5
1E
102
{ACAD_REACTORS
330
1A
102
}
330
1A
100
AcDbPlotSettings
  1

  2
none_device
  4

  6

 40
0.0
 41
0.0
 42
0.0
 43
0.0
 44
0.0
 45
0.0
 46
0.0
 47
0.0
 48
0.0
 49
0.0
140
0.0
141
0.0
142
1.0
143
1.0
 70
   688
 72
     1
 73
     0
 74
     5
  7

 75
    16
147
1.0
148
0.0
149
0.0
100
AcDbLayout
  1
Layout1
 70
     1
 71
     1
 10
0.0
 20
0.0
 11
420.0
 21
297.0
 12
0.0
 22
0.0
 32
0.0
 14
1.0000000000E+20
 24
1.0000000000E+20
 34
1.0000000000E+20
 15
-1.0000000000E+20
 25
-1.0000000000E+20
 35
-1.0000000000E+20
146
0.0
 13
0.0
 23
0.0
 33
0.0
 16
1.0
 26
0.0
 36
0.0
 17
0.0
 27
1.0
 37
0.0
 76
     0
330
1B
  0
LAYOUT
  5
26
102
{ACAD_REACTORS
330
1A
102
}
330
1A
100
AcDbPlotSettings
  1

  2
none_device
  4

  6

 40
0.0
 41
0.0
 42
0.0
 43
0.0
 44
0.0
 45
0.0
 46
0.0
 47
0.0
 48
0.0
 49
0.0
140
0.0
141
0.0
142
1.0
143
1.0
 70
   688
 72
     1
 73
     0
 74
     5
  7

 75
    16
147
1.0
148
0.0
149
0.0
100
AcDbLayout
  1
Layout2
 70
     1
 71
     2
 10
0.0
 20
0.0
 11
0.0
 21
0.0
 12
0.0
 22
0.0
 32
0.0
 14
0.0
 24
0.0
 34
0.0
 15
0.0
 25
0.0
 35
0.0
146
0.0
 13
0.0
 23
0.0
 33
0.0
 16
1.0
 26
0.0
 36
0.0
 17
0.0
 27
1.0
 37
0.0
 76
     0
330
23
  0
LAYOUT
  5
22
102
{ACAD_REACTORS
330
1A
102
}
330
1A
100
AcDbPlotSettings
  1

  2
none_device
  4
Letter_(8.50_x_11.00_Inches)
  6

 40
6.35
 41
6.35
 42
6.35000508
 43
6.35000508
 44
215.9
 45
279.4
 46
0.0
 47
0.0
 48
0.0
 49
0.0
140
0.0
141
0.0
142
1.0
143
1.0
 70
  1712
 72
     1
 73
     0
 74
     0
  7

 75
     0
147
1.0
148
0.0
149
0.0
100
AcDbLayout
  1
Model
 70
     1
 71
     0
 10
0.0
 20
0.0
 11
431.8
 21
279.4
 12
0.0
 22
0.0
 32
0.0
 14
0.0
 24
0.0
 34
0.0
 15
431.8
 25
279.4
 35
0.0
146
0.0
 13
0.0
 23
0.0
 33
0.0
 16
1.0
 26
0.0
 36
0.0
 17
0.0
 27
1.0
 37
0.0
 76
     0
330
1F
331
29
  0
MLINESTYLE
  5
18
102
{ACAD_REACTORS
330
17
102
}
330
17
100
AcDbMlineStyle
  2
Standard
 70
     0
  3

 62
   256
 51
90.0
 52
90.0
 71
     2
 49
0.5
 62
   256
  6
BYLAYER
 49
-0.5
 62
   256
  6
BYLAYER
  0
ACDBPLACEHOLDER
  5
F
102
{ACAD_REACTORS
330
E
102
}
330
E
  0
SCALE
  5
48
102
{ACAD_REACTORS
330
47
102
}
330
47
100
AcDbScale
 70
     0
300
1:1
140
1.0
141
1.0
290
     1
  0
SCALE
  5
49
102
{ACAD_REACTORS
330
47
102
}
330
47
100
AcDbScale
 70
     0
300
1:2
140
1.0
141
2.0
290
     0
  0
SCALE
  5
4A
102
{ACAD_REACTORS
330
47
102
}
330
47
100
AcDbScale
 70
     0
300
1:4
140
1.0
141
4.0
290
     0
  0
SCALE
  5
4B
102
{ACAD_REACTORS
330
47
102
}
330
47
100
AcDbScale
 70
     0
300
1:5
140
1.0
141
5.0
290
     0
  0
SCALE
  5
4C
102
{ACAD_REACTORS
330
47
102
}
330
47
100
AcDbScale
 70
     0
300
1:8
140
1.0
141
8.0
290
     0
  0
SCALE
  5
4D
102
{ACAD_REACTORS
330
47
102
}
330
47
100
AcDbScale
 70
     0
300
1:10
140
1.0
141
10.0
290
     0
  0
SCALE
  5
4E
102
{ACAD_REACTORS
330
47
102
}
330
47
100
AcDbScale
 70
     0
300
1:16
140
1.0
141
16.0
290
     0
  0
SCALE
  5
4F
102
{ACAD_REACTORS
330
47
102
}
330
47
100
AcDbScale
 70
     0
300
1:20
140
1.0
141
20.0
290
     0
  0
SCALE
  5
50
102
{ACAD_REACTORS
330
47
102
}
330
47
100
AcDbScale
 70
     0
300
1:30
140
1.0
141
30.0
290
     0
  0
SCALE
  5
51
102
{ACAD_REACTORS
330
47
102
}
330
47
100
AcDbScale
 70
     0
300
1:40
140
1.0
141
40.0
290
     0
  0
SCALE
  5
52
102
{ACAD_REACTORS
330
47
102
}
330
47
100
AcDbScale
 70
     0
300
1:50
140
1.0
141
50.0
290
     0
  0
SCALE
  5
53
102
{ACAD_REACTORS
330
47
102
}
330
47
100
AcDbScale
 70
     0
300
1:100
140
1.0
141
100.0
290
     0
  0
SCALE
  5
54
102
{ACAD_REACTORS
330
47
102
}
330
47
100
AcDbScale
 70
     0
300
2:1
140
2.0
141
1.0
290
     0
  0
SCALE
  5
55
102
{ACAD_REACTORS
330
47
102
}
330
47
100
AcDbScale
 70
     0
300
4:1
140
4.0
141
1.0
290
     0
  0
SCALE
  5
56
102
{ACAD_REACTORS
330
47
102
}
330
47
100
AcDbScale
 70
     0
300
8:1
140
8.0
141
1.0
290
     0
  0
SCALE
  5
57
102
{ACAD_REACTORS
330
47
102
}
330
47
100
AcDbScale
 70
     0
300
10:1
140
10.0
141
1.0
290
     0
  0
SCALE
  5
58
102
{ACAD_REACTORS
330
47
102
}
330
47
100
AcDbScale
 70
     0
300
100:1
140
100.0
141
1.0
290
     0
  0
SCALE
  5
59
102
{ACAD_REACTORS
330
47
102
}
330
47
100
AcDbScale
 70
     0
300
1/128" = 1'-0"
140
0.0078125
141
12.0
290
     0
  0
SCALE
  5
5A
102
{ACAD_REACTORS
330
47
102
}
330
47
100
AcDbScale
 70
     0
300
1/64" = 1'-0"
140
0.015625
141
12.0
290
     0
  0
SCALE
  5
5B
102
{ACAD_REACTORS
330
47
102
}
330
47
100
AcDbScale
 70
     0
300
1/32" = 1'-0"
140
0.03125
141
12.0
290
     0
  0
SCALE
  5
5C
102
{ACAD_REACTORS
330
47
102
}
330
47
100
AcDbScale
 70
     0
300
1/16" = 1'-0"
140
0.0625
141
12.0
290
     0
  0
SCALE
  5
5D
102
{ACAD_REACTORS
330
47
102
}
330
47
100
AcDbScale
 70
     0
300
3/32" = 1'-0"
140
0.09375
141
12.0
290
     0
  0
SCALE
  5
5E
102
{ACAD_REACTORS
330
47
102
}
330
47
100
AcDbScale
 70
     0
300
1/8" = 1'-0"
140
0.125
141
12.0
290
     0
  0
SCALE
  5
5F
102
{ACAD_REACTORS
330
47
102
}
330
47
100
AcDbScale
 70
     0
300
3/16" = 1'-0"
140
0.1875
141
12.0
290
     0
  0
SCALE
  5
60
102
{ACAD_REACTORS
330
47
102
}
330
47
100
AcDbScale
 70
     0
300
1/4" = 1'-0"
140
0.25
141
12.0
290
     0
  0
SCALE
  5
61
102
{ACAD_REACTORS
330
47
102
}
330
47
100
AcDbScale
 70
     0
300
3/8" = 1'-0"
140
0.375
141
12.0
290
     0
  0
SCALE
  5
62
102
{ACAD_REACTORS
330
47
102
}
330
47
100
AcDbScale
 70
     0
300
1/2" = 1'-0"
140
0.5
141
12.0
290
     0
  0
SCALE
  5
63
102
{ACAD_REACTORS
330
47
102
}
330
47
100
AcDbScale
 70
     0
300
3/4" = 1'-0"
140
0.75
141
12.0
290
     0
  0
SCALE
  5
64
102
{ACAD_REACTORS
330
47
102
}
330
47
100
AcDbScale
 70
     0
300
1" = 1'-0"
140
1.0
141
12.0
290
     0
  0
SCALE
  5
65
102
{ACAD_REACTORS
330
47
102
}
330
47
100
AcDbScale
 70
     0
300
1-1/2" = 1'-0"
140
1.5
141
12.0
290
     0
  0
SCALE
  5
66
102
{ACAD_REACTORS
330
47
102
}
330
47
100
AcDbScale
 70
     0
300
3" = 1'-0"
140
3.0
141
12.0
290
     0
  0
SCALE
  5
67
102
{ACAD_REACTORS
330
47
102
}
330
47
100
AcDbScale
 70
     0
300
6" = 1'-0"
140
6.0
141
12.0
290
     0
  0
SCALE
  5
68
102
{ACAD_REACTORS
330
47
102
}
330
47
100
AcDbScale
 70
     0
300
1'-0" = 1'-0"
140
12.0
141
12.0
290
     0
  0
ENDSEC
  0
EOF
