  0
SECTION
  2
HEADER
  9
$ACADVER
  1
AC1015
  9
$ACADMAINTVER
 70
     6
  9
$DWGCODEPAGE
  3
DOS932
  9
$INSBASE
 10
0.0
 20
0.0
 30
0.0
  9
$EXTMIN
 10
0.0
 20
0.0
 30
0.0
  9
$EXTMAX
 10
431.8
 20
279.4
 30
0.0
  9
$LIMMIN
 10
0.0
 20
0.0
  9
$LIMMAX
 10
431.8
 20
279.4
  9
$ORTHOMODE
 70
     0
  9
$REGENMODE
 70
     1
  9
$FILLMODE
 70
     1
  9
$QTEXTMODE
 70
     0
  9
$MIRRTEXT
 70
     1
  9
$LTSCALE
 40
1.0
  9
$ATTMODE
 70
     1
  9
$TEXTSIZE
 40
3.5
  9
$TRACEWID
 40
1.0
  9
$TEXTSTYLE
  7
Standard
  9
$CLAYER
  8
0
  9
$CELTYPE
  6
ByLayer
  9
$CECOLOR
 62
   256
  9
$CELTSCALE
 40
1.0
  9
$DISPSILH
 70
     0
  9
$DIMSCALE
 40
1.0
  9
$DIMASZ
 40
3.302
  9
$DIMEXO
 40
1.0
  9
$DIMDLI
 40
3.75
  9
$DIMRND
 40
0.0
  9
$DIMDLE
 40
0.0
  9
$DIMEXE
 40
1.0
  9
$DIMTP
 40
0.0
  9
$DIMTM
 40
0.0
  9
$DIMTXT
 40
3.5
  9
$DIMCEN
 40
2.5
  9
$DIMTSZ
 40
0.0
  9
$DIMTOL
 70
     0
  9
$DIMLIM
 70
     0
  9
$DIMTIH
 70
     1
  9
$DIMTOH
 70
     1
  9
$DIMSE1
 70
     0
  9
$DIMSE2
 70
     0
  9
$DIMTAD
 70
     1
  9
$DIMZIN
 70
     1
  9
$DIMBLK
  1

  9
$DIMASO
 70
     1
  9
$DIMSHO
 70
     1
  9
$DIMPOST
  1

  9
$DIMAPOST
  1

  9
$DIMALT
 70
     0
  9
$DIMALTD
 70
     3
  9
$DIMALTF
 40
0.0393700787
  9
$DIMLFAC
 40
1.0
  9
$DIMTOFL
 70
     1
  9
$DIMTVP
 40
0.0
  9
$DIMTIX
 70
     0
  9
$DIMSOXD
 70
     0
  9
$DIMSAH
 70
     0
  9
$DIMBLK1
  1

  9
$DIMBLK2
  1

  9
$DIMSTYLE
  2
ISO-25
  9
$DIMCLRD
 70
     0
  9
$DIMCLRE
 70
     0
  9
$DIMCLRT
 70
     0
  9
$DIMTFAC
 40
1.0
  9
$DIMGAP
 40
1.524
  9
$DIMJUST
 70
     0
  9
$DIMSD1
 70
     0
  9
$DIMSD2
 70
     0
  9
$DIMTOLJ
 70
     0
  9
$DIMTZIN
 70
     1
  9
$DIMALTZ
 70
     0
  9
$DIMALTTZ
 70
     0
  9
$DIMUPT
 70
     0
  9
$DIMDEC
 70
     2
  9
$DIMTDEC
 70
     2
  9
$DIMALTU
 70
     2
  9
$DIMALTTD
 70
     3
  9
$DIMTXSTY
  7
Standard
  9
$DIMAUNIT
 70
     0
  9
$DIMADEC
 70
     2
  9
$DIMALTRND
 40
0.0
  9
$DIMAZIN
 70
     0
  9
$DIMDSEP
 70
    44
  9
$DIMATFIT
 70
     3
  9
$DIMFRAC
 70
     0
  9
$DIMLDRBLK
  1

  9
$DIMLUNIT
 70
     2
  9
$DIMLWD
 70
    -2
  9
$DIMLWE
 70
    -2
  9
$DIMTMOVE
 70
     0
  9
$LUNITS
 70
     2
  9
$LUPREC
 70
     2
  9
$SKETCHINC
 40
1.0
  9
$FILLETRAD
 40
10.0
  9
$AUNITS
 70
     0
  9
$AUPREC
 70
     2
  9
$MENU
  1
.
  9
$ELEVATION
 40
0.0
  9
$PELEVATION
 40
0.0
  9
$THICKNESS
 40
0.0
  9
$LIMCHECK
 70
     0
  9
$CHAMFERA
 40
0.0
  9
$CHAMFERB
 40
0.0
  9
$CHAMFERC
 40
0.0
  9
$CHAMFERD
 40
0.0
  9
$SKPOLY
 70
     0
  9
$TDCREATE
 40
2459285.466126181
  9
$TDUCREATE
 40
2459285.091126181
  9
$TDUPDATE
 40
2459285.466126539
  9
$TDUUPDATE
 40
2459285.091126539
  9
$TDINDWG
 40
0.0000000116
  9
$TDUSRTIMER
 40
0.0000000116
  9
$USRTIMER
 70
     1
  9
$ANGBASE
 50
0.0
  9
$ANGDIR
 70
     0
  9
$PDMODE
 70
     0
  9
$PDSIZE
 40
-1.0
  9
$PLINEWID
 40
0.0
  9
$SPLFRAME
 70
     0
  9
$SPLINETYPE
 70
     6
  9
$SPLINESEGS
 70
     8
  9
$HANDSEED
  5
183
  9
$SURFTAB1
 70
     6
  9
$SURFTAB2
 70
     6
  9
$SURFTYPE
 70
     6
  9
$SURFU
 70
     6
  9
$SURFV
 70
     6
  9
$UCSBASE
  2

  9
$UCSNAME
  2

  9
$UCSORG
 10
0.0
 20
0.0
 30
0.0
  9
$UCSXDIR
 10
1.0
 20
0.0
 30
0.0
  9
$UCSYDIR
 10
0.0
 20
1.0
 30
0.0
  9
$UCSORTHOREF
  2

  9
$UCSORTHOVIEW
 70
     0
  9
$UCSORGTOP
 10
0.0
 20
0.0
 30
0.0
  9
$UCSORGBOTTOM
 10
0.0
 20
0.0
 30
0.0
  9
$UCSORGLEFT
 10
0.0
 20
0.0
 30
0.0
  9
$UCSORGRIGHT
 10
0.0
 20
0.0
 30
0.0
  9
$UCSORGFRONT
 10
0.0
 20
0.0
 30
0.0
  9
$UCSORGBACK
 10
0.0
 20
0.0
 30
0.0
  9
$PUCSBASE
  2

  9
$PUCSNAME
  2

  9
$PUCSORG
 10
0.0
 20
0.0
 30
0.0
  9
$PUCSXDIR
 10
1.0
 20
0.0
 30
0.0
  9
$PUCSYDIR
 10
0.0
 20
1.0
 30
0.0
  9
$PUCSORTHOREF
  2

  9
$PUCSORTHOVIEW
 70
     0
  9
$PUCSORGTOP
 10
0.0
 20
0.0
 30
0.0
  9
$PUCSORGBOTTOM
 10
0.0
 20
0.0
 30
0.0
  9
$PUCSORGLEFT
 10
0.0
 20
0.0
 30
0.0
  9
$PUCSORGRIGHT
 10
0.0
 20
0.0
 30
0.0
  9
$PUCSORGFRONT
 10
0.0
 20
0.0
 30
0.0
  9
$PUCSORGBACK
 10
0.0
 20
0.0
 30
0.0
  9
$USERI1
 70
     0
  9
$USERI2
 70
     0
  9
$USERI3
 70
     0
  9
$USERI4
 70
     0
  9
$USERI5
 70
     0
  9
$USERR1
 40
0.0
  9
$USERR2
 40
0.0
  9
$USERR3
 40
0.0
  9
$USERR4
 40
0.0
  9
$USERR5
 40
0.0
  9
$WORLDVIEW
 70
     1
  9
$SHADEDGE
 70
     3
  9
$SHADEDIF
 70
    70
  9
$TILEMODE
 70
     1
  9
$MAXACTVP
 70
    64
  9
$PINSBASE
 10
0.0
 20
0.0
 30
0.0
  9
$PLIMCHECK
 70
     0
  9
$PEXTMIN
 10
1.0000000000E+20
 20
1.0000000000E+20
 30
1.0000000000E+20
  9
$PEXTMAX
 10
-1.0000000000E+20
 20
-1.0000000000E+20
 30
-1.0000000000E+20
  9
$PLIMMIN
 10
0.0
 20
0.0
  9
$PLIMMAX
 10
420.0
 20
297.0
  9
$UNITMODE
 70
     0
  9
$VISRETAIN
 70
     1
  9
$PLINEGEN
 70
     0
  9
$PSLTSCALE
 70
     1
  9
$TREEDEPTH
 70
  3020
  9
$CMLSTYLE
  2
Standard
  9
$CMLJUST
 70
     0
  9
$CMLSCALE
 40
20.0
  9
$PROXYGRAPHICS
 70
     1
  9
$MEASUREMENT
 70
     1
  9
$CELWEIGHT
370
    -1
  9
$ENDCAPS
280
     0
  9
$JOINSTYLE
280
     0
  9
$LWDISPLAY
290
     1
  9
$INSUNITS
 70
     4
  9
$HYPERLINKBASE
  1

  9
$STYLESHEET
  1

  9
$XEDIT
290
     1
  9
$CEPSNTYPE
380
     0
  9
$PSTYLEMODE
290
     1
  9
$FINGERPRINTGUID
  2
{C2B67D8B-804F-4EE0-83EC-38B31C8BEF58}
  9
$VERSIONGUID
  2
{FAEB1C32-E019-11D5-929B-00C0DF256EC4}
  9
$EXTNAMES
290
     1
  9
$PSVPSCALE
 40
0.0
  9
$OLESTARTUP
290
     0
  0
ENDSEC
  0
SECTION
  2
CLASSES
  0
CLASS
  1
ACDBDICTIONARYWDFLT
  2
AcDbDictionaryWithDefault
  3
ObjectDBX Classes
 90
        0
280
     0
281
     0
  0
CLASS
  1
VISUALSTYLE
  2
AcDbVisualStyle
  3
ObjectDBX Classes
 90
     4095
280
     0
281
     0
  0
CLASS
  1
MATERIAL
  2
AcDbMaterial
  3
ObjectDBX Classes
 90
     1153
280
     0
281
     0
  0
CLASS
  1
SCALE
  2
AcDbScale
  3
ObjectDBX Classes
 90
     1153
280
     0
281
     0
  0
CLASS
  1
TABLESTYLE
  2
AcDbTableStyle
  3
ObjectDBX Classes
 90
     4095
280
     0
281
     0
  0
CLASS
  1
MLEADERSTYLE
  2
AcDbMLeaderStyle
  3
ACDB_MLEADERSTYLE_CLASS
 90
     4095
280
     0
281
     0
  0
CLASS
  1
SUN
  2
AcDbSun
  3
SCENEOE
 90
     1153
280
     0
281
     0
  0
CLASS
  1
ACDBPLACEHOLDER
  2
AcDbPlaceHolder
  3
ObjectDBX Classes
 90
        0
280
     0
281
     0
  0
CLASS
  1
LAYOUT
  2
AcDbLayout
  3
ObjectDBX Classes
 90
        0
280
     0
281
     0
  0
ENDSEC
  0
SECTION
  2
TABLES
  0
TABLE
  2
VPORT
  5
8
330
0
100
AcDbSymbolTable
 70
     1
  0
VPORT
  5
29
330
8
100
AcDbSymbolTableRecord
100
AcDbViewportTableRecord
  2
*Active
 70
     0
 10
0.0
 20
0.0
 11
1.0
 21
1.0
 12
215.9
 22
139.7
 13
0.0
 23
0.0
 14
10.0
 24
10.0
 15
10.0
 25
10.0
 16
0.0
 26
0.0
 36
1.0
 17
0.0
 27
0.0
 37
0.0
 40
279.4
 41
1.5454545455
 42
50.0
 43
0.0
 44
0.0
 50
0.0
 51
0.0
 71
     0
 72
  2000
 73
     1
 74
     3
 75
     0
 76
     0
 77
     0
 78
     0
281
     0
 65
     1
110
0.0
120
0.0
130
0.0
111
1.0
121
0.0
131
0.0
112
0.0
122
1.0
132
0.0
 79
     0
146
0.0
  0
ENDTAB
  0
TABLE
  2
LTYPE
  5
5
330
0
100
AcDbSymbolTable
 70
     6
  0
LTYPE
  5
14
330
5
100
AcDbSymbolTableRecord
100
AcDbLinetypeTableRecord
  2
ByBlock
 70
     0
  3

 72
    65
 73
     0
 40
0.0
  0
LTYPE
  5
15
330
5
100
AcDbSymbolTableRecord
100
AcDbLinetypeTableRecord
  2
ByLayer
 70
     0
  3

 72
    65
 73
     0
 40
0.0
  0
LTYPE
  5
16
330
5
100
AcDbSymbolTableRecord
100
AcDbLinetypeTableRecord
  2
Continuous
 70
     0
  3
Solid line
 72
    65
 73
     0
 40
0.0
  0
LTYPE
  5
6E
330
5
100
AcDbSymbolTableRecord
100
AcDbLinetypeTableRecord
  2
HIDDEN
 70
     0
  3
Hidden __ __ __ __ __ __ __ __ __ __ __ __ __ __
 72
    65
 73
     2
 40
1.905
 49
1.27
 74
     0
 49
-0.635
 74
     0
  0
LTYPE
  5
6F
330
5
100
AcDbSymbolTableRecord
100
AcDbLinetypeTableRecord
  2
PHANTOM
 70
     0
  3
Phantom ______  __  __  ______  __  __  ______
 72
    65
 73
     6
 40
12.7
 49
6.35
 74
     0
 49
-1.27
 74
     0
 49
1.27
 74
     0
 49
-1.27
 74
     0
 49
1.27
 74
     0
 49
-1.27
 74
     0
  0
LTYPE
  5
70
330
5
100
AcDbSymbolTableRecord
100
AcDbLinetypeTableRecord
  2
CENTER
 70
     0
  3
Center ____ _ ____ _ ____ _ ____ _ ____ _ ____
 72
    65
 73
     4
 40
10.16
 49
6.35
 74
     0
 49
-1.27
 74
     0
 49
1.27
 74
     0
 49
-1.27
 74
     0
  0
LTYPE
  5
71
330
5
100
AcDbSymbolTableRecord
100
AcDbLinetypeTableRecord
  2
CENTERX2
 70
     0
  3
Center (2x) ________  __  ________  __  _____
 72
    65
 73
     4
 40
20.32
 49
12.7
 74
     0
 49
-2.54
 74
     0
 49
2.54
 74
     0
 49
-2.54
 74
     0
  0
LTYPE
  5
72
330
5
100
AcDbSymbolTableRecord
100
AcDbLinetypeTableRecord
  2
DOT2
 70
     0
  3
Dot (.5x) ........................................
 72
    65
 73
     2
 40
0.635
 49
0.0
 74
     0
 49
-0.635
 74
     0
  0
ENDTAB
  0
TABLE
  2
LAYER
  5
2
330
0
100
AcDbSymbolTable
 70
     1
  0
LAYER
  5
10
330
2
100
AcDbSymbolTableRecord
100
AcDbLayerTableRecord
  2
0
 70
     0
 62
     7
  6
Continuous
370
    -3
390
F
  0
ENDTAB
  0
TABLE
  2
STYLE
  5
3
330
0
100
AcDbSymbolTable
 70
     2
  0
STYLE
  5
11
330
3
100
AcDbSymbolTableRecord
100
AcDbTextStyleTableRecord
  2
Standard
 70
     0
 40
0.0
 41
1.0
 50
0.0
 71
     0
 42
3.5
  3
txt
  4
bigfont
  0
STYLE
  5
73
330
3
100
AcDbSymbolTableRecord
100
AcDbTextStyleTableRecord
  2
SLDTEXTSTYLE0
 70
     0
 40
0.0
 41
0.7
 50
0.0
 71
     0
 42
3.5
  3
TXT
  4
bigfont
  0
ENDTAB
  0
TABLE
  2
VIEW
  5
6
330
0
100
AcDbSymbolTable
 70
     0
  0
ENDTAB
  0
TABLE
  2
UCS
  5
7
330
0
100
AcDbSymbolTable
 70
     0
  0
ENDTAB
  0
TABLE
  2
APPID
  5
9
330
0
100
AcDbSymbolTable
 70
     1
  0
APPID
  5
12
330
9
100
AcDbSymbolTableRecord
100
AcDbRegAppTableRecord
  2
ACAD
 70
     0
  0
ENDTAB
  0
TABLE
  2
DIMSTYLE
  5
A
330
0
100
AcDbSymbolTable
 70
     1
100
AcDbDimStyleTable
  0
DIMSTYLE
105
27
330
A
100
AcDbSymbolTableRecord
100
AcDbDimStyleTableRecord
  2
ISO-25
 70
     0
 41
2.5
 42
0.625
 43
3.75
 44
1.25
 73
     0
 74
     0
 77
     1
 78
     8
140
2.5
141
2.5
143
0.0393700787
147
0.625
171
     3
172
     1
178
     0
271
     2
272
     2
274
     3
278
    44
283
     0
284
     8
340
11
  0
ENDTAB
  0
TABLE
  2
BLOCK_RECORD
  5
1
330
0
100
AcDbSymbolTable
 70
     2
  0
BLOCK_RECORD
  5
1F
330
1
100
AcDbSymbolTableRecord
100
AcDbBlockTableRecord
  2
*Model_Space
340
22
  0
BLOCK_RECORD
  5
1B
330
1
100
AcDbSymbolTableRecord
100
AcDbBlockTableRecord
  2
*Paper_Space
340
1E
  0
BLOCK_RECORD
  5
23
330
1
100
AcDbSymbolTableRecord
100
AcDbBlockTableRecord
  2
*Paper_Space0
340
26
  0
BLOCK_RECORD
  5
108
330
1
100
AcDbSymbolTableRecord
100
AcDbBlockTableRecord
  2
SW_CENTERMARKSYMBOL_0
340
0
102
{BLKREFS
331
113
102
}
  0
ENDTAB
  0
ENDSEC
  0
SECTION
  2
BLOCKS
  0
BLOCK
  5
20
330
1F
100
AcDbEntity
  8
0
100
AcDbBlockBegin
  2
*Model_Space
 70
     0
 10
0.0
 20
0.0
 30
0.0
  3
*Model_Space
  1

  0
ENDBLK
  5
21
330
1F
100
AcDbEntity
  8
0
100
AcDbBlockEnd
  0
BLOCK
  5
1C
330
1B
100
AcDbEntity
 67
     1
  8
0
100
AcDbBlockBegin
  2
*Paper_Space
 70
     0
 10
0.0
 20
0.0
 30
0.0
  3
*Paper_Space
  1

  0
ENDBLK
  5
1D
330
1B
100
AcDbEntity
 67
     1
  8
0
100
AcDbBlockEnd
  0
BLOCK
  5
24
330
23
100
AcDbEntity
  8
0
100
AcDbBlockBegin
  2
*Paper_Space0
 70
     0
 10
0.0
 20
0.0
 30
0.0
  3
*Paper_Space0
  1

  0
ENDBLK
  5
25
330
23
100
AcDbEntity
  8
0
100
AcDbBlockEnd
  0
BLOCK
  5
109
330
108
100
AcDbEntity
  8
0
100
AcDbBlockBegin
  2
SW_CENTERMARKSYMBOL_0
 70
     0
 10
0.0
 20
0.0
 30
0.0
  3
SW_CENTERMARKSYMBOL_0
  1

  0
LINE
  5
10B
330
108
100
AcDbEntity
  8
0
  6
Continuous
 62
     0
370
    18
100
AcDbLine
 10
0.0
 20
0.0
 30
0.0
 11
0.0
 21
2.5
 31
0.0
  0
LINE
  5
10C
330
108
100
AcDbEntity
  8
0
  6
Continuous
 62
     0
370
    18
100
AcDbLine
 10
0.0
 20
0.0
 30
0.0
 11
-2.5
 21
0.0
 31
0.0
  0
LINE
  5
10D
330
108
100
AcDbEntity
  8
0
  6
Continuous
 62
     0
370
    18
100
AcDbLine
 10
0.0
 20
0.0
 30
0.0
 11
0.0
 21
-2.5
 31
0.0
  0
LINE
  5
10E
330
108
100
AcDbEntity
  8
0
  6
Continuous
 62
     0
370
    18
100
AcDbLine
 10
0.0
 20
0.0
 30
0.0
 11
2.5
 21
0.0
 31
0.0
  0
LINE
  5
10F
330
108
100
AcDbEntity
  8
0
  6
Continuous
 62
     0
370
    18
100
AcDbLine
 10
0.0
 20
5.0
 30
0.0
 11
0.0
 21
11.85
 31
0.0
  0
LINE
  5
110
330
108
100
AcDbEntity
  8
0
  6
Continuous
 62
     0
370
    18
100
AcDbLine
 10
-5.0
 20
0.0
 30
0.0
 11
-11.85
 21
0.0
 31
0.0
  0
LINE
  5
111
330
108
100
AcDbEntity
  8
0
  6
Continuous
 62
     0
370
    18
100
AcDbLine
 10
0.0
 20
-5.0
 30
0.0
 11
0.0
 21
-11.85
 31
0.0
  0
LINE
  5
112
330
108
100
AcDbEntity
  8
0
  6
Continuous
 62
     0
370
    18
100
AcDbLine
 10
5.0
 20
0.0
 30
0.0
 11
11.85
 21
0.0
 31
0.0
  0
ENDBLK
  5
10A
330
108
100
AcDbEntity
  8
0
100
AcDbBlockEnd
  0
ENDSEC
  0
SECTION
  2
ENTITIES
  0
MTEXT
  5
74
330
1F
100
AcDbEntity
  8
0
  6
Continuous
 62
     7
370
     0
100
AcDbMText
 10
189.1201140301
 20
99.5082702501
 30
0.0
 40
4.7625
 41
0.0
 71
     1
 72
     1
  1
HS-1210R
  7
SLDTEXTSTYLE0
 73
     1
 44
1.0
  0
LINE
  5
75
330
1F
100
AcDbEntity
  8
0
  6
Continuous
 62
     7
370
    25
100
AcDbLine
 10
166.3604932585
 20
70.4881076734
 30
0.0
 11
170.3604932585
 21
71.2381076734
 31
0.0
  0
LINE
  5
76
330
1F
100
AcDbEntity
  8
0
  6
Continuous
 62
     7
370
    25
100
AcDbLine
 10
170.3604932585
 20
80.2381076734
 30
0.0
 11
166.3604932585
 21
80.9881076734
 31
0.0
  0
LINE
  5
77
330
1F
100
AcDbEntity
  8
0
  6
Continuous
 62
     7
370
    25
100
AcDbLine
 10
161.8604932585
 20
70.4881076734
 30
0.0
 11
166.3604932585
 21
70.4881076734
 31
0.0
  0
LINE
  5
78
330
1F
100
AcDbEntity
  8
0
  6
Continuous
 62
     7
370
    25
100
AcDbLine
 10
166.3604932585
 20
80.9881076734
 30
0.0
 11
161.8604932585
 21
80.9881076734
 31
0.0
  0
LINE
  5
79
330
1F
100
AcDbEntity
  8
0
  6
Continuous
 62
     7
370
    25
100
AcDbLine
 10
170.3604932585
 20
70.4881076734
 30
0.0
 11
174.3604932585
 21
71.2381076734
 31
0.0
  0
LINE
  5
7A
330
1F
100
AcDbEntity
  8
0
  6
Continuous
 62
     7
370
    25
100
AcDbLine
 10
174.3604932585
 20
80.2381076734
 30
0.0
 11
170.3604932585
 21
80.9881076734
 31
0.0
  0
LINE
  5
7B
330
1F
100
AcDbEntity
  8
0
  6
Continuous
 62
     7
370
    25
100
AcDbLine
 10
174.3604932585
 20
70.4881076734
 30
0.0
 11
178.3604932585
 21
71.2381076734
 31
0.0
  0
LINE
  5
7C
330
1F
100
AcDbEntity
  8
0
  6
Continuous
 62
     7
370
    25
100
AcDbLine
 10
178.3604932585
 20
80.2381076734
 30
0.0
 11
174.3604932585
 21
80.9881076734
 31
0.0
  0
LINE
  5
7D
330
1F
100
AcDbEntity
  8
0
  6
Continuous
 62
     7
370
    25
100
AcDbLine
 10
178.3604932585
 20
70.4881076734
 30
0.0
 11
182.3604932585
 21
71.2381076734
 31
0.0
  0
LINE
  5
7E
330
1F
100
AcDbEntity
  8
0
  6
Continuous
 62
     7
370
    25
100
AcDbLine
 10
182.3604932585
 20
80.2381076734
 30
0.0
 11
178.3604932585
 21
80.9881076734
 31
0.0
  0
LINE
  5
7F
330
1F
100
AcDbEntity
  8
0
  6
Continuous
 62
     7
370
    25
100
AcDbLine
 10
182.3604932585
 20
70.4881076734
 30
0.0
 11
187.9033504013
 21
71.1809648163
 31
0.0
  0
LINE
  5
80
330
1F
100
AcDbEntity
  8
0
  6
Continuous
 62
     7
370
    25
100
AcDbLine
 10
187.9033504013
 20
80.2952505306
 30
0.0
 11
182.3604932585
 21
80.9881076734
 31
0.0
  0
LINE
  5
81
330
1F
100
AcDbEntity
  8
0
  6
Continuous
 62
     7
370
    25
100
AcDbLine
 10
187.9033504013
 20
71.1809648163
 30
0.0
 11
188.3604932585
 21
71.6381076734
 31
0.0
  0
LINE
  5
82
330
1F
100
AcDbEntity
  8
0
  6
Continuous
 62
     7
370
    25
100
AcDbLine
 10
188.3604932585
 20
79.8381076734
 30
0.0
 11
187.9033504013
 21
80.2952505306
 31
0.0
  0
LINE
  5
83
330
1F
100
AcDbEntity
  8
0
  6
Continuous
 62
     7
370
    25
100
AcDbLine
 10
150.7956015749
 20
86.707762788
 30
0.0
 11
149.8604932585
 21
85.0881076734
 31
0.0
  0
LINE
  5
84
330
1F
100
AcDbEntity
  8
0
  6
Continuous
 62
     7
370
    25
100
AcDbLine
 10
149.8604932585
 20
66.3881076734
 30
0.0
 11
150.7956015749
 21
64.7684525588
 31
0.0
  0
LINE
  5
85
330
1F
100
AcDbEntity
  8
0
  6
Continuous
 62
     7
370
    25
100
AcDbLine
 10
158.9253849421
 20
64.7684525588
 30
0.0
 11
159.8604932585
 21
66.3881076734
 31
0.0
  0
LINE
  5
86
330
1F
100
AcDbEntity
  8
0
  6
Continuous
 62
     7
370
    25
100
AcDbLine
 10
159.8604932585
 20
85.0881076734
 30
0.0
 11
158.9253849421
 21
86.707762788
 31
0.0
  0
ARC
  5
87
330
1F
100
AcDbEntity
  8
0
  6
Continuous
 62
     7
370
    25
100
AcDbCircle
 10
148.1604932585
 20
66.6881076734
 30
0.0
 40
0.3000000000000114
100
AcDbArc
 50
180.0
 51
270.0
  0
ARC
  5
88
330
1F
100
AcDbEntity
  8
0
  6
Continuous
 62
     7
370
    25
100
AcDbCircle
 10
148.1604932585
 20
84.7881076734
 30
0.0
 40
0.2999999999999972
100
AcDbArc
 50
90.0
 51
180.0
  0
LINE
  5
89
330
1F
100
AcDbEntity
  8
0
  6
Continuous
 62
     7
370
    25
100
AcDbLine
 10
159.8604932585
 20
66.3881076734
 30
0.0
 11
161.5604932585
 21
66.3881076734
 31
0.0
  0
LINE
  5
8A
330
1F
100
AcDbEntity
  8
0
  6
Continuous
 62
     7
370
    25
100
AcDbLine
 10
161.5604932585
 20
85.0881076734
 30
0.0
 11
159.8604932585
 21
85.0881076734
 31
0.0
  0
LINE
  5
8B
330
1F
100
AcDbEntity
  8
0
  6
Continuous
 62
     7
370
    25
100
AcDbLine
 10
149.8604932585
 20
85.0881076734
 30
0.0
 11
148.1604932585
 21
85.0881076734
 31
0.0
  0
LINE
  5
8C
330
1F
100
AcDbEntity
  8
0
  6
Continuous
 62
     7
370
    25
100
AcDbLine
 10
148.1604932585
 20
66.3881076734
 30
0.0
 11
149.8604932585
 21
66.3881076734
 31
0.0
  0
ARC
  5
8D
330
1F
100
AcDbEntity
  8
0
  6
Continuous
 62
     7
370
    25
100
AcDbCircle
 10
161.5604932585
 20
84.7881076734
 30
0.0
 40
0.2999999999999972
100
AcDbArc
 50
0.0
 51
90.0
  0
ARC
  5
8E
330
1F
100
AcDbEntity
  8
0
  6
Continuous
 62
     7
370
    25
100
AcDbCircle
 10
161.5604932585
 20
66.6881076734
 30
0.0
 40
0.2999999999999972
100
AcDbArc
 50
270.0
 51
0.0
  0
LINE
  5
8F
330
1F
100
AcDbEntity
  8
0
  6
Continuous
 62
     7
370
    25
100
AcDbLine
 10
154.8604932585
 20
86.407762788
 30
0.0
 11
154.7043231433
 21
86.707762788
 31
0.0
  0
LINE
  5
90
330
1F
100
AcDbEntity
  8
0
  6
Continuous
 62
     7
370
    25
100
AcDbLine
 10
155.0166633736
 20
86.707762788
 30
0.0
 11
154.8604932585
 21
86.407762788
 31
0.0
  0
LINE
  5
91
330
1F
100
AcDbEntity
  8
0
  6
Continuous
 62
     7
370
    25
100
AcDbLine
 10
154.8604932585
 20
65.0684525588
 30
0.0
 11
155.0166633736
 21
64.7684525588
 31
0.0
  0
LINE
  5
92
330
1F
100
AcDbEntity
  8
0
  6
Continuous
 62
     7
370
    25
100
AcDbLine
 10
154.7043231433
 20
64.7684525588
 30
0.0
 11
154.8604932585
 21
65.0684525588
 31
0.0
  0
LINE
  5
93
330
1F
100
AcDbEntity
  8
0
  6
Continuous
 62
     7
370
    25
100
AcDbLine
 10
145.1808755489
 20
65.9231530972
 30
0.0
 11
146.0844024947
 21
67.4881076734
 31
0.0
  0
LINE
  5
94
330
1F
100
AcDbEntity
  8
0
  6
Continuous
 62
     7
370
    25
100
AcDbLine
 10
146.0844024947
 20
83.9881076734
 30
0.0
 11
145.1808755489
 21
85.5530622496
 31
0.0
  0
LINE
  5
95
330
1F
100
AcDbEntity
  8
0
  6
Continuous
 62
     7
370
    25
100
AcDbLine
 10
146.0844024947
 20
68.7381076734
 30
0.0
 11
147.8604932585
 21
68.7381076734
 31
0.0
  0
LINE
  5
96
330
1F
100
AcDbEntity
  8
0
  6
Continuous
 62
     7
370
    25
100
AcDbLine
 10
147.8604932585
 20
82.7381076734
 30
0.0
 11
146.0844024947
 21
82.7381076734
 31
0.0
  0
LINE
  5
97
330
1F
100
AcDbEntity
  8
0
  6
Continuous
 62
     7
370
    25
100
AcDbLine
 10
141.0844024947
 20
82.4412951734
 30
0.0
 11
133.1731901485
 21
82.1940697876
 31
0.0
  0
LINE
  5
98
330
1F
100
AcDbEntity
  8
0
  6
Continuous
 62
     7
370
    25
100
AcDbLine
 10
133.1731901485
 20
69.2821455592
 30
0.0
 11
141.0844024947
 21
69.0349201734
 31
0.0
  0
LINE
  5
99
330
1F
100
AcDbEntity
  8
0
  6
Continuous
 62
     7
370
    25
100
AcDbLine
 10
133.1731901485
 20
82.1940697876
 30
0.0
 11
131.0844024947
 21
80.9881076734
 31
0.0
  0
LINE
  5
9A
330
1F
100
AcDbEntity
  8
0
  6
Continuous
 62
     7
370
    25
100
AcDbLine
 10
131.0844024947
 20
70.4881076734
 30
0.0
 11
133.1731901485
 21
69.2821455592
 31
0.0
  0
LINE
  5
9B
330
1F
100
AcDbEntity
  8
0
  6
Continuous
 62
     7
370
    25
100
AcDbLine
 10
143.0522542641
 20
65.9231530972
 30
0.0
 11
143.1326390218
 21
66.2231530972
 31
0.0
  0
LINE
  5
9C
330
1F
100
AcDbEntity
  8
0
  6
Continuous
 62
     7
370
    25
100
AcDbLine
 10
143.1326390218
 20
66.2231530972
 30
0.0
 11
143.2130237795
 21
65.9231530972
 31
0.0
  0
LINE
  5
9D
330
1F
100
AcDbEntity
  8
0
  6
Continuous
 62
     7
370
    25
100
AcDbLine
 10
143.2130237795
 20
85.5530622496
 30
0.0
 11
143.1326390218
 21
85.2530622496
 31
0.0
  0
LINE
  5
9E
330
1F
100
AcDbEntity
  8
0
  6
Continuous
 62
     7
370
    25
100
AcDbLine
 10
143.1326390218
 20
85.2530622496
 30
0.0
 11
143.0522542641
 21
85.5530622496
 31
0.0
  0
LINE
  5
9F
330
1F
100
AcDbEntity
  8
0
  6
Continuous
 62
     7
370
    25
100
AcDbLine
 10
166.3604932585
 20
75.7381076734
 30
0.0
 11
166.3604932585
 21
80.9881076734
 31
0.0
  0
LINE
  5
A0
330
1F
100
AcDbEntity
  8
0
  6
Continuous
 62
     7
370
    25
100
AcDbLine
 10
166.3604932585
 20
70.4881076734
 30
0.0
 11
166.3604932585
 21
75.7381076734
 31
0.0
  0
LINE
  5
A1
330
1F
100
AcDbEntity
  8
0
  6
Continuous
 62
     7
370
    25
100
AcDbLine
 10
170.3604932585
 20
75.7381076734
 30
0.0
 11
170.3604932585
 21
80.9881076734
 31
0.0
  0
LINE
  5
A2
330
1F
100
AcDbEntity
  8
0
  6
Continuous
 62
     7
370
    25
100
AcDbLine
 10
170.3604932585
 20
70.4881076734
 30
0.0
 11
170.3604932585
 21
75.7381076734
 31
0.0
  0
LINE
  5
A3
330
1F
100
AcDbEntity
  8
0
  6
Continuous
 62
     7
370
    25
100
AcDbLine
 10
174.3604932585
 20
75.7381076734
 30
0.0
 11
174.3604932585
 21
80.9881076734
 31
0.0
  0
LINE
  5
A4
330
1F
100
AcDbEntity
  8
0
  6
Continuous
 62
     7
370
    25
100
AcDbLine
 10
174.3604932585
 20
70.4881076734
 30
0.0
 11
174.3604932585
 21
75.7381076734
 31
0.0
  0
LINE
  5
A5
330
1F
100
AcDbEntity
  8
0
  6
Continuous
 62
     7
370
    25
100
AcDbLine
 10
178.3604932585
 20
75.7381076734
 30
0.0
 11
178.3604932585
 21
80.9881076734
 31
0.0
  0
LINE
  5
A6
330
1F
100
AcDbEntity
  8
0
  6
Continuous
 62
     7
370
    25
100
AcDbLine
 10
178.3604932585
 20
70.4881076734
 30
0.0
 11
178.3604932585
 21
75.7381076734
 31
0.0
  0
LINE
  5
A7
330
1F
100
AcDbEntity
  8
0
  6
Continuous
 62
     7
370
    25
100
AcDbLine
 10
187.9033504013
 20
71.1809648163
 30
0.0
 11
187.9033504013
 21
80.2952505306
 31
0.0
  0
LINE
  5
A8
330
1F
100
AcDbEntity
  8
0
  6
Continuous
 62
     7
370
    25
100
AcDbLine
 10
182.3604932585
 20
75.7381076734
 30
0.0
 11
182.3604932585
 21
80.9881076734
 31
0.0
  0
LINE
  5
A9
330
1F
100
AcDbEntity
  8
0
  6
Continuous
 62
     7
370
    25
100
AcDbLine
 10
182.3604932585
 20
70.4881076734
 30
0.0
 11
182.3604932585
 21
75.7381076734
 31
0.0
  0
LINE
  5
AA
330
1F
100
AcDbEntity
  8
0
  6
Continuous
 62
     7
370
    25
100
AcDbLine
 10
188.3604932585
 20
79.8381076734
 30
0.0
 11
188.3604932585
 21
71.6381076734
 31
0.0
  0
LINE
  5
AB
330
1F
100
AcDbEntity
  8
0
  6
Continuous
 62
     7
370
    25
100
AcDbLine
 10
158.9253849421
 20
86.707762788
 30
0.0
 11
155.0166633736
 21
86.707762788
 31
0.0
  0
SPLINE
  5
AC
330
1F
100
AcDbEntity
  8
0
  6
Continuous
 62
     7
370
    25
100
AcDbSpline
210
0.0
220
0.0
230
1.0
 70
     8
 71
     3
 72
    15
 73
    11
 74
     0
 42
0.000000001
 43
0.00000001
 40
0.0
 40
0.0
 40
0.0
 40
0.0
 40
0.1323056949471119
 40
0.2645739819647155
 40
0.3998011884071377
 40
0.5350039926534308
 40
0.6501943985256686
 40
0.7654027729264457
 40
0.8826900467077625
 40
1.0
 40
1.0
 40
1.0
 40
1.0
 10
158.9253849420519
 20
81.22293523071065
 30
0.0
 10
159.0545518024855
 20
81.4599024255422
 30
0.0
 10
159.312849002893
 20
81.93376981542785
 30
0.0
 10
159.5907665120279
 20
82.66348374140603
 30
0.0
 10
159.7578698415828
 20
83.40695295406296
 30
0.0
 10
159.7909621352759
 20
84.12348938657314
 30
0.0
 10
159.7051015240361
 20
84.80131327712968
 30
0.0
 10
159.5291730706384
 20
85.44101039375742
 30
0.0
 10
159.2711063064587
 20
86.07781522797178
 30
0.0
 10
159.0406328238045
 20
86.49776673516637
 30
0.0
 10
158.9253849420519
 20
86.70776278801209
 30
0.0
  0
LINE
  5
AD
330
1F
100
AcDbEntity
  8
0
  6
Continuous
 62
     7
370
    25
100
AcDbLine
 10
158.9253849421
 20
81.2229352307
 30
0.0
 11
155.0166633736
 21
81.2229352307
 31
0.0
  0
LINE
  5
AE
330
1F
100
AcDbEntity
  8
0
  6
Continuous
 62
     7
370
    25
100
AcDbLine
 10
154.8604932585
 20
81.5367928403
 30
0.0
 11
155.0166633736
 21
81.2229352307
 31
0.0
  0
LINE
  5
AF
330
1F
100
AcDbEntity
  8
0
  6
Continuous
 62
     7
370
    25
100
AcDbLine
 10
154.7043231433
 20
81.2229352307
 30
0.0
 11
154.8604932585
 21
81.5367928403
 31
0.0
  0
LINE
  5
B0
330
1F
100
AcDbEntity
  8
0
  6
Continuous
 62
     7
370
    25
100
AcDbLine
 10
154.7043231433
 20
81.2229352307
 30
0.0
 11
150.7956015749
 21
81.2229352307
 31
0.0
  0
SPLINE
  5
B1
330
1F
100
AcDbEntity
  8
0
  6
Continuous
 62
     7
370
    25
100
AcDbSpline
210
0.0
220
0.0
230
1.0
 70
     8
 71
     3
 72
    15
 73
    11
 74
     0
 42
0.000000001
 43
0.00000001
 40
0.0
 40
0.0
 40
0.0
 40
0.0
 40
0.1323056949471118
 40
0.2645739819647155
 40
0.3998011884071378
 40
0.5350039926534309
 40
0.6501943985256687
 40
0.7654027729264458
 40
0.8826900467077626
 40
1.0
 40
1.0
 40
1.0
 40
1.0
 10
150.7956015748726
 20
81.22293523071065
 30
0.0
 10
150.666434714439
 20
81.4599024255422
 30
0.0
 10
150.4081375140315
 20
81.93376981542785
 30
0.0
 10
150.1302200048966
 20
82.66348374140603
 30
0.0
 10
149.9631166753416
 20
83.40695295406296
 30
0.0
 10
149.9300243816485
 20
84.12348938657314
 30
0.0
 10
150.0158849928884
 20
84.80131327712968
 30
0.0
 10
150.191813446286
 20
85.44101039375742
 30
0.0
 10
150.4498802104658
 20
86.07781522797178
 30
0.0
 10
150.68035369312
 20
86.49776673516637
 30
0.0
 10
150.7956015748726
 20
86.70776278801209
 30
0.0
  0
LINE
  5
B2
330
1F
100
AcDbEntity
  8
0
  6
Continuous
 62
     7
370
    25
100
AcDbLine
 10
154.7043231433
 20
86.707762788
 30
0.0
 11
150.7956015749
 21
86.707762788
 31
0.0
  0
LINE
  5
B3
330
1F
100
AcDbEntity
  8
0
  6
Continuous
 62
     7
370
    25
100
AcDbLine
 10
154.8604932585
 20
86.3939051784
 30
0.0
 11
154.7043231433
 21
86.707762788
 31
0.0
  0
LINE
  5
B4
330
1F
100
AcDbEntity
  8
0
  6
Continuous
 62
     7
370
    25
100
AcDbLine
 10
155.0166633736
 20
86.707762788
 30
0.0
 11
154.8604932585
 21
86.3939051784
 31
0.0
  0
LINE
  5
B5
330
1F
100
AcDbEntity
  8
0
  6
Continuous
 62
     7
370
    25
100
AcDbLine
 10
155.0166633736
 20
81.2229352307
 30
0.0
 11
154.8604932585
 21
80.5952200115
 31
0.0
  0
LINE
  5
B6
330
1F
100
AcDbEntity
  8
0
  6
Continuous
 62
     7
370
    25
100
AcDbLine
 10
154.8604932585
 20
81.5367928403
 30
0.0
 11
154.8604932585
 21
80.5952200115
 31
0.0
  0
SPLINE
  5
B7
330
1F
100
AcDbEntity
  8
0
  6
Continuous
 62
     7
370
    25
100
AcDbSpline
210
0.0
220
0.0
230
1.0
 70
     8
 71
     3
 72
    16
 73
    12
 74
     0
 42
0.000000001
 43
0.00000001
 40
0.0
 40
0.0
 40
0.0
 40
0.0
 40
0.1187721435844975
 40
0.2441491713813143
 40
0.3694941462363441
 40
0.4979334251312962
 40
0.6263722645127592
 40
0.7192884549559208
 40
0.8122141015734953
 40
0.9061025727606726
 40
1.0
 40
1.0
 40
1.0
 40
1.0
 10
158.9253849420519
 20
70.25328011610775
 30
0.0
 10
159.0420347842796
 20
70.67853795480907
 30
0.0
 10
159.2818213323887
 20
71.5527020964074
 30
0.0
 10
159.5499434093369
 20
72.89906878969589
 30
0.0
 10
159.7311576166264
 20
74.29602611927467
 30
0.0
 10
159.7937063175489
 20
75.7152366349965
 30
0.0
 10
159.7398346377699
 20
77.01414392468672
 30
0.0
 10
159.6061132782465
 20
78.17368410725503
 30
0.0
 10
159.429940844115
 20
79.19736935358068
 30
0.0
 10
159.2047836293533
 20
80.2152430826879
 30
0.0
 10
159.0185207989566
 20
80.88702716826161
 30
0.0
 10
158.9253849420519
 20
81.22293523071065
 30
0.0
  0
LINE
  5
B8
330
1F
100
AcDbEntity
  8
0
  6
Continuous
 62
     7
370
    25
100
AcDbLine
 10
158.9253849421
 20
70.2532801161
 30
0.0
 11
155.0166633736
 21
70.2532801161
 31
0.0
  0
LINE
  5
B9
330
1F
100
AcDbEntity
  8
0
  6
Continuous
 62
     7
370
    25
100
AcDbLine
 10
154.8604932585
 20
70.8809953353
 30
0.0
 11
155.0166633736
 21
70.2532801161
 31
0.0
  0
LINE
  5
BA
330
1F
100
AcDbEntity
  8
0
  6
Continuous
 62
     7
370
    25
100
AcDbLine
 10
154.7043231433
 20
70.2532801161
 30
0.0
 11
154.8604932585
 21
70.8809953353
 31
0.0
  0
LINE
  5
BB
330
1F
100
AcDbEntity
  8
0
  6
Continuous
 62
     7
370
    25
100
AcDbLine
 10
154.7043231433
 20
70.2532801161
 30
0.0
 11
150.7956015749
 21
70.2532801161
 31
0.0
  0
SPLINE
  5
BC
330
1F
100
AcDbEntity
  8
0
  6
Continuous
 62
     7
370
    25
100
AcDbSpline
210
0.0
220
0.0
230
1.0
 70
     8
 71
     3
 72
    16
 73
    12
 74
     0
 42
0.000000001
 43
0.00000001
 40
0.0
 40
0.0
 40
0.0
 40
0.0
 40
0.1187721435844975
 40
0.2441491713813143
 40
0.3694941462363441
 40
0.4979334251312962
 40
0.6263722645127592
 40
0.7192884549559208
 40
0.8122141015734953
 40
0.9061025727606726
 40
1.0
 40
1.0
 40
1.0
 40
1.0
 10
150.7956015748726
 20
70.25328011610775
 30
0.0
 10
150.6789517326449
 20
70.67853795480907
 30
0.0
 10
150.4391651845359
 20
71.5527020964074
 30
0.0
 10
150.1710431075876
 20
72.89906878969589
 30
0.0
 10
149.9898289002981
 20
74.29602611927467
 30
0.0
 10
149.9272801993756
 20
75.7152366349965
 30
0.0
 10
149.9811518791546
 20
77.01414392468672
 30
0.0
 10
150.1148732386781
 20
78.17368410725503
 30
0.0
 10
150.2910456728094
 20
79.19736935358068
 30
0.0
 10
150.5162028875712
 20
80.2152430826879
 30
0.0
 10
150.7024657179679
 20
80.88702716826161
 30
0.0
 10
150.7956015748726
 20
81.22293523071065
 30
0.0
  0
LINE
  5
BD
330
1F
100
AcDbEntity
  8
0
  6
Continuous
 62
     7
370
    25
100
AcDbLine
 10
154.8604932585
 20
80.5952200115
 30
0.0
 11
154.7043231433
 21
81.2229352307
 31
0.0
  0
SPLINE
  5
BE
330
1F
100
AcDbEntity
  8
0
  6
Continuous
 62
     7
370
    25
100
AcDbSpline
210
0.0
220
0.0
230
1.0
 70
     8
 71
     3
 72
    15
 73
    11
 74
     0
 42
0.000000001
 43
0.00000001
 40
0.0
 40
0.0
 40
0.0
 40
0.0
 40
0.1323056949471119
 40
0.2645739819647155
 40
0.3998011884071376
 40
0.5350039926534307
 40
0.6501943985256685
 40
0.7654027729264455
 40
0.8826900467077625
 40
1.0
 40
1.0
 40
1.0
 40
1.0
 10
150.7956015748726
 20
64.76845255880632
 30
0.0
 10
150.666434714439
 20
65.00541975363788
 30
0.0
 10
150.4081375140315
 20
65.47928714352352
 30
0.0
 10
150.1302200048966
 20
66.20900106950171
 30
0.0
 10
149.9631166753416
 20
66.95247028215863
 30
0.0
 10
149.9300243816485
 20
67.66900671466881
 30
0.0
 10
150.0158849928884
 20
68.34683060522534
 30
0.0
 10
150.191813446286
 20
68.9865277218531
 30
0.0
 10
150.4498802104658
 20
69.62333255606745
 30
0.0
 10
150.68035369312
 20
70.04328406326202
 30
0.0
 10
150.7956015748726
 20
70.25328011610775
 30
0.0
  0
LINE
  5
BF
330
1F
100
AcDbEntity
  8
0
  6
Continuous
 62
     7
370
    25
100
AcDbLine
 10
149.8604932585
 20
66.3881076734
 30
0.0
 11
149.8604932585
 21
85.0881076734
 31
0.0
  0
SPLINE
  5
C0
330
1F
100
AcDbEntity
  8
0
  6
Continuous
 62
     7
370
    25
100
AcDbSpline
210
0.0
220
0.0
230
1.0
 70
     8
 71
     3
 72
    15
 73
    11
 74
     0
 42
0.000000001
 43
0.00000001
 40
0.0
 40
0.0
 40
0.0
 40
0.0
 40
0.1323056949471119
 40
0.2645739819647156
 40
0.3998011884071376
 40
0.5350039926534307
 40
0.6501943985256685
 40
0.7654027729264457
 40
0.8826900467077625
 40
1.0
 40
1.0
 40
1.0
 40
1.0
 10
158.9253849420519
 20
64.76845255880632
 30
0.0
 10
159.0545518024855
 20
65.00541975363788
 30
0.0
 10
159.312849002893
 20
65.47928714352352
 30
0.0
 10
159.5907665120279
 20
66.2090010695017
 30
0.0
 10
159.7578698415828
 20
66.95247028215863
 30
0.0
 10
159.7909621352759
 20
67.66900671466881
 30
0.0
 10
159.7051015240361
 20
68.34683060522534
 30
0.0
 10
159.5291730706384
 20
68.9865277218531
 30
0.0
 10
159.2711063064587
 20
69.62333255606745
 30
0.0
 10
159.0406328238045
 20
70.04328406326202
 30
0.0
 10
158.9253849420519
 20
70.25328011610775
 30
0.0
  0
LINE
  5
C1
330
1F
100
AcDbEntity
  8
0
  6
Continuous
 62
     7
370
    25
100
AcDbLine
 10
159.8604932585
 20
66.3881076734
 30
0.0
 11
159.8604932585
 21
85.0881076734
 31
0.0
  0
LINE
  5
C2
330
1F
100
AcDbEntity
  8
0
  6
Continuous
 62
     7
370
    25
100
AcDbLine
 10
154.8604932585
 20
69.9394225065
 30
0.0
 11
154.7043231433
 21
70.2532801161
 31
0.0
  0
LINE
  5
C3
330
1F
100
AcDbEntity
  8
0
  6
Continuous
 62
     7
370
    25
100
AcDbLine
 10
154.8604932585
 20
70.8809953353
 30
0.0
 11
154.8604932585
 21
69.9394225065
 31
0.0
  0
LINE
  5
C4
330
1F
100
AcDbEntity
  8
0
  6
Continuous
 62
     7
370
    25
100
AcDbLine
 10
155.0166633736
 20
70.2532801161
 30
0.0
 11
154.8604932585
 21
69.9394225065
 31
0.0
  0
LINE
  5
C5
330
1F
100
AcDbEntity
  8
0
  6
Continuous
 62
     7
370
    25
100
AcDbLine
 10
158.9253849421
 20
64.7684525588
 30
0.0
 11
155.0166633736
 21
64.7684525588
 31
0.0
  0
LINE
  5
C6
330
1F
100
AcDbEntity
  8
0
  6
Continuous
 62
     7
370
    25
100
AcDbLine
 10
154.8604932585
 20
65.0823101684
 30
0.0
 11
155.0166633736
 21
64.7684525588
 31
0.0
  0
LINE
  5
C7
330
1F
100
AcDbEntity
  8
0
  6
Continuous
 62
     7
370
    25
100
AcDbLine
 10
154.7043231433
 20
64.7684525588
 30
0.0
 11
154.8604932585
 21
65.0823101684
 31
0.0
  0
LINE
  5
C8
330
1F
100
AcDbEntity
  8
0
  6
Continuous
 62
     7
370
    25
100
AcDbLine
 10
154.7043231433
 20
64.7684525588
 30
0.0
 11
150.7956015749
 21
64.7684525588
 31
0.0
  0
LINE
  5
C9
330
1F
100
AcDbEntity
  8
0
  6
Continuous
 62
     7
370
    25
100
AcDbLine
 10
147.8604932585
 20
75.7381076734
 30
0.0
 11
147.8604932585
 21
84.7881076734
 31
0.0
  0
LINE
  5
CA
330
1F
100
AcDbEntity
  8
0
  6
Continuous
 62
     7
370
    25
100
AcDbLine
 10
147.8604932585
 20
66.6881076734
 30
0.0
 11
147.8604932585
 21
75.7381076734
 31
0.0
  0
LINE
  5
CB
330
1F
100
AcDbEntity
  8
0
  6
Continuous
 62
     7
370
    25
100
AcDbLine
 10
161.8604932585
 20
84.7881076734
 30
0.0
 11
161.8604932585
 21
66.6881076734
 31
0.0
  0
LINE
  5
CC
330
1F
100
AcDbEntity
  8
0
  6
Continuous
 62
     7
370
    25
100
AcDbLine
 10
154.8604932585
 20
86.407762788
 30
0.0
 11
154.8604932585
 21
86.3939051784
 31
0.0
  0
LINE
  5
CD
330
1F
100
AcDbEntity
  8
0
  6
Continuous
 62
     7
370
    25
100
AcDbLine
 10
154.8604932585
 20
65.0823101684
 30
0.0
 11
154.8604932585
 21
65.0684525588
 31
0.0
  0
LINE
  5
CE
330
1F
100
AcDbEntity
  8
0
  6
Continuous
 62
     7
370
    25
100
AcDbLine
 10
141.0844024947
 20
70.8306303853
 30
0.0
 11
143.0522542641
 21
70.8306303853
 31
0.0
  0
LINE
  5
CF
330
1F
100
AcDbEntity
  8
0
  6
Continuous
 62
     7
370
    25
100
AcDbLine
 10
141.0844024947
 20
70.8306303853
 30
0.0
 11
141.0844024947
 21
80.6455849615
 31
0.0
  0
LINE
  5
D0
330
1F
100
AcDbEntity
  8
0
  6
Continuous
 62
     7
370
    25
100
AcDbLine
 10
141.0844024947
 20
80.6455849615
 30
0.0
 11
143.0522542641
 21
80.6455849615
 31
0.0
  0
SPLINE
  5
D1
330
1F
100
AcDbEntity
  8
0
  6
Continuous
 62
     7
370
    25
100
AcDbSpline
210
0.0
220
0.0
230
1.0
 70
     8
 71
     3
 72
     8
 73
     4
 74
     0
 42
0.000000001
 43
0.00000001
 40
0.0
 40
0.0
 40
0.0
 40
0.0
 40
1.0
 40
1.0
 40
1.0
 40
1.0
 10
143.1326390218092
 20
80.01412925749882
 30
0.0
 10
143.1072649912248
 20
80.22484832568313
 30
0.0
 10
143.0804236345078
 20
80.43532591821199
 30
0.0
 10
143.0522542640798
 20
80.64558496152115
 30
0.0
  0
SPLINE
  5
D2
330
1F
100
AcDbEntity
  8
0
  6
Continuous
 62
     7
370
    25
100
AcDbSpline
210
0.0
220
0.0
230
1.0
 70
     8
 71
     3
 72
     8
 73
     4
 74
     0
 42
0.000000001
 43
0.00000001
 40
0.0
 40
0.0
 40
0.0
 40
0.0
 40
1.0
 40
1.0
 40
1.0
 40
1.0
 10
143.2130237795385
 20
80.64558496152115
 30
0.0
 10
143.1848406276463
 20
80.43522305196322
 30
0.0
 10
143.1580002318482
 20
80.224741857247
 30
0.0
 10
143.1326390218092
 20
80.01412925749882
 30
0.0
  0
LINE
  5
D3
330
1F
100
AcDbEntity
  8
0
  6
Continuous
 62
     7
370
    25
100
AcDbLine
 10
143.2130237795
 20
80.6455849615
 30
0.0
 11
145.1808755489
 21
80.6455849615
 31
0.0
  0
SPLINE
  5
D4
330
1F
100
AcDbEntity
  8
0
  6
Continuous
 62
     7
370
    25
100
AcDbSpline
210
0.0
220
0.0
230
1.0
 70
     8
 71
     3
 72
    16
 73
    12
 74
     0
 42
0.000000001
 43
0.00000001
 40
0.0
 40
0.0
 40
0.0
 40
0.0
 40
0.25
 40
0.25
 40
0.5
 40
0.5
 40
0.625
 40
0.625
 40
0.75
 40
0.75
 40
1.0
 40
1.0
 40
1.0
 40
1.0
 10
145.180875548883
 20
70.83063038529747
 30
0.0
 10
145.4115858156766
 20
71.62983419312583
 30
0.0
 10
145.6047323504912
 20
72.44726339596106
 30
0.0
 10
145.8688117140502
 20
74.08530325829045
 30
0.0
 10
145.9401657693252
 20
74.90953313950295
 30
0.0
 10
145.9400143432935
 20
76.1550797369276
 30
0.0
 10
145.922257912048
 20
76.57234437762864
 30
0.0
 10
145.8520029822114
 20
77.40751210708412
 30
0.0
 10
145.8000104591142
 20
77.8206604729842
 30
0.0
 10
145.6005543440638
 20
79.04867074272855
 30
0.0
 10
145.4099127397543
 20
79.85217685869736
 30
0.0
 10
145.180875548883
 20
80.64558496152115
 30
0.0
  0
LINE
  5
D5
330
1F
100
AcDbEntity
  8
0
  6
Continuous
 62
     7
370
    25
100
AcDbLine
 10
143.2130237795
 20
70.8306303853
 30
0.0
 11
145.1808755489
 21
70.8306303853
 31
0.0
  0
SPLINE
  5
D6
330
1F
100
AcDbEntity
  8
0
  6
Continuous
 62
     7
370
    25
100
AcDbSpline
210
0.0
220
0.0
230
1.0
 70
     8
 71
     3
 72
     8
 73
     4
 74
     0
 42
0.000000001
 43
0.00000001
 40
0.0
 40
0.0
 40
0.0
 40
0.0
 40
1.0
 40
1.0
 40
1.0
 40
1.0
 10
143.1326390218092
 20
71.46208608931981
 30
0.0
 10
143.1580130523934
 20
71.25136702113551
 30
0.0
 10
143.1848544091104
 20
71.04088942860665
 30
0.0
 10
143.2130237795385
 20
70.83063038529748
 30
0.0
  0
SPLINE
  5
D7
330
1F
100
AcDbEntity
  8
0
  6
Continuous
 62
     7
370
    25
100
AcDbSpline
210
0.0
220
0.0
230
1.0
 70
     8
 71
     3
 72
     8
 73
     4
 74
     0
 42
0.000000001
 43
0.00000001
 40
0.0
 40
0.0
 40
0.0
 40
0.0
 40
1.0
 40
1.0
 40
1.0
 40
1.0
 10
143.0522542640798
 20
70.83063038529748
 30
0.0
 10
143.0804374159719
 20
71.0409922948554
 30
0.0
 10
143.1072778117701
 20
71.25147348957162
 30
0.0
 10
143.1326390218092
 20
71.46208608931981
 30
0.0
  0
LINE
  5
D8
330
1F
100
AcDbEntity
  8
0
  6
Continuous
 62
     7
370
    25
100
AcDbLine
 10
141.0844024947
 20
65.9231530972
 30
0.0
 11
143.0522542641
 21
65.9231530972
 31
0.0
  0
LINE
  5
D9
330
1F
100
AcDbEntity
  8
0
  6
Continuous
 62
     7
370
    25
100
AcDbLine
 10
141.0844024947
 20
65.9231530972
 30
0.0
 11
141.0844024947
 21
70.8306303853
 31
0.0
  0
SPLINE
  5
DA
330
1F
100
AcDbEntity
  8
0
  6
Continuous
 62
     7
370
    25
100
AcDbSpline
210
0.0
220
0.0
230
1.0
 70
     8
 71
     3
 72
     8
 73
     4
 74
     0
 42
0.000000001
 43
0.00000001
 40
0.0
 40
0.0
 40
0.0
 40
0.0
 40
1.0
 40
1.0
 40
1.0
 40
1.0
 10
143.1326390218092
 20
70.5149025332863
 30
0.0
 10
143.10726438865
 20
70.62026456942499
 30
0.0
 10
143.0804229874432
 20
70.72550327852097
 30
0.0
 10
143.0522542640798
 20
70.83063038529748
 30
0.0
  0
SPLINE
  5
DB
330
1F
100
AcDbEntity
  8
0
  6
Continuous
 62
     7
370
    25
100
AcDbSpline
210
0.0
220
0.0
230
1.0
 70
     8
 71
     3
 72
     8
 73
     4
 74
     0
 42
0.000000001
 43
0.00000001
 40
0.0
 40
0.0
 40
0.0
 40
0.0
 40
1.0
 40
1.0
 40
1.0
 40
1.0
 10
143.2130237795385
 20
70.83063038529748
 30
0.0
 10
143.1848424737153
 20
70.72545632014177
 30
0.0
 10
143.1580019477206
 20
70.62021595790611
 30
0.0
 10
143.1326390218092
 20
70.5149025332863
 30
0.0
  0
SPLINE
  5
DC
330
1F
100
AcDbEntity
  8
0
  6
Continuous
 62
     7
370
    25
100
AcDbSpline
210
0.0
220
0.0
230
1.0
 70
     8
 71
     3
 72
    16
 73
    12
 74
     0
 42
0.000000001
 43
0.00000001
 40
0.0
 40
0.0
 40
0.0
 40
0.0
 40
0.2499999999999998
 40
0.2499999999999998
 40
0.4999999999999997
 40
0.4999999999999997
 40
0.6249999999999998
 40
0.6249999999999998
 40
0.7499999999999999
 40
0.7499999999999999
 40
1.0
 40
1.0
 40
1.0
 40
1.0
 10
145.1808755488834
 20
70.83063038529751
 30
0.0
 10
145.412190302566
 20
70.42998147937891
 30
0.0
 10
145.6028355958965
 20
70.02641148969406
 30
0.0
 10
145.8669412523038
 20
69.21085470335295
 30
0.0
 10
145.9395304436178
 20
68.79880533478963
 30
0.0
 10
145.9403276897087
 20
68.17296796674002
 30
0.0
 10
145.9225824330853
 20
67.9633739832769
 30
0.0
 10
145.8533853495555
 20
67.54877496590066
 30
0.0
 10
145.8020037434932
 20
67.34286545387847
 30
0.0
 10
145.6035957447566
 20
66.72880285582531
 30
0.0
 10
145.4124786430526
 20
66.32430142347712
 30
0.0
 10
145.1808755488832
 20
65.92315309718556
 30
0.0
  0
LINE
  5
DD
330
1F
100
AcDbEntity
  8
0
  6
Continuous
 62
     7
370
    25
100
AcDbLine
 10
143.2130237795
 20
65.9231530972
 30
0.0
 11
145.1808755489
 21
65.9231530972
 31
0.0
  0
SPLINE
  5
DE
330
1F
100
AcDbEntity
  8
0
  6
Continuous
 62
     7
370
    25
100
AcDbSpline
210
0.0
220
0.0
230
1.0
 70
     8
 71
     3
 72
     8
 73
     4
 74
     0
 42
0.000000001
 43
0.00000001
 40
0.0
 40
0.0
 40
0.0
 40
0.0
 40
1.0
 40
1.0
 40
1.0
 40
1.0
 10
143.1326390218092
 20
66.23888094919675
 30
0.0
 10
143.1580136549683
 20
66.13351891305807
 30
0.0
 10
143.1848550561751
 20
66.02828020396207
 30
0.0
 10
143.2130237795385
 20
65.92315309718558
 30
0.0
  0
SPLINE
  5
DF
330
1F
100
AcDbEntity
  8
0
  6
Continuous
 62
     7
370
    25
100
AcDbSpline
210
0.0
220
0.0
230
1.0
 70
     8
 71
     3
 72
     8
 73
     4
 74
     0
 42
0.000000001
 43
0.00000001
 40
0.0
 40
0.0
 40
0.0
 40
0.0
 40
1.0
 40
1.0
 40
1.0
 40
1.0
 10
143.0522542640798
 20
65.92315309718558
 30
0.0
 10
143.080435569903
 20
66.02832716234127
 30
0.0
 10
143.1072760958977
 20
66.13356752457695
 30
0.0
 10
143.1326390218092
 20
66.23888094919675
 30
0.0
  0
LINE
  5
E0
330
1F
100
AcDbEntity
  8
0
  6
Continuous
 62
     7
370
    25
100
AcDbLine
 10
143.1326390218
 20
70.5149025333
 30
0.0
 11
143.1326390218
 21
71.4620860893
 31
0.0
  0
SPLINE
  5
E1
330
1F
100
AcDbEntity
  8
0
  6
Continuous
 62
     7
370
    25
100
AcDbSpline
210
0.0
220
0.0
230
1.0
 70
     8
 71
     3
 72
     8
 73
     4
 74
     0
 42
0.000000001
 43
0.00000001
 40
0.0
 40
0.0
 40
0.0
 40
0.0
 40
1.0
 40
1.0
 40
1.0
 40
1.0
 10
143.0522542640798
 20
80.64558496152115
 30
0.0
 10
143.080435569903
 20
80.75075902667685
 30
0.0
 10
143.1072760958977
 20
80.85599938891251
 30
0.0
 10
143.1326390218092
 20
80.96131281353232
 30
0.0
  0
LINE
  5
E2
330
1F
100
AcDbEntity
  8
0
  6
Continuous
 62
     7
370
    25
100
AcDbLine
 10
143.1326390218
 20
80.0141292575
 30
0.0
 11
143.1326390218
 21
80.9613128135
 31
0.0
  0
SPLINE
  5
E3
330
1F
100
AcDbEntity
  8
0
  6
Continuous
 62
     7
370
    25
100
AcDbSpline
210
0.0
220
0.0
230
1.0
 70
     8
 71
     3
 72
     8
 73
     4
 74
     0
 42
0.000000001
 43
0.00000001
 40
0.0
 40
0.0
 40
0.0
 40
0.0
 40
1.0
 40
1.0
 40
1.0
 40
1.0
 10
143.1326390218092
 20
80.96131281353232
 30
0.0
 10
143.1580136549683
 20
80.85595077739363
 30
0.0
 10
143.1848550561751
 20
80.75071206829763
 30
0.0
 10
143.2130237795385
 20
80.64558496152115
 30
0.0
  0
SPLINE
  5
E4
330
1F
100
AcDbEntity
  8
0
  6
Continuous
 62
     7
370
    25
100
AcDbSpline
210
0.0
220
0.0
230
1.0
 70
     8
 71
     3
 72
    16
 73
    12
 74
     0
 42
0.000000001
 43
0.00000001
 40
0.0
 40
0.0
 40
0.0
 40
0.0
 40
0.2499999999999998
 40
0.2499999999999998
 40
0.4999999999999996
 40
0.4999999999999996
 40
0.6249999999999996
 40
0.6249999999999996
 40
0.7499999999999996
 40
0.7499999999999996
 40
1.0
 40
1.0
 40
1.0
 40
1.0
 10
145.1808755488834
 20
85.5530622496329
 30
0.0
 10
145.412190302566
 20
85.15241334371431
 30
0.0
 10
145.6028355958965
 20
84.74884335402947
 30
0.0
 10
145.8669412523038
 20
83.93328656768841
 30
0.0
 10
145.9395304436177
 20
83.5212371991251
 30
0.0
 10
145.9403276897087
 20
82.89539983107551
 30
0.0
 10
145.9225824330852
 20
82.6858058476124
 30
0.0
 10
145.8533853495555
 20
82.27120683023617
 30
0.0
 10
145.8020037434932
 20
82.06529731821401
 30
0.0
 10
145.6035957447566
 20
81.45123472016084
 30
0.0
 10
145.4124786430526
 20
81.04673328781267
 30
0.0
 10
145.1808755488832
 20
80.64558496152114
 30
0.0
  0
LINE
  5
E5
330
1F
100
AcDbEntity
  8
0
  6
Continuous
 62
     7
370
    25
100
AcDbLine
 10
146.0844024947
 20
83.9881076734
 30
0.0
 11
146.0844024947
 21
67.4881076734
 31
0.0
  0
LINE
  5
E6
330
1F
100
AcDbEntity
  8
0
  6
Continuous
 62
     7
370
    25
100
AcDbLine
 10
141.0844024947
 20
85.5530622496
 30
0.0
 11
143.0522542641
 21
85.5530622496
 31
0.0
  0
SPLINE
  5
E7
330
1F
100
AcDbEntity
  8
0
  6
Continuous
 62
     7
370
    25
100
AcDbSpline
210
0.0
220
0.0
230
1.0
 70
     8
 71
     3
 72
     8
 73
     4
 74
     0
 42
0.000000001
 43
0.00000001
 40
0.0
 40
0.0
 40
0.0
 40
0.0
 40
1.0
 40
1.0
 40
1.0
 40
1.0
 10
143.1326390218092
 20
85.2373343976217
 30
0.0
 10
143.10726438865
 20
85.34269643376038
 30
0.0
 10
143.0804229874432
 20
85.44793514285638
 30
0.0
 10
143.0522542640798
 20
85.55306224963287
 30
0.0
  0
SPLINE
  5
E8
330
1F
100
AcDbEntity
  8
0
  6
Continuous
 62
     7
370
    25
100
AcDbSpline
210
0.0
220
0.0
230
1.0
 70
     8
 71
     3
 72
     8
 73
     4
 74
     0
 42
0.000000001
 43
0.00000001
 40
0.0
 40
0.0
 40
0.0
 40
0.0
 40
1.0
 40
1.0
 40
1.0
 40
1.0
 10
143.2130237795385
 20
85.55306224963287
 30
0.0
 10
143.1848424737153
 20
85.44788818447718
 30
0.0
 10
143.1580019477206
 20
85.34264782224152
 30
0.0
 10
143.1326390218092
 20
85.2373343976217
 30
0.0
  0
LINE
  5
E9
330
1F
100
AcDbEntity
  8
0
  6
Continuous
 62
     7
370
    25
100
AcDbLine
 10
143.2130237795
 20
85.5530622496
 30
0.0
 11
145.1808755489
 21
85.5530622496
 31
0.0
  0
LINE
  5
EA
330
1F
100
AcDbEntity
  8
0
  6
Continuous
 62
     7
370
    25
100
AcDbLine
 10
141.0844024947
 20
80.6455849615
 30
0.0
 11
141.0844024947
 21
85.5530622496
 31
0.0
  0
LINE
  5
EB
330
1F
100
AcDbEntity
  8
0
  6
Continuous
 62
     7
370
    25
100
AcDbLine
 10
133.1731901485
 20
82.1940697876
 30
0.0
 11
133.1731901485
 21
69.2821455592
 31
0.0
  0
LINE
  5
EC
330
1F
100
AcDbEntity
  8
0
  6
Continuous
 62
     7
370
    25
100
AcDbLine
 10
131.0844024947
 20
75.7381076734
 30
0.0
 11
131.0844024947
 21
80.9881076734
 31
0.0
  0
LINE
  5
ED
330
1F
100
AcDbEntity
  8
0
  6
Continuous
 62
     7
370
    25
100
AcDbLine
 10
131.0844024947
 20
70.4881076734
 30
0.0
 11
131.0844024947
 21
75.7381076734
 31
0.0
  0
LINE
  5
EE
330
1F
100
AcDbEntity
  8
0
  6
Continuous
 62
     7
370
    25
100
AcDbLine
 10
143.1326390218
 20
66.2231530972
 30
0.0
 11
143.1326390218
 21
66.2388809492
 31
0.0
  0
LINE
  5
EF
330
1F
100
AcDbEntity
  8
0
  6
Continuous
 62
     7
370
    25
100
AcDbLine
 10
143.1326390218
 20
85.2373343976
 30
0.0
 11
143.1326390218
 21
85.2530622496
 31
0.0
  0
LINE
  5
F0
330
1F
100
AcDbEntity
  8
0
  6
Continuous
 62
     8
370
    25
100
AcDbLine
 10
148.1604932585
 20
75.7381076734
 30
0.0
 11
148.1604932585
 21
66.3881076734
 31
0.0
  0
LINE
  5
F1
330
1F
100
AcDbEntity
  8
0
  6
Continuous
 62
     8
370
    25
100
AcDbLine
 10
148.1604932585
 20
85.0881076734
 30
0.0
 11
148.1604932585
 21
75.7381076734
 31
0.0
  0
LINE
  5
F2
330
1F
100
AcDbEntity
  8
0
  6
Continuous
 62
     8
370
    25
100
AcDbLine
 10
161.5604932585
 20
66.3881076734
 30
0.0
 11
161.5604932585
 21
85.0881076734
 31
0.0
  0
LINE
  5
F3
330
1F
100
AcDbEntity
  8
0
  6
Continuous
 62
     7
370
     0
100
AcDbLine
 10
131.8300995925
 20
81.4186360935
 30
0.0
 11
140.5844024947
 21
81.6922080592
 31
0.0
  0
LINE
  5
F4
330
1F
100
AcDbEntity
  8
0
  6
Continuous
 62
     7
370
     0
100
AcDbLine
 10
131.8300995925
 20
70.0575792533
 30
0.0
 11
140.5844024947
 21
69.7840072876
 31
0.0
  0
LINE
  5
F5
330
1F
100
AcDbEntity
  8
0
  6
Continuous
 62
     7
370
     0
100
AcDbLine
 10
140.5844024947
 20
69.0505451734
 30
0.0
 11
140.5844024947
 21
82.4256701734
 31
0.0
  0
LINE
  5
F6
330
1F
100
AcDbEntity
  8
0
  6
CENTERX2
 62
     7
370
    18
100
AcDbLine
 10
190.2604932585
 20
75.7381076734
 30
0.0
 11
146.1604932585
 21
75.7381076734
 31
0.0
  0
LINE
  5
F7
330
1F
100
AcDbEntity
  8
0
  6
CENTERX2
 62
     7
370
    18
100
AcDbLine
 10
129.0844024947
 20
75.7381076734
 30
0.0
 11
143.0844024947
 21
75.7381076734
 31
0.0
  0
LINE
  5
F8
330
1F
100
AcDbEntity
  8
0
  6
CENTERX2
 62
     7
370
    18
100
AcDbLine
 10
140.1487131371
 20
75.7381076734
 30
0.0
 11
146.1165649065
 21
75.7381076734
 31
0.0
  0
CIRCLE
  5
F9
330
1F
100
AcDbEntity
  8
0
  6
Continuous
 62
     7
370
    25
100
AcDbCircle
 10
214.7092907726
 20
75.7381076734
 30
0.0
 40
3.599999999999966
  0
CIRCLE
  5
FA
330
1F
100
AcDbEntity
  8
0
  6
Continuous
 62
     7
370
    25
100
AcDbCircle
 10
214.7092907726
 20
75.7381076734
 30
0.0
 40
3.5
  0
CIRCLE
  5
FB
330
1F
100
AcDbEntity
  8
0
  6
Continuous
 62
     7
370
    25
100
AcDbCircle
 10
214.7092907726
 20
75.7381076734
 30
0.0
 40
4.557142857142821
  0
CIRCLE
  5
FC
330
1F
100
AcDbEntity
  8
0
  6
Continuous
 62
     7
370
    25
100
AcDbCircle
 10
214.7092907726
 20
75.7381076734
 30
0.0
 40
4.099999999999994
  0
CIRCLE
  5
FD
330
1F
100
AcDbEntity
  8
0
  6
Continuous
 62
     7
370
    25
100
AcDbCircle
 10
214.7092907726
 20
75.7381076734
 30
0.0
 40
5.250000000000028
  0
CIRCLE
  5
FE
330
1F
100
AcDbEntity
  8
0
  6
Continuous
 62
     7
370
    25
100
AcDbCircle
 10
214.7092907726
 20
75.7381076734
 30
0.0
 40
9.049999999999983
  0
CIRCLE
  5
FF
330
1F
100
AcDbEntity
  8
0
  6
Continuous
 62
     7
370
    25
100
AcDbCircle
 10
214.7092907726
 20
75.7381076734
 30
0.0
 40
5.599999999999994
  0
CIRCLE
  5
100
330
1F
100
AcDbEntity
  8
0
  6
Continuous
 62
     7
370
    25
100
AcDbCircle
 10
214.7092907726
 20
75.7381076734
 30
0.0
 40
9.349999999999994
  0
CIRCLE
  5
101
330
1F
100
AcDbEntity
  8
0
  6
Continuous
 62
     7
370
    25
100
AcDbCircle
 10
214.7092907726
 20
75.7381076734
 30
0.0
 40
5.5
  0
SPLINE
  5
102
330
1F
100
AcDbEntity
  8
0
  6
Continuous
 62
     7
370
    25
100
AcDbSpline
210
0.0
220
0.0
230
1.0
 70
    24
 71
     3
 72
    15
 73
    11
 74
     0
 42
0.000000001
 43
0.00000001
 40
0.0
 40
0.0
 40
0.0
 40
0.0
 40
0.1323056949471119
 40
0.2645739819647155
 40
0.3998011884071378
 40
0.5350039926534309
 40
0.6501943985256686
 40
0.7654027729264457
 40
0.8826900467077625
 40
1.0
 40
1.0
 40
1.0
 40
1.0
 10
205.2092907726394
 20
81.22293523071065
 30
0.0
 10
205.6197299938147
 20
81.4599024255422
 30
0.0
 10
206.4404923891467
 20
81.93376981542785
 30
0.0
 10
207.7043939839315
 20
82.66348374140603
 30
0.0
 10
208.9921204341165
 20
83.40695295406296
 30
0.0
 10
210.2331979406983
 20
84.12348938657314
 30
0.0
 10
211.4072233577262
 20
84.80131327712968
 30
0.0
 10
212.5152112651808
 20
85.44101039375742
 30
0.0
 10
213.6181895925455
 20
86.07781522797178
 30
0.0
 10
214.3455669397216
 20
86.49776673516637
 30
0.0
 10
214.7092907726394
 20
86.70776278801209
 30
0.0
  0
SPLINE
  5
103
330
1F
100
AcDbEntity
  8
0
  6
Continuous
 62
     7
370
    25
100
AcDbSpline
210
0.0
220
0.0
230
1.0
 70
    24
 71
     3
 72
    15
 73
    11
 74
     0
 42
0.000000001
 43
0.00000001
 40
0.0
 40
0.0
 40
0.0
 40
0.0
 40
0.1323056949471118
 40
0.2645739819647153
 40
0.3998011884071372
 40
0.5350039926534302
 40
0.6501943985256681
 40
0.7654027729264453
 40
0.8826900467077624
 40
1.0
 40
1.0
 40
1.0
 40
1.0
 10
214.7092907726394
 20
86.70776278801209
 30
0.0
 10
215.1197299938147
 20
86.47079559318054
 30
0.0
 10
215.9404923891467
 20
85.99692820329489
 30
0.0
 10
217.2043939839315
 20
85.26721427731671
 30
0.0
 10
218.4921204341165
 20
84.52374506465978
 30
0.0
 10
219.7331979406983
 20
83.80720863214961
 30
0.0
 10
220.9072233577262
 20
83.12938474159307
 30
0.0
 10
222.0152112651808
 20
82.48968762496531
 30
0.0
 10
223.1181895925455
 20
81.85288279075095
 30
0.0
 10
223.8455669397217
 20
81.43293128355639
 30
0.0
 10
224.2092907726394
 20
81.22293523071065
 30
0.0
  0
SPLINE
  5
104
330
1F
100
AcDbEntity
  8
0
  6
Continuous
 62
     7
370
    25
100
AcDbSpline
210
0.0
220
0.0
230
1.0
 70
    24
 71
     3
 72
    16
 73
    12
 74
     0
 42
0.000000001
 43
0.00000001
 40
0.0
 40
0.0
 40
0.0
 40
0.0
 40
0.0929885214947443
 40
0.1859684433169224
 40
0.2798026993360917
 40
0.3736271140500713
 40
0.4988494963801857
 40
0.624071652077102
 40
0.7526321570051048
 40
0.8812279891506409
 40
1.0
 40
1.0
 40
1.0
 40
1.0
 10
224.2092907726394
 20
81.22293523071065
 30
0.0
 10
224.2092907726394
 20
80.89028846654939
 30
0.0
 10
224.2092907726394
 20
80.22502570173626
 30
0.0
 10
224.2092907726394
 20
79.21061286672573
 30
0.0
 10
224.2092907726394
 20
78.1837336847175
 30
0.0
 10
224.2092907726394
 20
77.02937794158025
 30
0.0
 10
224.2092907726394
 20
75.75113357719405
 30
0.0
 10
224.2092907726394
 20
74.3437645024373
 30
0.0
 10
224.2092907726394
 20
72.93433448247542
 30
0.0
 10
224.2092907726394
 20
71.56423197844062
 30
0.0
 10
224.2092907726394
 20
70.6785394457906
 30
0.0
 10
224.2092907726394
 20
70.25328011610776
 30
0.0
  0
SPLINE
  5
105
330
1F
100
AcDbEntity
  8
0
  6
Continuous
 62
     7
370
    25
100
AcDbSpline
210
0.0
220
0.0
230
1.0
 70
    24
 71
     3
 72
    15
 73
    11
 74
     0
 42
0.000000001
 43
0.00000001
 40
0.0
 40
0.0
 40
0.0
 40
0.0
 40
0.132305694947112
 40
0.2645739819647159
 40
0.3998011884071379
 40
0.5350039926534309
 40
0.6501943985256686
 40
0.7654027729264458
 40
0.8826900467077626
 40
1.0
 40
1.0
 40
1.0
 40
1.0
 10
224.2092907726394
 20
70.25328011610776
 30
0.0
 10
223.7988515514641
 20
70.0163129212762
 30
0.0
 10
222.978089156132
 20
69.54244553139054
 30
0.0
 10
221.7141875613473
 20
68.81273160541237
 30
0.0
 10
220.4264611111623
 20
68.06926239275543
 30
0.0
 10
219.1853836045805
 20
67.35272596024527
 30
0.0
 10
218.0113581875526
 20
66.67490206968874
 30
0.0
 10
216.903370280098
 20
66.03520495306098
 30
0.0
 10
215.8003919527333
 20
65.39840011884662
 30
0.0
 10
215.0730146055571
 20
64.97844861165206
 30
0.0
 10
214.7092907726394
 20
64.76845255880632
 30
0.0
  0
SPLINE
  5
106
330
1F
100
AcDbEntity
  8
0
  6
Continuous
 62
     7
370
    25
100
AcDbSpline
210
0.0
220
0.0
230
1.0
 70
    24
 71
     3
 72
    15
 73
    11
 74
     0
 42
0.000000001
 43
0.00000001
 40
0.0
 40
0.0
 40
0.0
 40
0.0
 40
0.1323056949471119
 40
0.2645739819647157
 40
0.3998011884071377
 40
0.5350039926534308
 40
0.6501943985256685
 40
0.7654027729264455
 40
0.8826900467077625
 40
1.0
 40
1.0
 40
1.0
 40
1.0
 10
214.7092907726394
 20
64.76845255880632
 30
0.0
 10
214.2988515514641
 20
65.00541975363788
 30
0.0
 10
213.4780891561321
 20
65.47928714352352
 30
0.0
 10
212.2141875613473
 20
66.2090010695017
 30
0.0
 10
210.9264611111623
 20
66.95247028215864
 30
0.0
 10
209.6853836045805
 20
67.66900671466881
 30
0.0
 10
208.5113581875526
 20
68.34683060522534
 30
0.0
 10
207.403370280098
 20
68.9865277218531
 30
0.0
 10
206.3003919527333
 20
69.62333255606745
 30
0.0
 10
205.5730146055571
 20
70.04328406326202
 30
0.0
 10
205.2092907726394
 20
70.25328011610775
 30
0.0
  0
SPLINE
  5
107
330
1F
100
AcDbEntity
  8
0
  6
Continuous
 62
     7
370
    25
100
AcDbSpline
210
0.0
220
0.0
230
1.0
 70
    24
 71
     3
 72
    16
 73
    12
 74
     0
 42
0.000000001
 43
0.00000001
 40
0.0
 40
0.0
 40
0.0
 40
0.0
 40
0.1187721435844975
 40
0.2441491713813144
 40
0.3694941462363442
 40
0.4979334251312963
 40
0.6263722645127593
 40
0.7192884549559208
 40
0.8122141015734953
 40
0.9061025727606726
 40
1.0
 40
1.0
 40
1.0
 40
1.0
 10
205.2092907726394
 20
70.25328011610775
 30
0.0
 10
205.2092907726394
 20
70.67853795480907
 30
0.0
 10
205.2092907726394
 20
71.55270209640742
 30
0.0
 10
205.2092907726394
 20
72.89906878969589
 30
0.0
 10
205.2092907726394
 20
74.29602611927467
 30
0.0
 10
205.2092907726394
 20
75.7152366349965
 30
0.0
 10
205.2092907726394
 20
77.01414392468672
 30
0.0
 10
205.2092907726394
 20
78.17368410725503
 30
0.0
 10
205.2092907726394
 20
79.19736935358068
 30
0.0
 10
205.2092907726394
 20
80.2152430826879
 30
0.0
 10
205.2092907726394
 20
80.88702716826161
 30
0.0
 10
205.2092907726394
 20
81.22293523071065
 30
0.0
  0
INSERT
  5
113
330
1F
100
AcDbEntity
  8
0
  6
Continuous
 62
     7
370
    18
100
AcDbBlockReference
  2
SW_CENTERMARKSYMBOL_0
 10
214.7092907726
 20
75.7381076734
 30
0.0
  0
LINE
  5
114
330
1F
100
AcDbEntity
  8
0
  6
Continuous
 62
     7
370
    25
100
AcDbLine
 10
161.8604932585
 20
108.3266433746
 30
0.0
 11
166.3604932585
 21
108.3266433746
 31
0.0
  0
LINE
  5
115
330
1F
100
AcDbEntity
  8
0
  6
Continuous
 62
     7
370
    25
100
AcDbLine
 10
166.3604932585
 20
118.8266433746
 30
0.0
 11
161.8604932585
 21
118.8266433746
 31
0.0
  0
LINE
  5
116
330
1F
100
AcDbEntity
  8
0
  6
Continuous
 62
     7
370
    25
100
AcDbLine
 10
166.3604932585
 20
108.3266433746
 30
0.0
 11
170.3604932585
 21
109.0766433746
 31
0.0
  0
LINE
  5
117
330
1F
100
AcDbEntity
  8
0
  6
Continuous
 62
     7
370
    25
100
AcDbLine
 10
170.3604932585
 20
118.0766433746
 30
0.0
 11
166.3604932585
 21
118.8266433746
 31
0.0
  0
LINE
  5
118
330
1F
100
AcDbEntity
  8
0
  6
Continuous
 62
     7
370
    25
100
AcDbLine
 10
174.3604932585
 20
108.3266433746
 30
0.0
 11
178.3604932585
 21
109.0766433746
 31
0.0
  0
LINE
  5
119
330
1F
100
AcDbEntity
  8
0
  6
Continuous
 62
     7
370
    25
100
AcDbLine
 10
178.3604932585
 20
118.0766433746
 30
0.0
 11
174.3604932585
 21
118.8266433746
 31
0.0
  0
LINE
  5
11A
330
1F
100
AcDbEntity
  8
0
  6
Continuous
 62
     7
370
    25
100
AcDbLine
 10
170.3604932585
 20
108.3266433746
 30
0.0
 11
174.3604932585
 21
109.0766433746
 31
0.0
  0
LINE
  5
11B
330
1F
100
AcDbEntity
  8
0
  6
Continuous
 62
     7
370
    25
100
AcDbLine
 10
174.3604932585
 20
118.0766433746
 30
0.0
 11
170.3604932585
 21
118.8266433746
 31
0.0
  0
LINE
  5
11C
330
1F
100
AcDbEntity
  8
0
  6
Continuous
 62
     7
370
    25
100
AcDbLine
 10
178.3604932585
 20
108.3266433746
 30
0.0
 11
182.3604932585
 21
109.0766433746
 31
0.0
  0
LINE
  5
11D
330
1F
100
AcDbEntity
  8
0
  6
Continuous
 62
     7
370
    25
100
AcDbLine
 10
182.3604932585
 20
118.0766433746
 30
0.0
 11
178.3604932585
 21
118.8266433746
 31
0.0
  0
LINE
  5
11E
330
1F
100
AcDbEntity
  8
0
  6
Continuous
 62
     7
370
    25
100
AcDbLine
 10
182.3604932585
 20
108.3266433746
 30
0.0
 11
187.9033504013
 21
109.0195005174
 31
0.0
  0
LINE
  5
11F
330
1F
100
AcDbEntity
  8
0
  6
Continuous
 62
     7
370
    25
100
AcDbLine
 10
187.9033504013
 20
118.1337862317
 30
0.0
 11
182.3604932585
 21
118.8266433746
 31
0.0
  0
LINE
  5
120
330
1F
100
AcDbEntity
  8
0
  6
Continuous
 62
     7
370
    25
100
AcDbLine
 10
187.9033504013
 20
109.0195005174
 30
0.0
 11
188.3604932585
 21
109.4766433746
 31
0.0
  0
LINE
  5
121
330
1F
100
AcDbEntity
  8
0
  6
Continuous
 62
     7
370
    25
100
AcDbLine
 10
188.3604932585
 20
117.6766433746
 30
0.0
 11
187.9033504013
 21
118.1337862317
 31
0.0
  0
LINE
  5
122
330
1F
100
AcDbEntity
  8
0
  6
Continuous
 62
     7
370
    25
100
AcDbLine
 10
159.7738907181
 20
104.0766433746
 30
0.0
 11
159.8604932585
 21
104.2266433746
 31
0.0
  0
LINE
  5
123
330
1F
100
AcDbEntity
  8
0
  6
Continuous
 62
     7
370
    25
100
AcDbLine
 10
159.8604932585
 20
122.9266433746
 30
0.0
 11
159.7738907181
 21
123.0766433746
 31
0.0
  0
LINE
  5
124
330
1F
100
AcDbEntity
  8
0
  6
Continuous
 62
     7
370
    25
100
AcDbLine
 10
149.9470957988
 20
123.0766433746
 30
0.0
 11
149.8604932585
 21
122.9266433746
 31
0.0
  0
LINE
  5
125
330
1F
100
AcDbEntity
  8
0
  6
Continuous
 62
     7
370
    25
100
AcDbLine
 10
149.8604932585
 20
104.2266433746
 30
0.0
 11
149.9470957988
 21
104.0766433746
 31
0.0
  0
ARC
  5
126
330
1F
100
AcDbEntity
  8
0
  6
Continuous
 62
     7
370
    25
100
AcDbCircle
 10
161.5604932585
 20
122.6266433746
 30
0.0
 40
0.2999999999999829
100
AcDbArc
 50
0.0
 51
90.0
  0
ARC
  5
127
330
1F
100
AcDbEntity
  8
0
  6
Continuous
 62
     7
370
    25
100
AcDbCircle
 10
161.5604932585
 20
104.5266433746
 30
0.0
 40
0.2999999999999972
100
AcDbArc
 50
270.0
 51
0.0
  0
LINE
  5
128
330
1F
100
AcDbEntity
  8
0
  6
Continuous
 62
     7
370
    25
100
AcDbLine
 10
159.8604932585
 20
104.2266433746
 30
0.0
 11
161.5604932585
 21
104.2266433746
 31
0.0
  0
LINE
  5
129
330
1F
100
AcDbEntity
  8
0
  6
Continuous
 62
     7
370
    25
100
AcDbLine
 10
161.5604932585
 20
122.9266433746
 30
0.0
 11
159.8604932585
 21
122.9266433746
 31
0.0
  0
LINE
  5
12A
330
1F
100
AcDbEntity
  8
0
  6
Continuous
 62
     7
370
    25
100
AcDbLine
 10
149.8604932585
 20
122.9266433746
 30
0.0
 11
148.1604932585
 21
122.9266433746
 31
0.0
  0
LINE
  5
12B
330
1F
100
AcDbEntity
  8
0
  6
Continuous
 62
     7
370
    25
100
AcDbLine
 10
148.1604932585
 20
104.2266433746
 30
0.0
 11
149.8604932585
 21
104.2266433746
 31
0.0
  0
ARC
  5
12C
330
1F
100
AcDbEntity
  8
0
  6
Continuous
 62
     7
370
    25
100
AcDbCircle
 10
148.1604932585
 20
104.5266433746
 30
0.0
 40
0.2999999999999972
100
AcDbArc
 50
180.0
 51
270.0
  0
ARC
  5
12D
330
1F
100
AcDbEntity
  8
0
  6
Continuous
 62
     7
370
    25
100
AcDbCircle
 10
148.1604932585
 20
122.6266433746
 30
0.0
 40
0.2999999999999829
100
AcDbArc
 50
90.0
 51
180.0
  0
LINE
  5
12E
330
1F
100
AcDbEntity
  8
0
  6
Continuous
 62
     7
370
    25
100
AcDbLine
 10
145.9400649274
 20
105.0766433746
 30
0.0
 11
146.0844024947
 21
105.3266433746
 31
0.0
  0
LINE
  5
12F
330
1F
100
AcDbEntity
  8
0
  6
Continuous
 62
     7
370
    25
100
AcDbLine
 10
146.0844024947
 20
121.8266433746
 30
0.0
 11
145.9400649274
 21
122.0766433746
 31
0.0
  0
LINE
  5
130
330
1F
100
AcDbEntity
  8
0
  6
Continuous
 62
     7
370
    25
100
AcDbLine
 10
146.0844024947
 20
106.5766433746
 30
0.0
 11
147.8604932585
 21
106.5766433746
 31
0.0
  0
LINE
  5
131
330
1F
100
AcDbEntity
  8
0
  6
Continuous
 62
     7
370
    25
100
AcDbLine
 10
147.8604932585
 20
120.5766433746
 30
0.0
 11
146.0844024947
 21
120.5766433746
 31
0.0
  0
LINE
  5
132
330
1F
100
AcDbEntity
  8
0
  6
Continuous
 62
     7
370
    25
100
AcDbLine
 10
141.0844024947
 20
120.2798308746
 30
0.0
 11
133.1731901485
 21
120.0326054888
 31
0.0
  0
LINE
  5
133
330
1F
100
AcDbEntity
  8
0
  6
Continuous
 62
     7
370
    25
100
AcDbLine
 10
133.1731901485
 20
107.1206812604
 30
0.0
 11
141.0844024947
 21
106.8734558746
 31
0.0
  0
LINE
  5
134
330
1F
100
AcDbEntity
  8
0
  6
Continuous
 62
     7
370
    25
100
AcDbLine
 10
133.1731901485
 20
120.0326054888
 30
0.0
 11
131.0844024947
 21
118.8266433746
 31
0.0
  0
LINE
  5
135
330
1F
100
AcDbEntity
  8
0
  6
Continuous
 62
     7
370
    25
100
AcDbLine
 10
131.0844024947
 20
108.3266433746
 30
0.0
 11
133.1731901485
 21
107.1206812604
 31
0.0
  0
LINE
  5
136
330
1F
100
AcDbEntity
  8
0
  6
Continuous
 62
     7
370
    25
100
AcDbLine
 10
166.3604932585
 20
108.3266433746
 30
0.0
 11
166.3604932585
 21
118.8266433746
 31
0.0
  0
LINE
  5
137
330
1F
100
AcDbEntity
  8
0
  6
Continuous
 62
     7
370
    25
100
AcDbLine
 10
174.3604932585
 20
108.3266433746
 30
0.0
 11
174.3604932585
 21
118.8266433746
 31
0.0
  0
LINE
  5
138
330
1F
100
AcDbEntity
  8
0
  6
Continuous
 62
     7
370
    25
100
AcDbLine
 10
170.3604932585
 20
108.3266433746
 30
0.0
 11
170.3604932585
 21
118.8266433746
 31
0.0
  0
LINE
  5
139
330
1F
100
AcDbEntity
  8
0
  6
Continuous
 62
     7
370
    25
100
AcDbLine
 10
178.3604932585
 20
108.3266433746
 30
0.0
 11
178.3604932585
 21
118.8266433746
 31
0.0
  0
LINE
  5
13A
330
1F
100
AcDbEntity
  8
0
  6
Continuous
 62
     7
370
    25
100
AcDbLine
 10
187.9033504013
 20
109.0195005174
 30
0.0
 11
187.9033504013
 21
118.1337862317
 31
0.0
  0
LINE
  5
13B
330
1F
100
AcDbEntity
  8
0
  6
Continuous
 62
     7
370
    25
100
AcDbLine
 10
182.3604932585
 20
108.3266433746
 30
0.0
 11
182.3604932585
 21
118.8266433746
 31
0.0
  0
LINE
  5
13C
330
1F
100
AcDbEntity
  8
0
  6
Continuous
 62
     7
370
    25
100
AcDbLine
 10
188.3604932585
 20
117.6766433746
 30
0.0
 11
188.3604932585
 21
109.4766433746
 31
0.0
  0
LINE
  5
13D
330
1F
100
AcDbEntity
  8
0
  6
Continuous
 62
     7
370
    25
100
AcDbLine
 10
158.9253849421
 20
123.0766433746
 30
0.0
 11
155.0166633736
 21
123.0766433746
 31
0.0
  0
SPLINE
  5
13E
330
1F
100
AcDbEntity
  8
0
  6
Continuous
 62
     7
370
    25
100
AcDbSpline
210
0.0
220
0.0
230
1.0
 70
     8
 71
     3
 72
    15
 73
    11
 74
     0
 42
0.000000001
 43
0.00000001
 40
0.0
 40
0.0
 40
0.0
 40
0.0
 40
0.1323056949471119
 40
0.2645739819647153
 40
0.3998011884071374
 40
0.5350039926534303
 40
0.6501943985256683
 40
0.7654027729264453
 40
0.8826900467077623
 40
1.0
 40
1.0
 40
1.0
 40
1.0
 10
158.9253849420519
 20
113.576643374572
 30
0.0
 10
159.0545518024855
 20
113.9870825957473
 30
0.0
 10
159.312849002893
 20
114.8078449910793
 30
0.0
 10
159.5907665120279
 20
116.0717465858641
 30
0.0
 10
159.7578698415828
 20
117.3594730360491
 30
0.0
 10
159.7909621352759
 20
118.6005505426309
 30
0.0
 10
159.7051015240361
 20
119.7745759596588
 30
0.0
 10
159.5291730706384
 20
120.8825638671134
 30
0.0
 10
159.2711063064587
 20
121.9855421944781
 30
0.0
 10
159.0406328238045
 20
122.7129195416543
 30
0.0
 10
158.9253849420519
 20
123.076643374572
 30
0.0
  0
LINE
  5
13F
330
1F
100
AcDbEntity
  8
0
  6
Continuous
 62
     7
370
    25
100
AcDbLine
 10
158.9253849421
 20
113.5766433746
 30
0.0
 11
155.0166633736
 21
113.5766433746
 31
0.0
  0
LINE
  5
140
330
1F
100
AcDbEntity
  8
0
  6
Continuous
 62
     7
370
    25
100
AcDbLine
 10
154.8604932585
 20
114.1202607008
 30
0.0
 11
155.0166633736
 21
113.5766433746
 31
0.0
  0
LINE
  5
141
330
1F
100
AcDbEntity
  8
0
  6
Continuous
 62
     7
370
    25
100
AcDbLine
 10
154.7043231433
 20
113.5766433746
 30
0.0
 11
154.8604932585
 21
114.1202607008
 31
0.0
  0
LINE
  5
142
330
1F
100
AcDbEntity
  8
0
  6
Continuous
 62
     7
370
    25
100
AcDbLine
 10
154.7043231433
 20
113.5766433746
 30
0.0
 11
150.7956015749
 21
113.5766433746
 31
0.0
  0
SPLINE
  5
143
330
1F
100
AcDbEntity
  8
0
  6
Continuous
 62
     7
370
    25
100
AcDbSpline
210
0.0
220
0.0
230
1.0
 70
     8
 71
     3
 72
    15
 73
    11
 74
     0
 42
0.000000001
 43
0.00000001
 40
0.0
 40
0.0
 40
0.0
 40
0.0
 40
0.1323056949471118
 40
0.2645739819647153
 40
0.3998011884071374
 40
0.5350039926534303
 40
0.6501943985256683
 40
0.7654027729264453
 40
0.8826900467077624
 40
1.0
 40
1.0
 40
1.0
 40
1.0
 10
150.7956015748726
 20
113.576643374572
 30
0.0
 10
150.666434714439
 20
113.9870825957473
 30
0.0
 10
150.4081375140315
 20
114.8078449910793
 30
0.0
 10
150.1302200048966
 20
116.0717465858641
 30
0.0
 10
149.9631166753416
 20
117.3594730360491
 30
0.0
 10
149.9300243816485
 20
118.6005505426309
 30
0.0
 10
150.0158849928884
 20
119.7745759596588
 30
0.0
 10
150.191813446286
 20
120.8825638671134
 30
0.0
 10
150.4498802104657
 20
121.9855421944781
 30
0.0
 10
150.6803536931199
 20
122.7129195416543
 30
0.0
 10
150.7956015748726
 20
123.076643374572
 30
0.0
  0
LINE
  5
144
330
1F
100
AcDbEntity
  8
0
  6
Continuous
 62
     7
370
    25
100
AcDbLine
 10
154.7043231433
 20
123.0766433746
 30
0.0
 11
150.7956015749
 21
123.0766433746
 31
0.0
  0
LINE
  5
145
330
1F
100
AcDbEntity
  8
0
  6
Continuous
 62
     7
370
    25
100
AcDbLine
 10
154.8604932585
 20
122.5330260484
 30
0.0
 11
154.7043231433
 21
123.0766433746
 31
0.0
  0
LINE
  5
146
330
1F
100
AcDbEntity
  8
0
  6
Continuous
 62
     7
370
    25
100
AcDbLine
 10
155.0166633736
 20
123.0766433746
 30
0.0
 11
154.8604932585
 21
122.5330260484
 31
0.0
  0
SPLINE
  5
147
330
1F
100
AcDbEntity
  8
0
  6
Continuous
 62
     7
370
    25
100
AcDbSpline
210
0.0
220
0.0
230
1.0
 70
     8
 71
     3
 72
    15
 73
    11
 74
     0
 42
0.000000001
 43
0.00000001
 40
0.0
 40
0.0
 40
0.0
 40
0.0
 40
0.1323056949471119
 40
0.2645739819647155
 40
0.3998011884071378
 40
0.5350039926534309
 40
0.6501943985256685
 40
0.7654027729264457
 40
0.8826900467077625
 40
1.0
 40
1.0
 40
1.0
 40
1.0
 10
158.9253849420519
 20
104.076643374572
 30
0.0
 10
159.0545518024855
 20
104.4870825957473
 30
0.0
 10
159.3128490028929
 20
105.3078449910793
 30
0.0
 10
159.5907665120279
 20
106.5717465858641
 30
0.0
 10
159.7578698415828
 20
107.8594730360491
 30
0.0
 10
159.7909621352759
 20
109.1005505426309
 30
0.0
 10
159.7051015240361
 20
110.2745759596588
 30
0.0
 10
159.5291730706384
 20
111.3825638671134
 30
0.0
 10
159.2711063064587
 20
112.4855421944781
 30
0.0
 10
159.0406328238045
 20
113.2129195416543
 30
0.0
 10
158.9253849420519
 20
113.576643374572
 30
0.0
  0
SPLINE
  5
148
330
1F
100
AcDbEntity
  8
0
  6
Continuous
 62
     7
370
    25
100
AcDbSpline
210
0.0
220
0.0
230
1.0
 70
    24
 71
     3
 72
    13
 73
     9
 74
     0
 42
0.000000001
 43
0.00000001
 40
0.0
 40
0.0
 40
0.0
 40
0.0
 40
0.1858086097467444
 40
0.3719380760102298
 40
0.5593157470419378
 40
0.7472574582472227
 40
0.996824961878589
 40
0.9999999999999999
 40
0.9999999999999999
 40
0.9999999999999999
 40
0.9999999999999999
 10
158.9253849420519
 20
123.076643374572
 30
0.0
 10
159.0176090836314
 20
123.076643374572
 30
0.0
 10
159.2022166205347
 20
123.076643374572
 30
0.0
 10
159.42666793084
 20
123.076643374572
 30
0.0
 10
159.6065071084305
 20
123.076643374572
 30
0.0
 10
159.7312516096983
 20
123.076643374572
 30
0.0
 10
159.792929338785
 20
123.0766433745721
 30
0.0
 10
159.773398934729
 20
123.076643374572
 30
0.0
 10
159.7731535871236
 20
123.076643374572
 30
0.0
  0
SPLINE
  5
149
330
1F
100
AcDbEntity
  8
0
  6
Continuous
 62
     7
370
    25
100
AcDbSpline
210
0.0
220
0.0
230
1.0
 70
    24
 71
     3
 72
    12
 73
     8
 74
     0
 42
0.000000001
 43
0.00000001
 40
0.0
 40
0.0
 40
0.0
 40
0.0
 40
0.2528017986124954
 40
0.4383359729520364
 40
0.6244573981936773
 40
0.8120451517619093
 40
1.0
 40
1.0
 40
1.0
 40
1.0
 10
159.7727056272619
 20
104.076643374572
 30
0.0
 10
159.7617715948886
 20
104.076643374572
 30
0.0
 10
159.7428129492424
 20
104.076643374572
 30
0.0
 10
159.6054249715861
 20
104.076643374572
 30
0.0
 10
159.4303164802148
 20
104.076643374572
 30
0.0
 10
159.2048085266601
 20
104.076643374572
 30
0.0
 10
159.0185868144562
 20
104.076643374572
 30
0.0
 10
158.9253849420519
 20
104.076643374572
 30
0.0
  0
LINE
  5
14A
330
1F
100
AcDbEntity
  8
0
  6
Continuous
 62
     7
370
    25
100
AcDbLine
 10
159.8604932585
 20
104.2266433746
 30
0.0
 11
159.8604932585
 21
122.9266433746
 31
0.0
  0
SPLINE
  5
14B
330
1F
100
AcDbEntity
  8
0
  6
Continuous
 62
     7
370
    25
100
AcDbSpline
210
0.0
220
0.0
230
1.0
 70
     8
 71
     3
 72
    15
 73
    11
 74
     0
 42
0.000000001
 43
0.00000001
 40
0.0
 40
0.0
 40
0.0
 40
0.0
 40
0.1323056949471118
 40
0.2645739819647155
 40
0.3998011884071377
 40
0.5350039926534309
 40
0.6501943985256686
 40
0.7654027729264457
 40
0.8826900467077626
 40
1.0
 40
1.0
 40
1.0
 40
1.0
 10
150.7956015748726
 20
104.076643374572
 30
0.0
 10
150.6664347144389
 20
104.4870825957473
 30
0.0
 10
150.4081375140315
 20
105.3078449910793
 30
0.0
 10
150.1302200048966
 20
106.5717465858641
 30
0.0
 10
149.9631166753416
 20
107.8594730360491
 30
0.0
 10
149.9300243816485
 20
109.1005505426309
 30
0.0
 10
150.0158849928884
 20
110.2745759596588
 30
0.0
 10
150.191813446286
 20
111.3825638671134
 30
0.0
 10
150.4498802104657
 20
112.4855421944781
 30
0.0
 10
150.68035369312
 20
113.2129195416543
 30
0.0
 10
150.7956015748726
 20
113.576643374572
 30
0.0
  0
SPLINE
  5
14C
330
1F
100
AcDbEntity
  8
0
  6
Continuous
 62
     7
370
    25
100
AcDbSpline
210
0.0
220
0.0
230
1.0
 70
    24
 71
     3
 72
    12
 73
     8
 74
     0
 42
0.000000001
 43
0.00000001
 40
0.0
 40
0.0
 40
0.0
 40
0.0
 40
0.2528017986124935
 40
0.438335972952035
 40
0.6244573981936764
 40
0.812045151761909
 40
1.0
 40
1.0
 40
1.0
 40
1.0
 10
149.9482808896626
 20
104.076643374572
 30
0.0
 10
149.9592149220358
 20
104.076643374572
 30
0.0
 10
149.978173567682
 20
104.076643374572
 30
0.0
 10
150.1155615453384
 20
104.076643374572
 30
0.0
 10
150.2906700367097
 20
104.076643374572
 30
0.0
 10
150.5161779902643
 20
104.076643374572
 30
0.0
 10
150.7023997024683
 20
104.076643374572
 30
0.0
 10
150.7956015748726
 20
104.076643374572
 30
0.0
  0
SPLINE
  5
14D
330
1F
100
AcDbEntity
  8
0
  6
Continuous
 62
     7
370
    25
100
AcDbSpline
210
0.0
220
0.0
230
1.0
 70
    24
 71
     3
 72
    13
 73
     9
 74
     0
 42
0.000000001
 43
0.00000001
 40
0.0
 40
0.0
 40
0.0
 40
0.0
 40
0.1858086097467452
 40
0.371938076010231
 40
0.5593157470419395
 40
0.7472574582472249
 40
0.9968249618785918
 40
1.0
 40
1.0
 40
1.0
 40
1.0
 10
150.7956015748726
 20
123.076643374572
 30
0.0
 10
150.7033774332931
 20
123.076643374572
 30
0.0
 10
150.5187698963898
 20
123.076643374572
 30
0.0
 10
150.2943185860844
 20
123.076643374572
 30
0.0
 10
150.114479408494
 20
123.076643374572
 30
0.0
 10
149.9897349072261
 20
123.076643374572
 30
0.0
 10
149.9280571781395
 20
123.0766433745721
 30
0.0
 10
149.9475875821954
 20
123.076643374572
 30
0.0
 10
149.9478329298009
 20
123.076643374572
 30
0.0
  0
LINE
  5
14E
330
1F
100
AcDbEntity
  8
0
  6
Continuous
 62
     7
370
    25
100
AcDbLine
 10
149.8604932585
 20
104.2266433746
 30
0.0
 11
149.8604932585
 21
122.9266433746
 31
0.0
  0
LINE
  5
14F
330
1F
100
AcDbEntity
  8
0
  6
Continuous
 62
     7
370
    25
100
AcDbLine
 10
155.0166633736
 20
113.5766433746
 30
0.0
 11
154.8604932585
 21
113.0330260484
 31
0.0
  0
LINE
  5
150
330
1F
100
AcDbEntity
  8
0
  6
Continuous
 62
     7
370
    25
100
AcDbLine
 10
154.8604932585
 20
114.1202607008
 30
0.0
 11
154.8604932585
 21
113.0330260484
 31
0.0
  0
LINE
  5
151
330
1F
100
AcDbEntity
  8
0
  6
Continuous
 62
     7
370
    25
100
AcDbLine
 10
158.9253849421
 20
104.0766433746
 30
0.0
 11
155.0166633736
 21
104.0766433746
 31
0.0
  0
LINE
  5
152
330
1F
100
AcDbEntity
  8
0
  6
Continuous
 62
     7
370
    25
100
AcDbLine
 10
154.8604932585
 20
104.6202607008
 30
0.0
 11
155.0166633736
 21
104.0766433746
 31
0.0
  0
LINE
  5
153
330
1F
100
AcDbEntity
  8
0
  6
Continuous
 62
     7
370
    25
100
AcDbLine
 10
154.7043231433
 20
104.0766433746
 30
0.0
 11
154.8604932585
 21
104.6202607008
 31
0.0
  0
LINE
  5
154
330
1F
100
AcDbEntity
  8
0
  6
Continuous
 62
     7
370
    25
100
AcDbLine
 10
154.7043231433
 20
104.0766433746
 30
0.0
 11
150.7956015749
 21
104.0766433746
 31
0.0
  0
LINE
  5
155
330
1F
100
AcDbEntity
  8
0
  6
Continuous
 62
     7
370
    25
100
AcDbLine
 10
154.8604932585
 20
113.0330260484
 30
0.0
 11
154.7043231433
 21
113.5766433746
 31
0.0
  0
LINE
  5
156
330
1F
100
AcDbEntity
  8
0
  6
Continuous
 62
     7
370
    25
100
AcDbLine
 10
161.8604932585
 20
122.6266433746
 30
0.0
 11
161.8604932585
 21
104.5266433746
 31
0.0
  0
LINE
  5
157
330
1F
100
AcDbEntity
  8
0
  6
Continuous
 62
     7
370
    25
100
AcDbLine
 10
147.8604932585
 20
104.5266433746
 30
0.0
 11
147.8604932585
 21
122.6266433746
 31
0.0
  0
LINE
  5
158
330
1F
100
AcDbEntity
  8
0
  6
Continuous
 62
     7
370
    25
100
AcDbLine
 10
154.8604932585
 20
123.0766433746
 30
0.0
 11
154.8604932585
 21
122.5330260484
 31
0.0
  0
LINE
  5
159
330
1F
100
AcDbEntity
  8
0
  6
Continuous
 62
     7
370
    25
100
AcDbLine
 10
154.8604932585
 20
123.0766433746
 30
0.0
 11
155.0166633736
 21
123.0766433746
 31
0.0
  0
LINE
  5
15A
330
1F
100
AcDbEntity
  8
0
  6
Continuous
 62
     7
370
    25
100
AcDbLine
 10
154.7043231433
 20
123.0766433746
 30
0.0
 11
154.8604932585
 21
123.0766433746
 31
0.0
  0
LINE
  5
15B
330
1F
100
AcDbEntity
  8
0
  6
Continuous
 62
     7
370
    25
100
AcDbLine
 10
154.8604932585
 20
104.0766433746
 30
0.0
 11
154.7043231433
 21
104.0766433746
 31
0.0
  0
LINE
  5
15C
330
1F
100
AcDbEntity
  8
0
  6
Continuous
 62
     7
370
    25
100
AcDbLine
 10
154.8604932585
 20
104.6202607008
 30
0.0
 11
154.8604932585
 21
104.0766433746
 31
0.0
  0
LINE
  5
15D
330
1F
100
AcDbEntity
  8
0
  6
Continuous
 62
     7
370
    25
100
AcDbLine
 10
155.0166633736
 20
104.0766433746
 30
0.0
 11
154.8604932585
 21
104.0766433746
 31
0.0
  0
LINE
  5
15E
330
1F
100
AcDbEntity
  8
0
  6
Continuous
 62
     7
370
    25
100
AcDbLine
 10
141.0844024947
 20
113.5766433746
 30
0.0
 11
143.0522542641
 21
113.5766433746
 31
0.0
  0
LINE
  5
15F
330
1F
100
AcDbEntity
  8
0
  6
Continuous
 62
     7
370
    25
100
AcDbLine
 10
141.0844024947
 20
113.5766433746
 30
0.0
 11
141.0844024947
 21
122.0766433746
 31
0.0
  0
LINE
  5
160
330
1F
100
AcDbEntity
  8
0
  6
Continuous
 62
     7
370
    25
100
AcDbLine
 10
141.0844024947
 20
122.0766433746
 30
0.0
 11
143.0522542641
 21
122.0766433746
 31
0.0
  0
SPLINE
  5
161
330
1F
100
AcDbEntity
  8
0
  6
Continuous
 62
     7
370
    25
100
AcDbSpline
210
0.0
220
0.0
230
1.0
 70
     8
 71
     3
 72
     8
 73
     4
 74
     0
 42
0.000000001
 43
0.00000001
 40
0.0
 40
0.0
 40
0.0
 40
0.0
 40
1.0
 40
1.0
 40
1.0
 40
1.0
 10
143.1326390218091
 20
121.5297866935241
 30
0.0
 10
143.1072643886499
 20
121.7122790933052
 30
0.0
 10
143.0804229874432
 20
121.8945578843824
 30
0.0
 10
143.0522542640798
 20
122.076643374572
 30
0.0
  0
SPLINE
  5
162
330
1F
100
AcDbEntity
  8
0
  6
Continuous
 62
     7
370
    25
100
AcDbSpline
210
0.0
220
0.0
230
1.0
 70
     8
 71
     3
 72
     8
 73
     4
 74
     0
 42
0.000000001
 43
0.00000001
 40
0.0
 40
0.0
 40
0.0
 40
0.0
 40
1.0
 40
1.0
 40
1.0
 40
1.0
 10
143.2130237795384
 20
122.076643374572
 30
0.0
 10
143.1848424737153
 20
121.8944765500838
 30
0.0
 10
143.1580019477205
 20
121.7121948956847
 30
0.0
 10
143.1326390218091
 20
121.5297866935241
 30
0.0
  0
LINE
  5
163
330
1F
100
AcDbEntity
  8
0
  6
Continuous
 62
     7
370
    25
100
AcDbLine
 10
143.2130237795
 20
122.0766433746
 30
0.0
 11
145.1808755489
 21
122.0766433746
 31
0.0
  0
SPLINE
  5
164
330
1F
100
AcDbEntity
  8
0
  6
Continuous
 62
     7
370
    25
100
AcDbSpline
210
0.0
220
0.0
230
1.0
 70
     8
 71
     3
 72
    16
 73
    12
 74
     0
 42
0.000000001
 43
0.00000001
 40
0.0
 40
0.0
 40
0.0
 40
0.0
 40
0.2500000000000002
 40
0.2500000000000002
 40
0.5000000000000003
 40
0.5000000000000003
 40
0.6250000000000004
 40
0.6250000000000004
 40
0.7500000000000003
 40
0.7500000000000003
 40
1.0
 40
1.0
 40
1.0
 40
1.0
 10
145.1808755488834
 20
122.0766433745721
 30
0.0
 10
145.412190302566
 20
121.3826991135242
 30
0.0
 10
145.6028355958965
 20
120.68369538698
 30
0.0
 10
145.8669412523038
 20
119.2711095965796
 30
0.0
 10
145.9395304436177
 20
118.5574191550013
 30
0.0
 10
145.9403276897087
 20
117.4734370362642
 30
0.0
 10
145.9225824330852
 20
117.1104096079453
 30
0.0
 10
145.8533853495555
 20
116.3923030450815
 30
0.0
 10
145.8020037434932
 20
116.0356573084974
 30
0.0
 10
145.6035957447565
 20
114.9720696896416
 30
0.0
 10
145.4124786430526
 20
114.2714526570802
 30
0.0
 10
145.1808755488832
 20
113.576643374572
 30
0.0
  0
LINE
  5
165
330
1F
100
AcDbEntity
  8
0
  6
Continuous
 62
     7
370
    25
100
AcDbLine
 10
143.2130237795
 20
113.5766433746
 30
0.0
 11
145.1808755489
 21
113.5766433746
 31
0.0
  0
SPLINE
  5
166
330
1F
100
AcDbEntity
  8
0
  6
Continuous
 62
     7
370
    25
100
AcDbSpline
210
0.0
220
0.0
230
1.0
 70
     8
 71
     3
 72
     8
 73
     4
 74
     0
 42
0.000000001
 43
0.00000001
 40
0.0
 40
0.0
 40
0.0
 40
0.0
 40
1.0
 40
1.0
 40
1.0
 40
1.0
 10
143.1326390218091
 20
114.1235000556199
 30
0.0
 10
143.1580136549683
 20
113.9410076558388
 30
0.0
 10
143.1848550561751
 20
113.7587288647616
 30
0.0
 10
143.2130237795384
 20
113.576643374572
 30
0.0
  0
SPLINE
  5
167
330
1F
100
AcDbEntity
  8
0
  6
Continuous
 62
     7
370
    25
100
AcDbSpline
210
0.0
220
0.0
230
1.0
 70
     8
 71
     3
 72
     8
 73
     4
 74
     0
 42
0.000000001
 43
0.00000001
 40
0.0
 40
0.0
 40
0.0
 40
0.0
 40
1.0
 40
1.0
 40
1.0
 40
1.0
 10
143.0522542640798
 20
113.576643374572
 30
0.0
 10
143.0804355699029
 20
113.7588101990602
 30
0.0
 10
143.1072760958976
 20
113.9410918534594
 30
0.0
 10
143.1326390218091
 20
114.1235000556199
 30
0.0
  0
SPLINE
  5
168
330
1F
100
AcDbEntity
  8
0
  6
Continuous
 62
     7
370
    25
100
AcDbSpline
210
0.0
220
0.0
230
1.0
 70
    24
 71
     3
 72
    12
 73
     8
 74
     0
 42
0.000000001
 43
0.00000001
 40
0.0
 40
0.0
 40
0.0
 40
0.0
 40
0.2384690630685355
 40
0.4274986835270571
 40
0.6171565259424601
 40
0.8083824592089751
 40
1.0
 40
1.0
 40
1.0
 40
1.0
 10
145.9360077195139
 20
122.076643374572
 30
0.0
 10
145.9286046368784
 20
122.076643374572
 30
0.0
 10
145.9153332798311
 20
122.076643374572
 30
0.0
 10
145.7971236047389
 20
122.076643374572
 30
0.0
 10
145.640001897418
 20
122.076643374572
 30
0.0
 10
145.4355539168632
 20
122.076643374572
 30
0.0
 10
145.2658262092475
 20
122.076643374572
 30
0.0
 10
145.180875548883
 20
122.076643374572
 30
0.0
  0
SPLINE
  5
169
330
1F
100
AcDbEntity
  8
0
  6
Continuous
 62
     7
370
    25
100
AcDbSpline
210
0.0
220
0.0
230
1.0
 70
    24
 71
     3
 72
    12
 73
     8
 74
     0
 42
0.000000001
 43
0.00000001
 40
0.0
 40
0.0
 40
0.0
 40
0.0
 40
0.1893088337949943
 40
0.3789587851625497
 40
0.5699410959958712
 40
0.7615276107770433
 40
1.0
 40
1.0
 40
1.0
 40
1.0
 10
145.180875548883
 20
105.0766433745721
 30
0.0
 10
145.2648426735589
 20
105.0766433745721
 30
0.0
 10
145.4329282241532
 20
105.076643374572
 30
0.0
 10
145.6371520305362
 20
105.076643374572
 30
0.0
 10
145.7958770919726
 20
105.076643374572
 30
0.0
 10
145.9148777352929
 20
105.076643374572
 30
0.0
 10
145.9295373990315
 20
105.076643374572
 30
0.0
 10
145.937666343705
 20
105.076643374572
 30
0.0
  0
SPLINE
  5
16A
330
1F
100
AcDbEntity
  8
0
  6
Continuous
 62
     7
370
    25
100
AcDbSpline
210
0.0
220
0.0
230
1.0
 70
     8
 71
     3
 72
    16
 73
    12
 74
     0
 42
0.000000001
 43
0.00000001
 40
0.0
 40
0.0
 40
0.0
 40
0.0
 40
0.2499999999999998
 40
0.2499999999999998
 40
0.4999999999999996
 40
0.4999999999999996
 40
0.6249999999999996
 40
0.6249999999999996
 40
0.7499999999999996
 40
0.7499999999999996
 40
1.0
 40
1.0
 40
1.0
 40
1.0
 10
145.1808755488834
 20
113.5766433745721
 30
0.0
 10
145.412190302566
 20
112.8826991135242
 30
0.0
 10
145.6028355958965
 20
112.18369538698
 30
0.0
 10
145.8669412523038
 20
110.7711095965796
 30
0.0
 10
145.9395304436177
 20
110.0574191550013
 30
0.0
 10
145.9403276897087
 20
108.9734370362642
 30
0.0
 10
145.9225824330852
 20
108.6104096079453
 30
0.0
 10
145.8533853495554
 20
107.8923030450816
 30
0.0
 10
145.8020037434931
 20
107.5356573084975
 30
0.0
 10
145.6035957447565
 20
106.4720696896416
 30
0.0
 10
145.4124786430526
 20
105.7714526570802
 30
0.0
 10
145.1808755488832
 20
105.076643374572
 30
0.0
  0
LINE
  5
16B
330
1F
100
AcDbEntity
  8
0
  6
Continuous
 62
     7
370
    25
100
AcDbLine
 10
146.0844024947
 20
121.8266433746
 30
0.0
 11
146.0844024947
 21
105.3266433746
 31
0.0
  0
SPLINE
  5
16C
330
1F
100
AcDbEntity
  8
0
  6
Continuous
 62
     7
370
    25
100
AcDbSpline
210
0.0
220
0.0
230
1.0
 70
     8
 71
     3
 72
     8
 73
     4
 74
     0
 42
0.000000001
 43
0.00000001
 40
0.0
 40
0.0
 40
0.0
 40
0.0
 40
1.0
 40
1.0
 40
1.0
 40
1.0
 10
143.2130237795384
 20
113.576643374572
 30
0.0
 10
143.1848424737153
 20
113.3944765500838
 30
0.0
 10
143.1580019477205
 20
113.2121948956846
 30
0.0
 10
143.1326390218091
 20
113.0297866935241
 30
0.0
  0
LINE
  5
16D
330
1F
100
AcDbEntity
  8
0
  6
Continuous
 62
     7
370
    25
100
AcDbLine
 10
143.1326390218
 20
113.0297866935
 30
0.0
 11
143.1326390218
 21
114.1235000556
 31
0.0
  0
SPLINE
  5
16E
330
1F
100
AcDbEntity
  8
0
  6
Continuous
 62
     7
370
    25
100
AcDbSpline
210
0.0
220
0.0
230
1.0
 70
     8
 71
     3
 72
     8
 73
     4
 74
     0
 42
0.000000001
 43
0.00000001
 40
0.0
 40
0.0
 40
0.0
 40
0.0
 40
1.0
 40
1.0
 40
1.0
 40
1.0
 10
143.1326390218091
 20
113.0297866935241
 30
0.0
 10
143.1072643886499
 20
113.2122790933052
 30
0.0
 10
143.0804229874432
 20
113.3945578843824
 30
0.0
 10
143.0522542640798
 20
113.576643374572
 30
0.0
  0
LINE
  5
16F
330
1F
100
AcDbEntity
  8
0
  6
Continuous
 62
     7
370
    25
100
AcDbLine
 10
141.0844024947
 20
105.0766433746
 30
0.0
 11
143.0522542641
 21
105.0766433746
 31
0.0
  0
LINE
  5
170
330
1F
100
AcDbEntity
  8
0
  6
Continuous
 62
     7
370
    25
100
AcDbLine
 10
143.2130237795
 20
105.0766433746
 30
0.0
 11
145.1808755489
 21
105.0766433746
 31
0.0
  0
SPLINE
  5
171
330
1F
100
AcDbEntity
  8
0
  6
Continuous
 62
     7
370
    25
100
AcDbSpline
210
0.0
220
0.0
230
1.0
 70
     8
 71
     3
 72
     8
 73
     4
 74
     0
 42
0.000000001
 43
0.00000001
 40
0.0
 40
0.0
 40
0.0
 40
0.0
 40
1.0
 40
1.0
 40
1.0
 40
1.0
 10
143.1326390218091
 20
105.62350005562
 30
0.0
 10
143.1580136549683
 20
105.4410076558389
 30
0.0
 10
143.1848550561751
 20
105.2587288647617
 30
0.0
 10
143.2130237795384
 20
105.0766433745721
 30
0.0
  0
SPLINE
  5
172
330
1F
100
AcDbEntity
  8
0
  6
Continuous
 62
     7
370
    25
100
AcDbSpline
210
0.0
220
0.0
230
1.0
 70
     8
 71
     3
 72
     8
 73
     4
 74
     0
 42
0.000000001
 43
0.00000001
 40
0.0
 40
0.0
 40
0.0
 40
0.0
 40
1.0
 40
1.0
 40
1.0
 40
1.0
 10
143.0522542640798
 20
105.0766433745721
 30
0.0
 10
143.0804355699029
 20
105.2588101990603
 30
0.0
 10
143.1072760958976
 20
105.4410918534594
 30
0.0
 10
143.1326390218091
 20
105.62350005562
 30
0.0
  0
LINE
  5
173
330
1F
100
AcDbEntity
  8
0
  6
Continuous
 62
     7
370
    25
100
AcDbLine
 10
141.0844024947
 20
105.0766433746
 30
0.0
 11
141.0844024947
 21
113.5766433746
 31
0.0
  0
LINE
  5
174
330
1F
100
AcDbEntity
  8
0
  6
Continuous
 62
     7
370
    25
100
AcDbLine
 10
133.1731901485
 20
120.0326054888
 30
0.0
 11
133.1731901485
 21
107.1206812604
 31
0.0
  0
LINE
  5
175
330
1F
100
AcDbEntity
  8
0
  6
Continuous
 62
     7
370
    25
100
AcDbLine
 10
131.0844024947
 20
108.3266433746
 30
0.0
 11
131.0844024947
 21
118.8266433746
 31
0.0
  0
SPLINE
  5
176
330
1F
100
AcDbEntity
  8
0
  6
Continuous
 62
     7
370
    25
100
AcDbSpline
210
0.0
220
0.0
230
1.0
 70
    24
 71
     3
 72
     8
 73
     4
 74
     0
 42
0.000000001
 43
0.00000001
 40
0.0
 40
0.0
 40
0.0
 40
0.0
 40
1.0
 40
1.0
 40
1.0
 40
1.0
 10
143.1326390218091
 20
105.076643374572
 30
0.0
 10
143.1072649912248
 20
105.0766433745721
 30
0.0
 10
143.0804236345078
 20
105.0766433745721
 30
0.0
 10
143.0522542640798
 20
105.0766433745721
 30
0.0
  0
LINE
  5
177
330
1F
100
AcDbEntity
  8
0
  6
Continuous
 62
     7
370
    25
100
AcDbLine
 10
143.1326390218
 20
105.0766433746
 30
0.0
 11
143.1326390218
 21
105.6235000556
 31
0.0
  0
SPLINE
  5
178
330
1F
100
AcDbEntity
  8
0
  6
Continuous
 62
     7
370
    25
100
AcDbSpline
210
0.0
220
0.0
230
1.0
 70
    24
 71
     3
 72
     8
 73
     4
 74
     0
 42
0.000000001
 43
0.00000001
 40
0.0
 40
0.0
 40
0.0
 40
0.0
 40
1.0
 40
1.0
 40
1.0
 40
1.0
 10
143.2130237795384
 20
105.0766433745721
 30
0.0
 10
143.1848406276463
 20
105.0766433745721
 30
0.0
 10
143.1580002318481
 20
105.0766433745721
 30
0.0
 10
143.1326390218091
 20
105.076643374572
 30
0.0
  0
SPLINE
  5
179
330
1F
100
AcDbEntity
  8
0
  6
Continuous
 62
     7
370
    25
100
AcDbSpline
210
0.0
220
0.0
230
1.0
 70
    24
 71
     3
 72
     8
 73
     4
 74
     0
 42
0.000000001
 43
0.00000001
 40
0.0
 40
0.0
 40
0.0
 40
0.0
 40
1.0
 40
1.0
 40
1.0
 40
1.0
 10
143.0522542640798
 20
122.076643374572
 30
0.0
 10
143.0804374159719
 20
122.076643374572
 30
0.0
 10
143.10727781177
 20
122.076643374572
 30
0.0
 10
143.1326390218091
 20
122.076643374572
 30
0.0
  0
LINE
  5
17A
330
1F
100
AcDbEntity
  8
0
  6
Continuous
 62
     7
370
    25
100
AcDbLine
 10
143.1326390218
 20
121.5297866935
 30
0.0
 11
143.1326390218
 21
122.0766433746
 31
0.0
  0
SPLINE
  5
17B
330
1F
100
AcDbEntity
  8
0
  6
Continuous
 62
     7
370
    25
100
AcDbSpline
210
0.0
220
0.0
230
1.0
 70
    24
 71
     3
 72
     8
 73
     4
 74
     0
 42
0.000000001
 43
0.00000001
 40
0.0
 40
0.0
 40
0.0
 40
0.0
 40
1.0
 40
1.0
 40
1.0
 40
1.0
 10
143.1326390218091
 20
122.076643374572
 30
0.0
 10
143.1580130523934
 20
122.076643374572
 30
0.0
 10
143.1848544091104
 20
122.076643374572
 30
0.0
 10
143.2130237795384
 20
122.076643374572
 30
0.0
  0
LINE
  5
17C
330
1F
100
AcDbEntity
  8
0
  6
Continuous
 62
     8
370
    25
100
AcDbLine
 10
161.5604932585
 20
104.2266433746
 30
0.0
 11
161.5604932585
 21
122.9266433746
 31
0.0
  0
LINE
  5
17D
330
1F
100
AcDbEntity
  8
0
  6
Continuous
 62
     8
370
    25
100
AcDbLine
 10
148.1604932585
 20
122.9266433746
 30
0.0
 11
148.1604932585
 21
104.2266433746
 31
0.0
  0
LINE
  5
17E
330
1F
100
AcDbEntity
  8
0
  6
Continuous
 62
     7
370
     0
100
AcDbLine
 10
131.8300995925
 20
119.2571717947
 30
0.0
 11
140.5844024947
 21
119.5307437604
 31
0.0
  0
LINE
  5
17F
330
1F
100
AcDbEntity
  8
0
  6
Continuous
 62
     7
370
     0
100
AcDbLine
 10
131.8300995925
 20
107.8961149544
 30
0.0
 11
140.5844024947
 21
107.6225429888
 31
0.0
  0
LINE
  5
180
330
1F
100
AcDbEntity
  8
0
  6
Continuous
 62
     7
370
     0
100
AcDbLine
 10
140.5844024947
 20
106.8890808746
 30
0.0
 11
140.5844024947
 21
120.2642058746
 31
0.0
  0
LINE
  5
181
330
1F
100
AcDbEntity
  8
0
  6
CENTERX2
 62
     7
370
    18
100
AcDbLine
 10
129.0844024947
 20
113.5766433746
 30
0.0
 11
143.0844024947
 21
113.5766433746
 31
0.0
  0
LINE
  5
182
330
1F
100
AcDbEntity
  8
0
  6
CENTERX2
 62
     7
370
    18
100
AcDbLine
 10
190.2604932585
 20
113.5766433746
 30
0.0
 11
144.0844024947
 21
113.5766433746
 31
0.0
  0
ENDSEC
  0
SECTION
  2
OBJECTS
  0
DICTIONARY
  5
C
330
0
100
AcDbDictionary
281
     1
  3
ACAD_GROUP
350
D
  3
ACAD_LAYOUT
350
1A
  3
ACAD_MLINESTYLE
350
17
  3
ACAD_PLOTSETTINGS
350
19
  3
ACAD_PLOTSTYLENAME
350
E
  3
ACAD_SCALELIST
350
47
  0
DICTIONARY
  5
D
102
{ACAD_REACTORS
330
C
102
}
330
C
100
AcDbDictionary
281
     1
  0
DICTIONARY
  5
1A
102
{ACAD_REACTORS
330
C
102
}
330
C
100
AcDbDictionary
281
     1
  3
Layout1
350
1E
  3
Layout2
350
26
  3
Model
350
22
  0
DICTIONARY
  5
17
102
{ACAD_REACTORS
330
C
102
}
330
C
100
AcDbDictionary
281
     1
  3
Standard
350
18
  0
DICTIONARY
  5
19
102
{ACAD_REACTORS
330
C
102
}
330
C
100
AcDbDictionary
281
     1
  0
ACDBDICTIONARYWDFLT
  5
E
102
{ACAD_REACTORS
330
C
102
}
330
C
100
AcDbDictionary
281
     1
  3
Normal
350
F
100
AcDbDictionaryWithDefault
340
F
  0
DICTIONARY
  5
47
102
{ACAD_REACTORS
330
C
102
}
330
C
100
AcDbDictionary
281
     1
  3
A0
350
48
  3
A1
350
49
  3
A2
350
4A
  3
A3
350
4B
  3
A4
350
4C
  3
A5
350
4D
  3
A6
350
4E
  3
A7
350
4F
  3
A8
350
50
  3
A9
350
51
  3
B0
350
52
  3
B1
350
53
  3
B2
350
54
  3
B3
350
55
  3
B4
350
56
  3
B5
350
57
  3
B6
350
58
  3
B7
350
59
  3
B8
350
5A
  3
B9
350
5B
  3
C0
350
5C
  3
C1
350
5D
  3
C2
350
5E
  3
C3
350
5F
  3
C4
350
60
  3
C5
350
61
  3
C6
350
62
  3
C7
350
63
  3
C8
350
64
  3
C9
350
65
  3
D0
350
66
  3
D1
350
67
  3
D2
350
68
  0
LAYOUT
  5
1E
102
{ACAD_REACTORS
330
1A
102
}
330
1A
100
AcDbPlotSettings
  1

  2
none_device
  4

  6

 40
0.0
 41
0.0
 42
0.0
 43
0.0
 44
0.0
 45
0.0
 46
0.0
 47
0.0
 48
0.0
 49
0.0
140
0.0
141
0.0
142
1.0
143
1.0
 70
   688
 72
     1
 73
     0
 74
     5
  7

 75
    16
147
1.0
148
0.0
149
0.0
100
AcDbLayout
  1
Layout1
 70
     1
 71
     1
 10
0.0
 20
0.0
 11
420.0
 21
297.0
 12
0.0
 22
0.0
 32
0.0
 14
1.0000000000E+20
 24
1.0000000000E+20
 34
1.0000000000E+20
 15
-1.0000000000E+20
 25
-1.0000000000E+20
 35
-1.0000000000E+20
146
0.0
 13
0.0
 23
0.0
 33
0.0
 16
1.0
 26
0.0
 36
0.0
 17
0.0
 27
1.0
 37
0.0
 76
     0
330
1B
  0
LAYOUT
  5
26
102
{ACAD_REACTORS
330
1A
102
}
330
1A
100
AcDbPlotSettings
  1

  2
none_device
  4

  6

 40
0.0
 41
0.0
 42
0.0
 43
0.0
 44
0.0
 45
0.0
 46
0.0
 47
0.0
 48
0.0
 49
0.0
140
0.0
141
0.0
142
1.0
143
1.0
 70
   688
 72
     1
 73
     0
 74
     5
  7

 75
    16
147
1.0
148
0.0
149
0.0
100
AcDbLayout
  1
Layout2
 70
     1
 71
     2
 10
0.0
 20
0.0
 11
0.0
 21
0.0
 12
0.0
 22
0.0
 32
0.0
 14
0.0
 24
0.0
 34
0.0
 15
0.0
 25
0.0
 35
0.0
146
0.0
 13
0.0
 23
0.0
 33
0.0
 16
1.0
 26
0.0
 36
0.0
 17
0.0
 27
1.0
 37
0.0
 76
     0
330
23
  0
LAYOUT
  5
22
102
{ACAD_REACTORS
330
1A
102
}
330
1A
100
AcDbPlotSettings
  1

  2
none_device
  4
Letter_(8.50_x_11.00_Inches)
  6

 40
6.35
 41
6.35
 42
6.35000508
 43
6.35000508
 44
215.9
 45
279.4
 46
0.0
 47
0.0
 48
0.0
 49
0.0
140
0.0
141
0.0
142
1.0
143
1.0
 70
  1712
 72
     1
 73
     0
 74
     0
  7

 75
     0
147
1.0
148
0.0
149
0.0
100
AcDbLayout
  1
Model
 70
     1
 71
     0
 10
0.0
 20
0.0
 11
431.8
 21
279.4
 12
0.0
 22
0.0
 32
0.0
 14
0.0
 24
0.0
 34
0.0
 15
431.8
 25
279.4
 35
0.0
146
0.0
 13
0.0
 23
0.0
 33
0.0
 16
1.0
 26
0.0
 36
0.0
 17
0.0
 27
1.0
 37
0.0
 76
     0
330
1F
331
29
  0
MLINESTYLE
  5
18
102
{ACAD_REACTORS
330
17
102
}
330
17
100
AcDbMlineStyle
  2
Standard
 70
     0
  3

 62
   256
 51
90.0
 52
90.0
 71
     2
 49
0.5
 62
   256
  6
BYLAYER
 49
-0.5
 62
   256
  6
BYLAYER
  0
ACDBPLACEHOLDER
  5
F
102
{ACAD_REACTORS
330
E
102
}
330
E
  0
SCALE
  5
48
102
{ACAD_REACTORS
330
47
102
}
330
47
100
AcDbScale
 70
     0
300
1:1
140
1.0
141
1.0
290
     1
  0
SCALE
  5
49
102
{ACAD_REACTORS
330
47
102
}
330
47
100
AcDbScale
 70
     0
300
1:2
140
1.0
141
2.0
290
     0
  0
SCALE
  5
4A
102
{ACAD_REACTORS
330
47
102
}
330
47
100
AcDbScale
 70
     0
300
1:4
140
1.0
141
4.0
290
     0
  0
SCALE
  5
4B
102
{ACAD_REACTORS
330
47
102
}
330
47
100
AcDbScale
 70
     0
300
1:5
140
1.0
141
5.0
290
     0
  0
SCALE
  5
4C
102
{ACAD_REACTORS
330
47
102
}
330
47
100
AcDbScale
 70
     0
300
1:8
140
1.0
141
8.0
290
     0
  0
SCALE
  5
4D
102
{ACAD_REACTORS
330
47
102
}
330
47
100
AcDbScale
 70
     0
300
1:10
140
1.0
141
10.0
290
     0
  0
SCALE
  5
4E
102
{ACAD_REACTORS
330
47
102
}
330
47
100
AcDbScale
 70
     0
300
1:16
140
1.0
141
16.0
290
     0
  0
SCALE
  5
4F
102
{ACAD_REACTORS
330
47
102
}
330
47
100
AcDbScale
 70
     0
300
1:20
140
1.0
141
20.0
290
     0
  0
SCALE
  5
50
102
{ACAD_REACTORS
330
47
102
}
330
47
100
AcDbScale
 70
     0
300
1:30
140
1.0
141
30.0
290
     0
  0
SCALE
  5
51
102
{ACAD_REACTORS
330
47
102
}
330
47
100
AcDbScale
 70
     0
300
1:40
140
1.0
141
40.0
290
     0
  0
SCALE
  5
52
102
{ACAD_REACTORS
330
47
102
}
330
47
100
AcDbScale
 70
     0
300
1:50
140
1.0
141
50.0
290
     0
  0
SCALE
  5
53
102
{ACAD_REACTORS
330
47
102
}
330
47
100
AcDbScale
 70
     0
300
1:100
140
1.0
141
100.0
290
     0
  0
SCALE
  5
54
102
{ACAD_REACTORS
330
47
102
}
330
47
100
AcDbScale
 70
     0
300
2:1
140
2.0
141
1.0
290
     0
  0
SCALE
  5
55
102
{ACAD_REACTORS
330
47
102
}
330
47
100
AcDbScale
 70
     0
300
4:1
140
4.0
141
1.0
290
     0
  0
SCALE
  5
56
102
{ACAD_REACTORS
330
47
102
}
330
47
100
AcDbScale
 70
     0
300
8:1
140
8.0
141
1.0
290
     0
  0
SCALE
  5
57
102
{ACAD_REACTORS
330
47
102
}
330
47
100
AcDbScale
 70
     0
300
10:1
140
10.0
141
1.0
290
     0
  0
SCALE
  5
58
102
{ACAD_REACTORS
330
47
102
}
330
47
100
AcDbScale
 70
     0
300
100:1
140
100.0
141
1.0
290
     0
  0
SCALE
  5
59
102
{ACAD_REACTORS
330
47
102
}
330
47
100
AcDbScale
 70
     0
300
1/128" = 1'-0"
140
0.0078125
141
12.0
290
     0
  0
SCALE
  5
5A
102
{ACAD_REACTORS
330
47
102
}
330
47
100
AcDbScale
 70
     0
300
1/64" = 1'-0"
140
0.015625
141
12.0
290
     0
  0
SCALE
  5
5B
102
{ACAD_REACTORS
330
47
102
}
330
47
100
AcDbScale
 70
     0
300
1/32" = 1'-0"
140
0.03125
141
12.0
290
     0
  0
SCALE
  5
5C
102
{ACAD_REACTORS
330
47
102
}
330
47
100
AcDbScale
 70
     0
300
1/16" = 1'-0"
140
0.0625
141
12.0
290
     0
  0
SCALE
  5
5D
102
{ACAD_REACTORS
330
47
102
}
330
47
100
AcDbScale
 70
     0
300
3/32" = 1'-0"
140
0.09375
141
12.0
290
     0
  0
SCALE
  5
5E
102
{ACAD_REACTORS
330
47
102
}
330
47
100
AcDbScale
 70
     0
300
1/8" = 1'-0"
140
0.125
141
12.0
290
     0
  0
SCALE
  5
5F
102
{ACAD_REACTORS
330
47
102
}
330
47
100
AcDbScale
 70
     0
300
3/16" = 1'-0"
140
0.1875
141
12.0
290
     0
  0
SCALE
  5
60
102
{ACAD_REACTORS
330
47
102
}
330
47
100
AcDbScale
 70
     0
300
1/4" = 1'-0"
140
0.25
141
12.0
290
     0
  0
SCALE
  5
61
102
{ACAD_REACTORS
330
47
102
}
330
47
100
AcDbScale
 70
     0
300
3/8" = 1'-0"
140
0.375
141
12.0
290
     0
  0
SCALE
  5
62
102
{ACAD_REACTORS
330
47
102
}
330
47
100
AcDbScale
 70
     0
300
1/2" = 1'-0"
140
0.5
141
12.0
290
     0
  0
SCALE
  5
63
102
{ACAD_REACTORS
330
47
102
}
330
47
100
AcDbScale
 70
     0
300
3/4" = 1'-0"
140
0.75
141
12.0
290
     0
  0
SCALE
  5
64
102
{ACAD_REACTORS
330
47
102
}
330
47
100
AcDbScale
 70
     0
300
1" = 1'-0"
140
1.0
141
12.0
290
     0
  0
SCALE
  5
65
102
{ACAD_REACTORS
330
47
102
}
330
47
100
AcDbScale
 70
     0
300
1-1/2" = 1'-0"
140
1.5
141
12.0
290
     0
  0
SCALE
  5
66
102
{ACAD_REACTORS
330
47
102
}
330
47
100
AcDbScale
 70
     0
300
3" = 1'-0"
140
3.0
141
12.0
290
     0
  0
SCALE
  5
67
102
{ACAD_REACTORS
330
47
102
}
330
47
100
AcDbScale
 70
     0
300
6" = 1'-0"
140
6.0
141
12.0
290
     0
  0
SCALE
  5
68
102
{ACAD_REACTORS
330
47
102
}
330
47
100
AcDbScale
 70
     0
300
1'-0" = 1'-0"
140
12.0
141
12.0
290
     0
  0
ENDSEC
  0
EOF
