  0
SECTION
  2
HEADER
  9
$ACADVER
  1
AC1015
  9
$ACADMAINTVER
 70
     6
  9
$DWGCODEPAGE
  3
DOS932
  9
$INSBASE
 10
0.0
 20
0.0
 30
0.0
  9
$EXTMIN
 10
0.0
 20
0.0
 30
0.0
  9
$EXTMAX
 10
431.8
 20
279.4
 30
0.0
  9
$LIMMIN
 10
0.0
 20
0.0
  9
$LIMMAX
 10
431.8
 20
279.4
  9
$ORTHOMODE
 70
     0
  9
$REGENMODE
 70
     1
  9
$FILLMODE
 70
     1
  9
$QTEXTMODE
 70
     0
  9
$MIRRTEXT
 70
     1
  9
$LTSCALE
 40
1.0
  9
$ATTMODE
 70
     1
  9
$TEXTSIZE
 40
3.5
  9
$TRACEWID
 40
1.0
  9
$TEXTSTYLE
  7
Standard
  9
$CLAYER
  8
0
  9
$CELTYPE
  6
ByLayer
  9
$CECOLOR
 62
   256
  9
$CELTSCALE
 40
1.0
  9
$DISPSILH
 70
     0
  9
$DIMSCALE
 40
1.0
  9
$DIMASZ
 40
3.302
  9
$DIMEXO
 40
1.0
  9
$DIMDLI
 40
3.75
  9
$DIMRND
 40
0.0
  9
$DIMDLE
 40
0.0
  9
$DIMEXE
 40
1.0
  9
$DIMTP
 40
0.0
  9
$DIMTM
 40
0.0
  9
$DIMTXT
 40
3.5
  9
$DIMCEN
 40
2.5
  9
$DIMTSZ
 40
0.0
  9
$DIMTOL
 70
     0
  9
$DIMLIM
 70
     0
  9
$DIMTIH
 70
     1
  9
$DIMTOH
 70
     1
  9
$DIMSE1
 70
     0
  9
$DIMSE2
 70
     0
  9
$DIMTAD
 70
     1
  9
$DIMZIN
 70
     1
  9
$DIMBLK
  1

  9
$DIMASO
 70
     1
  9
$DIMSHO
 70
     1
  9
$DIMPOST
  1

  9
$DIMAPOST
  1

  9
$DIMALT
 70
     0
  9
$DIMALTD
 70
     3
  9
$DIMALTF
 40
0.0393700787
  9
$DIMLFAC
 40
1.0
  9
$DIMTOFL
 70
     1
  9
$DIMTVP
 40
0.0
  9
$DIMTIX
 70
     0
  9
$DIMSOXD
 70
     0
  9
$DIMSAH
 70
     0
  9
$DIMBLK1
  1

  9
$DIMBLK2
  1

  9
$DIMSTYLE
  2
ISO-25
  9
$DIMCLRD
 70
     0
  9
$DIMCLRE
 70
     0
  9
$DIMCLRT
 70
     0
  9
$DIMTFAC
 40
1.0
  9
$DIMGAP
 40
1.524
  9
$DIMJUST
 70
     0
  9
$DIMSD1
 70
     0
  9
$DIMSD2
 70
     0
  9
$DIMTOLJ
 70
     0
  9
$DIMTZIN
 70
     1
  9
$DIMALTZ
 70
     0
  9
$DIMALTTZ
 70
     0
  9
$DIMUPT
 70
     0
  9
$DIMDEC
 70
     2
  9
$DIMTDEC
 70
     2
  9
$DIMALTU
 70
     2
  9
$DIMALTTD
 70
     3
  9
$DIMTXSTY
  7
Standard
  9
$DIMAUNIT
 70
     0
  9
$DIMADEC
 70
     2
  9
$DIMALTRND
 40
0.0
  9
$DIMAZIN
 70
     0
  9
$DIMDSEP
 70
    44
  9
$DIMATFIT
 70
     3
  9
$DIMFRAC
 70
     0
  9
$DIMLDRBLK
  1

  9
$DIMLUNIT
 70
     2
  9
$DIMLWD
 70
    -2
  9
$DIMLWE
 70
    -2
  9
$DIMTMOVE
 70
     0
  9
$LUNITS
 70
     2
  9
$LUPREC
 70
     2
  9
$SKETCHINC
 40
1.0
  9
$FILLETRAD
 40
10.0
  9
$AUNITS
 70
     0
  9
$AUPREC
 70
     2
  9
$MENU
  1
.
  9
$ELEVATION
 40
0.0
  9
$PELEVATION
 40
0.0
  9
$THICKNESS
 40
0.0
  9
$LIMCHECK
 70
     0
  9
$CHAMFERA
 40
0.0
  9
$CHAMFERB
 40
0.0
  9
$CHAMFERC
 40
0.0
  9
$CHAMFERD
 40
0.0
  9
$SKPOLY
 70
     0
  9
$TDCREATE
 40
2459285.463321921
  9
$TDUCREATE
 40
2459285.088321921
  9
$TDUPDATE
 40
2459285.463322465
  9
$TDUUPDATE
 40
2459285.088322465
  9
$TDINDWG
 40
0.0000000116
  9
$TDUSRTIMER
 40
0.0000000116
  9
$USRTIMER
 70
     1
  9
$ANGBASE
 50
0.0
  9
$ANGDIR
 70
     0
  9
$PDMODE
 70
     0
  9
$PDSIZE
 40
-1.0
  9
$PLINEWID
 40
0.0
  9
$SPLFRAME
 70
     0
  9
$SPLINETYPE
 70
     6
  9
$SPLINESEGS
 70
     8
  9
$HANDSEED
  5
1A0
  9
$SURFTAB1
 70
     6
  9
$SURFTAB2
 70
     6
  9
$SURFTYPE
 70
     6
  9
$SURFU
 70
     6
  9
$SURFV
 70
     6
  9
$UCSBASE
  2

  9
$UCSNAME
  2

  9
$UCSORG
 10
0.0
 20
0.0
 30
0.0
  9
$UCSXDIR
 10
1.0
 20
0.0
 30
0.0
  9
$UCSYDIR
 10
0.0
 20
1.0
 30
0.0
  9
$UCSORTHOREF
  2

  9
$UCSORTHOVIEW
 70
     0
  9
$UCSORGTOP
 10
0.0
 20
0.0
 30
0.0
  9
$UCSORGBOTTOM
 10
0.0
 20
0.0
 30
0.0
  9
$UCSORGLEFT
 10
0.0
 20
0.0
 30
0.0
  9
$UCSORGRIGHT
 10
0.0
 20
0.0
 30
0.0
  9
$UCSORGFRONT
 10
0.0
 20
0.0
 30
0.0
  9
$UCSORGBACK
 10
0.0
 20
0.0
 30
0.0
  9
$PUCSBASE
  2

  9
$PUCSNAME
  2

  9
$PUCSORG
 10
0.0
 20
0.0
 30
0.0
  9
$PUCSXDIR
 10
1.0
 20
0.0
 30
0.0
  9
$PUCSYDIR
 10
0.0
 20
1.0
 30
0.0
  9
$PUCSORTHOREF
  2

  9
$PUCSORTHOVIEW
 70
     0
  9
$PUCSORGTOP
 10
0.0
 20
0.0
 30
0.0
  9
$PUCSORGBOTTOM
 10
0.0
 20
0.0
 30
0.0
  9
$PUCSORGLEFT
 10
0.0
 20
0.0
 30
0.0
  9
$PUCSORGRIGHT
 10
0.0
 20
0.0
 30
0.0
  9
$PUCSORGFRONT
 10
0.0
 20
0.0
 30
0.0
  9
$PUCSORGBACK
 10
0.0
 20
0.0
 30
0.0
  9
$USERI1
 70
     0
  9
$USERI2
 70
     0
  9
$USERI3
 70
     0
  9
$USERI4
 70
     0
  9
$USERI5
 70
     0
  9
$USERR1
 40
0.0
  9
$USERR2
 40
0.0
  9
$USERR3
 40
0.0
  9
$USERR4
 40
0.0
  9
$USERR5
 40
0.0
  9
$WORLDVIEW
 70
     1
  9
$SHADEDGE
 70
     3
  9
$SHADEDIF
 70
    70
  9
$TILEMODE
 70
     1
  9
$MAXACTVP
 70
    64
  9
$PINSBASE
 10
0.0
 20
0.0
 30
0.0
  9
$PLIMCHECK
 70
     0
  9
$PEXTMIN
 10
1.0000000000E+20
 20
1.0000000000E+20
 30
1.0000000000E+20
  9
$PEXTMAX
 10
-1.0000000000E+20
 20
-1.0000000000E+20
 30
-1.0000000000E+20
  9
$PLIMMIN
 10
0.0
 20
0.0
  9
$PLIMMAX
 10
420.0
 20
297.0
  9
$UNITMODE
 70
     0
  9
$VISRETAIN
 70
     1
  9
$PLINEGEN
 70
     0
  9
$PSLTSCALE
 70
     1
  9
$TREEDEPTH
 70
  3020
  9
$CMLSTYLE
  2
Standard
  9
$CMLJUST
 70
     0
  9
$CMLSCALE
 40
20.0
  9
$PROXYGRAPHICS
 70
     1
  9
$MEASUREMENT
 70
     1
  9
$CELWEIGHT
370
    -1
  9
$ENDCAPS
280
     0
  9
$JOINSTYLE
280
     0
  9
$LWDISPLAY
290
     1
  9
$INSUNITS
 70
     4
  9
$HYPERLINKBASE
  1

  9
$STYLESHEET
  1

  9
$XEDIT
290
     1
  9
$CEPSNTYPE
380
     0
  9
$PSTYLEMODE
290
     1
  9
$FINGERPRINTGUID
  2
{2E3CC34B-A1FE-4840-97EB-2D9820D2B658}
  9
$VERSIONGUID
  2
{FAEB1C32-E019-11D5-929B-00C0DF256EC4}
  9
$EXTNAMES
290
     1
  9
$PSVPSCALE
 40
0.0
  9
$OLESTARTUP
290
     0
  0
ENDSEC
  0
SECTION
  2
CLASSES
  0
CLASS
  1
ACDBDICTIONARYWDFLT
  2
AcDbDictionaryWithDefault
  3
ObjectDBX Classes
 90
        0
280
     0
281
     0
  0
CLASS
  1
VISUALSTYLE
  2
AcDbVisualStyle
  3
ObjectDBX Classes
 90
     4095
280
     0
281
     0
  0
CLASS
  1
MATERIAL
  2
AcDbMaterial
  3
ObjectDBX Classes
 90
     1153
280
     0
281
     0
  0
CLASS
  1
SCALE
  2
AcDbScale
  3
ObjectDBX Classes
 90
     1153
280
     0
281
     0
  0
CLASS
  1
TABLESTYLE
  2
AcDbTableStyle
  3
ObjectDBX Classes
 90
     4095
280
     0
281
     0
  0
CLASS
  1
MLEADERSTYLE
  2
AcDbMLeaderStyle
  3
ACDB_MLEADERSTYLE_CLASS
 90
     4095
280
     0
281
     0
  0
CLASS
  1
SUN
  2
AcDbSun
  3
SCENEOE
 90
     1153
280
     0
281
     0
  0
CLASS
  1
ACDBPLACEHOLDER
  2
AcDbPlaceHolder
  3
ObjectDBX Classes
 90
        0
280
     0
281
     0
  0
CLASS
  1
LAYOUT
  2
AcDbLayout
  3
ObjectDBX Classes
 90
        0
280
     0
281
     0
  0
ENDSEC
  0
SECTION
  2
TABLES
  0
TABLE
  2
VPORT
  5
8
330
0
100
AcDbSymbolTable
 70
     1
  0
VPORT
  5
29
330
8
100
AcDbSymbolTableRecord
100
AcDbViewportTableRecord
  2
*Active
 70
     0
 10
0.0
 20
0.0
 11
1.0
 21
1.0
 12
215.9
 22
139.7
 13
0.0
 23
0.0
 14
10.0
 24
10.0
 15
10.0
 25
10.0
 16
0.0
 26
0.0
 36
1.0
 17
0.0
 27
0.0
 37
0.0
 40
279.4
 41
1.5454545455
 42
50.0
 43
0.0
 44
0.0
 50
0.0
 51
0.0
 71
     0
 72
  2000
 73
     1
 74
     3
 75
     0
 76
     0
 77
     0
 78
     0
281
     0
 65
     1
110
0.0
120
0.0
130
0.0
111
1.0
121
0.0
131
0.0
112
0.0
122
1.0
132
0.0
 79
     0
146
0.0
  0
ENDTAB
  0
TABLE
  2
LTYPE
  5
5
330
0
100
AcDbSymbolTable
 70
     6
  0
LTYPE
  5
14
330
5
100
AcDbSymbolTableRecord
100
AcDbLinetypeTableRecord
  2
ByBlock
 70
     0
  3

 72
    65
 73
     0
 40
0.0
  0
LTYPE
  5
15
330
5
100
AcDbSymbolTableRecord
100
AcDbLinetypeTableRecord
  2
ByLayer
 70
     0
  3

 72
    65
 73
     0
 40
0.0
  0
LTYPE
  5
16
330
5
100
AcDbSymbolTableRecord
100
AcDbLinetypeTableRecord
  2
Continuous
 70
     0
  3
Solid line
 72
    65
 73
     0
 40
0.0
  0
LTYPE
  5
6E
330
5
100
AcDbSymbolTableRecord
100
AcDbLinetypeTableRecord
  2
HIDDEN
 70
     0
  3
Hidden __ __ __ __ __ __ __ __ __ __ __ __ __ __
 72
    65
 73
     2
 40
1.905
 49
1.27
 74
     0
 49
-0.635
 74
     0
  0
LTYPE
  5
6F
330
5
100
AcDbSymbolTableRecord
100
AcDbLinetypeTableRecord
  2
PHANTOM
 70
     0
  3
Phantom ______  __  __  ______  __  __  ______
 72
    65
 73
     6
 40
12.7
 49
6.35
 74
     0
 49
-1.27
 74
     0
 49
1.27
 74
     0
 49
-1.27
 74
     0
 49
1.27
 74
     0
 49
-1.27
 74
     0
  0
LTYPE
  5
70
330
5
100
AcDbSymbolTableRecord
100
AcDbLinetypeTableRecord
  2
CENTER
 70
     0
  3
Center ____ _ ____ _ ____ _ ____ _ ____ _ ____
 72
    65
 73
     4
 40
10.16
 49
6.35
 74
     0
 49
-1.27
 74
     0
 49
1.27
 74
     0
 49
-1.27
 74
     0
  0
LTYPE
  5
71
330
5
100
AcDbSymbolTableRecord
100
AcDbLinetypeTableRecord
  2
CENTERX2
 70
     0
  3
Center (2x) ________  __  ________  __  _____
 72
    65
 73
     4
 40
20.32
 49
12.7
 74
     0
 49
-2.54
 74
     0
 49
2.54
 74
     0
 49
-2.54
 74
     0
  0
LTYPE
  5
72
330
5
100
AcDbSymbolTableRecord
100
AcDbLinetypeTableRecord
  2
DOT2
 70
     0
  3
Dot (.5x) ........................................
 72
    65
 73
     2
 40
0.635
 49
0.0
 74
     0
 49
-0.635
 74
     0
  0
ENDTAB
  0
TABLE
  2
LAYER
  5
2
330
0
100
AcDbSymbolTable
 70
     1
  0
LAYER
  5
10
330
2
100
AcDbSymbolTableRecord
100
AcDbLayerTableRecord
  2
0
 70
     0
 62
     7
  6
Continuous
370
    -3
390
F
  0
ENDTAB
  0
TABLE
  2
STYLE
  5
3
330
0
100
AcDbSymbolTable
 70
     2
  0
STYLE
  5
11
330
3
100
AcDbSymbolTableRecord
100
AcDbTextStyleTableRecord
  2
Standard
 70
     0
 40
0.0
 41
1.0
 50
0.0
 71
     0
 42
3.5
  3
txt
  4
bigfont
  0
STYLE
  5
73
330
3
100
AcDbSymbolTableRecord
100
AcDbTextStyleTableRecord
  2
SLDTEXTSTYLE0
 70
     0
 40
0.0
 41
0.7
 50
0.0
 71
     0
 42
3.5
  3
TXT
  4
bigfont
  0
ENDTAB
  0
TABLE
  2
VIEW
  5
6
330
0
100
AcDbSymbolTable
 70
     0
  0
ENDTAB
  0
TABLE
  2
UCS
  5
7
330
0
100
AcDbSymbolTable
 70
     0
  0
ENDTAB
  0
TABLE
  2
APPID
  5
9
330
0
100
AcDbSymbolTable
 70
     1
  0
APPID
  5
12
330
9
100
AcDbSymbolTableRecord
100
AcDbRegAppTableRecord
  2
ACAD
 70
     0
  0
ENDTAB
  0
TABLE
  2
DIMSTYLE
  5
A
330
0
100
AcDbSymbolTable
 70
     1
100
AcDbDimStyleTable
  0
DIMSTYLE
105
27
330
A
100
AcDbSymbolTableRecord
100
AcDbDimStyleTableRecord
  2
ISO-25
 70
     0
 41
2.5
 42
0.625
 43
3.75
 44
1.25
 73
     0
 74
     0
 77
     1
 78
     8
140
2.5
141
2.5
143
0.0393700787
147
0.625
171
     3
172
     1
178
     0
271
     2
272
     2
274
     3
278
    44
283
     0
284
     8
340
11
  0
ENDTAB
  0
TABLE
  2
BLOCK_RECORD
  5
1
330
0
100
AcDbSymbolTable
 70
     2
  0
BLOCK_RECORD
  5
1F
330
1
100
AcDbSymbolTableRecord
100
AcDbBlockTableRecord
  2
*Model_Space
340
22
  0
BLOCK_RECORD
  5
1B
330
1
100
AcDbSymbolTableRecord
100
AcDbBlockTableRecord
  2
*Paper_Space
340
1E
  0
BLOCK_RECORD
  5
23
330
1
100
AcDbSymbolTableRecord
100
AcDbBlockTableRecord
  2
*Paper_Space0
340
26
  0
BLOCK_RECORD
  5
119
330
1
100
AcDbSymbolTableRecord
100
AcDbBlockTableRecord
  2
SW_CENTERMARKSYMBOL_0
340
0
102
{BLKREFS
331
124
102
}
  0
ENDTAB
  0
ENDSEC
  0
SECTION
  2
BLOCKS
  0
BLOCK
  5
20
330
1F
100
AcDbEntity
  8
0
100
AcDbBlockBegin
  2
*Model_Space
 70
     0
 10
0.0
 20
0.0
 30
0.0
  3
*Model_Space
  1

  0
ENDBLK
  5
21
330
1F
100
AcDbEntity
  8
0
100
AcDbBlockEnd
  0
BLOCK
  5
1C
330
1B
100
AcDbEntity
 67
     1
  8
0
100
AcDbBlockBegin
  2
*Paper_Space
 70
     0
 10
0.0
 20
0.0
 30
0.0
  3
*Paper_Space
  1

  0
ENDBLK
  5
1D
330
1B
100
AcDbEntity
 67
     1
  8
0
100
AcDbBlockEnd
  0
BLOCK
  5
24
330
23
100
AcDbEntity
  8
0
100
AcDbBlockBegin
  2
*Paper_Space0
 70
     0
 10
0.0
 20
0.0
 30
0.0
  3
*Paper_Space0
  1

  0
ENDBLK
  5
25
330
23
100
AcDbEntity
  8
0
100
AcDbBlockEnd
  0
BLOCK
  5
11A
330
119
100
AcDbEntity
  8
0
100
AcDbBlockBegin
  2
SW_CENTERMARKSYMBOL_0
 70
     0
 10
0.0
 20
0.0
 30
0.0
  3
SW_CENTERMARKSYMBOL_0
  1

  0
LINE
  5
11C
330
119
100
AcDbEntity
  8
0
  6
Continuous
 62
     0
370
    18
100
AcDbLine
 10
0.0
 20
0.0
 30
0.0
 11
0.0
 21
2.5
 31
0.0
  0
LINE
  5
11D
330
119
100
AcDbEntity
  8
0
  6
Continuous
 62
     0
370
    18
100
AcDbLine
 10
0.0
 20
0.0
 30
0.0
 11
-2.5
 21
0.0
 31
0.0
  0
LINE
  5
11E
330
119
100
AcDbEntity
  8
0
  6
Continuous
 62
     0
370
    18
100
AcDbLine
 10
0.0
 20
0.0
 30
0.0
 11
0.0
 21
-2.5
 31
0.0
  0
LINE
  5
11F
330
119
100
AcDbEntity
  8
0
  6
Continuous
 62
     0
370
    18
100
AcDbLine
 10
0.0
 20
0.0
 30
0.0
 11
2.5
 21
0.0
 31
0.0
  0
LINE
  5
120
330
119
100
AcDbEntity
  8
0
  6
Continuous
 62
     0
370
    18
100
AcDbLine
 10
0.0
 20
5.0
 30
0.0
 11
0.0
 21
10.35
 31
0.0
  0
LINE
  5
121
330
119
100
AcDbEntity
  8
0
  6
Continuous
 62
     0
370
    18
100
AcDbLine
 10
-5.0
 20
0.0
 30
0.0
 11
-10.35
 21
0.0
 31
0.0
  0
LINE
  5
122
330
119
100
AcDbEntity
  8
0
  6
Continuous
 62
     0
370
    18
100
AcDbLine
 10
0.0
 20
-5.0
 30
0.0
 11
0.0
 21
-10.35
 31
0.0
  0
LINE
  5
123
330
119
100
AcDbEntity
  8
0
  6
Continuous
 62
     0
370
    18
100
AcDbLine
 10
5.0
 20
0.0
 30
0.0
 11
10.35
 21
0.0
 31
0.0
  0
ENDBLK
  5
11B
330
119
100
AcDbEntity
  8
0
100
AcDbBlockEnd
  0
ENDSEC
  0
SECTION
  2
ENTITIES
  0
MTEXT
  5
74
330
1F
100
AcDbEntity
  8
0
  6
Continuous
 62
     7
370
     0
100
AcDbMText
 10
189.1201140301
 20
99.5082702501
 30
0.0
 40
4.7625
 41
0.0
 71
     1
 72
     1
  1
HS-1209R
  7
SLDTEXTSTYLE0
 73
     1
 44
1.0
  0
LINE
  5
75
330
1F
100
AcDbEntity
  8
0
  6
Continuous
 62
     7
370
    25
100
AcDbLine
 10
179.1248597307
 20
73.6106172693
 30
0.0
 11
183.1248597307
 21
74.2606172693
 31
0.0
  0
LINE
  5
76
330
1F
100
AcDbEntity
  8
0
  6
Continuous
 62
     7
370
    25
100
AcDbLine
 10
183.1248597307
 20
81.9606172693
 30
0.0
 11
179.1248597307
 21
82.6106172693
 31
0.0
  0
LINE
  5
77
330
1F
100
AcDbEntity
  8
0
  6
Continuous
 62
     7
370
    25
100
AcDbLine
 10
183.1248597307
 20
73.6106172693
 30
0.0
 11
187.9187517666
 21
74.1771681463
 31
0.0
  0
LINE
  5
78
330
1F
100
AcDbEntity
  8
0
  6
Continuous
 62
     7
370
    25
100
AcDbLine
 10
187.9187517666
 20
82.0440663923
 30
0.0
 11
183.1248597307
 21
82.6106172693
 31
0.0
  0
LINE
  5
79
330
1F
100
AcDbEntity
  8
0
  6
Continuous
 62
     7
370
    25
100
AcDbLine
 10
175.1248597307
 20
73.6106172693
 30
0.0
 11
179.1248597307
 21
74.2606172693
 31
0.0
  0
LINE
  5
7A
330
1F
100
AcDbEntity
  8
0
  6
Continuous
 62
     7
370
    25
100
AcDbLine
 10
179.1248597307
 20
81.9606172693
 30
0.0
 11
175.1248597307
 21
82.6106172693
 31
0.0
  0
LINE
  5
7B
330
1F
100
AcDbEntity
  8
0
  6
Continuous
 62
     7
370
    25
100
AcDbLine
 10
171.1248597307
 20
73.6106172693
 30
0.0
 11
175.1248597307
 21
74.2606172693
 31
0.0
  0
LINE
  5
7C
330
1F
100
AcDbEntity
  8
0
  6
Continuous
 62
     7
370
    25
100
AcDbLine
 10
175.1248597307
 20
81.9606172693
 30
0.0
 11
171.1248597307
 21
82.6106172693
 31
0.0
  0
LINE
  5
7D
330
1F
100
AcDbEntity
  8
0
  6
Continuous
 62
     7
370
    25
100
AcDbLine
 10
167.1248597307
 20
73.6106172693
 30
0.0
 11
171.1248597307
 21
74.2606172693
 31
0.0
  0
LINE
  5
7E
330
1F
100
AcDbEntity
  8
0
  6
Continuous
 62
     7
370
    25
100
AcDbLine
 10
171.1248597307
 20
81.9606172693
 30
0.0
 11
167.1248597307
 21
82.6106172693
 31
0.0
  0
LINE
  5
7F
330
1F
100
AcDbEntity
  8
0
  6
Continuous
 62
     7
370
    25
100
AcDbLine
 10
162.7052444885
 20
82.6106172693
 30
0.0
 11
162.6248597307
 21
82.3106172693
 31
0.0
  0
LINE
  5
80
330
1F
100
AcDbEntity
  8
0
  6
Continuous
 62
     7
370
    25
100
AcDbLine
 10
162.6248597307
 20
73.9106172693
 30
0.0
 11
162.7052444885
 21
73.6106172693
 31
0.0
  0
LINE
  5
81
330
1F
100
AcDbEntity
  8
0
  6
Continuous
 62
     7
370
    25
100
AcDbLine
 10
162.7052444885
 20
73.6106172693
 30
0.0
 11
167.1248597307
 21
73.6106172693
 31
0.0
  0
LINE
  5
82
330
1F
100
AcDbEntity
  8
0
  6
Continuous
 62
     7
370
    25
100
AcDbLine
 10
167.1248597307
 20
82.6106172693
 30
0.0
 11
162.7052444885
 21
82.6106172693
 31
0.0
  0
ARC
  5
83
330
1F
100
AcDbEntity
  8
0
  6
Continuous
 62
     7
370
    25
100
AcDbCircle
 10
187.8248597307
 20
74.9716392191
 30
0.0
 40
0.7999999999999993
100
AcDbArc
 50
276.7400560979
 51
0.0
  0
ARC
  5
84
330
1F
100
AcDbEntity
  8
0
  6
Continuous
 62
     7
370
    25
100
AcDbCircle
 10
187.8248597307
 20
81.2495953195
 30
0.0
 40
0.7999999999999993
100
AcDbArc
 50
0.0
 51
83.2599439021
  0
LINE
  5
85
330
1F
100
AcDbEntity
  8
0
  6
Continuous
 62
     7
370
    25
100
AcDbLine
 10
159.8237260105
 20
68.8730129623
 30
0.0
 11
160.6248597307
 21
70.2606172693
 31
0.0
  0
LINE
  5
86
330
1F
100
AcDbEntity
  8
0
  6
Continuous
 62
     7
370
    25
100
AcDbLine
 10
160.6248597307
 20
85.9606172693
 30
0.0
 11
159.8237260105
 21
87.3482215763
 31
0.0
  0
LINE
  5
87
330
1F
100
AcDbEntity
  8
0
  6
Continuous
 62
     7
370
    25
100
AcDbLine
 10
152.4259934509
 20
87.3482215763
 30
0.0
 11
151.6248597307
 21
85.9606172693
 31
0.0
  0
LINE
  5
88
330
1F
100
AcDbEntity
  8
0
  6
Continuous
 62
     7
370
    25
100
AcDbLine
 10
151.6248597307
 20
70.2606172693
 30
0.0
 11
152.4259934509
 21
68.8730129623
 31
0.0
  0
LINE
  5
89
330
1F
100
AcDbEntity
  8
0
  6
Continuous
 62
     7
370
    25
100
AcDbLine
 10
151.6248597307
 20
85.9606172693
 30
0.0
 11
149.9248597307
 21
85.9606172693
 31
0.0
  0
LINE
  5
8A
330
1F
100
AcDbEntity
  8
0
  6
Continuous
 62
     7
370
    25
100
AcDbLine
 10
149.9248597307
 20
70.2606172693
 30
0.0
 11
151.6248597307
 21
70.2606172693
 31
0.0
  0
ARC
  5
8B
330
1F
100
AcDbEntity
  8
0
  6
Continuous
 62
     7
370
    25
100
AcDbCircle
 10
149.9248597307
 20
70.5606172693
 30
0.0
 40
0.3000000000000398
100
AcDbArc
 50
180.0
 51
270.0
  0
ARC
  5
8C
330
1F
100
AcDbEntity
  8
0
  6
Continuous
 62
     7
370
    25
100
AcDbCircle
 10
149.9248597307
 20
85.6606172693
 30
0.0
 40
0.3000000000000398
100
AcDbArc
 50
90.0
 51
180.0
  0
LINE
  5
8D
330
1F
100
AcDbEntity
  8
0
  6
Continuous
 62
     7
370
    25
100
AcDbLine
 10
160.6248597307
 20
70.2606172693
 30
0.0
 11
162.3248597307
 21
70.2606172693
 31
0.0
  0
LINE
  5
8E
330
1F
100
AcDbEntity
  8
0
  6
Continuous
 62
     7
370
    25
100
AcDbLine
 10
162.3248597307
 20
85.9606172693
 30
0.0
 11
160.6248597307
 21
85.9606172693
 31
0.0
  0
ARC
  5
8F
330
1F
100
AcDbEntity
  8
0
  6
Continuous
 62
     7
370
    25
100
AcDbCircle
 10
162.3248597307
 20
85.6606172693
 30
0.0
 40
0.3000000000000114
100
AcDbArc
 50
0.0
 51
90.0
  0
ARC
  5
90
330
1F
100
AcDbEntity
  8
0
  6
Continuous
 62
     7
370
    25
100
AcDbCircle
 10
162.3248597307
 20
70.5606172693
 30
0.0
 40
0.3000000000000114
100
AcDbArc
 50
270.0
 51
0.0
  0
LINE
  5
91
330
1F
100
AcDbEntity
  8
0
  6
Continuous
 62
     7
370
    25
100
AcDbLine
 10
156.1248597307
 20
69.0730129623
 30
0.0
 11
156.1784495692
 21
68.8730129623
 31
0.0
  0
LINE
  5
92
330
1F
100
AcDbEntity
  8
0
  6
Continuous
 62
     7
370
    25
100
AcDbLine
 10
156.0712698922
 20
68.8730129623
 30
0.0
 11
156.1248597307
 21
69.0730129623
 31
0.0
  0
LINE
  5
93
330
1F
100
AcDbEntity
  8
0
  6
Continuous
 62
     7
370
    25
100
AcDbLine
 10
156.1248597307
 20
87.1482215763
 30
0.0
 11
156.0712698922
 21
87.3482215763
 31
0.0
  0
LINE
  5
94
330
1F
100
AcDbEntity
  8
0
  6
Continuous
 62
     7
370
    25
100
AcDbLine
 10
156.1784495692
 20
87.3482215763
 30
0.0
 11
156.1248597307
 21
87.1482215763
 31
0.0
  0
LINE
  5
95
330
1F
100
AcDbEntity
  8
0
  6
Continuous
 62
     7
370
    25
100
AcDbLine
 10
145.6906631876
 20
70.0277135006
 30
0.0
 11
146.4602155373
 21
71.3606172693
 31
0.0
  0
LINE
  5
96
330
1F
100
AcDbEntity
  8
0
  6
Continuous
 62
     7
370
    25
100
AcDbLine
 10
146.4602155373
 20
84.8606172693
 30
0.0
 11
145.6906631876
 21
86.1935210379
 31
0.0
  0
LINE
  5
97
330
1F
100
AcDbEntity
  8
0
  6
Continuous
 62
     7
370
    25
100
AcDbLine
 10
141.4602155373
 20
84.8766172693
 30
0.0
 11
131.5495754303
 21
84.5669097659
 31
0.0
  0
LINE
  5
98
330
1F
100
AcDbEntity
  8
0
  6
Continuous
 62
     7
370
    25
100
AcDbLine
 10
131.5495754303
 20
71.6543247726
 30
0.0
 11
141.4602155373
 21
71.3446172693
 31
0.0
  0
LINE
  5
99
330
1F
100
AcDbEntity
  8
0
  6
Continuous
 62
     7
370
    25
100
AcDbLine
 10
149.4602155373
 20
84.6891172693
 30
0.0
 11
148.4602155373
 21
83.6891172693
 31
0.0
  0
LINE
  5
9A
330
1F
100
AcDbEntity
  8
0
  6
Continuous
 62
     7
370
    25
100
AcDbLine
 10
148.4602155373
 20
72.5321172693
 30
0.0
 11
149.4602155373
 21
71.5321172693
 31
0.0
  0
LINE
  5
9B
330
1F
100
AcDbEntity
  8
0
  6
Continuous
 62
     7
370
    25
100
AcDbLine
 10
149.4602155373
 20
71.5321172693
 30
0.0
 11
149.6248597307
 21
71.5321172693
 31
0.0
  0
LINE
  5
9C
330
1F
100
AcDbEntity
  8
0
  6
Continuous
 62
     7
370
    25
100
AcDbLine
 10
149.6248597307
 20
84.6891172693
 30
0.0
 11
149.4602155373
 21
84.6891172693
 31
0.0
  0
LINE
  5
9D
330
1F
100
AcDbEntity
  8
0
  6
Continuous
 62
     7
370
    25
100
AcDbLine
 10
131.5495754303
 20
84.5669097659
 30
0.0
 11
129.4602155373
 21
83.3606172693
 31
0.0
  0
LINE
  5
9E
330
1F
100
AcDbEntity
  8
0
  6
Continuous
 62
     7
370
    25
100
AcDbLine
 10
129.4602155373
 20
72.8606172693
 30
0.0
 11
131.5495754303
 21
71.6543247726
 31
0.0
  0
LINE
  5
9F
330
1F
100
AcDbEntity
  8
0
  6
Continuous
 62
     7
370
    25
100
AcDbLine
 10
146.4602155373
 20
72.7106172693
 30
0.0
 11
148.4602155373
 21
72.7106172693
 31
0.0
  0
LINE
  5
A0
330
1F
100
AcDbEntity
  8
0
  6
Continuous
 62
     7
370
    25
100
AcDbLine
 10
148.4602155373
 20
83.5106172693
 30
0.0
 11
146.4602155373
 21
83.5106172693
 31
0.0
  0
LINE
  5
A1
330
1F
100
AcDbEntity
  8
0
  6
Continuous
 62
     7
370
    25
100
AcDbLine
 10
143.9602155373
 20
70.2277135006
 30
0.0
 11
144.0138053758
 21
70.0277135006
 31
0.0
  0
LINE
  5
A2
330
1F
100
AcDbEntity
  8
0
  6
Continuous
 62
     7
370
    25
100
AcDbLine
 10
143.9066256988
 20
70.0277135006
 30
0.0
 11
143.9602155373
 21
70.2277135006
 31
0.0
  0
LINE
  5
A3
330
1F
100
AcDbEntity
  8
0
  6
Continuous
 62
     7
370
    25
100
AcDbLine
 10
144.0138053758
 20
86.1935210379
 30
0.0
 11
143.9602155373
 21
85.9935210379
 31
0.0
  0
LINE
  5
A4
330
1F
100
AcDbEntity
  8
0
  6
Continuous
 62
     7
370
    25
100
AcDbLine
 10
143.9602155373
 20
85.9935210379
 30
0.0
 11
143.9066256988
 21
86.1935210379
 31
0.0
  0
LINE
  5
A5
330
1F
100
AcDbEntity
  8
0
  6
Continuous
 62
     7
370
    25
100
AcDbLine
 10
179.1248597307
 20
78.1106172693
 30
0.0
 11
179.1248597307
 21
82.6106172693
 31
0.0
  0
LINE
  5
A6
330
1F
100
AcDbEntity
  8
0
  6
Continuous
 62
     7
370
    25
100
AcDbLine
 10
179.1248597307
 20
73.6106172693
 30
0.0
 11
179.1248597307
 21
78.1106172693
 31
0.0
  0
LINE
  5
A7
330
1F
100
AcDbEntity
  8
0
  6
Continuous
 62
     7
370
    25
100
AcDbLine
 10
183.1248597307
 20
78.1106172693
 30
0.0
 11
183.1248597307
 21
82.6106172693
 31
0.0
  0
LINE
  5
A8
330
1F
100
AcDbEntity
  8
0
  6
Continuous
 62
     7
370
    25
100
AcDbLine
 10
183.1248597307
 20
73.6106172693
 30
0.0
 11
183.1248597307
 21
78.1106172693
 31
0.0
  0
LINE
  5
A9
330
1F
100
AcDbEntity
  8
0
  6
Continuous
 62
     7
370
    25
100
AcDbLine
 10
175.1248597307
 20
78.1106172693
 30
0.0
 11
175.1248597307
 21
82.6106172693
 31
0.0
  0
LINE
  5
AA
330
1F
100
AcDbEntity
  8
0
  6
Continuous
 62
     7
370
    25
100
AcDbLine
 10
175.1248597307
 20
73.6106172693
 30
0.0
 11
175.1248597307
 21
78.1106172693
 31
0.0
  0
LINE
  5
AB
330
1F
100
AcDbEntity
  8
0
  6
Continuous
 62
     7
370
    25
100
AcDbLine
 10
171.1248597307
 20
78.1106172693
 30
0.0
 11
171.1248597307
 21
82.6106172693
 31
0.0
  0
LINE
  5
AC
330
1F
100
AcDbEntity
  8
0
  6
Continuous
 62
     7
370
    25
100
AcDbLine
 10
171.1248597307
 20
73.6106172693
 30
0.0
 11
171.1248597307
 21
78.1106172693
 31
0.0
  0
LINE
  5
AD
330
1F
100
AcDbEntity
  8
0
  6
Continuous
 62
     7
370
    25
100
AcDbLine
 10
167.1248597307
 20
78.1106172693
 30
0.0
 11
167.1248597307
 21
82.6106172693
 31
0.0
  0
LINE
  5
AE
330
1F
100
AcDbEntity
  8
0
  6
Continuous
 62
     7
370
    25
100
AcDbLine
 10
167.1248597307
 20
73.6106172693
 30
0.0
 11
167.1248597307
 21
78.1106172693
 31
0.0
  0
LINE
  5
AF
330
1F
100
AcDbEntity
  8
0
  6
Continuous
 62
     7
370
    25
100
AcDbLine
 10
162.7052444885
 20
78.1106172693
 30
0.0
 11
162.7052444885
 21
82.6106172693
 31
0.0
  0
LINE
  5
B0
330
1F
100
AcDbEntity
  8
0
  6
Continuous
 62
     7
370
    25
100
AcDbLine
 10
162.7052444885
 20
73.6106172693
 30
0.0
 11
162.7052444885
 21
78.1106172693
 31
0.0
  0
LINE
  5
B1
330
1F
100
AcDbEntity
  8
0
  6
Continuous
 62
     7
370
    25
100
AcDbLine
 10
188.6248597307
 20
78.1106172693
 30
0.0
 11
188.6248597307
 21
74.9716392191
 31
0.0
  0
LINE
  5
B2
330
1F
100
AcDbEntity
  8
0
  6
Continuous
 62
     7
370
    25
100
AcDbLine
 10
188.6248597307
 20
81.2495953195
 30
0.0
 11
188.6248597307
 21
78.1106172693
 31
0.0
  0
LINE
  5
B3
330
1F
100
AcDbEntity
  8
0
  6
Continuous
 62
     7
370
    25
100
AcDbLine
 10
156.1248597307
 20
73.284692066
 30
0.0
 11
156.0712698922
 21
73.4918151158
 31
0.0
  0
LINE
  5
B4
330
1F
100
AcDbEntity
  8
0
  6
Continuous
 62
     7
370
    25
100
AcDbLine
 10
156.0712698922
 20
73.4918151158
 30
0.0
 11
156.1248597307
 21
73.9060612154
 31
0.0
  0
LINE
  5
B5
330
1F
100
AcDbEntity
  8
0
  6
Continuous
 62
     7
370
    25
100
AcDbLine
 10
156.1248597307
 20
73.284692066
 30
0.0
 11
156.1248597307
 21
73.9060612154
 31
0.0
  0
LINE
  5
B6
330
1F
100
AcDbEntity
  8
0
  6
Continuous
 62
     7
370
    25
100
AcDbLine
 10
156.1784495692
 20
73.4918151158
 30
0.0
 11
156.1248597307
 21
73.284692066
 31
0.0
  0
LINE
  5
B7
330
1F
100
AcDbEntity
  8
0
  6
Continuous
 62
     7
370
    25
100
AcDbLine
 10
156.1248597307
 20
73.9060612154
 30
0.0
 11
156.1784495692
 21
73.4918151158
 31
0.0
  0
SPLINE
  5
B8
330
1F
100
AcDbEntity
  8
0
  6
Continuous
 62
     7
370
    25
100
AcDbSpline
210
0.0
220
0.0
230
1.0
 70
     8
 71
     3
 72
    15
 73
    11
 74
     0
 42
0.000000001
 43
0.00000001
 40
0.0
 40
0.0
 40
0.0
 40
0.0
 40
0.1323049664163416
 40
0.2645725257576573
 40
0.3997989469058977
 40
0.5350009659368399
 40
0.6501921044151454
 40
0.7654012116808045
 40
0.8826892657702333
 40
1.0
 40
1.0
 40
1.0
 40
1.0
 10
159.8237260105383
 20
82.72941942280578
 30
0.0
 10
159.9324975380815
 20
82.9289696408749
 30
0.0
 10
160.1500098397895
 20
83.32801365743815
 30
0.0
 10
160.3840450325851
 20
83.94250607293264
 30
0.0
 10
160.5247642885341
 20
84.56858174493956
 30
0.0
 10
160.5526335722577
 20
85.1719794981306
 30
0.0
 10
160.4803317739032
 20
85.74277970014667
 30
0.0
 10
160.3321817939241
 20
86.28147558146048
 30
0.0
 10
160.1148616352195
 20
86.81773587473404
 30
0.0
 10
159.9207774732109
 20
87.17138161274057
 30
0.0
 10
159.8237260105383
 20
87.34822157632269
 30
0.0
  0
SPLINE
  5
B9
330
1F
100
AcDbEntity
  8
0
  6
Continuous
 62
     7
370
    25
100
AcDbSpline
210
0.0
220
0.0
230
1.0
 70
     8
 71
     3
 72
    15
 73
    11
 74
     0
 42
0.000000001
 43
0.00000001
 40
0.0
 40
0.0
 40
0.0
 40
0.0
 40
0.13230496641634
 40
0.264572525757654
 40
0.3997989469058927
 40
0.5350009659368333
 40
0.6501921044151404
 40
0.765401211680801
 40
0.8826892657702317
 40
1.0
 40
1.0
 40
1.0
 40
1.0
 10
159.8237260105383
 20
68.87301296225465
 30
0.0
 10
159.9324975380815
 20
69.07256318032378
 30
0.0
 10
160.1500098397895
 20
69.47160719688704
 30
0.0
 10
160.3840450325851
 20
70.08609961238156
 30
0.0
 10
160.5247642885341
 20
70.7121752843885
 30
0.0
 10
160.5526335722577
 20
71.31557303757953
 30
0.0
 10
160.4803317739032
 20
71.88637323959564
 30
0.0
 10
160.3321817939241
 20
72.42506912090948
 30
0.0
 10
160.1148616352195
 20
72.96132941418306
 30
0.0
 10
159.9207774732109
 20
73.31497515218962
 30
0.0
 10
159.8237260105383
 20
73.49181511577173
 30
0.0
  0
SPLINE
  5
BA
330
1F
100
AcDbEntity
  8
0
  6
Continuous
 62
     7
370
    25
100
AcDbSpline
210
0.0
220
0.0
230
1.0
 70
     8
 71
     3
 72
    16
 73
    12
 74
     0
 42
0.000000001
 43
0.00000001
 40
0.0
 40
0.0
 40
0.0
 40
0.0
 40
0.1051935664218023
 40
0.2312918996997604
 40
0.3573572448607639
 40
0.4865103187026856
 40
0.6156604465364214
 40
0.7112032284208155
 40
0.806756420180822
 40
0.9033731629575484
 40
0.9999999999999999
 40
0.9999999999999999
 40
0.9999999999999999
 40
0.9999999999999999
 10
159.8237260105383
 20
73.49181511577173
 30
0.0
 10
159.9111683158041
 20
73.80884295668092
 30
0.0
 10
160.1034300442254
 20
74.50590052470343
 30
0.0
 10
160.3295439679395
 20
75.60081811297857
 30
0.0
 10
160.4920231424113
 20
76.78268156767858
 30
0.0
 10
160.5545555396966
 20
77.98405121353555
 30
0.0
 10
160.5169820849746
 20
79.09087715804412
 30
0.0
 10
160.4080702759367
 20
80.08656796773516
 30
0.0
 10
160.2588611738276
 20
80.97382022219651
 30
0.0
 10
160.0655800372181
 20
81.85609091800018
 30
0.0
 10
159.9043468268225
 20
82.43829978378906
 30
0.0
 10
159.8237260105383
 20
82.72941942280578
 30
0.0
  0
LINE
  5
BB
330
1F
100
AcDbEntity
  8
0
  6
Continuous
 62
     7
370
    25
100
AcDbLine
 10
160.6248597307
 20
78.1106172693
 30
0.0
 11
160.6248597307
 21
85.9606172693
 31
0.0
  0
LINE
  5
BC
330
1F
100
AcDbEntity
  8
0
  6
Continuous
 62
     7
370
    25
100
AcDbLine
 10
160.6248597307
 20
70.2606172693
 30
0.0
 11
160.6248597307
 21
78.1106172693
 31
0.0
  0
SPLINE
  5
BD
330
1F
100
AcDbEntity
  8
0
  6
Continuous
 62
     7
370
    25
100
AcDbSpline
210
0.0
220
0.0
230
1.0
 70
     8
 71
     3
 72
    16
 73
    12
 74
     0
 42
0.000000001
 43
0.00000001
 40
0.0
 40
0.0
 40
0.0
 40
0.0
 40
0.1051935664218023
 40
0.2312918996997604
 40
0.3573572448607639
 40
0.4865103187026856
 40
0.6156604465364214
 40
0.7112032284208155
 40
0.806756420180822
 40
0.9033731629575484
 40
0.9999999999999999
 40
0.9999999999999999
 40
0.9999999999999999
 40
0.9999999999999999
 10
152.4259934509278
 20
73.49181511577173
 30
0.0
 10
152.338551145662
 20
73.80884295668092
 30
0.0
 10
152.1462894172406
 20
74.50590052470343
 30
0.0
 10
151.9201754935266
 20
75.60081811297857
 30
0.0
 10
151.7576963190548
 20
76.78268156767858
 30
0.0
 10
151.6951639217695
 20
77.98405121353555
 30
0.0
 10
151.7327373764915
 20
79.09087715804412
 30
0.0
 10
151.8416491855293
 20
80.08656796773516
 30
0.0
 10
151.9908582876385
 20
80.97382022219651
 30
0.0
 10
152.184139424248
 20
81.85609091800018
 30
0.0
 10
152.3453726346435
 20
82.43829978378906
 30
0.0
 10
152.4259934509278
 20
82.72941942280578
 30
0.0
  0
SPLINE
  5
BE
330
1F
100
AcDbEntity
  8
0
  6
Continuous
 62
     7
370
    25
100
AcDbSpline
210
0.0
220
0.0
230
1.0
 70
     8
 71
     3
 72
    15
 73
    11
 74
     0
 42
0.000000001
 43
0.00000001
 40
0.0
 40
0.0
 40
0.0
 40
0.0
 40
0.13230496641634
 40
0.2645725257576541
 40
0.3997989469058928
 40
0.5350009659368333
 40
0.6501921044151404
 40
0.765401211680801
 40
0.8826892657702317
 40
1.0
 40
1.0
 40
1.0
 40
1.0
 10
152.4259934509278
 20
68.87301296225465
 30
0.0
 10
152.3172219233846
 20
69.07256318032378
 30
0.0
 10
152.0997096216766
 20
69.47160719688704
 30
0.0
 10
151.865674428881
 20
70.08609961238156
 30
0.0
 10
151.7249551729319
 20
70.7121752843885
 30
0.0
 10
151.6970858892084
 20
71.31557303757953
 30
0.0
 10
151.7693876875629
 20
71.88637323959563
 30
0.0
 10
151.9175376675419
 20
72.42506912090948
 30
0.0
 10
152.1348578262466
 20
72.96132941418306
 30
0.0
 10
152.3289419882552
 20
73.31497515218962
 30
0.0
 10
152.4259934509278
 20
73.49181511577173
 30
0.0
  0
SPLINE
  5
BF
330
1F
100
AcDbEntity
  8
0
  6
Continuous
 62
     7
370
    25
100
AcDbSpline
210
0.0
220
0.0
230
1.0
 70
     8
 71
     3
 72
    15
 73
    11
 74
     0
 42
0.000000001
 43
0.00000001
 40
0.0
 40
0.0
 40
0.0
 40
0.0
 40
0.1323049664163416
 40
0.2645725257576573
 40
0.3997989469058977
 40
0.5350009659368399
 40
0.6501921044151454
 40
0.7654012116808045
 40
0.8826892657702334
 40
1.0
 40
1.0
 40
1.0
 40
1.0
 10
152.4259934509278
 20
82.72941942280578
 30
0.0
 10
152.3172219233846
 20
82.9289696408749
 30
0.0
 10
152.0997096216766
 20
83.32801365743813
 30
0.0
 10
151.865674428881
 20
83.94250607293264
 30
0.0
 10
151.724955172932
 20
84.56858174493956
 30
0.0
 10
151.6970858892084
 20
85.1719794981306
 30
0.0
 10
151.7693876875629
 20
85.74277970014667
 30
0.0
 10
151.917537667542
 20
86.28147558146048
 30
0.0
 10
152.1348578262466
 20
86.81773587473404
 30
0.0
 10
152.3289419882552
 20
87.17138161274057
 30
0.0
 10
152.4259934509278
 20
87.34822157632269
 30
0.0
  0
LINE
  5
C0
330
1F
100
AcDbEntity
  8
0
  6
Continuous
 62
     7
370
    25
100
AcDbLine
 10
151.6248597307
 20
78.1106172693
 30
0.0
 11
151.6248597307
 21
85.9606172693
 31
0.0
  0
LINE
  5
C1
330
1F
100
AcDbEntity
  8
0
  6
Continuous
 62
     7
370
    25
100
AcDbLine
 10
151.6248597307
 20
70.2606172693
 30
0.0
 11
151.6248597307
 21
78.1106172693
 31
0.0
  0
LINE
  5
C2
330
1F
100
AcDbEntity
  8
0
  6
Continuous
 62
     7
370
    25
100
AcDbLine
 10
152.4259934509
 20
73.4918151158
 30
0.0
 11
156.0712698922
 21
73.4918151158
 31
0.0
  0
LINE
  5
C3
330
1F
100
AcDbEntity
  8
0
  6
Continuous
 62
     7
370
    25
100
AcDbLine
 10
152.4259934509
 20
82.7294194228
 30
0.0
 11
156.0712698922
 21
82.7294194228
 31
0.0
  0
LINE
  5
C4
330
1F
100
AcDbEntity
  8
0
  6
Continuous
 62
     7
370
    25
100
AcDbLine
 10
156.1248597307
 20
82.3151733232
 30
0.0
 11
156.0712698922
 21
82.7294194228
 31
0.0
  0
LINE
  5
C5
330
1F
100
AcDbEntity
  8
0
  6
Continuous
 62
     7
370
    25
100
AcDbLine
 10
156.1784495692
 20
82.7294194228
 30
0.0
 11
156.1248597307
 21
82.3151733232
 31
0.0
  0
LINE
  5
C6
330
1F
100
AcDbEntity
  8
0
  6
Continuous
 62
     7
370
    25
100
AcDbLine
 10
156.1784495692
 20
82.7294194228
 30
0.0
 11
159.8237260105
 21
82.7294194228
 31
0.0
  0
LINE
  5
C7
330
1F
100
AcDbEntity
  8
0
  6
Continuous
 62
     7
370
    25
100
AcDbLine
 10
156.1784495692
 20
73.4918151158
 30
0.0
 11
159.8237260105
 21
73.4918151158
 31
0.0
  0
LINE
  5
C8
330
1F
100
AcDbEntity
  8
0
  6
Continuous
 62
     7
370
    25
100
AcDbLine
 10
152.4259934509
 20
68.8730129623
 30
0.0
 11
156.0712698922
 21
68.8730129623
 31
0.0
  0
LINE
  5
C9
330
1F
100
AcDbEntity
  8
0
  6
Continuous
 62
     7
370
    25
100
AcDbLine
 10
156.1784495692
 20
68.8730129623
 30
0.0
 11
159.8237260105
 21
68.8730129623
 31
0.0
  0
LINE
  5
CA
330
1F
100
AcDbEntity
  8
0
  6
Continuous
 62
     7
370
    25
100
AcDbLine
 10
156.1248597307
 20
69.0801360121
 30
0.0
 11
156.1784495692
 21
68.8730129623
 31
0.0
  0
LINE
  5
CB
330
1F
100
AcDbEntity
  8
0
  6
Continuous
 62
     7
370
    25
100
AcDbLine
 10
156.0712698922
 20
68.8730129623
 30
0.0
 11
156.1248597307
 21
69.0801360121
 31
0.0
  0
LINE
  5
CC
330
1F
100
AcDbEntity
  8
0
  6
Continuous
 62
     7
370
    25
100
AcDbLine
 10
156.0712698922
 20
82.7294194228
 30
0.0
 11
156.1248597307
 21
82.9365424726
 31
0.0
  0
LINE
  5
CD
330
1F
100
AcDbEntity
  8
0
  6
Continuous
 62
     7
370
    25
100
AcDbLine
 10
156.1248597307
 20
82.3151733232
 30
0.0
 11
156.1248597307
 21
82.9365424726
 31
0.0
  0
LINE
  5
CE
330
1F
100
AcDbEntity
  8
0
  6
Continuous
 62
     7
370
    25
100
AcDbLine
 10
156.1248597307
 20
82.9365424726
 30
0.0
 11
156.1784495692
 21
82.7294194228
 31
0.0
  0
LINE
  5
CF
330
1F
100
AcDbEntity
  8
0
  6
Continuous
 62
     7
370
    25
100
AcDbLine
 10
152.4259934509
 20
87.3482215763
 30
0.0
 11
156.0712698922
 21
87.3482215763
 31
0.0
  0
LINE
  5
D0
330
1F
100
AcDbEntity
  8
0
  6
Continuous
 62
     7
370
    25
100
AcDbLine
 10
156.1248597307
 20
87.1410985265
 30
0.0
 11
156.0712698922
 21
87.3482215763
 31
0.0
  0
LINE
  5
D1
330
1F
100
AcDbEntity
  8
0
  6
Continuous
 62
     7
370
    25
100
AcDbLine
 10
156.1784495692
 20
87.3482215763
 30
0.0
 11
156.1248597307
 21
87.1410985265
 31
0.0
  0
LINE
  5
D2
330
1F
100
AcDbEntity
  8
0
  6
Continuous
 62
     7
370
    25
100
AcDbLine
 10
156.1784495692
 20
87.3482215763
 30
0.0
 11
159.8237260105
 21
87.3482215763
 31
0.0
  0
LINE
  5
D3
330
1F
100
AcDbEntity
  8
0
  6
Continuous
 62
     7
370
    25
100
AcDbLine
 10
149.6248597307
 20
78.1106172693
 30
0.0
 11
149.6248597307
 21
85.6606172693
 31
0.0
  0
LINE
  5
D4
330
1F
100
AcDbEntity
  8
0
  6
Continuous
 62
     7
370
    25
100
AcDbLine
 10
149.6248597307
 20
70.5606172693
 30
0.0
 11
149.6248597307
 21
78.1106172693
 31
0.0
  0
LINE
  5
D5
330
1F
100
AcDbEntity
  8
0
  6
Continuous
 62
     7
370
    25
100
AcDbLine
 10
162.6248597307
 20
85.6606172693
 30
0.0
 11
162.6248597307
 21
70.5606172693
 31
0.0
  0
LINE
  5
D6
330
1F
100
AcDbEntity
  8
0
  6
Continuous
 62
     7
370
    25
100
AcDbLine
 10
156.1248597307
 20
69.0730129623
 30
0.0
 11
156.1248597307
 21
69.0801360121
 31
0.0
  0
LINE
  5
D7
330
1F
100
AcDbEntity
  8
0
  6
Continuous
 62
     7
370
    25
100
AcDbLine
 10
156.1248597307
 20
87.1410985265
 30
0.0
 11
156.1248597307
 21
87.1482215763
 31
0.0
  0
LINE
  5
D8
330
1F
100
AcDbEntity
  8
0
  6
Continuous
 62
     7
370
    25
100
AcDbLine
 10
141.4602155373
 20
74.069165385
 30
0.0
 11
143.9066256988
 21
74.069165385
 31
0.0
  0
LINE
  5
D9
330
1F
100
AcDbEntity
  8
0
  6
Continuous
 62
     7
370
    25
100
AcDbLine
 10
141.4602155373
 20
74.069165385
 30
0.0
 11
141.4602155373
 21
82.1520691536
 31
0.0
  0
LINE
  5
DA
330
1F
100
AcDbEntity
  8
0
  6
Continuous
 62
     7
370
    25
100
AcDbLine
 10
141.4602155373
 20
82.1520691536
 30
0.0
 11
143.9066256988
 21
82.1520691536
 31
0.0
  0
SPLINE
  5
DB
330
1F
100
AcDbEntity
  8
0
  6
Continuous
 62
     7
370
    25
100
AcDbSpline
210
0.0
220
0.0
230
1.0
 70
     8
 71
     3
 72
     8
 73
     4
 74
     0
 42
0.000000001
 43
0.00000001
 40
0.0
 40
0.0
 40
0.0
 40
0.0
 40
1.0
 40
1.0
 40
1.0
 40
1.0
 10
143.9602155372694
 20
81.73555476197348
 30
0.0
 10
143.9430934428744
 20
81.87451486816279
 30
0.0
 10
143.9252105715849
 20
82.01334977452022
 30
0.0
 10
143.9066256987832
 20
82.15206915361613
 30
0.0
  0
SPLINE
  5
DC
330
1F
100
AcDbEntity
  8
0
  6
Continuous
 62
     7
370
    25
100
AcDbSpline
210
0.0
220
0.0
230
1.0
 70
     8
 71
     3
 72
     8
 73
     4
 74
     0
 42
0.000000001
 43
0.00000001
 40
0.0
 40
0.0
 40
0.0
 40
0.0
 40
1.0
 40
1.0
 40
1.0
 40
1.0
 10
144.0138053757557
 20
82.15206915361614
 30
0.0
 10
143.9952132676025
 20
82.0132957691211
 30
0.0
 10
143.977330790209
 20
81.87445934403354
 30
0.0
 10
143.9602155372694
 20
81.73555476197348
 30
0.0
  0
LINE
  5
DD
330
1F
100
AcDbEntity
  8
0
  6
Continuous
 62
     7
370
    25
100
AcDbLine
 10
144.0138053758
 20
82.1520691536
 30
0.0
 11
145.6906631876
 21
82.1520691536
 31
0.0
  0
SPLINE
  5
DE
330
1F
100
AcDbEntity
  8
0
  6
Continuous
 62
     7
370
    25
100
AcDbSpline
210
0.0
220
0.0
230
1.0
 70
     8
 71
     3
 72
    14
 73
    10
 74
     0
 42
0.000000001
 43
0.00000001
 40
0.0
 40
0.0
 40
0.0
 40
0.0
 40
0.2500000000000001
 40
0.2500000000000001
 40
0.5000000000000001
 40
0.5000000000000001
 40
0.7500000000000002
 40
0.7500000000000002
 40
1.0
 40
1.0
 40
1.0
 40
1.0
 10
145.6906631876328
 20
74.06916538496135
 30
0.0
 10
145.8806817679041
 20
74.72740905578544
 30
0.0
 10
146.0397251194124
 20
75.40053695595022
 30
0.0
 10
146.2571894312078
 20
76.74942006395884
 30
0.0
 10
146.3159628665947
 20
77.42821032227488
 30
0.0
 10
146.3157928861113
 20
78.79603761411241
 30
0.0
 10
146.255275196848
 20
79.48867878382764
 30
0.0
 10
146.0362786184777
 20
80.83696054325199
 30
0.0
 10
145.8792866131085
 20
81.49865844077306
 30
0.0
 10
145.6906631876328
 20
82.15206915361613
 30
0.0
  0
LINE
  5
DF
330
1F
100
AcDbEntity
  8
0
  6
Continuous
 62
     7
370
    25
100
AcDbLine
 10
144.0138053758
 20
74.069165385
 30
0.0
 11
145.6906631876
 21
74.069165385
 31
0.0
  0
SPLINE
  5
E0
330
1F
100
AcDbEntity
  8
0
  6
Continuous
 62
     7
370
    25
100
AcDbSpline
210
0.0
220
0.0
230
1.0
 70
     8
 71
     3
 72
     8
 73
     4
 74
     0
 42
0.000000001
 43
0.00000001
 40
0.0
 40
0.0
 40
0.0
 40
0.0
 40
1.0
 40
1.0
 40
1.0
 40
1.0
 10
143.9602155372694
 20
74.485679776604
 30
0.0
 10
143.9773376316645
 20
74.3467196704147
 30
0.0
 10
143.9952205029541
 20
74.20788476405725
 30
0.0
 10
144.0138053757557
 20
74.06916538496135
 30
0.0
  0
SPLINE
  5
E1
330
1F
100
AcDbEntity
  8
0
  6
Continuous
 62
     7
370
    25
100
AcDbSpline
210
0.0
220
0.0
230
1.0
 70
     8
 71
     3
 72
     8
 73
     4
 74
     0
 42
0.000000001
 43
0.00000001
 40
0.0
 40
0.0
 40
0.0
 40
0.0
 40
1.0
 40
1.0
 40
1.0
 40
1.0
 10
143.9066256987832
 20
74.06916538496135
 30
0.0
 10
143.9252178069364
 20
74.20793876945639
 30
0.0
 10
143.9431002843299
 20
74.34677519454394
 30
0.0
 10
143.9602155372694
 20
74.485679776604
 30
0.0
  0
SPLINE
  5
E2
330
1F
100
AcDbEntity
  8
0
  6
Continuous
 62
     7
370
    25
100
AcDbSpline
210
0.0
220
0.0
230
1.0
 70
     8
 71
     3
 72
     8
 73
     4
 74
     0
 42
0.000000001
 43
0.00000001
 40
0.0
 40
0.0
 40
0.0
 40
0.0
 40
1.0
 40
1.0
 40
1.0
 40
1.0
 10
144.0138053757557
 20
74.06916538496135
 30
0.0
 10
143.995214236796
 20
73.99978230979303
 30
0.0
 10
143.9773317060132
 20
73.9303641964281
 30
0.0
 10
143.9602155372694
 20
73.86090818914
 30
0.0
  0
LINE
  5
E3
330
1F
100
AcDbEntity
  8
0
  6
Continuous
 62
     7
370
    25
100
AcDbLine
 10
143.9602155373
 20
73.8609081891
 30
0.0
 11
143.9602155373
 21
74.4856797766
 31
0.0
  0
LINE
  5
E4
330
1F
100
AcDbEntity
  8
0
  6
Continuous
 62
     7
370
    25
100
AcDbLine
 10
141.4602155373
 20
70.0277135006
 30
0.0
 11
143.9066256988
 21
70.0277135006
 31
0.0
  0
LINE
  5
E5
330
1F
100
AcDbEntity
  8
0
  6
Continuous
 62
     7
370
    25
100
AcDbLine
 10
141.4602155373
 20
70.0277135006
 30
0.0
 11
141.4602155373
 21
74.069165385
 31
0.0
  0
SPLINE
  5
E6
330
1F
100
AcDbEntity
  8
0
  6
Continuous
 62
     7
370
    25
100
AcDbSpline
210
0.0
220
0.0
230
1.0
 70
     8
 71
     3
 72
     8
 73
     4
 74
     0
 42
0.000000001
 43
0.00000001
 40
0.0
 40
0.0
 40
0.0
 40
0.0
 40
1.0
 40
1.0
 40
1.0
 40
1.0
 10
143.9602155372694
 20
73.86090818914002
 30
0.0
 10
143.943093121392
 20
73.93038954678413
 30
0.0
 10
143.9252102318738
 20
73.99980696323244
 30
0.0
 10
143.9066256987832
 20
74.06916538496135
 30
0.0
  0
SPLINE
  5
E7
330
1F
100
AcDbEntity
  8
0
  6
Continuous
 62
     7
370
    25
100
AcDbSpline
210
0.0
220
0.0
230
1.0
 70
     8
 71
     3
 72
    16
 73
    12
 74
     0
 42
0.000000001
 43
0.00000001
 40
0.0
 40
0.0
 40
0.0
 40
0.0
 40
0.2499999999999999
 40
0.2499999999999999
 40
0.4999999999999998
 40
0.4999999999999998
 40
0.6249999999999998
 40
0.6249999999999998
 40
0.7499999999999999
 40
0.7499999999999999
 40
1.0
 40
1.0
 40
1.0
 40
1.0
 10
145.6906631876333
 20
74.0691653849614
 30
0.0
 10
145.8811576586181
 20
73.73921928265479
 30
0.0
 10
146.0381596718312
 20
73.40686754134506
 30
0.0
 10
146.2556584826692
 20
72.73523244707134
 30
0.0
 10
146.3154378437392
 20
72.39589756330085
 30
0.0
 10
146.3160943445932
 20
71.88050179703065
 30
0.0
 10
146.3014805781097
 20
71.70789503653016
 30
0.0
 10
146.2444947202329
 20
71.36646062401162
 30
0.0
 10
146.2021804509736
 20
71.19688812126763
 30
0.0
 10
146.0387856310835
 20
70.69118962171613
 30
0.0
 10
145.88139510377
 20
70.35807087000813
 30
0.0
 10
145.690663187633
 20
70.0277135006339
 30
0.0
  0
LINE
  5
E8
330
1F
100
AcDbEntity
  8
0
  6
Continuous
 62
     7
370
    25
100
AcDbLine
 10
144.0138053758
 20
70.0277135006
 30
0.0
 11
145.6906631876
 21
70.0277135006
 31
0.0
  0
SPLINE
  5
E9
330
1F
100
AcDbEntity
  8
0
  6
Continuous
 62
     7
370
    25
100
AcDbSpline
210
0.0
220
0.0
230
1.0
 70
     8
 71
     3
 72
     8
 73
     4
 74
     0
 42
0.000000001
 43
0.00000001
 40
0.0
 40
0.0
 40
0.0
 40
0.0
 40
1.0
 40
1.0
 40
1.0
 40
1.0
 10
143.9602155372694
 20
70.23597069645524
 30
0.0
 10
143.977337953147
 20
70.16648933881113
 30
0.0
 10
143.9952208426651
 20
70.0970719223628
 30
0.0
 10
144.0138053757557
 20
70.0277135006339
 30
0.0
  0
SPLINE
  5
EA
330
1F
100
AcDbEntity
  8
0
  6
Continuous
 62
     7
370
    25
100
AcDbSpline
210
0.0
220
0.0
230
1.0
 70
     8
 71
     3
 72
     8
 73
     4
 74
     0
 42
0.000000001
 43
0.00000001
 40
0.0
 40
0.0
 40
0.0
 40
0.0
 40
1.0
 40
1.0
 40
1.0
 40
1.0
 10
143.9066256987832
 20
70.0277135006339
 30
0.0
 10
143.925216837743
 20
70.09709657580221
 30
0.0
 10
143.9430993685258
 20
70.16651468916716
 30
0.0
 10
143.9602155372694
 20
70.23597069645524
 30
0.0
  0
LINE
  5
EB
330
1F
100
AcDbEntity
  8
0
  6
Continuous
 62
     7
370
    25
100
AcDbLine
 10
143.9602155373
 20
81.735554762
 30
0.0
 11
143.9602155373
 21
82.3603263494
 31
0.0
  0
SPLINE
  5
EC
330
1F
100
AcDbEntity
  8
0
  6
Continuous
 62
     7
370
    25
100
AcDbSpline
210
0.0
220
0.0
230
1.0
 70
     8
 71
     3
 72
     8
 73
     4
 74
     0
 42
0.000000001
 43
0.00000001
 40
0.0
 40
0.0
 40
0.0
 40
0.0
 40
1.0
 40
1.0
 40
1.0
 40
1.0
 10
143.9602155372694
 20
82.36032634943746
 30
0.0
 10
143.977337953147
 20
82.29084499179336
 30
0.0
 10
143.9952208426651
 20
82.22142757534505
 30
0.0
 10
144.0138053757557
 20
82.15206915361613
 30
0.0
  0
SPLINE
  5
ED
330
1F
100
AcDbEntity
  8
0
  6
Continuous
 62
     7
370
    25
100
AcDbSpline
210
0.0
220
0.0
230
1.0
 70
     8
 71
     3
 72
    16
 73
    12
 74
     0
 42
0.000000001
 43
0.00000001
 40
0.0
 40
0.0
 40
0.0
 40
0.0
 40
0.25
 40
0.25
 40
0.5
 40
0.5
 40
0.625
 40
0.625
 40
0.75
 40
0.75
 40
1.0
 40
1.0
 40
1.0
 40
1.0
 10
145.6906631876333
 20
86.19352103794348
 30
0.0
 10
145.8811576586181
 20
85.86357493563689
 30
0.0
 10
146.0381596718312
 20
85.53122319432718
 30
0.0
 10
146.2556584826692
 20
84.85958810005347
 30
0.0
 10
146.3154378437392
 20
84.520253216283
 30
0.0
 10
146.3160943445932
 20
84.00485745001282
 30
0.0
 10
146.3014805781097
 20
83.83225068951234
 30
0.0
 10
146.2444947202329
 20
83.49081627699381
 30
0.0
 10
146.2021804509736
 20
83.32124377424984
 30
0.0
 10
146.0387856310834
 20
82.81554527469835
 30
0.0
 10
145.88139510377
 20
82.48242652299035
 30
0.0
 10
145.690663187633
 20
82.15206915361611
 30
0.0
  0
LINE
  5
EE
330
1F
100
AcDbEntity
  8
0
  6
Continuous
 62
     7
370
    25
100
AcDbLine
 10
146.4602155373
 20
84.8606172693
 30
0.0
 11
146.4602155373
 21
71.3606172693
 31
0.0
  0
SPLINE
  5
EF
330
1F
100
AcDbEntity
  8
0
  6
Continuous
 62
     7
370
    25
100
AcDbSpline
210
0.0
220
0.0
230
1.0
 70
     8
 71
     3
 72
     8
 73
     4
 74
     0
 42
0.000000001
 43
0.00000001
 40
0.0
 40
0.0
 40
0.0
 40
0.0
 40
1.0
 40
1.0
 40
1.0
 40
1.0
 10
143.9066256987832
 20
82.15206915361613
 30
0.0
 10
143.925216837743
 20
82.22145222878444
 30
0.0
 10
143.9430993685258
 20
82.29087034214938
 30
0.0
 10
143.9602155372694
 20
82.36032634943746
 30
0.0
  0
LINE
  5
F0
330
1F
100
AcDbEntity
  8
0
  6
Continuous
 62
     7
370
    25
100
AcDbLine
 10
141.4602155373
 20
86.1935210379
 30
0.0
 11
143.9066256988
 21
86.1935210379
 31
0.0
  0
SPLINE
  5
F1
330
1F
100
AcDbEntity
  8
0
  6
Continuous
 62
     7
370
    25
100
AcDbSpline
210
0.0
220
0.0
230
1.0
 70
     8
 71
     3
 72
     8
 73
     4
 74
     0
 42
0.000000001
 43
0.00000001
 40
0.0
 40
0.0
 40
0.0
 40
0.0
 40
1.0
 40
1.0
 40
1.0
 40
1.0
 10
143.9602155372694
 20
85.9852638421221
 30
0.0
 10
143.943093121392
 20
86.05474519976622
 30
0.0
 10
143.9252102318738
 20
86.12416261621453
 30
0.0
 10
143.9066256987832
 20
86.19352103794344
 30
0.0
  0
SPLINE
  5
F2
330
1F
100
AcDbEntity
  8
0
  6
Continuous
 62
     7
370
    25
100
AcDbSpline
210
0.0
220
0.0
230
1.0
 70
     8
 71
     3
 72
     8
 73
     4
 74
     0
 42
0.000000001
 43
0.00000001
 40
0.0
 40
0.0
 40
0.0
 40
0.0
 40
1.0
 40
1.0
 40
1.0
 40
1.0
 10
144.0138053757557
 20
86.19352103794344
 30
0.0
 10
143.995214236796
 20
86.12413796277512
 30
0.0
 10
143.9773317060132
 20
86.05471984941019
 30
0.0
 10
143.9602155372694
 20
85.9852638421221
 30
0.0
  0
LINE
  5
F3
330
1F
100
AcDbEntity
  8
0
  6
Continuous
 62
     7
370
    25
100
AcDbLine
 10
144.0138053758
 20
86.1935210379
 30
0.0
 11
145.6906631876
 21
86.1935210379
 31
0.0
  0
LINE
  5
F4
330
1F
100
AcDbEntity
  8
0
  6
Continuous
 62
     7
370
    25
100
AcDbLine
 10
141.4602155373
 20
82.1520691536
 30
0.0
 11
141.4602155373
 21
86.1935210379
 31
0.0
  0
LINE
  5
F5
330
1F
100
AcDbEntity
  8
0
  6
Continuous
 62
     7
370
    25
100
AcDbLine
 10
131.5495754303
 20
84.5669097659
 30
0.0
 11
131.5495754303
 21
71.6543247726
 31
0.0
  0
LINE
  5
F6
330
1F
100
AcDbEntity
  8
0
  6
Continuous
 62
     7
370
    25
100
AcDbLine
 10
149.4602155373
 20
84.6891172693
 30
0.0
 11
149.4602155373
 21
71.5321172693
 31
0.0
  0
LINE
  5
F7
330
1F
100
AcDbEntity
  8
0
  6
Continuous
 62
     7
370
    25
100
AcDbLine
 10
148.4602155373
 20
72.5321172693
 30
0.0
 11
148.4602155373
 21
83.6891172693
 31
0.0
  0
LINE
  5
F8
330
1F
100
AcDbEntity
  8
0
  6
Continuous
 62
     7
370
    25
100
AcDbLine
 10
129.4602155373
 20
78.1106172693
 30
0.0
 11
129.4602155373
 21
83.3606172693
 31
0.0
  0
LINE
  5
F9
330
1F
100
AcDbEntity
  8
0
  6
Continuous
 62
     7
370
    25
100
AcDbLine
 10
129.4602155373
 20
72.8606172693
 30
0.0
 11
129.4602155373
 21
78.1106172693
 31
0.0
  0
LINE
  5
FA
330
1F
100
AcDbEntity
  8
0
  6
Continuous
 62
     7
370
    25
100
AcDbLine
 10
143.9602155373
 20
70.2277135006
 30
0.0
 11
143.9602155373
 21
70.2359706965
 31
0.0
  0
LINE
  5
FB
330
1F
100
AcDbEntity
  8
0
  6
Continuous
 62
     7
370
    25
100
AcDbLine
 10
143.9602155373
 20
85.9852638421
 30
0.0
 11
143.9602155373
 21
85.9935210379
 31
0.0
  0
LINE
  5
FC
330
1F
100
AcDbEntity
  8
0
  6
Continuous
 62
     8
370
    25
100
AcDbLine
 10
187.9187517666
 20
74.1771681463
 30
0.0
 11
187.9187517666
 21
82.0440663923
 31
0.0
  0
LINE
  5
FD
330
1F
100
AcDbEntity
  8
0
  6
Continuous
 62
     8
370
    25
100
AcDbLine
 10
149.9248597307
 20
78.1106172693
 30
0.0
 11
149.9248597307
 21
70.2606172693
 31
0.0
  0
LINE
  5
FE
330
1F
100
AcDbEntity
  8
0
  6
Continuous
 62
     8
370
    25
100
AcDbLine
 10
149.9248597307
 20
85.9606172693
 30
0.0
 11
149.9248597307
 21
78.1106172693
 31
0.0
  0
LINE
  5
FF
330
1F
100
AcDbEntity
  8
0
  6
Continuous
 62
     8
370
    25
100
AcDbLine
 10
162.3248597307
 20
70.2606172693
 30
0.0
 11
162.3248597307
 21
85.9606172693
 31
0.0
  0
LINE
  5
100
330
1F
100
AcDbEntity
  8
0
  6
Continuous
 62
     7
370
     0
100
AcDbLine
 10
130.3254412598
 20
83.8601555731
 30
0.0
 11
140.9602155373
 21
84.1924922693
 31
0.0
  0
LINE
  5
101
330
1F
100
AcDbEntity
  8
0
  6
Continuous
 62
     7
370
     0
100
AcDbLine
 10
130.3254412598
 20
72.3610789655
 30
0.0
 11
140.9602155373
 21
72.0287422693
 31
0.0
  0
LINE
  5
102
330
1F
100
AcDbEntity
  8
0
  6
Continuous
 62
     7
370
     0
100
AcDbLine
 10
140.9602155373
 20
71.3602422693
 30
0.0
 11
140.9602155373
 21
84.8609922693
 31
0.0
  0
LINE
  5
103
330
1F
100
AcDbEntity
  8
0
  6
Continuous
 62
     7
370
     0
100
AcDbLine
 10
130.3254412598
 20
83.8601555731
 30
0.0
 11
140.9602155373
 21
84.1924922693
 31
0.0
  0
LINE
  5
104
330
1F
100
AcDbEntity
  8
0
  6
Continuous
 62
     7
370
     0
100
AcDbLine
 10
130.3254412598
 20
72.3610789655
 30
0.0
 11
140.9602155373
 21
72.0287422693
 31
0.0
  0
LINE
  5
105
330
1F
100
AcDbEntity
  8
0
  6
Continuous
 62
     7
370
     0
100
AcDbLine
 10
140.9602155373
 20
71.3602422693
 30
0.0
 11
140.9602155373
 21
84.8609922693
 31
0.0
  0
LINE
  5
106
330
1F
100
AcDbEntity
  8
0
  6
CENTERX2
 62
     7
370
    18
100
AcDbLine
 10
160.6248597307
 20
78.1106172693
 30
0.0
 11
190.6248597307
 21
78.1106172693
 31
0.0
  0
LINE
  5
107
330
1F
100
AcDbEntity
  8
0
  6
CENTERX2
 62
     7
370
    18
100
AcDbLine
 10
127.4602155373
 20
78.1106172693
 30
0.0
 11
143.4602155373
 21
78.1106172693
 31
0.0
  0
LINE
  5
108
330
1F
100
AcDbEntity
  8
0
  6
CENTERX2
 62
     7
370
    18
100
AcDbLine
 10
160.6248597307
 20
78.1106172693
 30
0.0
 11
144.4602155373
 21
78.1106172693
 31
0.0
  0
LINE
  5
109
330
1F
100
AcDbEntity
  8
0
  6
CENTERX2
 62
     7
370
    18
100
AcDbLine
 10
140.7370104565
 20
78.1106172693
 30
0.0
 11
146.7986444432
 21
78.1106172693
 31
0.0
  0
CIRCLE
  5
10A
330
1F
100
AcDbEntity
  8
0
  6
Continuous
 62
     7
370
    25
100
AcDbCircle
 10
211.6035087129
 20
78.1106172693
 30
0.0
 40
3.138978050180526
  0
CIRCLE
  5
10B
330
1F
100
AcDbEntity
  8
0
  6
Continuous
 62
     7
370
    25
100
AcDbCircle
 10
211.6035087129
 20
78.1106172693
 30
0.0
 40
2.69999999999996
  0
CIRCLE
  5
10C
330
1F
100
AcDbEntity
  8
0
  6
Continuous
 62
     7
370
    25
100
AcDbCircle
 10
211.6035087129
 20
78.1106172693
 30
0.0
 40
3.933449123032091
  0
CIRCLE
  5
10D
330
1F
100
AcDbEntity
  8
0
  6
Continuous
 62
     7
370
    25
100
AcDbCircle
 10
211.6035087129
 20
78.1106172693
 30
0.0
 40
2.499999999999972
  0
CIRCLE
  5
10E
330
1F
100
AcDbEntity
  8
0
  6
Continuous
 62
     7
370
    25
100
AcDbCircle
 10
211.6035087129
 20
78.1106172693
 30
0.0
 40
4.499999999999972
  0
CIRCLE
  5
10F
330
1F
100
AcDbEntity
  8
0
  6
Continuous
 62
     7
370
    25
100
AcDbCircle
 10
211.6035087129
 20
78.1106172693
 30
0.0
 40
7.850000000000023
  0
CIRCLE
  5
110
330
1F
100
AcDbEntity
  8
0
  6
Continuous
 62
     7
370
    25
100
AcDbCircle
 10
211.6035087129
 20
78.1106172693
 30
0.0
 40
7.550000000000011
  0
CIRCLE
  5
111
330
1F
100
AcDbEntity
  8
0
  6
Continuous
 62
     7
370
    25
100
AcDbCircle
 10
211.6035087129
 20
78.1106172693
 30
0.0
 40
4.849999999999994
  0
CIRCLE
  5
112
330
1F
100
AcDbEntity
  8
0
  6
Continuous
 62
     7
370
    25
100
AcDbCircle
 10
211.6035087129
 20
78.1106172693
 30
0.0
 40
4.75
  0
SPLINE
  5
113
330
1F
100
AcDbEntity
  8
0
  6
Continuous
 62
     7
370
    25
100
AcDbSpline
210
0.0
220
0.0
230
1.0
 70
    24
 71
     3
 72
    15
 73
    11
 74
     0
 42
0.000000001
 43
0.00000001
 40
0.0
 40
0.0
 40
0.0
 40
0.0
 40
0.1323049664163417
 40
0.2645725257576573
 40
0.3997989469058977
 40
0.5350009659368399
 40
0.6501921044151454
 40
0.7654012116808045
 40
0.8826892657702333
 40
1.0
 40
1.0
 40
1.0
 40
1.0
 10
203.6035087129341
 20
82.72941942280578
 30
0.0
 10
203.9491398292914
 20
82.9289696408749
 30
0.0
 10
204.6403043404353
 20
83.32801365743813
 30
0.0
 10
205.7046364249375
 20
83.94250607293264
 30
0.0
 10
206.7890312982363
 20
84.56858174493956
 30
0.0
 10
207.8341468639361
 20
85.1719794981306
 30
0.0
 10
208.8228018147985
 20
85.74277970014667
 30
0.0
 10
209.7558504510621
 20
86.28147558146048
 30
0.0
 10
210.6846805250937
 20
86.81773587473404
 30
0.0
 10
211.2972129112013
 20
87.17138161274057
 30
0.0
 10
211.6035087129341
 20
87.34822157632269
 30
0.0
  0
SPLINE
  5
114
330
1F
100
AcDbEntity
  8
0
  6
Continuous
 62
     7
370
    25
100
AcDbSpline
210
0.0
220
0.0
230
1.0
 70
    24
 71
     3
 72
    15
 73
    11
 74
     0
 42
0.000000001
 43
0.00000001
 40
0.0
 40
0.0
 40
0.0
 40
0.0
 40
0.13230496641634
 40
0.2645725257576541
 40
0.3997989469058928
 40
0.5350009659368333
 40
0.6501921044151404
 40
0.7654012116808011
 40
0.8826892657702318
 40
1.0
 40
1.0
 40
1.0
 40
1.0
 10
211.6035087129341
 20
87.34822157632269
 30
0.0
 10
211.9491398292913
 20
87.14867135825355
 30
0.0
 10
212.6403043404352
 20
86.74962734169031
 30
0.0
 10
213.7046364249374
 20
86.13513492619579
 30
0.0
 10
214.7890312982362
 20
85.50905925418887
 30
0.0
 10
215.834146863936
 20
84.90566150099784
 30
0.0
 10
216.8228018147985
 20
84.33486129898174
 30
0.0
 10
217.7558504510621
 20
83.7961654176679
 30
0.0
 10
218.6846805250937
 20
83.25990512439434
 30
0.0
 10
219.2972129112013
 20
82.90625938638777
 30
0.0
 10
219.6035087129341
 20
82.72941942280566
 30
0.0
  0
SPLINE
  5
115
330
1F
100
AcDbEntity
  8
0
  6
Continuous
 62
     7
370
    25
100
AcDbSpline
210
0.0
220
0.0
230
1.0
 70
    24
 71
     3
 72
    16
 73
    12
 74
     0
 42
0.000000001
 43
0.00000001
 40
0.0
 40
0.0
 40
0.0
 40
0.0
 40
0.0956237145789417
 40
0.1912377652649445
 40
0.2877937408434854
 40
0.38433884805827
 40
0.510267629796456
 40
0.6361984448948281
 40
0.765484310715168
 40
0.8948065592131594
 40
1.0
 40
1.0
 40
1.0
 40
1.0
 10
219.6035087129341
 20
82.72941942280566
 30
0.0
 10
219.6035087129341
 20
82.44133139628288
 30
0.0
 10
219.6035087129341
 20
81.86518445789632
 30
0.0
 10
219.6035087129341
 20
80.98613621011744
 30
0.0
 10
219.6035087129341
 20
80.09591472720405
 30
0.0
 10
219.6035087129341
 20
79.1040231199078
 30
0.0
 10
219.6035087129341
 20
78.01433341821823
 30
0.0
 10
219.6035087129341
 20
76.82291501852393
 30
0.0
 10
219.6035087129341
 20
75.63051922615008
 30
0.0
 10
219.6035087129341
 20
74.51562025503685
 30
0.0
 10
219.6035087129341
 20
73.80884393766945
 30
0.0
 10
219.6035087129341
 20
73.49181511577162
 30
0.0
  0
SPLINE
  5
116
330
1F
100
AcDbEntity
  8
0
  6
Continuous
 62
     7
370
    25
100
AcDbSpline
210
0.0
220
0.0
230
1.0
 70
    24
 71
     3
 72
    15
 73
    11
 74
     0
 42
0.000000001
 43
0.00000001
 40
0.0
 40
0.0
 40
0.0
 40
0.0
 40
0.13230496641634
 40
0.2645725257576539
 40
0.3997989469058926
 40
0.5350009659368332
 40
0.6501921044151403
 40
0.7654012116808009
 40
0.8826892657702315
 40
1.0
 40
1.0
 40
1.0
 40
1.0
 10
219.6035087129341
 20
73.49181511577162
 30
0.0
 10
219.2578775965769
 20
73.2922648977025
 30
0.0
 10
218.566713085433
 20
72.89322088113926
 30
0.0
 10
217.5023810009308
 20
72.27872846564475
 30
0.0
 10
216.417986127632
 20
71.65265279363783
 30
0.0
 10
215.3728705619322
 20
71.0492550404468
 30
0.0
 10
214.3842156110697
 20
70.47845483843071
 30
0.0
 10
213.4511669748061
 20
69.93975895711688
 30
0.0
 10
212.5223369007744
 20
69.40349866384332
 30
0.0
 10
211.9098045146669
 20
69.04985292583676
 30
0.0
 10
211.603508712934
 20
68.87301296225465
 30
0.0
  0
SPLINE
  5
117
330
1F
100
AcDbEntity
  8
0
  6
Continuous
 62
     7
370
    25
100
AcDbSpline
210
0.0
220
0.0
230
1.0
 70
    24
 71
     3
 72
    15
 73
    11
 74
     0
 42
0.000000001
 43
0.00000001
 40
0.0
 40
0.0
 40
0.0
 40
0.0
 40
0.13230496641634
 40
0.264572525757654
 40
0.3997989469058927
 40
0.5350009659368333
 40
0.6501921044151404
 40
0.765401211680801
 40
0.8826892657702317
 40
1.0
 40
1.0
 40
1.0
 40
1.0
 10
211.603508712934
 20
68.87301296225465
 30
0.0
 10
211.2578775965769
 20
69.07256318032378
 30
0.0
 10
210.566713085433
 20
69.47160719688704
 30
0.0
 10
209.5023810009307
 20
70.08609961238156
 30
0.0
 10
208.4179861276319
 20
70.7121752843885
 30
0.0
 10
207.3728705619322
 20
71.31557303757953
 30
0.0
 10
206.3842156110697
 20
71.88637323959564
 30
0.0
 10
205.4511669748061
 20
72.42506912090948
 30
0.0
 10
204.5223369007745
 20
72.96132941418306
 30
0.0
 10
203.9098045146669
 20
73.31497515218962
 30
0.0
 10
203.6035087129341
 20
73.49181511577173
 30
0.0
  0
SPLINE
  5
118
330
1F
100
AcDbEntity
  8
0
  6
Continuous
 62
     7
370
    25
100
AcDbSpline
210
0.0
220
0.0
230
1.0
 70
    24
 71
     3
 72
    16
 73
    12
 74
     0
 42
0.000000001
 43
0.00000001
 40
0.0
 40
0.0
 40
0.0
 40
0.0
 40
0.1051935664218023
 40
0.2312918996997604
 40
0.3573572448607639
 40
0.4865103187026856
 40
0.6156604465364214
 40
0.7112032284208155
 40
0.806756420180822
 40
0.9033731629575484
 40
0.9999999999999999
 40
0.9999999999999999
 40
0.9999999999999999
 40
0.9999999999999999
 10
203.6035087129341
 20
73.49181511577173
 30
0.0
 10
203.6035087129341
 20
73.80884295668092
 30
0.0
 10
203.6035087129341
 20
74.50590052470343
 30
0.0
 10
203.6035087129341
 20
75.60081811297857
 30
0.0
 10
203.6035087129341
 20
76.78268156767858
 30
0.0
 10
203.6035087129341
 20
77.98405121353555
 30
0.0
 10
203.6035087129341
 20
79.09087715804412
 30
0.0
 10
203.6035087129341
 20
80.08656796773516
 30
0.0
 10
203.6035087129341
 20
80.97382022219651
 30
0.0
 10
203.6035087129341
 20
81.85609091800018
 30
0.0
 10
203.6035087129341
 20
82.43829978378906
 30
0.0
 10
203.6035087129341
 20
82.72941942280578
 30
0.0
  0
INSERT
  5
124
330
1F
100
AcDbEntity
  8
0
  6
Continuous
 62
     7
370
    18
100
AcDbBlockReference
  2
SW_CENTERMARKSYMBOL_0
 10
211.6035087129
 20
78.1106172693
 30
0.0
  0
LINE
  5
125
330
1F
100
AcDbEntity
  8
0
  6
Continuous
 62
     7
370
    25
100
AcDbLine
 10
179.1248597307
 20
109.1391724037
 30
0.0
 11
183.1248597307
 21
109.7891724037
 31
0.0
  0
LINE
  5
126
330
1F
100
AcDbEntity
  8
0
  6
Continuous
 62
     7
370
    25
100
AcDbLine
 10
183.1248597307
 20
117.4891724037
 30
0.0
 11
179.1248597307
 21
118.1391724037
 31
0.0
  0
LINE
  5
127
330
1F
100
AcDbEntity
  8
0
  6
Continuous
 62
     7
370
    25
100
AcDbLine
 10
183.1248597307
 20
109.1391724037
 30
0.0
 11
187.9187517666
 21
109.7057232806
 31
0.0
  0
LINE
  5
128
330
1F
100
AcDbEntity
  8
0
  6
Continuous
 62
     7
370
    25
100
AcDbLine
 10
187.9187517666
 20
117.5726215267
 30
0.0
 11
183.1248597307
 21
118.1391724037
 31
0.0
  0
LINE
  5
129
330
1F
100
AcDbEntity
  8
0
  6
Continuous
 62
     7
370
    25
100
AcDbLine
 10
175.1248597307
 20
109.1391724037
 30
0.0
 11
179.1248597307
 21
109.7891724037
 31
0.0
  0
LINE
  5
12A
330
1F
100
AcDbEntity
  8
0
  6
Continuous
 62
     7
370
    25
100
AcDbLine
 10
179.1248597307
 20
117.4891724037
 30
0.0
 11
175.1248597307
 21
118.1391724037
 31
0.0
  0
LINE
  5
12B
330
1F
100
AcDbEntity
  8
0
  6
Continuous
 62
     7
370
    25
100
AcDbLine
 10
171.1248597307
 20
109.1391724037
 30
0.0
 11
175.1248597307
 21
109.7891724037
 31
0.0
  0
LINE
  5
12C
330
1F
100
AcDbEntity
  8
0
  6
Continuous
 62
     7
370
    25
100
AcDbLine
 10
175.1248597307
 20
117.4891724037
 30
0.0
 11
171.1248597307
 21
118.1391724037
 31
0.0
  0
LINE
  5
12D
330
1F
100
AcDbEntity
  8
0
  6
Continuous
 62
     7
370
    25
100
AcDbLine
 10
162.7052444885
 20
118.1391724037
 30
0.0
 11
162.6248597307
 21
117.8391724037
 31
0.0
  0
LINE
  5
12E
330
1F
100
AcDbEntity
  8
0
  6
Continuous
 62
     7
370
    25
100
AcDbLine
 10
162.6248597307
 20
109.4391724037
 30
0.0
 11
162.7052444885
 21
109.1391724037
 31
0.0
  0
LINE
  5
12F
330
1F
100
AcDbEntity
  8
0
  6
Continuous
 62
     7
370
    25
100
AcDbLine
 10
162.7052444885
 20
109.1391724037
 30
0.0
 11
167.1248597307
 21
109.1391724037
 31
0.0
  0
LINE
  5
130
330
1F
100
AcDbEntity
  8
0
  6
Continuous
 62
     7
370
    25
100
AcDbLine
 10
167.1248597307
 20
118.1391724037
 30
0.0
 11
162.7052444885
 21
118.1391724037
 31
0.0
  0
LINE
  5
131
330
1F
100
AcDbEntity
  8
0
  6
Continuous
 62
     7
370
    25
100
AcDbLine
 10
167.1248597307
 20
109.1391724037
 30
0.0
 11
171.1248597307
 21
109.7891724037
 31
0.0
  0
LINE
  5
132
330
1F
100
AcDbEntity
  8
0
  6
Continuous
 62
     7
370
    25
100
AcDbLine
 10
171.1248597307
 20
117.4891724037
 30
0.0
 11
167.1248597307
 21
118.1391724037
 31
0.0
  0
ARC
  5
133
330
1F
100
AcDbEntity
  8
0
  6
Continuous
 62
     7
370
    25
100
AcDbCircle
 10
187.8248597307
 20
110.5001943535
 30
0.0
 40
0.8000000000000114
100
AcDbArc
 50
276.7400560979
 51
0.0
  0
ARC
  5
134
330
1F
100
AcDbEntity
  8
0
  6
Continuous
 62
     7
370
    25
100
AcDbCircle
 10
187.8248597307
 20
116.7781504538
 30
0.0
 40
0.8000000000000114
100
AcDbArc
 50
0.0
 51
83.2599439021
  0
LINE
  5
135
330
1F
100
AcDbEntity
  8
0
  6
Continuous
 62
     7
370
    25
100
AcDbLine
 10
151.7114622711
 20
121.6391724037
 30
0.0
 11
151.6248597307
 21
121.4891724037
 31
0.0
  0
LINE
  5
136
330
1F
100
AcDbEntity
  8
0
  6
Continuous
 62
     7
370
    25
100
AcDbLine
 10
151.6248597307
 20
105.7891724037
 30
0.0
 11
151.7114622711
 21
105.6391724037
 31
0.0
  0
LINE
  5
137
330
1F
100
AcDbEntity
  8
0
  6
Continuous
 62
     7
370
    25
100
AcDbLine
 10
160.5382571904
 20
105.6391724037
 30
0.0
 11
160.6248597307
 21
105.7891724037
 31
0.0
  0
LINE
  5
138
330
1F
100
AcDbEntity
  8
0
  6
Continuous
 62
     7
370
    25
100
AcDbLine
 10
160.6248597307
 20
121.4891724037
 30
0.0
 11
160.5382571904
 21
121.6391724037
 31
0.0
  0
LINE
  5
139
330
1F
100
AcDbEntity
  8
0
  6
Continuous
 62
     7
370
    25
100
AcDbLine
 10
151.6248597307
 20
121.4891724037
 30
0.0
 11
149.9248597307
 21
121.4891724037
 31
0.0
  0
LINE
  5
13A
330
1F
100
AcDbEntity
  8
0
  6
Continuous
 62
     7
370
    25
100
AcDbLine
 10
149.9248597307
 20
105.7891724037
 30
0.0
 11
151.6248597307
 21
105.7891724037
 31
0.0
  0
ARC
  5
13B
330
1F
100
AcDbEntity
  8
0
  6
Continuous
 62
     7
370
    25
100
AcDbCircle
 10
149.9248597307
 20
106.0891724037
 30
0.0
 40
0.3000000000000114
100
AcDbArc
 50
180.0
 51
270.0
  0
ARC
  5
13C
330
1F
100
AcDbEntity
  8
0
  6
Continuous
 62
     7
370
    25
100
AcDbCircle
 10
149.9248597307
 20
121.1891724037
 30
0.0
 40
0.3000000000000114
100
AcDbArc
 50
90.0
 51
180.0
  0
ARC
  5
13D
330
1F
100
AcDbEntity
  8
0
  6
Continuous
 62
     7
370
    25
100
AcDbCircle
 10
162.3248597307
 20
121.1891724037
 30
0.0
 40
0.3000000000000114
100
AcDbArc
 50
0.0
 51
90.0
  0
ARC
  5
13E
330
1F
100
AcDbEntity
  8
0
  6
Continuous
 62
     7
370
    25
100
AcDbCircle
 10
162.3248597307
 20
106.0891724037
 30
0.0
 40
0.3000000000000114
100
AcDbArc
 50
270.0
 51
0.0
  0
LINE
  5
13F
330
1F
100
AcDbEntity
  8
0
  6
Continuous
 62
     7
370
    25
100
AcDbLine
 10
160.6248597307
 20
105.7891724037
 30
0.0
 11
162.3248597307
 21
105.7891724037
 31
0.0
  0
LINE
  5
140
330
1F
100
AcDbEntity
  8
0
  6
Continuous
 62
     7
370
    25
100
AcDbLine
 10
162.3248597307
 20
121.4891724037
 30
0.0
 11
160.6248597307
 21
121.4891724037
 31
0.0
  0
LINE
  5
141
330
1F
100
AcDbEntity
  8
0
  6
Continuous
 62
     7
370
    25
100
AcDbLine
 10
146.31587797
 20
106.6391724037
 30
0.0
 11
146.4602155373
 21
106.8891724037
 31
0.0
  0
LINE
  5
142
330
1F
100
AcDbEntity
  8
0
  6
Continuous
 62
     7
370
    25
100
AcDbLine
 10
146.4602155373
 20
120.3891724037
 30
0.0
 11
146.31587797
 21
120.6391724037
 31
0.0
  0
LINE
  5
143
330
1F
100
AcDbEntity
  8
0
  6
Continuous
 62
     7
370
    25
100
AcDbLine
 10
141.4602155373
 20
120.4051724037
 30
0.0
 11
131.5495754303
 21
120.0954649003
 31
0.0
  0
LINE
  5
144
330
1F
100
AcDbEntity
  8
0
  6
Continuous
 62
     7
370
    25
100
AcDbLine
 10
131.5495754303
 20
107.182879907
 30
0.0
 11
141.4602155373
 21
106.8731724037
 31
0.0
  0
LINE
  5
145
330
1F
100
AcDbEntity
  8
0
  6
Continuous
 62
     7
370
    25
100
AcDbLine
 10
149.4602155373
 20
107.0606724037
 30
0.0
 11
149.6248597307
 21
107.0606724037
 31
0.0
  0
LINE
  5
146
330
1F
100
AcDbEntity
  8
0
  6
Continuous
 62
     7
370
    25
100
AcDbLine
 10
149.6248597307
 20
120.2176724037
 30
0.0
 11
149.4602155373
 21
120.2176724037
 31
0.0
  0
LINE
  5
147
330
1F
100
AcDbEntity
  8
0
  6
Continuous
 62
     7
370
    25
100
AcDbLine
 10
149.4602155373
 20
120.2176724037
 30
0.0
 11
148.4602155373
 21
119.2176724037
 31
0.0
  0
LINE
  5
148
330
1F
100
AcDbEntity
  8
0
  6
Continuous
 62
     7
370
    25
100
AcDbLine
 10
148.4602155373
 20
108.0606724037
 30
0.0
 11
149.4602155373
 21
107.0606724037
 31
0.0
  0
LINE
  5
149
330
1F
100
AcDbEntity
  8
0
  6
Continuous
 62
     7
370
    25
100
AcDbLine
 10
131.5495754303
 20
120.0954649003
 30
0.0
 11
129.4602155373
 21
118.8891724037
 31
0.0
  0
LINE
  5
14A
330
1F
100
AcDbEntity
  8
0
  6
Continuous
 62
     7
370
    25
100
AcDbLine
 10
129.4602155373
 20
108.3891724037
 30
0.0
 11
131.5495754303
 21
107.182879907
 31
0.0
  0
LINE
  5
14B
330
1F
100
AcDbEntity
  8
0
  6
Continuous
 62
     7
370
    25
100
AcDbLine
 10
146.4602155373
 20
108.2391724037
 30
0.0
 11
148.4602155373
 21
108.2391724037
 31
0.0
  0
LINE
  5
14C
330
1F
100
AcDbEntity
  8
0
  6
Continuous
 62
     7
370
    25
100
AcDbLine
 10
148.4602155373
 20
119.0391724037
 30
0.0
 11
146.4602155373
 21
119.0391724037
 31
0.0
  0
LINE
  5
14D
330
1F
100
AcDbEntity
  8
0
  6
Continuous
 62
     7
370
    25
100
AcDbLine
 10
179.1248597307
 20
109.1391724037
 30
0.0
 11
179.1248597307
 21
118.1391724037
 31
0.0
  0
LINE
  5
14E
330
1F
100
AcDbEntity
  8
0
  6
Continuous
 62
     7
370
    25
100
AcDbLine
 10
183.1248597307
 20
109.1391724037
 30
0.0
 11
183.1248597307
 21
118.1391724037
 31
0.0
  0
LINE
  5
14F
330
1F
100
AcDbEntity
  8
0
  6
Continuous
 62
     7
370
    25
100
AcDbLine
 10
175.1248597307
 20
109.1391724037
 30
0.0
 11
175.1248597307
 21
118.1391724037
 31
0.0
  0
LINE
  5
150
330
1F
100
AcDbEntity
  8
0
  6
Continuous
 62
     7
370
    25
100
AcDbLine
 10
171.1248597307
 20
109.1391724037
 30
0.0
 11
171.1248597307
 21
118.1391724037
 31
0.0
  0
LINE
  5
151
330
1F
100
AcDbEntity
  8
0
  6
Continuous
 62
     7
370
    25
100
AcDbLine
 10
162.7052444885
 20
109.1391724037
 30
0.0
 11
162.7052444885
 21
118.1391724037
 31
0.0
  0
LINE
  5
152
330
1F
100
AcDbEntity
  8
0
  6
Continuous
 62
     7
370
    25
100
AcDbLine
 10
167.1248597307
 20
109.1391724037
 30
0.0
 11
167.1248597307
 21
118.1391724037
 31
0.0
  0
LINE
  5
153
330
1F
100
AcDbEntity
  8
0
  6
Continuous
 62
     7
370
    25
100
AcDbLine
 10
188.6248597307
 20
116.7781504411
 30
0.0
 11
188.6248597307
 21
110.5001943535
 31
0.0
  0
LINE
  5
154
330
1F
100
AcDbEntity
  8
0
  6
Continuous
 62
     7
370
    25
100
AcDbLine
 10
152.4259934509
 20
113.6391724037
 30
0.0
 11
156.0712698922
 21
113.6391724037
 31
0.0
  0
SPLINE
  5
155
330
1F
100
AcDbEntity
  8
0
  6
Continuous
 62
     7
370
    25
100
AcDbSpline
210
0.0
220
0.0
230
1.0
 70
     8
 71
     3
 72
    15
 73
    11
 74
     0
 42
0.000000001
 43
0.00000001
 40
0.0
 40
0.0
 40
0.0
 40
0.0
 40
0.1323049664163401
 40
0.2645725257576541
 40
0.3997989469058928
 40
0.5350009659368333
 40
0.6501921044151404
 40
0.7654012116808011
 40
0.8826892657702318
 40
1.0
 40
1.0
 40
1.0
 40
1.0
 10
152.4259934509278
 20
113.6391724036559
 30
0.0
 10
152.3172219233846
 20
113.9848035200131
 30
0.0
 10
152.0997096216765
 20
114.675968031157
 30
0.0
 10
151.8656744288809
 20
115.7403001156592
 30
0.0
 10
151.7249551729319
 20
116.824694988958
 30
0.0
 10
151.6970858892084
 20
117.8698105546578
 30
0.0
 10
151.7693876875628
 20
118.8584655055203
 30
0.0
 10
151.9175376675419
 20
119.7915141417839
 30
0.0
 10
152.1348578262466
 20
120.7203442158155
 30
0.0
 10
152.3289419882552
 20
121.3328766019231
 30
0.0
 10
152.4259934509278
 20
121.6391724036559
 30
0.0
  0
LINE
  5
156
330
1F
100
AcDbEntity
  8
0
  6
Continuous
 62
     7
370
    25
100
AcDbLine
 10
152.4259934509
 20
121.6391724037
 30
0.0
 11
156.0712698922
 21
121.6391724037
 31
0.0
  0
LINE
  5
157
330
1F
100
AcDbEntity
  8
0
  6
Continuous
 62
     7
370
    25
100
AcDbLine
 10
156.1248597307
 20
121.280424758
 30
0.0
 11
156.0712698922
 21
121.6391724037
 31
0.0
  0
LINE
  5
158
330
1F
100
AcDbEntity
  8
0
  6
Continuous
 62
     7
370
    25
100
AcDbLine
 10
156.1784495692
 20
121.6391724037
 30
0.0
 11
156.1248597307
 21
121.280424758
 31
0.0
  0
LINE
  5
159
330
1F
100
AcDbEntity
  8
0
  6
Continuous
 62
     7
370
    25
100
AcDbLine
 10
156.1784495692
 20
121.6391724037
 30
0.0
 11
159.8237260105
 21
121.6391724037
 31
0.0
  0
SPLINE
  5
15A
330
1F
100
AcDbEntity
  8
0
  6
Continuous
 62
     7
370
    25
100
AcDbSpline
210
0.0
220
0.0
230
1.0
 70
     8
 71
     3
 72
    15
 73
    11
 74
     0
 42
0.000000001
 43
0.00000001
 40
0.0
 40
0.0
 40
0.0
 40
0.0
 40
0.13230496641634
 40
0.2645725257576541
 40
0.3997989469058928
 40
0.5350009659368333
 40
0.6501921044151404
 40
0.7654012116808011
 40
0.8826892657702318
 40
1.0
 40
1.0
 40
1.0
 40
1.0
 10
159.8237260105382
 20
113.6391724036559
 30
0.0
 10
159.9324975380814
 20
113.9848035200131
 30
0.0
 10
160.1500098397895
 20
114.675968031157
 30
0.0
 10
160.3840450325851
 20
115.7403001156592
 30
0.0
 10
160.5247642885341
 20
116.824694988958
 30
0.0
 10
160.5526335722577
 20
117.8698105546578
 30
0.0
 10
160.4803317739032
 20
118.8584655055203
 30
0.0
 10
160.3321817939241
 20
119.7915141417839
 30
0.0
 10
160.1148616352195
 20
120.7203442158155
 30
0.0
 10
159.9207774732108
 20
121.3328766019231
 30
0.0
 10
159.8237260105382
 20
121.6391724036559
 30
0.0
  0
LINE
  5
15B
330
1F
100
AcDbEntity
  8
0
  6
Continuous
 62
     7
370
    25
100
AcDbLine
 10
156.1784495692
 20
113.6391724037
 30
0.0
 11
159.8237260105
 21
113.6391724037
 31
0.0
  0
LINE
  5
15C
330
1F
100
AcDbEntity
  8
0
  6
Continuous
 62
     7
370
    25
100
AcDbLine
 10
156.1248597307
 20
113.9979200493
 30
0.0
 11
156.1784495692
 21
113.6391724037
 31
0.0
  0
LINE
  5
15D
330
1F
100
AcDbEntity
  8
0
  6
Continuous
 62
     7
370
    25
100
AcDbLine
 10
156.0712698922
 20
113.6391724037
 30
0.0
 11
156.1248597307
 21
113.9979200493
 31
0.0
  0
SPLINE
  5
15E
330
1F
100
AcDbEntity
  8
0
  6
Continuous
 62
     7
370
    25
100
AcDbSpline
210
0.0
220
0.0
230
1.0
 70
    24
 71
     3
 72
    12
 73
     8
 74
     0
 42
0.000000001
 43
0.00000001
 40
0.0
 40
0.0
 40
0.0
 40
0.0
 40
0.2313810520039043
 40
0.4221377217834618
 40
0.6135435856739715
 40
0.8065697087596991
 40
1.0
 40
1.0
 40
1.0
 40
1.0
 10
151.7165514954982
 20
105.6391724036559
 30
0.0
 10
151.7224921724304
 20
105.6391724036559
 30
0.0
 10
151.7333305008254
 20
105.6391724036559
 30
0.0
 10
151.842431781017
 20
105.6391724036559
 30
0.0
 10
151.9904734960021
 20
105.639172403656
 30
0.0
 10
152.1841251480518
 20
105.639172403656
 30
0.0
 10
152.345314491024
 20
105.639172403656
 30
0.0
 10
152.4259934509278
 20
105.639172403656
 30
0.0
  0
SPLINE
  5
15F
330
1F
100
AcDbEntity
  8
0
  6
Continuous
 62
     7
370
    25
100
AcDbSpline
210
0.0
220
0.0
230
1.0
 70
    24
 71
     3
 72
    12
 73
     8
 74
     0
 42
0.000000001
 43
0.00000001
 40
0.0
 40
0.0
 40
0.0
 40
0.0
 40
0.1910462528605298
 40
0.3824439813440483
 40
0.5752172259134485
 40
0.7686153118707709
 40
1.0
 40
1.0
 40
1.0
 40
1.0
 10
152.4259934509278
 20
121.6391724036559
 30
0.0
 10
152.3462696286967
 20
121.6391724036559
 30
0.0
 10
152.1866753130506
 20
121.6391724036559
 30
0.0
 10
151.9932315068089
 20
121.6391724036559
 30
0.0
 10
151.8436258596743
 20
121.6391724036559
 30
0.0
 10
151.7337593400544
 20
121.6391724036559
 30
0.0
 10
151.7216367860461
 20
121.6391724036559
 30
0.0
 10
151.7150334736012
 20
121.6391724036559
 30
0.0
  0
SPLINE
  5
160
330
1F
100
AcDbEntity
  8
0
  6
Continuous
 62
     7
370
    25
100
AcDbSpline
210
0.0
220
0.0
230
1.0
 70
     8
 71
     3
 72
    15
 73
    11
 74
     0
 42
0.000000001
 43
0.00000001
 40
0.0
 40
0.0
 40
0.0
 40
0.0
 40
0.1323049664163416
 40
0.2645725257576573
 40
0.3997989469058977
 40
0.5350009659368399
 40
0.6501921044151454
 40
0.7654012116808045
 40
0.8826892657702334
 40
1.0
 40
1.0
 40
1.0
 40
1.0
 10
152.4259934509278
 20
105.639172403656
 30
0.0
 10
152.3172219233846
 20
105.9848035200132
 30
0.0
 10
152.0997096216765
 20
106.6759680311571
 30
0.0
 10
151.865674428881
 20
107.7403001156593
 30
0.0
 10
151.7249551729319
 20
108.8246949889581
 30
0.0
 10
151.6970858892084
 20
109.8698105546579
 30
0.0
 10
151.7693876875629
 20
110.8584655055203
 30
0.0
 10
151.9175376675419
 20
111.791514141784
 30
0.0
 10
152.1348578262466
 20
112.7203442158155
 30
0.0
 10
152.3289419882552
 20
113.3328766019231
 30
0.0
 10
152.4259934509278
 20
113.6391724036559
 30
0.0
  0
LINE
  5
161
330
1F
100
AcDbEntity
  8
0
  6
Continuous
 62
     7
370
    25
100
AcDbLine
 10
151.6248597307
 20
105.7891724037
 30
0.0
 11
151.6248597307
 21
121.4891724037
 31
0.0
  0
SPLINE
  5
162
330
1F
100
AcDbEntity
  8
0
  6
Continuous
 62
     7
370
    25
100
AcDbSpline
210
0.0
220
0.0
230
1.0
 70
     8
 71
     3
 72
    15
 73
    11
 74
     0
 42
0.000000001
 43
0.00000001
 40
0.0
 40
0.0
 40
0.0
 40
0.0
 40
0.1323049664163417
 40
0.2645725257576573
 40
0.3997989469058977
 40
0.5350009659368399
 40
0.6501921044151454
 40
0.7654012116808045
 40
0.8826892657702333
 40
1.0
 40
1.0
 40
1.0
 40
1.0
 10
159.8237260105382
 20
105.639172403656
 30
0.0
 10
159.9324975380814
 20
105.9848035200132
 30
0.0
 10
160.1500098397895
 20
106.6759680311571
 30
0.0
 10
160.3840450325851
 20
107.7403001156593
 30
0.0
 10
160.5247642885341
 20
108.8246949889581
 30
0.0
 10
160.5526335722576
 20
109.8698105546579
 30
0.0
 10
160.4803317739032
 20
110.8584655055203
 30
0.0
 10
160.3321817939241
 20
111.791514141784
 30
0.0
 10
160.1148616352195
 20
112.7203442158155
 30
0.0
 10
159.9207774732108
 20
113.3328766019231
 30
0.0
 10
159.8237260105382
 20
113.6391724036559
 30
0.0
  0
SPLINE
  5
163
330
1F
100
AcDbEntity
  8
0
  6
Continuous
 62
     7
370
    25
100
AcDbSpline
210
0.0
220
0.0
230
1.0
 70
    24
 71
     3
 72
    12
 73
     8
 74
     0
 42
0.000000001
 43
0.00000001
 40
0.0
 40
0.0
 40
0.0
 40
0.0
 40
0.1910462528605297
 40
0.3824439813440484
 40
0.5752172259134485
 40
0.768615311870771
 40
1.0
 40
1.0
 40
1.0
 40
1.0
 10
159.8237260105382
 20
121.6391724036559
 30
0.0
 10
159.9034498327694
 20
121.6391724036559
 30
0.0
 10
160.0630441484155
 20
121.6391724036559
 30
0.0
 10
160.2564879546571
 20
121.6391724036559
 30
0.0
 10
160.4060936017917
 20
121.6391724036559
 30
0.0
 10
160.5159601214117
 20
121.6391724036559
 30
0.0
 10
160.5280826754199
 20
121.6391724036559
 30
0.0
 10
160.5346859878648
 20
121.6391724036559
 30
0.0
  0
SPLINE
  5
164
330
1F
100
AcDbEntity
  8
0
  6
Continuous
 62
     7
370
    25
100
AcDbSpline
210
0.0
220
0.0
230
1.0
 70
    24
 71
     3
 72
    12
 73
     8
 74
     0
 42
0.000000001
 43
0.00000001
 40
0.0
 40
0.0
 40
0.0
 40
0.0
 40
0.2313810520039043
 40
0.4221377217834617
 40
0.6135435856739714
 40
0.8065697087596989
 40
1.0
 40
1.0
 40
1.0
 40
1.0
 10
160.5331679659678
 20
105.6391724036559
 30
0.0
 10
160.5272272890357
 20
105.6391724036559
 30
0.0
 10
160.5163889606406
 20
105.6391724036559
 30
0.0
 10
160.4072876804491
 20
105.6391724036559
 30
0.0
 10
160.2592459654639
 20
105.639172403656
 30
0.0
 10
160.0655943134142
 20
105.639172403656
 30
0.0
 10
159.904404970442
 20
105.639172403656
 30
0.0
 10
159.8237260105382
 20
105.639172403656
 30
0.0
  0
LINE
  5
165
330
1F
100
AcDbEntity
  8
0
  6
Continuous
 62
     7
370
    25
100
AcDbLine
 10
160.6248597307
 20
105.7891724037
 30
0.0
 11
160.6248597307
 21
121.4891724037
 31
0.0
  0
LINE
  5
166
330
1F
100
AcDbEntity
  8
0
  6
Continuous
 62
     7
370
    25
100
AcDbLine
 10
156.1248597307
 20
113.280424758
 30
0.0
 11
156.0712698922
 21
113.6391724037
 31
0.0
  0
LINE
  5
167
330
1F
100
AcDbEntity
  8
0
  6
Continuous
 62
     7
370
    25
100
AcDbLine
 10
156.1248597307
 20
113.280424758
 30
0.0
 11
156.1248597307
 21
113.9979200493
 31
0.0
  0
LINE
  5
168
330
1F
100
AcDbEntity
  8
0
  6
Continuous
 62
     7
370
    25
100
AcDbLine
 10
156.1784495692
 20
113.6391724037
 30
0.0
 11
156.1248597307
 21
113.280424758
 31
0.0
  0
LINE
  5
169
330
1F
100
AcDbEntity
  8
0
  6
Continuous
 62
     7
370
    25
100
AcDbLine
 10
152.4259934509
 20
105.6391724037
 30
0.0
 11
156.0712698922
 21
105.6391724037
 31
0.0
  0
LINE
  5
16A
330
1F
100
AcDbEntity
  8
0
  6
Continuous
 62
     7
370
    25
100
AcDbLine
 10
156.1784495692
 20
105.6391724037
 30
0.0
 11
159.8237260105
 21
105.6391724037
 31
0.0
  0
LINE
  5
16B
330
1F
100
AcDbEntity
  8
0
  6
Continuous
 62
     7
370
    25
100
AcDbLine
 10
156.1248597307
 20
105.9979200493
 30
0.0
 11
156.1784495692
 21
105.6391724037
 31
0.0
  0
LINE
  5
16C
330
1F
100
AcDbEntity
  8
0
  6
Continuous
 62
     7
370
    25
100
AcDbLine
 10
156.0712698922
 20
105.6391724037
 30
0.0
 11
156.1248597307
 21
105.9979200493
 31
0.0
  0
LINE
  5
16D
330
1F
100
AcDbEntity
  8
0
  6
Continuous
 62
     7
370
    25
100
AcDbLine
 10
149.6248597307
 20
106.0891724037
 30
0.0
 11
149.6248597307
 21
121.1891724037
 31
0.0
  0
LINE
  5
16E
330
1F
100
AcDbEntity
  8
0
  6
Continuous
 62
     7
370
    25
100
AcDbLine
 10
162.6248597307
 20
121.1891724037
 30
0.0
 11
162.6248597307
 21
106.0891724037
 31
0.0
  0
LINE
  5
16F
330
1F
100
AcDbEntity
  8
0
  6
Continuous
 62
     7
370
    25
100
AcDbLine
 10
156.1784495692
 20
105.6391724037
 30
0.0
 11
156.1248597307
 21
105.6391724037
 31
0.0
  0
LINE
  5
170
330
1F
100
AcDbEntity
  8
0
  6
Continuous
 62
     7
370
    25
100
AcDbLine
 10
156.1248597307
 20
105.6391724037
 30
0.0
 11
156.1248597307
 21
105.9979200493
 31
0.0
  0
LINE
  5
171
330
1F
100
AcDbEntity
  8
0
  6
Continuous
 62
     7
370
    25
100
AcDbLine
 10
156.1248597307
 20
105.6391724037
 30
0.0
 11
156.0712698922
 21
105.6391724037
 31
0.0
  0
LINE
  5
172
330
1F
100
AcDbEntity
  8
0
  6
Continuous
 62
     7
370
    25
100
AcDbLine
 10
156.0712698922
 20
121.6391724037
 30
0.0
 11
156.1248597307
 21
121.6391724037
 31
0.0
  0
LINE
  5
173
330
1F
100
AcDbEntity
  8
0
  6
Continuous
 62
     7
370
    25
100
AcDbLine
 10
156.1248597307
 20
121.280424758
 30
0.0
 11
156.1248597307
 21
121.6391724037
 31
0.0
  0
LINE
  5
174
330
1F
100
AcDbEntity
  8
0
  6
Continuous
 62
     7
370
    25
100
AcDbLine
 10
156.1248597307
 20
121.6391724037
 30
0.0
 11
156.1784495692
 21
121.6391724037
 31
0.0
  0
LINE
  5
175
330
1F
100
AcDbEntity
  8
0
  6
Continuous
 62
     7
370
    25
100
AcDbLine
 10
141.4602155373
 20
113.6391724037
 30
0.0
 11
143.9066256988
 21
113.6391724037
 31
0.0
  0
LINE
  5
176
330
1F
100
AcDbEntity
  8
0
  6
Continuous
 62
     7
370
    25
100
AcDbLine
 10
141.4602155373
 20
120.6391724037
 30
0.0
 11
143.9066256988
 21
120.6391724037
 31
0.0
  0
SPLINE
  5
177
330
1F
100
AcDbEntity
  8
0
  6
Continuous
 62
     7
370
    25
100
AcDbSpline
210
0.0
220
0.0
230
1.0
 70
     8
 71
     3
 72
     8
 73
     4
 74
     0
 42
0.000000001
 43
0.00000001
 40
0.0
 40
0.0
 40
0.0
 40
0.0
 40
1.0
 40
1.0
 40
1.0
 40
1.0
 10
143.9602155372694
 20
120.2784603594516
 30
0.0
 10
143.9430931213919
 20
120.39880560107
 30
0.0
 10
143.9252102318738
 20
120.5190400932887
 30
0.0
 10
143.9066256987832
 20
120.6391724036559
 30
0.0
  0
SPLINE
  5
178
330
1F
100
AcDbEntity
  8
0
  6
Continuous
 62
     7
370
    25
100
AcDbSpline
210
0.0
220
0.0
230
1.0
 70
     8
 71
     3
 72
     8
 73
     4
 74
     0
 42
0.000000001
 43
0.00000001
 40
0.0
 40
0.0
 40
0.0
 40
0.0
 40
1.0
 40
1.0
 40
1.0
 40
1.0
 10
144.0138053757557
 20
120.6391724036559
 30
0.0
 10
143.9952142367959
 20
120.5189973922791
 30
0.0
 10
143.9773317060131
 20
120.3987616929654
 30
0.0
 10
143.9602155372694
 20
120.2784603594516
 30
0.0
  0
LINE
  5
179
330
1F
100
AcDbEntity
  8
0
  6
Continuous
 62
     7
370
    25
100
AcDbLine
 10
144.0138053758
 20
120.6391724037
 30
0.0
 11
145.6906631876
 21
120.6391724037
 31
0.0
  0
SPLINE
  5
17A
330
1F
100
AcDbEntity
  8
0
  6
Continuous
 62
     7
370
    25
100
AcDbSpline
210
0.0
220
0.0
230
1.0
 70
     8
 71
     3
 72
    16
 73
    12
 74
     0
 42
0.000000001
 43
0.00000001
 40
0.0
 40
0.0
 40
0.0
 40
0.0
 40
0.25
 40
0.25
 40
0.5
 40
0.5
 40
0.625
 40
0.625
 40
0.75
 40
0.75
 40
1.0
 40
1.0
 40
1.0
 40
1.0
 10
145.6906631876332
 20
120.639172403656
 30
0.0
 10
145.881157658618
 20
120.0676889907017
 30
0.0
 10
146.0381596718311
 20
119.4920388887693
 30
0.0
 10
146.2556584826691
 20
118.3287327813408
 30
0.0
 10
146.3154378437392
 20
117.7409875218699
 30
0.0
 10
146.3160943445932
 20
116.848295868684
 30
0.0
 10
146.3014805781097
 20
116.5493321897673
 30
0.0
 10
146.2444947202328
 20
115.9579504398328
 30
0.0
 10
146.2021804509736
 20
115.6642422495136
 30
0.0
 10
146.0387856310834
 20
114.7883467549791
 30
0.0
 10
145.88139510377
 20
114.2113681520669
 30
0.0
 10
145.690663187633
 20
113.6391724036559
 30
0.0
  0
LINE
  5
17B
330
1F
100
AcDbEntity
  8
0
  6
Continuous
 62
     7
370
    25
100
AcDbLine
 10
144.0138053758
 20
113.6391724037
 30
0.0
 11
145.6906631876
 21
113.6391724037
 31
0.0
  0
SPLINE
  5
17C
330
1F
100
AcDbEntity
  8
0
  6
Continuous
 62
     7
370
    25
100
AcDbSpline
210
0.0
220
0.0
230
1.0
 70
     8
 71
     3
 72
     8
 73
     4
 74
     0
 42
0.000000001
 43
0.00000001
 40
0.0
 40
0.0
 40
0.0
 40
0.0
 40
1.0
 40
1.0
 40
1.0
 40
1.0
 10
143.9602155372694
 20
113.9998844478603
 30
0.0
 10
143.9773379531469
 20
113.8795392062418
 30
0.0
 10
143.9952208426651
 20
113.7593047140232
 30
0.0
 10
144.0138053757557
 20
113.6391724036559
 30
0.0
  0
SPLINE
  5
17D
330
1F
100
AcDbEntity
  8
0
  6
Continuous
 62
     7
370
    25
100
AcDbSpline
210
0.0
220
0.0
230
1.0
 70
     8
 71
     3
 72
     8
 73
     4
 74
     0
 42
0.000000001
 43
0.00000001
 40
0.0
 40
0.0
 40
0.0
 40
0.0
 40
1.0
 40
1.0
 40
1.0
 40
1.0
 10
143.9066256987832
 20
113.6391724036559
 30
0.0
 10
143.925216837743
 20
113.7593474150328
 30
0.0
 10
143.9430993685258
 20
113.8795831143464
 30
0.0
 10
143.9602155372694
 20
113.9998844478603
 30
0.0
  0
LINE
  5
17E
330
1F
100
AcDbEntity
  8
0
  6
Continuous
 62
     7
370
    25
100
AcDbLine
 10
141.4602155373
 20
113.6391724037
 30
0.0
 11
141.4602155373
 21
120.6391724037
 31
0.0
  0
SPLINE
  5
17F
330
1F
100
AcDbEntity
  8
0
  6
Continuous
 62
     7
370
    25
100
AcDbSpline
210
0.0
220
0.0
230
1.0
 70
    24
 71
     3
 72
    11
 73
     7
 74
     0
 42
0.000000001
 43
0.00000001
 40
0.0
 40
0.0
 40
0.0
 40
0.0
 40
0.2350785575676809
 40
0.4249577317004125
 40
0.6154752381569607
 40
1.0
 40
1.0
 40
1.0
 40
1.0
 10
146.3119925890764
 20
120.6391724036559
 30
0.0
 10
146.3063909549401
 20
120.6391724036559
 30
0.0
 10
146.2962647326211
 20
120.6391724036559
 30
0.0
 10
146.1991790864249
 20
120.6391724036559
 30
0.0
 10
146.0293510566179
 20
120.6391724036559
 30
0.0
 10
145.8263846829214
 20
120.6391724036559
 30
0.0
 10
145.6906631876327
 20
120.6391724036559
 30
0.0
  0
SPLINE
  5
180
330
1F
100
AcDbEntity
  8
0
  6
Continuous
 62
     7
370
    25
100
AcDbSpline
210
0.0
220
0.0
230
1.0
 70
    24
 71
     3
 72
    11
 73
     7
 74
     0
 42
0.000000001
 43
0.00000001
 40
0.0
 40
0.0
 40
0.0
 40
0.0
 40
0.3805803846722088
 40
0.5724423905833219
 40
0.7649185414905217
 40
1.0
 40
1.0
 40
1.0
 40
1.0
 10
145.6906631876327
 20
106.639172403656
 30
0.0
 10
145.8250702708537
 20
106.639172403656
 30
0.0
 10
146.0272360027966
 20
106.639172403656
 30
0.0
 10
146.1981340491951
 20
106.6391724036559
 30
0.0
 10
146.2958905313318
 20
106.6391724036559
 30
0.0
 10
146.307149842336
 20
106.6391724036559
 30
0.0
 10
146.3133404823676
 20
106.6391724036559
 30
0.0
  0
SPLINE
  5
181
330
1F
100
AcDbEntity
  8
0
  6
Continuous
 62
     7
370
    25
100
AcDbSpline
210
0.0
220
0.0
230
1.0
 70
     8
 71
     3
 72
    16
 73
    12
 74
     0
 42
0.000000001
 43
0.00000001
 40
0.0
 40
0.0
 40
0.0
 40
0.0
 40
0.25
 40
0.25
 40
0.5
 40
0.5
 40
0.625
 40
0.625
 40
0.75
 40
0.75
 40
1.0
 40
1.0
 40
1.0
 40
1.0
 10
145.6906631876332
 20
113.639172403656
 30
0.0
 10
145.881157658618
 20
113.0676889907016
 30
0.0
 10
146.0381596718311
 20
112.4920388887693
 30
0.0
 10
146.2556584826691
 20
111.3287327813408
 30
0.0
 10
146.3154378437392
 20
110.7409875218699
 30
0.0
 10
146.3160943445931
 20
109.848295868684
 30
0.0
 10
146.3014805781096
 20
109.5493321897673
 30
0.0
 10
146.2444947202328
 20
108.9579504398328
 30
0.0
 10
146.2021804509736
 20
108.6642422495136
 30
0.0
 10
146.0387856310834
 20
107.7883467549791
 30
0.0
 10
145.88139510377
 20
107.2113681520669
 30
0.0
 10
145.690663187633
 20
106.6391724036559
 30
0.0
  0
LINE
  5
182
330
1F
100
AcDbEntity
  8
0
  6
Continuous
 62
     7
370
    25
100
AcDbLine
 10
146.4602155373
 20
120.3891724037
 30
0.0
 11
146.4602155373
 21
106.8891724037
 31
0.0
  0
SPLINE
  5
183
330
1F
100
AcDbEntity
  8
0
  6
Continuous
 62
     7
370
    25
100
AcDbSpline
210
0.0
220
0.0
230
1.0
 70
     8
 71
     3
 72
     8
 73
     4
 74
     0
 42
0.000000001
 43
0.00000001
 40
0.0
 40
0.0
 40
0.0
 40
0.0
 40
1.0
 40
1.0
 40
1.0
 40
1.0
 10
144.0138053757557
 20
113.6391724036559
 30
0.0
 10
143.9952142367959
 20
113.518997392279
 30
0.0
 10
143.9773317060131
 20
113.3987616929654
 30
0.0
 10
143.9602155372694
 20
113.2784603594516
 30
0.0
  0
LINE
  5
184
330
1F
100
AcDbEntity
  8
0
  6
Continuous
 62
     7
370
    25
100
AcDbLine
 10
143.9602155373
 20
113.2784603595
 30
0.0
 11
143.9602155373
 21
113.9998844479
 31
0.0
  0
SPLINE
  5
185
330
1F
100
AcDbEntity
  8
0
  6
Continuous
 62
     7
370
    25
100
AcDbSpline
210
0.0
220
0.0
230
1.0
 70
     8
 71
     3
 72
     8
 73
     4
 74
     0
 42
0.000000001
 43
0.00000001
 40
0.0
 40
0.0
 40
0.0
 40
0.0
 40
1.0
 40
1.0
 40
1.0
 40
1.0
 10
143.9602155372694
 20
113.2784603594516
 30
0.0
 10
143.9430931213919
 20
113.39880560107
 30
0.0
 10
143.9252102318738
 20
113.5190400932887
 30
0.0
 10
143.9066256987832
 20
113.6391724036559
 30
0.0
  0
LINE
  5
186
330
1F
100
AcDbEntity
  8
0
  6
Continuous
 62
     7
370
    25
100
AcDbLine
 10
141.4602155373
 20
106.6391724037
 30
0.0
 11
143.9066256988
 21
106.6391724037
 31
0.0
  0
LINE
  5
187
330
1F
100
AcDbEntity
  8
0
  6
Continuous
 62
     7
370
    25
100
AcDbLine
 10
144.0138053758
 20
106.6391724037
 30
0.0
 11
145.6906631876
 21
106.6391724037
 31
0.0
  0
SPLINE
  5
188
330
1F
100
AcDbEntity
  8
0
  6
Continuous
 62
     7
370
    25
100
AcDbSpline
210
0.0
220
0.0
230
1.0
 70
     8
 71
     3
 72
     8
 73
     4
 74
     0
 42
0.000000001
 43
0.00000001
 40
0.0
 40
0.0
 40
0.0
 40
0.0
 40
1.0
 40
1.0
 40
1.0
 40
1.0
 10
143.9602155372694
 20
106.9998844478603
 30
0.0
 10
143.9773379531469
 20
106.8795392062419
 30
0.0
 10
143.9952208426651
 20
106.7593047140232
 30
0.0
 10
144.0138053757557
 20
106.639172403656
 30
0.0
  0
SPLINE
  5
189
330
1F
100
AcDbEntity
  8
0
  6
Continuous
 62
     7
370
    25
100
AcDbSpline
210
0.0
220
0.0
230
1.0
 70
     8
 71
     3
 72
     8
 73
     4
 74
     0
 42
0.000000001
 43
0.00000001
 40
0.0
 40
0.0
 40
0.0
 40
0.0
 40
1.0
 40
1.0
 40
1.0
 40
1.0
 10
143.9066256987832
 20
106.639172403656
 30
0.0
 10
143.925216837743
 20
106.7593474150329
 30
0.0
 10
143.9430993685258
 20
106.8795831143465
 30
0.0
 10
143.9602155372694
 20
106.9998844478603
 30
0.0
  0
LINE
  5
18A
330
1F
100
AcDbEntity
  8
0
  6
Continuous
 62
     7
370
    25
100
AcDbLine
 10
141.4602155373
 20
106.6391724037
 30
0.0
 11
141.4602155373
 21
113.6391724037
 31
0.0
  0
LINE
  5
18B
330
1F
100
AcDbEntity
  8
0
  6
Continuous
 62
     7
370
    25
100
AcDbLine
 10
131.5495754303
 20
120.0954649003
 30
0.0
 11
131.5495754303
 21
107.182879907
 31
0.0
  0
LINE
  5
18C
330
1F
100
AcDbEntity
  8
0
  6
Continuous
 62
     7
370
    25
100
AcDbLine
 10
149.4602155373
 20
120.2176724037
 30
0.0
 11
149.4602155373
 21
107.0606724037
 31
0.0
  0
LINE
  5
18D
330
1F
100
AcDbEntity
  8
0
  6
Continuous
 62
     7
370
    25
100
AcDbLine
 10
148.4602155373
 20
108.0606724037
 30
0.0
 11
148.4602155373
 21
119.2176724037
 31
0.0
  0
LINE
  5
18E
330
1F
100
AcDbEntity
  8
0
  6
Continuous
 62
     7
370
    25
100
AcDbLine
 10
129.4602155373
 20
108.3891724037
 30
0.0
 11
129.4602155373
 21
118.8891724037
 31
0.0
  0
SPLINE
  5
18F
330
1F
100
AcDbEntity
  8
0
  6
Continuous
 62
     7
370
    25
100
AcDbSpline
210
0.0
220
0.0
230
1.0
 70
    24
 71
     3
 72
     8
 73
     4
 74
     0
 42
0.000000001
 43
0.00000001
 40
0.0
 40
0.0
 40
0.0
 40
0.0
 40
1.0
 40
1.0
 40
1.0
 40
1.0
 10
144.0138053757557
 20
106.639172403656
 30
0.0
 10
143.9952132676025
 20
106.639172403656
 30
0.0
 10
143.977330790209
 20
106.639172403656
 30
0.0
 10
143.9602155372694
 20
106.639172403656
 30
0.0
  0
LINE
  5
190
330
1F
100
AcDbEntity
  8
0
  6
Continuous
 62
     7
370
    25
100
AcDbLine
 10
143.9602155373
 20
106.6391724037
 30
0.0
 11
143.9602155373
 21
106.9998844479
 31
0.0
  0
SPLINE
  5
191
330
1F
100
AcDbEntity
  8
0
  6
Continuous
 62
     7
370
    25
100
AcDbSpline
210
0.0
220
0.0
230
1.0
 70
    24
 71
     3
 72
     8
 73
     4
 74
     0
 42
0.000000001
 43
0.00000001
 40
0.0
 40
0.0
 40
0.0
 40
0.0
 40
1.0
 40
1.0
 40
1.0
 40
1.0
 10
143.9602155372694
 20
106.639172403656
 30
0.0
 10
143.9430934428744
 20
106.639172403656
 30
0.0
 10
143.9252105715849
 20
106.639172403656
 30
0.0
 10
143.9066256987832
 20
106.639172403656
 30
0.0
  0
SPLINE
  5
192
330
1F
100
AcDbEntity
  8
0
  6
Continuous
 62
     7
370
    25
100
AcDbSpline
210
0.0
220
0.0
230
1.0
 70
    24
 71
     3
 72
     8
 73
     4
 74
     0
 42
0.000000001
 43
0.00000001
 40
0.0
 40
0.0
 40
0.0
 40
0.0
 40
1.0
 40
1.0
 40
1.0
 40
1.0
 10
143.9602155372694
 20
120.6391724036559
 30
0.0
 10
143.9773376316645
 20
120.6391724036559
 30
0.0
 10
143.995220502954
 20
120.6391724036559
 30
0.0
 10
144.0138053757557
 20
120.6391724036559
 30
0.0
  0
LINE
  5
193
330
1F
100
AcDbEntity
  8
0
  6
Continuous
 62
     7
370
    25
100
AcDbLine
 10
143.9602155373
 20
120.2784603595
 30
0.0
 11
143.9602155373
 21
120.6391724037
 31
0.0
  0
SPLINE
  5
194
330
1F
100
AcDbEntity
  8
0
  6
Continuous
 62
     7
370
    25
100
AcDbSpline
210
0.0
220
0.0
230
1.0
 70
    24
 71
     3
 72
     8
 73
     4
 74
     0
 42
0.000000001
 43
0.00000001
 40
0.0
 40
0.0
 40
0.0
 40
0.0
 40
1.0
 40
1.0
 40
1.0
 40
1.0
 10
143.9066256987832
 20
120.6391724036559
 30
0.0
 10
143.9252178069364
 20
120.6391724036559
 30
0.0
 10
143.9431002843299
 20
120.6391724036559
 30
0.0
 10
143.9602155372694
 20
120.6391724036559
 30
0.0
  0
LINE
  5
195
330
1F
100
AcDbEntity
  8
0
  6
Continuous
 62
     8
370
    25
100
AcDbLine
 10
187.9187517666
 20
109.7057232806
 30
0.0
 11
187.9187517666
 21
117.5726215267
 31
0.0
  0
LINE
  5
196
330
1F
100
AcDbEntity
  8
0
  6
Continuous
 62
     8
370
    25
100
AcDbLine
 10
149.9248597307
 20
121.4891724037
 30
0.0
 11
149.9248597307
 21
105.7891724037
 31
0.0
  0
LINE
  5
197
330
1F
100
AcDbEntity
  8
0
  6
Continuous
 62
     8
370
    25
100
AcDbLine
 10
162.3248597307
 20
105.7891724037
 30
0.0
 11
162.3248597307
 21
121.4891724037
 31
0.0
  0
LINE
  5
198
330
1F
100
AcDbEntity
  8
0
  6
Continuous
 62
     7
370
     0
100
AcDbLine
 10
130.3254412598
 20
119.3887107075
 30
0.0
 11
140.9602155373
 21
119.7210474037
 31
0.0
  0
LINE
  5
199
330
1F
100
AcDbEntity
  8
0
  6
Continuous
 62
     7
370
     0
100
AcDbLine
 10
130.3254412598
 20
107.8896340998
 30
0.0
 11
140.9602155373
 21
107.5572974037
 31
0.0
  0
LINE
  5
19A
330
1F
100
AcDbEntity
  8
0
  6
Continuous
 62
     7
370
     0
100
AcDbLine
 10
140.9602155373
 20
106.8887974037
 30
0.0
 11
140.9602155373
 21
120.3895474037
 31
0.0
  0
LINE
  5
19B
330
1F
100
AcDbEntity
  8
0
  6
Continuous
 62
     7
370
     0
100
AcDbLine
 10
130.3254412598
 20
119.3887107075
 30
0.0
 11
140.9602155373
 21
119.7210474037
 31
0.0
  0
LINE
  5
19C
330
1F
100
AcDbEntity
  8
0
  6
Continuous
 62
     7
370
     0
100
AcDbLine
 10
130.3254412598
 20
107.8896340998
 30
0.0
 11
140.9602155373
 21
107.5572974037
 31
0.0
  0
LINE
  5
19D
330
1F
100
AcDbEntity
  8
0
  6
Continuous
 62
     7
370
     0
100
AcDbLine
 10
140.9602155373
 20
106.8887974037
 30
0.0
 11
140.9602155373
 21
120.3895474037
 31
0.0
  0
LINE
  5
19E
330
1F
100
AcDbEntity
  8
0
  6
CENTERX2
 62
     7
370
    18
100
AcDbLine
 10
127.4602155373
 20
113.6391724037
 30
0.0
 11
143.4602155373
 21
113.6391724037
 31
0.0
  0
LINE
  5
19F
330
1F
100
AcDbEntity
  8
0
  6
CENTERX2
 62
     7
370
    18
100
AcDbLine
 10
144.4602155373
 20
113.6391724037
 30
0.0
 11
190.6248597307
 21
113.6391724037
 31
0.0
  0
ENDSEC
  0
SECTION
  2
OBJECTS
  0
DICTIONARY
  5
C
330
0
100
AcDbDictionary
281
     1
  3
ACAD_GROUP
350
D
  3
ACAD_LAYOUT
350
1A
  3
ACAD_MLINESTYLE
350
17
  3
ACAD_PLOTSETTINGS
350
19
  3
ACAD_PLOTSTYLENAME
350
E
  3
ACAD_SCALELIST
350
47
  0
DICTIONARY
  5
D
102
{ACAD_REACTORS
330
C
102
}
330
C
100
AcDbDictionary
281
     1
  0
DICTIONARY
  5
1A
102
{ACAD_REACTORS
330
C
102
}
330
C
100
AcDbDictionary
281
     1
  3
Layout1
350
1E
  3
Layout2
350
26
  3
Model
350
22
  0
DICTIONARY
  5
17
102
{ACAD_REACTORS
330
C
102
}
330
C
100
AcDbDictionary
281
     1
  3
Standard
350
18
  0
DICTIONARY
  5
19
102
{ACAD_REACTORS
330
C
102
}
330
C
100
AcDbDictionary
281
     1
  0
ACDBDICTIONARYWDFLT
  5
E
102
{ACAD_REACTORS
330
C
102
}
330
C
100
AcDbDictionary
281
     1
  3
Normal
350
F
100
AcDbDictionaryWithDefault
340
F
  0
DICTIONARY
  5
47
102
{ACAD_REACTORS
330
C
102
}
330
C
100
AcDbDictionary
281
     1
  3
A0
350
48
  3
A1
350
49
  3
A2
350
4A
  3
A3
350
4B
  3
A4
350
4C
  3
A5
350
4D
  3
A6
350
4E
  3
A7
350
4F
  3
A8
350
50
  3
A9
350
51
  3
B0
350
52
  3
B1
350
53
  3
B2
350
54
  3
B3
350
55
  3
B4
350
56
  3
B5
350
57
  3
B6
350
58
  3
B7
350
59
  3
B8
350
5A
  3
B9
350
5B
  3
C0
350
5C
  3
C1
350
5D
  3
C2
350
5E
  3
C3
350
5F
  3
C4
350
60
  3
C5
350
61
  3
C6
350
62
  3
C7
350
63
  3
C8
350
64
  3
C9
350
65
  3
D0
350
66
  3
D1
350
67
  3
D2
350
68
  0
LAYOUT
  5
1E
102
{ACAD_REACTORS
330
1A
102
}
330
1A
100
AcDbPlotSettings
  1

  2
none_device
  4

  6

 40
0.0
 41
0.0
 42
0.0
 43
0.0
 44
0.0
 45
0.0
 46
0.0
 47
0.0
 48
0.0
 49
0.0
140
0.0
141
0.0
142
1.0
143
1.0
 70
   688
 72
     1
 73
     0
 74
     5
  7

 75
    16
147
1.0
148
0.0
149
0.0
100
AcDbLayout
  1
Layout1
 70
     1
 71
     1
 10
0.0
 20
0.0
 11
420.0
 21
297.0
 12
0.0
 22
0.0
 32
0.0
 14
1.0000000000E+20
 24
1.0000000000E+20
 34
1.0000000000E+20
 15
-1.0000000000E+20
 25
-1.0000000000E+20
 35
-1.0000000000E+20
146
0.0
 13
0.0
 23
0.0
 33
0.0
 16
1.0
 26
0.0
 36
0.0
 17
0.0
 27
1.0
 37
0.0
 76
     0
330
1B
  0
LAYOUT
  5
26
102
{ACAD_REACTORS
330
1A
102
}
330
1A
100
AcDbPlotSettings
  1

  2
none_device
  4

  6

 40
0.0
 41
0.0
 42
0.0
 43
0.0
 44
0.0
 45
0.0
 46
0.0
 47
0.0
 48
0.0
 49
0.0
140
0.0
141
0.0
142
1.0
143
1.0
 70
   688
 72
     1
 73
     0
 74
     5
  7

 75
    16
147
1.0
148
0.0
149
0.0
100
AcDbLayout
  1
Layout2
 70
     1
 71
     2
 10
0.0
 20
0.0
 11
0.0
 21
0.0
 12
0.0
 22
0.0
 32
0.0
 14
0.0
 24
0.0
 34
0.0
 15
0.0
 25
0.0
 35
0.0
146
0.0
 13
0.0
 23
0.0
 33
0.0
 16
1.0
 26
0.0
 36
0.0
 17
0.0
 27
1.0
 37
0.0
 76
     0
330
23
  0
LAYOUT
  5
22
102
{ACAD_REACTORS
330
1A
102
}
330
1A
100
AcDbPlotSettings
  1

  2
none_device
  4
Letter_(8.50_x_11.00_Inches)
  6

 40
6.35
 41
6.35
 42
6.35000508
 43
6.35000508
 44
215.9
 45
279.4
 46
0.0
 47
0.0
 48
0.0
 49
0.0
140
0.0
141
0.0
142
1.0
143
1.0
 70
  1712
 72
     1
 73
     0
 74
     0
  7

 75
     0
147
1.0
148
0.0
149
0.0
100
AcDbLayout
  1
Model
 70
     1
 71
     0
 10
0.0
 20
0.0
 11
431.8
 21
279.4
 12
0.0
 22
0.0
 32
0.0
 14
0.0
 24
0.0
 34
0.0
 15
431.8
 25
279.4
 35
0.0
146
0.0
 13
0.0
 23
0.0
 33
0.0
 16
1.0
 26
0.0
 36
0.0
 17
0.0
 27
1.0
 37
0.0
 76
     0
330
1F
331
29
  0
MLINESTYLE
  5
18
102
{ACAD_REACTORS
330
17
102
}
330
17
100
AcDbMlineStyle
  2
Standard
 70
     0
  3

 62
   256
 51
90.0
 52
90.0
 71
     2
 49
0.5
 62
   256
  6
BYLAYER
 49
-0.5
 62
   256
  6
BYLAYER
  0
ACDBPLACEHOLDER
  5
F
102
{ACAD_REACTORS
330
E
102
}
330
E
  0
SCALE
  5
48
102
{ACAD_REACTORS
330
47
102
}
330
47
100
AcDbScale
 70
     0
300
1:1
140
1.0
141
1.0
290
     1
  0
SCALE
  5
49
102
{ACAD_REACTORS
330
47
102
}
330
47
100
AcDbScale
 70
     0
300
1:2
140
1.0
141
2.0
290
     0
  0
SCALE
  5
4A
102
{ACAD_REACTORS
330
47
102
}
330
47
100
AcDbScale
 70
     0
300
1:4
140
1.0
141
4.0
290
     0
  0
SCALE
  5
4B
102
{ACAD_REACTORS
330
47
102
}
330
47
100
AcDbScale
 70
     0
300
1:5
140
1.0
141
5.0
290
     0
  0
SCALE
  5
4C
102
{ACAD_REACTORS
330
47
102
}
330
47
100
AcDbScale
 70
     0
300
1:8
140
1.0
141
8.0
290
     0
  0
SCALE
  5
4D
102
{ACAD_REACTORS
330
47
102
}
330
47
100
AcDbScale
 70
     0
300
1:10
140
1.0
141
10.0
290
     0
  0
SCALE
  5
4E
102
{ACAD_REACTORS
330
47
102
}
330
47
100
AcDbScale
 70
     0
300
1:16
140
1.0
141
16.0
290
     0
  0
SCALE
  5
4F
102
{ACAD_REACTORS
330
47
102
}
330
47
100
AcDbScale
 70
     0
300
1:20
140
1.0
141
20.0
290
     0
  0
SCALE
  5
50
102
{ACAD_REACTORS
330
47
102
}
330
47
100
AcDbScale
 70
     0
300
1:30
140
1.0
141
30.0
290
     0
  0
SCALE
  5
51
102
{ACAD_REACTORS
330
47
102
}
330
47
100
AcDbScale
 70
     0
300
1:40
140
1.0
141
40.0
290
     0
  0
SCALE
  5
52
102
{ACAD_REACTORS
330
47
102
}
330
47
100
AcDbScale
 70
     0
300
1:50
140
1.0
141
50.0
290
     0
  0
SCALE
  5
53
102
{ACAD_REACTORS
330
47
102
}
330
47
100
AcDbScale
 70
     0
300
1:100
140
1.0
141
100.0
290
     0
  0
SCALE
  5
54
102
{ACAD_REACTORS
330
47
102
}
330
47
100
AcDbScale
 70
     0
300
2:1
140
2.0
141
1.0
290
     0
  0
SCALE
  5
55
102
{ACAD_REACTORS
330
47
102
}
330
47
100
AcDbScale
 70
     0
300
4:1
140
4.0
141
1.0
290
     0
  0
SCALE
  5
56
102
{ACAD_REACTORS
330
47
102
}
330
47
100
AcDbScale
 70
     0
300
8:1
140
8.0
141
1.0
290
     0
  0
SCALE
  5
57
102
{ACAD_REACTORS
330
47
102
}
330
47
100
AcDbScale
 70
     0
300
10:1
140
10.0
141
1.0
290
     0
  0
SCALE
  5
58
102
{ACAD_REACTORS
330
47
102
}
330
47
100
AcDbScale
 70
     0
300
100:1
140
100.0
141
1.0
290
     0
  0
SCALE
  5
59
102
{ACAD_REACTORS
330
47
102
}
330
47
100
AcDbScale
 70
     0
300
1/128" = 1'-0"
140
0.0078125
141
12.0
290
     0
  0
SCALE
  5
5A
102
{ACAD_REACTORS
330
47
102
}
330
47
100
AcDbScale
 70
     0
300
1/64" = 1'-0"
140
0.015625
141
12.0
290
     0
  0
SCALE
  5
5B
102
{ACAD_REACTORS
330
47
102
}
330
47
100
AcDbScale
 70
     0
300
1/32" = 1'-0"
140
0.03125
141
12.0
290
     0
  0
SCALE
  5
5C
102
{ACAD_REACTORS
330
47
102
}
330
47
100
AcDbScale
 70
     0
300
1/16" = 1'-0"
140
0.0625
141
12.0
290
     0
  0
SCALE
  5
5D
102
{ACAD_REACTORS
330
47
102
}
330
47
100
AcDbScale
 70
     0
300
3/32" = 1'-0"
140
0.09375
141
12.0
290
     0
  0
SCALE
  5
5E
102
{ACAD_REACTORS
330
47
102
}
330
47
100
AcDbScale
 70
     0
300
1/8" = 1'-0"
140
0.125
141
12.0
290
     0
  0
SCALE
  5
5F
102
{ACAD_REACTORS
330
47
102
}
330
47
100
AcDbScale
 70
     0
300
3/16" = 1'-0"
140
0.1875
141
12.0
290
     0
  0
SCALE
  5
60
102
{ACAD_REACTORS
330
47
102
}
330
47
100
AcDbScale
 70
     0
300
1/4" = 1'-0"
140
0.25
141
12.0
290
     0
  0
SCALE
  5
61
102
{ACAD_REACTORS
330
47
102
}
330
47
100
AcDbScale
 70
     0
300
3/8" = 1'-0"
140
0.375
141
12.0
290
     0
  0
SCALE
  5
62
102
{ACAD_REACTORS
330
47
102
}
330
47
100
AcDbScale
 70
     0
300
1/2" = 1'-0"
140
0.5
141
12.0
290
     0
  0
SCALE
  5
63
102
{ACAD_REACTORS
330
47
102
}
330
47
100
AcDbScale
 70
     0
300
3/4" = 1'-0"
140
0.75
141
12.0
290
     0
  0
SCALE
  5
64
102
{ACAD_REACTORS
330
47
102
}
330
47
100
AcDbScale
 70
     0
300
1" = 1'-0"
140
1.0
141
12.0
290
     0
  0
SCALE
  5
65
102
{ACAD_REACTORS
330
47
102
}
330
47
100
AcDbScale
 70
     0
300
1-1/2" = 1'-0"
140
1.5
141
12.0
290
     0
  0
SCALE
  5
66
102
{ACAD_REACTORS
330
47
102
}
330
47
100
AcDbScale
 70
     0
300
3" = 1'-0"
140
3.0
141
12.0
290
     0
  0
SCALE
  5
67
102
{ACAD_REACTORS
330
47
102
}
330
47
100
AcDbScale
 70
     0
300
6" = 1'-0"
140
6.0
141
12.0
290
     0
  0
SCALE
  5
68
102
{ACAD_REACTORS
330
47
102
}
330
47
100
AcDbScale
 70
     0
300
1'-0" = 1'-0"
140
12.0
141
12.0
290
     0
  0
ENDSEC
  0
EOF
