  0
SECTION
  2
HEADER
  9
$ACADVER
  1
AC1015
  9
$ACADMAINTVER
 70
     6
  9
$DWGCODEPAGE
  3
DOS932
  9
$INSBASE
 10
0.0
 20
0.0
 30
0.0
  9
$EXTMIN
 10
0.0
 20
0.0
 30
0.0
  9
$EXTMAX
 10
431.8
 20
279.4
 30
0.0
  9
$LIMMIN
 10
0.0
 20
0.0
  9
$LIMMAX
 10
431.8
 20
279.4
  9
$ORTHOMODE
 70
     0
  9
$REGENMODE
 70
     1
  9
$FILLMODE
 70
     1
  9
$QTEXTMODE
 70
     0
  9
$MIRRTEXT
 70
     1
  9
$LTSCALE
 40
1.0
  9
$ATTMODE
 70
     1
  9
$TEXTSIZE
 40
3.5
  9
$TRACEWID
 40
1.0
  9
$TEXTSTYLE
  7
Standard
  9
$CLAYER
  8
0
  9
$CELTYPE
  6
ByLayer
  9
$CECOLOR
 62
   256
  9
$CELTSCALE
 40
1.0
  9
$DISPSILH
 70
     0
  9
$DIMSCALE
 40
1.0
  9
$DIMASZ
 40
3.302
  9
$DIMEXO
 40
1.0
  9
$DIMDLI
 40
3.75
  9
$DIMRND
 40
0.0
  9
$DIMDLE
 40
0.0
  9
$DIMEXE
 40
1.0
  9
$DIMTP
 40
0.0
  9
$DIMTM
 40
0.0
  9
$DIMTXT
 40
3.5
  9
$DIMCEN
 40
2.5
  9
$DIMTSZ
 40
0.0
  9
$DIMTOL
 70
     0
  9
$DIMLIM
 70
     0
  9
$DIMTIH
 70
     1
  9
$DIMTOH
 70
     1
  9
$DIMSE1
 70
     0
  9
$DIMSE2
 70
     0
  9
$DIMTAD
 70
     1
  9
$DIMZIN
 70
     1
  9
$DIMBLK
  1

  9
$DIMASO
 70
     1
  9
$DIMSHO
 70
     1
  9
$DIMPOST
  1

  9
$DIMAPOST
  1

  9
$DIMALT
 70
     0
  9
$DIMALTD
 70
     3
  9
$DIMALTF
 40
0.0393700787
  9
$DIMLFAC
 40
1.0
  9
$DIMTOFL
 70
     1
  9
$DIMTVP
 40
0.0
  9
$DIMTIX
 70
     0
  9
$DIMSOXD
 70
     0
  9
$DIMSAH
 70
     0
  9
$DIMBLK1
  1

  9
$DIMBLK2
  1

  9
$DIMSTYLE
  2
ISO-25
  9
$DIMCLRD
 70
     0
  9
$DIMCLRE
 70
     0
  9
$DIMCLRT
 70
     0
  9
$DIMTFAC
 40
1.0
  9
$DIMGAP
 40
1.524
  9
$DIMJUST
 70
     0
  9
$DIMSD1
 70
     0
  9
$DIMSD2
 70
     0
  9
$DIMTOLJ
 70
     0
  9
$DIMTZIN
 70
     1
  9
$DIMALTZ
 70
     0
  9
$DIMALTTZ
 70
     0
  9
$DIMUPT
 70
     0
  9
$DIMDEC
 70
     2
  9
$DIMTDEC
 70
     2
  9
$DIMALTU
 70
     2
  9
$DIMALTTD
 70
     3
  9
$DIMTXSTY
  7
Standard
  9
$DIMAUNIT
 70
     0
  9
$DIMADEC
 70
     2
  9
$DIMALTRND
 40
0.0
  9
$DIMAZIN
 70
     0
  9
$DIMDSEP
 70
    44
  9
$DIMATFIT
 70
     3
  9
$DIMFRAC
 70
     0
  9
$DIMLDRBLK
  1

  9
$DIMLUNIT
 70
     2
  9
$DIMLWD
 70
    -2
  9
$DIMLWE
 70
    -2
  9
$DIMTMOVE
 70
     0
  9
$LUNITS
 70
     2
  9
$LUPREC
 70
     2
  9
$SKETCHINC
 40
1.0
  9
$FILLETRAD
 40
10.0
  9
$AUNITS
 70
     0
  9
$AUPREC
 70
     2
  9
$MENU
  1
.
  9
$ELEVATION
 40
0.0
  9
$PELEVATION
 40
0.0
  9
$THICKNESS
 40
0.0
  9
$LIMCHECK
 70
     0
  9
$CHAMFERA
 40
0.0
  9
$CHAMFERB
 40
0.0
  9
$CHAMFERC
 40
0.0
  9
$CHAMFERD
 40
0.0
  9
$SKPOLY
 70
     0
  9
$TDCREATE
 40
2459285.462186516
  9
$TDUCREATE
 40
2459285.087186516
  9
$TDUPDATE
 40
2459285.462187153
  9
$TDUUPDATE
 40
2459285.087187153
  9
$TDINDWG
 40
0.0000000116
  9
$TDUSRTIMER
 40
0.0000000116
  9
$USRTIMER
 70
     1
  9
$ANGBASE
 50
0.0
  9
$ANGDIR
 70
     0
  9
$PDMODE
 70
     0
  9
$PDSIZE
 40
-1.0
  9
$PLINEWID
 40
0.0
  9
$SPLFRAME
 70
     0
  9
$SPLINETYPE
 70
     6
  9
$SPLINESEGS
 70
     8
  9
$HANDSEED
  5
1A6
  9
$SURFTAB1
 70
     6
  9
$SURFTAB2
 70
     6
  9
$SURFTYPE
 70
     6
  9
$SURFU
 70
     6
  9
$SURFV
 70
     6
  9
$UCSBASE
  2

  9
$UCSNAME
  2

  9
$UCSORG
 10
0.0
 20
0.0
 30
0.0
  9
$UCSXDIR
 10
1.0
 20
0.0
 30
0.0
  9
$UCSYDIR
 10
0.0
 20
1.0
 30
0.0
  9
$UCSORTHOREF
  2

  9
$UCSORTHOVIEW
 70
     0
  9
$UCSORGTOP
 10
0.0
 20
0.0
 30
0.0
  9
$UCSORGBOTTOM
 10
0.0
 20
0.0
 30
0.0
  9
$UCSORGLEFT
 10
0.0
 20
0.0
 30
0.0
  9
$UCSORGRIGHT
 10
0.0
 20
0.0
 30
0.0
  9
$UCSORGFRONT
 10
0.0
 20
0.0
 30
0.0
  9
$UCSORGBACK
 10
0.0
 20
0.0
 30
0.0
  9
$PUCSBASE
  2

  9
$PUCSNAME
  2

  9
$PUCSORG
 10
0.0
 20
0.0
 30
0.0
  9
$PUCSXDIR
 10
1.0
 20
0.0
 30
0.0
  9
$PUCSYDIR
 10
0.0
 20
1.0
 30
0.0
  9
$PUCSORTHOREF
  2

  9
$PUCSORTHOVIEW
 70
     0
  9
$PUCSORGTOP
 10
0.0
 20
0.0
 30
0.0
  9
$PUCSORGBOTTOM
 10
0.0
 20
0.0
 30
0.0
  9
$PUCSORGLEFT
 10
0.0
 20
0.0
 30
0.0
  9
$PUCSORGRIGHT
 10
0.0
 20
0.0
 30
0.0
  9
$PUCSORGFRONT
 10
0.0
 20
0.0
 30
0.0
  9
$PUCSORGBACK
 10
0.0
 20
0.0
 30
0.0
  9
$USERI1
 70
     0
  9
$USERI2
 70
     0
  9
$USERI3
 70
     0
  9
$USERI4
 70
     0
  9
$USERI5
 70
     0
  9
$USERR1
 40
0.0
  9
$USERR2
 40
0.0
  9
$USERR3
 40
0.0
  9
$USERR4
 40
0.0
  9
$USERR5
 40
0.0
  9
$WORLDVIEW
 70
     1
  9
$SHADEDGE
 70
     3
  9
$SHADEDIF
 70
    70
  9
$TILEMODE
 70
     1
  9
$MAXACTVP
 70
    64
  9
$PINSBASE
 10
0.0
 20
0.0
 30
0.0
  9
$PLIMCHECK
 70
     0
  9
$PEXTMIN
 10
1.0000000000E+20
 20
1.0000000000E+20
 30
1.0000000000E+20
  9
$PEXTMAX
 10
-1.0000000000E+20
 20
-1.0000000000E+20
 30
-1.0000000000E+20
  9
$PLIMMIN
 10
0.0
 20
0.0
  9
$PLIMMAX
 10
420.0
 20
297.0
  9
$UNITMODE
 70
     0
  9
$VISRETAIN
 70
     1
  9
$PLINEGEN
 70
     0
  9
$PSLTSCALE
 70
     1
  9
$TREEDEPTH
 70
  3020
  9
$CMLSTYLE
  2
Standard
  9
$CMLJUST
 70
     0
  9
$CMLSCALE
 40
20.0
  9
$PROXYGRAPHICS
 70
     1
  9
$MEASUREMENT
 70
     1
  9
$CELWEIGHT
370
    -1
  9
$ENDCAPS
280
     0
  9
$JOINSTYLE
280
     0
  9
$LWDISPLAY
290
     1
  9
$INSUNITS
 70
     4
  9
$HYPERLINKBASE
  1

  9
$STYLESHEET
  1

  9
$XEDIT
290
     1
  9
$CEPSNTYPE
380
     0
  9
$PSTYLEMODE
290
     1
  9
$FINGERPRINTGUID
  2
{25569119-804E-42A9-A059-CF8779EA776D}
  9
$VERSIONGUID
  2
{FAEB1C32-E019-11D5-929B-00C0DF256EC4}
  9
$EXTNAMES
290
     1
  9
$PSVPSCALE
 40
0.0
  9
$OLESTARTUP
290
     0
  0
ENDSEC
  0
SECTION
  2
CLASSES
  0
CLASS
  1
ACDBDICTIONARYWDFLT
  2
AcDbDictionaryWithDefault
  3
ObjectDBX Classes
 90
        0
280
     0
281
     0
  0
CLASS
  1
VISUALSTYLE
  2
AcDbVisualStyle
  3
ObjectDBX Classes
 90
     4095
280
     0
281
     0
  0
CLASS
  1
MATERIAL
  2
AcDbMaterial
  3
ObjectDBX Classes
 90
     1153
280
     0
281
     0
  0
CLASS
  1
SCALE
  2
AcDbScale
  3
ObjectDBX Classes
 90
     1153
280
     0
281
     0
  0
CLASS
  1
TABLESTYLE
  2
AcDbTableStyle
  3
ObjectDBX Classes
 90
     4095
280
     0
281
     0
  0
CLASS
  1
MLEADERSTYLE
  2
AcDbMLeaderStyle
  3
ACDB_MLEADERSTYLE_CLASS
 90
     4095
280
     0
281
     0
  0
CLASS
  1
SUN
  2
AcDbSun
  3
SCENEOE
 90
     1153
280
     0
281
     0
  0
CLASS
  1
ACDBPLACEHOLDER
  2
AcDbPlaceHolder
  3
ObjectDBX Classes
 90
        0
280
     0
281
     0
  0
CLASS
  1
LAYOUT
  2
AcDbLayout
  3
ObjectDBX Classes
 90
        0
280
     0
281
     0
  0
ENDSEC
  0
SECTION
  2
TABLES
  0
TABLE
  2
VPORT
  5
8
330
0
100
AcDbSymbolTable
 70
     1
  0
VPORT
  5
29
330
8
100
AcDbSymbolTableRecord
100
AcDbViewportTableRecord
  2
*Active
 70
     0
 10
0.0
 20
0.0
 11
1.0
 21
1.0
 12
215.9
 22
139.7
 13
0.0
 23
0.0
 14
10.0
 24
10.0
 15
10.0
 25
10.0
 16
0.0
 26
0.0
 36
1.0
 17
0.0
 27
0.0
 37
0.0
 40
279.4
 41
1.5454545455
 42
50.0
 43
0.0
 44
0.0
 50
0.0
 51
0.0
 71
     0
 72
  2000
 73
     1
 74
     3
 75
     0
 76
     0
 77
     0
 78
     0
281
     0
 65
     1
110
0.0
120
0.0
130
0.0
111
1.0
121
0.0
131
0.0
112
0.0
122
1.0
132
0.0
 79
     0
146
0.0
  0
ENDTAB
  0
TABLE
  2
LTYPE
  5
5
330
0
100
AcDbSymbolTable
 70
     6
  0
LTYPE
  5
14
330
5
100
AcDbSymbolTableRecord
100
AcDbLinetypeTableRecord
  2
ByBlock
 70
     0
  3

 72
    65
 73
     0
 40
0.0
  0
LTYPE
  5
15
330
5
100
AcDbSymbolTableRecord
100
AcDbLinetypeTableRecord
  2
ByLayer
 70
     0
  3

 72
    65
 73
     0
 40
0.0
  0
LTYPE
  5
16
330
5
100
AcDbSymbolTableRecord
100
AcDbLinetypeTableRecord
  2
Continuous
 70
     0
  3
Solid line
 72
    65
 73
     0
 40
0.0
  0
LTYPE
  5
6E
330
5
100
AcDbSymbolTableRecord
100
AcDbLinetypeTableRecord
  2
HIDDEN
 70
     0
  3
Hidden __ __ __ __ __ __ __ __ __ __ __ __ __ __
 72
    65
 73
     2
 40
1.905
 49
1.27
 74
     0
 49
-0.635
 74
     0
  0
LTYPE
  5
6F
330
5
100
AcDbSymbolTableRecord
100
AcDbLinetypeTableRecord
  2
PHANTOM
 70
     0
  3
Phantom ______  __  __  ______  __  __  ______
 72
    65
 73
     6
 40
12.7
 49
6.35
 74
     0
 49
-1.27
 74
     0
 49
1.27
 74
     0
 49
-1.27
 74
     0
 49
1.27
 74
     0
 49
-1.27
 74
     0
  0
LTYPE
  5
70
330
5
100
AcDbSymbolTableRecord
100
AcDbLinetypeTableRecord
  2
CENTER
 70
     0
  3
Center ____ _ ____ _ ____ _ ____ _ ____ _ ____
 72
    65
 73
     4
 40
10.16
 49
6.35
 74
     0
 49
-1.27
 74
     0
 49
1.27
 74
     0
 49
-1.27
 74
     0
  0
LTYPE
  5
71
330
5
100
AcDbSymbolTableRecord
100
AcDbLinetypeTableRecord
  2
CENTERX2
 70
     0
  3
Center (2x) ________  __  ________  __  _____
 72
    65
 73
     4
 40
20.32
 49
12.7
 74
     0
 49
-2.54
 74
     0
 49
2.54
 74
     0
 49
-2.54
 74
     0
  0
LTYPE
  5
72
330
5
100
AcDbSymbolTableRecord
100
AcDbLinetypeTableRecord
  2
DOT2
 70
     0
  3
Dot (.5x) ........................................
 72
    65
 73
     2
 40
0.635
 49
0.0
 74
     0
 49
-0.635
 74
     0
  0
ENDTAB
  0
TABLE
  2
LAYER
  5
2
330
0
100
AcDbSymbolTable
 70
     1
  0
LAYER
  5
10
330
2
100
AcDbSymbolTableRecord
100
AcDbLayerTableRecord
  2
0
 70
     0
 62
     7
  6
Continuous
370
    -3
390
F
  0
ENDTAB
  0
TABLE
  2
STYLE
  5
3
330
0
100
AcDbSymbolTable
 70
     2
  0
STYLE
  5
11
330
3
100
AcDbSymbolTableRecord
100
AcDbTextStyleTableRecord
  2
Standard
 70
     0
 40
0.0
 41
1.0
 50
0.0
 71
     0
 42
3.5
  3
txt
  4
bigfont
  0
STYLE
  5
73
330
3
100
AcDbSymbolTableRecord
100
AcDbTextStyleTableRecord
  2
SLDTEXTSTYLE0
 70
     0
 40
0.0
 41
0.7
 50
0.0
 71
     0
 42
3.5
  3
TXT
  4
bigfont
  0
ENDTAB
  0
TABLE
  2
VIEW
  5
6
330
0
100
AcDbSymbolTable
 70
     0
  0
ENDTAB
  0
TABLE
  2
UCS
  5
7
330
0
100
AcDbSymbolTable
 70
     0
  0
ENDTAB
  0
TABLE
  2
APPID
  5
9
330
0
100
AcDbSymbolTable
 70
     1
  0
APPID
  5
12
330
9
100
AcDbSymbolTableRecord
100
AcDbRegAppTableRecord
  2
ACAD
 70
     0
  0
ENDTAB
  0
TABLE
  2
DIMSTYLE
  5
A
330
0
100
AcDbSymbolTable
 70
     1
100
AcDbDimStyleTable
  0
DIMSTYLE
105
27
330
A
100
AcDbSymbolTableRecord
100
AcDbDimStyleTableRecord
  2
ISO-25
 70
     0
 41
2.5
 42
0.625
 43
3.75
 44
1.25
 73
     0
 74
     0
 77
     1
 78
     8
140
2.5
141
2.5
143
0.0393700787
147
0.625
171
     3
172
     1
178
     0
271
     2
272
     2
274
     3
278
    44
283
     0
284
     8
340
11
  0
ENDTAB
  0
TABLE
  2
BLOCK_RECORD
  5
1
330
0
100
AcDbSymbolTable
 70
     2
  0
BLOCK_RECORD
  5
1F
330
1
100
AcDbSymbolTableRecord
100
AcDbBlockTableRecord
  2
*Model_Space
340
22
  0
BLOCK_RECORD
  5
1B
330
1
100
AcDbSymbolTableRecord
100
AcDbBlockTableRecord
  2
*Paper_Space
340
1E
  0
BLOCK_RECORD
  5
23
330
1
100
AcDbSymbolTableRecord
100
AcDbBlockTableRecord
  2
*Paper_Space0
340
26
  0
BLOCK_RECORD
  5
11C
330
1
100
AcDbSymbolTableRecord
100
AcDbBlockTableRecord
  2
SW_CENTERMARKSYMBOL_0
340
0
102
{BLKREFS
331
127
102
}
  0
ENDTAB
  0
ENDSEC
  0
SECTION
  2
BLOCKS
  0
BLOCK
  5
20
330
1F
100
AcDbEntity
  8
0
100
AcDbBlockBegin
  2
*Model_Space
 70
     0
 10
0.0
 20
0.0
 30
0.0
  3
*Model_Space
  1

  0
ENDBLK
  5
21
330
1F
100
AcDbEntity
  8
0
100
AcDbBlockEnd
  0
BLOCK
  5
1C
330
1B
100
AcDbEntity
 67
     1
  8
0
100
AcDbBlockBegin
  2
*Paper_Space
 70
     0
 10
0.0
 20
0.0
 30
0.0
  3
*Paper_Space
  1

  0
ENDBLK
  5
1D
330
1B
100
AcDbEntity
 67
     1
  8
0
100
AcDbBlockEnd
  0
BLOCK
  5
24
330
23
100
AcDbEntity
  8
0
100
AcDbBlockBegin
  2
*Paper_Space0
 70
     0
 10
0.0
 20
0.0
 30
0.0
  3
*Paper_Space0
  1

  0
ENDBLK
  5
25
330
23
100
AcDbEntity
  8
0
100
AcDbBlockEnd
  0
BLOCK
  5
11D
330
11C
100
AcDbEntity
  8
0
100
AcDbBlockBegin
  2
SW_CENTERMARKSYMBOL_0
 70
     0
 10
0.0
 20
0.0
 30
0.0
  3
SW_CENTERMARKSYMBOL_0
  1

  0
LINE
  5
11F
330
11C
100
AcDbEntity
  8
0
  6
Continuous
 62
     0
370
    18
100
AcDbLine
 10
0.0
 20
0.0
 30
0.0
 11
0.0
 21
2.5
 31
0.0
  0
LINE
  5
120
330
11C
100
AcDbEntity
  8
0
  6
Continuous
 62
     0
370
    18
100
AcDbLine
 10
0.0
 20
0.0
 30
0.0
 11
-2.5
 21
0.0
 31
0.0
  0
LINE
  5
121
330
11C
100
AcDbEntity
  8
0
  6
Continuous
 62
     0
370
    18
100
AcDbLine
 10
0.0
 20
0.0
 30
0.0
 11
0.0
 21
-2.5
 31
0.0
  0
LINE
  5
122
330
11C
100
AcDbEntity
  8
0
  6
Continuous
 62
     0
370
    18
100
AcDbLine
 10
0.0
 20
0.0
 30
0.0
 11
2.5
 21
0.0
 31
0.0
  0
LINE
  5
123
330
11C
100
AcDbEntity
  8
0
  6
Continuous
 62
     0
370
    18
100
AcDbLine
 10
0.0
 20
5.0
 30
0.0
 11
0.0
 21
10.35
 31
0.0
  0
LINE
  5
124
330
11C
100
AcDbEntity
  8
0
  6
Continuous
 62
     0
370
    18
100
AcDbLine
 10
-5.0
 20
0.0
 30
0.0
 11
-10.35
 21
0.0
 31
0.0
  0
LINE
  5
125
330
11C
100
AcDbEntity
  8
0
  6
Continuous
 62
     0
370
    18
100
AcDbLine
 10
0.0
 20
-5.0
 30
0.0
 11
0.0
 21
-10.35
 31
0.0
  0
LINE
  5
126
330
11C
100
AcDbEntity
  8
0
  6
Continuous
 62
     0
370
    18
100
AcDbLine
 10
5.0
 20
0.0
 30
0.0
 11
10.35
 21
0.0
 31
0.0
  0
ENDBLK
  5
11E
330
11C
100
AcDbEntity
  8
0
100
AcDbBlockEnd
  0
ENDSEC
  0
SECTION
  2
ENTITIES
  0
MTEXT
  5
74
330
1F
100
AcDbEntity
  8
0
  6
Continuous
 62
     7
370
     0
100
AcDbMText
 10
189.1201140301
 20
99.5082702501
 30
0.0
 40
4.7625
 41
0.0
 71
     1
 72
     1
  1
HS-1208R
  7
SLDTEXTSTYLE0
 73
     1
 44
1.0
  0
LINE
  5
75
330
1F
100
AcDbEntity
  8
0
  6
Continuous
 62
     7
370
    25
100
AcDbLine
 10
158.7754064801
 20
71.6145814237
 30
0.0
 11
159.2486115609
 21
71.6145814237
 31
0.0
  0
LINE
  5
76
330
1F
100
AcDbEntity
  8
0
  6
Continuous
 62
     7
370
    25
100
AcDbLine
 10
159.2486115609
 20
80.6145814237
 30
0.0
 11
158.7754064801
 21
80.6145814237
 31
0.0
  0
LINE
  5
77
330
1F
100
AcDbEntity
  8
0
  6
Continuous
 62
     7
370
    25
100
AcDbLine
 10
158.7754064801
 20
80.6145814237
 30
0.0
 11
158.7486115609
 21
80.5145814237
 31
0.0
  0
LINE
  5
78
330
1F
100
AcDbEntity
  8
0
  6
Continuous
 62
     7
370
    25
100
AcDbLine
 10
158.7486115609
 20
71.7145814237
 30
0.0
 11
158.7754064801
 21
71.6145814237
 31
0.0
  0
LINE
  5
79
330
1F
100
AcDbEntity
  8
0
  6
Continuous
 62
     7
370
    25
100
AcDbLine
 10
163.2486115609
 20
72.1145814237
 30
0.0
 11
167.2486115609
 21
72.7645814237
 31
0.0
  0
LINE
  5
7A
330
1F
100
AcDbEntity
  8
0
  6
Continuous
 62
     7
370
    25
100
AcDbLine
 10
167.2486115609
 20
79.4645814237
 30
0.0
 11
163.2486115609
 21
80.1145814237
 31
0.0
  0
LINE
  5
7B
330
1F
100
AcDbEntity
  8
0
  6
Continuous
 62
     7
370
    25
100
AcDbLine
 10
159.2486115609
 20
72.1145814237
 30
0.0
 11
163.2486115609
 21
72.1145814237
 31
0.0
  0
LINE
  5
7C
330
1F
100
AcDbEntity
  8
0
  6
Continuous
 62
     7
370
    25
100
AcDbLine
 10
163.2486115609
 20
80.1145814237
 30
0.0
 11
159.2486115609
 21
80.1145814237
 31
0.0
  0
LINE
  5
7D
330
1F
100
AcDbEntity
  8
0
  6
Continuous
 62
     7
370
    25
100
AcDbLine
 10
175.2486115609
 20
72.1145814237
 30
0.0
 11
179.2486115609
 21
72.7645814237
 31
0.0
  0
LINE
  5
7E
330
1F
100
AcDbEntity
  8
0
  6
Continuous
 62
     7
370
    25
100
AcDbLine
 10
179.2486115609
 20
79.4645814237
 30
0.0
 11
175.2486115609
 21
80.1145814237
 31
0.0
  0
LINE
  5
7F
330
1F
100
AcDbEntity
  8
0
  6
Continuous
 62
     7
370
    25
100
AcDbLine
 10
179.2486115609
 20
72.1145814237
 30
0.0
 11
184.0425035968
 21
72.6811323007
 31
0.0
  0
LINE
  5
80
330
1F
100
AcDbEntity
  8
0
  6
Continuous
 62
     7
370
    25
100
AcDbLine
 10
184.0425035968
 20
79.5480305468
 30
0.0
 11
179.2486115609
 21
80.1145814237
 31
0.0
  0
LINE
  5
81
330
1F
100
AcDbEntity
  8
0
  6
Continuous
 62
     7
370
    25
100
AcDbLine
 10
167.2486115609
 20
72.1145814237
 30
0.0
 11
171.2486115609
 21
72.7645814237
 31
0.0
  0
LINE
  5
82
330
1F
100
AcDbEntity
  8
0
  6
Continuous
 62
     7
370
    25
100
AcDbLine
 10
171.2486115609
 20
79.4645814237
 30
0.0
 11
167.2486115609
 21
80.1145814237
 31
0.0
  0
LINE
  5
83
330
1F
100
AcDbEntity
  8
0
  6
Continuous
 62
     7
370
    25
100
AcDbLine
 10
171.2486115609
 20
72.1145814237
 30
0.0
 11
175.2486115609
 21
72.7645814237
 31
0.0
  0
LINE
  5
84
330
1F
100
AcDbEntity
  8
0
  6
Continuous
 62
     7
370
    25
100
AcDbLine
 10
175.2486115609
 20
79.4645814237
 30
0.0
 11
171.2486115609
 21
80.1145814237
 31
0.0
  0
ARC
  5
85
330
1F
100
AcDbEntity
  8
0
  6
Continuous
 62
     7
370
    25
100
AcDbCircle
 10
183.9486115609
 20
73.4756033736
 30
0.0
 40
0.7999999999999993
100
AcDbArc
 50
276.7400560979
 51
0.0
  0
ARC
  5
86
330
1F
100
AcDbEntity
  8
0
  6
Continuous
 62
     7
370
    25
100
AcDbCircle
 10
183.9486115609
 20
78.7535594739
 30
0.0
 40
0.7999999999999993
100
AcDbArc
 50
0.0
 51
83.2599439021
  0
LINE
  5
87
330
1F
100
AcDbEntity
  8
0
  6
Continuous
 62
     7
370
    25
100
AcDbLine
 10
148.5497452811
 20
85.3521857308
 30
0.0
 11
147.7486115609
 21
83.9645814237
 31
0.0
  0
LINE
  5
88
330
1F
100
AcDbEntity
  8
0
  6
Continuous
 62
     7
370
    25
100
AcDbLine
 10
147.7486115609
 20
68.2645814237
 30
0.0
 11
148.5497452811
 21
66.8769771167
 31
0.0
  0
LINE
  5
89
330
1F
100
AcDbEntity
  8
0
  6
Continuous
 62
     7
370
    25
100
AcDbLine
 10
155.9474778407
 20
66.8769771167
 30
0.0
 11
156.7486115609
 21
68.2645814237
 31
0.0
  0
LINE
  5
8A
330
1F
100
AcDbEntity
  8
0
  6
Continuous
 62
     7
370
    25
100
AcDbLine
 10
156.7486115609
 20
83.9645814237
 30
0.0
 11
155.9474778407
 21
85.3521857308
 31
0.0
  0
LINE
  5
8B
330
1F
100
AcDbEntity
  8
0
  6
Continuous
 62
     7
370
    25
100
AcDbLine
 10
147.7486115609
 20
83.9645814237
 30
0.0
 11
146.0486115609
 21
83.9645814237
 31
0.0
  0
LINE
  5
8C
330
1F
100
AcDbEntity
  8
0
  6
Continuous
 62
     7
370
    25
100
AcDbLine
 10
146.0486115609
 20
68.2645814237
 30
0.0
 11
147.7486115609
 21
68.2645814237
 31
0.0
  0
ARC
  5
8D
330
1F
100
AcDbEntity
  8
0
  6
Continuous
 62
     7
370
    25
100
AcDbCircle
 10
158.4486115609
 20
83.6645814237
 30
0.0
 40
0.3000000000000114
100
AcDbArc
 50
0.0
 51
90.0
  0
ARC
  5
8E
330
1F
100
AcDbEntity
  8
0
  6
Continuous
 62
     7
370
    25
100
AcDbCircle
 10
158.4486115609
 20
68.5645814237
 30
0.0
 40
0.3000000000000114
100
AcDbArc
 50
270.0
 51
0.0
  0
LINE
  5
8F
330
1F
100
AcDbEntity
  8
0
  6
Continuous
 62
     7
370
    25
100
AcDbLine
 10
156.7486115609
 20
68.2645814237
 30
0.0
 11
158.4486115609
 21
68.2645814237
 31
0.0
  0
LINE
  5
90
330
1F
100
AcDbEntity
  8
0
  6
Continuous
 62
     7
370
    25
100
AcDbLine
 10
158.4486115609
 20
83.9645814237
 30
0.0
 11
156.7486115609
 21
83.9645814237
 31
0.0
  0
ARC
  5
91
330
1F
100
AcDbEntity
  8
0
  6
Continuous
 62
     7
370
    25
100
AcDbCircle
 10
146.0486115609
 20
68.5645814237
 30
0.0
 40
0.3000000000000114
100
AcDbArc
 50
180.0
 51
270.0
  0
ARC
  5
92
330
1F
100
AcDbEntity
  8
0
  6
Continuous
 62
     7
370
    25
100
AcDbCircle
 10
146.0486115609
 20
83.6645814237
 30
0.0
 40
0.3000000000000114
100
AcDbArc
 50
90.0
 51
180.0
  0
LINE
  5
93
330
1F
100
AcDbEntity
  8
0
  6
Continuous
 62
     7
370
    25
100
AcDbLine
 10
152.1950217224
 20
66.8769771167
 30
0.0
 11
152.2486115609
 21
67.0769771167
 31
0.0
  0
LINE
  5
94
330
1F
100
AcDbEntity
  8
0
  6
Continuous
 62
     7
370
    25
100
AcDbLine
 10
152.2486115609
 20
67.0769771167
 30
0.0
 11
152.3022013994
 21
66.8769771167
 31
0.0
  0
LINE
  5
95
330
1F
100
AcDbEntity
  8
0
  6
Continuous
 62
     7
370
    25
100
AcDbLine
 10
152.3022013994
 20
85.3521857308
 30
0.0
 11
152.2486115609
 21
85.1521857308
 31
0.0
  0
LINE
  5
96
330
1F
100
AcDbEntity
  8
0
  6
Continuous
 62
     7
370
    25
100
AcDbLine
 10
152.2486115609
 20
85.1521857308
 30
0.0
 11
152.1950217224
 21
85.3521857308
 31
0.0
  0
LINE
  5
97
330
1F
100
AcDbEntity
  8
0
  6
Continuous
 62
     7
370
    25
100
AcDbLine
 10
141.8144150178
 20
68.0316776551
 30
0.0
 11
142.5839673674
 21
69.3645814237
 31
0.0
  0
LINE
  5
98
330
1F
100
AcDbEntity
  8
0
  6
Continuous
 62
     7
370
    25
100
AcDbLine
 10
142.5839673674
 20
82.8645814237
 30
0.0
 11
141.8144150178
 21
84.1974851924
 31
0.0
  0
LINE
  5
99
330
1F
100
AcDbEntity
  8
0
  6
Continuous
 62
     7
370
    25
100
AcDbLine
 10
137.5839673674
 20
82.8805814237
 30
0.0
 11
127.6733272604
 21
82.5708739204
 31
0.0
  0
LINE
  5
9A
330
1F
100
AcDbEntity
  8
0
  6
Continuous
 62
     7
370
    25
100
AcDbLine
 10
127.6733272604
 20
69.6582889271
 30
0.0
 11
137.5839673674
 21
69.3485814237
 31
0.0
  0
LINE
  5
9B
330
1F
100
AcDbEntity
  8
0
  6
Continuous
 62
     7
370
    25
100
AcDbLine
 10
145.5839673674
 20
82.6930814237
 30
0.0
 11
144.5839673674
 21
81.6930814237
 31
0.0
  0
LINE
  5
9C
330
1F
100
AcDbEntity
  8
0
  6
Continuous
 62
     7
370
    25
100
AcDbLine
 10
144.5839673674
 20
70.5360814237
 30
0.0
 11
145.5839673674
 21
69.5360814237
 31
0.0
  0
LINE
  5
9D
330
1F
100
AcDbEntity
  8
0
  6
Continuous
 62
     7
370
    25
100
AcDbLine
 10
145.5839673674
 20
69.5360814237
 30
0.0
 11
145.7486115609
 21
69.5360814237
 31
0.0
  0
LINE
  5
9E
330
1F
100
AcDbEntity
  8
0
  6
Continuous
 62
     7
370
    25
100
AcDbLine
 10
145.7486115609
 20
82.6930814237
 30
0.0
 11
145.5839673674
 21
82.6930814237
 31
0.0
  0
LINE
  5
9F
330
1F
100
AcDbEntity
  8
0
  6
Continuous
 62
     7
370
    25
100
AcDbLine
 10
127.6733272604
 20
82.5708739204
 30
0.0
 11
125.5839673674
 21
81.3645814237
 31
0.0
  0
LINE
  5
A0
330
1F
100
AcDbEntity
  8
0
  6
Continuous
 62
     7
370
    25
100
AcDbLine
 10
125.5839673674
 20
70.8645814237
 30
0.0
 11
127.6733272604
 21
69.6582889271
 31
0.0
  0
LINE
  5
A1
330
1F
100
AcDbEntity
  8
0
  6
Continuous
 62
     7
370
    25
100
AcDbLine
 10
142.5839673674
 20
70.7145814237
 30
0.0
 11
144.5839673674
 21
70.7145814237
 31
0.0
  0
LINE
  5
A2
330
1F
100
AcDbEntity
  8
0
  6
Continuous
 62
     7
370
    25
100
AcDbLine
 10
144.5839673674
 20
81.5145814237
 30
0.0
 11
142.5839673674
 21
81.5145814237
 31
0.0
  0
LINE
  5
A3
330
1F
100
AcDbEntity
  8
0
  6
Continuous
 62
     7
370
    25
100
AcDbLine
 10
140.0839673674
 20
68.2316776551
 30
0.0
 11
140.1375572059
 21
68.0316776551
 31
0.0
  0
LINE
  5
A4
330
1F
100
AcDbEntity
  8
0
  6
Continuous
 62
     7
370
    25
100
AcDbLine
 10
140.030377529
 20
68.0316776551
 30
0.0
 11
140.0839673674
 21
68.2316776551
 31
0.0
  0
LINE
  5
A5
330
1F
100
AcDbEntity
  8
0
  6
Continuous
 62
     7
370
    25
100
AcDbLine
 10
140.1375572059
 20
84.1974851924
 30
0.0
 11
140.0839673674
 21
83.9974851924
 31
0.0
  0
LINE
  5
A6
330
1F
100
AcDbEntity
  8
0
  6
Continuous
 62
     7
370
    25
100
AcDbLine
 10
140.0839673674
 20
83.9974851924
 30
0.0
 11
140.030377529
 21
84.1974851924
 31
0.0
  0
LINE
  5
A7
330
1F
100
AcDbEntity
  8
0
  6
Continuous
 62
     7
370
    25
100
AcDbLine
 10
159.2486115609
 20
80.6145814237
 30
0.0
 11
159.2486115609
 21
71.6145814237
 31
0.0
  0
LINE
  5
A8
330
1F
100
AcDbEntity
  8
0
  6
Continuous
 62
     7
370
    25
100
AcDbLine
 10
158.7754064801
 20
76.1145814237
 30
0.0
 11
158.7754064801
 21
80.6145814237
 31
0.0
  0
LINE
  5
A9
330
1F
100
AcDbEntity
  8
0
  6
Continuous
 62
     7
370
    25
100
AcDbLine
 10
158.7754064801
 20
71.6145814237
 30
0.0
 11
158.7754064801
 21
76.1145814237
 31
0.0
  0
LINE
  5
AA
330
1F
100
AcDbEntity
  8
0
  6
Continuous
 62
     7
370
    25
100
AcDbLine
 10
163.2486115609
 20
76.1145814237
 30
0.0
 11
163.2486115609
 21
80.1145814237
 31
0.0
  0
LINE
  5
AB
330
1F
100
AcDbEntity
  8
0
  6
Continuous
 62
     7
370
    25
100
AcDbLine
 10
163.2486115609
 20
72.1145814237
 30
0.0
 11
163.2486115609
 21
76.1145814237
 31
0.0
  0
LINE
  5
AC
330
1F
100
AcDbEntity
  8
0
  6
Continuous
 62
     7
370
    25
100
AcDbLine
 10
175.2486115609
 20
76.1145814237
 30
0.0
 11
175.2486115609
 21
80.1145814237
 31
0.0
  0
LINE
  5
AD
330
1F
100
AcDbEntity
  8
0
  6
Continuous
 62
     7
370
    25
100
AcDbLine
 10
175.2486115609
 20
72.1145814237
 30
0.0
 11
175.2486115609
 21
76.1145814237
 31
0.0
  0
LINE
  5
AE
330
1F
100
AcDbEntity
  8
0
  6
Continuous
 62
     7
370
    25
100
AcDbLine
 10
179.2486115609
 20
76.1145814237
 30
0.0
 11
179.2486115609
 21
80.1145814237
 31
0.0
  0
LINE
  5
AF
330
1F
100
AcDbEntity
  8
0
  6
Continuous
 62
     7
370
    25
100
AcDbLine
 10
179.2486115609
 20
72.1145814237
 30
0.0
 11
179.2486115609
 21
76.1145814237
 31
0.0
  0
LINE
  5
B0
330
1F
100
AcDbEntity
  8
0
  6
Continuous
 62
     7
370
    25
100
AcDbLine
 10
167.2486115609
 20
76.1145814237
 30
0.0
 11
167.2486115609
 21
80.1145814237
 31
0.0
  0
LINE
  5
B1
330
1F
100
AcDbEntity
  8
0
  6
Continuous
 62
     7
370
    25
100
AcDbLine
 10
167.2486115609
 20
72.1145814237
 30
0.0
 11
167.2486115609
 21
76.1145814237
 31
0.0
  0
LINE
  5
B2
330
1F
100
AcDbEntity
  8
0
  6
Continuous
 62
     7
370
    25
100
AcDbLine
 10
171.2486115609
 20
76.1145814237
 30
0.0
 11
171.2486115609
 21
80.1145814237
 31
0.0
  0
LINE
  5
B3
330
1F
100
AcDbEntity
  8
0
  6
Continuous
 62
     7
370
    25
100
AcDbLine
 10
171.2486115609
 20
72.1145814237
 30
0.0
 11
171.2486115609
 21
76.1145814237
 31
0.0
  0
LINE
  5
B4
330
1F
100
AcDbEntity
  8
0
  6
Continuous
 62
     7
370
    25
100
AcDbLine
 10
184.7486115609
 20
76.1145814237
 30
0.0
 11
184.7486115609
 21
73.4756033736
 31
0.0
  0
LINE
  5
B5
330
1F
100
AcDbEntity
  8
0
  6
Continuous
 62
     7
370
    25
100
AcDbLine
 10
184.7486115609
 20
78.7535594739
 30
0.0
 11
184.7486115609
 21
76.1145814237
 31
0.0
  0
LINE
  5
B6
330
1F
100
AcDbEntity
  8
0
  6
Continuous
 62
     7
370
    25
100
AcDbLine
 10
152.2486115609
 20
80.9405066271
 30
0.0
 11
152.3022013994
 21
80.7333835773
 31
0.0
  0
LINE
  5
B7
330
1F
100
AcDbEntity
  8
0
  6
Continuous
 62
     7
370
    25
100
AcDbLine
 10
152.3022013994
 20
80.7333835773
 30
0.0
 11
152.2486115609
 21
80.3191374777
 31
0.0
  0
LINE
  5
B8
330
1F
100
AcDbEntity
  8
0
  6
Continuous
 62
     7
370
    25
100
AcDbLine
 10
152.2486115609
 20
80.3191374777
 30
0.0
 11
152.2486115609
 21
80.9405066271
 31
0.0
  0
LINE
  5
B9
330
1F
100
AcDbEntity
  8
0
  6
Continuous
 62
     7
370
    25
100
AcDbLine
 10
152.2486115609
 20
71.2886562204
 30
0.0
 11
152.1950217224
 21
71.4957792702
 31
0.0
  0
LINE
  5
BA
330
1F
100
AcDbEntity
  8
0
  6
Continuous
 62
     7
370
    25
100
AcDbLine
 10
152.1950217224
 20
71.4957792702
 30
0.0
 11
152.2486115609
 21
71.9100253698
 31
0.0
  0
LINE
  5
BB
330
1F
100
AcDbEntity
  8
0
  6
Continuous
 62
     7
370
    25
100
AcDbLine
 10
152.2486115609
 20
71.2886562204
 30
0.0
 11
152.2486115609
 21
71.9100253698
 31
0.0
  0
LINE
  5
BC
330
1F
100
AcDbEntity
  8
0
  6
Continuous
 62
     7
370
    25
100
AcDbLine
 10
152.3022013994
 20
71.4957792702
 30
0.0
 11
152.2486115609
 21
71.2886562204
 31
0.0
  0
LINE
  5
BD
330
1F
100
AcDbEntity
  8
0
  6
Continuous
 62
     7
370
    25
100
AcDbLine
 10
152.2486115609
 20
71.9100253698
 30
0.0
 11
152.3022013994
 21
71.4957792702
 31
0.0
  0
SPLINE
  5
BE
330
1F
100
AcDbEntity
  8
0
  6
Continuous
 62
     7
370
    25
100
AcDbSpline
210
0.0
220
0.0
230
1.0
 70
     8
 71
     3
 72
    16
 73
    12
 74
     0
 42
0.000000001
 43
0.00000001
 40
0.0
 40
0.0
 40
0.0
 40
0.0
 40
0.1051935664218023
 40
0.2312918996997604
 40
0.3573572448607639
 40
0.4865103187026856
 40
0.6156604465364214
 40
0.7112032284208155
 40
0.806756420180822
 40
0.9033731629575484
 40
0.9999999999999999
 40
0.9999999999999999
 40
0.9999999999999999
 40
0.9999999999999999
 10
148.5497452810978
 20
71.49577927022744
 30
0.0
 10
148.462302975832
 20
71.81280711113664
 30
0.0
 10
148.2700412474106
 20
72.50986467915915
 30
0.0
 10
148.0439273236966
 20
73.60478226743429
 30
0.0
 10
147.8814481492248
 20
74.7866457221343
 30
0.0
 10
147.8189157519394
 20
75.98801536799127
 30
0.0
 10
147.8564892066615
 20
77.09484131249984
 30
0.0
 10
147.9654010156993
 20
78.0905321221909
 30
0.0
 10
148.1146101178084
 20
78.97778437665224
 30
0.0
 10
148.3078912544179
 20
79.8600550724559
 30
0.0
 10
148.4691244648135
 20
80.44226393824479
 30
0.0
 10
148.5497452810978
 20
80.73338357726149
 30
0.0
  0
SPLINE
  5
BF
330
1F
100
AcDbEntity
  8
0
  6
Continuous
 62
     7
370
    25
100
AcDbSpline
210
0.0
220
0.0
230
1.0
 70
     8
 71
     3
 72
    15
 73
    11
 74
     0
 42
0.000000001
 43
0.00000001
 40
0.0
 40
0.0
 40
0.0
 40
0.0
 40
0.13230496641634
 40
0.2645725257576541
 40
0.3997989469058928
 40
0.5350009659368333
 40
0.6501921044151404
 40
0.765401211680801
 40
0.8826892657702317
 40
1.0
 40
1.0
 40
1.0
 40
1.0
 10
148.5497452810978
 20
66.87697711671036
 30
0.0
 10
148.4409737535546
 20
67.07652733477951
 30
0.0
 10
148.2234614518465
 20
67.47557135134277
 30
0.0
 10
147.9894262590509
 20
68.09006376683728
 30
0.0
 10
147.8487070031019
 20
68.71613943884421
 30
0.0
 10
147.8208377193784
 20
69.31953719203526
 30
0.0
 10
147.8931395177328
 20
69.89033739405134
 30
0.0
 10
148.0412894977119
 20
70.4290332753652
 30
0.0
 10
148.2586096564166
 20
70.96529356863877
 30
0.0
 10
148.4526938184252
 20
71.31893930664533
 30
0.0
 10
148.5497452810978
 20
71.49577927022744
 30
0.0
  0
SPLINE
  5
C0
330
1F
100
AcDbEntity
  8
0
  6
Continuous
 62
     7
370
    25
100
AcDbSpline
210
0.0
220
0.0
230
1.0
 70
     8
 71
     3
 72
    15
 73
    11
 74
     0
 42
0.000000001
 43
0.00000001
 40
0.0
 40
0.0
 40
0.0
 40
0.0
 40
0.1323049664163416
 40
0.2645725257576573
 40
0.3997989469058977
 40
0.5350009659368399
 40
0.6501921044151454
 40
0.7654012116808045
 40
0.8826892657702334
 40
1.0
 40
1.0
 40
1.0
 40
1.0
 10
148.5497452810978
 20
80.73338357726149
 30
0.0
 10
148.4409737535546
 20
80.93293379533063
 30
0.0
 10
148.2234614518465
 20
81.33197781189386
 30
0.0
 10
147.989426259051
 20
81.94647022738836
 30
0.0
 10
147.8487070031019
 20
82.57254589939528
 30
0.0
 10
147.8208377193784
 20
83.17594365258633
 30
0.0
 10
147.8931395177329
 20
83.74674385460239
 30
0.0
 10
148.0412894977119
 20
84.28543973591621
 30
0.0
 10
148.2586096564166
 20
84.82170002918976
 30
0.0
 10
148.4526938184252
 20
85.17534576719629
 30
0.0
 10
148.5497452810978
 20
85.3521857307784
 30
0.0
  0
LINE
  5
C1
330
1F
100
AcDbEntity
  8
0
  6
Continuous
 62
     7
370
    25
100
AcDbLine
 10
147.7486115609
 20
76.1145814237
 30
0.0
 11
147.7486115609
 21
83.9645814237
 31
0.0
  0
LINE
  5
C2
330
1F
100
AcDbEntity
  8
0
  6
Continuous
 62
     7
370
    25
100
AcDbLine
 10
147.7486115609
 20
68.2645814237
 30
0.0
 11
147.7486115609
 21
76.1145814237
 31
0.0
  0
SPLINE
  5
C3
330
1F
100
AcDbEntity
  8
0
  6
Continuous
 62
     7
370
    25
100
AcDbSpline
210
0.0
220
0.0
230
1.0
 70
     8
 71
     3
 72
    15
 73
    11
 74
     0
 42
0.000000001
 43
0.00000001
 40
0.0
 40
0.0
 40
0.0
 40
0.0
 40
0.1323049664163416
 40
0.2645725257576573
 40
0.3997989469058977
 40
0.5350009659368399
 40
0.6501921044151454
 40
0.7654012116808045
 40
0.8826892657702333
 40
1.0
 40
1.0
 40
1.0
 40
1.0
 10
155.9474778407082
 20
80.73338357726149
 30
0.0
 10
156.0562493682514
 20
80.93293379533063
 30
0.0
 10
156.2737616699595
 20
81.33197781189386
 30
0.0
 10
156.5077968627551
 20
81.94647022738836
 30
0.0
 10
156.6485161187041
 20
82.57254589939528
 30
0.0
 10
156.6763854024276
 20
83.17594365258633
 30
0.0
 10
156.6040836040732
 20
83.74674385460239
 30
0.0
 10
156.4559336240941
 20
84.28543973591621
 30
0.0
 10
156.2386134653894
 20
84.82170002918976
 30
0.0
 10
156.0445293033808
 20
85.17534576719629
 30
0.0
 10
155.9474778407082
 20
85.3521857307784
 30
0.0
  0
SPLINE
  5
C4
330
1F
100
AcDbEntity
  8
0
  6
Continuous
 62
     7
370
    25
100
AcDbSpline
210
0.0
220
0.0
230
1.0
 70
     8
 71
     3
 72
    15
 73
    11
 74
     0
 42
0.000000001
 43
0.00000001
 40
0.0
 40
0.0
 40
0.0
 40
0.0
 40
0.13230496641634
 40
0.264572525757654
 40
0.3997989469058927
 40
0.5350009659368333
 40
0.6501921044151404
 40
0.765401211680801
 40
0.8826892657702317
 40
1.0
 40
1.0
 40
1.0
 40
1.0
 10
155.9474778407082
 20
66.87697711671036
 30
0.0
 10
156.0562493682514
 20
67.07652733477951
 30
0.0
 10
156.2737616699595
 20
67.47557135134277
 30
0.0
 10
156.5077968627551
 20
68.09006376683728
 30
0.0
 10
156.6485161187041
 20
68.71613943884421
 30
0.0
 10
156.6763854024276
 20
69.31953719203526
 30
0.0
 10
156.6040836040732
 20
69.89033739405136
 30
0.0
 10
156.4559336240941
 20
70.4290332753652
 30
0.0
 10
156.2386134653894
 20
70.96529356863877
 30
0.0
 10
156.0445293033808
 20
71.31893930664533
 30
0.0
 10
155.9474778407082
 20
71.49577927022744
 30
0.0
  0
SPLINE
  5
C5
330
1F
100
AcDbEntity
  8
0
  6
Continuous
 62
     7
370
    25
100
AcDbSpline
210
0.0
220
0.0
230
1.0
 70
     8
 71
     3
 72
    16
 73
    12
 74
     0
 42
0.000000001
 43
0.00000001
 40
0.0
 40
0.0
 40
0.0
 40
0.0
 40
0.1051935664218023
 40
0.2312918996997604
 40
0.3573572448607639
 40
0.4865103187026856
 40
0.6156604465364214
 40
0.7112032284208155
 40
0.806756420180822
 40
0.9033731629575484
 40
0.9999999999999999
 40
0.9999999999999999
 40
0.9999999999999999
 40
0.9999999999999999
 10
155.9474778407082
 20
71.49577927022744
 30
0.0
 10
156.0349201459741
 20
71.81280711113664
 30
0.0
 10
156.2271818743954
 20
72.50986467915915
 30
0.0
 10
156.4532957981095
 20
73.60478226743429
 30
0.0
 10
156.6157749725812
 20
74.7866457221343
 30
0.0
 10
156.6783073698666
 20
75.98801536799127
 30
0.0
 10
156.6407339151445
 20
77.09484131249984
 30
0.0
 10
156.5318221061067
 20
78.0905321221909
 30
0.0
 10
156.3826130039976
 20
78.97778437665224
 30
0.0
 10
156.1893318673881
 20
79.8600550724559
 30
0.0
 10
156.0280986569925
 20
80.44226393824479
 30
0.0
 10
155.9474778407082
 20
80.73338357726149
 30
0.0
  0
LINE
  5
C6
330
1F
100
AcDbEntity
  8
0
  6
Continuous
 62
     7
370
    25
100
AcDbLine
 10
156.7486115609
 20
76.1145814237
 30
0.0
 11
156.7486115609
 21
83.9645814237
 31
0.0
  0
LINE
  5
C7
330
1F
100
AcDbEntity
  8
0
  6
Continuous
 62
     7
370
    25
100
AcDbLine
 10
156.7486115609
 20
68.2645814237
 30
0.0
 11
156.7486115609
 21
76.1145814237
 31
0.0
  0
LINE
  5
C8
330
1F
100
AcDbEntity
  8
0
  6
Continuous
 62
     7
370
    25
100
AcDbLine
 10
152.1950217224
 20
80.7333835773
 30
0.0
 11
152.2486115609
 21
80.9405066271
 31
0.0
  0
LINE
  5
C9
330
1F
100
AcDbEntity
  8
0
  6
Continuous
 62
     7
370
    25
100
AcDbLine
 10
152.2486115609
 20
80.3191374777
 30
0.0
 11
152.1950217224
 21
80.7333835773
 31
0.0
  0
LINE
  5
CA
330
1F
100
AcDbEntity
  8
0
  6
Continuous
 62
     7
370
    25
100
AcDbLine
 10
148.5497452811
 20
66.8769771167
 30
0.0
 11
152.1950217224
 21
66.8769771167
 31
0.0
  0
LINE
  5
CB
330
1F
100
AcDbEntity
  8
0
  6
Continuous
 62
     7
370
    25
100
AcDbLine
 10
148.5497452811
 20
71.4957792702
 30
0.0
 11
152.1950217224
 21
71.4957792702
 31
0.0
  0
LINE
  5
CC
330
1F
100
AcDbEntity
  8
0
  6
Continuous
 62
     7
370
    25
100
AcDbLine
 10
152.3022013994
 20
71.4957792702
 30
0.0
 11
155.9474778407
 21
71.4957792702
 31
0.0
  0
LINE
  5
CD
330
1F
100
AcDbEntity
  8
0
  6
Continuous
 62
     7
370
    25
100
AcDbLine
 10
152.3022013994
 20
66.8769771167
 30
0.0
 11
155.9474778407
 21
66.8769771167
 31
0.0
  0
LINE
  5
CE
330
1F
100
AcDbEntity
  8
0
  6
Continuous
 62
     7
370
    25
100
AcDbLine
 10
152.2486115609
 20
67.0841001665
 30
0.0
 11
152.3022013994
 21
66.8769771167
 31
0.0
  0
LINE
  5
CF
330
1F
100
AcDbEntity
  8
0
  6
Continuous
 62
     7
370
    25
100
AcDbLine
 10
152.1950217224
 20
66.8769771167
 30
0.0
 11
152.2486115609
 21
67.0841001665
 31
0.0
  0
LINE
  5
D0
330
1F
100
AcDbEntity
  8
0
  6
Continuous
 62
     7
370
    25
100
AcDbLine
 10
148.5497452811
 20
80.7333835773
 30
0.0
 11
152.1950217224
 21
80.7333835773
 31
0.0
  0
LINE
  5
D1
330
1F
100
AcDbEntity
  8
0
  6
Continuous
 62
     7
370
    25
100
AcDbLine
 10
152.3022013994
 20
80.7333835773
 30
0.0
 11
155.9474778407
 21
80.7333835773
 31
0.0
  0
LINE
  5
D2
330
1F
100
AcDbEntity
  8
0
  6
Continuous
 62
     7
370
    25
100
AcDbLine
 10
148.5497452811
 20
85.3521857308
 30
0.0
 11
152.1950217224
 21
85.3521857308
 31
0.0
  0
LINE
  5
D3
330
1F
100
AcDbEntity
  8
0
  6
Continuous
 62
     7
370
    25
100
AcDbLine
 10
152.2486115609
 20
85.145062681
 30
0.0
 11
152.1950217224
 21
85.3521857308
 31
0.0
  0
LINE
  5
D4
330
1F
100
AcDbEntity
  8
0
  6
Continuous
 62
     7
370
    25
100
AcDbLine
 10
152.3022013994
 20
85.3521857308
 30
0.0
 11
152.2486115609
 21
85.145062681
 31
0.0
  0
LINE
  5
D5
330
1F
100
AcDbEntity
  8
0
  6
Continuous
 62
     7
370
    25
100
AcDbLine
 10
152.3022013994
 20
85.3521857308
 30
0.0
 11
155.9474778407
 21
85.3521857308
 31
0.0
  0
LINE
  5
D6
330
1F
100
AcDbEntity
  8
0
  6
Continuous
 62
     7
370
    25
100
AcDbLine
 10
158.7486115609
 20
83.6645814237
 30
0.0
 11
158.7486115609
 21
68.5645814237
 31
0.0
  0
LINE
  5
D7
330
1F
100
AcDbEntity
  8
0
  6
Continuous
 62
     7
370
    25
100
AcDbLine
 10
145.7486115609
 20
76.1145814237
 30
0.0
 11
145.7486115609
 21
83.6645814237
 31
0.0
  0
LINE
  5
D8
330
1F
100
AcDbEntity
  8
0
  6
Continuous
 62
     7
370
    25
100
AcDbLine
 10
145.7486115609
 20
68.5645814237
 30
0.0
 11
145.7486115609
 21
76.1145814237
 31
0.0
  0
LINE
  5
D9
330
1F
100
AcDbEntity
  8
0
  6
Continuous
 62
     7
370
    25
100
AcDbLine
 10
152.2486115609
 20
67.0769771167
 30
0.0
 11
152.2486115609
 21
67.0841001665
 31
0.0
  0
LINE
  5
DA
330
1F
100
AcDbEntity
  8
0
  6
Continuous
 62
     7
370
    25
100
AcDbLine
 10
152.2486115609
 20
85.145062681
 30
0.0
 11
152.2486115609
 21
85.1521857308
 31
0.0
  0
LINE
  5
DB
330
1F
100
AcDbEntity
  8
0
  6
Continuous
 62
     7
370
    25
100
AcDbLine
 10
137.5839673674
 20
72.0731295394
 30
0.0
 11
140.030377529
 21
72.0731295394
 31
0.0
  0
LINE
  5
DC
330
1F
100
AcDbEntity
  8
0
  6
Continuous
 62
     7
370
    25
100
AcDbLine
 10
137.5839673674
 20
72.0731295394
 30
0.0
 11
137.5839673674
 21
80.1560333081
 31
0.0
  0
LINE
  5
DD
330
1F
100
AcDbEntity
  8
0
  6
Continuous
 62
     7
370
    25
100
AcDbLine
 10
137.5839673674
 20
80.1560333081
 30
0.0
 11
140.030377529
 21
80.1560333081
 31
0.0
  0
SPLINE
  5
DE
330
1F
100
AcDbEntity
  8
0
  6
Continuous
 62
     7
370
    25
100
AcDbSpline
210
0.0
220
0.0
230
1.0
 70
     8
 71
     3
 72
     8
 73
     4
 74
     0
 42
0.000000001
 43
0.00000001
 40
0.0
 40
0.0
 40
0.0
 40
0.0
 40
1.0
 40
1.0
 40
1.0
 40
1.0
 10
140.0839673674394
 20
79.73951891642919
 30
0.0
 10
140.0668452730444
 20
79.8784790226185
 30
0.0
 10
140.0489624017549
 20
80.01731392897594
 30
0.0
 10
140.0303775289532
 20
80.15603330807184
 30
0.0
  0
SPLINE
  5
DF
330
1F
100
AcDbEntity
  8
0
  6
Continuous
 62
     7
370
    25
100
AcDbSpline
210
0.0
220
0.0
230
1.0
 70
     8
 71
     3
 72
     8
 73
     4
 74
     0
 42
0.000000001
 43
0.00000001
 40
0.0
 40
0.0
 40
0.0
 40
0.0
 40
1.0
 40
1.0
 40
1.0
 40
1.0
 10
140.1375572059257
 20
80.15603330807186
 30
0.0
 10
140.1189650977725
 20
80.01725992357682
 30
0.0
 10
140.1010826203789
 20
79.87842349848925
 30
0.0
 10
140.0839673674394
 20
79.73951891642919
 30
0.0
  0
LINE
  5
E0
330
1F
100
AcDbEntity
  8
0
  6
Continuous
 62
     7
370
    25
100
AcDbLine
 10
140.1375572059
 20
80.1560333081
 30
0.0
 11
141.8144150178
 21
80.1560333081
 31
0.0
  0
SPLINE
  5
E1
330
1F
100
AcDbEntity
  8
0
  6
Continuous
 62
     7
370
    25
100
AcDbSpline
210
0.0
220
0.0
230
1.0
 70
     8
 71
     3
 72
    14
 73
    10
 74
     0
 42
0.000000001
 43
0.00000001
 40
0.0
 40
0.0
 40
0.0
 40
0.0
 40
0.2500000000000001
 40
0.2500000000000001
 40
0.5000000000000001
 40
0.5000000000000001
 40
0.7500000000000002
 40
0.7500000000000002
 40
1.0
 40
1.0
 40
1.0
 40
1.0
 10
141.8144150178028
 20
72.07312953941707
 30
0.0
 10
142.0044335980741
 20
72.73137321024116
 30
0.0
 10
142.1634769495824
 20
73.40450111040593
 30
0.0
 10
142.3809412613778
 20
74.75338421841455
 30
0.0
 10
142.4397146967647
 20
75.43217447673061
 30
0.0
 10
142.4395447162813
 20
76.80000176856814
 30
0.0
 10
142.3790270270179
 20
77.49264293828335
 30
0.0
 10
142.1600304486477
 20
78.8409246977077
 30
0.0
 10
142.0030384432784
 20
79.50262259522877
 30
0.0
 10
141.8144150178027
 20
80.15603330807184
 30
0.0
  0
LINE
  5
E2
330
1F
100
AcDbEntity
  8
0
  6
Continuous
 62
     7
370
    25
100
AcDbLine
 10
140.1375572059
 20
72.0731295394
 30
0.0
 11
141.8144150178
 21
72.0731295394
 31
0.0
  0
SPLINE
  5
E3
330
1F
100
AcDbEntity
  8
0
  6
Continuous
 62
     7
370
    25
100
AcDbSpline
210
0.0
220
0.0
230
1.0
 70
     8
 71
     3
 72
     8
 73
     4
 74
     0
 42
0.000000001
 43
0.00000001
 40
0.0
 40
0.0
 40
0.0
 40
0.0
 40
1.0
 40
1.0
 40
1.0
 40
1.0
 10
140.0839673674394
 20
72.48964393105972
 30
0.0
 10
140.1010894618344
 20
72.35068382487042
 30
0.0
 10
140.118972333124
 20
72.21184891851297
 30
0.0
 10
140.1375572059257
 20
72.07312953941707
 30
0.0
  0
SPLINE
  5
E4
330
1F
100
AcDbEntity
  8
0
  6
Continuous
 62
     7
370
    25
100
AcDbSpline
210
0.0
220
0.0
230
1.0
 70
     8
 71
     3
 72
     8
 73
     4
 74
     0
 42
0.000000001
 43
0.00000001
 40
0.0
 40
0.0
 40
0.0
 40
0.0
 40
1.0
 40
1.0
 40
1.0
 40
1.0
 10
140.0303775289532
 20
72.07312953941707
 30
0.0
 10
140.0489696371064
 20
72.2119029239121
 30
0.0
 10
140.0668521144999
 20
72.35073934899965
 30
0.0
 10
140.0839673674394
 20
72.48964393105972
 30
0.0
  0
LINE
  5
E5
330
1F
100
AcDbEntity
  8
0
  6
Continuous
 62
     7
370
    25
100
AcDbLine
 10
137.5839673674
 20
68.0316776551
 30
0.0
 11
140.030377529
 21
68.0316776551
 31
0.0
  0
LINE
  5
E6
330
1F
100
AcDbEntity
  8
0
  6
Continuous
 62
     7
370
    25
100
AcDbLine
 10
137.5839673674
 20
68.0316776551
 30
0.0
 11
137.5839673674
 21
72.0731295394
 31
0.0
  0
SPLINE
  5
E7
330
1F
100
AcDbEntity
  8
0
  6
Continuous
 62
     7
370
    25
100
AcDbSpline
210
0.0
220
0.0
230
1.0
 70
     8
 71
     3
 72
     8
 73
     4
 74
     0
 42
0.000000001
 43
0.00000001
 40
0.0
 40
0.0
 40
0.0
 40
0.0
 40
1.0
 40
1.0
 40
1.0
 40
1.0
 10
140.0839673674394
 20
71.86487234359575
 30
0.0
 10
140.0668449515619
 20
71.93435370123986
 30
0.0
 10
140.0489620620438
 20
72.00377111768816
 30
0.0
 10
140.0303775289532
 20
72.07312953941707
 30
0.0
  0
SPLINE
  5
E8
330
1F
100
AcDbEntity
  8
0
  6
Continuous
 62
     7
370
    25
100
AcDbSpline
210
0.0
220
0.0
230
1.0
 70
     8
 71
     3
 72
     8
 73
     4
 74
     0
 42
0.000000001
 43
0.00000001
 40
0.0
 40
0.0
 40
0.0
 40
0.0
 40
1.0
 40
1.0
 40
1.0
 40
1.0
 10
140.1375572059257
 20
72.07312953941707
 30
0.0
 10
140.1189660669659
 20
72.00374646424876
 30
0.0
 10
140.1010835361831
 20
71.93432835088383
 30
0.0
 10
140.0839673674394
 20
71.86487234359574
 30
0.0
  0
SPLINE
  5
E9
330
1F
100
AcDbEntity
  8
0
  6
Continuous
 62
     7
370
    25
100
AcDbSpline
210
0.0
220
0.0
230
1.0
 70
     8
 71
     3
 72
    16
 73
    12
 74
     0
 42
0.000000001
 43
0.00000001
 40
0.0
 40
0.0
 40
0.0
 40
0.0
 40
0.2499999999999999
 40
0.2499999999999999
 40
0.4999999999999998
 40
0.4999999999999998
 40
0.6249999999999998
 40
0.6249999999999998
 40
0.7499999999999999
 40
0.7499999999999999
 40
1.0
 40
1.0
 40
1.0
 40
1.0
 10
141.8144150178032
 20
72.07312953941711
 30
0.0
 10
142.004909488788
 20
71.7431834371105
 30
0.0
 10
142.1619115020011
 20
71.41083169580078
 30
0.0
 10
142.3794103128391
 20
70.73919660152706
 30
0.0
 10
142.4391896739092
 20
70.39986171775656
 30
0.0
 10
142.4398461747631
 20
69.88446595148636
 30
0.0
 10
142.4252324082797
 20
69.71185919098588
 30
0.0
 10
142.3682465504028
 20
69.37042477846735
 30
0.0
 10
142.3259322811436
 20
69.20085227572335
 30
0.0
 10
142.1625374612534
 20
68.69515377617186
 30
0.0
 10
142.00514693394
 20
68.36203502446385
 30
0.0
 10
141.814415017803
 20
68.03167765508961
 30
0.0
  0
LINE
  5
EA
330
1F
100
AcDbEntity
  8
0
  6
Continuous
 62
     7
370
    25
100
AcDbLine
 10
140.1375572059
 20
68.0316776551
 30
0.0
 11
141.8144150178
 21
68.0316776551
 31
0.0
  0
SPLINE
  5
EB
330
1F
100
AcDbEntity
  8
0
  6
Continuous
 62
     7
370
    25
100
AcDbSpline
210
0.0
220
0.0
230
1.0
 70
     8
 71
     3
 72
     8
 73
     4
 74
     0
 42
0.000000001
 43
0.00000001
 40
0.0
 40
0.0
 40
0.0
 40
0.0
 40
1.0
 40
1.0
 40
1.0
 40
1.0
 10
140.0839673674394
 20
68.23993485091096
 30
0.0
 10
140.1010897833169
 20
68.17045349326685
 30
0.0
 10
140.1189726728351
 20
68.10103607681853
 30
0.0
 10
140.1375572059257
 20
68.03167765508962
 30
0.0
  0
SPLINE
  5
EC
330
1F
100
AcDbEntity
  8
0
  6
Continuous
 62
     7
370
    25
100
AcDbSpline
210
0.0
220
0.0
230
1.0
 70
     8
 71
     3
 72
     8
 73
     4
 74
     0
 42
0.000000001
 43
0.00000001
 40
0.0
 40
0.0
 40
0.0
 40
0.0
 40
1.0
 40
1.0
 40
1.0
 40
1.0
 10
140.0303775289532
 20
68.03167765508962
 30
0.0
 10
140.0489686679129
 20
68.10106073025793
 30
0.0
 10
140.0668511986958
 20
68.17047884362287
 30
0.0
 10
140.0839673674394
 20
68.23993485091096
 30
0.0
  0
LINE
  5
ED
330
1F
100
AcDbEntity
  8
0
  6
Continuous
 62
     7
370
    25
100
AcDbLine
 10
140.0839673674
 20
71.8648723436
 30
0.0
 11
140.0839673674
 21
72.4896439311
 31
0.0
  0
SPLINE
  5
EE
330
1F
100
AcDbEntity
  8
0
  6
Continuous
 62
     7
370
    25
100
AcDbSpline
210
0.0
220
0.0
230
1.0
 70
     8
 71
     3
 72
     8
 73
     4
 74
     0
 42
0.000000001
 43
0.00000001
 40
0.0
 40
0.0
 40
0.0
 40
0.0
 40
1.0
 40
1.0
 40
1.0
 40
1.0
 10
140.0303775289532
 20
80.15603330807184
 30
0.0
 10
140.0489686679129
 20
80.22541638324017
 30
0.0
 10
140.0668511986958
 20
80.2948344966051
 30
0.0
 10
140.0839673674394
 20
80.36429050389319
 30
0.0
  0
LINE
  5
EF
330
1F
100
AcDbEntity
  8
0
  6
Continuous
 62
     7
370
    25
100
AcDbLine
 10
140.0839673674
 20
79.7395189164
 30
0.0
 11
140.0839673674
 21
80.3642905039
 31
0.0
  0
SPLINE
  5
F0
330
1F
100
AcDbEntity
  8
0
  6
Continuous
 62
     7
370
    25
100
AcDbSpline
210
0.0
220
0.0
230
1.0
 70
     8
 71
     3
 72
     8
 73
     4
 74
     0
 42
0.000000001
 43
0.00000001
 40
0.0
 40
0.0
 40
0.0
 40
0.0
 40
1.0
 40
1.0
 40
1.0
 40
1.0
 10
140.0839673674394
 20
80.36429050389319
 30
0.0
 10
140.1010897833169
 20
80.29480914624908
 30
0.0
 10
140.1189726728351
 20
80.22539172980076
 30
0.0
 10
140.1375572059257
 20
80.15603330807184
 30
0.0
  0
SPLINE
  5
F1
330
1F
100
AcDbEntity
  8
0
  6
Continuous
 62
     7
370
    25
100
AcDbSpline
210
0.0
220
0.0
230
1.0
 70
     8
 71
     3
 72
    16
 73
    12
 74
     0
 42
0.000000001
 43
0.00000001
 40
0.0
 40
0.0
 40
0.0
 40
0.0
 40
0.25
 40
0.25
 40
0.5
 40
0.5
 40
0.625
 40
0.625
 40
0.75
 40
0.75
 40
1.0
 40
1.0
 40
1.0
 40
1.0
 10
141.8144150178032
 20
84.1974851923992
 30
0.0
 10
142.004909488788
 20
83.8675390900926
 30
0.0
 10
142.1619115020011
 20
83.5351873487829
 30
0.0
 10
142.3794103128391
 20
82.86355225450919
 30
0.0
 10
142.4391896739092
 20
82.52421737073871
 30
0.0
 10
142.4398461747631
 20
82.00882160446854
 30
0.0
 10
142.4252324082796
 20
81.83621484396805
 30
0.0
 10
142.3682465504028
 20
81.49478043144953
 30
0.0
 10
142.3259322811436
 20
81.32520792870555
 30
0.0
 10
142.1625374612534
 20
80.81950942915407
 30
0.0
 10
142.00514693394
 20
80.48639067744608
 30
0.0
 10
141.814415017803
 20
80.15603330807183
 30
0.0
  0
LINE
  5
F2
330
1F
100
AcDbEntity
  8
0
  6
Continuous
 62
     7
370
    25
100
AcDbLine
 10
142.5839673674
 20
82.8645814237
 30
0.0
 11
142.5839673674
 21
69.3645814237
 31
0.0
  0
LINE
  5
F3
330
1F
100
AcDbEntity
  8
0
  6
Continuous
 62
     7
370
    25
100
AcDbLine
 10
137.5839673674
 20
84.1974851924
 30
0.0
 11
140.030377529
 21
84.1974851924
 31
0.0
  0
SPLINE
  5
F4
330
1F
100
AcDbEntity
  8
0
  6
Continuous
 62
     7
370
    25
100
AcDbSpline
210
0.0
220
0.0
230
1.0
 70
     8
 71
     3
 72
     8
 73
     4
 74
     0
 42
0.000000001
 43
0.00000001
 40
0.0
 40
0.0
 40
0.0
 40
0.0
 40
1.0
 40
1.0
 40
1.0
 40
1.0
 10
140.0839673674394
 20
83.98922799657782
 30
0.0
 10
140.0668449515619
 20
84.05870935422193
 30
0.0
 10
140.0489620620438
 20
84.12812677067025
 30
0.0
 10
140.0303775289532
 20
84.19748519239916
 30
0.0
  0
SPLINE
  5
F5
330
1F
100
AcDbEntity
  8
0
  6
Continuous
 62
     7
370
    25
100
AcDbSpline
210
0.0
220
0.0
230
1.0
 70
     8
 71
     3
 72
     8
 73
     4
 74
     0
 42
0.000000001
 43
0.00000001
 40
0.0
 40
0.0
 40
0.0
 40
0.0
 40
1.0
 40
1.0
 40
1.0
 40
1.0
 10
140.1375572059257
 20
84.19748519239916
 30
0.0
 10
140.1189660669659
 20
84.12810211723085
 30
0.0
 10
140.1010835361831
 20
84.05868400386592
 30
0.0
 10
140.0839673674394
 20
83.98922799657782
 30
0.0
  0
LINE
  5
F6
330
1F
100
AcDbEntity
  8
0
  6
Continuous
 62
     7
370
    25
100
AcDbLine
 10
140.1375572059
 20
84.1974851924
 30
0.0
 11
141.8144150178
 21
84.1974851924
 31
0.0
  0
LINE
  5
F7
330
1F
100
AcDbEntity
  8
0
  6
Continuous
 62
     7
370
    25
100
AcDbLine
 10
137.5839673674
 20
80.1560333081
 30
0.0
 11
137.5839673674
 21
84.1974851924
 31
0.0
  0
LINE
  5
F8
330
1F
100
AcDbEntity
  8
0
  6
Continuous
 62
     7
370
    25
100
AcDbLine
 10
127.6733272604
 20
82.5708739204
 30
0.0
 11
127.6733272604
 21
69.6582889271
 31
0.0
  0
LINE
  5
F9
330
1F
100
AcDbEntity
  8
0
  6
Continuous
 62
     7
370
    25
100
AcDbLine
 10
145.5839673674
 20
82.6930814237
 30
0.0
 11
145.5839673674
 21
69.5360814237
 31
0.0
  0
LINE
  5
FA
330
1F
100
AcDbEntity
  8
0
  6
Continuous
 62
     7
370
    25
100
AcDbLine
 10
144.5839673674
 20
70.5360814237
 30
0.0
 11
144.5839673674
 21
81.6930814237
 31
0.0
  0
LINE
  5
FB
330
1F
100
AcDbEntity
  8
0
  6
Continuous
 62
     7
370
    25
100
AcDbLine
 10
125.5839673674
 20
76.1145814237
 30
0.0
 11
125.5839673674
 21
81.3645814237
 31
0.0
  0
LINE
  5
FC
330
1F
100
AcDbEntity
  8
0
  6
Continuous
 62
     7
370
    25
100
AcDbLine
 10
125.5839673674
 20
70.8645814237
 30
0.0
 11
125.5839673674
 21
76.1145814237
 31
0.0
  0
LINE
  5
FD
330
1F
100
AcDbEntity
  8
0
  6
Continuous
 62
     7
370
    25
100
AcDbLine
 10
140.0839673674
 20
68.2316776551
 30
0.0
 11
140.0839673674
 21
68.2399348509
 31
0.0
  0
LINE
  5
FE
330
1F
100
AcDbEntity
  8
0
  6
Continuous
 62
     7
370
    25
100
AcDbLine
 10
140.0839673674
 20
83.9892279966
 30
0.0
 11
140.0839673674
 21
83.9974851924
 31
0.0
  0
LINE
  5
FF
330
1F
100
AcDbEntity
  8
0
  6
Continuous
 62
     8
370
    25
100
AcDbLine
 10
184.0425035968
 20
72.6811323007
 30
0.0
 11
184.0425035968
 21
79.5480305468
 31
0.0
  0
LINE
  5
100
330
1F
100
AcDbEntity
  8
0
  6
Continuous
 62
     8
370
    25
100
AcDbLine
 10
146.0486115609
 20
76.1145814237
 30
0.0
 11
146.0486115609
 21
68.2645814237
 31
0.0
  0
LINE
  5
101
330
1F
100
AcDbEntity
  8
0
  6
Continuous
 62
     8
370
    25
100
AcDbLine
 10
146.0486115609
 20
83.9645814237
 30
0.0
 11
146.0486115609
 21
76.1145814237
 31
0.0
  0
LINE
  5
102
330
1F
100
AcDbEntity
  8
0
  6
Continuous
 62
     8
370
    25
100
AcDbLine
 10
158.4486115609
 20
68.2645814237
 30
0.0
 11
158.4486115609
 21
83.9645814237
 31
0.0
  0
LINE
  5
103
330
1F
100
AcDbEntity
  8
0
  6
Continuous
 62
     7
370
     0
100
AcDbLine
 10
126.44919309
 20
81.8641197276
 30
0.0
 11
137.0839673674
 21
82.1964564237
 31
0.0
  0
LINE
  5
104
330
1F
100
AcDbEntity
  8
0
  6
Continuous
 62
     7
370
     0
100
AcDbLine
 10
126.44919309
 20
70.3650431199
 30
0.0
 11
137.0839673674
 21
70.0327064237
 31
0.0
  0
LINE
  5
105
330
1F
100
AcDbEntity
  8
0
  6
Continuous
 62
     7
370
     0
100
AcDbLine
 10
137.0839673674
 20
69.3642064237
 30
0.0
 11
137.0839673674
 21
82.8649564237
 31
0.0
  0
LINE
  5
106
330
1F
100
AcDbEntity
  8
0
  6
Continuous
 62
     7
370
     0
100
AcDbLine
 10
126.44919309
 20
81.8641197276
 30
0.0
 11
137.0839673674
 21
82.1964564237
 31
0.0
  0
LINE
  5
107
330
1F
100
AcDbEntity
  8
0
  6
Continuous
 62
     7
370
     0
100
AcDbLine
 10
126.44919309
 20
70.3650431199
 30
0.0
 11
137.0839673674
 21
70.0327064237
 31
0.0
  0
LINE
  5
108
330
1F
100
AcDbEntity
  8
0
  6
Continuous
 62
     7
370
     0
100
AcDbLine
 10
137.0839673674
 20
69.3642064237
 30
0.0
 11
137.0839673674
 21
82.8649564237
 31
0.0
  0
LINE
  5
109
330
1F
100
AcDbEntity
  8
0
  6
CENTERX2
 62
     7
370
    18
100
AcDbLine
 10
123.5839673674
 20
76.1145814237
 30
0.0
 11
139.5839673674
 21
76.1145814237
 31
0.0
  0
LINE
  5
10A
330
1F
100
AcDbEntity
  8
0
  6
CENTERX2
 62
     7
370
    18
100
AcDbLine
 10
140.5839673674
 20
76.1145814237
 30
0.0
 11
186.7486115609
 21
76.1145814237
 31
0.0
  0
LINE
  5
10B
330
1F
100
AcDbEntity
  8
0
  6
CENTERX2
 62
     7
370
    18
100
AcDbLine
 10
136.8607622867
 20
76.1145814237
 30
0.0
 11
142.9223962734
 21
76.1145814237
 31
0.0
  0
CIRCLE
  5
10C
330
1F
100
AcDbEntity
  8
0
  6
Continuous
 62
     7
370
    25
100
AcDbCircle
 10
213.0923692971
 20
76.1145814237
 30
0.0
 40
3.433449123032091
  0
CIRCLE
  5
10D
330
1F
100
AcDbEntity
  8
0
  6
Continuous
 62
     7
370
    25
100
AcDbCircle
 10
213.0923692971
 20
76.1145814237
 30
0.0
 40
2.638978050180555
  0
CIRCLE
  5
10E
330
1F
100
AcDbEntity
  8
0
  6
Continuous
 62
     7
370
    25
100
AcDbCircle
 10
213.0923692971
 20
76.1145814237
 30
0.0
 40
2.449999999999989
  0
CIRCLE
  5
10F
330
1F
100
AcDbEntity
  8
0
  6
Continuous
 62
     7
370
    25
100
AcDbCircle
 10
213.0923692971
 20
76.1145814237
 30
0.0
 40
2.249999999999972
  0
CIRCLE
  5
110
330
1F
100
AcDbEntity
  8
0
  6
Continuous
 62
     7
370
    25
100
AcDbCircle
 10
213.0923692971
 20
76.1145814237
 30
0.0
 40
3.999999999999972
  0
CIRCLE
  5
111
330
1F
100
AcDbEntity
  8
0
  6
Continuous
 62
     7
370
    25
100
AcDbCircle
 10
213.0923692971
 20
76.1145814237
 30
0.0
 40
4.5
  0
CIRCLE
  5
112
330
1F
100
AcDbEntity
  8
0
  6
Continuous
 62
     7
370
    25
100
AcDbCircle
 10
213.0923692971
 20
76.1145814237
 30
0.0
 40
4.849999999999994
  0
CIRCLE
  5
113
330
1F
100
AcDbEntity
  8
0
  6
Continuous
 62
     7
370
    25
100
AcDbCircle
 10
213.0923692971
 20
76.1145814237
 30
0.0
 40
7.549999999999983
  0
CIRCLE
  5
114
330
1F
100
AcDbEntity
  8
0
  6
Continuous
 62
     7
370
    25
100
AcDbCircle
 10
213.0923692971
 20
76.1145814237
 30
0.0
 40
7.850000000000023
  0
CIRCLE
  5
115
330
1F
100
AcDbEntity
  8
0
  6
Continuous
 62
     7
370
    25
100
AcDbCircle
 10
213.0923692971
 20
76.1145814237
 30
0.0
 40
4.75
  0
SPLINE
  5
116
330
1F
100
AcDbEntity
  8
0
  6
Continuous
 62
     7
370
    25
100
AcDbSpline
210
0.0
220
0.0
230
1.0
 70
    24
 71
     3
 72
    15
 73
    11
 74
     0
 42
0.000000001
 43
0.00000001
 40
0.0
 40
0.0
 40
0.0
 40
0.0
 40
0.1323049664163417
 40
0.2645725257576573
 40
0.3997989469058977
 40
0.5350009659368399
 40
0.6501921044151454
 40
0.7654012116808045
 40
0.8826892657702333
 40
1.0
 40
1.0
 40
1.0
 40
1.0
 10
205.0923692970929
 20
80.73338357726149
 30
0.0
 10
205.4380004134501
 20
80.93293379533063
 30
0.0
 10
206.129164924594
 20
81.33197781189386
 30
0.0
 10
207.1934970090962
 20
81.94647022738836
 30
0.0
 10
208.277891882395
 20
82.57254589939528
 30
0.0
 10
209.3230074480948
 20
83.17594365258633
 30
0.0
 10
210.3116623989573
 20
83.74674385460239
 30
0.0
 10
211.2447110352209
 20
84.28543973591621
 30
0.0
 10
212.1735411092525
 20
84.82170002918976
 30
0.0
 10
212.78607349536
 20
85.17534576719629
 30
0.0
 10
213.0923692970929
 20
85.3521857307784
 30
0.0
  0
SPLINE
  5
117
330
1F
100
AcDbEntity
  8
0
  6
Continuous
 62
     7
370
    25
100
AcDbSpline
210
0.0
220
0.0
230
1.0
 70
    24
 71
     3
 72
    15
 73
    11
 74
     0
 42
0.000000001
 43
0.00000001
 40
0.0
 40
0.0
 40
0.0
 40
0.0
 40
0.13230496641634
 40
0.2645725257576541
 40
0.3997989469058928
 40
0.5350009659368333
 40
0.6501921044151404
 40
0.7654012116808011
 40
0.8826892657702318
 40
1.0
 40
1.0
 40
1.0
 40
1.0
 10
213.0923692970929
 20
85.3521857307784
 30
0.0
 10
213.4380004134501
 20
85.15263551270927
 30
0.0
 10
214.1291649245939
 20
84.75359149614603
 30
0.0
 10
215.1934970090962
 20
84.1390990806515
 30
0.0
 10
216.277891882395
 20
83.5130234086446
 30
0.0
 10
217.3230074480948
 20
82.90962565545355
 30
0.0
 10
218.3116623989572
 20
82.33882545343747
 30
0.0
 10
219.2447110352209
 20
81.80012957212361
 30
0.0
 10
220.1735411092525
 20
81.26386927885005
 30
0.0
 10
220.78607349536
 20
80.9102235408435
 30
0.0
 10
221.0923692970929
 20
80.73338357726138
 30
0.0
  0
SPLINE
  5
118
330
1F
100
AcDbEntity
  8
0
  6
Continuous
 62
     7
370
    25
100
AcDbSpline
210
0.0
220
0.0
230
1.0
 70
    24
 71
     3
 72
    16
 73
    12
 74
     0
 42
0.000000001
 43
0.00000001
 40
0.0
 40
0.0
 40
0.0
 40
0.0
 40
0.0956237145789417
 40
0.1912377652649445
 40
0.2877937408434854
 40
0.38433884805827
 40
0.510267629796456
 40
0.6361984448948281
 40
0.765484310715168
 40
0.8948065592131594
 40
1.0
 40
1.0
 40
1.0
 40
1.0
 10
221.0923692970929
 20
80.73338357726138
 30
0.0
 10
221.0923692970929
 20
80.44529555073859
 30
0.0
 10
221.0923692970929
 20
79.86914861235205
 30
0.0
 10
221.0923692970929
 20
78.99010036457315
 30
0.0
 10
221.0923692970929
 20
78.09987888165978
 30
0.0
 10
221.0923692970929
 20
77.10798727436351
 30
0.0
 10
221.0923692970929
 20
76.01829757267394
 30
0.0
 10
221.0923692970929
 20
74.82687917297964
 30
0.0
 10
221.0923692970929
 20
73.6344833806058
 30
0.0
 10
221.0923692970929
 20
72.51958440949257
 30
0.0
 10
221.0923692970929
 20
71.81280809212518
 30
0.0
 10
221.0923692970929
 20
71.49577927022733
 30
0.0
  0
SPLINE
  5
119
330
1F
100
AcDbEntity
  8
0
  6
Continuous
 62
     7
370
    25
100
AcDbSpline
210
0.0
220
0.0
230
1.0
 70
    24
 71
     3
 72
    15
 73
    11
 74
     0
 42
0.000000001
 43
0.00000001
 40
0.0
 40
0.0
 40
0.0
 40
0.0
 40
0.13230496641634
 40
0.2645725257576539
 40
0.3997989469058926
 40
0.5350009659368332
 40
0.6501921044151403
 40
0.7654012116808009
 40
0.8826892657702315
 40
1.0
 40
1.0
 40
1.0
 40
1.0
 10
221.0923692970929
 20
71.49577927022733
 30
0.0
 10
220.7467381807357
 20
71.29622905215821
 30
0.0
 10
220.0555736695918
 20
70.89718503559497
 30
0.0
 10
218.9912415850895
 20
70.28269262010046
 30
0.0
 10
217.9068467117907
 20
69.65661694809356
 30
0.0
 10
216.8617311460909
 20
69.05321919490251
 30
0.0
 10
215.8730761952285
 20
68.48241899288642
 30
0.0
 10
214.9400275589648
 20
67.9437231115726
 30
0.0
 10
214.0111974849332
 20
67.40746281829904
 30
0.0
 10
213.3986650988257
 20
67.05381708029249
 30
0.0
 10
213.0923692970928
 20
66.87697711671036
 30
0.0
  0
SPLINE
  5
11A
330
1F
100
AcDbEntity
  8
0
  6
Continuous
 62
     7
370
    25
100
AcDbSpline
210
0.0
220
0.0
230
1.0
 70
    24
 71
     3
 72
    15
 73
    11
 74
     0
 42
0.000000001
 43
0.00000001
 40
0.0
 40
0.0
 40
0.0
 40
0.0
 40
0.13230496641634
 40
0.264572525757654
 40
0.3997989469058927
 40
0.5350009659368333
 40
0.6501921044151404
 40
0.765401211680801
 40
0.8826892657702317
 40
1.0
 40
1.0
 40
1.0
 40
1.0
 10
213.0923692970928
 20
66.87697711671036
 30
0.0
 10
212.7467381807356
 20
67.07652733477951
 30
0.0
 10
212.0555736695917
 20
67.47557135134277
 30
0.0
 10
210.9912415850895
 20
68.09006376683728
 30
0.0
 10
209.9068467117907
 20
68.71613943884421
 30
0.0
 10
208.8617311460909
 20
69.31953719203526
 30
0.0
 10
207.8730761952285
 20
69.89033739405136
 30
0.0
 10
206.9400275589648
 20
70.4290332753652
 30
0.0
 10
206.0111974849332
 20
70.96529356863877
 30
0.0
 10
205.3986650988257
 20
71.31893930664533
 30
0.0
 10
205.0923692970928
 20
71.49577927022744
 30
0.0
  0
SPLINE
  5
11B
330
1F
100
AcDbEntity
  8
0
  6
Continuous
 62
     7
370
    25
100
AcDbSpline
210
0.0
220
0.0
230
1.0
 70
    24
 71
     3
 72
    16
 73
    12
 74
     0
 42
0.000000001
 43
0.00000001
 40
0.0
 40
0.0
 40
0.0
 40
0.0
 40
0.1051935664218023
 40
0.2312918996997604
 40
0.3573572448607639
 40
0.4865103187026856
 40
0.6156604465364214
 40
0.7112032284208155
 40
0.806756420180822
 40
0.9033731629575484
 40
0.9999999999999999
 40
0.9999999999999999
 40
0.9999999999999999
 40
0.9999999999999999
 10
205.0923692970928
 20
71.49577927022744
 30
0.0
 10
205.0923692970928
 20
71.81280711113664
 30
0.0
 10
205.0923692970928
 20
72.50986467915915
 30
0.0
 10
205.0923692970929
 20
73.60478226743429
 30
0.0
 10
205.0923692970929
 20
74.7866457221343
 30
0.0
 10
205.0923692970929
 20
75.98801536799127
 30
0.0
 10
205.0923692970929
 20
77.09484131249984
 30
0.0
 10
205.0923692970929
 20
78.0905321221909
 30
0.0
 10
205.0923692970929
 20
78.97778437665224
 30
0.0
 10
205.0923692970929
 20
79.8600550724559
 30
0.0
 10
205.0923692970929
 20
80.44226393824479
 30
0.0
 10
205.0923692970929
 20
80.73338357726149
 30
0.0
  0
INSERT
  5
127
330
1F
100
AcDbEntity
  8
0
  6
Continuous
 62
     7
370
    18
100
AcDbBlockReference
  2
SW_CENTERMARKSYMBOL_0
 10
213.0923692971
 20
76.1145814237
 30
0.0
  0
LINE
  5
128
330
1F
100
AcDbEntity
  8
0
  6
Continuous
 62
     7
370
    25
100
AcDbLine
 10
158.7754064801
 20
107.8573990519
 30
0.0
 11
159.2486115609
 21
107.8573990519
 31
0.0
  0
LINE
  5
129
330
1F
100
AcDbEntity
  8
0
  6
Continuous
 62
     7
370
    25
100
AcDbLine
 10
159.2486115609
 20
116.8573990519
 30
0.0
 11
158.7754064801
 21
116.8573990519
 31
0.0
  0
LINE
  5
12A
330
1F
100
AcDbEntity
  8
0
  6
Continuous
 62
     7
370
    25
100
AcDbLine
 10
158.7754064801
 20
116.8573990519
 30
0.0
 11
158.7486115609
 21
116.7573990519
 31
0.0
  0
LINE
  5
12B
330
1F
100
AcDbEntity
  8
0
  6
Continuous
 62
     7
370
    25
100
AcDbLine
 10
158.7486115609
 20
107.9573990519
 30
0.0
 11
158.7754064801
 21
107.8573990519
 31
0.0
  0
LINE
  5
12C
330
1F
100
AcDbEntity
  8
0
  6
Continuous
 62
     7
370
    25
100
AcDbLine
 10
159.2486115609
 20
108.3573990519
 30
0.0
 11
163.2486115609
 21
108.3573990519
 31
0.0
  0
LINE
  5
12D
330
1F
100
AcDbEntity
  8
0
  6
Continuous
 62
     7
370
    25
100
AcDbLine
 10
163.2486115609
 20
116.3573990519
 30
0.0
 11
159.2486115609
 21
116.3573990519
 31
0.0
  0
LINE
  5
12E
330
1F
100
AcDbEntity
  8
0
  6
Continuous
 62
     7
370
    25
100
AcDbLine
 10
163.2486115609
 20
108.3573990519
 30
0.0
 11
167.2486115609
 21
109.0073990519
 31
0.0
  0
LINE
  5
12F
330
1F
100
AcDbEntity
  8
0
  6
Continuous
 62
     7
370
    25
100
AcDbLine
 10
167.2486115609
 20
115.7073990519
 30
0.0
 11
163.2486115609
 21
116.3573990519
 31
0.0
  0
LINE
  5
130
330
1F
100
AcDbEntity
  8
0
  6
Continuous
 62
     7
370
    25
100
AcDbLine
 10
167.2486115609
 20
108.3573990519
 30
0.0
 11
171.2486115609
 21
109.0073990519
 31
0.0
  0
LINE
  5
131
330
1F
100
AcDbEntity
  8
0
  6
Continuous
 62
     7
370
    25
100
AcDbLine
 10
171.2486115609
 20
115.7073990519
 30
0.0
 11
167.2486115609
 21
116.3573990519
 31
0.0
  0
LINE
  5
132
330
1F
100
AcDbEntity
  8
0
  6
Continuous
 62
     7
370
    25
100
AcDbLine
 10
179.2486115609
 20
108.3573990519
 30
0.0
 11
184.0425035968
 21
108.9239499288
 31
0.0
  0
LINE
  5
133
330
1F
100
AcDbEntity
  8
0
  6
Continuous
 62
     7
370
    25
100
AcDbLine
 10
184.0425035968
 20
115.7908481749
 30
0.0
 11
179.2486115609
 21
116.3573990519
 31
0.0
  0
LINE
  5
134
330
1F
100
AcDbEntity
  8
0
  6
Continuous
 62
     7
370
    25
100
AcDbLine
 10
171.2486115609
 20
108.3573990519
 30
0.0
 11
175.2486115609
 21
109.0073990519
 31
0.0
  0
LINE
  5
135
330
1F
100
AcDbEntity
  8
0
  6
Continuous
 62
     7
370
    25
100
AcDbLine
 10
175.2486115609
 20
115.7073990519
 30
0.0
 11
171.2486115609
 21
116.3573990519
 31
0.0
  0
LINE
  5
136
330
1F
100
AcDbEntity
  8
0
  6
Continuous
 62
     7
370
    25
100
AcDbLine
 10
175.2486115609
 20
108.3573990519
 30
0.0
 11
179.2486115609
 21
109.0073990519
 31
0.0
  0
LINE
  5
137
330
1F
100
AcDbEntity
  8
0
  6
Continuous
 62
     7
370
    25
100
AcDbLine
 10
179.2486115609
 20
115.7073990519
 30
0.0
 11
175.2486115609
 21
116.3573990519
 31
0.0
  0
ARC
  5
138
330
1F
100
AcDbEntity
  8
0
  6
Continuous
 62
     7
370
    25
100
AcDbCircle
 10
183.9486115609
 20
109.7184210017
 30
0.0
 40
0.7999999999999993
100
AcDbArc
 50
276.7400560979
 51
0.0
  0
ARC
  5
139
330
1F
100
AcDbEntity
  8
0
  6
Continuous
 62
     7
370
    25
100
AcDbCircle
 10
183.9486115609
 20
114.9963771021
 30
0.0
 40
0.7999999999999993
100
AcDbArc
 50
0.0
 51
83.2599439021
  0
LINE
  5
13A
330
1F
100
AcDbEntity
  8
0
  6
Continuous
 62
     7
370
    25
100
AcDbLine
 10
156.6620090205
 20
104.3573990519
 30
0.0
 11
156.7486115609
 21
104.5073990519
 31
0.0
  0
LINE
  5
13B
330
1F
100
AcDbEntity
  8
0
  6
Continuous
 62
     7
370
    25
100
AcDbLine
 10
156.7486115609
 20
120.2073990519
 30
0.0
 11
156.6620090205
 21
120.3573990519
 31
0.0
  0
LINE
  5
13C
330
1F
100
AcDbEntity
  8
0
  6
Continuous
 62
     7
370
    25
100
AcDbLine
 10
147.8352141013
 20
120.3573990519
 30
0.0
 11
147.7486115609
 21
120.2073990519
 31
0.0
  0
LINE
  5
13D
330
1F
100
AcDbEntity
  8
0
  6
Continuous
 62
     7
370
    25
100
AcDbLine
 10
147.7486115609
 20
104.5073990519
 30
0.0
 11
147.8352141013
 21
104.3573990519
 31
0.0
  0
ARC
  5
13E
330
1F
100
AcDbEntity
  8
0
  6
Continuous
 62
     7
370
    25
100
AcDbCircle
 10
158.4486115609
 20
119.9073990519
 30
0.0
 40
0.3000000000000114
100
AcDbArc
 50
0.0
 51
90.0
  0
ARC
  5
13F
330
1F
100
AcDbEntity
  8
0
  6
Continuous
 62
     7
370
    25
100
AcDbCircle
 10
158.4486115609
 20
104.8073990519
 30
0.0
 40
0.3000000000000114
100
AcDbArc
 50
270.0
 51
0.0
  0
LINE
  5
140
330
1F
100
AcDbEntity
  8
0
  6
Continuous
 62
     7
370
    25
100
AcDbLine
 10
147.7486115609
 20
120.2073990519
 30
0.0
 11
146.0486115609
 21
120.2073990519
 31
0.0
  0
LINE
  5
141
330
1F
100
AcDbEntity
  8
0
  6
Continuous
 62
     7
370
    25
100
AcDbLine
 10
146.0486115609
 20
104.5073990519
 30
0.0
 11
147.7486115609
 21
104.5073990519
 31
0.0
  0
ARC
  5
142
330
1F
100
AcDbEntity
  8
0
  6
Continuous
 62
     7
370
    25
100
AcDbCircle
 10
146.0486115609
 20
104.8073990519
 30
0.0
 40
0.3000000000000114
100
AcDbArc
 50
180.0
 51
270.0
  0
ARC
  5
143
330
1F
100
AcDbEntity
  8
0
  6
Continuous
 62
     7
370
    25
100
AcDbCircle
 10
146.0486115609
 20
119.9073990519
 30
0.0
 40
0.3000000000000114
100
AcDbArc
 50
90.0
 51
180.0
  0
LINE
  5
144
330
1F
100
AcDbEntity
  8
0
  6
Continuous
 62
     7
370
    25
100
AcDbLine
 10
156.7486115609
 20
104.5073990519
 30
0.0
 11
158.4486115609
 21
104.5073990519
 31
0.0
  0
LINE
  5
145
330
1F
100
AcDbEntity
  8
0
  6
Continuous
 62
     7
370
    25
100
AcDbLine
 10
158.4486115609
 20
120.2073990519
 30
0.0
 11
156.7486115609
 21
120.2073990519
 31
0.0
  0
LINE
  5
146
330
1F
100
AcDbEntity
  8
0
  6
Continuous
 62
     7
370
    25
100
AcDbLine
 10
142.4396298001
 20
105.3573990519
 30
0.0
 11
142.5839673674
 21
105.6073990519
 31
0.0
  0
LINE
  5
147
330
1F
100
AcDbEntity
  8
0
  6
Continuous
 62
     7
370
    25
100
AcDbLine
 10
142.5839673674
 20
119.1073990519
 30
0.0
 11
142.4396298001
 21
119.3573990519
 31
0.0
  0
LINE
  5
148
330
1F
100
AcDbEntity
  8
0
  6
Continuous
 62
     7
370
    25
100
AcDbLine
 10
137.5839673674
 20
119.1233990519
 30
0.0
 11
127.6733272604
 21
118.8136915485
 31
0.0
  0
LINE
  5
149
330
1F
100
AcDbEntity
  8
0
  6
Continuous
 62
     7
370
    25
100
AcDbLine
 10
127.6733272604
 20
105.9011065552
 30
0.0
 11
137.5839673674
 21
105.5913990519
 31
0.0
  0
LINE
  5
14A
330
1F
100
AcDbEntity
  8
0
  6
Continuous
 62
     7
370
    25
100
AcDbLine
 10
145.5839673674
 20
105.7788990519
 30
0.0
 11
145.7486115609
 21
105.7788990519
 31
0.0
  0
LINE
  5
14B
330
1F
100
AcDbEntity
  8
0
  6
Continuous
 62
     7
370
    25
100
AcDbLine
 10
145.7486115609
 20
118.9358990519
 30
0.0
 11
145.5839673674
 21
118.9358990519
 31
0.0
  0
LINE
  5
14C
330
1F
100
AcDbEntity
  8
0
  6
Continuous
 62
     7
370
    25
100
AcDbLine
 10
145.5839673674
 20
118.9358990519
 30
0.0
 11
144.5839673674
 21
117.9358990519
 31
0.0
  0
LINE
  5
14D
330
1F
100
AcDbEntity
  8
0
  6
Continuous
 62
     7
370
    25
100
AcDbLine
 10
144.5839673674
 20
106.7788990519
 30
0.0
 11
145.5839673674
 21
105.7788990519
 31
0.0
  0
LINE
  5
14E
330
1F
100
AcDbEntity
  8
0
  6
Continuous
 62
     7
370
    25
100
AcDbLine
 10
127.6733272604
 20
118.8136915485
 30
0.0
 11
125.5839673674
 21
117.6073990519
 31
0.0
  0
LINE
  5
14F
330
1F
100
AcDbEntity
  8
0
  6
Continuous
 62
     7
370
    25
100
AcDbLine
 10
125.5839673674
 20
107.1073990519
 30
0.0
 11
127.6733272604
 21
105.9011065552
 31
0.0
  0
LINE
  5
150
330
1F
100
AcDbEntity
  8
0
  6
Continuous
 62
     7
370
    25
100
AcDbLine
 10
142.5839673674
 20
106.9573990519
 30
0.0
 11
144.5839673674
 21
106.9573990519
 31
0.0
  0
LINE
  5
151
330
1F
100
AcDbEntity
  8
0
  6
Continuous
 62
     7
370
    25
100
AcDbLine
 10
144.5839673674
 20
117.7573990519
 30
0.0
 11
142.5839673674
 21
117.7573990519
 31
0.0
  0
LINE
  5
152
330
1F
100
AcDbEntity
  8
0
  6
Continuous
 62
     7
370
    25
100
AcDbLine
 10
159.2486115609
 20
116.8573990519
 30
0.0
 11
159.2486115609
 21
107.8573990519
 31
0.0
  0
LINE
  5
153
330
1F
100
AcDbEntity
  8
0
  6
Continuous
 62
     7
370
    25
100
AcDbLine
 10
158.7754064801
 20
107.8573990519
 30
0.0
 11
158.7754064801
 21
116.8573990519
 31
0.0
  0
LINE
  5
154
330
1F
100
AcDbEntity
  8
0
  6
Continuous
 62
     7
370
    25
100
AcDbLine
 10
163.2486115609
 20
108.3573990519
 30
0.0
 11
163.2486115609
 21
116.3573990519
 31
0.0
  0
LINE
  5
155
330
1F
100
AcDbEntity
  8
0
  6
Continuous
 62
     7
370
    25
100
AcDbLine
 10
167.2486115609
 20
108.3573990519
 30
0.0
 11
167.2486115609
 21
116.3573990519
 31
0.0
  0
LINE
  5
156
330
1F
100
AcDbEntity
  8
0
  6
Continuous
 62
     7
370
    25
100
AcDbLine
 10
179.2486115609
 20
108.3573990519
 30
0.0
 11
179.2486115609
 21
116.3573990519
 31
0.0
  0
LINE
  5
157
330
1F
100
AcDbEntity
  8
0
  6
Continuous
 62
     7
370
    25
100
AcDbLine
 10
171.2486115609
 20
108.3573990519
 30
0.0
 11
171.2486115609
 21
116.3573990519
 31
0.0
  0
LINE
  5
158
330
1F
100
AcDbEntity
  8
0
  6
Continuous
 62
     7
370
    25
100
AcDbLine
 10
175.2486115609
 20
108.3573990519
 30
0.0
 11
175.2486115609
 21
116.3573990519
 31
0.0
  0
LINE
  5
159
330
1F
100
AcDbEntity
  8
0
  6
Continuous
 62
     7
370
    25
100
AcDbLine
 10
184.7486115609
 20
109.7184210017
 30
0.0
 11
184.7486115609
 21
114.9963771021
 31
0.0
  0
SPLINE
  5
15A
330
1F
100
AcDbEntity
  8
0
  6
Continuous
 62
     7
370
    25
100
AcDbSpline
210
0.0
220
0.0
230
1.0
 70
     8
 71
     3
 72
    15
 73
    11
 74
     0
 42
0.000000001
 43
0.00000001
 40
0.0
 40
0.0
 40
0.0
 40
0.0
 40
0.1323049664163417
 40
0.2645725257576573
 40
0.3997989469058977
 40
0.5350009659368399
 40
0.6501921044151454
 40
0.7654012116808045
 40
0.8826892657702333
 40
1.0
 40
1.0
 40
1.0
 40
1.0
 10
155.9474778407082
 20
104.3573990518743
 30
0.0
 10
156.0562493682514
 20
104.7030301682315
 30
0.0
 10
156.2737616699595
 20
105.3941946793754
 30
0.0
 10
156.5077968627551
 20
106.4585267638777
 30
0.0
 10
156.6485161187041
 20
107.5429216371765
 30
0.0
 10
156.6763854024276
 20
108.5880372028763
 30
0.0
 10
156.6040836040732
 20
109.5766921537387
 30
0.0
 10
156.4559336240941
 20
110.5097407900023
 30
0.0
 10
156.2386134653894
 20
111.4385708640339
 30
0.0
 10
156.0445293033808
 20
112.0511032501414
 30
0.0
 10
155.9474778407082
 20
112.3573990518743
 30
0.0
  0
SPLINE
  5
15B
330
1F
100
AcDbEntity
  8
0
  6
Continuous
 62
     7
370
    25
100
AcDbSpline
210
0.0
220
0.0
230
1.0
 70
     8
 71
     3
 72
    15
 73
    11
 74
     0
 42
0.000000001
 43
0.00000001
 40
0.0
 40
0.0
 40
0.0
 40
0.0
 40
0.13230496641634
 40
0.2645725257576541
 40
0.3997989469058928
 40
0.5350009659368333
 40
0.6501921044151404
 40
0.7654012116808011
 40
0.8826892657702318
 40
1.0
 40
1.0
 40
1.0
 40
1.0
 10
155.9474778407082
 20
112.3573990518743
 30
0.0
 10
156.0562493682514
 20
112.7030301682315
 30
0.0
 10
156.2737616699595
 20
113.3941946793754
 30
0.0
 10
156.5077968627551
 20
114.4585267638776
 30
0.0
 10
156.6485161187041
 20
115.5429216371764
 30
0.0
 10
156.6763854024277
 20
116.5880372028762
 30
0.0
 10
156.6040836040732
 20
117.5766921537386
 30
0.0
 10
156.4559336240941
 20
118.5097407900023
 30
0.0
 10
156.2386134653894
 20
119.4385708640339
 30
0.0
 10
156.0445293033808
 20
120.0511032501415
 30
0.0
 10
155.9474778407082
 20
120.3573990518743
 30
0.0
  0
SPLINE
  5
15C
330
1F
100
AcDbEntity
  8
0
  6
Continuous
 62
     7
370
    25
100
AcDbSpline
210
0.0
220
0.0
230
1.0
 70
    24
 71
     3
 72
    12
 73
     8
 74
     0
 42
0.000000001
 43
0.00000001
 40
0.0
 40
0.0
 40
0.0
 40
0.0
 40
0.1910462528605297
 40
0.3824439813440484
 40
0.5752172259134485
 40
0.768615311870771
 40
1.0
 40
1.0
 40
1.0
 40
1.0
 10
155.9474778407082
 20
120.3573990518743
 30
0.0
 10
156.0272016629393
 20
120.3573990518743
 30
0.0
 10
156.1867959785855
 20
120.3573990518743
 30
0.0
 10
156.3802397848271
 20
120.3573990518743
 30
0.0
 10
156.5298454319617
 20
120.3573990518743
 30
0.0
 10
156.6397119515817
 20
120.3573990518743
 30
0.0
 10
156.6518345055899
 20
120.3573990518743
 30
0.0
 10
156.6584378180348
 20
120.3573990518743
 30
0.0
  0
SPLINE
  5
15D
330
1F
100
AcDbEntity
  8
0
  6
Continuous
 62
     7
370
    25
100
AcDbSpline
210
0.0
220
0.0
230
1.0
 70
    24
 71
     3
 72
    12
 73
     8
 74
     0
 42
0.000000001
 43
0.00000001
 40
0.0
 40
0.0
 40
0.0
 40
0.0
 40
0.2313810520039043
 40
0.4221377217834617
 40
0.6135435856739714
 40
0.8065697087596989
 40
1.0
 40
1.0
 40
1.0
 40
1.0
 10
156.6569197961378
 20
104.3573990518743
 30
0.0
 10
156.6509791192056
 20
104.3573990518743
 30
0.0
 10
156.6401407908106
 20
104.3573990518743
 30
0.0
 10
156.5310395106191
 20
104.3573990518743
 30
0.0
 10
156.3829977956339
 20
104.3573990518743
 30
0.0
 10
156.1893461435842
 20
104.3573990518743
 30
0.0
 10
156.028156800612
 20
104.3573990518743
 30
0.0
 10
155.9474778407082
 20
104.3573990518743
 30
0.0
  0
LINE
  5
15E
330
1F
100
AcDbEntity
  8
0
  6
Continuous
 62
     7
370
    25
100
AcDbLine
 10
156.7486115609
 20
104.5073990519
 30
0.0
 11
156.7486115609
 21
120.2073990519
 31
0.0
  0
LINE
  5
15F
330
1F
100
AcDbEntity
  8
0
  6
Continuous
 62
     7
370
    25
100
AcDbLine
 10
148.5497452811
 20
112.3573990519
 30
0.0
 11
152.1950217224
 21
112.3573990519
 31
0.0
  0
SPLINE
  5
160
330
1F
100
AcDbEntity
  8
0
  6
Continuous
 62
     7
370
    25
100
AcDbSpline
210
0.0
220
0.0
230
1.0
 70
     8
 71
     3
 72
    15
 73
    11
 74
     0
 42
0.000000001
 43
0.00000001
 40
0.0
 40
0.0
 40
0.0
 40
0.0
 40
0.1323049664163401
 40
0.2645725257576541
 40
0.3997989469058928
 40
0.5350009659368333
 40
0.6501921044151404
 40
0.7654012116808011
 40
0.8826892657702318
 40
1.0
 40
1.0
 40
1.0
 40
1.0
 10
148.5497452810978
 20
112.3573990518743
 30
0.0
 10
148.4409737535546
 20
112.7030301682315
 30
0.0
 10
148.2234614518465
 20
113.3941946793754
 30
0.0
 10
147.9894262590509
 20
114.4585267638776
 30
0.0
 10
147.8487070031019
 20
115.5429216371764
 30
0.0
 10
147.8208377193784
 20
116.5880372028762
 30
0.0
 10
147.8931395177328
 20
117.5766921537386
 30
0.0
 10
148.0412894977119
 20
118.5097407900023
 30
0.0
 10
148.2586096564166
 20
119.4385708640339
 30
0.0
 10
148.4526938184252
 20
120.0511032501415
 30
0.0
 10
148.5497452810978
 20
120.3573990518743
 30
0.0
  0
LINE
  5
161
330
1F
100
AcDbEntity
  8
0
  6
Continuous
 62
     7
370
    25
100
AcDbLine
 10
148.5497452811
 20
120.3573990519
 30
0.0
 11
152.1950217224
 21
120.3573990519
 31
0.0
  0
LINE
  5
162
330
1F
100
AcDbEntity
  8
0
  6
Continuous
 62
     7
370
    25
100
AcDbLine
 10
152.2486115609
 20
119.9986514062
 30
0.0
 11
152.1950217224
 21
120.3573990519
 31
0.0
  0
LINE
  5
163
330
1F
100
AcDbEntity
  8
0
  6
Continuous
 62
     7
370
    25
100
AcDbLine
 10
152.3022013994
 20
120.3573990519
 30
0.0
 11
152.2486115609
 21
119.9986514062
 31
0.0
  0
LINE
  5
164
330
1F
100
AcDbEntity
  8
0
  6
Continuous
 62
     7
370
    25
100
AcDbLine
 10
152.3022013994
 20
120.3573990519
 30
0.0
 11
155.9474778407
 21
120.3573990519
 31
0.0
  0
LINE
  5
165
330
1F
100
AcDbEntity
  8
0
  6
Continuous
 62
     7
370
    25
100
AcDbLine
 10
152.3022013994
 20
112.3573990519
 30
0.0
 11
155.9474778407
 21
112.3573990519
 31
0.0
  0
LINE
  5
166
330
1F
100
AcDbEntity
  8
0
  6
Continuous
 62
     7
370
    25
100
AcDbLine
 10
152.2486115609
 20
112.7161466975
 30
0.0
 11
152.3022013994
 21
112.3573990519
 31
0.0
  0
LINE
  5
167
330
1F
100
AcDbEntity
  8
0
  6
Continuous
 62
     7
370
    25
100
AcDbLine
 10
152.1950217224
 20
112.3573990519
 30
0.0
 11
152.2486115609
 21
112.7161466975
 31
0.0
  0
SPLINE
  5
168
330
1F
100
AcDbEntity
  8
0
  6
Continuous
 62
     7
370
    25
100
AcDbSpline
210
0.0
220
0.0
230
1.0
 70
    24
 71
     3
 72
    12
 73
     8
 74
     0
 42
0.000000001
 43
0.00000001
 40
0.0
 40
0.0
 40
0.0
 40
0.0
 40
0.2313810520039043
 40
0.4221377217834618
 40
0.6135435856739715
 40
0.8065697087596991
 40
1.0
 40
1.0
 40
1.0
 40
1.0
 10
147.8403033256682
 20
104.3573990518743
 30
0.0
 10
147.8462440026004
 20
104.3573990518743
 30
0.0
 10
147.8570823309954
 20
104.3573990518743
 30
0.0
 10
147.966183611187
 20
104.3573990518743
 30
0.0
 10
148.1142253261721
 20
104.3573990518743
 30
0.0
 10
148.3078769782218
 20
104.3573990518743
 30
0.0
 10
148.469066321194
 20
104.3573990518743
 30
0.0
 10
148.5497452810978
 20
104.3573990518743
 30
0.0
  0
SPLINE
  5
169
330
1F
100
AcDbEntity
  8
0
  6
Continuous
 62
     7
370
    25
100
AcDbSpline
210
0.0
220
0.0
230
1.0
 70
    24
 71
     3
 72
    12
 73
     8
 74
     0
 42
0.000000001
 43
0.00000001
 40
0.0
 40
0.0
 40
0.0
 40
0.0
 40
0.1910462528605298
 40
0.3824439813440483
 40
0.5752172259134485
 40
0.7686153118707709
 40
1.0
 40
1.0
 40
1.0
 40
1.0
 10
148.5497452810978
 20
120.3573990518743
 30
0.0
 10
148.4700214588667
 20
120.3573990518743
 30
0.0
 10
148.3104271432206
 20
120.3573990518743
 30
0.0
 10
148.1169833369789
 20
120.3573990518743
 30
0.0
 10
147.9673776898443
 20
120.3573990518743
 30
0.0
 10
147.8575111702244
 20
120.3573990518743
 30
0.0
 10
147.8453886162161
 20
120.3573990518743
 30
0.0
 10
147.8387853037712
 20
120.3573990518743
 30
0.0
  0
SPLINE
  5
16A
330
1F
100
AcDbEntity
  8
0
  6
Continuous
 62
     7
370
    25
100
AcDbSpline
210
0.0
220
0.0
230
1.0
 70
     8
 71
     3
 72
    15
 73
    11
 74
     0
 42
0.000000001
 43
0.00000001
 40
0.0
 40
0.0
 40
0.0
 40
0.0
 40
0.1323049664163416
 40
0.2645725257576573
 40
0.3997989469058977
 40
0.5350009659368399
 40
0.6501921044151454
 40
0.7654012116808045
 40
0.8826892657702334
 40
1.0
 40
1.0
 40
1.0
 40
1.0
 10
148.5497452810978
 20
104.3573990518743
 30
0.0
 10
148.4409737535546
 20
104.7030301682315
 30
0.0
 10
148.2234614518465
 20
105.3941946793754
 30
0.0
 10
147.989426259051
 20
106.4585267638777
 30
0.0
 10
147.8487070031019
 20
107.5429216371765
 30
0.0
 10
147.8208377193784
 20
108.5880372028763
 30
0.0
 10
147.8931395177329
 20
109.5766921537387
 30
0.0
 10
148.0412894977119
 20
110.5097407900023
 30
0.0
 10
148.2586096564166
 20
111.4385708640339
 30
0.0
 10
148.4526938184252
 20
112.0511032501414
 30
0.0
 10
148.5497452810978
 20
112.3573990518743
 30
0.0
  0
LINE
  5
16B
330
1F
100
AcDbEntity
  8
0
  6
Continuous
 62
     7
370
    25
100
AcDbLine
 10
147.7486115609
 20
104.5073990519
 30
0.0
 11
147.7486115609
 21
120.2073990519
 31
0.0
  0
LINE
  5
16C
330
1F
100
AcDbEntity
  8
0
  6
Continuous
 62
     7
370
    25
100
AcDbLine
 10
152.3022013994
 20
112.3573990519
 30
0.0
 11
152.2486115609
 21
111.9986514062
 31
0.0
  0
LINE
  5
16D
330
1F
100
AcDbEntity
  8
0
  6
Continuous
 62
     7
370
    25
100
AcDbLine
 10
152.2486115609
 20
111.9986514062
 30
0.0
 11
152.2486115609
 21
112.7161466975
 31
0.0
  0
LINE
  5
16E
330
1F
100
AcDbEntity
  8
0
  6
Continuous
 62
     7
370
    25
100
AcDbLine
 10
152.2486115609
 20
111.9986514062
 30
0.0
 11
152.1950217224
 21
112.3573990519
 31
0.0
  0
LINE
  5
16F
330
1F
100
AcDbEntity
  8
0
  6
Continuous
 62
     7
370
    25
100
AcDbLine
 10
148.5497452811
 20
104.3573990519
 30
0.0
 11
152.1950217224
 21
104.3573990519
 31
0.0
  0
LINE
  5
170
330
1F
100
AcDbEntity
  8
0
  6
Continuous
 62
     7
370
    25
100
AcDbLine
 10
152.3022013994
 20
104.3573990519
 30
0.0
 11
155.9474778407
 21
104.3573990519
 31
0.0
  0
LINE
  5
171
330
1F
100
AcDbEntity
  8
0
  6
Continuous
 62
     7
370
    25
100
AcDbLine
 10
152.2486115609
 20
104.7161466975
 30
0.0
 11
152.3022013994
 21
104.3573990519
 31
0.0
  0
LINE
  5
172
330
1F
100
AcDbEntity
  8
0
  6
Continuous
 62
     7
370
    25
100
AcDbLine
 10
152.1950217224
 20
104.3573990519
 30
0.0
 11
152.2486115609
 21
104.7161466975
 31
0.0
  0
LINE
  5
173
330
1F
100
AcDbEntity
  8
0
  6
Continuous
 62
     7
370
    25
100
AcDbLine
 10
158.7486115609
 20
119.9073990519
 30
0.0
 11
158.7486115609
 21
104.8073990519
 31
0.0
  0
LINE
  5
174
330
1F
100
AcDbEntity
  8
0
  6
Continuous
 62
     7
370
    25
100
AcDbLine
 10
145.7486115609
 20
104.8073990519
 30
0.0
 11
145.7486115609
 21
119.9073990519
 31
0.0
  0
LINE
  5
175
330
1F
100
AcDbEntity
  8
0
  6
Continuous
 62
     7
370
    25
100
AcDbLine
 10
152.3022013994
 20
104.3573990519
 30
0.0
 11
152.2486115609
 21
104.3573990519
 31
0.0
  0
LINE
  5
176
330
1F
100
AcDbEntity
  8
0
  6
Continuous
 62
     7
370
    25
100
AcDbLine
 10
152.2486115609
 20
104.3573990519
 30
0.0
 11
152.2486115609
 21
104.7161466975
 31
0.0
  0
LINE
  5
177
330
1F
100
AcDbEntity
  8
0
  6
Continuous
 62
     7
370
    25
100
AcDbLine
 10
152.2486115609
 20
104.3573990519
 30
0.0
 11
152.1950217224
 21
104.3573990519
 31
0.0
  0
LINE
  5
178
330
1F
100
AcDbEntity
  8
0
  6
Continuous
 62
     7
370
    25
100
AcDbLine
 10
152.2486115609
 20
119.9986514062
 30
0.0
 11
152.2486115609
 21
120.3573990519
 31
0.0
  0
LINE
  5
179
330
1F
100
AcDbEntity
  8
0
  6
Continuous
 62
     7
370
    25
100
AcDbLine
 10
152.2486115609
 20
120.3573990519
 30
0.0
 11
152.3022013994
 21
120.3573990519
 31
0.0
  0
LINE
  5
17A
330
1F
100
AcDbEntity
  8
0
  6
Continuous
 62
     7
370
    25
100
AcDbLine
 10
152.1950217224
 20
120.3573990519
 30
0.0
 11
152.2486115609
 21
120.3573990519
 31
0.0
  0
SPLINE
  5
17B
330
1F
100
AcDbEntity
  8
0
  6
Continuous
 62
     7
370
    25
100
AcDbSpline
210
0.0
220
0.0
230
1.0
 70
     8
 71
     3
 72
    16
 73
    12
 74
     0
 42
0.000000001
 43
0.00000001
 40
0.0
 40
0.0
 40
0.0
 40
0.0
 40
0.25
 40
0.25
 40
0.5
 40
0.5
 40
0.625
 40
0.625
 40
0.75
 40
0.75
 40
1.0
 40
1.0
 40
1.0
 40
1.0
 10
141.8144150178032
 20
119.3573990518744
 30
0.0
 10
142.004909488788
 20
118.78591563892
 30
0.0
 10
142.1619115020011
 20
118.2102655369876
 30
0.0
 10
142.3794103128391
 20
117.0469594295592
 30
0.0
 10
142.4391896739092
 20
116.4592141700883
 30
0.0
 10
142.4398461747631
 20
115.5665225169024
 30
0.0
 10
142.4252324082797
 20
115.2675588379857
 30
0.0
 10
142.3682465504028
 20
114.6761770880512
 30
0.0
 10
142.3259322811436
 20
114.382468897732
 30
0.0
 10
142.1625374612534
 20
113.5065734031975
 30
0.0
 10
142.00514693394
 20
112.9295948002853
 30
0.0
 10
141.814415017803
 20
112.3573990518743
 30
0.0
  0
SPLINE
  5
17C
330
1F
100
AcDbEntity
  8
0
  6
Continuous
 62
     7
370
    25
100
AcDbSpline
210
0.0
220
0.0
230
1.0
 70
    24
 71
     3
 72
    11
 73
     7
 74
     0
 42
0.000000001
 43
0.00000001
 40
0.0
 40
0.0
 40
0.0
 40
0.0
 40
0.2350785575676809
 40
0.4249577317004125
 40
0.6154752381569607
 40
1.0
 40
1.0
 40
1.0
 40
1.0
 10
142.4357444192464
 20
119.3573990518743
 30
0.0
 10
142.4301427851101
 20
119.3573990518743
 30
0.0
 10
142.420016562791
 20
119.3573990518743
 30
0.0
 10
142.3229309165949
 20
119.3573990518743
 30
0.0
 10
142.1531028867879
 20
119.3573990518743
 30
0.0
 10
141.9501365130914
 20
119.3573990518743
 30
0.0
 10
141.8144150178027
 20
119.3573990518743
 30
0.0
  0
SPLINE
  5
17D
330
1F
100
AcDbEntity
  8
0
  6
Continuous
 62
     7
370
    25
100
AcDbSpline
210
0.0
220
0.0
230
1.0
 70
    24
 71
     3
 72
    11
 73
     7
 74
     0
 42
0.000000001
 43
0.00000001
 40
0.0
 40
0.0
 40
0.0
 40
0.0
 40
0.3805803846722088
 40
0.5724423905833219
 40
0.7649185414905217
 40
1.0
 40
1.0
 40
1.0
 40
1.0
 10
141.8144150178027
 20
105.3573990518743
 30
0.0
 10
141.9488221010237
 20
105.3573990518743
 30
0.0
 10
142.1509878329666
 20
105.3573990518743
 30
0.0
 10
142.3218858793651
 20
105.3573990518743
 30
0.0
 10
142.4196423615018
 20
105.3573990518743
 30
0.0
 10
142.430901672506
 20
105.3573990518743
 30
0.0
 10
142.4370923125375
 20
105.3573990518743
 30
0.0
  0
SPLINE
  5
17E
330
1F
100
AcDbEntity
  8
0
  6
Continuous
 62
     7
370
    25
100
AcDbSpline
210
0.0
220
0.0
230
1.0
 70
     8
 71
     3
 72
    16
 73
    12
 74
     0
 42
0.000000001
 43
0.00000001
 40
0.0
 40
0.0
 40
0.0
 40
0.0
 40
0.25
 40
0.25
 40
0.5
 40
0.5
 40
0.625
 40
0.625
 40
0.75
 40
0.75
 40
1.0
 40
1.0
 40
1.0
 40
1.0
 10
141.8144150178032
 20
112.3573990518744
 30
0.0
 10
142.004909488788
 20
111.78591563892
 30
0.0
 10
142.1619115020011
 20
111.2102655369876
 30
0.0
 10
142.3794103128391
 20
110.0469594295592
 30
0.0
 10
142.4391896739092
 20
109.4592141700883
 30
0.0
 10
142.4398461747631
 20
108.5665225169024
 30
0.0
 10
142.4252324082796
 20
108.2675588379857
 30
0.0
 10
142.3682465504028
 20
107.6761770880512
 30
0.0
 10
142.3259322811436
 20
107.382468897732
 30
0.0
 10
142.1625374612534
 20
106.5065734031975
 30
0.0
 10
142.00514693394
 20
105.9295948002853
 30
0.0
 10
141.814415017803
 20
105.3573990518743
 30
0.0
  0
LINE
  5
17F
330
1F
100
AcDbEntity
  8
0
  6
Continuous
 62
     7
370
    25
100
AcDbLine
 10
142.5839673674
 20
119.1073990519
 30
0.0
 11
142.5839673674
 21
105.6073990519
 31
0.0
  0
LINE
  5
180
330
1F
100
AcDbEntity
  8
0
  6
Continuous
 62
     7
370
    25
100
AcDbLine
 10
137.5839673674
 20
112.3573990519
 30
0.0
 11
140.030377529
 21
112.3573990519
 31
0.0
  0
LINE
  5
181
330
1F
100
AcDbEntity
  8
0
  6
Continuous
 62
     7
370
    25
100
AcDbLine
 10
137.5839673674
 20
112.3573990519
 30
0.0
 11
137.5839673674
 21
119.3573990519
 31
0.0
  0
LINE
  5
182
330
1F
100
AcDbEntity
  8
0
  6
Continuous
 62
     7
370
    25
100
AcDbLine
 10
137.5839673674
 20
119.3573990519
 30
0.0
 11
140.030377529
 21
119.3573990519
 31
0.0
  0
SPLINE
  5
183
330
1F
100
AcDbEntity
  8
0
  6
Continuous
 62
     7
370
    25
100
AcDbSpline
210
0.0
220
0.0
230
1.0
 70
     8
 71
     3
 72
     8
 73
     4
 74
     0
 42
0.000000001
 43
0.00000001
 40
0.0
 40
0.0
 40
0.0
 40
0.0
 40
1.0
 40
1.0
 40
1.0
 40
1.0
 10
140.0839673674394
 20
118.9966870076699
 30
0.0
 10
140.0668449515619
 20
119.1170322492884
 30
0.0
 10
140.0489620620438
 20
119.237266741507
 30
0.0
 10
140.0303775289532
 20
119.3573990518743
 30
0.0
  0
SPLINE
  5
184
330
1F
100
AcDbEntity
  8
0
  6
Continuous
 62
     7
370
    25
100
AcDbSpline
210
0.0
220
0.0
230
1.0
 70
     8
 71
     3
 72
     8
 73
     4
 74
     0
 42
0.000000001
 43
0.00000001
 40
0.0
 40
0.0
 40
0.0
 40
0.0
 40
1.0
 40
1.0
 40
1.0
 40
1.0
 10
140.1375572059257
 20
119.3573990518743
 30
0.0
 10
140.1189660669659
 20
119.2372240404974
 30
0.0
 10
140.1010835361831
 20
119.1169883411838
 30
0.0
 10
140.0839673674394
 20
118.9966870076699
 30
0.0
  0
LINE
  5
185
330
1F
100
AcDbEntity
  8
0
  6
Continuous
 62
     7
370
    25
100
AcDbLine
 10
140.1375572059
 20
119.3573990519
 30
0.0
 11
141.8144150178
 21
119.3573990519
 31
0.0
  0
LINE
  5
186
330
1F
100
AcDbEntity
  8
0
  6
Continuous
 62
     7
370
    25
100
AcDbLine
 10
140.1375572059
 20
112.3573990519
 30
0.0
 11
141.8144150178
 21
112.3573990519
 31
0.0
  0
SPLINE
  5
187
330
1F
100
AcDbEntity
  8
0
  6
Continuous
 62
     7
370
    25
100
AcDbSpline
210
0.0
220
0.0
230
1.0
 70
     8
 71
     3
 72
     8
 73
     4
 74
     0
 42
0.000000001
 43
0.00000001
 40
0.0
 40
0.0
 40
0.0
 40
0.0
 40
1.0
 40
1.0
 40
1.0
 40
1.0
 10
140.0839673674394
 20
112.7181110960787
 30
0.0
 10
140.1010897833169
 20
112.5977658544602
 30
0.0
 10
140.1189726728351
 20
112.4775313622416
 30
0.0
 10
140.1375572059257
 20
112.3573990518743
 30
0.0
  0
SPLINE
  5
188
330
1F
100
AcDbEntity
  8
0
  6
Continuous
 62
     7
370
    25
100
AcDbSpline
210
0.0
220
0.0
230
1.0
 70
     8
 71
     3
 72
     8
 73
     4
 74
     0
 42
0.000000001
 43
0.00000001
 40
0.0
 40
0.0
 40
0.0
 40
0.0
 40
1.0
 40
1.0
 40
1.0
 40
1.0
 10
140.0303775289532
 20
112.3573990518743
 30
0.0
 10
140.0489686679129
 20
112.4775740632512
 30
0.0
 10
140.0668511986958
 20
112.5978097625648
 30
0.0
 10
140.0839673674394
 20
112.7181110960787
 30
0.0
  0
SPLINE
  5
189
330
1F
100
AcDbEntity
  8
0
  6
Continuous
 62
     7
370
    25
100
AcDbSpline
210
0.0
220
0.0
230
1.0
 70
     8
 71
     3
 72
     8
 73
     4
 74
     0
 42
0.000000001
 43
0.00000001
 40
0.0
 40
0.0
 40
0.0
 40
0.0
 40
1.0
 40
1.0
 40
1.0
 40
1.0
 10
140.1375572059257
 20
112.3573990518743
 30
0.0
 10
140.1189660669659
 20
112.2372240404974
 30
0.0
 10
140.1010835361831
 20
112.1169883411838
 30
0.0
 10
140.0839673674394
 20
111.9966870076699
 30
0.0
  0
LINE
  5
18A
330
1F
100
AcDbEntity
  8
0
  6
Continuous
 62
     7
370
    25
100
AcDbLine
 10
140.0839673674
 20
111.9966870077
 30
0.0
 11
140.0839673674
 21
112.7181110961
 31
0.0
  0
SPLINE
  5
18B
330
1F
100
AcDbEntity
  8
0
  6
Continuous
 62
     7
370
    25
100
AcDbSpline
210
0.0
220
0.0
230
1.0
 70
     8
 71
     3
 72
     8
 73
     4
 74
     0
 42
0.000000001
 43
0.00000001
 40
0.0
 40
0.0
 40
0.0
 40
0.0
 40
1.0
 40
1.0
 40
1.0
 40
1.0
 10
140.0839673674394
 20
111.9966870076699
 30
0.0
 10
140.0668449515619
 20
112.1170322492884
 30
0.0
 10
140.0489620620438
 20
112.237266741507
 30
0.0
 10
140.0303775289532
 20
112.3573990518743
 30
0.0
  0
LINE
  5
18C
330
1F
100
AcDbEntity
  8
0
  6
Continuous
 62
     7
370
    25
100
AcDbLine
 10
137.5839673674
 20
105.3573990519
 30
0.0
 11
140.030377529
 21
105.3573990519
 31
0.0
  0
LINE
  5
18D
330
1F
100
AcDbEntity
  8
0
  6
Continuous
 62
     7
370
    25
100
AcDbLine
 10
140.1375572059
 20
105.3573990519
 30
0.0
 11
141.8144150178
 21
105.3573990519
 31
0.0
  0
SPLINE
  5
18E
330
1F
100
AcDbEntity
  8
0
  6
Continuous
 62
     7
370
    25
100
AcDbSpline
210
0.0
220
0.0
230
1.0
 70
     8
 71
     3
 72
     8
 73
     4
 74
     0
 42
0.000000001
 43
0.00000001
 40
0.0
 40
0.0
 40
0.0
 40
0.0
 40
1.0
 40
1.0
 40
1.0
 40
1.0
 10
140.0839673674394
 20
105.7181110960787
 30
0.0
 10
140.1010897833169
 20
105.5977658544602
 30
0.0
 10
140.1189726728351
 20
105.4775313622416
 30
0.0
 10
140.1375572059257
 20
105.3573990518743
 30
0.0
  0
SPLINE
  5
18F
330
1F
100
AcDbEntity
  8
0
  6
Continuous
 62
     7
370
    25
100
AcDbSpline
210
0.0
220
0.0
230
1.0
 70
     8
 71
     3
 72
     8
 73
     4
 74
     0
 42
0.000000001
 43
0.00000001
 40
0.0
 40
0.0
 40
0.0
 40
0.0
 40
1.0
 40
1.0
 40
1.0
 40
1.0
 10
140.0303775289532
 20
105.3573990518743
 30
0.0
 10
140.0489686679129
 20
105.4775740632512
 30
0.0
 10
140.0668511986958
 20
105.5978097625649
 30
0.0
 10
140.0839673674394
 20
105.7181110960787
 30
0.0
  0
LINE
  5
190
330
1F
100
AcDbEntity
  8
0
  6
Continuous
 62
     7
370
    25
100
AcDbLine
 10
137.5839673674
 20
105.3573990519
 30
0.0
 11
137.5839673674
 21
112.3573990519
 31
0.0
  0
LINE
  5
191
330
1F
100
AcDbEntity
  8
0
  6
Continuous
 62
     7
370
    25
100
AcDbLine
 10
127.6733272604
 20
118.8136915485
 30
0.0
 11
127.6733272604
 21
105.9011065552
 31
0.0
  0
LINE
  5
192
330
1F
100
AcDbEntity
  8
0
  6
Continuous
 62
     7
370
    25
100
AcDbLine
 10
145.5839673674
 20
118.9358990519
 30
0.0
 11
145.5839673674
 21
105.7788990519
 31
0.0
  0
LINE
  5
193
330
1F
100
AcDbEntity
  8
0
  6
Continuous
 62
     7
370
    25
100
AcDbLine
 10
144.5839673674
 20
106.7788990519
 30
0.0
 11
144.5839673674
 21
117.9358990519
 31
0.0
  0
LINE
  5
194
330
1F
100
AcDbEntity
  8
0
  6
Continuous
 62
     7
370
    25
100
AcDbLine
 10
125.5839673674
 20
107.1073990519
 30
0.0
 11
125.5839673674
 21
117.6073990519
 31
0.0
  0
SPLINE
  5
195
330
1F
100
AcDbEntity
  8
0
  6
Continuous
 62
     7
370
    25
100
AcDbSpline
210
0.0
220
0.0
230
1.0
 70
    24
 71
     3
 72
     8
 73
     4
 74
     0
 42
0.000000001
 43
0.00000001
 40
0.0
 40
0.0
 40
0.0
 40
0.0
 40
1.0
 40
1.0
 40
1.0
 40
1.0
 10
140.1375572059257
 20
105.3573990518743
 30
0.0
 10
140.1189650977725
 20
105.3573990518743
 30
0.0
 10
140.1010826203789
 20
105.3573990518743
 30
0.0
 10
140.0839673674394
 20
105.3573990518743
 30
0.0
  0
LINE
  5
196
330
1F
100
AcDbEntity
  8
0
  6
Continuous
 62
     7
370
    25
100
AcDbLine
 10
140.0839673674
 20
105.3573990519
 30
0.0
 11
140.0839673674
 21
105.7181110961
 31
0.0
  0
SPLINE
  5
197
330
1F
100
AcDbEntity
  8
0
  6
Continuous
 62
     7
370
    25
100
AcDbSpline
210
0.0
220
0.0
230
1.0
 70
    24
 71
     3
 72
     8
 73
     4
 74
     0
 42
0.000000001
 43
0.00000001
 40
0.0
 40
0.0
 40
0.0
 40
0.0
 40
1.0
 40
1.0
 40
1.0
 40
1.0
 10
140.0839673674394
 20
105.3573990518743
 30
0.0
 10
140.0668452730444
 20
105.3573990518743
 30
0.0
 10
140.0489624017549
 20
105.3573990518743
 30
0.0
 10
140.0303775289532
 20
105.3573990518743
 30
0.0
  0
SPLINE
  5
198
330
1F
100
AcDbEntity
  8
0
  6
Continuous
 62
     7
370
    25
100
AcDbSpline
210
0.0
220
0.0
230
1.0
 70
    24
 71
     3
 72
     8
 73
     4
 74
     0
 42
0.000000001
 43
0.00000001
 40
0.0
 40
0.0
 40
0.0
 40
0.0
 40
1.0
 40
1.0
 40
1.0
 40
1.0
 10
140.0839673674394
 20
119.3573990518743
 30
0.0
 10
140.1010894618344
 20
119.3573990518743
 30
0.0
 10
140.118972333124
 20
119.3573990518743
 30
0.0
 10
140.1375572059257
 20
119.3573990518743
 30
0.0
  0
LINE
  5
199
330
1F
100
AcDbEntity
  8
0
  6
Continuous
 62
     7
370
    25
100
AcDbLine
 10
140.0839673674
 20
118.9966870077
 30
0.0
 11
140.0839673674
 21
119.3573990519
 31
0.0
  0
SPLINE
  5
19A
330
1F
100
AcDbEntity
  8
0
  6
Continuous
 62
     7
370
    25
100
AcDbSpline
210
0.0
220
0.0
230
1.0
 70
    24
 71
     3
 72
     8
 73
     4
 74
     0
 42
0.000000001
 43
0.00000001
 40
0.0
 40
0.0
 40
0.0
 40
0.0
 40
1.0
 40
1.0
 40
1.0
 40
1.0
 10
140.0303775289532
 20
119.3573990518743
 30
0.0
 10
140.0489696371064
 20
119.3573990518743
 30
0.0
 10
140.0668521144999
 20
119.3573990518743
 30
0.0
 10
140.0839673674394
 20
119.3573990518743
 30
0.0
  0
LINE
  5
19B
330
1F
100
AcDbEntity
  8
0
  6
Continuous
 62
     8
370
    25
100
AcDbLine
 10
184.0425035968
 20
108.9239499288
 30
0.0
 11
184.0425035968
 21
115.7908481749
 31
0.0
  0
LINE
  5
19C
330
1F
100
AcDbEntity
  8
0
  6
Continuous
 62
     8
370
    25
100
AcDbLine
 10
158.4486115609
 20
104.5073990519
 30
0.0
 11
158.4486115609
 21
120.2073990519
 31
0.0
  0
LINE
  5
19D
330
1F
100
AcDbEntity
  8
0
  6
Continuous
 62
     8
370
    25
100
AcDbLine
 10
146.0486115609
 20
120.2073990519
 30
0.0
 11
146.0486115609
 21
104.5073990519
 31
0.0
  0
LINE
  5
19E
330
1F
100
AcDbEntity
  8
0
  6
Continuous
 62
     7
370
     0
100
AcDbLine
 10
126.44919309
 20
118.1069373557
 30
0.0
 11
137.0839673674
 21
118.4392740519
 31
0.0
  0
LINE
  5
19F
330
1F
100
AcDbEntity
  8
0
  6
Continuous
 62
     7
370
     0
100
AcDbLine
 10
126.44919309
 20
106.607860748
 30
0.0
 11
137.0839673674
 21
106.2755240519
 31
0.0
  0
LINE
  5
1A0
330
1F
100
AcDbEntity
  8
0
  6
Continuous
 62
     7
370
     0
100
AcDbLine
 10
137.0839673674
 20
105.6070240519
 30
0.0
 11
137.0839673674
 21
119.1077740519
 31
0.0
  0
LINE
  5
1A1
330
1F
100
AcDbEntity
  8
0
  6
Continuous
 62
     7
370
     0
100
AcDbLine
 10
126.44919309
 20
118.1069373557
 30
0.0
 11
137.0839673674
 21
118.4392740519
 31
0.0
  0
LINE
  5
1A2
330
1F
100
AcDbEntity
  8
0
  6
Continuous
 62
     7
370
     0
100
AcDbLine
 10
126.44919309
 20
106.607860748
 30
0.0
 11
137.0839673674
 21
106.2755240519
 31
0.0
  0
LINE
  5
1A3
330
1F
100
AcDbEntity
  8
0
  6
Continuous
 62
     7
370
     0
100
AcDbLine
 10
137.0839673674
 20
105.6070240519
 30
0.0
 11
137.0839673674
 21
119.1077740519
 31
0.0
  0
LINE
  5
1A4
330
1F
100
AcDbEntity
  8
0
  6
CENTERX2
 62
     7
370
    18
100
AcDbLine
 10
140.5839673674
 20
112.3573990519
 30
0.0
 11
186.7486115609
 21
112.3573990519
 31
0.0
  0
LINE
  5
1A5
330
1F
100
AcDbEntity
  8
0
  6
CENTERX2
 62
     7
370
    18
100
AcDbLine
 10
123.5839673674
 20
112.3573990519
 30
0.0
 11
139.5839673674
 21
112.3573990519
 31
0.0
  0
ENDSEC
  0
SECTION
  2
OBJECTS
  0
DICTIONARY
  5
C
330
0
100
AcDbDictionary
281
     1
  3
ACAD_GROUP
350
D
  3
ACAD_LAYOUT
350
1A
  3
ACAD_MLINESTYLE
350
17
  3
ACAD_PLOTSETTINGS
350
19
  3
ACAD_PLOTSTYLENAME
350
E
  3
ACAD_SCALELIST
350
47
  0
DICTIONARY
  5
D
102
{ACAD_REACTORS
330
C
102
}
330
C
100
AcDbDictionary
281
     1
  0
DICTIONARY
  5
1A
102
{ACAD_REACTORS
330
C
102
}
330
C
100
AcDbDictionary
281
     1
  3
Layout1
350
1E
  3
Layout2
350
26
  3
Model
350
22
  0
DICTIONARY
  5
17
102
{ACAD_REACTORS
330
C
102
}
330
C
100
AcDbDictionary
281
     1
  3
Standard
350
18
  0
DICTIONARY
  5
19
102
{ACAD_REACTORS
330
C
102
}
330
C
100
AcDbDictionary
281
     1
  0
ACDBDICTIONARYWDFLT
  5
E
102
{ACAD_REACTORS
330
C
102
}
330
C
100
AcDbDictionary
281
     1
  3
Normal
350
F
100
AcDbDictionaryWithDefault
340
F
  0
DICTIONARY
  5
47
102
{ACAD_REACTORS
330
C
102
}
330
C
100
AcDbDictionary
281
     1
  3
A0
350
48
  3
A1
350
49
  3
A2
350
4A
  3
A3
350
4B
  3
A4
350
4C
  3
A5
350
4D
  3
A6
350
4E
  3
A7
350
4F
  3
A8
350
50
  3
A9
350
51
  3
B0
350
52
  3
B1
350
53
  3
B2
350
54
  3
B3
350
55
  3
B4
350
56
  3
B5
350
57
  3
B6
350
58
  3
B7
350
59
  3
B8
350
5A
  3
B9
350
5B
  3
C0
350
5C
  3
C1
350
5D
  3
C2
350
5E
  3
C3
350
5F
  3
C4
350
60
  3
C5
350
61
  3
C6
350
62
  3
C7
350
63
  3
C8
350
64
  3
C9
350
65
  3
D0
350
66
  3
D1
350
67
  3
D2
350
68
  0
LAYOUT
  5
1E
102
{ACAD_REACTORS
330
1A
102
}
330
1A
100
AcDbPlotSettings
  1

  2
none_device
  4

  6

 40
0.0
 41
0.0
 42
0.0
 43
0.0
 44
0.0
 45
0.0
 46
0.0
 47
0.0
 48
0.0
 49
0.0
140
0.0
141
0.0
142
1.0
143
1.0
 70
   688
 72
     1
 73
     0
 74
     5
  7

 75
    16
147
1.0
148
0.0
149
0.0
100
AcDbLayout
  1
Layout1
 70
     1
 71
     1
 10
0.0
 20
0.0
 11
420.0
 21
297.0
 12
0.0
 22
0.0
 32
0.0
 14
1.0000000000E+20
 24
1.0000000000E+20
 34
1.0000000000E+20
 15
-1.0000000000E+20
 25
-1.0000000000E+20
 35
-1.0000000000E+20
146
0.0
 13
0.0
 23
0.0
 33
0.0
 16
1.0
 26
0.0
 36
0.0
 17
0.0
 27
1.0
 37
0.0
 76
     0
330
1B
  0
LAYOUT
  5
26
102
{ACAD_REACTORS
330
1A
102
}
330
1A
100
AcDbPlotSettings
  1

  2
none_device
  4

  6

 40
0.0
 41
0.0
 42
0.0
 43
0.0
 44
0.0
 45
0.0
 46
0.0
 47
0.0
 48
0.0
 49
0.0
140
0.0
141
0.0
142
1.0
143
1.0
 70
   688
 72
     1
 73
     0
 74
     5
  7

 75
    16
147
1.0
148
0.0
149
0.0
100
AcDbLayout
  1
Layout2
 70
     1
 71
     2
 10
0.0
 20
0.0
 11
0.0
 21
0.0
 12
0.0
 22
0.0
 32
0.0
 14
0.0
 24
0.0
 34
0.0
 15
0.0
 25
0.0
 35
0.0
146
0.0
 13
0.0
 23
0.0
 33
0.0
 16
1.0
 26
0.0
 36
0.0
 17
0.0
 27
1.0
 37
0.0
 76
     0
330
23
  0
LAYOUT
  5
22
102
{ACAD_REACTORS
330
1A
102
}
330
1A
100
AcDbPlotSettings
  1

  2
none_device
  4
Letter_(8.50_x_11.00_Inches)
  6

 40
6.35
 41
6.35
 42
6.35000508
 43
6.35000508
 44
215.9
 45
279.4
 46
0.0
 47
0.0
 48
0.0
 49
0.0
140
0.0
141
0.0
142
1.0
143
1.0
 70
  1712
 72
     1
 73
     0
 74
     0
  7

 75
     0
147
1.0
148
0.0
149
0.0
100
AcDbLayout
  1
Model
 70
     1
 71
     0
 10
0.0
 20
0.0
 11
431.8
 21
279.4
 12
0.0
 22
0.0
 32
0.0
 14
0.0
 24
0.0
 34
0.0
 15
431.8
 25
279.4
 35
0.0
146
0.0
 13
0.0
 23
0.0
 33
0.0
 16
1.0
 26
0.0
 36
0.0
 17
0.0
 27
1.0
 37
0.0
 76
     0
330
1F
331
29
  0
MLINESTYLE
  5
18
102
{ACAD_REACTORS
330
17
102
}
330
17
100
AcDbMlineStyle
  2
Standard
 70
     0
  3

 62
   256
 51
90.0
 52
90.0
 71
     2
 49
0.5
 62
   256
  6
BYLAYER
 49
-0.5
 62
   256
  6
BYLAYER
  0
ACDBPLACEHOLDER
  5
F
102
{ACAD_REACTORS
330
E
102
}
330
E
  0
SCALE
  5
48
102
{ACAD_REACTORS
330
47
102
}
330
47
100
AcDbScale
 70
     0
300
1:1
140
1.0
141
1.0
290
     1
  0
SCALE
  5
49
102
{ACAD_REACTORS
330
47
102
}
330
47
100
AcDbScale
 70
     0
300
1:2
140
1.0
141
2.0
290
     0
  0
SCALE
  5
4A
102
{ACAD_REACTORS
330
47
102
}
330
47
100
AcDbScale
 70
     0
300
1:4
140
1.0
141
4.0
290
     0
  0
SCALE
  5
4B
102
{ACAD_REACTORS
330
47
102
}
330
47
100
AcDbScale
 70
     0
300
1:5
140
1.0
141
5.0
290
     0
  0
SCALE
  5
4C
102
{ACAD_REACTORS
330
47
102
}
330
47
100
AcDbScale
 70
     0
300
1:8
140
1.0
141
8.0
290
     0
  0
SCALE
  5
4D
102
{ACAD_REACTORS
330
47
102
}
330
47
100
AcDbScale
 70
     0
300
1:10
140
1.0
141
10.0
290
     0
  0
SCALE
  5
4E
102
{ACAD_REACTORS
330
47
102
}
330
47
100
AcDbScale
 70
     0
300
1:16
140
1.0
141
16.0
290
     0
  0
SCALE
  5
4F
102
{ACAD_REACTORS
330
47
102
}
330
47
100
AcDbScale
 70
     0
300
1:20
140
1.0
141
20.0
290
     0
  0
SCALE
  5
50
102
{ACAD_REACTORS
330
47
102
}
330
47
100
AcDbScale
 70
     0
300
1:30
140
1.0
141
30.0
290
     0
  0
SCALE
  5
51
102
{ACAD_REACTORS
330
47
102
}
330
47
100
AcDbScale
 70
     0
300
1:40
140
1.0
141
40.0
290
     0
  0
SCALE
  5
52
102
{ACAD_REACTORS
330
47
102
}
330
47
100
AcDbScale
 70
     0
300
1:50
140
1.0
141
50.0
290
     0
  0
SCALE
  5
53
102
{ACAD_REACTORS
330
47
102
}
330
47
100
AcDbScale
 70
     0
300
1:100
140
1.0
141
100.0
290
     0
  0
SCALE
  5
54
102
{ACAD_REACTORS
330
47
102
}
330
47
100
AcDbScale
 70
     0
300
2:1
140
2.0
141
1.0
290
     0
  0
SCALE
  5
55
102
{ACAD_REACTORS
330
47
102
}
330
47
100
AcDbScale
 70
     0
300
4:1
140
4.0
141
1.0
290
     0
  0
SCALE
  5
56
102
{ACAD_REACTORS
330
47
102
}
330
47
100
AcDbScale
 70
     0
300
8:1
140
8.0
141
1.0
290
     0
  0
SCALE
  5
57
102
{ACAD_REACTORS
330
47
102
}
330
47
100
AcDbScale
 70
     0
300
10:1
140
10.0
141
1.0
290
     0
  0
SCALE
  5
58
102
{ACAD_REACTORS
330
47
102
}
330
47
100
AcDbScale
 70
     0
300
100:1
140
100.0
141
1.0
290
     0
  0
SCALE
  5
59
102
{ACAD_REACTORS
330
47
102
}
330
47
100
AcDbScale
 70
     0
300
1/128" = 1'-0"
140
0.0078125
141
12.0
290
     0
  0
SCALE
  5
5A
102
{ACAD_REACTORS
330
47
102
}
330
47
100
AcDbScale
 70
     0
300
1/64" = 1'-0"
140
0.015625
141
12.0
290
     0
  0
SCALE
  5
5B
102
{ACAD_REACTORS
330
47
102
}
330
47
100
AcDbScale
 70
     0
300
1/32" = 1'-0"
140
0.03125
141
12.0
290
     0
  0
SCALE
  5
5C
102
{ACAD_REACTORS
330
47
102
}
330
47
100
AcDbScale
 70
     0
300
1/16" = 1'-0"
140
0.0625
141
12.0
290
     0
  0
SCALE
  5
5D
102
{ACAD_REACTORS
330
47
102
}
330
47
100
AcDbScale
 70
     0
300
3/32" = 1'-0"
140
0.09375
141
12.0
290
     0
  0
SCALE
  5
5E
102
{ACAD_REACTORS
330
47
102
}
330
47
100
AcDbScale
 70
     0
300
1/8" = 1'-0"
140
0.125
141
12.0
290
     0
  0
SCALE
  5
5F
102
{ACAD_REACTORS
330
47
102
}
330
47
100
AcDbScale
 70
     0
300
3/16" = 1'-0"
140
0.1875
141
12.0
290
     0
  0
SCALE
  5
60
102
{ACAD_REACTORS
330
47
102
}
330
47
100
AcDbScale
 70
     0
300
1/4" = 1'-0"
140
0.25
141
12.0
290
     0
  0
SCALE
  5
61
102
{ACAD_REACTORS
330
47
102
}
330
47
100
AcDbScale
 70
     0
300
3/8" = 1'-0"
140
0.375
141
12.0
290
     0
  0
SCALE
  5
62
102
{ACAD_REACTORS
330
47
102
}
330
47
100
AcDbScale
 70
     0
300
1/2" = 1'-0"
140
0.5
141
12.0
290
     0
  0
SCALE
  5
63
102
{ACAD_REACTORS
330
47
102
}
330
47
100
AcDbScale
 70
     0
300
3/4" = 1'-0"
140
0.75
141
12.0
290
     0
  0
SCALE
  5
64
102
{ACAD_REACTORS
330
47
102
}
330
47
100
AcDbScale
 70
     0
300
1" = 1'-0"
140
1.0
141
12.0
290
     0
  0
SCALE
  5
65
102
{ACAD_REACTORS
330
47
102
}
330
47
100
AcDbScale
 70
     0
300
1-1/2" = 1'-0"
140
1.5
141
12.0
290
     0
  0
SCALE
  5
66
102
{ACAD_REACTORS
330
47
102
}
330
47
100
AcDbScale
 70
     0
300
3" = 1'-0"
140
3.0
141
12.0
290
     0
  0
SCALE
  5
67
102
{ACAD_REACTORS
330
47
102
}
330
47
100
AcDbScale
 70
     0
300
6" = 1'-0"
140
6.0
141
12.0
290
     0
  0
SCALE
  5
68
102
{ACAD_REACTORS
330
47
102
}
330
47
100
AcDbScale
 70
     0
300
1'-0" = 1'-0"
140
12.0
141
12.0
290
     0
  0
ENDSEC
  0
EOF
