  0
SECTION
  2
HEADER
  9
$ACADVER
  1
AC1015
  9
$ACADMAINTVER
 70
     6
  9
$DWGCODEPAGE
  3
DOS932
  9
$INSBASE
 10
0.0
 20
0.0
 30
0.0
  9
$EXTMIN
 10
0.0
 20
0.0
 30
0.0
  9
$EXTMAX
 10
431.8
 20
279.4
 30
0.0
  9
$LIMMIN
 10
0.0
 20
0.0
  9
$LIMMAX
 10
431.8
 20
279.4
  9
$ORTHOMODE
 70
     0
  9
$REGENMODE
 70
     1
  9
$FILLMODE
 70
     1
  9
$QTEXTMODE
 70
     0
  9
$MIRRTEXT
 70
     1
  9
$LTSCALE
 40
1.0
  9
$ATTMODE
 70
     1
  9
$TEXTSIZE
 40
3.5
  9
$TRACEWID
 40
1.0
  9
$TEXTSTYLE
  7
Standard
  9
$CLAYER
  8
0
  9
$CELTYPE
  6
ByLayer
  9
$CECOLOR
 62
   256
  9
$CELTSCALE
 40
1.0
  9
$DISPSILH
 70
     0
  9
$DIMSCALE
 40
1.0
  9
$DIMASZ
 40
3.302
  9
$DIMEXO
 40
1.0
  9
$DIMDLI
 40
3.75
  9
$DIMRND
 40
0.0
  9
$DIMDLE
 40
0.0
  9
$DIMEXE
 40
1.0
  9
$DIMTP
 40
0.0
  9
$DIMTM
 40
0.0
  9
$DIMTXT
 40
3.5
  9
$DIMCEN
 40
2.5
  9
$DIMTSZ
 40
0.0
  9
$DIMTOL
 70
     0
  9
$DIMLIM
 70
     0
  9
$DIMTIH
 70
     1
  9
$DIMTOH
 70
     1
  9
$DIMSE1
 70
     0
  9
$DIMSE2
 70
     0
  9
$DIMTAD
 70
     1
  9
$DIMZIN
 70
     1
  9
$DIMBLK
  1

  9
$DIMASO
 70
     1
  9
$DIMSHO
 70
     1
  9
$DIMPOST
  1

  9
$DIMAPOST
  1

  9
$DIMALT
 70
     0
  9
$DIMALTD
 70
     3
  9
$DIMALTF
 40
0.0393700787
  9
$DIMLFAC
 40
1.0
  9
$DIMTOFL
 70
     1
  9
$DIMTVP
 40
0.0
  9
$DIMTIX
 70
     0
  9
$DIMSOXD
 70
     0
  9
$DIMSAH
 70
     0
  9
$DIMBLK1
  1

  9
$DIMBLK2
  1

  9
$DIMSTYLE
  2
ISO-25
  9
$DIMCLRD
 70
     0
  9
$DIMCLRE
 70
     0
  9
$DIMCLRT
 70
     0
  9
$DIMTFAC
 40
1.0
  9
$DIMGAP
 40
1.524
  9
$DIMJUST
 70
     0
  9
$DIMSD1
 70
     0
  9
$DIMSD2
 70
     0
  9
$DIMTOLJ
 70
     0
  9
$DIMTZIN
 70
     1
  9
$DIMALTZ
 70
     0
  9
$DIMALTTZ
 70
     0
  9
$DIMUPT
 70
     0
  9
$DIMDEC
 70
     2
  9
$DIMTDEC
 70
     2
  9
$DIMALTU
 70
     2
  9
$DIMALTTD
 70
     3
  9
$DIMTXSTY
  7
Standard
  9
$DIMAUNIT
 70
     0
  9
$DIMADEC
 70
     2
  9
$DIMALTRND
 40
0.0
  9
$DIMAZIN
 70
     0
  9
$DIMDSEP
 70
    44
  9
$DIMATFIT
 70
     3
  9
$DIMFRAC
 70
     0
  9
$DIMLDRBLK
  1

  9
$DIMLUNIT
 70
     2
  9
$DIMLWD
 70
    -2
  9
$DIMLWE
 70
    -2
  9
$DIMTMOVE
 70
     0
  9
$LUNITS
 70
     2
  9
$LUPREC
 70
     2
  9
$SKETCHINC
 40
1.0
  9
$FILLETRAD
 40
10.0
  9
$AUNITS
 70
     0
  9
$AUPREC
 70
     2
  9
$MENU
  1
.
  9
$ELEVATION
 40
0.0
  9
$PELEVATION
 40
0.0
  9
$THICKNESS
 40
0.0
  9
$LIMCHECK
 70
     0
  9
$CHAMFERA
 40
0.0
  9
$CHAMFERB
 40
0.0
  9
$CHAMFERC
 40
0.0
  9
$CHAMFERD
 40
0.0
  9
$SKPOLY
 70
     0
  9
$TDCREATE
 40
2459285.455589896
  9
$TDUCREATE
 40
2459285.080589896
  9
$TDUPDATE
 40
2459285.45559044
  9
$TDUUPDATE
 40
2459285.08059044
  9
$TDINDWG
 40
0.0000000116
  9
$TDUSRTIMER
 40
0.0000000116
  9
$USRTIMER
 70
     1
  9
$ANGBASE
 50
0.0
  9
$ANGDIR
 70
     0
  9
$PDMODE
 70
     0
  9
$PDSIZE
 40
-1.0
  9
$PLINEWID
 40
0.0
  9
$SPLFRAME
 70
     0
  9
$SPLINETYPE
 70
     6
  9
$SPLINESEGS
 70
     8
  9
$HANDSEED
  5
19E
  9
$SURFTAB1
 70
     6
  9
$SURFTAB2
 70
     6
  9
$SURFTYPE
 70
     6
  9
$SURFU
 70
     6
  9
$SURFV
 70
     6
  9
$UCSBASE
  2

  9
$UCSNAME
  2

  9
$UCSORG
 10
0.0
 20
0.0
 30
0.0
  9
$UCSXDIR
 10
1.0
 20
0.0
 30
0.0
  9
$UCSYDIR
 10
0.0
 20
1.0
 30
0.0
  9
$UCSORTHOREF
  2

  9
$UCSORTHOVIEW
 70
     0
  9
$UCSORGTOP
 10
0.0
 20
0.0
 30
0.0
  9
$UCSORGBOTTOM
 10
0.0
 20
0.0
 30
0.0
  9
$UCSORGLEFT
 10
0.0
 20
0.0
 30
0.0
  9
$UCSORGRIGHT
 10
0.0
 20
0.0
 30
0.0
  9
$UCSORGFRONT
 10
0.0
 20
0.0
 30
0.0
  9
$UCSORGBACK
 10
0.0
 20
0.0
 30
0.0
  9
$PUCSBASE
  2

  9
$PUCSNAME
  2

  9
$PUCSORG
 10
0.0
 20
0.0
 30
0.0
  9
$PUCSXDIR
 10
1.0
 20
0.0
 30
0.0
  9
$PUCSYDIR
 10
0.0
 20
1.0
 30
0.0
  9
$PUCSORTHOREF
  2

  9
$PUCSORTHOVIEW
 70
     0
  9
$PUCSORGTOP
 10
0.0
 20
0.0
 30
0.0
  9
$PUCSORGBOTTOM
 10
0.0
 20
0.0
 30
0.0
  9
$PUCSORGLEFT
 10
0.0
 20
0.0
 30
0.0
  9
$PUCSORGRIGHT
 10
0.0
 20
0.0
 30
0.0
  9
$PUCSORGFRONT
 10
0.0
 20
0.0
 30
0.0
  9
$PUCSORGBACK
 10
0.0
 20
0.0
 30
0.0
  9
$USERI1
 70
     0
  9
$USERI2
 70
     0
  9
$USERI3
 70
     0
  9
$USERI4
 70
     0
  9
$USERI5
 70
     0
  9
$USERR1
 40
0.0
  9
$USERR2
 40
0.0
  9
$USERR3
 40
0.0
  9
$USERR4
 40
0.0
  9
$USERR5
 40
0.0
  9
$WORLDVIEW
 70
     1
  9
$SHADEDGE
 70
     3
  9
$SHADEDIF
 70
    70
  9
$TILEMODE
 70
     1
  9
$MAXACTVP
 70
    64
  9
$PINSBASE
 10
0.0
 20
0.0
 30
0.0
  9
$PLIMCHECK
 70
     0
  9
$PEXTMIN
 10
1.0000000000E+20
 20
1.0000000000E+20
 30
1.0000000000E+20
  9
$PEXTMAX
 10
-1.0000000000E+20
 20
-1.0000000000E+20
 30
-1.0000000000E+20
  9
$PLIMMIN
 10
0.0
 20
0.0
  9
$PLIMMAX
 10
420.0
 20
297.0
  9
$UNITMODE
 70
     0
  9
$VISRETAIN
 70
     1
  9
$PLINEGEN
 70
     0
  9
$PSLTSCALE
 70
     1
  9
$TREEDEPTH
 70
  3020
  9
$CMLSTYLE
  2
Standard
  9
$CMLJUST
 70
     0
  9
$CMLSCALE
 40
20.0
  9
$PROXYGRAPHICS
 70
     1
  9
$MEASUREMENT
 70
     1
  9
$CELWEIGHT
370
    -1
  9
$ENDCAPS
280
     0
  9
$JOINSTYLE
280
     0
  9
$LWDISPLAY
290
     1
  9
$INSUNITS
 70
     4
  9
$HYPERLINKBASE
  1

  9
$STYLESHEET
  1

  9
$XEDIT
290
     1
  9
$CEPSNTYPE
380
     0
  9
$PSTYLEMODE
290
     1
  9
$FINGERPRINTGUID
  2
{3E5BA908-D488-4CFA-80A6-31830F7CE4E4}
  9
$VERSIONGUID
  2
{FAEB1C32-E019-11D5-929B-00C0DF256EC4}
  9
$EXTNAMES
290
     1
  9
$PSVPSCALE
 40
0.0
  9
$OLESTARTUP
290
     0
  0
ENDSEC
  0
SECTION
  2
CLASSES
  0
CLASS
  1
ACDBDICTIONARYWDFLT
  2
AcDbDictionaryWithDefault
  3
ObjectDBX Classes
 90
        0
280
     0
281
     0
  0
CLASS
  1
VISUALSTYLE
  2
AcDbVisualStyle
  3
ObjectDBX Classes
 90
     4095
280
     0
281
     0
  0
CLASS
  1
MATERIAL
  2
AcDbMaterial
  3
ObjectDBX Classes
 90
     1153
280
     0
281
     0
  0
CLASS
  1
SCALE
  2
AcDbScale
  3
ObjectDBX Classes
 90
     1153
280
     0
281
     0
  0
CLASS
  1
TABLESTYLE
  2
AcDbTableStyle
  3
ObjectDBX Classes
 90
     4095
280
     0
281
     0
  0
CLASS
  1
MLEADERSTYLE
  2
AcDbMLeaderStyle
  3
ACDB_MLEADERSTYLE_CLASS
 90
     4095
280
     0
281
     0
  0
CLASS
  1
SUN
  2
AcDbSun
  3
SCENEOE
 90
     1153
280
     0
281
     0
  0
CLASS
  1
ACDBPLACEHOLDER
  2
AcDbPlaceHolder
  3
ObjectDBX Classes
 90
        0
280
     0
281
     0
  0
CLASS
  1
LAYOUT
  2
AcDbLayout
  3
ObjectDBX Classes
 90
        0
280
     0
281
     0
  0
ENDSEC
  0
SECTION
  2
TABLES
  0
TABLE
  2
VPORT
  5
8
330
0
100
AcDbSymbolTable
 70
     1
  0
VPORT
  5
29
330
8
100
AcDbSymbolTableRecord
100
AcDbViewportTableRecord
  2
*Active
 70
     0
 10
0.0
 20
0.0
 11
1.0
 21
1.0
 12
215.9
 22
139.7
 13
0.0
 23
0.0
 14
10.0
 24
10.0
 15
10.0
 25
10.0
 16
0.0
 26
0.0
 36
1.0
 17
0.0
 27
0.0
 37
0.0
 40
279.4
 41
1.5454545455
 42
50.0
 43
0.0
 44
0.0
 50
0.0
 51
0.0
 71
     0
 72
  2000
 73
     1
 74
     3
 75
     0
 76
     0
 77
     0
 78
     0
281
     0
 65
     1
110
0.0
120
0.0
130
0.0
111
1.0
121
0.0
131
0.0
112
0.0
122
1.0
132
0.0
 79
     0
146
0.0
  0
ENDTAB
  0
TABLE
  2
LTYPE
  5
5
330
0
100
AcDbSymbolTable
 70
     6
  0
LTYPE
  5
14
330
5
100
AcDbSymbolTableRecord
100
AcDbLinetypeTableRecord
  2
ByBlock
 70
     0
  3

 72
    65
 73
     0
 40
0.0
  0
LTYPE
  5
15
330
5
100
AcDbSymbolTableRecord
100
AcDbLinetypeTableRecord
  2
ByLayer
 70
     0
  3

 72
    65
 73
     0
 40
0.0
  0
LTYPE
  5
16
330
5
100
AcDbSymbolTableRecord
100
AcDbLinetypeTableRecord
  2
Continuous
 70
     0
  3
Solid line
 72
    65
 73
     0
 40
0.0
  0
LTYPE
  5
6E
330
5
100
AcDbSymbolTableRecord
100
AcDbLinetypeTableRecord
  2
HIDDEN
 70
     0
  3
Hidden __ __ __ __ __ __ __ __ __ __ __ __ __ __
 72
    65
 73
     2
 40
1.905
 49
1.27
 74
     0
 49
-0.635
 74
     0
  0
LTYPE
  5
6F
330
5
100
AcDbSymbolTableRecord
100
AcDbLinetypeTableRecord
  2
PHANTOM
 70
     0
  3
Phantom ______  __  __  ______  __  __  ______
 72
    65
 73
     6
 40
12.7
 49
6.35
 74
     0
 49
-1.27
 74
     0
 49
1.27
 74
     0
 49
-1.27
 74
     0
 49
1.27
 74
     0
 49
-1.27
 74
     0
  0
LTYPE
  5
70
330
5
100
AcDbSymbolTableRecord
100
AcDbLinetypeTableRecord
  2
CENTER
 70
     0
  3
Center ____ _ ____ _ ____ _ ____ _ ____ _ ____
 72
    65
 73
     4
 40
10.16
 49
6.35
 74
     0
 49
-1.27
 74
     0
 49
1.27
 74
     0
 49
-1.27
 74
     0
  0
LTYPE
  5
71
330
5
100
AcDbSymbolTableRecord
100
AcDbLinetypeTableRecord
  2
CENTERX2
 70
     0
  3
Center (2x) ________  __  ________  __  _____
 72
    65
 73
     4
 40
20.32
 49
12.7
 74
     0
 49
-2.54
 74
     0
 49
2.54
 74
     0
 49
-2.54
 74
     0
  0
LTYPE
  5
72
330
5
100
AcDbSymbolTableRecord
100
AcDbLinetypeTableRecord
  2
DOT2
 70
     0
  3
Dot (.5x) ........................................
 72
    65
 73
     2
 40
0.635
 49
0.0
 74
     0
 49
-0.635
 74
     0
  0
ENDTAB
  0
TABLE
  2
LAYER
  5
2
330
0
100
AcDbSymbolTable
 70
     1
  0
LAYER
  5
10
330
2
100
AcDbSymbolTableRecord
100
AcDbLayerTableRecord
  2
0
 70
     0
 62
     7
  6
Continuous
370
    -3
390
F
  0
ENDTAB
  0
TABLE
  2
STYLE
  5
3
330
0
100
AcDbSymbolTable
 70
     2
  0
STYLE
  5
11
330
3
100
AcDbSymbolTableRecord
100
AcDbTextStyleTableRecord
  2
Standard
 70
     0
 40
0.0
 41
1.0
 50
0.0
 71
     0
 42
3.5
  3
txt
  4
bigfont
  0
STYLE
  5
73
330
3
100
AcDbSymbolTableRecord
100
AcDbTextStyleTableRecord
  2
SLDTEXTSTYLE0
 70
     0
 40
0.0
 41
0.7
 50
0.0
 71
     0
 42
3.5
  3
TXT
  4
bigfont
  0
ENDTAB
  0
TABLE
  2
VIEW
  5
6
330
0
100
AcDbSymbolTable
 70
     0
  0
ENDTAB
  0
TABLE
  2
UCS
  5
7
330
0
100
AcDbSymbolTable
 70
     0
  0
ENDTAB
  0
TABLE
  2
APPID
  5
9
330
0
100
AcDbSymbolTable
 70
     1
  0
APPID
  5
12
330
9
100
AcDbSymbolTableRecord
100
AcDbRegAppTableRecord
  2
ACAD
 70
     0
  0
ENDTAB
  0
TABLE
  2
DIMSTYLE
  5
A
330
0
100
AcDbSymbolTable
 70
     1
100
AcDbDimStyleTable
  0
DIMSTYLE
105
27
330
A
100
AcDbSymbolTableRecord
100
AcDbDimStyleTableRecord
  2
ISO-25
 70
     0
 41
2.5
 42
0.625
 43
3.75
 44
1.25
 73
     0
 74
     0
 77
     1
 78
     8
140
2.5
141
2.5
143
0.0393700787
147
0.625
171
     3
172
     1
178
     0
271
     2
272
     2
274
     3
278
    44
283
     0
284
     8
340
11
  0
ENDTAB
  0
TABLE
  2
BLOCK_RECORD
  5
1
330
0
100
AcDbSymbolTable
 70
     2
  0
BLOCK_RECORD
  5
1F
330
1
100
AcDbSymbolTableRecord
100
AcDbBlockTableRecord
  2
*Model_Space
340
22
  0
BLOCK_RECORD
  5
1B
330
1
100
AcDbSymbolTableRecord
100
AcDbBlockTableRecord
  2
*Paper_Space
340
1E
  0
BLOCK_RECORD
  5
23
330
1
100
AcDbSymbolTableRecord
100
AcDbBlockTableRecord
  2
*Paper_Space0
340
26
  0
BLOCK_RECORD
  5
117
330
1
100
AcDbSymbolTableRecord
100
AcDbBlockTableRecord
  2
SW_CENTERMARKSYMBOL_0
340
0
102
{BLKREFS
331
122
102
}
  0
ENDTAB
  0
ENDSEC
  0
SECTION
  2
BLOCKS
  0
BLOCK
  5
20
330
1F
100
AcDbEntity
  8
0
100
AcDbBlockBegin
  2
*Model_Space
 70
     0
 10
0.0
 20
0.0
 30
0.0
  3
*Model_Space
  1

  0
ENDBLK
  5
21
330
1F
100
AcDbEntity
  8
0
100
AcDbBlockEnd
  0
BLOCK
  5
1C
330
1B
100
AcDbEntity
 67
     1
  8
0
100
AcDbBlockBegin
  2
*Paper_Space
 70
     0
 10
0.0
 20
0.0
 30
0.0
  3
*Paper_Space
  1

  0
ENDBLK
  5
1D
330
1B
100
AcDbEntity
 67
     1
  8
0
100
AcDbBlockEnd
  0
BLOCK
  5
24
330
23
100
AcDbEntity
  8
0
100
AcDbBlockBegin
  2
*Paper_Space0
 70
     0
 10
0.0
 20
0.0
 30
0.0
  3
*Paper_Space0
  1

  0
ENDBLK
  5
25
330
23
100
AcDbEntity
  8
0
100
AcDbBlockEnd
  0
BLOCK
  5
118
330
117
100
AcDbEntity
  8
0
100
AcDbBlockBegin
  2
SW_CENTERMARKSYMBOL_0
 70
     0
 10
0.0
 20
0.0
 30
0.0
  3
SW_CENTERMARKSYMBOL_0
  1

  0
LINE
  5
11A
330
117
100
AcDbEntity
  8
0
  6
Continuous
 62
     0
370
    18
100
AcDbLine
 10
0.0
 20
0.0
 30
0.0
 11
0.0
 21
2.5
 31
0.0
  0
LINE
  5
11B
330
117
100
AcDbEntity
  8
0
  6
Continuous
 62
     0
370
    18
100
AcDbLine
 10
0.0
 20
0.0
 30
0.0
 11
-2.5
 21
0.0
 31
0.0
  0
LINE
  5
11C
330
117
100
AcDbEntity
  8
0
  6
Continuous
 62
     0
370
    18
100
AcDbLine
 10
0.0
 20
0.0
 30
0.0
 11
0.0
 21
-2.5
 31
0.0
  0
LINE
  5
11D
330
117
100
AcDbEntity
  8
0
  6
Continuous
 62
     0
370
    18
100
AcDbLine
 10
0.0
 20
0.0
 30
0.0
 11
2.5
 21
0.0
 31
0.0
  0
LINE
  5
11E
330
117
100
AcDbEntity
  8
0
  6
Continuous
 62
     0
370
    18
100
AcDbLine
 10
0.0
 20
5.0
 30
0.0
 11
0.0
 21
10.35
 31
0.0
  0
LINE
  5
11F
330
117
100
AcDbEntity
  8
0
  6
Continuous
 62
     0
370
    18
100
AcDbLine
 10
-5.0
 20
0.0
 30
0.0
 11
-10.35
 21
0.0
 31
0.0
  0
LINE
  5
120
330
117
100
AcDbEntity
  8
0
  6
Continuous
 62
     0
370
    18
100
AcDbLine
 10
0.0
 20
-5.0
 30
0.0
 11
0.0
 21
-10.35
 31
0.0
  0
LINE
  5
121
330
117
100
AcDbEntity
  8
0
  6
Continuous
 62
     0
370
    18
100
AcDbLine
 10
5.0
 20
0.0
 30
0.0
 11
10.35
 21
0.0
 31
0.0
  0
ENDBLK
  5
119
330
117
100
AcDbEntity
  8
0
100
AcDbBlockEnd
  0
ENDSEC
  0
SECTION
  2
ENTITIES
  0
MTEXT
  5
74
330
1F
100
AcDbEntity
  8
0
  6
Continuous
 62
     7
370
     0
100
AcDbMText
 10
181.0201804093
 20
94.8675476305
 30
0.0
 40
4.7625
 41
0.0
 71
     1
 72
     1
  1
HS-1207R
  7
SLDTEXTSTYLE0
 73
     1
 44
1.0
  0
LINE
  5
75
330
1F
100
AcDbEntity
  8
0
  6
Continuous
 62
     7
370
    25
100
AcDbLine
 10
152.1121939511
 20
66.1876615557
 30
0.0
 11
152.6121939511
 21
66.1876615557
 31
0.0
  0
LINE
  5
76
330
1F
100
AcDbEntity
  8
0
  6
Continuous
 62
     7
370
    25
100
AcDbLine
 10
152.6121939511
 20
75.1876615557
 30
0.0
 11
152.1121939511
 21
75.1876615557
 31
0.0
  0
LINE
  5
77
330
1F
100
AcDbEntity
  8
0
  6
Continuous
 62
     7
370
    25
100
AcDbLine
 10
152.6121939511
 20
67.1876615557
 30
0.0
 11
156.6121939511
 21
67.1876615557
 31
0.0
  0
LINE
  5
78
330
1F
100
AcDbEntity
  8
0
  6
Continuous
 62
     7
370
    25
100
AcDbLine
 10
156.6121939511
 20
74.1876615557
 30
0.0
 11
152.6121939511
 21
74.1876615557
 31
0.0
  0
LINE
  5
79
330
1F
100
AcDbEntity
  8
0
  6
Continuous
 62
     7
370
    25
100
AcDbLine
 10
156.6121939511
 20
67.1876615557
 30
0.0
 11
160.6121939511
 21
67.8376615557
 31
0.0
  0
LINE
  5
7A
330
1F
100
AcDbEntity
  8
0
  6
Continuous
 62
     7
370
    25
100
AcDbLine
 10
160.6121939511
 20
73.5376615557
 30
0.0
 11
156.6121939511
 21
74.1876615557
 31
0.0
  0
LINE
  5
7B
330
1F
100
AcDbEntity
  8
0
  6
Continuous
 62
     7
370
    25
100
AcDbLine
 10
172.6121939511
 20
67.1876615557
 30
0.0
 11
177.4084379941
 21
67.7544903971
 31
0.0
  0
LINE
  5
7C
330
1F
100
AcDbEntity
  8
0
  6
Continuous
 62
     7
370
    25
100
AcDbLine
 10
177.4084379941
 20
73.6208327142
 30
0.0
 11
172.6121939511
 21
74.1876615557
 31
0.0
  0
LINE
  5
7D
330
1F
100
AcDbEntity
  8
0
  6
Continuous
 62
     7
370
    25
100
AcDbLine
 10
168.6121939511
 20
67.1876615557
 30
0.0
 11
172.6121939511
 21
67.8376615557
 31
0.0
  0
LINE
  5
7E
330
1F
100
AcDbEntity
  8
0
  6
Continuous
 62
     7
370
    25
100
AcDbLine
 10
172.6121939511
 20
73.5376615557
 30
0.0
 11
168.6121939511
 21
74.1876615557
 31
0.0
  0
LINE
  5
7F
330
1F
100
AcDbEntity
  8
0
  6
Continuous
 62
     7
370
    25
100
AcDbLine
 10
164.6121939511
 20
67.1876615557
 30
0.0
 11
168.6121939511
 21
67.8376615557
 31
0.0
  0
LINE
  5
80
330
1F
100
AcDbEntity
  8
0
  6
Continuous
 62
     7
370
    25
100
AcDbLine
 10
168.6121939511
 20
73.5376615557
 30
0.0
 11
164.6121939511
 21
74.1876615557
 31
0.0
  0
LINE
  5
81
330
1F
100
AcDbEntity
  8
0
  6
Continuous
 62
     7
370
    25
100
AcDbLine
 10
160.6121939511
 20
67.1876615557
 30
0.0
 11
164.6121939511
 21
67.8376615557
 31
0.0
  0
LINE
  5
82
330
1F
100
AcDbEntity
  8
0
  6
Continuous
 62
     7
370
    25
100
AcDbLine
 10
164.6121939511
 20
73.5376615557
 30
0.0
 11
160.6121939511
 21
74.1876615557
 31
0.0
  0
ARC
  5
83
330
1F
100
AcDbEntity
  8
0
  6
Continuous
 62
     7
370
    25
100
AcDbCircle
 10
177.3145459582
 20
72.8263616414
 30
0.0
 40
0.8000000000000157
100
AcDbArc
 50
4.3945905239
 51
83.2599439021
  0
ARC
  5
84
330
1F
100
AcDbEntity
  8
0
  6
Continuous
 62
     7
370
    25
100
AcDbCircle
 10
177.3145459582
 20
68.54896147
 30
0.0
 40
0.8000000000000157
100
AcDbArc
 50
276.7400560979
 51
355.6054094761
  0
LINE
  5
85
330
1F
100
AcDbEntity
  8
0
  6
Continuous
 62
     7
370
    25
100
AcDbLine
 10
149.3110602309
 20
61.4500572486
 30
0.0
 11
150.1121939511
 21
62.8376615557
 31
0.0
  0
LINE
  5
86
330
1F
100
AcDbEntity
  8
0
  6
Continuous
 62
     7
370
    25
100
AcDbLine
 10
150.1121939511
 20
78.5376615557
 30
0.0
 11
149.3110602309
 21
79.9252658627
 31
0.0
  0
LINE
  5
87
330
1F
100
AcDbEntity
  8
0
  6
Continuous
 62
     7
370
    25
100
AcDbLine
 10
141.9133276713
 20
79.9252658627
 30
0.0
 11
141.1121939511
 21
78.5376615557
 31
0.0
  0
LINE
  5
88
330
1F
100
AcDbEntity
  8
0
  6
Continuous
 62
     7
370
    25
100
AcDbLine
 10
141.1121939511
 20
62.8376615557
 30
0.0
 11
141.9133276713
 21
61.4500572486
 31
0.0
  0
LINE
  5
89
330
1F
100
AcDbEntity
  8
0
  6
Continuous
 62
     7
370
    25
100
AcDbLine
 10
141.1121939511
 20
78.5376615557
 30
0.0
 11
139.4121939511
 21
78.5376615557
 31
0.0
  0
LINE
  5
8A
330
1F
100
AcDbEntity
  8
0
  6
Continuous
 62
     7
370
    25
100
AcDbLine
 10
139.4121939511
 20
62.8376615557
 30
0.0
 11
141.1121939511
 21
62.8376615557
 31
0.0
  0
LINE
  5
8B
330
1F
100
AcDbEntity
  8
0
  6
Continuous
 62
     7
370
    25
100
AcDbLine
 10
150.1121939511
 20
62.8376615557
 30
0.0
 11
151.8121939511
 21
62.8376615557
 31
0.0
  0
LINE
  5
8C
330
1F
100
AcDbEntity
  8
0
  6
Continuous
 62
     7
370
    25
100
AcDbLine
 10
151.8121939511
 20
78.5376615557
 30
0.0
 11
150.1121939511
 21
78.5376615557
 31
0.0
  0
ARC
  5
8D
330
1F
100
AcDbEntity
  8
0
  6
Continuous
 62
     7
370
    25
100
AcDbCircle
 10
139.4121939511
 20
63.1376615557
 30
0.0
 40
0.2999999999999901
100
AcDbArc
 50
180.0
 51
270.0
  0
ARC
  5
8E
330
1F
100
AcDbEntity
  8
0
  6
Continuous
 62
     7
370
    25
100
AcDbCircle
 10
139.4121939511
 20
78.2376615557
 30
0.0
 40
0.2999999999999972
100
AcDbArc
 50
90.0
 51
180.0
  0
ARC
  5
8F
330
1F
100
AcDbEntity
  8
0
  6
Continuous
 62
     7
370
    25
100
AcDbCircle
 10
151.8121939511
 20
78.2376615557
 30
0.0
 40
0.2999999999999972
100
AcDbArc
 50
0.0
 51
90.0
  0
ARC
  5
90
330
1F
100
AcDbEntity
  8
0
  6
Continuous
 62
     7
370
    25
100
AcDbCircle
 10
151.8121939511
 20
63.1376615557
 30
0.0
 40
0.2999999999999901
100
AcDbArc
 50
270.0
 51
0.0
  0
LINE
  5
91
330
1F
100
AcDbEntity
  8
0
  6
Continuous
 62
     7
370
    25
100
AcDbLine
 10
145.6121939511
 20
61.6500572486
 30
0.0
 11
145.6657837895
 21
61.4500572486
 31
0.0
  0
LINE
  5
92
330
1F
100
AcDbEntity
  8
0
  6
Continuous
 62
     7
370
    25
100
AcDbLine
 10
145.5586041126
 20
61.4500572486
 30
0.0
 11
145.6121939511
 21
61.6500572486
 31
0.0
  0
LINE
  5
93
330
1F
100
AcDbEntity
  8
0
  6
Continuous
 62
     7
370
    25
100
AcDbLine
 10
145.6121939511
 20
79.7252658627
 30
0.0
 11
145.5586041126
 21
79.9252658627
 31
0.0
  0
LINE
  5
94
330
1F
100
AcDbEntity
  8
0
  6
Continuous
 62
     7
370
    25
100
AcDbLine
 10
145.6657837895
 20
79.9252658627
 30
0.0
 11
145.6121939511
 21
79.7252658627
 31
0.0
  0
LINE
  5
95
330
1F
100
AcDbEntity
  8
0
  6
Continuous
 62
     7
370
    25
100
AcDbLine
 10
135.177997408
 20
62.604757787
 30
0.0
 11
135.9475497576
 21
63.9376615557
 31
0.0
  0
LINE
  5
96
330
1F
100
AcDbEntity
  8
0
  6
Continuous
 62
     7
370
    25
100
AcDbLine
 10
135.9475497576
 20
77.4376615557
 30
0.0
 11
135.177997408
 21
78.7705653243
 31
0.0
  0
LINE
  5
97
330
1F
100
AcDbEntity
  8
0
  6
Continuous
 62
     7
370
    25
100
AcDbLine
 10
130.9475497576
 20
77.4536615557
 30
0.0
 11
121.0369096506
 21
77.1439540523
 31
0.0
  0
LINE
  5
98
330
1F
100
AcDbEntity
  8
0
  6
Continuous
 62
     7
370
    25
100
AcDbLine
 10
121.0369096506
 20
64.231369059
 30
0.0
 11
130.9475497576
 21
63.9216615557
 31
0.0
  0
LINE
  5
99
330
1F
100
AcDbEntity
  8
0
  6
Continuous
 62
     7
370
    25
100
AcDbLine
 10
138.9475497576
 20
77.2661615557
 30
0.0
 11
137.9475497576
 21
76.2661615557
 31
0.0
  0
LINE
  5
9A
330
1F
100
AcDbEntity
  8
0
  6
Continuous
 62
     7
370
    25
100
AcDbLine
 10
137.9475497576
 20
65.1091615557
 30
0.0
 11
138.9475497576
 21
64.1091615557
 31
0.0
  0
LINE
  5
9B
330
1F
100
AcDbEntity
  8
0
  6
Continuous
 62
     7
370
    25
100
AcDbLine
 10
138.9475497576
 20
64.1091615557
 30
0.0
 11
139.1121939511
 21
64.1091615557
 31
0.0
  0
LINE
  5
9C
330
1F
100
AcDbEntity
  8
0
  6
Continuous
 62
     7
370
    25
100
AcDbLine
 10
139.1121939511
 20
77.2661615557
 30
0.0
 11
138.9475497576
 21
77.2661615557
 31
0.0
  0
LINE
  5
9D
330
1F
100
AcDbEntity
  8
0
  6
Continuous
 62
     7
370
    25
100
AcDbLine
 10
121.0369096506
 20
77.1439540523
 30
0.0
 11
118.9475497576
 21
75.9376615557
 31
0.0
  0
LINE
  5
9E
330
1F
100
AcDbEntity
  8
0
  6
Continuous
 62
     7
370
    25
100
AcDbLine
 10
118.9475497576
 20
65.4376615557
 30
0.0
 11
121.0369096506
 21
64.231369059
 31
0.0
  0
LINE
  5
9F
330
1F
100
AcDbEntity
  8
0
  6
Continuous
 62
     7
370
    25
100
AcDbLine
 10
135.9475497576
 20
65.2876615557
 30
0.0
 11
137.9475497576
 21
65.2876615557
 31
0.0
  0
LINE
  5
A0
330
1F
100
AcDbEntity
  8
0
  6
Continuous
 62
     7
370
    25
100
AcDbLine
 10
137.9475497576
 20
76.0876615557
 30
0.0
 11
135.9475497576
 21
76.0876615557
 31
0.0
  0
LINE
  5
A1
330
1F
100
AcDbEntity
  8
0
  6
Continuous
 62
     7
370
    25
100
AcDbLine
 10
133.4475497576
 20
62.804757787
 30
0.0
 11
133.5011395961
 21
62.604757787
 31
0.0
  0
LINE
  5
A2
330
1F
100
AcDbEntity
  8
0
  6
Continuous
 62
     7
370
    25
100
AcDbLine
 10
133.3939599191
 20
62.604757787
 30
0.0
 11
133.4475497576
 21
62.804757787
 31
0.0
  0
LINE
  5
A3
330
1F
100
AcDbEntity
  8
0
  6
Continuous
 62
     7
370
    25
100
AcDbLine
 10
133.5011395961
 20
78.7705653243
 30
0.0
 11
133.4475497576
 21
78.5705653243
 31
0.0
  0
LINE
  5
A4
330
1F
100
AcDbEntity
  8
0
  6
Continuous
 62
     7
370
    25
100
AcDbLine
 10
133.4475497576
 20
78.5705653243
 30
0.0
 11
133.3939599191
 21
78.7705653243
 31
0.0
  0
LINE
  5
A5
330
1F
100
AcDbEntity
  8
0
  6
Continuous
 62
     7
370
    25
100
AcDbLine
 10
152.6121939511
 20
75.1876615557
 30
0.0
 11
152.6121939511
 21
66.1876615557
 31
0.0
  0
LINE
  5
A6
330
1F
100
AcDbEntity
  8
0
  6
Continuous
 62
     7
370
    25
100
AcDbLine
 10
156.6121939511
 20
70.6876615557
 30
0.0
 11
156.6121939511
 21
74.1876615557
 31
0.0
  0
LINE
  5
A7
330
1F
100
AcDbEntity
  8
0
  6
Continuous
 62
     7
370
    25
100
AcDbLine
 10
156.6121939511
 20
67.1876615557
 30
0.0
 11
156.6121939511
 21
70.6876615557
 31
0.0
  0
LINE
  5
A8
330
1F
100
AcDbEntity
  8
0
  6
Continuous
 62
     7
370
    25
100
AcDbLine
 10
172.6121939511
 20
70.6876615557
 30
0.0
 11
172.6121939511
 21
74.1876615557
 31
0.0
  0
LINE
  5
A9
330
1F
100
AcDbEntity
  8
0
  6
Continuous
 62
     7
370
    25
100
AcDbLine
 10
172.6121939511
 20
67.1876615557
 30
0.0
 11
172.6121939511
 21
70.6876615557
 31
0.0
  0
LINE
  5
AA
330
1F
100
AcDbEntity
  8
0
  6
Continuous
 62
     7
370
    25
100
AcDbLine
 10
168.6121939511
 20
70.6876615557
 30
0.0
 11
168.6121939511
 21
74.1876615557
 31
0.0
  0
LINE
  5
AB
330
1F
100
AcDbEntity
  8
0
  6
Continuous
 62
     7
370
    25
100
AcDbLine
 10
168.6121939511
 20
67.1876615557
 30
0.0
 11
168.6121939511
 21
70.6876615557
 31
0.0
  0
LINE
  5
AC
330
1F
100
AcDbEntity
  8
0
  6
Continuous
 62
     7
370
    25
100
AcDbLine
 10
164.6121939511
 20
70.6876615557
 30
0.0
 11
164.6121939511
 21
74.1876615557
 31
0.0
  0
LINE
  5
AD
330
1F
100
AcDbEntity
  8
0
  6
Continuous
 62
     7
370
    25
100
AcDbLine
 10
164.6121939511
 20
67.1876615557
 30
0.0
 11
164.6121939511
 21
70.6876615557
 31
0.0
  0
LINE
  5
AE
330
1F
100
AcDbEntity
  8
0
  6
Continuous
 62
     7
370
    25
100
AcDbLine
 10
160.6121939511
 20
70.6876615557
 30
0.0
 11
160.6121939511
 21
74.1876615557
 31
0.0
  0
LINE
  5
AF
330
1F
100
AcDbEntity
  8
0
  6
Continuous
 62
     7
370
    25
100
AcDbLine
 10
160.6121939511
 20
67.1876615557
 30
0.0
 11
160.6121939511
 21
70.6876615557
 31
0.0
  0
LINE
  5
B0
330
1F
100
AcDbEntity
  8
0
  6
Continuous
 62
     7
370
    25
100
AcDbLine
 10
178.1121939511
 20
70.6876615557
 30
0.0
 11
178.1121939511
 21
72.8876615557
 31
0.0
  0
LINE
  5
B1
330
1F
100
AcDbEntity
  8
0
  6
Continuous
 62
     7
370
    25
100
AcDbLine
 10
178.1121939511
 20
68.4876615557
 30
0.0
 11
178.1121939511
 21
70.6876615557
 31
0.0
  0
LINE
  5
B2
330
1F
100
AcDbEntity
  8
0
  6
Continuous
 62
     7
370
    25
100
AcDbLine
 10
145.6121939511
 20
75.513586759
 30
0.0
 11
145.6657837895
 21
75.3064637092
 31
0.0
  0
LINE
  5
B3
330
1F
100
AcDbEntity
  8
0
  6
Continuous
 62
     7
370
    25
100
AcDbLine
 10
145.6657837895
 20
75.3064637092
 30
0.0
 11
145.6121939511
 21
74.8922176096
 31
0.0
  0
LINE
  5
B4
330
1F
100
AcDbEntity
  8
0
  6
Continuous
 62
     7
370
    25
100
AcDbLine
 10
145.6121939511
 20
74.8922176096
 30
0.0
 11
145.6121939511
 21
75.513586759
 31
0.0
  0
LINE
  5
B5
330
1F
100
AcDbEntity
  8
0
  6
Continuous
 62
     7
370
    25
100
AcDbLine
 10
145.6121939511
 20
65.8617363523
 30
0.0
 11
145.5586041126
 21
66.0688594021
 31
0.0
  0
LINE
  5
B6
330
1F
100
AcDbEntity
  8
0
  6
Continuous
 62
     7
370
    25
100
AcDbLine
 10
145.5586041126
 20
66.0688594021
 30
0.0
 11
145.6121939511
 21
66.4831055017
 31
0.0
  0
LINE
  5
B7
330
1F
100
AcDbEntity
  8
0
  6
Continuous
 62
     7
370
    25
100
AcDbLine
 10
145.6121939511
 20
65.8617363523
 30
0.0
 11
145.6121939511
 21
66.4831055017
 31
0.0
  0
LINE
  5
B8
330
1F
100
AcDbEntity
  8
0
  6
Continuous
 62
     7
370
    25
100
AcDbLine
 10
145.6657837895
 20
66.0688594021
 30
0.0
 11
145.6121939511
 21
65.8617363523
 31
0.0
  0
LINE
  5
B9
330
1F
100
AcDbEntity
  8
0
  6
Continuous
 62
     7
370
    25
100
AcDbLine
 10
145.6121939511
 20
66.4831055017
 30
0.0
 11
145.6657837895
 21
66.0688594021
 31
0.0
  0
SPLINE
  5
BA
330
1F
100
AcDbEntity
  8
0
  6
Continuous
 62
     7
370
    25
100
AcDbSpline
210
0.0
220
0.0
230
1.0
 70
     8
 71
     3
 72
    15
 73
    11
 74
     0
 42
0.000000001
 43
0.00000001
 40
0.0
 40
0.0
 40
0.0
 40
0.0
 40
0.1323049664163416
 40
0.2645725257576573
 40
0.3997989469058977
 40
0.5350009659368399
 40
0.6501921044151454
 40
0.7654012116808045
 40
0.8826892657702334
 40
1.0
 40
1.0
 40
1.0
 40
1.0
 10
149.3110602308626
 20
75.30646370917786
 30
0.0
 10
149.4198317584058
 20
75.50601392724698
 30
0.0
 10
149.6373440601139
 20
75.90505794381023
 30
0.0
 10
149.8713792529094
 20
76.51955035930473
 30
0.0
 10
150.0120985088585
 20
77.14562603131164
 30
0.0
 10
150.039967792582
 20
77.74902378450268
 30
0.0
 10
149.9676659942275
 20
78.31982398651876
 30
0.0
 10
149.8195160142484
 20
78.85851986783257
 30
0.0
 10
149.6021958555438
 20
79.39478016110613
 30
0.0
 10
149.4081116935352
 20
79.74842589911266
 30
0.0
 10
149.3110602308626
 20
79.92526586269477
 30
0.0
  0
SPLINE
  5
BB
330
1F
100
AcDbEntity
  8
0
  6
Continuous
 62
     7
370
    25
100
AcDbSpline
210
0.0
220
0.0
230
1.0
 70
     8
 71
     3
 72
    15
 73
    11
 74
     0
 42
0.000000001
 43
0.00000001
 40
0.0
 40
0.0
 40
0.0
 40
0.0
 40
0.13230496641634
 40
0.2645725257576539
 40
0.3997989469058927
 40
0.5350009659368333
 40
0.6501921044151404
 40
0.765401211680801
 40
0.8826892657702317
 40
1.0
 40
1.0
 40
1.0
 40
1.0
 10
149.3110602308626
 20
61.45005724862673
 30
0.0
 10
149.4198317584058
 20
61.64960746669587
 30
0.0
 10
149.6373440601139
 20
62.04865148325912
 30
0.0
 10
149.8713792529094
 20
62.66314389875365
 30
0.0
 10
150.0120985088585
 20
63.28921957076057
 30
0.0
 10
150.039967792582
 20
63.89261732395161
 30
0.0
 10
149.9676659942275
 20
64.46341752596771
 30
0.0
 10
149.8195160142485
 20
65.00211340728157
 30
0.0
 10
149.6021958555438
 20
65.53837370055514
 30
0.0
 10
149.4081116935352
 20
65.8920194385617
 30
0.0
 10
149.3110602308626
 20
66.06885940214381
 30
0.0
  0
SPLINE
  5
BC
330
1F
100
AcDbEntity
  8
0
  6
Continuous
 62
     7
370
    25
100
AcDbSpline
210
0.0
220
0.0
230
1.0
 70
     8
 71
     3
 72
    16
 73
    12
 74
     0
 42
0.000000001
 43
0.00000001
 40
0.0
 40
0.0
 40
0.0
 40
0.0
 40
0.1051935664218023
 40
0.2312918996997604
 40
0.3573572448607639
 40
0.4865103187026856
 40
0.6156604465364214
 40
0.7112032284208155
 40
0.806756420180822
 40
0.9033731629575484
 40
0.9999999999999999
 40
0.9999999999999999
 40
0.9999999999999999
 40
0.9999999999999999
 10
149.3110602308626
 20
66.06885940214381
 30
0.0
 10
149.3985025361284
 20
66.385887243053
 30
0.0
 10
149.5907642645498
 20
67.08294481107552
 30
0.0
 10
149.8168781882638
 20
68.17786239935066
 30
0.0
 10
149.9793573627356
 20
69.35972585405067
 30
0.0
 10
150.041889760021
 20
70.56109549990764
 30
0.0
 10
150.0043163052989
 20
71.66792144441621
 30
0.0
 10
149.8954044962611
 20
72.66361225410725
 30
0.0
 10
149.746195394152
 20
73.5508645085686
 30
0.0
 10
149.5529142575425
 20
74.43313520437226
 30
0.0
 10
149.3916810471469
 20
75.01534407016115
 30
0.0
 10
149.3110602308626
 20
75.30646370917786
 30
0.0
  0
LINE
  5
BD
330
1F
100
AcDbEntity
  8
0
  6
Continuous
 62
     7
370
    25
100
AcDbLine
 10
150.1121939511
 20
70.6876615557
 30
0.0
 11
150.1121939511
 21
78.5376615557
 31
0.0
  0
LINE
  5
BE
330
1F
100
AcDbEntity
  8
0
  6
Continuous
 62
     7
370
    25
100
AcDbLine
 10
150.1121939511
 20
62.8376615557
 30
0.0
 11
150.1121939511
 21
70.6876615557
 31
0.0
  0
SPLINE
  5
BF
330
1F
100
AcDbEntity
  8
0
  6
Continuous
 62
     7
370
    25
100
AcDbSpline
210
0.0
220
0.0
230
1.0
 70
     8
 71
     3
 72
    16
 73
    12
 74
     0
 42
0.000000001
 43
0.00000001
 40
0.0
 40
0.0
 40
0.0
 40
0.0
 40
0.1051935664218023
 40
0.2312918996997604
 40
0.3573572448607639
 40
0.4865103187026856
 40
0.6156604465364214
 40
0.7112032284208155
 40
0.806756420180822
 40
0.9033731629575484
 40
0.9999999999999999
 40
0.9999999999999999
 40
0.9999999999999999
 40
0.9999999999999999
 10
141.9133276712521
 20
66.06885940214381
 30
0.0
 10
141.8258853659863
 20
66.385887243053
 30
0.0
 10
141.633623637565
 20
67.08294481107552
 30
0.0
 10
141.4075097138509
 20
68.17786239935066
 30
0.0
 10
141.2450305393792
 20
69.35972585405067
 30
0.0
 10
141.1824981420938
 20
70.56109549990764
 30
0.0
 10
141.2200715968158
 20
71.66792144441621
 30
0.0
 10
141.3289834058537
 20
72.66361225410725
 30
0.0
 10
141.4781925079628
 20
73.5508645085686
 30
0.0
 10
141.6714736445723
 20
74.43313520437226
 30
0.0
 10
141.8327068549679
 20
75.01534407016115
 30
0.0
 10
141.9133276712521
 20
75.30646370917786
 30
0.0
  0
SPLINE
  5
C0
330
1F
100
AcDbEntity
  8
0
  6
Continuous
 62
     7
370
    25
100
AcDbSpline
210
0.0
220
0.0
230
1.0
 70
     8
 71
     3
 72
    15
 73
    11
 74
     0
 42
0.000000001
 43
0.00000001
 40
0.0
 40
0.0
 40
0.0
 40
0.0
 40
0.13230496641634
 40
0.2645725257576541
 40
0.3997989469058928
 40
0.5350009659368333
 40
0.6501921044151404
 40
0.765401211680801
 40
0.8826892657702317
 40
1.0
 40
1.0
 40
1.0
 40
1.0
 10
141.9133276712521
 20
61.45005724862673
 30
0.0
 10
141.804556143709
 20
61.64960746669587
 30
0.0
 10
141.5870438420009
 20
62.04865148325912
 30
0.0
 10
141.3530086492053
 20
62.66314389875365
 30
0.0
 10
141.2122893932563
 20
63.28921957076057
 30
0.0
 10
141.1844201095327
 20
63.89261732395161
 30
0.0
 10
141.2567219078872
 20
64.46341752596771
 30
0.0
 10
141.4048718878663
 20
65.00211340728157
 30
0.0
 10
141.6221920465709
 20
65.53837370055514
 30
0.0
 10
141.8162762085796
 20
65.8920194385617
 30
0.0
 10
141.9133276712521
 20
66.06885940214381
 30
0.0
  0
SPLINE
  5
C1
330
1F
100
AcDbEntity
  8
0
  6
Continuous
 62
     7
370
    25
100
AcDbSpline
210
0.0
220
0.0
230
1.0
 70
     8
 71
     3
 72
    15
 73
    11
 74
     0
 42
0.000000001
 43
0.00000001
 40
0.0
 40
0.0
 40
0.0
 40
0.0
 40
0.1323049664163416
 40
0.2645725257576573
 40
0.3997989469058977
 40
0.5350009659368399
 40
0.6501921044151454
 40
0.7654012116808045
 40
0.8826892657702334
 40
1.0
 40
1.0
 40
1.0
 40
1.0
 10
141.9133276712521
 20
75.30646370917786
 30
0.0
 10
141.804556143709
 20
75.50601392724698
 30
0.0
 10
141.5870438420009
 20
75.90505794381022
 30
0.0
 10
141.3530086492053
 20
76.51955035930473
 30
0.0
 10
141.2122893932563
 20
77.14562603131164
 30
0.0
 10
141.1844201095328
 20
77.74902378450268
 30
0.0
 10
141.2567219078872
 20
78.31982398651876
 30
0.0
 10
141.4048718878663
 20
78.85851986783257
 30
0.0
 10
141.6221920465709
 20
79.39478016110613
 30
0.0
 10
141.8162762085796
 20
79.74842589911266
 30
0.0
 10
141.9133276712521
 20
79.92526586269477
 30
0.0
  0
LINE
  5
C2
330
1F
100
AcDbEntity
  8
0
  6
Continuous
 62
     7
370
    25
100
AcDbLine
 10
141.1121939511
 20
70.6876615557
 30
0.0
 11
141.1121939511
 21
78.5376615557
 31
0.0
  0
LINE
  5
C3
330
1F
100
AcDbEntity
  8
0
  6
Continuous
 62
     7
370
    25
100
AcDbLine
 10
141.1121939511
 20
62.8376615557
 30
0.0
 11
141.1121939511
 21
70.6876615557
 31
0.0
  0
LINE
  5
C4
330
1F
100
AcDbEntity
  8
0
  6
Continuous
 62
     7
370
    25
100
AcDbLine
 10
141.9133276713
 20
66.0688594021
 30
0.0
 11
145.5586041126
 21
66.0688594021
 31
0.0
  0
LINE
  5
C5
330
1F
100
AcDbEntity
  8
0
  6
Continuous
 62
     7
370
    25
100
AcDbLine
 10
141.9133276713
 20
75.3064637092
 30
0.0
 11
145.5586041126
 21
75.3064637092
 31
0.0
  0
LINE
  5
C6
330
1F
100
AcDbEntity
  8
0
  6
Continuous
 62
     7
370
    25
100
AcDbLine
 10
145.6121939511
 20
74.8922176096
 30
0.0
 11
145.5586041126
 21
75.3064637092
 31
0.0
  0
LINE
  5
C7
330
1F
100
AcDbEntity
  8
0
  6
Continuous
 62
     7
370
    25
100
AcDbLine
 10
145.6657837895
 20
75.3064637092
 30
0.0
 11
149.3110602309
 21
75.3064637092
 31
0.0
  0
LINE
  5
C8
330
1F
100
AcDbEntity
  8
0
  6
Continuous
 62
     7
370
    25
100
AcDbLine
 10
145.6657837895
 20
66.0688594021
 30
0.0
 11
149.3110602309
 21
66.0688594021
 31
0.0
  0
LINE
  5
C9
330
1F
100
AcDbEntity
  8
0
  6
Continuous
 62
     7
370
    25
100
AcDbLine
 10
141.9133276713
 20
61.4500572486
 30
0.0
 11
145.5586041126
 21
61.4500572486
 31
0.0
  0
LINE
  5
CA
330
1F
100
AcDbEntity
  8
0
  6
Continuous
 62
     7
370
    25
100
AcDbLine
 10
145.6657837895
 20
61.4500572486
 30
0.0
 11
149.3110602309
 21
61.4500572486
 31
0.0
  0
LINE
  5
CB
330
1F
100
AcDbEntity
  8
0
  6
Continuous
 62
     7
370
    25
100
AcDbLine
 10
145.6121939511
 20
61.6571802984
 30
0.0
 11
145.6657837895
 21
61.4500572486
 31
0.0
  0
LINE
  5
CC
330
1F
100
AcDbEntity
  8
0
  6
Continuous
 62
     7
370
    25
100
AcDbLine
 10
145.5586041126
 20
61.4500572486
 30
0.0
 11
145.6121939511
 21
61.6571802984
 31
0.0
  0
LINE
  5
CD
330
1F
100
AcDbEntity
  8
0
  6
Continuous
 62
     7
370
    25
100
AcDbLine
 10
145.5586041126
 20
75.3064637092
 30
0.0
 11
145.6121939511
 21
75.513586759
 31
0.0
  0
LINE
  5
CE
330
1F
100
AcDbEntity
  8
0
  6
Continuous
 62
     7
370
    25
100
AcDbLine
 10
141.9133276713
 20
79.9252658627
 30
0.0
 11
145.5586041126
 21
79.9252658627
 31
0.0
  0
LINE
  5
CF
330
1F
100
AcDbEntity
  8
0
  6
Continuous
 62
     7
370
    25
100
AcDbLine
 10
145.6121939511
 20
79.7181428129
 30
0.0
 11
145.5586041126
 21
79.9252658627
 31
0.0
  0
LINE
  5
D0
330
1F
100
AcDbEntity
  8
0
  6
Continuous
 62
     7
370
    25
100
AcDbLine
 10
145.6657837895
 20
79.9252658627
 30
0.0
 11
145.6121939511
 21
79.7181428129
 31
0.0
  0
LINE
  5
D1
330
1F
100
AcDbEntity
  8
0
  6
Continuous
 62
     7
370
    25
100
AcDbLine
 10
145.6657837895
 20
79.9252658627
 30
0.0
 11
149.3110602309
 21
79.9252658627
 31
0.0
  0
LINE
  5
D2
330
1F
100
AcDbEntity
  8
0
  6
Continuous
 62
     7
370
    25
100
AcDbLine
 10
139.1121939511
 20
70.6876615557
 30
0.0
 11
139.1121939511
 21
78.2376615557
 31
0.0
  0
LINE
  5
D3
330
1F
100
AcDbEntity
  8
0
  6
Continuous
 62
     7
370
    25
100
AcDbLine
 10
139.1121939511
 20
63.1376615557
 30
0.0
 11
139.1121939511
 21
70.6876615557
 31
0.0
  0
LINE
  5
D4
330
1F
100
AcDbEntity
  8
0
  6
Continuous
 62
     7
370
    25
100
AcDbLine
 10
152.1121939511
 20
78.2376615557
 30
0.0
 11
152.1121939511
 21
63.1376615557
 31
0.0
  0
LINE
  5
D5
330
1F
100
AcDbEntity
  8
0
  6
Continuous
 62
     7
370
    25
100
AcDbLine
 10
145.6121939511
 20
61.6500572486
 30
0.0
 11
145.6121939511
 21
61.6571802984
 31
0.0
  0
LINE
  5
D6
330
1F
100
AcDbEntity
  8
0
  6
Continuous
 62
     7
370
    25
100
AcDbLine
 10
145.6121939511
 20
79.7181428129
 30
0.0
 11
145.6121939511
 21
79.7252658627
 31
0.0
  0
SPLINE
  5
D7
330
1F
100
AcDbEntity
  8
0
  6
Continuous
 62
     7
370
    25
100
AcDbSpline
210
0.0
220
0.0
230
1.0
 70
     8
 71
     3
 72
     8
 73
     4
 74
     0
 42
0.000000001
 43
0.00000001
 40
0.0
 40
0.0
 40
0.0
 40
0.0
 40
1.0
 40
1.0
 40
1.0
 40
1.0
 10
133.4475497575938
 20
67.06272406297609
 30
0.0
 10
133.4646718519888
 20
66.92376395678679
 30
0.0
 10
133.4825547232784
 20
66.78492905042934
 30
0.0
 10
133.50113959608
 20
66.64620967133344
 30
0.0
  0
SPLINE
  5
D8
330
1F
100
AcDbEntity
  8
0
  6
Continuous
 62
     7
370
    25
100
AcDbSpline
210
0.0
220
0.0
230
1.0
 70
     8
 71
     3
 72
     8
 73
     4
 74
     0
 42
0.000000001
 43
0.00000001
 40
0.0
 40
0.0
 40
0.0
 40
0.0
 40
1.0
 40
1.0
 40
1.0
 40
1.0
 10
133.50113959608
 20
66.64620967133344
 30
0.0
 10
133.4825484571203
 20
66.57682659616512
 30
0.0
 10
133.4646659263375
 20
66.50740848280019
 30
0.0
 10
133.4475497575938
 20
66.43795247551209
 30
0.0
  0
LINE
  5
D9
330
1F
100
AcDbEntity
  8
0
  6
Continuous
 62
     7
370
    25
100
AcDbLine
 10
133.4475497576
 20
66.4379524755
 30
0.0
 11
133.4475497576
 21
67.062724063
 31
0.0
  0
LINE
  5
DA
330
1F
100
AcDbEntity
  8
0
  6
Continuous
 62
     7
370
    25
100
AcDbLine
 10
130.9475497576
 20
66.6462096713
 30
0.0
 11
133.3939599191
 21
66.6462096713
 31
0.0
  0
LINE
  5
DB
330
1F
100
AcDbEntity
  8
0
  6
Continuous
 62
     7
370
    25
100
AcDbLine
 10
130.9475497576
 20
66.6462096713
 30
0.0
 11
130.9475497576
 21
74.72911344
 31
0.0
  0
LINE
  5
DC
330
1F
100
AcDbEntity
  8
0
  6
Continuous
 62
     7
370
    25
100
AcDbLine
 10
130.9475497576
 20
74.72911344
 30
0.0
 11
133.3939599191
 21
74.72911344
 31
0.0
  0
SPLINE
  5
DD
330
1F
100
AcDbEntity
  8
0
  6
Continuous
 62
     7
370
    25
100
AcDbSpline
210
0.0
220
0.0
230
1.0
 70
     8
 71
     3
 72
     8
 73
     4
 74
     0
 42
0.000000001
 43
0.00000001
 40
0.0
 40
0.0
 40
0.0
 40
0.0
 40
1.0
 40
1.0
 40
1.0
 40
1.0
 10
133.4475497575938
 20
74.31259904834556
 30
0.0
 10
133.4304276631988
 20
74.45155915453488
 30
0.0
 10
133.4125447919092
 20
74.59039406089231
 30
0.0
 10
133.3939599191076
 20
74.72911343998821
 30
0.0
  0
SPLINE
  5
DE
330
1F
100
AcDbEntity
  8
0
  6
Continuous
 62
     7
370
    25
100
AcDbSpline
210
0.0
220
0.0
230
1.0
 70
     8
 71
     3
 72
     8
 73
     4
 74
     0
 42
0.000000001
 43
0.00000001
 40
0.0
 40
0.0
 40
0.0
 40
0.0
 40
1.0
 40
1.0
 40
1.0
 40
1.0
 10
133.50113959608
 20
74.72911343998823
 30
0.0
 10
133.4825474879268
 20
74.59034005549319
 30
0.0
 10
133.4646650105333
 20
74.45150363040563
 30
0.0
 10
133.4475497575938
 20
74.31259904834556
 30
0.0
  0
LINE
  5
DF
330
1F
100
AcDbEntity
  8
0
  6
Continuous
 62
     7
370
    25
100
AcDbLine
 10
133.5011395961
 20
74.72911344
 30
0.0
 11
135.177997408
 21
74.72911344
 31
0.0
  0
SPLINE
  5
E0
330
1F
100
AcDbEntity
  8
0
  6
Continuous
 62
     7
370
    25
100
AcDbSpline
210
0.0
220
0.0
230
1.0
 70
     8
 71
     3
 72
    14
 73
    10
 74
     0
 42
0.000000001
 43
0.00000001
 40
0.0
 40
0.0
 40
0.0
 40
0.0
 40
0.2500000000000001
 40
0.2500000000000001
 40
0.5000000000000001
 40
0.5000000000000001
 40
0.7500000000000002
 40
0.7500000000000002
 40
1.0
 40
1.0
 40
1.0
 40
1.0
 10
135.1779974079571
 20
66.64620967133344
 30
0.0
 10
135.3680159882284
 20
67.30445334215753
 30
0.0
 10
135.5270593397368
 20
67.9775812423223
 30
0.0
 10
135.7445236515322
 20
69.32646435033092
 30
0.0
 10
135.803297086919
 20
70.00525460864696
 30
0.0
 10
135.8031271064356
 20
71.3730819004845
 30
0.0
 10
135.7426094171723
 20
72.06572307019972
 30
0.0
 10
135.5236128388021
 20
73.41400482962406
 30
0.0
 10
135.3666208334328
 20
74.07570272714514
 30
0.0
 10
135.1779974079571
 20
74.72911343998821
 30
0.0
  0
LINE
  5
E1
330
1F
100
AcDbEntity
  8
0
  6
Continuous
 62
     7
370
    25
100
AcDbLine
 10
133.5011395961
 20
66.6462096713
 30
0.0
 11
135.177997408
 21
66.6462096713
 31
0.0
  0
SPLINE
  5
E2
330
1F
100
AcDbEntity
  8
0
  6
Continuous
 62
     7
370
    25
100
AcDbSpline
210
0.0
220
0.0
230
1.0
 70
     8
 71
     3
 72
     8
 73
     4
 74
     0
 42
0.000000001
 43
0.00000001
 40
0.0
 40
0.0
 40
0.0
 40
0.0
 40
1.0
 40
1.0
 40
1.0
 40
1.0
 10
133.3939599191076
 20
66.64620967133344
 30
0.0
 10
133.4125520272608
 20
66.78498305582848
 30
0.0
 10
133.4304345046543
 20
66.92381948091602
 30
0.0
 10
133.4475497575938
 20
67.06272406297609
 30
0.0
  0
LINE
  5
E3
330
1F
100
AcDbEntity
  8
0
  6
Continuous
 62
     7
370
    25
100
AcDbLine
 10
130.9475497576
 20
62.604757787
 30
0.0
 11
133.3939599191
 21
62.604757787
 31
0.0
  0
LINE
  5
E4
330
1F
100
AcDbEntity
  8
0
  6
Continuous
 62
     7
370
    25
100
AcDbLine
 10
130.9475497576
 20
62.604757787
 30
0.0
 11
130.9475497576
 21
66.6462096713
 31
0.0
  0
SPLINE
  5
E5
330
1F
100
AcDbEntity
  8
0
  6
Continuous
 62
     7
370
    25
100
AcDbSpline
210
0.0
220
0.0
230
1.0
 70
     8
 71
     3
 72
     8
 73
     4
 74
     0
 42
0.000000001
 43
0.00000001
 40
0.0
 40
0.0
 40
0.0
 40
0.0
 40
1.0
 40
1.0
 40
1.0
 40
1.0
 10
133.4475497575938
 20
66.4379524755121
 30
0.0
 10
133.4304273417163
 20
66.50743383315621
 30
0.0
 10
133.4125444521981
 20
66.57685124960453
 30
0.0
 10
133.3939599191076
 20
66.64620967133344
 30
0.0
  0
SPLINE
  5
E6
330
1F
100
AcDbEntity
  8
0
  6
Continuous
 62
     7
370
    25
100
AcDbSpline
210
0.0
220
0.0
230
1.0
 70
     8
 71
     3
 72
    16
 73
    12
 74
     0
 42
0.000000001
 43
0.00000001
 40
0.0
 40
0.0
 40
0.0
 40
0.0
 40
0.2499999999999999
 40
0.2499999999999999
 40
0.4999999999999998
 40
0.4999999999999998
 40
0.6249999999999998
 40
0.6249999999999998
 40
0.7499999999999999
 40
0.7499999999999999
 40
1.0
 40
1.0
 40
1.0
 40
1.0
 10
135.1779974079576
 20
66.64620967133347
 30
0.0
 10
135.3684918789424
 20
66.31626356902687
 30
0.0
 10
135.5254938921555
 20
65.98391182771715
 30
0.0
 10
135.7429927029935
 20
65.31227673344343
 30
0.0
 10
135.8027720640636
 20
64.97294184967294
 30
0.0
 10
135.8034285649175
 20
64.45754608340273
 30
0.0
 10
135.7888147984341
 20
64.28493932290225
 30
0.0
 10
135.7318289405572
 20
63.94350491038371
 30
0.0
 10
135.689514671298
 20
63.77393240763972
 30
0.0
 10
135.5261198514078
 20
63.26823390808822
 30
0.0
 10
135.3687293240943
 20
62.93511515638021
 30
0.0
 10
135.1779974079573
 20
62.60475778700597
 30
0.0
  0
LINE
  5
E7
330
1F
100
AcDbEntity
  8
0
  6
Continuous
 62
     7
370
    25
100
AcDbLine
 10
133.5011395961
 20
62.604757787
 30
0.0
 11
135.177997408
 21
62.604757787
 31
0.0
  0
SPLINE
  5
E8
330
1F
100
AcDbEntity
  8
0
  6
Continuous
 62
     7
370
    25
100
AcDbSpline
210
0.0
220
0.0
230
1.0
 70
     8
 71
     3
 72
     8
 73
     4
 74
     0
 42
0.000000001
 43
0.00000001
 40
0.0
 40
0.0
 40
0.0
 40
0.0
 40
1.0
 40
1.0
 40
1.0
 40
1.0
 10
133.4475497575938
 20
62.81301498282732
 30
0.0
 10
133.4646721734713
 20
62.74353362518322
 30
0.0
 10
133.4825550629895
 20
62.67411620873489
 30
0.0
 10
133.50113959608
 20
62.60475778700599
 30
0.0
  0
SPLINE
  5
E9
330
1F
100
AcDbEntity
  8
0
  6
Continuous
 62
     7
370
    25
100
AcDbSpline
210
0.0
220
0.0
230
1.0
 70
     8
 71
     3
 72
     8
 73
     4
 74
     0
 42
0.000000001
 43
0.00000001
 40
0.0
 40
0.0
 40
0.0
 40
0.0
 40
1.0
 40
1.0
 40
1.0
 40
1.0
 10
133.3939599191076
 20
62.60475778700599
 30
0.0
 10
133.4125510580673
 20
62.67414086217429
 30
0.0
 10
133.4304335888501
 20
62.74355897553924
 30
0.0
 10
133.4475497575938
 20
62.81301498282732
 30
0.0
  0
LINE
  5
EA
330
1F
100
AcDbEntity
  8
0
  6
Continuous
 62
     7
370
    25
100
AcDbLine
 10
133.4475497576
 20
74.3125990483
 30
0.0
 11
133.4475497576
 21
74.9373706358
 31
0.0
  0
SPLINE
  5
EB
330
1F
100
AcDbEntity
  8
0
  6
Continuous
 62
     7
370
    25
100
AcDbSpline
210
0.0
220
0.0
230
1.0
 70
     8
 71
     3
 72
     8
 73
     4
 74
     0
 42
0.000000001
 43
0.00000001
 40
0.0
 40
0.0
 40
0.0
 40
0.0
 40
1.0
 40
1.0
 40
1.0
 40
1.0
 10
133.4475497575938
 20
74.93737063580954
 30
0.0
 10
133.4646721734713
 20
74.86788927816544
 30
0.0
 10
133.4825550629895
 20
74.79847186171713
 30
0.0
 10
133.50113959608
 20
74.72911343998821
 30
0.0
  0
SPLINE
  5
EC
330
1F
100
AcDbEntity
  8
0
  6
Continuous
 62
     7
370
    25
100
AcDbSpline
210
0.0
220
0.0
230
1.0
 70
     8
 71
     3
 72
     8
 73
     4
 74
     0
 42
0.000000001
 43
0.00000001
 40
0.0
 40
0.0
 40
0.0
 40
0.0
 40
1.0
 40
1.0
 40
1.0
 40
1.0
 10
133.3939599191076
 20
74.72911343998821
 30
0.0
 10
133.4125510580673
 20
74.79849651515653
 30
0.0
 10
133.4304335888501
 20
74.86791462852146
 30
0.0
 10
133.4475497575938
 20
74.93737063580954
 30
0.0
  0
SPLINE
  5
ED
330
1F
100
AcDbEntity
  8
0
  6
Continuous
 62
     7
370
    25
100
AcDbSpline
210
0.0
220
0.0
230
1.0
 70
     8
 71
     3
 72
    16
 73
    12
 74
     0
 42
0.000000001
 43
0.00000001
 40
0.0
 40
0.0
 40
0.0
 40
0.0
 40
0.25
 40
0.25
 40
0.5
 40
0.5
 40
0.625
 40
0.625
 40
0.75
 40
0.75
 40
1.0
 40
1.0
 40
1.0
 40
1.0
 10
135.1779974079576
 20
78.77056532431556
 30
0.0
 10
135.3684918789424
 20
78.44061922200898
 30
0.0
 10
135.5254938921555
 20
78.10826748069927
 30
0.0
 10
135.7429927029935
 20
77.43663238642554
 30
0.0
 10
135.8027720640636
 20
77.09729750265508
 30
0.0
 10
135.8034285649175
 20
76.5819017363849
 30
0.0
 10
135.788814798434
 20
76.40929497588442
 30
0.0
 10
135.7318289405572
 20
76.0678605633659
 30
0.0
 10
135.689514671298
 20
75.89828806062192
 30
0.0
 10
135.5261198514078
 20
75.39258956107044
 30
0.0
 10
135.3687293240943
 20
75.05947080936244
 30
0.0
 10
135.1779974079573
 20
74.7291134399882
 30
0.0
  0
LINE
  5
EE
330
1F
100
AcDbEntity
  8
0
  6
Continuous
 62
     7
370
    25
100
AcDbLine
 10
135.9475497576
 20
77.4376615557
 30
0.0
 11
135.9475497576
 21
63.9376615557
 31
0.0
  0
LINE
  5
EF
330
1F
100
AcDbEntity
  8
0
  6
Continuous
 62
     7
370
    25
100
AcDbLine
 10
130.9475497576
 20
78.7705653243
 30
0.0
 11
133.3939599191
 21
78.7705653243
 31
0.0
  0
SPLINE
  5
F0
330
1F
100
AcDbEntity
  8
0
  6
Continuous
 62
     7
370
    25
100
AcDbSpline
210
0.0
220
0.0
230
1.0
 70
     8
 71
     3
 72
     8
 73
     4
 74
     0
 42
0.000000001
 43
0.00000001
 40
0.0
 40
0.0
 40
0.0
 40
0.0
 40
1.0
 40
1.0
 40
1.0
 40
1.0
 10
133.4475497575938
 20
78.56230812849418
 30
0.0
 10
133.4304273417163
 20
78.6317894861383
 30
0.0
 10
133.4125444521981
 20
78.7012069025866
 30
0.0
 10
133.3939599191076
 20
78.77056532431551
 30
0.0
  0
SPLINE
  5
F1
330
1F
100
AcDbEntity
  8
0
  6
Continuous
 62
     7
370
    25
100
AcDbSpline
210
0.0
220
0.0
230
1.0
 70
     8
 71
     3
 72
     8
 73
     4
 74
     0
 42
0.000000001
 43
0.00000001
 40
0.0
 40
0.0
 40
0.0
 40
0.0
 40
1.0
 40
1.0
 40
1.0
 40
1.0
 10
133.50113959608
 20
78.77056532431551
 30
0.0
 10
133.4825484571203
 20
78.70118224914721
 30
0.0
 10
133.4646659263375
 20
78.63176413578228
 30
0.0
 10
133.4475497575938
 20
78.56230812849418
 30
0.0
  0
LINE
  5
F2
330
1F
100
AcDbEntity
  8
0
  6
Continuous
 62
     7
370
    25
100
AcDbLine
 10
133.5011395961
 20
78.7705653243
 30
0.0
 11
135.177997408
 21
78.7705653243
 31
0.0
  0
LINE
  5
F3
330
1F
100
AcDbEntity
  8
0
  6
Continuous
 62
     7
370
    25
100
AcDbLine
 10
130.9475497576
 20
74.72911344
 30
0.0
 11
130.9475497576
 21
78.7705653243
 31
0.0
  0
LINE
  5
F4
330
1F
100
AcDbEntity
  8
0
  6
Continuous
 62
     7
370
    25
100
AcDbLine
 10
121.0369096506
 20
77.1439540523
 30
0.0
 11
121.0369096506
 21
64.231369059
 31
0.0
  0
LINE
  5
F5
330
1F
100
AcDbEntity
  8
0
  6
Continuous
 62
     7
370
    25
100
AcDbLine
 10
138.9475497576
 20
77.2661615557
 30
0.0
 11
138.9475497576
 21
64.1091615557
 31
0.0
  0
LINE
  5
F6
330
1F
100
AcDbEntity
  8
0
  6
Continuous
 62
     7
370
    25
100
AcDbLine
 10
137.9475497576
 20
65.1091615557
 30
0.0
 11
137.9475497576
 21
76.2661615557
 31
0.0
  0
LINE
  5
F7
330
1F
100
AcDbEntity
  8
0
  6
Continuous
 62
     7
370
    25
100
AcDbLine
 10
118.9475497576
 20
70.6876615557
 30
0.0
 11
118.9475497576
 21
75.9376615557
 31
0.0
  0
LINE
  5
F8
330
1F
100
AcDbEntity
  8
0
  6
Continuous
 62
     7
370
    25
100
AcDbLine
 10
118.9475497576
 20
65.4376615557
 30
0.0
 11
118.9475497576
 21
70.6876615557
 31
0.0
  0
LINE
  5
F9
330
1F
100
AcDbEntity
  8
0
  6
Continuous
 62
     7
370
    25
100
AcDbLine
 10
133.4475497576
 20
62.804757787
 30
0.0
 11
133.4475497576
 21
62.8130149828
 31
0.0
  0
LINE
  5
FA
330
1F
100
AcDbEntity
  8
0
  6
Continuous
 62
     7
370
    25
100
AcDbLine
 10
133.4475497576
 20
78.5623081285
 30
0.0
 11
133.4475497576
 21
78.5705653243
 31
0.0
  0
LINE
  5
FB
330
1F
100
AcDbEntity
  8
0
  6
Continuous
 62
     8
370
    25
100
AcDbLine
 10
177.4084379941
 20
67.7544903971
 30
0.0
 11
177.4084379941
 21
73.6208327142
 31
0.0
  0
LINE
  5
FC
330
1F
100
AcDbEntity
  8
0
  6
Continuous
 62
     8
370
    25
100
AcDbLine
 10
139.4121939511
 20
70.6876615557
 30
0.0
 11
139.4121939511
 21
62.8376615557
 31
0.0
  0
LINE
  5
FD
330
1F
100
AcDbEntity
  8
0
  6
Continuous
 62
     8
370
    25
100
AcDbLine
 10
139.4121939511
 20
78.5376615557
 30
0.0
 11
139.4121939511
 21
70.6876615557
 31
0.0
  0
LINE
  5
FE
330
1F
100
AcDbEntity
  8
0
  6
Continuous
 62
     8
370
    25
100
AcDbLine
 10
151.8121939511
 20
62.8376615557
 30
0.0
 11
151.8121939511
 21
78.5376615557
 31
0.0
  0
LINE
  5
FF
330
1F
100
AcDbEntity
  8
0
  6
Continuous
 62
     7
370
     0
100
AcDbLine
 10
119.8127754802
 20
76.4371998595
 30
0.0
 11
130.4475497576
 21
76.7695365557
 31
0.0
  0
LINE
  5
100
330
1F
100
AcDbEntity
  8
0
  6
Continuous
 62
     7
370
     0
100
AcDbLine
 10
119.8127754802
 20
64.9381232518
 30
0.0
 11
130.4475497576
 21
64.6057865557
 31
0.0
  0
LINE
  5
101
330
1F
100
AcDbEntity
  8
0
  6
Continuous
 62
     7
370
     0
100
AcDbLine
 10
130.4475497576
 20
63.9372865557
 30
0.0
 11
130.4475497576
 21
77.4380365557
 31
0.0
  0
LINE
  5
102
330
1F
100
AcDbEntity
  8
0
  6
Continuous
 62
     7
370
     0
100
AcDbLine
 10
119.8127754802
 20
76.4371998595
 30
0.0
 11
130.4475497576
 21
76.7695365557
 31
0.0
  0
LINE
  5
103
330
1F
100
AcDbEntity
  8
0
  6
Continuous
 62
     7
370
     0
100
AcDbLine
 10
119.8127754802
 20
64.9381232518
 30
0.0
 11
130.4475497576
 21
64.6057865557
 31
0.0
  0
LINE
  5
104
330
1F
100
AcDbEntity
  8
0
  6
Continuous
 62
     7
370
     0
100
AcDbLine
 10
130.4475497576
 20
63.9372865557
 30
0.0
 11
130.4475497576
 21
77.4380365557
 31
0.0
  0
LINE
  5
105
330
1F
100
AcDbEntity
  8
0
  6
CENTERX2
 62
     7
370
    18
100
AcDbLine
 10
135.9475497576
 20
70.6876615557
 30
0.0
 11
179.4084379941
 21
70.6876615557
 31
0.0
  0
LINE
  5
106
330
1F
100
AcDbEntity
  8
0
  6
CENTERX2
 62
     7
370
    18
100
AcDbLine
 10
116.9475497576
 20
70.6876615557
 30
0.0
 11
132.9475497576
 21
70.6876615557
 31
0.0
  0
LINE
  5
107
330
1F
100
AcDbEntity
  8
0
  6
CENTERX2
 62
     7
370
    18
100
AcDbLine
 10
130.2243446768
 20
70.6876615557
 30
0.0
 11
136.2859786635
 21
70.6876615557
 31
0.0
  0
CIRCLE
  5
108
330
1F
100
AcDbEntity
  8
0
  6
Continuous
 62
     7
370
    25
100
AcDbCircle
 10
207.8452603813
 20
70.6876615557
 30
0.0
 40
2.933171158551374
  0
CIRCLE
  5
109
330
1F
100
AcDbEntity
  8
0
  6
Continuous
 62
     7
370
    25
100
AcDbCircle
 10
207.8452603813
 20
70.6876615557
 30
0.0
 40
2.199999999999989
  0
CIRCLE
  5
10A
330
1F
100
AcDbEntity
  8
0
  6
Continuous
 62
     7
370
    25
100
AcDbCircle
 10
207.8452603813
 20
70.6876615557
 30
0.0
 40
1.999999999999972
  0
CIRCLE
  5
10B
330
1F
100
AcDbEntity
  8
0
  6
Continuous
 62
     7
370
    25
100
AcDbCircle
 10
207.8452603813
 20
70.6876615557
 30
0.0
 40
3.499999999999972
  0
CIRCLE
  5
10C
330
1F
100
AcDbEntity
  8
0
  6
Continuous
 62
     7
370
    25
100
AcDbCircle
 10
207.8452603813
 20
70.6876615557
 30
0.0
 40
4.5
  0
CIRCLE
  5
10D
330
1F
100
AcDbEntity
  8
0
  6
Continuous
 62
     7
370
    25
100
AcDbCircle
 10
207.8452603813
 20
70.6876615557
 30
0.0
 40
7.850000000000023
  0
CIRCLE
  5
10E
330
1F
100
AcDbEntity
  8
0
  6
Continuous
 62
     7
370
    25
100
AcDbCircle
 10
207.8452603813
 20
70.6876615557
 30
0.0
 40
7.550000000000011
  0
CIRCLE
  5
10F
330
1F
100
AcDbEntity
  8
0
  6
Continuous
 62
     7
370
    25
100
AcDbCircle
 10
207.8452603813
 20
70.6876615557
 30
0.0
 40
4.849999999999994
  0
CIRCLE
  5
110
330
1F
100
AcDbEntity
  8
0
  6
Continuous
 62
     7
370
    25
100
AcDbCircle
 10
207.8452603813
 20
70.6876615557
 30
0.0
 40
4.75
  0
SPLINE
  5
111
330
1F
100
AcDbEntity
  8
0
  6
Continuous
 62
     7
370
    25
100
AcDbSpline
210
0.0
220
0.0
230
1.0
 70
    24
 71
     3
 72
    15
 73
    11
 74
     0
 42
0.000000001
 43
0.00000001
 40
0.0
 40
0.0
 40
0.0
 40
0.0
 40
0.1323049664163416
 40
0.2645725257576573
 40
0.3997989469058977
 40
0.5350009659368399
 40
0.6501921044151454
 40
0.7654012116808045
 40
0.8826892657702334
 40
1.0
 40
1.0
 40
1.0
 40
1.0
 10
199.8452603812753
 20
75.30646370917786
 30
0.0
 10
200.1908914976325
 20
75.50601392724698
 30
0.0
 10
200.8820560087764
 20
75.90505794381023
 30
0.0
 10
201.9463880932786
 20
76.51955035930473
 30
0.0
 10
203.0307829665774
 20
77.14562603131164
 30
0.0
 10
204.0758985322772
 20
77.74902378450268
 30
0.0
 10
205.0645534831396
 20
78.31982398651876
 30
0.0
 10
205.9976021194033
 20
78.85851986783257
 30
0.0
 10
206.9264321934348
 20
79.39478016110613
 30
0.0
 10
207.5389645795424
 20
79.74842589911266
 30
0.0
 10
207.8452603812752
 20
79.92526586269477
 30
0.0
  0
SPLINE
  5
112
330
1F
100
AcDbEntity
  8
0
  6
Continuous
 62
     7
370
    25
100
AcDbSpline
210
0.0
220
0.0
230
1.0
 70
    24
 71
     3
 72
    15
 73
    11
 74
     0
 42
0.000000001
 43
0.00000001
 40
0.0
 40
0.0
 40
0.0
 40
0.0
 40
0.1323049664163399
 40
0.264572525757654
 40
0.3997989469058928
 40
0.5350009659368333
 40
0.6501921044151404
 40
0.7654012116808011
 40
0.8826892657702318
 40
1.0
 40
1.0
 40
1.0
 40
1.0
 10
207.8452603812752
 20
79.92526586269477
 30
0.0
 10
208.1908914976324
 20
79.72571564462564
 30
0.0
 10
208.8820560087763
 20
79.3266716280624
 30
0.0
 10
209.9463880932785
 20
78.71217921256788
 30
0.0
 10
211.0307829665773
 20
78.08610354056096
 30
0.0
 10
212.0758985322771
 20
77.48270578736992
 30
0.0
 10
213.0645534831396
 20
76.91190558535382
 30
0.0
 10
213.9976021194032
 20
76.37320970403998
 30
0.0
 10
214.9264321934349
 20
75.83694941076642
 30
0.0
 10
215.5389645795424
 20
75.48330367275986
 30
0.0
 10
215.8452603812752
 20
75.30646370917775
 30
0.0
  0
SPLINE
  5
113
330
1F
100
AcDbEntity
  8
0
  6
Continuous
 62
     7
370
    25
100
AcDbSpline
210
0.0
220
0.0
230
1.0
 70
    24
 71
     3
 72
    16
 73
    12
 74
     0
 42
0.000000001
 43
0.00000001
 40
0.0
 40
0.0
 40
0.0
 40
0.0
 40
0.0956237145789416
 40
0.1912377652649444
 40
0.2877937408434854
 40
0.38433884805827
 40
0.510267629796456
 40
0.6361984448948281
 40
0.765484310715168
 40
0.8948065592131593
 40
1.0
 40
1.0
 40
1.0
 40
1.0
 10
215.8452603812752
 20
75.30646370917775
 30
0.0
 10
215.8452603812752
 20
75.01837568265496
 30
0.0
 10
215.8452603812752
 20
74.4422287442684
 30
0.0
 10
215.8452603812752
 20
73.56318049648952
 30
0.0
 10
215.8452603812752
 20
72.67295901357613
 30
0.0
 10
215.8452603812752
 20
71.68106740627987
 30
0.0
 10
215.8452603812752
 20
70.59137770459033
 30
0.0
 10
215.8452603812752
 20
69.39995930489602
 30
0.0
 10
215.8452603812752
 20
68.20756351252216
 30
0.0
 10
215.8452603812752
 20
67.09266454140892
 30
0.0
 10
215.8452603812752
 20
66.38588822404154
 30
0.0
 10
215.8452603812752
 20
66.0688594021437
 30
0.0
  0
SPLINE
  5
114
330
1F
100
AcDbEntity
  8
0
  6
Continuous
 62
     7
370
    25
100
AcDbSpline
210
0.0
220
0.0
230
1.0
 70
    24
 71
     3
 72
    15
 73
    11
 74
     0
 42
0.000000001
 43
0.00000001
 40
0.0
 40
0.0
 40
0.0
 40
0.0
 40
0.1323049664163398
 40
0.2645725257576538
 40
0.3997989469058926
 40
0.5350009659368332
 40
0.6501921044151403
 40
0.765401211680801
 40
0.8826892657702315
 40
1.0
 40
1.0
 40
1.0
 40
1.0
 10
215.8452603812752
 20
66.0688594021437
 30
0.0
 10
215.499629264918
 20
65.86930918407458
 30
0.0
 10
214.8084647537741
 20
65.47026516751134
 30
0.0
 10
213.7441326692719
 20
64.85577275201683
 30
0.0
 10
212.6597377959731
 20
64.22969708000991
 30
0.0
 10
211.6146222302733
 20
63.62629932681887
 30
0.0
 10
210.6259672794108
 20
63.05549912480279
 30
0.0
 10
209.6929186431472
 20
62.51680324348896
 30
0.0
 10
208.7640885691156
 20
61.98054295021541
 30
0.0
 10
208.151556183008
 20
61.62689721220885
 30
0.0
 10
207.8452603812752
 20
61.45005724862673
 30
0.0
  0
SPLINE
  5
115
330
1F
100
AcDbEntity
  8
0
  6
Continuous
 62
     7
370
    25
100
AcDbSpline
210
0.0
220
0.0
230
1.0
 70
    24
 71
     3
 72
    15
 73
    11
 74
     0
 42
0.000000001
 43
0.00000001
 40
0.0
 40
0.0
 40
0.0
 40
0.0
 40
0.1323049664163399
 40
0.2645725257576539
 40
0.3997989469058926
 40
0.5350009659368332
 40
0.6501921044151403
 40
0.765401211680801
 40
0.8826892657702317
 40
1.0
 40
1.0
 40
1.0
 40
1.0
 10
207.8452603812752
 20
61.45005724862673
 30
0.0
 10
207.499629264918
 20
61.64960746669587
 30
0.0
 10
206.8084647537741
 20
62.04865148325912
 30
0.0
 10
205.7441326692719
 20
62.66314389875363
 30
0.0
 10
204.6597377959731
 20
63.28921957076057
 30
0.0
 10
203.6146222302733
 20
63.89261732395161
 30
0.0
 10
202.6259672794108
 20
64.46341752596771
 30
0.0
 10
201.6929186431472
 20
65.00211340728157
 30
0.0
 10
200.7640885691156
 20
65.53837370055514
 30
0.0
 10
200.151556183008
 20
65.8920194385617
 30
0.0
 10
199.8452603812752
 20
66.06885940214381
 30
0.0
  0
SPLINE
  5
116
330
1F
100
AcDbEntity
  8
0
  6
Continuous
 62
     7
370
    25
100
AcDbSpline
210
0.0
220
0.0
230
1.0
 70
    24
 71
     3
 72
    16
 73
    12
 74
     0
 42
0.000000001
 43
0.00000001
 40
0.0
 40
0.0
 40
0.0
 40
0.0
 40
0.1051935664218023
 40
0.2312918996997604
 40
0.3573572448607639
 40
0.4865103187026856
 40
0.6156604465364214
 40
0.7112032284208155
 40
0.806756420180822
 40
0.9033731629575484
 40
0.9999999999999999
 40
0.9999999999999999
 40
0.9999999999999999
 40
0.9999999999999999
 10
199.8452603812752
 20
66.06885940214381
 30
0.0
 10
199.8452603812752
 20
66.385887243053
 30
0.0
 10
199.8452603812752
 20
67.08294481107552
 30
0.0
 10
199.8452603812752
 20
68.17786239935066
 30
0.0
 10
199.8452603812752
 20
69.35972585405067
 30
0.0
 10
199.8452603812752
 20
70.56109549990764
 30
0.0
 10
199.8452603812752
 20
71.66792144441621
 30
0.0
 10
199.8452603812752
 20
72.66361225410725
 30
0.0
 10
199.8452603812753
 20
73.5508645085686
 30
0.0
 10
199.8452603812753
 20
74.43313520437226
 30
0.0
 10
199.8452603812753
 20
75.01534407016115
 30
0.0
 10
199.8452603812753
 20
75.30646370917786
 30
0.0
  0
INSERT
  5
122
330
1F
100
AcDbEntity
  8
0
  6
Continuous
 62
     7
370
    18
100
AcDbBlockReference
  2
SW_CENTERMARKSYMBOL_0
 10
207.8452603813
 20
70.6876615557
 30
0.0
  0
LINE
  5
123
330
1F
100
AcDbEntity
  8
0
  6
Continuous
 62
     7
370
    25
100
AcDbLine
 10
152.1121939511
 20
104.0422059925
 30
0.0
 11
152.6121939511
 21
104.0422059925
 31
0.0
  0
LINE
  5
124
330
1F
100
AcDbEntity
  8
0
  6
Continuous
 62
     7
370
    25
100
AcDbLine
 10
152.6121939511
 20
113.0422059925
 30
0.0
 11
152.1121939511
 21
113.0422059925
 31
0.0
  0
LINE
  5
125
330
1F
100
AcDbEntity
  8
0
  6
Continuous
 62
     7
370
    25
100
AcDbLine
 10
152.6121939511
 20
105.0422059925
 30
0.0
 11
156.6121939511
 21
105.0422059925
 31
0.0
  0
LINE
  5
126
330
1F
100
AcDbEntity
  8
0
  6
Continuous
 62
     7
370
    25
100
AcDbLine
 10
156.6121939511
 20
112.0422059925
 30
0.0
 11
152.6121939511
 21
112.0422059925
 31
0.0
  0
LINE
  5
127
330
1F
100
AcDbEntity
  8
0
  6
Continuous
 62
     7
370
    25
100
AcDbLine
 10
156.6121939511
 20
105.0422059925
 30
0.0
 11
160.6121939511
 21
105.6922059925
 31
0.0
  0
LINE
  5
128
330
1F
100
AcDbEntity
  8
0
  6
Continuous
 62
     7
370
    25
100
AcDbLine
 10
160.6121939511
 20
111.3922059925
 30
0.0
 11
156.6121939511
 21
112.0422059925
 31
0.0
  0
LINE
  5
129
330
1F
100
AcDbEntity
  8
0
  6
Continuous
 62
     7
370
    25
100
AcDbLine
 10
168.6121939511
 20
105.0422059925
 30
0.0
 11
172.6121939511
 21
105.6922059925
 31
0.0
  0
LINE
  5
12A
330
1F
100
AcDbEntity
  8
0
  6
Continuous
 62
     7
370
    25
100
AcDbLine
 10
172.6121939511
 20
111.3922059925
 30
0.0
 11
168.6121939511
 21
112.0422059925
 31
0.0
  0
LINE
  5
12B
330
1F
100
AcDbEntity
  8
0
  6
Continuous
 62
     7
370
    25
100
AcDbLine
 10
172.6121939511
 20
105.0422059925
 30
0.0
 11
177.4084379941
 21
105.6090348339
 31
0.0
  0
LINE
  5
12C
330
1F
100
AcDbEntity
  8
0
  6
Continuous
 62
     7
370
    25
100
AcDbLine
 10
177.4084379941
 20
111.475377151
 30
0.0
 11
172.6121939511
 21
112.0422059925
 31
0.0
  0
LINE
  5
12D
330
1F
100
AcDbEntity
  8
0
  6
Continuous
 62
     7
370
    25
100
AcDbLine
 10
164.6121939511
 20
105.0422059925
 30
0.0
 11
168.6121939511
 21
105.6922059925
 31
0.0
  0
LINE
  5
12E
330
1F
100
AcDbEntity
  8
0
  6
Continuous
 62
     7
370
    25
100
AcDbLine
 10
168.6121939511
 20
111.3922059925
 30
0.0
 11
164.6121939511
 21
112.0422059925
 31
0.0
  0
LINE
  5
12F
330
1F
100
AcDbEntity
  8
0
  6
Continuous
 62
     7
370
    25
100
AcDbLine
 10
160.6121939511
 20
105.0422059925
 30
0.0
 11
164.6121939511
 21
105.6922059925
 31
0.0
  0
LINE
  5
130
330
1F
100
AcDbEntity
  8
0
  6
Continuous
 62
     7
370
    25
100
AcDbLine
 10
164.6121939511
 20
111.3922059925
 30
0.0
 11
160.6121939511
 21
112.0422059925
 31
0.0
  0
ARC
  5
131
330
1F
100
AcDbEntity
  8
0
  6
Continuous
 62
     7
370
    25
100
AcDbCircle
 10
177.3145459582
 20
110.6809060782
 30
0.0
 40
0.8000000000000157
100
AcDbArc
 50
4.3945905239
 51
83.2599439021
  0
ARC
  5
132
330
1F
100
AcDbEntity
  8
0
  6
Continuous
 62
     7
370
    25
100
AcDbCircle
 10
177.3145459582
 20
106.4035059068
 30
0.0
 40
0.8000000000000157
100
AcDbArc
 50
276.7400560979
 51
355.6054094761
  0
LINE
  5
133
330
1F
100
AcDbEntity
  8
0
  6
Continuous
 62
     7
370
    25
100
AcDbLine
 10
150.0255914107
 20
100.5422059925
 30
0.0
 11
150.1121939511
 21
100.6922059925
 31
0.0
  0
LINE
  5
134
330
1F
100
AcDbEntity
  8
0
  6
Continuous
 62
     7
370
    25
100
AcDbLine
 10
150.1121939511
 20
116.3922059925
 30
0.0
 11
150.0255914107
 21
116.5422059925
 31
0.0
  0
LINE
  5
135
330
1F
100
AcDbEntity
  8
0
  6
Continuous
 62
     7
370
    25
100
AcDbLine
 10
141.1987964914
 20
116.5422059925
 30
0.0
 11
141.1121939511
 21
116.3922059925
 31
0.0
  0
LINE
  5
136
330
1F
100
AcDbEntity
  8
0
  6
Continuous
 62
     7
370
    25
100
AcDbLine
 10
141.1121939511
 20
100.6922059925
 30
0.0
 11
141.1987964914
 21
100.5422059925
 31
0.0
  0
ARC
  5
137
330
1F
100
AcDbEntity
  8
0
  6
Continuous
 62
     7
370
    25
100
AcDbCircle
 10
139.4121939511
 20
100.9922059925
 30
0.0
 40
0.2999999999999972
100
AcDbArc
 50
180.0
 51
270.0
  0
ARC
  5
138
330
1F
100
AcDbEntity
  8
0
  6
Continuous
 62
     7
370
    25
100
AcDbCircle
 10
139.4121939511
 20
116.0922059925
 30
0.0
 40
0.2999999999999972
100
AcDbArc
 50
90.0
 51
180.0
  0
LINE
  5
139
330
1F
100
AcDbEntity
  8
0
  6
Continuous
 62
     7
370
    25
100
AcDbLine
 10
141.1121939511
 20
116.3922059925
 30
0.0
 11
139.4121939511
 21
116.3922059925
 31
0.0
  0
LINE
  5
13A
330
1F
100
AcDbEntity
  8
0
  6
Continuous
 62
     7
370
    25
100
AcDbLine
 10
139.4121939511
 20
100.6922059925
 30
0.0
 11
141.1121939511
 21
100.6922059925
 31
0.0
  0
LINE
  5
13B
330
1F
100
AcDbEntity
  8
0
  6
Continuous
 62
     7
370
    25
100
AcDbLine
 10
150.1121939511
 20
100.6922059925
 30
0.0
 11
151.8121939511
 21
100.6922059925
 31
0.0
  0
LINE
  5
13C
330
1F
100
AcDbEntity
  8
0
  6
Continuous
 62
     7
370
    25
100
AcDbLine
 10
151.8121939511
 20
116.3922059925
 30
0.0
 11
150.1121939511
 21
116.3922059925
 31
0.0
  0
ARC
  5
13D
330
1F
100
AcDbEntity
  8
0
  6
Continuous
 62
     7
370
    25
100
AcDbCircle
 10
151.8121939511
 20
116.0922059925
 30
0.0
 40
0.2999999999999972
100
AcDbArc
 50
0.0
 51
90.0
  0
ARC
  5
13E
330
1F
100
AcDbEntity
  8
0
  6
Continuous
 62
     7
370
    25
100
AcDbCircle
 10
151.8121939511
 20
100.9922059925
 30
0.0
 40
0.2999999999999972
100
AcDbArc
 50
270.0
 51
0.0
  0
LINE
  5
13F
330
1F
100
AcDbEntity
  8
0
  6
Continuous
 62
     7
370
    25
100
AcDbLine
 10
135.8032121903
 20
101.5422059925
 30
0.0
 11
135.9475497576
 21
101.7922059925
 31
0.0
  0
LINE
  5
140
330
1F
100
AcDbEntity
  8
0
  6
Continuous
 62
     7
370
    25
100
AcDbLine
 10
135.9475497576
 20
115.2922059925
 30
0.0
 11
135.8032121903
 21
115.5422059925
 31
0.0
  0
LINE
  5
141
330
1F
100
AcDbEntity
  8
0
  6
Continuous
 62
     7
370
    25
100
AcDbLine
 10
130.9475497576
 20
115.3082059925
 30
0.0
 11
121.0369096506
 21
114.9984984891
 31
0.0
  0
LINE
  5
142
330
1F
100
AcDbEntity
  8
0
  6
Continuous
 62
     7
370
    25
100
AcDbLine
 10
121.0369096506
 20
102.0859134958
 30
0.0
 11
130.9475497576
 21
101.7762059925
 31
0.0
  0
LINE
  5
143
330
1F
100
AcDbEntity
  8
0
  6
Continuous
 62
     7
370
    25
100
AcDbLine
 10
138.9475497576
 20
115.1207059925
 30
0.0
 11
137.9475497576
 21
114.1207059925
 31
0.0
  0
LINE
  5
144
330
1F
100
AcDbEntity
  8
0
  6
Continuous
 62
     7
370
    25
100
AcDbLine
 10
137.9475497576
 20
102.9637059925
 30
0.0
 11
138.9475497576
 21
101.9637059925
 31
0.0
  0
LINE
  5
145
330
1F
100
AcDbEntity
  8
0
  6
Continuous
 62
     7
370
    25
100
AcDbLine
 10
138.9475497576
 20
101.9637059925
 30
0.0
 11
139.1121939511
 21
101.9637059925
 31
0.0
  0
LINE
  5
146
330
1F
100
AcDbEntity
  8
0
  6
Continuous
 62
     7
370
    25
100
AcDbLine
 10
139.1121939511
 20
115.1207059925
 30
0.0
 11
138.9475497576
 21
115.1207059925
 31
0.0
  0
LINE
  5
147
330
1F
100
AcDbEntity
  8
0
  6
Continuous
 62
     7
370
    25
100
AcDbLine
 10
121.0369096506
 20
114.9984984891
 30
0.0
 11
118.9475497576
 21
113.7922059925
 31
0.0
  0
LINE
  5
148
330
1F
100
AcDbEntity
  8
0
  6
Continuous
 62
     7
370
    25
100
AcDbLine
 10
118.9475497576
 20
103.2922059925
 30
0.0
 11
121.0369096506
 21
102.0859134958
 31
0.0
  0
LINE
  5
149
330
1F
100
AcDbEntity
  8
0
  6
Continuous
 62
     7
370
    25
100
AcDbLine
 10
135.9475497576
 20
103.1422059925
 30
0.0
 11
137.9475497576
 21
103.1422059925
 31
0.0
  0
LINE
  5
14A
330
1F
100
AcDbEntity
  8
0
  6
Continuous
 62
     7
370
    25
100
AcDbLine
 10
137.9475497576
 20
113.9422059925
 30
0.0
 11
135.9475497576
 21
113.9422059925
 31
0.0
  0
LINE
  5
14B
330
1F
100
AcDbEntity
  8
0
  6
Continuous
 62
     7
370
    25
100
AcDbLine
 10
152.6121939511
 20
113.0422059925
 30
0.0
 11
152.6121939511
 21
104.0422059925
 31
0.0
  0
LINE
  5
14C
330
1F
100
AcDbEntity
  8
0
  6
Continuous
 62
     7
370
    25
100
AcDbLine
 10
156.6121939511
 20
105.0422059925
 30
0.0
 11
156.6121939511
 21
112.0422059925
 31
0.0
  0
LINE
  5
14D
330
1F
100
AcDbEntity
  8
0
  6
Continuous
 62
     7
370
    25
100
AcDbLine
 10
168.6121939511
 20
105.0422059925
 30
0.0
 11
168.6121939511
 21
112.0422059925
 31
0.0
  0
LINE
  5
14E
330
1F
100
AcDbEntity
  8
0
  6
Continuous
 62
     7
370
    25
100
AcDbLine
 10
172.6121939511
 20
105.0422059925
 30
0.0
 11
172.6121939511
 21
112.0422059925
 31
0.0
  0
LINE
  5
14F
330
1F
100
AcDbEntity
  8
0
  6
Continuous
 62
     7
370
    25
100
AcDbLine
 10
164.6121939511
 20
105.0422059925
 30
0.0
 11
164.6121939511
 21
112.0422059925
 31
0.0
  0
LINE
  5
150
330
1F
100
AcDbEntity
  8
0
  6
Continuous
 62
     7
370
    25
100
AcDbLine
 10
160.6121939511
 20
105.0422059925
 30
0.0
 11
160.6121939511
 21
112.0422059925
 31
0.0
  0
LINE
  5
151
330
1F
100
AcDbEntity
  8
0
  6
Continuous
 62
     7
370
    25
100
AcDbLine
 10
178.1121939511
 20
106.3422059925
 30
0.0
 11
178.1121939511
 21
110.7422059925
 31
0.0
  0
SPLINE
  5
152
330
1F
100
AcDbEntity
  8
0
  6
Continuous
 62
     7
370
    25
100
AcDbSpline
210
0.0
220
0.0
230
1.0
 70
     8
 71
     3
 72
    15
 73
    11
 74
     0
 42
0.000000001
 43
0.00000001
 40
0.0
 40
0.0
 40
0.0
 40
0.0
 40
0.1323049664163416
 40
0.2645725257576573
 40
0.3997989469058977
 40
0.5350009659368399
 40
0.6501921044151454
 40
0.7654012116808045
 40
0.8826892657702334
 40
1.0
 40
1.0
 40
1.0
 40
1.0
 10
149.3110602308626
 20
100.5422059924578
 30
0.0
 10
149.4198317584058
 20
100.8878371088149
 30
0.0
 10
149.6373440601139
 20
101.5790016199588
 30
0.0
 10
149.8713792529094
 20
102.6433337044611
 30
0.0
 10
150.0120985088585
 20
103.7277285777599
 30
0.0
 10
150.039967792582
 20
104.7728441434597
 30
0.0
 10
149.9676659942275
 20
105.7614990943221
 30
0.0
 10
149.8195160142484
 20
106.6945477305858
 30
0.0
 10
149.6021958555438
 20
107.6233778046173
 30
0.0
 10
149.4081116935352
 20
108.2359101907249
 30
0.0
 10
149.3110602308626
 20
108.5422059924577
 30
0.0
  0
SPLINE
  5
153
330
1F
100
AcDbEntity
  8
0
  6
Continuous
 62
     7
370
    25
100
AcDbSpline
210
0.0
220
0.0
230
1.0
 70
     8
 71
     3
 72
    15
 73
    11
 74
     0
 42
0.000000001
 43
0.00000001
 40
0.0
 40
0.0
 40
0.0
 40
0.0
 40
0.1323049664163399
 40
0.264572525757654
 40
0.3997989469058928
 40
0.5350009659368333
 40
0.6501921044151404
 40
0.7654012116808011
 40
0.8826892657702318
 40
1.0
 40
1.0
 40
1.0
 40
1.0
 10
149.3110602308626
 20
108.5422059924577
 30
0.0
 10
149.4198317584058
 20
108.8878371088149
 30
0.0
 10
149.6373440601139
 20
109.5790016199588
 30
0.0
 10
149.8713792529094
 20
110.643333704461
 30
0.0
 10
150.0120985088585
 20
111.7277285777598
 30
0.0
 10
150.039967792582
 20
112.7728441434596
 30
0.0
 10
149.9676659942276
 20
113.7614990943221
 30
0.0
 10
149.8195160142484
 20
114.6945477305857
 30
0.0
 10
149.6021958555438
 20
115.6233778046173
 30
0.0
 10
149.4081116935352
 20
116.2359101907249
 30
0.0
 10
149.3110602308626
 20
116.5422059924577
 30
0.0
  0
SPLINE
  5
154
330
1F
100
AcDbEntity
  8
0
  6
Continuous
 62
     7
370
    25
100
AcDbSpline
210
0.0
220
0.0
230
1.0
 70
    24
 71
     3
 72
    12
 73
     8
 74
     0
 42
0.000000001
 43
0.00000001
 40
0.0
 40
0.0
 40
0.0
 40
0.0
 40
0.1910462528605296
 40
0.3824439813440483
 40
0.5752172259134483
 40
0.768615311870771
 40
1.0
 40
1.0
 40
1.0
 40
1.0
 10
149.3110602308626
 20
116.5422059924577
 30
0.0
 10
149.3907840530937
 20
116.5422059924577
 30
0.0
 10
149.5503783687398
 20
116.5422059924577
 30
0.0
 10
149.7438221749814
 20
116.5422059924577
 30
0.0
 10
149.8934278221161
 20
116.5422059924577
 30
0.0
 10
150.0032943417361
 20
116.5422059924577
 30
0.0
 10
150.0154168957443
 20
116.5422059924577
 30
0.0
 10
150.0220202081892
 20
116.5422059924577
 30
0.0
  0
SPLINE
  5
155
330
1F
100
AcDbEntity
  8
0
  6
Continuous
 62
     7
370
    25
100
AcDbSpline
210
0.0
220
0.0
230
1.0
 70
    24
 71
     3
 72
    12
 73
     8
 74
     0
 42
0.000000001
 43
0.00000001
 40
0.0
 40
0.0
 40
0.0
 40
0.0
 40
0.2313810520039043
 40
0.4221377217834618
 40
0.6135435856739715
 40
0.8065697087596991
 40
1.0
 40
1.0
 40
1.0
 40
1.0
 10
150.0205021862922
 20
100.5422059924577
 30
0.0
 10
150.01456150936
 20
100.5422059924577
 30
0.0
 10
150.003723180965
 20
100.5422059924577
 30
0.0
 10
149.8946219007734
 20
100.5422059924577
 30
0.0
 10
149.7465801857883
 20
100.5422059924578
 30
0.0
 10
149.5529285337386
 20
100.5422059924578
 30
0.0
 10
149.3917391907664
 20
100.5422059924578
 30
0.0
 10
149.3110602308626
 20
100.5422059924578
 30
0.0
  0
LINE
  5
156
330
1F
100
AcDbEntity
  8
0
  6
Continuous
 62
     7
370
    25
100
AcDbLine
 10
150.1121939511
 20
100.6922059925
 30
0.0
 11
150.1121939511
 21
116.3922059925
 31
0.0
  0
LINE
  5
157
330
1F
100
AcDbEntity
  8
0
  6
Continuous
 62
     7
370
    25
100
AcDbLine
 10
141.9133276713
 20
108.5422059925
 30
0.0
 11
145.5586041126
 21
108.5422059925
 31
0.0
  0
SPLINE
  5
158
330
1F
100
AcDbEntity
  8
0
  6
Continuous
 62
     7
370
    25
100
AcDbSpline
210
0.0
220
0.0
230
1.0
 70
     8
 71
     3
 72
    15
 73
    11
 74
     0
 42
0.000000001
 43
0.00000001
 40
0.0
 40
0.0
 40
0.0
 40
0.0
 40
0.1323049664163401
 40
0.2645725257576541
 40
0.3997989469058928
 40
0.5350009659368333
 40
0.6501921044151404
 40
0.7654012116808011
 40
0.8826892657702318
 40
1.0
 40
1.0
 40
1.0
 40
1.0
 10
141.9133276712521
 20
108.5422059924577
 30
0.0
 10
141.804556143709
 20
108.8878371088149
 30
0.0
 10
141.5870438420009
 20
109.5790016199588
 30
0.0
 10
141.3530086492053
 20
110.643333704461
 30
0.0
 10
141.2122893932563
 20
111.7277285777598
 30
0.0
 10
141.1844201095327
 20
112.7728441434596
 30
0.0
 10
141.2567219078872
 20
113.7614990943221
 30
0.0
 10
141.4048718878663
 20
114.6945477305857
 30
0.0
 10
141.6221920465709
 20
115.6233778046173
 30
0.0
 10
141.8162762085796
 20
116.2359101907249
 30
0.0
 10
141.9133276712521
 20
116.5422059924577
 30
0.0
  0
LINE
  5
159
330
1F
100
AcDbEntity
  8
0
  6
Continuous
 62
     7
370
    25
100
AcDbLine
 10
141.9133276713
 20
116.5422059925
 30
0.0
 11
145.5586041126
 21
116.5422059925
 31
0.0
  0
LINE
  5
15A
330
1F
100
AcDbEntity
  8
0
  6
Continuous
 62
     7
370
    25
100
AcDbLine
 10
145.6121939511
 20
116.1834583468
 30
0.0
 11
145.5586041126
 21
116.5422059925
 31
0.0
  0
LINE
  5
15B
330
1F
100
AcDbEntity
  8
0
  6
Continuous
 62
     7
370
    25
100
AcDbLine
 10
145.6657837895
 20
116.5422059925
 30
0.0
 11
145.6121939511
 21
116.1834583468
 31
0.0
  0
LINE
  5
15C
330
1F
100
AcDbEntity
  8
0
  6
Continuous
 62
     7
370
    25
100
AcDbLine
 10
145.6657837895
 20
116.5422059925
 30
0.0
 11
149.3110602309
 21
116.5422059925
 31
0.0
  0
LINE
  5
15D
330
1F
100
AcDbEntity
  8
0
  6
Continuous
 62
     7
370
    25
100
AcDbLine
 10
145.6657837895
 20
108.5422059925
 30
0.0
 11
149.3110602309
 21
108.5422059925
 31
0.0
  0
LINE
  5
15E
330
1F
100
AcDbEntity
  8
0
  6
Continuous
 62
     7
370
    25
100
AcDbLine
 10
145.6121939511
 20
108.9009536381
 30
0.0
 11
145.6657837895
 21
108.5422059925
 31
0.0
  0
LINE
  5
15F
330
1F
100
AcDbEntity
  8
0
  6
Continuous
 62
     7
370
    25
100
AcDbLine
 10
145.5586041126
 20
108.5422059925
 30
0.0
 11
145.6121939511
 21
108.9009536381
 31
0.0
  0
SPLINE
  5
160
330
1F
100
AcDbEntity
  8
0
  6
Continuous
 62
     7
370
    25
100
AcDbSpline
210
0.0
220
0.0
230
1.0
 70
    24
 71
     3
 72
    12
 73
     8
 74
     0
 42
0.000000001
 43
0.00000001
 40
0.0
 40
0.0
 40
0.0
 40
0.0
 40
0.2313810520039043
 40
0.4221377217834618
 40
0.6135435856739715
 40
0.8065697087596991
 40
1.0
 40
1.0
 40
1.0
 40
1.0
 10
141.2038857158226
 20
100.5422059924577
 30
0.0
 10
141.2098263927548
 20
100.5422059924577
 30
0.0
 10
141.2206647211497
 20
100.5422059924577
 30
0.0
 10
141.3297660013413
 20
100.5422059924577
 30
0.0
 10
141.4778077163265
 20
100.5422059924578
 30
0.0
 10
141.6714593683762
 20
100.5422059924578
 30
0.0
 10
141.8326487113484
 20
100.5422059924578
 30
0.0
 10
141.9133276712521
 20
100.5422059924578
 30
0.0
  0
SPLINE
  5
161
330
1F
100
AcDbEntity
  8
0
  6
Continuous
 62
     7
370
    25
100
AcDbSpline
210
0.0
220
0.0
230
1.0
 70
    24
 71
     3
 72
    12
 73
     8
 74
     0
 42
0.000000001
 43
0.00000001
 40
0.0
 40
0.0
 40
0.0
 40
0.0
 40
0.1910462528605298
 40
0.3824439813440483
 40
0.5752172259134485
 40
0.7686153118707709
 40
1.0
 40
1.0
 40
1.0
 40
1.0
 10
141.9133276712521
 20
116.5422059924577
 30
0.0
 10
141.833603849021
 20
116.5422059924577
 30
0.0
 10
141.6740095333749
 20
116.5422059924577
 30
0.0
 10
141.4805657271333
 20
116.5422059924577
 30
0.0
 10
141.3309600799987
 20
116.5422059924577
 30
0.0
 10
141.2210935603787
 20
116.5422059924577
 30
0.0
 10
141.2089710063705
 20
116.5422059924577
 30
0.0
 10
141.2023676939255
 20
116.5422059924577
 30
0.0
  0
SPLINE
  5
162
330
1F
100
AcDbEntity
  8
0
  6
Continuous
 62
     7
370
    25
100
AcDbSpline
210
0.0
220
0.0
230
1.0
 70
     8
 71
     3
 72
    15
 73
    11
 74
     0
 42
0.000000001
 43
0.00000001
 40
0.0
 40
0.0
 40
0.0
 40
0.0
 40
0.1323049664163416
 40
0.2645725257576573
 40
0.3997989469058977
 40
0.5350009659368399
 40
0.6501921044151454
 40
0.7654012116808045
 40
0.8826892657702334
 40
1.0
 40
1.0
 40
1.0
 40
1.0
 10
141.9133276712521
 20
100.5422059924578
 30
0.0
 10
141.804556143709
 20
100.8878371088149
 30
0.0
 10
141.5870438420009
 20
101.5790016199588
 30
0.0
 10
141.3530086492053
 20
102.6433337044611
 30
0.0
 10
141.2122893932563
 20
103.7277285777599
 30
0.0
 10
141.1844201095328
 20
104.7728441434597
 30
0.0
 10
141.2567219078872
 20
105.7614990943221
 30
0.0
 10
141.4048718878663
 20
106.6945477305858
 30
0.0
 10
141.6221920465709
 20
107.6233778046173
 30
0.0
 10
141.8162762085796
 20
108.2359101907249
 30
0.0
 10
141.9133276712521
 20
108.5422059924577
 30
0.0
  0
LINE
  5
163
330
1F
100
AcDbEntity
  8
0
  6
Continuous
 62
     7
370
    25
100
AcDbLine
 10
141.1121939511
 20
100.6922059925
 30
0.0
 11
141.1121939511
 21
116.3922059925
 31
0.0
  0
LINE
  5
164
330
1F
100
AcDbEntity
  8
0
  6
Continuous
 62
     7
370
    25
100
AcDbLine
 10
145.6121939511
 20
108.1834583468
 30
0.0
 11
145.5586041126
 21
108.5422059925
 31
0.0
  0
LINE
  5
165
330
1F
100
AcDbEntity
  8
0
  6
Continuous
 62
     7
370
    25
100
AcDbLine
 10
145.6121939511
 20
108.1834583468
 30
0.0
 11
145.6121939511
 21
108.9009536381
 31
0.0
  0
LINE
  5
166
330
1F
100
AcDbEntity
  8
0
  6
Continuous
 62
     7
370
    25
100
AcDbLine
 10
145.6657837895
 20
108.5422059925
 30
0.0
 11
145.6121939511
 21
108.1834583468
 31
0.0
  0
LINE
  5
167
330
1F
100
AcDbEntity
  8
0
  6
Continuous
 62
     7
370
    25
100
AcDbLine
 10
141.9133276713
 20
100.5422059925
 30
0.0
 11
145.5586041126
 21
100.5422059925
 31
0.0
  0
LINE
  5
168
330
1F
100
AcDbEntity
  8
0
  6
Continuous
 62
     7
370
    25
100
AcDbLine
 10
145.6657837895
 20
100.5422059925
 30
0.0
 11
149.3110602309
 21
100.5422059925
 31
0.0
  0
LINE
  5
169
330
1F
100
AcDbEntity
  8
0
  6
Continuous
 62
     7
370
    25
100
AcDbLine
 10
145.6121939511
 20
100.9009536381
 30
0.0
 11
145.6657837895
 21
100.5422059925
 31
0.0
  0
LINE
  5
16A
330
1F
100
AcDbEntity
  8
0
  6
Continuous
 62
     7
370
    25
100
AcDbLine
 10
145.5586041126
 20
100.5422059925
 30
0.0
 11
145.6121939511
 21
100.9009536381
 31
0.0
  0
LINE
  5
16B
330
1F
100
AcDbEntity
  8
0
  6
Continuous
 62
     7
370
    25
100
AcDbLine
 10
139.1121939511
 20
100.9922059925
 30
0.0
 11
139.1121939511
 21
116.0922059925
 31
0.0
  0
LINE
  5
16C
330
1F
100
AcDbEntity
  8
0
  6
Continuous
 62
     7
370
    25
100
AcDbLine
 10
152.1121939511
 20
116.0922059925
 30
0.0
 11
152.1121939511
 21
100.9922059925
 31
0.0
  0
LINE
  5
16D
330
1F
100
AcDbEntity
  8
0
  6
Continuous
 62
     7
370
    25
100
AcDbLine
 10
145.6121939511
 20
100.5422059925
 30
0.0
 11
145.6121939511
 21
100.9009536381
 31
0.0
  0
LINE
  5
16E
330
1F
100
AcDbEntity
  8
0
  6
Continuous
 62
     7
370
    25
100
AcDbLine
 10
145.6121939511
 20
100.5422059925
 30
0.0
 11
145.5586041126
 21
100.5422059925
 31
0.0
  0
LINE
  5
16F
330
1F
100
AcDbEntity
  8
0
  6
Continuous
 62
     7
370
    25
100
AcDbLine
 10
145.6657837895
 20
100.5422059925
 30
0.0
 11
145.6121939511
 21
100.5422059925
 31
0.0
  0
LINE
  5
170
330
1F
100
AcDbEntity
  8
0
  6
Continuous
 62
     7
370
    25
100
AcDbLine
 10
145.5586041126
 20
116.5422059925
 30
0.0
 11
145.6121939511
 21
116.5422059925
 31
0.0
  0
LINE
  5
171
330
1F
100
AcDbEntity
  8
0
  6
Continuous
 62
     7
370
    25
100
AcDbLine
 10
145.6121939511
 20
116.1834583468
 30
0.0
 11
145.6121939511
 21
116.5422059925
 31
0.0
  0
LINE
  5
172
330
1F
100
AcDbEntity
  8
0
  6
Continuous
 62
     7
370
    25
100
AcDbLine
 10
145.6121939511
 20
116.5422059925
 30
0.0
 11
145.6657837895
 21
116.5422059925
 31
0.0
  0
LINE
  5
173
330
1F
100
AcDbEntity
  8
0
  6
Continuous
 62
     7
370
    25
100
AcDbLine
 10
130.9475497576
 20
108.5422059925
 30
0.0
 11
133.3939599191
 21
108.5422059925
 31
0.0
  0
LINE
  5
174
330
1F
100
AcDbEntity
  8
0
  6
Continuous
 62
     7
370
    25
100
AcDbLine
 10
130.9475497576
 20
108.5422059925
 30
0.0
 11
130.9475497576
 21
115.5422059925
 31
0.0
  0
LINE
  5
175
330
1F
100
AcDbEntity
  8
0
  6
Continuous
 62
     7
370
    25
100
AcDbLine
 10
130.9475497576
 20
115.5422059925
 30
0.0
 11
133.3939599191
 21
115.5422059925
 31
0.0
  0
SPLINE
  5
176
330
1F
100
AcDbEntity
  8
0
  6
Continuous
 62
     7
370
    25
100
AcDbSpline
210
0.0
220
0.0
230
1.0
 70
     8
 71
     3
 72
     8
 73
     4
 74
     0
 42
0.000000001
 43
0.00000001
 40
0.0
 40
0.0
 40
0.0
 40
0.0
 40
1.0
 40
1.0
 40
1.0
 40
1.0
 10
133.4475497575938
 20
115.1814939482534
 30
0.0
 10
133.4304273417163
 20
115.3018391898718
 30
0.0
 10
133.4125444521981
 20
115.4220736820905
 30
0.0
 10
133.3939599191076
 20
115.5422059924577
 30
0.0
  0
SPLINE
  5
177
330
1F
100
AcDbEntity
  8
0
  6
Continuous
 62
     7
370
    25
100
AcDbSpline
210
0.0
220
0.0
230
1.0
 70
     8
 71
     3
 72
     8
 73
     4
 74
     0
 42
0.000000001
 43
0.00000001
 40
0.0
 40
0.0
 40
0.0
 40
0.0
 40
1.0
 40
1.0
 40
1.0
 40
1.0
 10
133.50113959608
 20
115.5422059924577
 30
0.0
 10
133.4825484571203
 20
115.4220309810809
 30
0.0
 10
133.4646659263375
 20
115.3017952817672
 30
0.0
 10
133.4475497575938
 20
115.1814939482534
 30
0.0
  0
LINE
  5
178
330
1F
100
AcDbEntity
  8
0
  6
Continuous
 62
     7
370
    25
100
AcDbLine
 10
133.5011395961
 20
115.5422059925
 30
0.0
 11
135.177997408
 21
115.5422059925
 31
0.0
  0
SPLINE
  5
179
330
1F
100
AcDbEntity
  8
0
  6
Continuous
 62
     7
370
    25
100
AcDbSpline
210
0.0
220
0.0
230
1.0
 70
     8
 71
     3
 72
    16
 73
    12
 74
     0
 42
0.000000001
 43
0.00000001
 40
0.0
 40
0.0
 40
0.0
 40
0.0
 40
0.25
 40
0.25
 40
0.5
 40
0.5
 40
0.625
 40
0.625
 40
0.75
 40
0.75
 40
1.0
 40
1.0
 40
1.0
 40
1.0
 10
135.1779974079576
 20
115.5422059924578
 30
0.0
 10
135.3684918789424
 20
114.9707225795034
 30
0.0
 10
135.5254938921555
 20
114.395072477571
 30
0.0
 10
135.7429927029935
 20
113.2317663701426
 30
0.0
 10
135.8027720640636
 20
112.6440211106717
 30
0.0
 10
135.8034285649175
 20
111.7513294574858
 30
0.0
 10
135.7888147984341
 20
111.4523657785691
 30
0.0
 10
135.7318289405572
 20
110.8609840286346
 30
0.0
 10
135.689514671298
 20
110.5672758383154
 30
0.0
 10
135.5261198514078
 20
109.6913803437809
 30
0.0
 10
135.3687293240943
 20
109.1144017408687
 30
0.0
 10
135.1779974079573
 20
108.5422059924577
 30
0.0
  0
LINE
  5
17A
330
1F
100
AcDbEntity
  8
0
  6
Continuous
 62
     7
370
    25
100
AcDbLine
 10
133.5011395961
 20
108.5422059925
 30
0.0
 11
135.177997408
 21
108.5422059925
 31
0.0
  0
SPLINE
  5
17B
330
1F
100
AcDbEntity
  8
0
  6
Continuous
 62
     7
370
    25
100
AcDbSpline
210
0.0
220
0.0
230
1.0
 70
     8
 71
     3
 72
     8
 73
     4
 74
     0
 42
0.000000001
 43
0.00000001
 40
0.0
 40
0.0
 40
0.0
 40
0.0
 40
1.0
 40
1.0
 40
1.0
 40
1.0
 10
133.4475497575938
 20
108.9029180366621
 30
0.0
 10
133.4646721734713
 20
108.7825727950436
 30
0.0
 10
133.4825550629895
 20
108.662338302825
 30
0.0
 10
133.50113959608
 20
108.5422059924577
 30
0.0
  0
SPLINE
  5
17C
330
1F
100
AcDbEntity
  8
0
  6
Continuous
 62
     7
370
    25
100
AcDbSpline
210
0.0
220
0.0
230
1.0
 70
     8
 71
     3
 72
     8
 73
     4
 74
     0
 42
0.000000001
 43
0.00000001
 40
0.0
 40
0.0
 40
0.0
 40
0.0
 40
1.0
 40
1.0
 40
1.0
 40
1.0
 10
133.3939599191076
 20
108.5422059924577
 30
0.0
 10
133.4125510580673
 20
108.6623810038346
 30
0.0
 10
133.4304335888501
 20
108.7826167031482
 30
0.0
 10
133.4475497575938
 20
108.9029180366621
 30
0.0
  0
SPLINE
  5
17D
330
1F
100
AcDbEntity
  8
0
  6
Continuous
 62
     7
370
    25
100
AcDbSpline
210
0.0
220
0.0
230
1.0
 70
    24
 71
     3
 72
    11
 73
     7
 74
     0
 42
0.000000001
 43
0.00000001
 40
0.0
 40
0.0
 40
0.0
 40
0.0
 40
0.2350785575676809
 40
0.4249577317004125
 40
0.6154752381569607
 40
1.0
 40
1.0
 40
1.0
 40
1.0
 10
135.7993268094008
 20
115.5422059924577
 30
0.0
 10
135.7937251752645
 20
115.5422059924577
 30
0.0
 10
135.7835989529454
 20
115.5422059924577
 30
0.0
 10
135.6865133067492
 20
115.5422059924577
 30
0.0
 10
135.5166852769422
 20
115.5422059924577
 30
0.0
 10
135.3137189032458
 20
115.5422059924577
 30
0.0
 10
135.1779974079571
 20
115.5422059924577
 30
0.0
  0
SPLINE
  5
17E
330
1F
100
AcDbEntity
  8
0
  6
Continuous
 62
     7
370
    25
100
AcDbSpline
210
0.0
220
0.0
230
1.0
 70
    24
 71
     3
 72
    11
 73
     7
 74
     0
 42
0.000000001
 43
0.00000001
 40
0.0
 40
0.0
 40
0.0
 40
0.0
 40
0.3805803846722088
 40
0.5724423905833219
 40
0.7649185414905217
 40
1.0
 40
1.0
 40
1.0
 40
1.0
 10
135.1779974079571
 20
101.5422059924578
 30
0.0
 10
135.3124044911781
 20
101.5422059924578
 30
0.0
 10
135.514570223121
 20
101.5422059924578
 30
0.0
 10
135.6854682695195
 20
101.5422059924577
 30
0.0
 10
135.7832247516562
 20
101.5422059924577
 30
0.0
 10
135.7944840626603
 20
101.5422059924577
 30
0.0
 10
135.8006747026919
 20
101.5422059924577
 30
0.0
  0
SPLINE
  5
17F
330
1F
100
AcDbEntity
  8
0
  6
Continuous
 62
     7
370
    25
100
AcDbSpline
210
0.0
220
0.0
230
1.0
 70
     8
 71
     3
 72
    16
 73
    12
 74
     0
 42
0.000000001
 43
0.00000001
 40
0.0
 40
0.0
 40
0.0
 40
0.0
 40
0.25
 40
0.25
 40
0.5
 40
0.5
 40
0.625
 40
0.625
 40
0.75
 40
0.75
 40
1.0
 40
1.0
 40
1.0
 40
1.0
 10
135.1779974079576
 20
108.5422059924578
 30
0.0
 10
135.3684918789424
 20
107.9707225795034
 30
0.0
 10
135.5254938921555
 20
107.395072477571
 30
0.0
 10
135.7429927029935
 20
106.2317663701426
 30
0.0
 10
135.8027720640636
 20
105.6440211106717
 30
0.0
 10
135.8034285649175
 20
104.7513294574859
 30
0.0
 10
135.788814798434
 20
104.4523657785691
 30
0.0
 10
135.7318289405572
 20
103.8609840286346
 30
0.0
 10
135.689514671298
 20
103.5672758383154
 30
0.0
 10
135.5261198514078
 20
102.6913803437809
 30
0.0
 10
135.3687293240943
 20
102.1144017408687
 30
0.0
 10
135.1779974079573
 20
101.5422059924577
 30
0.0
  0
LINE
  5
180
330
1F
100
AcDbEntity
  8
0
  6
Continuous
 62
     7
370
    25
100
AcDbLine
 10
135.9475497576
 20
115.2922059925
 30
0.0
 11
135.9475497576
 21
101.7922059925
 31
0.0
  0
SPLINE
  5
181
330
1F
100
AcDbEntity
  8
0
  6
Continuous
 62
     7
370
    25
100
AcDbSpline
210
0.0
220
0.0
230
1.0
 70
     8
 71
     3
 72
     8
 73
     4
 74
     0
 42
0.000000001
 43
0.00000001
 40
0.0
 40
0.0
 40
0.0
 40
0.0
 40
1.0
 40
1.0
 40
1.0
 40
1.0
 10
133.50113959608
 20
108.5422059924577
 30
0.0
 10
133.4825484571203
 20
108.4220309810808
 30
0.0
 10
133.4646659263375
 20
108.3017952817672
 30
0.0
 10
133.4475497575938
 20
108.1814939482533
 30
0.0
  0
LINE
  5
182
330
1F
100
AcDbEntity
  8
0
  6
Continuous
 62
     7
370
    25
100
AcDbLine
 10
133.4475497576
 20
108.1814939483
 30
0.0
 11
133.4475497576
 21
108.9029180367
 31
0.0
  0
SPLINE
  5
183
330
1F
100
AcDbEntity
  8
0
  6
Continuous
 62
     7
370
    25
100
AcDbSpline
210
0.0
220
0.0
230
1.0
 70
     8
 71
     3
 72
     8
 73
     4
 74
     0
 42
0.000000001
 43
0.00000001
 40
0.0
 40
0.0
 40
0.0
 40
0.0
 40
1.0
 40
1.0
 40
1.0
 40
1.0
 10
133.4475497575938
 20
108.1814939482533
 30
0.0
 10
133.4304273417163
 20
108.3018391898718
 30
0.0
 10
133.4125444521981
 20
108.4220736820904
 30
0.0
 10
133.3939599191076
 20
108.5422059924577
 30
0.0
  0
LINE
  5
184
330
1F
100
AcDbEntity
  8
0
  6
Continuous
 62
     7
370
    25
100
AcDbLine
 10
130.9475497576
 20
101.5422059925
 30
0.0
 11
133.3939599191
 21
101.5422059925
 31
0.0
  0
LINE
  5
185
330
1F
100
AcDbEntity
  8
0
  6
Continuous
 62
     7
370
    25
100
AcDbLine
 10
133.5011395961
 20
101.5422059925
 30
0.0
 11
135.177997408
 21
101.5422059925
 31
0.0
  0
SPLINE
  5
186
330
1F
100
AcDbEntity
  8
0
  6
Continuous
 62
     7
370
    25
100
AcDbSpline
210
0.0
220
0.0
230
1.0
 70
     8
 71
     3
 72
     8
 73
     4
 74
     0
 42
0.000000001
 43
0.00000001
 40
0.0
 40
0.0
 40
0.0
 40
0.0
 40
1.0
 40
1.0
 40
1.0
 40
1.0
 10
133.4475497575938
 20
101.9029180366621
 30
0.0
 10
133.4646721734713
 20
101.7825727950437
 30
0.0
 10
133.4825550629895
 20
101.662338302825
 30
0.0
 10
133.50113959608
 20
101.5422059924578
 30
0.0
  0
SPLINE
  5
187
330
1F
100
AcDbEntity
  8
0
  6
Continuous
 62
     7
370
    25
100
AcDbSpline
210
0.0
220
0.0
230
1.0
 70
     8
 71
     3
 72
     8
 73
     4
 74
     0
 42
0.000000001
 43
0.00000001
 40
0.0
 40
0.0
 40
0.0
 40
0.0
 40
1.0
 40
1.0
 40
1.0
 40
1.0
 10
133.3939599191076
 20
101.5422059924578
 30
0.0
 10
133.4125510580673
 20
101.6623810038347
 30
0.0
 10
133.4304335888501
 20
101.7826167031483
 30
0.0
 10
133.4475497575938
 20
101.9029180366621
 30
0.0
  0
LINE
  5
188
330
1F
100
AcDbEntity
  8
0
  6
Continuous
 62
     7
370
    25
100
AcDbLine
 10
130.9475497576
 20
101.5422059925
 30
0.0
 11
130.9475497576
 21
108.5422059925
 31
0.0
  0
LINE
  5
189
330
1F
100
AcDbEntity
  8
0
  6
Continuous
 62
     7
370
    25
100
AcDbLine
 10
121.0369096506
 20
114.9984984891
 30
0.0
 11
121.0369096506
 21
102.0859134958
 31
0.0
  0
LINE
  5
18A
330
1F
100
AcDbEntity
  8
0
  6
Continuous
 62
     7
370
    25
100
AcDbLine
 10
138.9475497576
 20
115.1207059925
 30
0.0
 11
138.9475497576
 21
101.9637059925
 31
0.0
  0
LINE
  5
18B
330
1F
100
AcDbEntity
  8
0
  6
Continuous
 62
     7
370
    25
100
AcDbLine
 10
137.9475497576
 20
102.9637059925
 30
0.0
 11
137.9475497576
 21
114.1207059925
 31
0.0
  0
LINE
  5
18C
330
1F
100
AcDbEntity
  8
0
  6
Continuous
 62
     7
370
    25
100
AcDbLine
 10
118.9475497576
 20
103.2922059925
 30
0.0
 11
118.9475497576
 21
113.7922059925
 31
0.0
  0
SPLINE
  5
18D
330
1F
100
AcDbEntity
  8
0
  6
Continuous
 62
     7
370
    25
100
AcDbSpline
210
0.0
220
0.0
230
1.0
 70
    24
 71
     3
 72
     8
 73
     4
 74
     0
 42
0.000000001
 43
0.00000001
 40
0.0
 40
0.0
 40
0.0
 40
0.0
 40
1.0
 40
1.0
 40
1.0
 40
1.0
 10
133.4475497575938
 20
101.5422059924578
 30
0.0
 10
133.4304276631988
 20
101.5422059924578
 30
0.0
 10
133.4125447919092
 20
101.5422059924578
 30
0.0
 10
133.3939599191076
 20
101.5422059924578
 30
0.0
  0
LINE
  5
18E
330
1F
100
AcDbEntity
  8
0
  6
Continuous
 62
     7
370
    25
100
AcDbLine
 10
133.4475497576
 20
101.5422059925
 30
0.0
 11
133.4475497576
 21
101.9029180367
 31
0.0
  0
SPLINE
  5
18F
330
1F
100
AcDbEntity
  8
0
  6
Continuous
 62
     7
370
    25
100
AcDbSpline
210
0.0
220
0.0
230
1.0
 70
    24
 71
     3
 72
     8
 73
     4
 74
     0
 42
0.000000001
 43
0.00000001
 40
0.0
 40
0.0
 40
0.0
 40
0.0
 40
1.0
 40
1.0
 40
1.0
 40
1.0
 10
133.50113959608
 20
101.5422059924578
 30
0.0
 10
133.4825474879268
 20
101.5422059924578
 30
0.0
 10
133.4646650105333
 20
101.5422059924578
 30
0.0
 10
133.4475497575938
 20
101.5422059924578
 30
0.0
  0
SPLINE
  5
190
330
1F
100
AcDbEntity
  8
0
  6
Continuous
 62
     7
370
    25
100
AcDbSpline
210
0.0
220
0.0
230
1.0
 70
    24
 71
     3
 72
     8
 73
     4
 74
     0
 42
0.000000001
 43
0.00000001
 40
0.0
 40
0.0
 40
0.0
 40
0.0
 40
1.0
 40
1.0
 40
1.0
 40
1.0
 10
133.3939599191076
 20
115.5422059924577
 30
0.0
 10
133.4125520272608
 20
115.5422059924577
 30
0.0
 10
133.4304345046543
 20
115.5422059924577
 30
0.0
 10
133.4475497575938
 20
115.5422059924577
 30
0.0
  0
LINE
  5
191
330
1F
100
AcDbEntity
  8
0
  6
Continuous
 62
     7
370
    25
100
AcDbLine
 10
133.4475497576
 20
115.1814939483
 30
0.0
 11
133.4475497576
 21
115.5422059925
 31
0.0
  0
SPLINE
  5
192
330
1F
100
AcDbEntity
  8
0
  6
Continuous
 62
     7
370
    25
100
AcDbSpline
210
0.0
220
0.0
230
1.0
 70
    24
 71
     3
 72
     8
 73
     4
 74
     0
 42
0.000000001
 43
0.00000001
 40
0.0
 40
0.0
 40
0.0
 40
0.0
 40
1.0
 40
1.0
 40
1.0
 40
1.0
 10
133.4475497575938
 20
115.5422059924577
 30
0.0
 10
133.4646718519888
 20
115.5422059924577
 30
0.0
 10
133.4825547232784
 20
115.5422059924577
 30
0.0
 10
133.50113959608
 20
115.5422059924577
 30
0.0
  0
LINE
  5
193
330
1F
100
AcDbEntity
  8
0
  6
Continuous
 62
     8
370
    25
100
AcDbLine
 10
177.4084379941
 20
105.6090348339
 30
0.0
 11
177.4084379941
 21
111.475377151
 31
0.0
  0
LINE
  5
194
330
1F
100
AcDbEntity
  8
0
  6
Continuous
 62
     8
370
    25
100
AcDbLine
 10
139.4121939511
 20
116.3922059925
 30
0.0
 11
139.4121939511
 21
100.6922059925
 31
0.0
  0
LINE
  5
195
330
1F
100
AcDbEntity
  8
0
  6
Continuous
 62
     8
370
    25
100
AcDbLine
 10
151.8121939511
 20
100.6922059925
 30
0.0
 11
151.8121939511
 21
116.3922059925
 31
0.0
  0
LINE
  5
196
330
1F
100
AcDbEntity
  8
0
  6
Continuous
 62
     7
370
     0
100
AcDbLine
 10
119.8127754802
 20
114.2917442963
 30
0.0
 11
130.4475497576
 21
114.6240809925
 31
0.0
  0
LINE
  5
197
330
1F
100
AcDbEntity
  8
0
  6
Continuous
 62
     7
370
     0
100
AcDbLine
 10
119.8127754802
 20
102.7926676886
 30
0.0
 11
130.4475497576
 21
102.4603309925
 31
0.0
  0
LINE
  5
198
330
1F
100
AcDbEntity
  8
0
  6
Continuous
 62
     7
370
     0
100
AcDbLine
 10
130.4475497576
 20
101.7918309925
 30
0.0
 11
130.4475497576
 21
115.2925809925
 31
0.0
  0
LINE
  5
199
330
1F
100
AcDbEntity
  8
0
  6
Continuous
 62
     7
370
     0
100
AcDbLine
 10
119.8127754802
 20
114.2917442963
 30
0.0
 11
130.4475497576
 21
114.6240809925
 31
0.0
  0
LINE
  5
19A
330
1F
100
AcDbEntity
  8
0
  6
Continuous
 62
     7
370
     0
100
AcDbLine
 10
119.8127754802
 20
102.7926676886
 30
0.0
 11
130.4475497576
 21
102.4603309925
 31
0.0
  0
LINE
  5
19B
330
1F
100
AcDbEntity
  8
0
  6
Continuous
 62
     7
370
     0
100
AcDbLine
 10
130.4475497576
 20
101.7918309925
 30
0.0
 11
130.4475497576
 21
115.2925809925
 31
0.0
  0
LINE
  5
19C
330
1F
100
AcDbEntity
  8
0
  6
CENTERX2
 62
     7
370
    18
100
AcDbLine
 10
116.9475497576
 20
108.5422059925
 30
0.0
 11
132.9475497576
 21
108.5422059925
 31
0.0
  0
LINE
  5
19D
330
1F
100
AcDbEntity
  8
0
  6
CENTERX2
 62
     7
370
    18
100
AcDbLine
 10
133.9475497576
 20
108.5422059925
 30
0.0
 11
179.4084379941
 21
108.5422059925
 31
0.0
  0
ENDSEC
  0
SECTION
  2
OBJECTS
  0
DICTIONARY
  5
C
330
0
100
AcDbDictionary
281
     1
  3
ACAD_GROUP
350
D
  3
ACAD_LAYOUT
350
1A
  3
ACAD_MLINESTYLE
350
17
  3
ACAD_PLOTSETTINGS
350
19
  3
ACAD_PLOTSTYLENAME
350
E
  3
ACAD_SCALELIST
350
47
  0
DICTIONARY
  5
D
102
{ACAD_REACTORS
330
C
102
}
330
C
100
AcDbDictionary
281
     1
  0
DICTIONARY
  5
1A
102
{ACAD_REACTORS
330
C
102
}
330
C
100
AcDbDictionary
281
     1
  3
Layout1
350
1E
  3
Layout2
350
26
  3
Model
350
22
  0
DICTIONARY
  5
17
102
{ACAD_REACTORS
330
C
102
}
330
C
100
AcDbDictionary
281
     1
  3
Standard
350
18
  0
DICTIONARY
  5
19
102
{ACAD_REACTORS
330
C
102
}
330
C
100
AcDbDictionary
281
     1
  0
ACDBDICTIONARYWDFLT
  5
E
102
{ACAD_REACTORS
330
C
102
}
330
C
100
AcDbDictionary
281
     1
  3
Normal
350
F
100
AcDbDictionaryWithDefault
340
F
  0
DICTIONARY
  5
47
102
{ACAD_REACTORS
330
C
102
}
330
C
100
AcDbDictionary
281
     1
  3
A0
350
48
  3
A1
350
49
  3
A2
350
4A
  3
A3
350
4B
  3
A4
350
4C
  3
A5
350
4D
  3
A6
350
4E
  3
A7
350
4F
  3
A8
350
50
  3
A9
350
51
  3
B0
350
52
  3
B1
350
53
  3
B2
350
54
  3
B3
350
55
  3
B4
350
56
  3
B5
350
57
  3
B6
350
58
  3
B7
350
59
  3
B8
350
5A
  3
B9
350
5B
  3
C0
350
5C
  3
C1
350
5D
  3
C2
350
5E
  3
C3
350
5F
  3
C4
350
60
  3
C5
350
61
  3
C6
350
62
  3
C7
350
63
  3
C8
350
64
  3
C9
350
65
  3
D0
350
66
  3
D1
350
67
  3
D2
350
68
  0
LAYOUT
  5
1E
102
{ACAD_REACTORS
330
1A
102
}
330
1A
100
AcDbPlotSettings
  1

  2
none_device
  4

  6

 40
0.0
 41
0.0
 42
0.0
 43
0.0
 44
0.0
 45
0.0
 46
0.0
 47
0.0
 48
0.0
 49
0.0
140
0.0
141
0.0
142
1.0
143
1.0
 70
   688
 72
     1
 73
     0
 74
     5
  7

 75
    16
147
1.0
148
0.0
149
0.0
100
AcDbLayout
  1
Layout1
 70
     1
 71
     1
 10
0.0
 20
0.0
 11
420.0
 21
297.0
 12
0.0
 22
0.0
 32
0.0
 14
1.0000000000E+20
 24
1.0000000000E+20
 34
1.0000000000E+20
 15
-1.0000000000E+20
 25
-1.0000000000E+20
 35
-1.0000000000E+20
146
0.0
 13
0.0
 23
0.0
 33
0.0
 16
1.0
 26
0.0
 36
0.0
 17
0.0
 27
1.0
 37
0.0
 76
     0
330
1B
  0
LAYOUT
  5
26
102
{ACAD_REACTORS
330
1A
102
}
330
1A
100
AcDbPlotSettings
  1

  2
none_device
  4

  6

 40
0.0
 41
0.0
 42
0.0
 43
0.0
 44
0.0
 45
0.0
 46
0.0
 47
0.0
 48
0.0
 49
0.0
140
0.0
141
0.0
142
1.0
143
1.0
 70
   688
 72
     1
 73
     0
 74
     5
  7

 75
    16
147
1.0
148
0.0
149
0.0
100
AcDbLayout
  1
Layout2
 70
     1
 71
     2
 10
0.0
 20
0.0
 11
0.0
 21
0.0
 12
0.0
 22
0.0
 32
0.0
 14
0.0
 24
0.0
 34
0.0
 15
0.0
 25
0.0
 35
0.0
146
0.0
 13
0.0
 23
0.0
 33
0.0
 16
1.0
 26
0.0
 36
0.0
 17
0.0
 27
1.0
 37
0.0
 76
     0
330
23
  0
LAYOUT
  5
22
102
{ACAD_REACTORS
330
1A
102
}
330
1A
100
AcDbPlotSettings
  1

  2
none_device
  4
Letter_(8.50_x_11.00_Inches)
  6

 40
6.35
 41
6.35
 42
6.35000508
 43
6.35000508
 44
215.9
 45
279.4
 46
0.0
 47
0.0
 48
0.0
 49
0.0
140
0.0
141
0.0
142
1.0
143
1.0
 70
  1712
 72
     1
 73
     0
 74
     0
  7

 75
     0
147
1.0
148
0.0
149
0.0
100
AcDbLayout
  1
Model
 70
     1
 71
     0
 10
0.0
 20
0.0
 11
431.8
 21
279.4
 12
0.0
 22
0.0
 32
0.0
 14
0.0
 24
0.0
 34
0.0
 15
431.8
 25
279.4
 35
0.0
146
0.0
 13
0.0
 23
0.0
 33
0.0
 16
1.0
 26
0.0
 36
0.0
 17
0.0
 27
1.0
 37
0.0
 76
     0
330
1F
331
29
  0
MLINESTYLE
  5
18
102
{ACAD_REACTORS
330
17
102
}
330
17
100
AcDbMlineStyle
  2
Standard
 70
     0
  3

 62
   256
 51
90.0
 52
90.0
 71
     2
 49
0.5
 62
   256
  6
BYLAYER
 49
-0.5
 62
   256
  6
BYLAYER
  0
ACDBPLACEHOLDER
  5
F
102
{ACAD_REACTORS
330
E
102
}
330
E
  0
SCALE
  5
48
102
{ACAD_REACTORS
330
47
102
}
330
47
100
AcDbScale
 70
     0
300
1:1
140
1.0
141
1.0
290
     1
  0
SCALE
  5
49
102
{ACAD_REACTORS
330
47
102
}
330
47
100
AcDbScale
 70
     0
300
1:2
140
1.0
141
2.0
290
     0
  0
SCALE
  5
4A
102
{ACAD_REACTORS
330
47
102
}
330
47
100
AcDbScale
 70
     0
300
1:4
140
1.0
141
4.0
290
     0
  0
SCALE
  5
4B
102
{ACAD_REACTORS
330
47
102
}
330
47
100
AcDbScale
 70
     0
300
1:5
140
1.0
141
5.0
290
     0
  0
SCALE
  5
4C
102
{ACAD_REACTORS
330
47
102
}
330
47
100
AcDbScale
 70
     0
300
1:8
140
1.0
141
8.0
290
     0
  0
SCALE
  5
4D
102
{ACAD_REACTORS
330
47
102
}
330
47
100
AcDbScale
 70
     0
300
1:10
140
1.0
141
10.0
290
     0
  0
SCALE
  5
4E
102
{ACAD_REACTORS
330
47
102
}
330
47
100
AcDbScale
 70
     0
300
1:16
140
1.0
141
16.0
290
     0
  0
SCALE
  5
4F
102
{ACAD_REACTORS
330
47
102
}
330
47
100
AcDbScale
 70
     0
300
1:20
140
1.0
141
20.0
290
     0
  0
SCALE
  5
50
102
{ACAD_REACTORS
330
47
102
}
330
47
100
AcDbScale
 70
     0
300
1:30
140
1.0
141
30.0
290
     0
  0
SCALE
  5
51
102
{ACAD_REACTORS
330
47
102
}
330
47
100
AcDbScale
 70
     0
300
1:40
140
1.0
141
40.0
290
     0
  0
SCALE
  5
52
102
{ACAD_REACTORS
330
47
102
}
330
47
100
AcDbScale
 70
     0
300
1:50
140
1.0
141
50.0
290
     0
  0
SCALE
  5
53
102
{ACAD_REACTORS
330
47
102
}
330
47
100
AcDbScale
 70
     0
300
1:100
140
1.0
141
100.0
290
     0
  0
SCALE
  5
54
102
{ACAD_REACTORS
330
47
102
}
330
47
100
AcDbScale
 70
     0
300
2:1
140
2.0
141
1.0
290
     0
  0
SCALE
  5
55
102
{ACAD_REACTORS
330
47
102
}
330
47
100
AcDbScale
 70
     0
300
4:1
140
4.0
141
1.0
290
     0
  0
SCALE
  5
56
102
{ACAD_REACTORS
330
47
102
}
330
47
100
AcDbScale
 70
     0
300
8:1
140
8.0
141
1.0
290
     0
  0
SCALE
  5
57
102
{ACAD_REACTORS
330
47
102
}
330
47
100
AcDbScale
 70
     0
300
10:1
140
10.0
141
1.0
290
     0
  0
SCALE
  5
58
102
{ACAD_REACTORS
330
47
102
}
330
47
100
AcDbScale
 70
     0
300
100:1
140
100.0
141
1.0
290
     0
  0
SCALE
  5
59
102
{ACAD_REACTORS
330
47
102
}
330
47
100
AcDbScale
 70
     0
300
1/128" = 1'-0"
140
0.0078125
141
12.0
290
     0
  0
SCALE
  5
5A
102
{ACAD_REACTORS
330
47
102
}
330
47
100
AcDbScale
 70
     0
300
1/64" = 1'-0"
140
0.015625
141
12.0
290
     0
  0
SCALE
  5
5B
102
{ACAD_REACTORS
330
47
102
}
330
47
100
AcDbScale
 70
     0
300
1/32" = 1'-0"
140
0.03125
141
12.0
290
     0
  0
SCALE
  5
5C
102
{ACAD_REACTORS
330
47
102
}
330
47
100
AcDbScale
 70
     0
300
1/16" = 1'-0"
140
0.0625
141
12.0
290
     0
  0
SCALE
  5
5D
102
{ACAD_REACTORS
330
47
102
}
330
47
100
AcDbScale
 70
     0
300
3/32" = 1'-0"
140
0.09375
141
12.0
290
     0
  0
SCALE
  5
5E
102
{ACAD_REACTORS
330
47
102
}
330
47
100
AcDbScale
 70
     0
300
1/8" = 1'-0"
140
0.125
141
12.0
290
     0
  0
SCALE
  5
5F
102
{ACAD_REACTORS
330
47
102
}
330
47
100
AcDbScale
 70
     0
300
3/16" = 1'-0"
140
0.1875
141
12.0
290
     0
  0
SCALE
  5
60
102
{ACAD_REACTORS
330
47
102
}
330
47
100
AcDbScale
 70
     0
300
1/4" = 1'-0"
140
0.25
141
12.0
290
     0
  0
SCALE
  5
61
102
{ACAD_REACTORS
330
47
102
}
330
47
100
AcDbScale
 70
     0
300
3/8" = 1'-0"
140
0.375
141
12.0
290
     0
  0
SCALE
  5
62
102
{ACAD_REACTORS
330
47
102
}
330
47
100
AcDbScale
 70
     0
300
1/2" = 1'-0"
140
0.5
141
12.0
290
     0
  0
SCALE
  5
63
102
{ACAD_REACTORS
330
47
102
}
330
47
100
AcDbScale
 70
     0
300
3/4" = 1'-0"
140
0.75
141
12.0
290
     0
  0
SCALE
  5
64
102
{ACAD_REACTORS
330
47
102
}
330
47
100
AcDbScale
 70
     0
300
1" = 1'-0"
140
1.0
141
12.0
290
     0
  0
SCALE
  5
65
102
{ACAD_REACTORS
330
47
102
}
330
47
100
AcDbScale
 70
     0
300
1-1/2" = 1'-0"
140
1.5
141
12.0
290
     0
  0
SCALE
  5
66
102
{ACAD_REACTORS
330
47
102
}
330
47
100
AcDbScale
 70
     0
300
3" = 1'-0"
140
3.0
141
12.0
290
     0
  0
SCALE
  5
67
102
{ACAD_REACTORS
330
47
102
}
330
47
100
AcDbScale
 70
     0
300
6" = 1'-0"
140
6.0
141
12.0
290
     0
  0
SCALE
  5
68
102
{ACAD_REACTORS
330
47
102
}
330
47
100
AcDbScale
 70
     0
300
1'-0" = 1'-0"
140
12.0
141
12.0
290
     0
  0
ENDSEC
  0
EOF
