  0
SECTION
  2
HEADER
  9
$ACADVER
  1
AC1015
  9
$ACADMAINTVER
 70
     6
  9
$DWGCODEPAGE
  3
DOS932
  9
$INSBASE
 10
0.0
 20
0.0
 30
0.0
  9
$EXTMIN
 10
0.0
 20
0.0
 30
0.0
  9
$EXTMAX
 10
215.9
 20
139.7
 30
0.0
  9
$LIMMIN
 10
0.0
 20
0.0
  9
$LIMMAX
 10
215.9
 20
139.7
  9
$ORTHOMODE
 70
     0
  9
$REGENMODE
 70
     1
  9
$FILLMODE
 70
     1
  9
$QTEXTMODE
 70
     0
  9
$MIRRTEXT
 70
     1
  9
$LTSCALE
 40
0.5
  9
$ATTMODE
 70
     1
  9
$TEXTSIZE
 40
1.75
  9
$TRACEWID
 40
1.0
  9
$TEXTSTYLE
  7
Standard
  9
$CLAYER
  8
0
  9
$CELTYPE
  6
ByLayer
  9
$CECOLOR
 62
   256
  9
$CELTSCALE
 40
1.0
  9
$DISPSILH
 70
     0
  9
$DIMSCALE
 40
1.0
  9
$DIMASZ
 40
1.651
  9
$DIMEXO
 40
0.5
  9
$DIMDLI
 40
3.75
  9
$DIMRND
 40
0.0
  9
$DIMDLE
 40
0.0
  9
$DIMEXE
 40
0.5
  9
$DIMTP
 40
0.0
  9
$DIMTM
 40
0.0
  9
$DIMTXT
 40
1.75
  9
$DIMCEN
 40
2.5
  9
$DIMTSZ
 40
0.0
  9
$DIMTOL
 70
     0
  9
$DIMLIM
 70
     0
  9
$DIMTIH
 70
     1
  9
$DIMTOH
 70
     1
  9
$DIMSE1
 70
     0
  9
$DIMSE2
 70
     0
  9
$DIMTAD
 70
     1
  9
$DIMZIN
 70
     1
  9
$DIMBLK
  1

  9
$DIMASO
 70
     1
  9
$DIMSHO
 70
     1
  9
$DIMPOST
  1

  9
$DIMAPOST
  1

  9
$DIMALT
 70
     0
  9
$DIMALTD
 70
     3
  9
$DIMALTF
 40
0.0393700787
  9
$DIMLFAC
 40
1.0
  9
$DIMTOFL
 70
     1
  9
$DIMTVP
 40
0.0
  9
$DIMTIX
 70
     0
  9
$DIMSOXD
 70
     0
  9
$DIMSAH
 70
     0
  9
$DIMBLK1
  1

  9
$DIMBLK2
  1

  9
$DIMSTYLE
  2
ISO-25
  9
$DIMCLRD
 70
     0
  9
$DIMCLRE
 70
     0
  9
$DIMCLRT
 70
     0
  9
$DIMTFAC
 40
1.0
  9
$DIMGAP
 40
0.762
  9
$DIMJUST
 70
     0
  9
$DIMSD1
 70
     0
  9
$DIMSD2
 70
     0
  9
$DIMTOLJ
 70
     0
  9
$DIMTZIN
 70
     1
  9
$DIMALTZ
 70
     0
  9
$DIMALTTZ
 70
     0
  9
$DIMUPT
 70
     0
  9
$DIMDEC
 70
     2
  9
$DIMTDEC
 70
     2
  9
$DIMALTU
 70
     2
  9
$DIMALTTD
 70
     3
  9
$DIMTXSTY
  7
Standard
  9
$DIMAUNIT
 70
     0
  9
$DIMADEC
 70
     2
  9
$DIMALTRND
 40
0.0
  9
$DIMAZIN
 70
     0
  9
$DIMDSEP
 70
    44
  9
$DIMATFIT
 70
     3
  9
$DIMFRAC
 70
     0
  9
$DIMLDRBLK
  1

  9
$DIMLUNIT
 70
     2
  9
$DIMLWD
 70
    -2
  9
$DIMLWE
 70
    -2
  9
$DIMTMOVE
 70
     0
  9
$LUNITS
 70
     2
  9
$LUPREC
 70
     2
  9
$SKETCHINC
 40
1.0
  9
$FILLETRAD
 40
10.0
  9
$AUNITS
 70
     0
  9
$AUPREC
 70
     2
  9
$MENU
  1
.
  9
$ELEVATION
 40
0.0
  9
$PELEVATION
 40
0.0
  9
$THICKNESS
 40
0.0
  9
$LIMCHECK
 70
     0
  9
$CHAMFERA
 40
0.0
  9
$CHAMFERB
 40
0.0
  9
$CHAMFERC
 40
0.0
  9
$CHAMFERD
 40
0.0
  9
$SKPOLY
 70
     0
  9
$TDCREATE
 40
2459285.456930452
  9
$TDUCREATE
 40
2459285.081930452
  9
$TDUPDATE
 40
2459285.456931181
  9
$TDUUPDATE
 40
2459285.081931181
  9
$TDINDWG
 40
0.0000000116
  9
$TDUSRTIMER
 40
0.0000000116
  9
$USRTIMER
 70
     1
  9
$ANGBASE
 50
0.0
  9
$ANGDIR
 70
     0
  9
$PDMODE
 70
     0
  9
$PDSIZE
 40
-1.0
  9
$PLINEWID
 40
0.0
  9
$SPLFRAME
 70
     0
  9
$SPLINETYPE
 70
     6
  9
$SPLINESEGS
 70
     8
  9
$HANDSEED
  5
17E
  9
$SURFTAB1
 70
     6
  9
$SURFTAB2
 70
     6
  9
$SURFTYPE
 70
     6
  9
$SURFU
 70
     6
  9
$SURFV
 70
     6
  9
$UCSBASE
  2

  9
$UCSNAME
  2

  9
$UCSORG
 10
0.0
 20
0.0
 30
0.0
  9
$UCSXDIR
 10
1.0
 20
0.0
 30
0.0
  9
$UCSYDIR
 10
0.0
 20
1.0
 30
0.0
  9
$UCSORTHOREF
  2

  9
$UCSORTHOVIEW
 70
     0
  9
$UCSORGTOP
 10
0.0
 20
0.0
 30
0.0
  9
$UCSORGBOTTOM
 10
0.0
 20
0.0
 30
0.0
  9
$UCSORGLEFT
 10
0.0
 20
0.0
 30
0.0
  9
$UCSORGRIGHT
 10
0.0
 20
0.0
 30
0.0
  9
$UCSORGFRONT
 10
0.0
 20
0.0
 30
0.0
  9
$UCSORGBACK
 10
0.0
 20
0.0
 30
0.0
  9
$PUCSBASE
  2

  9
$PUCSNAME
  2

  9
$PUCSORG
 10
0.0
 20
0.0
 30
0.0
  9
$PUCSXDIR
 10
1.0
 20
0.0
 30
0.0
  9
$PUCSYDIR
 10
0.0
 20
1.0
 30
0.0
  9
$PUCSORTHOREF
  2

  9
$PUCSORTHOVIEW
 70
     0
  9
$PUCSORGTOP
 10
0.0
 20
0.0
 30
0.0
  9
$PUCSORGBOTTOM
 10
0.0
 20
0.0
 30
0.0
  9
$PUCSORGLEFT
 10
0.0
 20
0.0
 30
0.0
  9
$PUCSORGRIGHT
 10
0.0
 20
0.0
 30
0.0
  9
$PUCSORGFRONT
 10
0.0
 20
0.0
 30
0.0
  9
$PUCSORGBACK
 10
0.0
 20
0.0
 30
0.0
  9
$USERI1
 70
     0
  9
$USERI2
 70
     0
  9
$USERI3
 70
     0
  9
$USERI4
 70
     0
  9
$USERI5
 70
     0
  9
$USERR1
 40
0.0
  9
$USERR2
 40
0.0
  9
$USERR3
 40
0.0
  9
$USERR4
 40
0.0
  9
$USERR5
 40
0.0
  9
$WORLDVIEW
 70
     1
  9
$SHADEDGE
 70
     3
  9
$SHADEDIF
 70
    70
  9
$TILEMODE
 70
     1
  9
$MAXACTVP
 70
    64
  9
$PINSBASE
 10
0.0
 20
0.0
 30
0.0
  9
$PLIMCHECK
 70
     0
  9
$PEXTMIN
 10
1.0000000000E+20
 20
1.0000000000E+20
 30
1.0000000000E+20
  9
$PEXTMAX
 10
-1.0000000000E+20
 20
-1.0000000000E+20
 30
-1.0000000000E+20
  9
$PLIMMIN
 10
0.0
 20
0.0
  9
$PLIMMAX
 10
420.0
 20
297.0
  9
$UNITMODE
 70
     0
  9
$VISRETAIN
 70
     1
  9
$PLINEGEN
 70
     0
  9
$PSLTSCALE
 70
     1
  9
$TREEDEPTH
 70
  3020
  9
$CMLSTYLE
  2
Standard
  9
$CMLJUST
 70
     0
  9
$CMLSCALE
 40
20.0
  9
$PROXYGRAPHICS
 70
     1
  9
$MEASUREMENT
 70
     1
  9
$CELWEIGHT
370
    -1
  9
$ENDCAPS
280
     0
  9
$JOINSTYLE
280
     0
  9
$LWDISPLAY
290
     1
  9
$INSUNITS
 70
     4
  9
$HYPERLINKBASE
  1

  9
$STYLESHEET
  1

  9
$XEDIT
290
     1
  9
$CEPSNTYPE
380
     0
  9
$PSTYLEMODE
290
     1
  9
$FINGERPRINTGUID
  2
{DE1974D2-E146-4CE8-9F9C-310E05CE132A}
  9
$VERSIONGUID
  2
{FAEB1C32-E019-11D5-929B-00C0DF256EC4}
  9
$EXTNAMES
290
     1
  9
$PSVPSCALE
 40
0.0
  9
$OLESTARTUP
290
     0
  0
ENDSEC
  0
SECTION
  2
CLASSES
  0
CLASS
  1
ACDBDICTIONARYWDFLT
  2
AcDbDictionaryWithDefault
  3
ObjectDBX Classes
 90
        0
280
     0
281
     0
  0
CLASS
  1
VISUALSTYLE
  2
AcDbVisualStyle
  3
ObjectDBX Classes
 90
     4095
280
     0
281
     0
  0
CLASS
  1
MATERIAL
  2
AcDbMaterial
  3
ObjectDBX Classes
 90
     1153
280
     0
281
     0
  0
CLASS
  1
SCALE
  2
AcDbScale
  3
ObjectDBX Classes
 90
     1153
280
     0
281
     0
  0
CLASS
  1
TABLESTYLE
  2
AcDbTableStyle
  3
ObjectDBX Classes
 90
     4095
280
     0
281
     0
  0
CLASS
  1
MLEADERSTYLE
  2
AcDbMLeaderStyle
  3
ACDB_MLEADERSTYLE_CLASS
 90
     4095
280
     0
281
     0
  0
CLASS
  1
SUN
  2
AcDbSun
  3
SCENEOE
 90
     1153
280
     0
281
     0
  0
CLASS
  1
ACDBPLACEHOLDER
  2
AcDbPlaceHolder
  3
ObjectDBX Classes
 90
        0
280
     0
281
     0
  0
CLASS
  1
LAYOUT
  2
AcDbLayout
  3
ObjectDBX Classes
 90
        0
280
     0
281
     0
  0
ENDSEC
  0
SECTION
  2
TABLES
  0
TABLE
  2
VPORT
  5
8
330
0
100
AcDbSymbolTable
 70
     1
  0
VPORT
  5
29
330
8
100
AcDbSymbolTableRecord
100
AcDbViewportTableRecord
  2
*Active
 70
     0
 10
0.0
 20
0.0
 11
1.0
 21
1.0
 12
107.95
 22
69.85
 13
0.0
 23
0.0
 14
10.0
 24
10.0
 15
10.0
 25
10.0
 16
0.0
 26
0.0
 36
1.0
 17
0.0
 27
0.0
 37
0.0
 40
139.7
 41
1.5454545455
 42
50.0
 43
0.0
 44
0.0
 50
0.0
 51
0.0
 71
     0
 72
  2000
 73
     1
 74
     3
 75
     0
 76
     0
 77
     0
 78
     0
281
     0
 65
     1
110
0.0
120
0.0
130
0.0
111
1.0
121
0.0
131
0.0
112
0.0
122
1.0
132
0.0
 79
     0
146
0.0
  0
ENDTAB
  0
TABLE
  2
LTYPE
  5
5
330
0
100
AcDbSymbolTable
 70
     6
  0
LTYPE
  5
14
330
5
100
AcDbSymbolTableRecord
100
AcDbLinetypeTableRecord
  2
ByBlock
 70
     0
  3

 72
    65
 73
     0
 40
0.0
  0
LTYPE
  5
15
330
5
100
AcDbSymbolTableRecord
100
AcDbLinetypeTableRecord
  2
ByLayer
 70
     0
  3

 72
    65
 73
     0
 40
0.0
  0
LTYPE
  5
16
330
5
100
AcDbSymbolTableRecord
100
AcDbLinetypeTableRecord
  2
Continuous
 70
     0
  3
Solid line
 72
    65
 73
     0
 40
0.0
  0
LTYPE
  5
6E
330
5
100
AcDbSymbolTableRecord
100
AcDbLinetypeTableRecord
  2
HIDDEN
 70
     0
  3
Hidden __ __ __ __ __ __ __ __ __ __ __ __ __ __
 72
    65
 73
     2
 40
1.905
 49
1.27
 74
     0
 49
-0.635
 74
     0
  0
LTYPE
  5
6F
330
5
100
AcDbSymbolTableRecord
100
AcDbLinetypeTableRecord
  2
PHANTOM
 70
     0
  3
Phantom ______  __  __  ______  __  __  ______
 72
    65
 73
     6
 40
12.7
 49
6.35
 74
     0
 49
-1.27
 74
     0
 49
1.27
 74
     0
 49
-1.27
 74
     0
 49
1.27
 74
     0
 49
-1.27
 74
     0
  0
LTYPE
  5
70
330
5
100
AcDbSymbolTableRecord
100
AcDbLinetypeTableRecord
  2
CENTER
 70
     0
  3
Center ____ _ ____ _ ____ _ ____ _ ____ _ ____
 72
    65
 73
     4
 40
10.16
 49
6.35
 74
     0
 49
-1.27
 74
     0
 49
1.27
 74
     0
 49
-1.27
 74
     0
  0
LTYPE
  5
71
330
5
100
AcDbSymbolTableRecord
100
AcDbLinetypeTableRecord
  2
CENTERX2
 70
     0
  3
Center (2x) ________  __  ________  __  _____
 72
    65
 73
     4
 40
20.32
 49
12.7
 74
     0
 49
-2.54
 74
     0
 49
2.54
 74
     0
 49
-2.54
 74
     0
  0
LTYPE
  5
72
330
5
100
AcDbSymbolTableRecord
100
AcDbLinetypeTableRecord
  2
DOT2
 70
     0
  3
Dot (.5x) ........................................
 72
    65
 73
     2
 40
0.635
 49
0.0
 74
     0
 49
-0.635
 74
     0
  0
ENDTAB
  0
TABLE
  2
LAYER
  5
2
330
0
100
AcDbSymbolTable
 70
     1
  0
LAYER
  5
10
330
2
100
AcDbSymbolTableRecord
100
AcDbLayerTableRecord
  2
0
 70
     0
 62
     7
  6
Continuous
370
    -3
390
F
  0
ENDTAB
  0
TABLE
  2
STYLE
  5
3
330
0
100
AcDbSymbolTable
 70
     2
  0
STYLE
  5
11
330
3
100
AcDbSymbolTableRecord
100
AcDbTextStyleTableRecord
  2
Standard
 70
     0
 40
0.0
 41
1.0
 50
0.0
 71
     0
 42
1.75
  3
txt
  4
bigfont
  0
STYLE
  5
73
330
3
100
AcDbSymbolTableRecord
100
AcDbTextStyleTableRecord
  2
SLDTEXTSTYLE0
 70
     0
 40
0.0
 41
0.7
 50
0.0
 71
     0
 42
1.75
  3
TXT
  4
bigfont
  0
ENDTAB
  0
TABLE
  2
VIEW
  5
6
330
0
100
AcDbSymbolTable
 70
     0
  0
ENDTAB
  0
TABLE
  2
UCS
  5
7
330
0
100
AcDbSymbolTable
 70
     0
  0
ENDTAB
  0
TABLE
  2
APPID
  5
9
330
0
100
AcDbSymbolTable
 70
     1
  0
APPID
  5
12
330
9
100
AcDbSymbolTableRecord
100
AcDbRegAppTableRecord
  2
ACAD
 70
     0
  0
ENDTAB
  0
TABLE
  2
DIMSTYLE
  5
A
330
0
100
AcDbSymbolTable
 70
     1
100
AcDbDimStyleTable
  0
DIMSTYLE
105
27
330
A
100
AcDbSymbolTableRecord
100
AcDbDimStyleTableRecord
  2
ISO-25
 70
     0
 41
2.5
 42
0.625
 43
3.75
 44
1.25
 73
     0
 74
     0
 77
     1
 78
     8
140
2.5
141
2.5
143
0.0393700787
147
0.625
171
     3
172
     1
178
     0
271
     2
272
     2
274
     3
278
    44
283
     0
284
     8
340
11
  0
ENDTAB
  0
TABLE
  2
BLOCK_RECORD
  5
1
330
0
100
AcDbSymbolTable
 70
     2
  0
BLOCK_RECORD
  5
1F
330
1
100
AcDbSymbolTableRecord
100
AcDbBlockTableRecord
  2
*Model_Space
340
22
  0
BLOCK_RECORD
  5
1B
330
1
100
AcDbSymbolTableRecord
100
AcDbBlockTableRecord
  2
*Paper_Space
340
1E
  0
BLOCK_RECORD
  5
23
330
1
100
AcDbSymbolTableRecord
100
AcDbBlockTableRecord
  2
*Paper_Space0
340
26
  0
BLOCK_RECORD
  5
106
330
1
100
AcDbSymbolTableRecord
100
AcDbBlockTableRecord
  2
SW_CENTERMARKSYMBOL_0
340
0
102
{BLKREFS
331
111
102
}
  0
ENDTAB
  0
ENDSEC
  0
SECTION
  2
BLOCKS
  0
BLOCK
  5
20
330
1F
100
AcDbEntity
  8
0
100
AcDbBlockBegin
  2
*Model_Space
 70
     0
 10
0.0
 20
0.0
 30
0.0
  3
*Model_Space
  1

  0
ENDBLK
  5
21
330
1F
100
AcDbEntity
  8
0
100
AcDbBlockEnd
  0
BLOCK
  5
1C
330
1B
100
AcDbEntity
 67
     1
  8
0
100
AcDbBlockBegin
  2
*Paper_Space
 70
     0
 10
0.0
 20
0.0
 30
0.0
  3
*Paper_Space
  1

  0
ENDBLK
  5
1D
330
1B
100
AcDbEntity
 67
     1
  8
0
100
AcDbBlockEnd
  0
BLOCK
  5
24
330
23
100
AcDbEntity
  8
0
100
AcDbBlockBegin
  2
*Paper_Space0
 70
     0
 10
0.0
 20
0.0
 30
0.0
  3
*Paper_Space0
  1

  0
ENDBLK
  5
25
330
23
100
AcDbEntity
  8
0
100
AcDbBlockEnd
  0
BLOCK
  5
107
330
106
100
AcDbEntity
  8
0
100
AcDbBlockBegin
  2
SW_CENTERMARKSYMBOL_0
 70
     0
 10
0.0
 20
0.0
 30
0.0
  3
SW_CENTERMARKSYMBOL_0
  1

  0
LINE
  5
109
330
106
100
AcDbEntity
  8
0
  6
Continuous
 62
     0
370
    18
100
AcDbLine
 10
0.0
 20
0.0
 30
0.0
 11
0.0
 21
2.5
 31
0.0
  0
LINE
  5
10A
330
106
100
AcDbEntity
  8
0
  6
Continuous
 62
     0
370
    18
100
AcDbLine
 10
0.0
 20
0.0
 30
0.0
 11
-2.5
 21
0.0
 31
0.0
  0
LINE
  5
10B
330
106
100
AcDbEntity
  8
0
  6
Continuous
 62
     0
370
    18
100
AcDbLine
 10
0.0
 20
0.0
 30
0.0
 11
0.0
 21
-2.5
 31
0.0
  0
LINE
  5
10C
330
106
100
AcDbEntity
  8
0
  6
Continuous
 62
     0
370
    18
100
AcDbLine
 10
0.0
 20
0.0
 30
0.0
 11
2.5
 21
0.0
 31
0.0
  0
LINE
  5
10D
330
106
100
AcDbEntity
  8
0
  6
Continuous
 62
     0
370
    18
100
AcDbLine
 10
0.0
 20
5.0
 30
0.0
 11
0.0
 21
8.35
 31
0.0
  0
LINE
  5
10E
330
106
100
AcDbEntity
  8
0
  6
Continuous
 62
     0
370
    18
100
AcDbLine
 10
-5.0
 20
0.0
 30
0.0
 11
-8.35
 21
0.0
 31
0.0
  0
LINE
  5
10F
330
106
100
AcDbEntity
  8
0
  6
Continuous
 62
     0
370
    18
100
AcDbLine
 10
0.0
 20
-5.0
 30
0.0
 11
0.0
 21
-8.35
 31
0.0
  0
LINE
  5
110
330
106
100
AcDbEntity
  8
0
  6
Continuous
 62
     0
370
    18
100
AcDbLine
 10
5.0
 20
0.0
 30
0.0
 11
8.35
 21
0.0
 31
0.0
  0
ENDBLK
  5
108
330
106
100
AcDbEntity
  8
0
100
AcDbBlockEnd
  0
ENDSEC
  0
SECTION
  2
ENTITIES
  0
MTEXT
  5
74
330
1F
100
AcDbEntity
  8
0
  6
Continuous
 62
     7
370
     0
100
AcDbMText
 10
93.5896118375
 20
49.4012459696
 30
0.0
 40
2.38125
 41
0.0
 71
     1
 72
     1
  1
HS-1117R
  7
SLDTEXTSTYLE0
 73
     1
 44
1.0
  0
LINE
  5
75
330
1F
100
AcDbEntity
  8
0
  6
Continuous
 62
     7
370
    25
100
AcDbLine
 10
76.5932645151
 20
30.2409088567
 30
0.0
 11
80.5932645151
 21
30.8909088567
 31
0.0
  0
LINE
  5
76
330
1F
100
AcDbEntity
  8
0
  6
Continuous
 62
     7
370
    25
100
AcDbLine
 10
80.5932645151
 20
36.5909088567
 30
0.0
 11
76.5932645151
 21
37.2409088567
 31
0.0
  0
LINE
  5
77
330
1F
100
AcDbEntity
  8
0
  6
Continuous
 62
     7
370
    25
100
AcDbLine
 10
72.5932645151
 20
30.2409088567
 30
0.0
 11
76.5932645151
 21
30.8909088567
 31
0.0
  0
LINE
  5
78
330
1F
100
AcDbEntity
  8
0
  6
Continuous
 62
     7
370
    25
100
AcDbLine
 10
76.5932645151
 20
36.5909088567
 30
0.0
 11
72.5932645151
 21
37.2409088567
 31
0.0
  0
LINE
  5
79
330
1F
100
AcDbEntity
  8
0
  6
Continuous
 62
     7
370
    25
100
AcDbLine
 10
80.5932645151
 20
30.2409088567
 30
0.0
 11
84.5932645151
 21
30.8909088567
 31
0.0
  0
LINE
  5
7A
330
1F
100
AcDbEntity
  8
0
  6
Continuous
 62
     7
370
    25
100
AcDbLine
 10
84.5932645151
 20
36.5909088567
 30
0.0
 11
80.5932645151
 21
37.2409088567
 31
0.0
  0
LINE
  5
7B
330
1F
100
AcDbEntity
  8
0
  6
Continuous
 62
     7
370
    25
100
AcDbLine
 10
84.5932645151
 20
30.2409088567
 30
0.0
 11
88.2971486947
 21
30.8427900359
 31
0.0
  0
LINE
  5
7C
330
1F
100
AcDbEntity
  8
0
  6
Continuous
 62
     7
370
    25
100
AcDbLine
 10
88.2971486947
 20
36.6390276775
 30
0.0
 11
84.5932645151
 21
37.2409088567
 31
0.0
  0
LINE
  5
7D
330
1F
100
AcDbEntity
  8
0
  6
Continuous
 62
     7
370
    25
100
AcDbLine
 10
72.5932645151
 20
37.2409088567
 30
0.0
 11
69.5932645151
 21
37.2409088567
 31
0.0
  0
LINE
  5
7E
330
1F
100
AcDbEntity
  8
0
  6
Continuous
 62
     7
370
    25
100
AcDbLine
 10
69.5932645151
 20
30.2409088567
 30
0.0
 11
72.5932645151
 21
30.2409088567
 31
0.0
  0
LINE
  5
7F
330
1F
100
AcDbEntity
  8
0
  6
Continuous
 62
     7
370
    25
100
AcDbLine
 10
88.2971486947
 20
30.8427900359
 30
0.0
 11
88.5932645151
 21
31.2538164732
 31
0.0
  0
LINE
  5
80
330
1F
100
AcDbEntity
  8
0
  6
Continuous
 62
     7
370
    25
100
AcDbLine
 10
88.5932645151
 20
36.2280012403
 30
0.0
 11
88.2971486947
 21
36.6390276775
 31
0.0
  0
LINE
  5
81
330
1F
100
AcDbEntity
  8
0
  6
Continuous
 62
     7
370
    25
100
AcDbLine
 10
61.7157654403
 20
40.669112087
 30
0.0
 11
61.0932645151
 21
39.5909088567
 31
0.0
  0
LINE
  5
82
330
1F
100
AcDbEntity
  8
0
  6
Continuous
 62
     7
370
    25
100
AcDbLine
 10
61.0932645151
 20
27.8909088567
 30
0.0
 11
61.7157654403
 21
26.8127056264
 31
0.0
  0
LINE
  5
83
330
1F
100
AcDbEntity
  8
0
  6
Continuous
 62
     7
370
    25
100
AcDbLine
 10
67.4707635898
 20
26.8127056264
 30
0.0
 11
68.0932645151
 21
27.8909088567
 31
0.0
  0
LINE
  5
84
330
1F
100
AcDbEntity
  8
0
  6
Continuous
 62
     7
370
    25
100
AcDbLine
 10
68.0932645151
 20
39.5909088567
 30
0.0
 11
67.4707635898
 21
40.669112087
 31
0.0
  0
LINE
  5
85
330
1F
100
AcDbEntity
  8
0
  6
Continuous
 62
     7
370
    25
100
AcDbLine
 10
61.0932645151
 20
39.5909088567
 30
0.0
 11
59.8932645151
 21
39.5909088567
 31
0.0
  0
LINE
  5
86
330
1F
100
AcDbEntity
  8
0
  6
Continuous
 62
     7
370
    25
100
AcDbLine
 10
59.8932645151
 20
27.8909088567
 30
0.0
 11
61.0932645151
 21
27.8909088567
 31
0.0
  0
ARC
  5
87
330
1F
100
AcDbEntity
  8
0
  6
Continuous
 62
     7
370
    25
100
AcDbCircle
 10
59.8932645151
 20
28.1909088567
 30
0.0
 40
0.2999999999999972
100
AcDbArc
 50
180.0
 51
270.0
  0
ARC
  5
88
330
1F
100
AcDbEntity
  8
0
  6
Continuous
 62
     7
370
    25
100
AcDbCircle
 10
59.8932645151
 20
39.2909088567
 30
0.0
 40
0.3000000000000043
100
AcDbArc
 50
90.0
 51
180.0
  0
LINE
  5
89
330
1F
100
AcDbEntity
  8
0
  6
Continuous
 62
     7
370
    25
100
AcDbLine
 10
68.0932645151
 20
27.8909088567
 30
0.0
 11
69.2932645151
 21
27.8909088567
 31
0.0
  0
LINE
  5
8A
330
1F
100
AcDbEntity
  8
0
  6
Continuous
 62
     7
370
    25
100
AcDbLine
 10
69.2932645151
 20
39.5909088567
 30
0.0
 11
68.0932645151
 21
39.5909088567
 31
0.0
  0
ARC
  5
8B
330
1F
100
AcDbEntity
  8
0
  6
Continuous
 62
     7
370
    25
100
AcDbCircle
 10
69.2932645151
 20
39.2909088567
 30
0.0
 40
0.3000000000000043
100
AcDbArc
 50
0.0
 51
90.0
  0
ARC
  5
8C
330
1F
100
AcDbEntity
  8
0
  6
Continuous
 62
     7
370
    25
100
AcDbCircle
 10
69.2932645151
 20
28.1909088567
 30
0.0
 40
0.2999999999999972
100
AcDbArc
 50
270.0
 51
0.0
  0
LINE
  5
8D
330
1F
100
AcDbEntity
  8
0
  6
Continuous
 62
     7
370
    25
100
AcDbLine
 10
64.5932645151
 20
27.0127056264
 30
0.0
 11
64.6468543536
 21
26.8127056264
 31
0.0
  0
LINE
  5
8E
330
1F
100
AcDbEntity
  8
0
  6
Continuous
 62
     7
370
    25
100
AcDbLine
 10
64.5396746766
 20
26.8127056264
 30
0.0
 11
64.5932645151
 21
27.0127056264
 31
0.0
  0
LINE
  5
8F
330
1F
100
AcDbEntity
  8
0
  6
Continuous
 62
     7
370
    25
100
AcDbLine
 10
64.5932645151
 20
40.469112087
 30
0.0
 11
64.5396746766
 21
40.669112087
 31
0.0
  0
LINE
  5
90
330
1F
100
AcDbEntity
  8
0
  6
Continuous
 62
     7
370
    25
100
AcDbLine
 10
64.6468543536
 20
40.669112087
 30
0.0
 11
64.5932645151
 21
40.469112087
 31
0.0
  0
LINE
  5
91
330
1F
100
AcDbEntity
  8
0
  6
Continuous
 62
     7
370
    25
100
AcDbLine
 10
57.7213189398
 20
26.8127056264
 30
0.0
 11
58.4015548919
 21
27.9909088567
 31
0.0
  0
LINE
  5
92
330
1F
100
AcDbEntity
  8
0
  6
Continuous
 62
     7
370
    25
100
AcDbLine
 10
58.4015548919
 20
39.4909088567
 30
0.0
 11
57.7213189398
 21
40.669112087
 31
0.0
  0
LINE
  5
93
330
1F
100
AcDbEntity
  8
0
  6
Continuous
 62
     7
370
    25
100
AcDbLine
 10
53.4015548919
 20
38.7299088567
 30
0.0
 11
46.7547862337
 21
38.5221973361
 31
0.0
  0
LINE
  5
94
330
1F
100
AcDbEntity
  8
0
  6
Continuous
 62
     7
370
    25
100
AcDbLine
 10
46.7547862337
 20
28.9596203773
 30
0.0
 11
53.4015548919
 21
28.7519088567
 31
0.0
  0
LINE
  5
95
330
1F
100
AcDbEntity
  8
0
  6
Continuous
 62
     7
370
    25
100
AcDbLine
 10
46.7547862337
 20
38.5221973361
 30
0.0
 11
45.4015548919
 21
37.7409088567
 31
0.0
  0
LINE
  5
96
330
1F
100
AcDbEntity
  8
0
  6
Continuous
 62
     7
370
    25
100
AcDbLine
 10
45.4015548919
 20
29.7409088567
 30
0.0
 11
46.7547862337
 21
28.9596203773
 31
0.0
  0
LINE
  5
97
330
1F
100
AcDbEntity
  8
0
  6
Continuous
 62
     7
370
    25
100
AcDbLine
 10
58.4015548919
 20
29.6409088567
 30
0.0
 11
59.5932645151
 21
29.6409088567
 31
0.0
  0
LINE
  5
98
330
1F
100
AcDbEntity
  8
0
  6
Continuous
 62
     7
370
    25
100
AcDbLine
 10
59.5932645151
 20
37.8409088567
 30
0.0
 11
58.4015548919
 21
37.8409088567
 31
0.0
  0
LINE
  5
99
330
1F
100
AcDbEntity
  8
0
  6
Continuous
 62
     7
370
    25
100
AcDbLine
 10
55.9015548919
 20
26.9127056264
 30
0.0
 11
55.9283498112
 21
26.8127056264
 31
0.0
  0
LINE
  5
9A
330
1F
100
AcDbEntity
  8
0
  6
Continuous
 62
     7
370
    25
100
AcDbLine
 10
55.8747599727
 20
26.8127056264
 30
0.0
 11
55.9015548919
 21
26.9127056264
 31
0.0
  0
LINE
  5
9B
330
1F
100
AcDbEntity
  8
0
  6
Continuous
 62
     7
370
    25
100
AcDbLine
 10
55.9015548919
 20
40.569112087
 30
0.0
 11
55.8747599727
 21
40.669112087
 31
0.0
  0
LINE
  5
9C
330
1F
100
AcDbEntity
  8
0
  6
Continuous
 62
     7
370
    25
100
AcDbLine
 10
55.9283498112
 20
40.669112087
 30
0.0
 11
55.9015548919
 21
40.569112087
 31
0.0
  0
LINE
  5
9D
330
1F
100
AcDbEntity
  8
0
  6
Continuous
 62
     7
370
    25
100
AcDbLine
 10
76.5932645151
 20
37.2409088567
 30
0.0
 11
76.5932645151
 21
30.2409088567
 31
0.0
  0
LINE
  5
9E
330
1F
100
AcDbEntity
  8
0
  6
Continuous
 62
     7
370
    25
100
AcDbLine
 10
72.5932645151
 20
37.2409088567
 30
0.0
 11
72.5932645151
 21
30.2409088567
 31
0.0
  0
LINE
  5
9F
330
1F
100
AcDbEntity
  8
0
  6
Continuous
 62
     7
370
    25
100
AcDbLine
 10
80.5932645151
 20
37.2409088567
 30
0.0
 11
80.5932645151
 21
30.2409088567
 31
0.0
  0
LINE
  5
A0
330
1F
100
AcDbEntity
  8
0
  6
Continuous
 62
     7
370
    25
100
AcDbLine
 10
88.2971486947
 20
30.8427900359
 30
0.0
 11
88.2971486947
 21
36.6390276775
 31
0.0
  0
LINE
  5
A1
330
1F
100
AcDbEntity
  8
0
  6
Continuous
 62
     7
370
    25
100
AcDbLine
 10
84.5932645151
 20
37.2409088567
 30
0.0
 11
84.5932645151
 21
30.2409088567
 31
0.0
  0
LINE
  5
A2
330
1F
100
AcDbEntity
  8
0
  6
Continuous
 62
     7
370
    25
100
AcDbLine
 10
88.5932645151
 20
36.2280012403
 30
0.0
 11
88.5932645151
 21
31.2538164732
 31
0.0
  0
LINE
  5
A3
330
1F
100
AcDbEntity
  8
0
  6
Continuous
 62
     7
370
    25
100
AcDbLine
 10
64.6468543536
 20
30.2768072416
 30
0.0
 11
64.5932645151
 21
30.0669849573
 31
0.0
  0
LINE
  5
A4
330
1F
100
AcDbEntity
  8
0
  6
Continuous
 62
     7
370
    25
100
AcDbLine
 10
64.5932645151
 20
30.0669849573
 30
0.0
 11
64.5932645151
 21
30.6964518102
 31
0.0
  0
LINE
  5
A5
330
1F
100
AcDbEntity
  8
0
  6
Continuous
 62
     7
370
    25
100
AcDbLine
 10
64.5932645151
 20
30.6964518102
 30
0.0
 11
64.6468543536
 21
30.2768072416
 31
0.0
  0
LINE
  5
A6
330
1F
100
AcDbEntity
  8
0
  6
Continuous
 62
     7
370
    25
100
AcDbLine
 10
61.7157654403
 20
26.8127056264
 30
0.0
 11
64.5396746766
 21
26.8127056264
 31
0.0
  0
SPLINE
  5
A7
330
1F
100
AcDbEntity
  8
0
  6
Continuous
 62
     7
370
    25
100
AcDbSpline
210
0.0
220
0.0
230
1.0
 70
     8
 71
     3
 72
    15
 73
    11
 74
     0
 42
0.000000001
 43
0.00000001
 40
0.0
 40
0.0
 40
0.0
 40
0.0
 40
0.1323034284088744
 40
0.2645694515465797
 40
0.3997942148562056
 40
0.5349945762150088
 40
0.6501872613016997
 40
0.7653979157221119
 40
0.8826876171264817
 40
1.0
 40
1.0
 40
1.0
 40
1.0
 10
61.71576544032088
 20
26.81270562644079
 30
0.0
 10
61.63418768996475
 20
26.96236654216234
 30
0.0
 10
61.47105525318898
 20
27.26164606096698
 30
0.0
 10
61.29552981553199
 20
27.72250979582849
 30
0.0
 10
61.18998932444081
 20
28.19206074698314
 30
0.0
 10
61.16908405404287
 20
28.64460692775027
 30
0.0
 10
61.22330743519616
 20
29.07270887837058
 30
0.0
 10
61.33441945056907
 20
29.47673644592119
 30
0.0
 10
61.4974108019475
 20
29.8789373512657
 30
0.0
 10
61.64297586975729
 20
30.14417539701692
 30
0.0
 10
61.71576544032088
 20
30.2768072415786
 30
0.0
  0
LINE
  5
A8
330
1F
100
AcDbEntity
  8
0
  6
Continuous
 62
     7
370
    25
100
AcDbLine
 10
61.7157654403
 20
30.2768072416
 30
0.0
 11
64.5396746766
 21
30.2768072416
 31
0.0
  0
LINE
  5
A9
330
1F
100
AcDbEntity
  8
0
  6
Continuous
 62
     7
370
    25
100
AcDbLine
 10
64.5932645151
 20
30.0669849573
 30
0.0
 11
64.5396746766
 21
30.2768072416
 31
0.0
  0
LINE
  5
AA
330
1F
100
AcDbEntity
  8
0
  6
Continuous
 62
     7
370
    25
100
AcDbLine
 10
64.6468543536
 20
30.2768072416
 30
0.0
 11
67.4707635898
 21
30.2768072416
 31
0.0
  0
SPLINE
  5
AB
330
1F
100
AcDbEntity
  8
0
  6
Continuous
 62
     7
370
    25
100
AcDbSpline
210
0.0
220
0.0
230
1.0
 70
     8
 71
     3
 72
    15
 73
    11
 74
     0
 42
0.000000001
 43
0.00000001
 40
0.0
 40
0.0
 40
0.0
 40
0.0
 40
0.1323034284088744
 40
0.2645694515465798
 40
0.3997942148562057
 40
0.5349945762150088
 40
0.6501872613016997
 40
0.7653979157221119
 40
0.8826876171264817
 40
1.0
 40
1.0
 40
1.0
 40
1.0
 10
67.47076358983949
 20
26.81270562644079
 30
0.0
 10
67.55234134019564
 20
26.96236654216234
 30
0.0
 10
67.71547377697141
 20
27.26164606096697
 30
0.0
 10
67.8909992146284
 20
27.72250979582849
 30
0.0
 10
67.99653970571957
 20
28.19206074698314
 30
0.0
 10
68.01744497611752
 20
28.64460692775027
 30
0.0
 10
67.96322159496422
 20
29.07270887837058
 30
0.0
 10
67.85210957959131
 20
29.47673644592119
 30
0.0
 10
67.68911822821288
 20
29.8789373512657
 30
0.0
 10
67.54355316040309
 20
30.14417539701692
 30
0.0
 10
67.47076358983949
 20
30.2768072415786
 30
0.0
  0
LINE
  5
AC
330
1F
100
AcDbEntity
  8
0
  6
Continuous
 62
     7
370
    25
100
AcDbLine
 10
64.6468543536
 20
26.8127056264
 30
0.0
 11
67.4707635898
 21
26.8127056264
 31
0.0
  0
LINE
  5
AD
330
1F
100
AcDbEntity
  8
0
  6
Continuous
 62
     7
370
    25
100
AcDbLine
 10
64.5932645151
 20
27.0225279108
 30
0.0
 11
64.6468543536
 21
26.8127056264
 31
0.0
  0
LINE
  5
AE
330
1F
100
AcDbEntity
  8
0
  6
Continuous
 62
     7
370
    25
100
AcDbLine
 10
64.5396746766
 20
26.8127056264
 30
0.0
 11
64.5932645151
 21
27.0225279108
 31
0.0
  0
SPLINE
  5
AF
330
1F
100
AcDbEntity
  8
0
  6
Continuous
 62
     7
370
    25
100
AcDbSpline
210
0.0
220
0.0
230
1.0
 70
     8
 71
     3
 72
    16
 73
    12
 74
     0
 42
0.000000001
 43
0.00000001
 40
0.0
 40
0.0
 40
0.0
 40
0.0
 40
0.1208216935138384
 40
0.2460915607884594
 40
0.3713295238664152
 40
0.4996625592353043
 40
0.6279955258268728
 40
0.720513366750065
 40
0.8130405226505356
 40
0.90651586501642
 40
1.0
 40
1.0
 40
1.0
 40
1.0
 10
61.71576544032088
 20
30.2768072415786
 30
0.0
 10
61.64087750184522
 20
30.5500445643403
 30
0.0
 10
61.4883445491301
 20
31.10657872032269
 30
0.0
 10
61.3190837180832
 20
31.96132846941343
 30
0.0
 10
61.20575280211514
 20
32.84300430320712
 30
0.0
 10
61.16736235229837
 20
33.73864656909636
 30
0.0
 10
61.20225738632404
 20
34.55753519101569
 30
0.0
 10
61.28711557996236
 20
35.28769303632631
 30
0.0
 10
61.3982706848398
 20
35.93136782696225
 30
0.0
 10
61.54005037487953
 20
36.57138337736709
 30
0.0
 10
61.65719191546962
 20
36.99379481842026
 30
0.0
 10
61.71576544032088
 20
37.20501047185413
 30
0.0
  0
LINE
  5
B0
330
1F
100
AcDbEntity
  8
0
  6
Continuous
 62
     7
370
    25
100
AcDbLine
 10
61.7157654403
 20
37.2050104719
 30
0.0
 11
64.5396746766
 21
37.2050104719
 31
0.0
  0
LINE
  5
B1
330
1F
100
AcDbEntity
  8
0
  6
Continuous
 62
     7
370
    25
100
AcDbLine
 10
64.5932645151
 20
36.7853659032
 30
0.0
 11
64.5396746766
 21
37.2050104719
 31
0.0
  0
LINE
  5
B2
330
1F
100
AcDbEntity
  8
0
  6
Continuous
 62
     7
370
    25
100
AcDbLine
 10
64.6468543536
 20
37.2050104719
 30
0.0
 11
64.5932645151
 21
36.7853659032
 31
0.0
  0
LINE
  5
B3
330
1F
100
AcDbEntity
  8
0
  6
Continuous
 62
     7
370
    25
100
AcDbLine
 10
64.6468543536
 20
37.2050104719
 30
0.0
 11
67.4707635898
 21
37.2050104719
 31
0.0
  0
SPLINE
  5
B4
330
1F
100
AcDbEntity
  8
0
  6
Continuous
 62
     7
370
    25
100
AcDbSpline
210
0.0
220
0.0
230
1.0
 70
     8
 71
     3
 72
    16
 73
    12
 74
     0
 42
0.000000001
 43
0.00000001
 40
0.0
 40
0.0
 40
0.0
 40
0.0
 40
0.1208216935138384
 40
0.2460915607884594
 40
0.3713295238664152
 40
0.4996625592353043
 40
0.6279955258268728
 40
0.720513366750065
 40
0.8130405226505355
 40
0.9065158650164199
 40
0.9999999999999999
 40
0.9999999999999999
 40
0.9999999999999999
 40
0.9999999999999999
 10
67.47076358983949
 20
30.2768072415786
 30
0.0
 10
67.54565152831516
 20
30.5500445643403
 30
0.0
 10
67.6981844810303
 20
31.10657872032269
 30
0.0
 10
67.86744531207718
 20
31.96132846941343
 30
0.0
 10
67.98077622804524
 20
32.84300430320712
 30
0.0
 10
68.019166677862
 20
33.73864656909636
 30
0.0
 10
67.98427164383635
 20
34.55753519101569
 30
0.0
 10
67.89941345019803
 20
35.28769303632631
 30
0.0
 10
67.78825834532059
 20
35.93136782696225
 30
0.0
 10
67.64647865528086
 20
36.57138337736709
 30
0.0
 10
67.52933711469076
 20
36.99379481842026
 30
0.0
 10
67.47076358983949
 20
37.20501047185413
 30
0.0
  0
LINE
  5
B5
330
1F
100
AcDbEntity
  8
0
  6
Continuous
 62
     7
370
    25
100
AcDbLine
 10
64.5396746766
 20
30.2768072416
 30
0.0
 11
64.5932645151
 21
30.6964518102
 31
0.0
  0
SPLINE
  5
B6
330
1F
100
AcDbEntity
  8
0
  6
Continuous
 62
     7
370
    25
100
AcDbSpline
210
0.0
220
0.0
230
1.0
 70
     8
 71
     3
 72
    15
 73
    11
 74
     0
 42
0.000000001
 43
0.00000001
 40
0.0
 40
0.0
 40
0.0
 40
0.0
 40
0.132303428408876
 40
0.264569451546583
 40
0.3997942148562105
 40
0.5349945762150153
 40
0.6501872613017047
 40
0.7653979157221154
 40
0.8826876171264832
 40
0.9999999999999999
 40
0.9999999999999999
 40
0.9999999999999999
 40
0.9999999999999999
 10
61.71576544032088
 20
37.20501047185413
 30
0.0
 10
61.63418768996475
 20
37.35467138757569
 30
0.0
 10
61.47105525318899
 20
37.65395090638031
 30
0.0
 10
61.29552981553199
 20
38.11481464124181
 30
0.0
 10
61.18998932444082
 20
38.58436559239644
 30
0.0
 10
61.16908405404288
 20
39.03691177316357
 30
0.0
 10
61.22330743519618
 20
39.46501372378386
 30
0.0
 10
61.33441945056909
 20
39.86904129133444
 30
0.0
 10
61.49741080194752
 20
40.27124219667893
 30
0.0
 10
61.64297586975729
 20
40.53648024243014
 30
0.0
 10
61.71576544032088
 20
40.66911208699182
 30
0.0
  0
LINE
  5
B7
330
1F
100
AcDbEntity
  8
0
  6
Continuous
 62
     7
370
    25
100
AcDbLine
 10
61.0932645151
 20
33.7409088567
 30
0.0
 11
61.0932645151
 21
39.5909088567
 31
0.0
  0
LINE
  5
B8
330
1F
100
AcDbEntity
  8
0
  6
Continuous
 62
     7
370
    25
100
AcDbLine
 10
61.0932645151
 20
27.8909088567
 30
0.0
 11
61.0932645151
 21
33.7409088567
 31
0.0
  0
LINE
  5
B9
330
1F
100
AcDbEntity
  8
0
  6
Continuous
 62
     7
370
    25
100
AcDbLine
 10
64.5396746766
 20
37.2050104719
 30
0.0
 11
64.5932645151
 21
37.4148327562
 31
0.0
  0
LINE
  5
BA
330
1F
100
AcDbEntity
  8
0
  6
Continuous
 62
     7
370
    25
100
AcDbLine
 10
64.5932645151
 20
36.7853659032
 30
0.0
 11
64.5932645151
 21
37.4148327562
 31
0.0
  0
SPLINE
  5
BB
330
1F
100
AcDbEntity
  8
0
  6
Continuous
 62
     7
370
    25
100
AcDbSpline
210
0.0
220
0.0
230
1.0
 70
     8
 71
     3
 72
    15
 73
    11
 74
     0
 42
0.000000001
 43
0.00000001
 40
0.0
 40
0.0
 40
0.0
 40
0.0
 40
0.132303428408876
 40
0.264569451546583
 40
0.3997942148562105
 40
0.5349945762150153
 40
0.6501872613017047
 40
0.7653979157221154
 40
0.8826876171264832
 40
0.9999999999999999
 40
0.9999999999999999
 40
0.9999999999999999
 40
0.9999999999999999
 10
67.47076358983949
 20
37.20501047185413
 30
0.0
 10
67.55234134019564
 20
37.35467138757569
 30
0.0
 10
67.71547377697141
 20
37.65395090638031
 30
0.0
 10
67.8909992146284
 20
38.11481464124181
 30
0.0
 10
67.99653970571956
 20
38.58436559239644
 30
0.0
 10
68.0174449761175
 20
39.03691177316357
 30
0.0
 10
67.96322159496421
 20
39.46501372378386
 30
0.0
 10
67.8521095795913
 20
39.86904129133444
 30
0.0
 10
67.68911822821288
 20
40.27124219667893
 30
0.0
 10
67.54355316040309
 20
40.53648024243014
 30
0.0
 10
67.47076358983949
 20
40.66911208699182
 30
0.0
  0
LINE
  5
BC
330
1F
100
AcDbEntity
  8
0
  6
Continuous
 62
     7
370
    25
100
AcDbLine
 10
68.0932645151
 20
33.7409088567
 30
0.0
 11
68.0932645151
 21
39.5909088567
 31
0.0
  0
LINE
  5
BD
330
1F
100
AcDbEntity
  8
0
  6
Continuous
 62
     7
370
    25
100
AcDbLine
 10
68.0932645151
 20
27.8909088567
 30
0.0
 11
68.0932645151
 21
33.7409088567
 31
0.0
  0
LINE
  5
BE
330
1F
100
AcDbEntity
  8
0
  6
Continuous
 62
     7
370
    25
100
AcDbLine
 10
64.5932645151
 20
37.4148327562
 30
0.0
 11
64.6468543536
 21
37.2050104719
 31
0.0
  0
LINE
  5
BF
330
1F
100
AcDbEntity
  8
0
  6
Continuous
 62
     7
370
    25
100
AcDbLine
 10
61.7157654403
 20
40.669112087
 30
0.0
 11
64.5396746766
 21
40.669112087
 31
0.0
  0
LINE
  5
C0
330
1F
100
AcDbEntity
  8
0
  6
Continuous
 62
     7
370
    25
100
AcDbLine
 10
64.5932645151
 20
40.4592898027
 30
0.0
 11
64.5396746766
 21
40.669112087
 31
0.0
  0
LINE
  5
C1
330
1F
100
AcDbEntity
  8
0
  6
Continuous
 62
     7
370
    25
100
AcDbLine
 10
64.6468543536
 20
40.669112087
 30
0.0
 11
64.5932645151
 21
40.4592898027
 31
0.0
  0
LINE
  5
C2
330
1F
100
AcDbEntity
  8
0
  6
Continuous
 62
     7
370
    25
100
AcDbLine
 10
64.6468543536
 20
40.669112087
 30
0.0
 11
67.4707635898
 21
40.669112087
 31
0.0
  0
LINE
  5
C3
330
1F
100
AcDbEntity
  8
0
  6
Continuous
 62
     7
370
    25
100
AcDbLine
 10
59.5932645151
 20
33.7409088567
 30
0.0
 11
59.5932645151
 21
39.2909088567
 31
0.0
  0
LINE
  5
C4
330
1F
100
AcDbEntity
  8
0
  6
Continuous
 62
     7
370
    25
100
AcDbLine
 10
59.5932645151
 20
28.1909088567
 30
0.0
 11
59.5932645151
 21
33.7409088567
 31
0.0
  0
LINE
  5
C5
330
1F
100
AcDbEntity
  8
0
  6
Continuous
 62
     7
370
    25
100
AcDbLine
 10
69.5932645151
 20
33.7409088567
 30
0.0
 11
69.5932645151
 21
39.2909088567
 31
0.0
  0
LINE
  5
C6
330
1F
100
AcDbEntity
  8
0
  6
Continuous
 62
     7
370
    25
100
AcDbLine
 10
69.5932645151
 20
28.1909088567
 30
0.0
 11
69.5932645151
 21
33.7409088567
 31
0.0
  0
LINE
  5
C7
330
1F
100
AcDbEntity
  8
0
  6
Continuous
 62
     7
370
    25
100
AcDbLine
 10
64.5932645151
 20
27.0127056264
 30
0.0
 11
64.5932645151
 21
27.0225279108
 31
0.0
  0
LINE
  5
C8
330
1F
100
AcDbEntity
  8
0
  6
Continuous
 62
     7
370
    25
100
AcDbLine
 10
64.5932645151
 20
40.4592898027
 30
0.0
 11
64.5932645151
 21
40.469112087
 31
0.0
  0
LINE
  5
C9
330
1F
100
AcDbEntity
  8
0
  6
Continuous
 62
     7
370
    25
100
AcDbLine
 10
53.4015548919
 20
30.2768072416
 30
0.0
 11
55.8747599727
 21
30.2768072416
 31
0.0
  0
LINE
  5
CA
330
1F
100
AcDbEntity
  8
0
  6
Continuous
 62
     7
370
    25
100
AcDbLine
 10
53.4015548919
 20
30.2768072416
 30
0.0
 11
53.4015548919
 21
37.2050104719
 31
0.0
  0
LINE
  5
CB
330
1F
100
AcDbEntity
  8
0
  6
Continuous
 62
     7
370
    25
100
AcDbLine
 10
53.4015548919
 20
37.2050104719
 30
0.0
 11
55.8747599727
 21
37.2050104719
 31
0.0
  0
SPLINE
  5
CC
330
1F
100
AcDbEntity
  8
0
  6
Continuous
 62
     7
370
    25
100
AcDbSpline
210
0.0
220
0.0
230
1.0
 70
     8
 71
     3
 72
     8
 73
     4
 74
     0
 42
0.000000001
 43
0.00000001
 40
0.0
 40
0.0
 40
0.0
 40
0.0
 40
1.0
 40
1.0
 40
1.0
 40
1.0
 10
55.90155489194566
 20
37.00041178721742
 30
0.0
 10
55.89282733301347
 20
37.0686449339779
 30
0.0
 10
55.88389255113467
 20
37.13684397842858
 30
0.0
 10
55.87475997270255
 20
37.20501047185413
 30
0.0
  0
SPLINE
  5
CD
330
1F
100
AcDbEntity
  8
0
  6
Continuous
 62
     7
370
    25
100
AcDbSpline
210
0.0
220
0.0
230
1.0
 70
     8
 71
     3
 72
     8
 73
     4
 74
     0
 42
0.000000001
 43
0.00000001
 40
0.0
 40
0.0
 40
0.0
 40
0.0
 40
1.0
 40
1.0
 40
1.0
 40
1.0
 10
55.92834981118877
 20
37.20501047185413
 30
0.0
 10
55.91921521795333
 20
37.13682893973186
 30
0.0
 10
55.91028049618924
 20
37.06862965197798
 30
0.0
 10
55.90155489194566
 20
37.00041178721742
 30
0.0
  0
LINE
  5
CE
330
1F
100
AcDbEntity
  8
0
  6
Continuous
 62
     7
370
    25
100
AcDbLine
 10
55.9283498112
 20
37.2050104719
 30
0.0
 11
57.7213189398
 21
37.2050104719
 31
0.0
  0
SPLINE
  5
CF
330
1F
100
AcDbEntity
  8
0
  6
Continuous
 62
     7
370
    25
100
AcDbSpline
210
0.0
220
0.0
230
1.0
 70
     8
 71
     3
 72
    14
 73
    10
 74
     0
 42
0.000000001
 43
0.00000001
 40
0.0
 40
0.0
 40
0.0
 40
0.0
 40
0.25
 40
0.25
 40
0.5
 40
0.5
 40
0.75
 40
0.75
 40
1.0
 40
1.0
 40
1.0
 40
1.0
 10
57.72131893978602
 20
30.27680724157859
 30
0.0
 10
57.88409963729346
 20
30.84069611872737
 30
0.0
 10
58.02049353368736
 20
31.41783404300383
 30
0.0
 10
58.20695153219874
 20
32.57442467021203
 30
0.0
 10
58.25728263332827
 20
33.15620151723978
 30
0.0
 10
58.25715188657377
 20
34.32793542608871
 30
0.0
 10
58.2053442640916
 20
34.92158094516428
 30
0.0
 10
58.01757349791228
 20
36.07777507339802
 30
0.0
 10
57.88297856437362
 20
36.64500510521759
 30
0.0
 10
57.72131893978601
 20
37.20501047185413
 30
0.0
  0
LINE
  5
D0
330
1F
100
AcDbEntity
  8
0
  6
Continuous
 62
     7
370
    25
100
AcDbLine
 10
55.9283498112
 20
30.2768072416
 30
0.0
 11
57.7213189398
 21
30.2768072416
 31
0.0
  0
SPLINE
  5
D1
330
1F
100
AcDbEntity
  8
0
  6
Continuous
 62
     7
370
    25
100
AcDbSpline
210
0.0
220
0.0
230
1.0
 70
     8
 71
     3
 72
     8
 73
     4
 74
     0
 42
0.000000001
 43
0.00000001
 40
0.0
 40
0.0
 40
0.0
 40
0.0
 40
1.0
 40
1.0
 40
1.0
 40
1.0
 10
55.90155489194566
 20
30.48140592621531
 30
0.0
 10
55.91028245087785
 20
30.41317277945483
 30
0.0
 10
55.91921723275665
 20
30.34497373500416
 30
0.0
 10
55.92834981118877
 20
30.2768072415786
 30
0.0
  0
SPLINE
  5
D2
330
1F
100
AcDbEntity
  8
0
  6
Continuous
 62
     7
370
    25
100
AcDbSpline
210
0.0
220
0.0
230
1.0
 70
     8
 71
     3
 72
     8
 73
     4
 74
     0
 42
0.000000001
 43
0.00000001
 40
0.0
 40
0.0
 40
0.0
 40
0.0
 40
1.0
 40
1.0
 40
1.0
 40
1.0
 10
55.87475997270255
 20
30.2768072415786
 30
0.0
 10
55.88389456593799
 20
30.34498877370087
 30
0.0
 10
55.89282928770208
 20
30.41318806145475
 30
0.0
 10
55.90155489194566
 20
30.48140592621531
 30
0.0
  0
LINE
  5
D3
330
1F
100
AcDbEntity
  8
0
  6
Continuous
 62
     7
370
    25
100
AcDbLine
 10
53.4015548919
 20
26.8127056264
 30
0.0
 11
55.8747599727
 21
26.8127056264
 31
0.0
  0
LINE
  5
D4
330
1F
100
AcDbEntity
  8
0
  6
Continuous
 62
     7
370
    25
100
AcDbLine
 10
53.4015548919
 20
26.8127056264
 30
0.0
 11
53.4015548919
 21
30.2768072416
 31
0.0
  0
SPLINE
  5
D5
330
1F
100
AcDbEntity
  8
0
  6
Continuous
 62
     7
370
    25
100
AcDbSpline
210
0.0
220
0.0
230
1.0
 70
     8
 71
     3
 72
     8
 73
     4
 74
     0
 42
0.000000001
 43
0.00000001
 40
0.0
 40
0.0
 40
0.0
 40
0.0
 40
1.0
 40
1.0
 40
1.0
 40
1.0
 10
55.90155489194566
 20
30.17450789926025
 30
0.0
 10
55.89282724119588
 20
30.20862483156116
 30
0.0
 10
55.88389245653735
 20
30.24272434790779
 30
0.0
 10
55.87475997270255
 20
30.2768072415786
 30
0.0
  0
SPLINE
  5
D6
330
1F
100
AcDbEntity
  8
0
  6
Continuous
 62
     7
370
    25
100
AcDbSpline
210
0.0
220
0.0
230
1.0
 70
     8
 71
     3
 72
     8
 73
     4
 74
     0
 42
0.000000001
 43
0.00000001
 40
0.0
 40
0.0
 40
0.0
 40
0.0
 40
1.0
 40
1.0
 40
1.0
 40
1.0
 10
55.92834981118877
 20
30.2768072415786
 30
0.0
 10
55.91921548783936
 20
30.24271748274584
 30
0.0
 10
55.91028075792201
 20
30.2086178547703
 30
0.0
 10
55.90155489194566
 20
30.17450789926025
 30
0.0
  0
SPLINE
  5
D7
330
1F
100
AcDbEntity
  8
0
  6
Continuous
 62
     7
370
    25
100
AcDbSpline
210
0.0
220
0.0
230
1.0
 70
     8
 71
     3
 72
    14
 73
    10
 74
     0
 42
0.000000001
 43
0.00000001
 40
0.0
 40
0.0
 40
0.0
 40
0.0
 40
0.5000000000000003
 40
0.5000000000000003
 40
0.6250000000000002
 40
0.6250000000000002
 40
0.75
 40
0.75
 40
1.0
 40
1.0
 40
1.0
 40
1.0
 10
57.72131893978659
 20
30.27680724157864
 30
0.0
 10
58.04788083816269
 20
29.71118544177509
 30
0.0
 10
58.25646498968022
 20
29.13708959363818
 30
0.0
 10
58.25740277416858
 20
28.40080954071404
 30
0.0
 10
58.24487666777856
 20
28.25286092886696
 30
0.0
 10
58.19603162700329
 20
27.96020291958833
 30
0.0
 10
58.15976224894603
 20
27.81485508969716
 30
0.0
 10
58.01970954828689
 20
27.38139932248216
 30
0.0
 10
57.88480340390098
 20
27.09586902453557
 30
0.0
 10
57.7213189397863
 20
26.81270562644076
 30
0.0
  0
LINE
  5
D8
330
1F
100
AcDbEntity
  8
0
  6
Continuous
 62
     7
370
    25
100
AcDbLine
 10
55.9283498112
 20
26.8127056264
 30
0.0
 11
57.7213189398
 21
26.8127056264
 31
0.0
  0
SPLINE
  5
D9
330
1F
100
AcDbEntity
  8
0
  6
Continuous
 62
     7
370
    25
100
AcDbSpline
210
0.0
220
0.0
230
1.0
 70
     8
 71
     3
 72
     8
 73
     4
 74
     0
 42
0.000000001
 43
0.00000001
 40
0.0
 40
0.0
 40
0.0
 40
0.0
 40
1.0
 40
1.0
 40
1.0
 40
1.0
 10
55.90155489194566
 20
26.91500496875915
 30
0.0
 10
55.91028254269543
 20
26.88088803645823
 30
0.0
 10
55.91921732735396
 20
26.84678852011159
 30
0.0
 10
55.92834981118877
 20
26.81270562644079
 30
0.0
  0
SPLINE
  5
DA
330
1F
100
AcDbEntity
  8
0
  6
Continuous
 62
     7
370
    25
100
AcDbSpline
210
0.0
220
0.0
230
1.0
 70
     8
 71
     3
 72
     8
 73
     4
 74
     0
 42
0.000000001
 43
0.00000001
 40
0.0
 40
0.0
 40
0.0
 40
0.0
 40
1.0
 40
1.0
 40
1.0
 40
1.0
 10
55.87475997270255
 20
26.81270562644079
 30
0.0
 10
55.88389429605196
 20
26.84679538527355
 30
0.0
 10
55.8928290259693
 20
26.88089501324909
 30
0.0
 10
55.90155489194566
 20
26.91500496875915
 30
0.0
  0
SPLINE
  5
DB
330
1F
100
AcDbEntity
  8
0
  6
Continuous
 62
     7
370
    25
100
AcDbSpline
210
0.0
220
0.0
230
1.0
 70
     8
 71
     3
 72
    14
 73
    10
 74
     0
 42
0.000000001
 43
0.00000001
 40
0.0
 40
0.0
 40
0.0
 40
0.0
 40
0.5000000000000003
 40
0.5000000000000003
 40
0.6250000000000003
 40
0.6250000000000003
 40
0.7500000000000002
 40
0.7500000000000002
 40
1.0
 40
1.0
 40
1.0
 40
1.0
 10
57.72131893978659
 20
40.66911208699186
 30
0.0
 10
58.04788083816268
 20
40.10349028718833
 30
0.0
 10
58.2564649896802
 20
39.52939443905144
 30
0.0
 10
58.25740277416857
 20
38.79311438612733
 30
0.0
 10
58.24487666777854
 20
38.64516577428025
 30
0.0
 10
58.19603162700328
 20
38.35250776500163
 30
0.0
 10
58.15976224894602
 20
38.20715993511047
 30
0.0
 10
58.01970954828688
 20
37.77370416789549
 30
0.0
 10
57.88480340390098
 20
37.48817386994889
 30
0.0
 10
57.7213189397863
 20
37.20501047185411
 30
0.0
  0
LINE
  5
DC
330
1F
100
AcDbEntity
  8
0
  6
Continuous
 62
     7
370
    25
100
AcDbLine
 10
58.4015548919
 20
39.4909088567
 30
0.0
 11
58.4015548919
 21
27.9909088567
 31
0.0
  0
SPLINE
  5
DD
330
1F
100
AcDbEntity
  8
0
  6
Continuous
 62
     7
370
    25
100
AcDbSpline
210
0.0
220
0.0
230
1.0
 70
     8
 71
     3
 72
     8
 73
     4
 74
     0
 42
0.000000001
 43
0.00000001
 40
0.0
 40
0.0
 40
0.0
 40
0.0
 40
1.0
 40
1.0
 40
1.0
 40
1.0
 10
55.87475997270255
 20
37.20501047185413
 30
0.0
 10
55.88389429605196
 20
37.23910023068689
 30
0.0
 10
55.8928290259693
 20
37.27319985866244
 30
0.0
 10
55.90155489194566
 20
37.30730981417248
 30
0.0
  0
LINE
  5
DE
330
1F
100
AcDbEntity
  8
0
  6
Continuous
 62
     7
370
    25
100
AcDbLine
 10
55.9015548919
 20
37.0004117872
 30
0.0
 11
55.9015548919
 21
37.3073098142
 31
0.0
  0
LINE
  5
DF
330
1F
100
AcDbEntity
  8
0
  6
Continuous
 62
     7
370
    25
100
AcDbLine
 10
55.9015548919
 20
30.1745078993
 30
0.0
 11
55.9015548919
 21
30.4814059262
 31
0.0
  0
SPLINE
  5
E0
330
1F
100
AcDbEntity
  8
0
  6
Continuous
 62
     7
370
    25
100
AcDbSpline
210
0.0
220
0.0
230
1.0
 70
     8
 71
     3
 72
     8
 73
     4
 74
     0
 42
0.000000001
 43
0.00000001
 40
0.0
 40
0.0
 40
0.0
 40
0.0
 40
1.0
 40
1.0
 40
1.0
 40
1.0
 10
55.90155489194566
 20
37.30730981417248
 30
0.0
 10
55.91028254269543
 20
37.27319288187157
 30
0.0
 10
55.91921732735396
 20
37.23909336552494
 30
0.0
 10
55.92834981118877
 20
37.20501047185413
 30
0.0
  0
LINE
  5
E1
330
1F
100
AcDbEntity
  8
0
  6
Continuous
 62
     7
370
    25
100
AcDbLine
 10
53.4015548919
 20
40.669112087
 30
0.0
 11
55.8747599727
 21
40.669112087
 31
0.0
  0
SPLINE
  5
E2
330
1F
100
AcDbEntity
  8
0
  6
Continuous
 62
     7
370
    25
100
AcDbSpline
210
0.0
220
0.0
230
1.0
 70
     8
 71
     3
 72
     8
 73
     4
 74
     0
 42
0.000000001
 43
0.00000001
 40
0.0
 40
0.0
 40
0.0
 40
0.0
 40
1.0
 40
1.0
 40
1.0
 40
1.0
 10
55.90155489194566
 20
40.56681274467346
 30
0.0
 10
55.89282724119588
 20
40.60092967697438
 30
0.0
 10
55.88389245653735
 20
40.63502919332101
 30
0.0
 10
55.87475997270255
 20
40.66911208699182
 30
0.0
  0
SPLINE
  5
E3
330
1F
100
AcDbEntity
  8
0
  6
Continuous
 62
     7
370
    25
100
AcDbSpline
210
0.0
220
0.0
230
1.0
 70
     8
 71
     3
 72
     8
 73
     4
 74
     0
 42
0.000000001
 43
0.00000001
 40
0.0
 40
0.0
 40
0.0
 40
0.0
 40
1.0
 40
1.0
 40
1.0
 40
1.0
 10
55.92834981118877
 20
40.66911208699182
 30
0.0
 10
55.91921548783936
 20
40.63502232815905
 30
0.0
 10
55.91028075792201
 20
40.60092270018351
 30
0.0
 10
55.90155489194566
 20
40.56681274467346
 30
0.0
  0
LINE
  5
E4
330
1F
100
AcDbEntity
  8
0
  6
Continuous
 62
     7
370
    25
100
AcDbLine
 10
55.9283498112
 20
40.669112087
 30
0.0
 11
57.7213189398
 21
40.669112087
 31
0.0
  0
LINE
  5
E5
330
1F
100
AcDbEntity
  8
0
  6
Continuous
 62
     7
370
    25
100
AcDbLine
 10
53.4015548919
 20
37.2050104719
 30
0.0
 11
53.4015548919
 21
40.669112087
 31
0.0
  0
LINE
  5
E6
330
1F
100
AcDbEntity
  8
0
  6
Continuous
 62
     7
370
    25
100
AcDbLine
 10
46.7547862337
 20
38.5221973361
 30
0.0
 11
46.7547862337
 21
28.9596203773
 31
0.0
  0
LINE
  5
E7
330
1F
100
AcDbEntity
  8
0
  6
Continuous
 62
     7
370
    25
100
AcDbLine
 10
45.4015548919
 20
33.7409088567
 30
0.0
 11
45.4015548919
 21
37.7409088567
 31
0.0
  0
LINE
  5
E8
330
1F
100
AcDbEntity
  8
0
  6
Continuous
 62
     7
370
    25
100
AcDbLine
 10
45.4015548919
 20
29.7409088567
 30
0.0
 11
45.4015548919
 21
33.7409088567
 31
0.0
  0
LINE
  5
E9
330
1F
100
AcDbEntity
  8
0
  6
Continuous
 62
     7
370
    25
100
AcDbLine
 10
55.9015548919
 20
26.9127056264
 30
0.0
 11
55.9015548919
 21
26.9150049688
 31
0.0
  0
LINE
  5
EA
330
1F
100
AcDbEntity
  8
0
  6
Continuous
 62
     7
370
    25
100
AcDbLine
 10
55.9015548919
 20
40.5668127447
 30
0.0
 11
55.9015548919
 21
40.569112087
 31
0.0
  0
LINE
  5
EB
330
1F
100
AcDbEntity
  8
0
  6
Continuous
 62
     8
370
    25
100
AcDbLine
 10
59.8932645151
 20
33.7409088567
 30
0.0
 11
59.8932645151
 21
27.8909088567
 31
0.0
  0
LINE
  5
EC
330
1F
100
AcDbEntity
  8
0
  6
Continuous
 62
     8
370
    25
100
AcDbLine
 10
59.8932645151
 20
39.5909088567
 30
0.0
 11
59.8932645151
 21
33.7409088567
 31
0.0
  0
LINE
  5
ED
330
1F
100
AcDbEntity
  8
0
  6
Continuous
 62
     8
370
    25
100
AcDbLine
 10
69.2932645151
 20
33.7409088567
 30
0.0
 11
69.2932645151
 21
27.8909088567
 31
0.0
  0
LINE
  5
EE
330
1F
100
AcDbEntity
  8
0
  6
Continuous
 62
     8
370
    25
100
AcDbLine
 10
69.2932645151
 20
39.5909088567
 30
0.0
 11
69.2932645151
 21
33.7409088567
 31
0.0
  0
LINE
  5
EF
330
1F
100
AcDbEntity
  8
0
  6
Continuous
 62
     7
370
     0
100
AcDbLine
 10
45.842337536
 20
37.9953948349
 30
0.0
 11
52.9015548919
 21
38.2159953773
 31
0.0
  0
LINE
  5
F0
330
1F
100
AcDbEntity
  8
0
  6
Continuous
 62
     7
370
     0
100
AcDbLine
 10
45.842337536
 20
29.4864228785
 30
0.0
 11
52.9015548919
 21
29.2658223361
 31
0.0
  0
LINE
  5
F1
330
1F
100
AcDbEntity
  8
0
  6
Continuous
 62
     7
370
     0
100
AcDbLine
 10
52.9015548919
 20
28.7675338567
 30
0.0
 11
52.9015548919
 21
38.7142838567
 31
0.0
  0
LINE
  5
F2
330
1F
100
AcDbEntity
  8
0
  6
CENTERX2
 62
     7
370
    18
100
AcDbLine
 10
44.4015548919
 20
33.7409088567
 30
0.0
 11
54.4015548919
 21
33.7409088567
 31
0.0
  0
LINE
  5
F3
330
1F
100
AcDbEntity
  8
0
  6
CENTERX2
 62
     7
370
    18
100
AcDbLine
 10
89.5932645151
 20
33.7409088567
 30
0.0
 11
67.5932645151
 21
33.7409088567
 31
0.0
  0
LINE
  5
F4
330
1F
100
AcDbEntity
  8
0
  6
CENTERX2
 62
     7
370
    18
100
AcDbLine
 10
58.5932645151
 20
33.7409088567
 30
0.0
 11
60.2932645151
 21
33.7409088567
 31
0.0
  0
LINE
  5
F5
330
1F
100
AcDbEntity
  8
0
  6
CENTERX2
 62
     7
370
    18
100
AcDbLine
 10
67.5932645151
 20
33.7409088567
 30
0.0
 11
60.2932645151
 21
33.7409088567
 31
0.0
  0
LINE
  5
F6
330
1F
100
AcDbEntity
  8
0
  6
CENTERX2
 62
     7
370
    18
100
AcDbLine
 10
53.4015548919
 20
33.7409088567
 30
0.0
 11
58.7213189398
 21
33.7409088567
 31
0.0
  0
CIRCLE
  5
F7
330
1F
100
AcDbEntity
  8
0
  6
Continuous
 62
     7
370
    25
100
AcDbCircle
 10
106.0819093776
 20
33.7409088567
 30
0.0
 40
2.487092383559073
  0
CIRCLE
  5
F8
330
1F
100
AcDbEntity
  8
0
  6
Continuous
 62
     7
370
    25
100
AcDbCircle
 10
106.0819093776
 20
33.7409088567
 30
0.0
 40
2.898118820812911
  0
CIRCLE
  5
F9
330
1F
100
AcDbEntity
  8
0
  6
Continuous
 62
     7
370
    25
100
AcDbCircle
 10
106.0819093776
 20
33.7409088567
 30
0.0
 40
2.199999999999989
  0
CIRCLE
  5
FA
330
1F
100
AcDbEntity
  8
0
  6
Continuous
 62
     7
370
    25
100
AcDbCircle
 10
106.0819093776
 20
33.7409088567
 30
0.0
 40
1.999999999999986
  0
CIRCLE
  5
FB
330
1F
100
AcDbEntity
  8
0
  6
Continuous
 62
     7
370
    25
100
AcDbCircle
 10
106.0819093776
 20
33.7409088567
 30
0.0
 40
3.499999999999986
  0
CIRCLE
  5
FC
330
1F
100
AcDbEntity
  8
0
  6
Continuous
 62
     7
370
    25
100
AcDbCircle
 10
106.0819093776
 20
33.7409088567
 30
0.0
 40
5.549999999999997
  0
CIRCLE
  5
FD
330
1F
100
AcDbEntity
  8
0
  6
Continuous
 62
     7
370
    25
100
AcDbCircle
 10
106.0819093776
 20
33.7409088567
 30
0.0
 40
5.850000000000009
  0
CIRCLE
  5
FE
330
1F
100
AcDbEntity
  8
0
  6
Continuous
 62
     7
370
    25
100
AcDbCircle
 10
106.0819093776
 20
33.7409088567
 30
0.0
 40
3.749999999999986
  0
CIRCLE
  5
FF
330
1F
100
AcDbEntity
  8
0
  6
Continuous
 62
     7
370
    25
100
AcDbCircle
 10
106.0819093776
 20
33.7409088567
 30
0.0
 40
3.649999999999977
  0
SPLINE
  5
100
330
1F
100
AcDbEntity
  8
0
  6
Continuous
 62
     7
370
    25
100
AcDbSpline
210
0.0
220
0.0
230
1.0
 70
    24
 71
     3
 72
    15
 73
    11
 74
     0
 42
0.000000001
 43
0.00000001
 40
0.0
 40
0.0
 40
0.0
 40
0.0
 40
0.1323034284088743
 40
0.2645694515465795
 40
0.3997942148562055
 40
0.5349945762150086
 40
0.6501872613016997
 40
0.7653979157221119
 40
0.8826876171264815
 40
1.0
 40
1.0
 40
1.0
 40
1.0
 10
106.0819093776461
 20
40.66911208699182
 30
0.0
 10
106.3411296875831
 20
40.51945117127026
 30
0.0
 10
106.8594970198175
 20
40.22017165246563
 30
0.0
 10
107.6577364239636
 20
39.75930791760413
 30
0.0
 10
108.4710225281057
 20
39.28975696644949
 30
0.0
 10
109.2548555059656
 20
38.83721078568236
 30
0.0
 10
109.9963498352593
 20
38.40910883506206
 30
0.0
 10
110.6961461099154
 20
38.00508126751146
 30
0.0
 10
111.3927785128223
 20
37.60288036216694
 30
0.0
 10
111.8521842841637
 20
37.33764231641572
 30
0.0
 10
112.0819093776461
 20
37.20501047185405
 30
0.0
  0
SPLINE
  5
101
330
1F
100
AcDbEntity
  8
0
  6
Continuous
 62
     7
370
    25
100
AcDbSpline
210
0.0
220
0.0
230
1.0
 70
    24
 71
     3
 72
    15
 73
    11
 74
     0
 42
0.000000001
 43
0.00000001
 40
0.0
 40
0.0
 40
0.0
 40
0.0
 40
0.185135479184049
 40
0.2785614436833388
 40
0.3719777179349476
 40
0.4971004162601815
 40
0.6222225541577018
 40
0.7506804015204154
 40
0.8791734094993555
 40
1.0
 40
1.0
 40
1.0
 40
1.0
 10
112.0819093776461
 20
37.20501047185405
 30
0.0
 10
112.0819093776461
 20
36.78542905425316
 30
0.0
 10
112.0819093776461
 20
36.15411189157463
 30
0.0
 10
112.0819093776461
 20
35.29382150912173
 30
0.0
 10
112.0819093776461
 20
34.5671667426227
 30
0.0
 10
112.0819093776461
 20
33.76129688053577
 30
0.0
 10
112.0819093776461
 20
32.87315247979787
 30
0.0
 10
112.0819093776461
 20
31.98359837148087
 30
0.0
 10
112.0819093776461
 20
31.11385927098918
 30
0.0
 10
112.0819093776461
 20
30.55004561548688
 30
0.0
 10
112.0819093776461
 20
30.27680724157852
 30
0.0
  0
SPLINE
  5
102
330
1F
100
AcDbEntity
  8
0
  6
Continuous
 62
     7
370
    25
100
AcDbSpline
210
0.0
220
0.0
230
1.0
 70
    24
 71
     3
 72
    15
 73
    11
 74
     0
 42
0.000000001
 43
0.00000001
 40
0.0
 40
0.0
 40
0.0
 40
0.0
 40
0.1323034284088743
 40
0.2645694515465795
 40
0.3997942148562055
 40
0.5349945762150086
 40
0.6501872613016995
 40
0.7653979157221117
 40
0.8826876171264815
 40
1.0
 40
1.0
 40
1.0
 40
1.0
 10
112.0819093776461
 20
30.27680724157852
 30
0.0
 10
111.8226890677091
 20
30.12714632585696
 30
0.0
 10
111.3043217354747
 20
29.82786680705233
 30
0.0
 10
110.5060823313286
 20
29.36700307219084
 30
0.0
 10
109.6927962271865
 20
28.8974521210362
 30
0.0
 10
108.9089632493266
 20
28.44490594026907
 30
0.0
 10
108.1674689200329
 20
28.01680398964878
 30
0.0
 10
107.4676726453768
 20
27.61277642209819
 30
0.0
 10
106.7710402424699
 20
27.21057551675367
 30
0.0
 10
106.3116344711285
 20
26.94533747100246
 30
0.0
 10
106.0819093776461
 20
26.81270562644079
 30
0.0
  0
SPLINE
  5
103
330
1F
100
AcDbEntity
  8
0
  6
Continuous
 62
     7
370
    25
100
AcDbSpline
210
0.0
220
0.0
230
1.0
 70
    24
 71
     3
 72
    15
 73
    11
 74
     0
 42
0.000000001
 43
0.00000001
 40
0.0
 40
0.0
 40
0.0
 40
0.0
 40
0.1323034284088744
 40
0.2645694515465798
 40
0.3997942148562056
 40
0.5349945762150087
 40
0.6501872613016997
 40
0.7653979157221119
 40
0.8826876171264816
 40
0.9999999999999999
 40
0.9999999999999999
 40
0.9999999999999999
 40
0.9999999999999999
 10
106.0819093776461
 20
26.81270562644079
 30
0.0
 10
105.8226890677091
 20
26.96236654216234
 30
0.0
 10
105.3043217354747
 20
27.26164606096698
 30
0.0
 10
104.5060823313286
 20
27.72250979582849
 30
0.0
 10
103.6927962271865
 20
28.19206074698314
 30
0.0
 10
102.9089632493266
 20
28.64460692775027
 30
0.0
 10
102.1674689200329
 20
29.07270887837057
 30
0.0
 10
101.4676726453768
 20
29.47673644592119
 30
0.0
 10
100.7710402424699
 20
29.8789373512657
 30
0.0
 10
100.3116344711285
 20
30.14417539701692
 30
0.0
 10
100.0819093776461
 20
30.2768072415786
 30
0.0
  0
SPLINE
  5
104
330
1F
100
AcDbEntity
  8
0
  6
Continuous
 62
     7
370
    25
100
AcDbSpline
210
0.0
220
0.0
230
1.0
 70
    24
 71
     3
 72
    16
 73
    12
 74
     0
 42
0.000000001
 43
0.00000001
 40
0.0
 40
0.0
 40
0.0
 40
0.0
 40
0.1208216935138384
 40
0.2460915607884594
 40
0.3713295238664152
 40
0.4996625592353043
 40
0.6279955258268728
 40
0.720513366750065
 40
0.8130405226505356
 40
0.90651586501642
 40
1.0
 40
1.0
 40
1.0
 40
1.0
 10
100.0819093776461
 20
30.2768072415786
 30
0.0
 10
100.0819093776461
 20
30.5500445643403
 30
0.0
 10
100.0819093776461
 20
31.10657872032269
 30
0.0
 10
100.0819093776461
 20
31.96132846941343
 30
0.0
 10
100.0819093776461
 20
32.84300430320712
 30
0.0
 10
100.0819093776461
 20
33.73864656909636
 30
0.0
 10
100.0819093776461
 20
34.55753519101569
 30
0.0
 10
100.0819093776461
 20
35.28769303632631
 30
0.0
 10
100.0819093776461
 20
35.93136782696225
 30
0.0
 10
100.0819093776461
 20
36.57138337736709
 30
0.0
 10
100.0819093776462
 20
36.99379481842026
 30
0.0
 10
100.0819093776462
 20
37.20501047185413
 30
0.0
  0
SPLINE
  5
105
330
1F
100
AcDbEntity
  8
0
  6
Continuous
 62
     7
370
    25
100
AcDbSpline
210
0.0
220
0.0
230
1.0
 70
    24
 71
     3
 72
    15
 73
    11
 74
     0
 42
0.000000001
 43
0.00000001
 40
0.0
 40
0.0
 40
0.0
 40
0.0
 40
0.132303428408876
 40
0.264569451546583
 40
0.3997942148562105
 40
0.5349945762150153
 40
0.6501872613017047
 40
0.7653979157221154
 40
0.8826876171264832
 40
0.9999999999999999
 40
0.9999999999999999
 40
0.9999999999999999
 40
0.9999999999999999
 10
100.0819093776462
 20
37.20501047185413
 30
0.0
 10
100.3411296875832
 20
37.35467138757569
 30
0.0
 10
100.8594970198176
 20
37.65395090638031
 30
0.0
 10
101.6577364239636
 20
38.11481464124181
 30
0.0
 10
102.4710225281058
 20
38.58436559239644
 30
0.0
 10
103.2548555059657
 20
39.03691177316357
 30
0.0
 10
103.9963498352594
 20
39.46501372378386
 30
0.0
 10
104.6961461099155
 20
39.86904129133444
 30
0.0
 10
105.3927785128223
 20
40.27124219667893
 30
0.0
 10
105.8521842841637
 20
40.53648024243014
 30
0.0
 10
106.0819093776461
 20
40.66911208699182
 30
0.0
  0
INSERT
  5
111
330
1F
100
AcDbEntity
  8
0
  6
Continuous
 62
     7
370
    18
100
AcDbBlockReference
  2
SW_CENTERMARKSYMBOL_0
 10
106.0819093776
 20
33.7409088567
 30
0.0
  0
LINE
  5
112
330
1F
100
AcDbEntity
  8
0
  6
Continuous
 62
     7
370
    25
100
AcDbLine
 10
84.5932645151
 20
54.2414553478
 30
0.0
 11
88.2971486947
 21
54.843336527
 31
0.0
  0
LINE
  5
113
330
1F
100
AcDbEntity
  8
0
  6
Continuous
 62
     7
370
    25
100
AcDbLine
 10
88.2971486947
 20
60.6395741686
 30
0.0
 11
84.5932645151
 21
61.2414553478
 31
0.0
  0
LINE
  5
114
330
1F
100
AcDbEntity
  8
0
  6
Continuous
 62
     7
370
    25
100
AcDbLine
 10
72.5932645151
 20
61.2414553478
 30
0.0
 11
69.5932645151
 21
61.2414553478
 31
0.0
  0
LINE
  5
115
330
1F
100
AcDbEntity
  8
0
  6
Continuous
 62
     7
370
    25
100
AcDbLine
 10
69.5932645151
 20
54.2414553478
 30
0.0
 11
72.5932645151
 21
54.2414553478
 31
0.0
  0
LINE
  5
116
330
1F
100
AcDbEntity
  8
0
  6
Continuous
 62
     7
370
    25
100
AcDbLine
 10
76.5932645151
 20
54.2414553478
 30
0.0
 11
80.5932645151
 21
54.8914553478
 31
0.0
  0
LINE
  5
117
330
1F
100
AcDbEntity
  8
0
  6
Continuous
 62
     7
370
    25
100
AcDbLine
 10
80.5932645151
 20
60.5914553478
 30
0.0
 11
76.5932645151
 21
61.2414553478
 31
0.0
  0
LINE
  5
118
330
1F
100
AcDbEntity
  8
0
  6
Continuous
 62
     7
370
    25
100
AcDbLine
 10
80.5932645151
 20
54.2414553478
 30
0.0
 11
84.5932645151
 21
54.8914553478
 31
0.0
  0
LINE
  5
119
330
1F
100
AcDbEntity
  8
0
  6
Continuous
 62
     7
370
    25
100
AcDbLine
 10
84.5932645151
 20
60.5914553478
 30
0.0
 11
80.5932645151
 21
61.2414553478
 31
0.0
  0
LINE
  5
11A
330
1F
100
AcDbEntity
  8
0
  6
Continuous
 62
     7
370
    25
100
AcDbLine
 10
72.5932645151
 20
54.2414553478
 30
0.0
 11
76.5932645151
 21
54.8914553478
 31
0.0
  0
LINE
  5
11B
330
1F
100
AcDbEntity
  8
0
  6
Continuous
 62
     7
370
    25
100
AcDbLine
 10
76.5932645151
 20
60.5914553478
 30
0.0
 11
72.5932645151
 21
61.2414553478
 31
0.0
  0
LINE
  5
11C
330
1F
100
AcDbEntity
  8
0
  6
Continuous
 62
     7
370
    25
100
AcDbLine
 10
88.2971486947
 20
54.843336527
 30
0.0
 11
88.5932645151
 21
55.2543629642
 31
0.0
  0
LINE
  5
11D
330
1F
100
AcDbEntity
  8
0
  6
Continuous
 62
     7
370
    25
100
AcDbLine
 10
88.5932645151
 20
60.2285477314
 30
0.0
 11
88.2971486947
 21
60.6395741686
 31
0.0
  0
LINE
  5
11E
330
1F
100
AcDbEntity
  8
0
  6
Continuous
 62
     7
370
    25
100
AcDbLine
 10
61.1798670555
 20
63.7414553478
 30
0.0
 11
61.0932645151
 21
63.5914553478
 31
0.0
  0
LINE
  5
11F
330
1F
100
AcDbEntity
  8
0
  6
Continuous
 62
     7
370
    25
100
AcDbLine
 10
61.0932645151
 20
51.8914553478
 30
0.0
 11
61.1798670555
 21
51.7414553478
 31
0.0
  0
LINE
  5
120
330
1F
100
AcDbEntity
  8
0
  6
Continuous
 62
     7
370
    25
100
AcDbLine
 10
68.0066619747
 20
51.7414553478
 30
0.0
 11
68.0932645151
 21
51.8914553478
 31
0.0
  0
LINE
  5
121
330
1F
100
AcDbEntity
  8
0
  6
Continuous
 62
     7
370
    25
100
AcDbLine
 10
68.0932645151
 20
63.5914553478
 30
0.0
 11
68.0066619747
 21
63.7414553478
 31
0.0
  0
ARC
  5
122
330
1F
100
AcDbEntity
  8
0
  6
Continuous
 62
     7
370
    25
100
AcDbCircle
 10
59.8932645151
 20
52.1914553478
 30
0.0
 40
0.3000000000000043
100
AcDbArc
 50
180.0
 51
270.0
  0
ARC
  5
123
330
1F
100
AcDbEntity
  8
0
  6
Continuous
 62
     7
370
    25
100
AcDbCircle
 10
59.8932645151
 20
63.2914553478
 30
0.0
 40
0.2999999999999972
100
AcDbArc
 50
90.0
 51
180.0
  0
ARC
  5
124
330
1F
100
AcDbEntity
  8
0
  6
Continuous
 62
     7
370
    25
100
AcDbCircle
 10
69.2932645151
 20
63.2914553478
 30
0.0
 40
0.2999999999999972
100
AcDbArc
 50
0.0
 51
90.0
  0
ARC
  5
125
330
1F
100
AcDbEntity
  8
0
  6
Continuous
 62
     7
370
    25
100
AcDbCircle
 10
69.2932645151
 20
52.1914553478
 30
0.0
 40
0.3000000000000043
100
AcDbArc
 50
270.0
 51
0.0
  0
LINE
  5
126
330
1F
100
AcDbEntity
  8
0
  6
Continuous
 62
     7
370
    25
100
AcDbLine
 10
61.0932645151
 20
63.5914553478
 30
0.0
 11
59.8932645151
 21
63.5914553478
 31
0.0
  0
LINE
  5
127
330
1F
100
AcDbEntity
  8
0
  6
Continuous
 62
     7
370
    25
100
AcDbLine
 10
59.8932645151
 20
51.8914553478
 30
0.0
 11
61.0932645151
 21
51.8914553478
 31
0.0
  0
LINE
  5
128
330
1F
100
AcDbEntity
  8
0
  6
Continuous
 62
     7
370
    25
100
AcDbLine
 10
68.0932645151
 20
51.8914553478
 30
0.0
 11
69.2932645151
 21
51.8914553478
 31
0.0
  0
LINE
  5
129
330
1F
100
AcDbEntity
  8
0
  6
Continuous
 62
     7
370
    25
100
AcDbLine
 10
69.2932645151
 20
63.5914553478
 30
0.0
 11
68.0932645151
 21
63.5914553478
 31
0.0
  0
LINE
  5
12A
330
1F
100
AcDbEntity
  8
0
  6
Continuous
 62
     7
370
    25
100
AcDbLine
 10
58.2572173246
 20
51.7414553478
 30
0.0
 11
58.4015548919
 21
51.9914553478
 31
0.0
  0
LINE
  5
12B
330
1F
100
AcDbEntity
  8
0
  6
Continuous
 62
     7
370
    25
100
AcDbLine
 10
58.4015548919
 20
63.4914553478
 30
0.0
 11
58.2572173246
 21
63.7414553478
 31
0.0
  0
LINE
  5
12C
330
1F
100
AcDbEntity
  8
0
  6
Continuous
 62
     7
370
    25
100
AcDbLine
 10
53.4015548919
 20
62.7304553478
 30
0.0
 11
46.7547862337
 21
62.5227438272
 31
0.0
  0
LINE
  5
12D
330
1F
100
AcDbEntity
  8
0
  6
Continuous
 62
     7
370
    25
100
AcDbLine
 10
46.7547862337
 20
52.9601668684
 30
0.0
 11
53.4015548919
 21
52.7524553478
 31
0.0
  0
LINE
  5
12E
330
1F
100
AcDbEntity
  8
0
  6
Continuous
 62
     7
370
    25
100
AcDbLine
 10
46.7547862337
 20
62.5227438272
 30
0.0
 11
45.4015548919
 21
61.7414553478
 31
0.0
  0
LINE
  5
12F
330
1F
100
AcDbEntity
  8
0
  6
Continuous
 62
     7
370
    25
100
AcDbLine
 10
45.4015548919
 20
53.7414553478
 30
0.0
 11
46.7547862337
 21
52.9601668684
 31
0.0
  0
LINE
  5
130
330
1F
100
AcDbEntity
  8
0
  6
Continuous
 62
     7
370
    25
100
AcDbLine
 10
58.4015548919
 20
53.6414553478
 30
0.0
 11
59.5932645151
 21
53.6414553478
 31
0.0
  0
LINE
  5
131
330
1F
100
AcDbEntity
  8
0
  6
Continuous
 62
     7
370
    25
100
AcDbLine
 10
59.5932645151
 20
61.8414553478
 30
0.0
 11
58.4015548919
 21
61.8414553478
 31
0.0
  0
LINE
  5
132
330
1F
100
AcDbEntity
  8
0
  6
Continuous
 62
     7
370
    25
100
AcDbLine
 10
84.5932645151
 20
61.2414553478
 30
0.0
 11
84.5932645151
 21
54.2414553478
 31
0.0
  0
LINE
  5
133
330
1F
100
AcDbEntity
  8
0
  6
Continuous
 62
     7
370
    25
100
AcDbLine
 10
88.2971486947
 20
54.843336527
 30
0.0
 11
88.2971486947
 21
60.6395741686
 31
0.0
  0
LINE
  5
134
330
1F
100
AcDbEntity
  8
0
  6
Continuous
 62
     7
370
    25
100
AcDbLine
 10
72.5932645151
 20
61.2414553478
 30
0.0
 11
72.5932645151
 21
54.2414553478
 31
0.0
  0
LINE
  5
135
330
1F
100
AcDbEntity
  8
0
  6
Continuous
 62
     7
370
    25
100
AcDbLine
 10
76.5932645151
 20
61.2414553478
 30
0.0
 11
76.5932645151
 21
54.2414553478
 31
0.0
  0
LINE
  5
136
330
1F
100
AcDbEntity
  8
0
  6
Continuous
 62
     7
370
    25
100
AcDbLine
 10
80.5932645151
 20
61.2414553478
 30
0.0
 11
80.5932645151
 21
54.2414553478
 31
0.0
  0
LINE
  5
137
330
1F
100
AcDbEntity
  8
0
  6
Continuous
 62
     7
370
    25
100
AcDbLine
 10
88.5932645151
 20
60.2285477314
 30
0.0
 11
88.5932645151
 21
55.2543629642
 31
0.0
  0
LINE
  5
138
330
1F
100
AcDbEntity
  8
0
  6
Continuous
 62
     7
370
    25
100
AcDbLine
 10
61.7157654403
 20
57.7414553478
 30
0.0
 11
64.5396746766
 21
57.7414553478
 31
0.0
  0
SPLINE
  5
139
330
1F
100
AcDbEntity
  8
0
  6
Continuous
 62
     7
370
    25
100
AcDbSpline
210
0.0
220
0.0
230
1.0
 70
     8
 71
     3
 72
    15
 73
    11
 74
     0
 42
0.000000001
 43
0.00000001
 40
0.0
 40
0.0
 40
0.0
 40
0.0
 40
0.1323034284088743
 40
0.2645694515465795
 40
0.3997942148562054
 40
0.5349945762150086
 40
0.6501872613016996
 40
0.7653979157221118
 40
0.8826876171264814
 40
0.9999999999999999
 40
0.9999999999999999
 40
0.9999999999999999
 40
0.9999999999999999
 10
61.71576544032088
 20
57.74145534779955
 30
0.0
 10
61.63418768996475
 20
58.00067565773656
 30
0.0
 10
61.47105525318898
 20
58.51904298997095
 30
0.0
 10
61.29552981553199
 20
59.31728239411703
 30
0.0
 10
61.1899893244408
 20
60.13056849825916
 30
0.0
 10
61.16908405404287
 20
60.91440147611907
 30
0.0
 10
61.22330743519617
 20
61.65589580541278
 30
0.0
 10
61.33441945056907
 20
62.35569208006888
 30
0.0
 10
61.49741080194751
 20
63.05232448297578
 30
0.0
 10
61.64297586975729
 20
63.51173025431715
 30
0.0
 10
61.71576544032088
 20
63.74145534779957
 30
0.0
  0
LINE
  5
13A
330
1F
100
AcDbEntity
  8
0
  6
Continuous
 62
     7
370
    25
100
AcDbLine
 10
61.7157654403
 20
63.7414553478
 30
0.0
 11
64.5396746766
 21
63.7414553478
 31
0.0
  0
LINE
  5
13B
330
1F
100
AcDbEntity
  8
0
  6
Continuous
 62
     7
370
    25
100
AcDbLine
 10
64.5932645151
 20
63.3780324908
 30
0.0
 11
64.5396746766
 21
63.7414553478
 31
0.0
  0
LINE
  5
13C
330
1F
100
AcDbEntity
  8
0
  6
Continuous
 62
     7
370
    25
100
AcDbLine
 10
64.6468543536
 20
63.7414553478
 30
0.0
 11
64.5932645151
 21
63.3780324908
 31
0.0
  0
LINE
  5
13D
330
1F
100
AcDbEntity
  8
0
  6
Continuous
 62
     7
370
    25
100
AcDbLine
 10
64.6468543536
 20
63.7414553478
 30
0.0
 11
67.4707635898
 21
63.7414553478
 31
0.0
  0
SPLINE
  5
13E
330
1F
100
AcDbEntity
  8
0
  6
Continuous
 62
     7
370
    25
100
AcDbSpline
210
0.0
220
0.0
230
1.0
 70
     8
 71
     3
 72
    15
 73
    11
 74
     0
 42
0.000000001
 43
0.00000001
 40
0.0
 40
0.0
 40
0.0
 40
0.0
 40
0.1323034284088743
 40
0.2645694515465795
 40
0.3997942148562055
 40
0.5349945762150086
 40
0.6501872613016997
 40
0.7653979157221119
 40
0.8826876171264815
 40
1.0
 40
1.0
 40
1.0
 40
1.0
 10
67.47076358983949
 20
57.74145534779955
 30
0.0
 10
67.55234134019564
 20
58.00067565773656
 30
0.0
 10
67.71547377697141
 20
58.51904298997095
 30
0.0
 10
67.8909992146284
 20
59.31728239411703
 30
0.0
 10
67.99653970571957
 20
60.13056849825916
 30
0.0
 10
68.01744497611752
 20
60.91440147611907
 30
0.0
 10
67.96322159496422
 20
61.65589580541278
 30
0.0
 10
67.85210957959131
 20
62.35569208006888
 30
0.0
 10
67.68911822821288
 20
63.05232448297578
 30
0.0
 10
67.54355316040309
 20
63.51173025431715
 30
0.0
 10
67.47076358983949
 20
63.74145534779957
 30
0.0
  0
LINE
  5
13F
330
1F
100
AcDbEntity
  8
0
  6
Continuous
 62
     7
370
    25
100
AcDbLine
 10
64.6468543536
 20
57.7414553478
 30
0.0
 11
67.4707635898
 21
57.7414553478
 31
0.0
  0
LINE
  5
140
330
1F
100
AcDbEntity
  8
0
  6
Continuous
 62
     7
370
    25
100
AcDbLine
 10
64.5932645151
 20
58.1048782048
 30
0.0
 11
64.6468543536
 21
57.7414553478
 31
0.0
  0
LINE
  5
141
330
1F
100
AcDbEntity
  8
0
  6
Continuous
 62
     7
370
    25
100
AcDbLine
 10
64.5396746766
 20
57.7414553478
 30
0.0
 11
64.5932645151
 21
58.1048782048
 31
0.0
  0
SPLINE
  5
142
330
1F
100
AcDbEntity
  8
0
  6
Continuous
 62
     7
370
    25
100
AcDbSpline
210
0.0
220
0.0
230
1.0
 70
    24
 71
     3
 72
    12
 73
     8
 74
     0
 42
0.000000001
 43
0.00000001
 40
0.0
 40
0.0
 40
0.0
 40
0.0
 40
0.2560532474974158
 40
0.4407938588820248
 40
0.6261127025653785
 40
0.8128755001127531
 40
1.0
 40
1.0
 40
1.0
 40
1.0
 10
61.1801005263383
 20
51.74145534779954
 30
0.0
 10
61.1874096294192
 20
51.74145534779955
 30
0.0
 10
61.19999219880072
 20
51.74145534779956
 30
0.0
 10
61.2875294452917
 20
51.74145534779957
 30
0.0
 10
61.39804058383915
 20
51.74145534779957
 30
0.0
 10
61.54003399676808
 20
51.74145534779958
 30
0.0
 10
61.65715052589972
 20
51.74145534779958
 30
0.0
 10
61.71576544032088
 20
51.74145534779959
 30
0.0
  0
SPLINE
  5
143
330
1F
100
AcDbEntity
  8
0
  6
Continuous
 62
     7
370
    25
100
AcDbSpline
210
0.0
220
0.0
230
1.0
 70
    24
 71
     3
 72
    12
 73
     8
 74
     0
 42
0.000000001
 43
0.00000001
 40
0.0
 40
0.0
 40
0.0
 40
0.0
 40
0.3702896517467815
 40
0.5568640923293381
 40
0.7439937931298999
 40
0.9933758842773557
 40
1.0
 40
1.0
 40
1.0
 40
1.0
 10
61.71576544032088
 20
63.74145534779957
 30
0.0
 10
61.60380315605692
 20
63.74145534779956
 30
0.0
 10
61.4354274655464
 20
63.74145534779956
 30
0.0
 10
61.28734586651219
 20
63.74145534779956
 30
0.0
 10
61.20738426138033
 20
63.74145534779956
 30
0.0
 10
61.16821541308938
 20
63.74145534779954
 30
0.0
 10
61.18050621573667
 20
63.74145534779956
 30
0.0
 10
61.18082423810048
 20
63.74145534779956
 30
0.0
  0
SPLINE
  5
144
330
1F
100
AcDbEntity
  8
0
  6
Continuous
 62
     7
370
    25
100
AcDbSpline
210
0.0
220
0.0
230
1.0
 70
     8
 71
     3
 72
    15
 73
    11
 74
     0
 42
0.000000001
 43
0.00000001
 40
0.0
 40
0.0
 40
0.0
 40
0.0
 40
0.132303428408876
 40
0.264569451546583
 40
0.3997942148562105
 40
0.5349945762150153
 40
0.6501872613017047
 40
0.7653979157221154
 40
0.8826876171264832
 40
0.9999999999999999
 40
0.9999999999999999
 40
0.9999999999999999
 40
0.9999999999999999
 10
61.71576544032088
 20
51.74145534779959
 30
0.0
 10
61.63418768996475
 20
52.00067565773661
 30
0.0
 10
61.47105525318899
 20
52.51904298997099
 30
0.0
 10
61.29552981553199
 20
53.31728239411707
 30
0.0
 10
61.18998932444082
 20
54.13056849825921
 30
0.0
 10
61.16908405404288
 20
54.91440147611912
 30
0.0
 10
61.22330743519618
 20
55.6558958054128
 30
0.0
 10
61.33441945056909
 20
56.35569208006889
 30
0.0
 10
61.49741080194752
 20
57.05232448297578
 30
0.0
 10
61.64297586975729
 20
57.51173025431715
 30
0.0
 10
61.71576544032088
 20
57.74145534779955
 30
0.0
  0
LINE
  5
145
330
1F
100
AcDbEntity
  8
0
  6
Continuous
 62
     7
370
    25
100
AcDbLine
 10
61.0932645151
 20
51.8914553478
 30
0.0
 11
61.0932645151
 21
63.5914553478
 31
0.0
  0
SPLINE
  5
146
330
1F
100
AcDbEntity
  8
0
  6
Continuous
 62
     7
370
    25
100
AcDbSpline
210
0.0
220
0.0
230
1.0
 70
    24
 71
     3
 72
    12
 73
     8
 74
     0
 42
0.000000001
 43
0.00000001
 40
0.0
 40
0.0
 40
0.0
 40
0.0
 40
0.3702896517467816
 40
0.5568640923293381
 40
0.7439937931298999
 40
0.9933758842773557
 40
1.0
 40
1.0
 40
1.0
 40
1.0
 10
67.47076358983949
 20
63.74145534779957
 30
0.0
 10
67.58272587410345
 20
63.74145534779956
 30
0.0
 10
67.75110156461398
 20
63.74145534779956
 30
0.0
 10
67.89918316364819
 20
63.74145534779956
 30
0.0
 10
67.97914476878006
 20
63.74145534779956
 30
0.0
 10
68.01831361707097
 20
63.74145534779954
 30
0.0
 10
68.00602281442372
 20
63.74145534779956
 30
0.0
 10
68.0057047920599
 20
63.74145534779956
 30
0.0
  0
SPLINE
  5
147
330
1F
100
AcDbEntity
  8
0
  6
Continuous
 62
     7
370
    25
100
AcDbSpline
210
0.0
220
0.0
230
1.0
 70
    24
 71
     3
 72
    12
 73
     8
 74
     0
 42
0.000000001
 43
0.00000001
 40
0.0
 40
0.0
 40
0.0
 40
0.0
 40
0.2560532474974157
 40
0.4407938588820247
 40
0.6261127025653784
 40
0.8128755001127531
 40
0.9999999999999999
 40
0.9999999999999999
 40
0.9999999999999999
 40
0.9999999999999999
 10
68.0064285038221
 20
51.74145534779954
 30
0.0
 10
67.99911940074118
 20
51.74145534779955
 30
0.0
 10
67.98653683135966
 20
51.74145534779956
 30
0.0
 10
67.89899958486868
 20
51.74145534779957
 30
0.0
 10
67.78848844632124
 20
51.74145534779957
 30
0.0
 10
67.6464950333923
 20
51.74145534779958
 30
0.0
 10
67.52937850426066
 20
51.74145534779959
 30
0.0
 10
67.47076358983949
 20
51.74145534779959
 30
0.0
  0
SPLINE
  5
148
330
1F
100
AcDbEntity
  8
0
  6
Continuous
 62
     7
370
    25
100
AcDbSpline
210
0.0
220
0.0
230
1.0
 70
     8
 71
     3
 72
    15
 73
    11
 74
     0
 42
0.000000001
 43
0.00000001
 40
0.0
 40
0.0
 40
0.0
 40
0.0
 40
0.132303428408876
 40
0.264569451546583
 40
0.3997942148562105
 40
0.5349945762150153
 40
0.6501872613017047
 40
0.7653979157221154
 40
0.8826876171264832
 40
0.9999999999999999
 40
0.9999999999999999
 40
0.9999999999999999
 40
0.9999999999999999
 10
67.47076358983949
 20
51.74145534779959
 30
0.0
 10
67.55234134019564
 20
52.00067565773661
 30
0.0
 10
67.71547377697141
 20
52.51904298997099
 30
0.0
 10
67.8909992146284
 20
53.31728239411707
 30
0.0
 10
67.99653970571956
 20
54.13056849825921
 30
0.0
 10
68.0174449761175
 20
54.91440147611912
 30
0.0
 10
67.96322159496421
 20
55.6558958054128
 30
0.0
 10
67.8521095795913
 20
56.35569208006889
 30
0.0
 10
67.68911822821288
 20
57.05232448297578
 30
0.0
 10
67.54355316040309
 20
57.51173025431715
 30
0.0
 10
67.47076358983949
 20
57.74145534779955
 30
0.0
  0
LINE
  5
149
330
1F
100
AcDbEntity
  8
0
  6
Continuous
 62
     7
370
    25
100
AcDbLine
 10
68.0932645151
 20
51.8914553478
 30
0.0
 11
68.0932645151
 21
63.5914553478
 31
0.0
  0
LINE
  5
14A
330
1F
100
AcDbEntity
  8
0
  6
Continuous
 62
     7
370
    25
100
AcDbLine
 10
64.6468543536
 20
57.7414553478
 30
0.0
 11
64.5932645151
 21
57.3780324908
 31
0.0
  0
LINE
  5
14B
330
1F
100
AcDbEntity
  8
0
  6
Continuous
 62
     7
370
    25
100
AcDbLine
 10
64.5932645151
 20
57.3780324908
 30
0.0
 11
64.5932645151
 21
58.1048782048
 31
0.0
  0
LINE
  5
14C
330
1F
100
AcDbEntity
  8
0
  6
Continuous
 62
     7
370
    25
100
AcDbLine
 10
64.5932645151
 20
57.3780324908
 30
0.0
 11
64.5396746766
 21
57.7414553478
 31
0.0
  0
LINE
  5
14D
330
1F
100
AcDbEntity
  8
0
  6
Continuous
 62
     7
370
    25
100
AcDbLine
 10
61.7157654403
 20
51.7414553478
 30
0.0
 11
64.5396746766
 21
51.7414553478
 31
0.0
  0
LINE
  5
14E
330
1F
100
AcDbEntity
  8
0
  6
Continuous
 62
     7
370
    25
100
AcDbLine
 10
64.6468543536
 20
51.7414553478
 30
0.0
 11
67.4707635898
 21
51.7414553478
 31
0.0
  0
LINE
  5
14F
330
1F
100
AcDbEntity
  8
0
  6
Continuous
 62
     7
370
    25
100
AcDbLine
 10
64.5932645151
 20
52.1048782048
 30
0.0
 11
64.6468543536
 21
51.7414553478
 31
0.0
  0
LINE
  5
150
330
1F
100
AcDbEntity
  8
0
  6
Continuous
 62
     7
370
    25
100
AcDbLine
 10
64.5396746766
 20
51.7414553478
 30
0.0
 11
64.5932645151
 21
52.1048782048
 31
0.0
  0
LINE
  5
151
330
1F
100
AcDbEntity
  8
0
  6
Continuous
 62
     7
370
    25
100
AcDbLine
 10
59.5932645151
 20
52.1914553478
 30
0.0
 11
59.5932645151
 21
63.2914553478
 31
0.0
  0
LINE
  5
152
330
1F
100
AcDbEntity
  8
0
  6
Continuous
 62
     7
370
    25
100
AcDbLine
 10
69.5932645151
 20
52.1914553478
 30
0.0
 11
69.5932645151
 21
63.2914553478
 31
0.0
  0
LINE
  5
153
330
1F
100
AcDbEntity
  8
0
  6
Continuous
 62
     7
370
    25
100
AcDbLine
 10
64.5932645151
 20
51.7414553478
 30
0.0
 11
64.5932645151
 21
52.1048782048
 31
0.0
  0
LINE
  5
154
330
1F
100
AcDbEntity
  8
0
  6
Continuous
 62
     7
370
    25
100
AcDbLine
 10
64.5932645151
 20
51.7414553478
 30
0.0
 11
64.5396746766
 21
51.7414553478
 31
0.0
  0
LINE
  5
155
330
1F
100
AcDbEntity
  8
0
  6
Continuous
 62
     7
370
    25
100
AcDbLine
 10
64.6468543536
 20
51.7414553478
 30
0.0
 11
64.5932645151
 21
51.7414553478
 31
0.0
  0
LINE
  5
156
330
1F
100
AcDbEntity
  8
0
  6
Continuous
 62
     7
370
    25
100
AcDbLine
 10
64.5396746766
 20
63.7414553478
 30
0.0
 11
64.5932645151
 21
63.7414553478
 31
0.0
  0
LINE
  5
157
330
1F
100
AcDbEntity
  8
0
  6
Continuous
 62
     7
370
    25
100
AcDbLine
 10
64.5932645151
 20
63.3780324908
 30
0.0
 11
64.5932645151
 21
63.7414553478
 31
0.0
  0
LINE
  5
158
330
1F
100
AcDbEntity
  8
0
  6
Continuous
 62
     7
370
    25
100
AcDbLine
 10
64.5932645151
 20
63.7414553478
 30
0.0
 11
64.6468543536
 21
63.7414553478
 31
0.0
  0
LINE
  5
159
330
1F
100
AcDbEntity
  8
0
  6
Continuous
 62
     7
370
    25
100
AcDbLine
 10
53.4015548919
 20
57.7414553478
 30
0.0
 11
55.8747599727
 21
57.7414553478
 31
0.0
  0
LINE
  5
15A
330
1F
100
AcDbEntity
  8
0
  6
Continuous
 62
     7
370
    25
100
AcDbLine
 10
53.4015548919
 20
63.7414553478
 30
0.0
 11
55.8747599727
 21
63.7414553478
 31
0.0
  0
SPLINE
  5
15B
330
1F
100
AcDbEntity
  8
0
  6
Continuous
 62
     7
370
    25
100
AcDbSpline
210
0.0
220
0.0
230
1.0
 70
     8
 71
     3
 72
     8
 73
     4
 74
     0
 42
0.000000001
 43
0.00000001
 40
0.0
 40
0.0
 40
0.0
 40
0.0
 40
1.0
 40
1.0
 40
1.0
 40
1.0
 10
55.90155489194566
 20
63.56426768932329
 30
0.0
 10
55.89282724119588
 20
63.62335994946686
 30
0.0
 10
55.88389245653735
 20
63.68242204429275
 30
0.0
 10
55.87475997270255
 20
63.74145534779956
 30
0.0
  0
SPLINE
  5
15C
330
1F
100
AcDbEntity
  8
0
  6
Continuous
 62
     7
370
    25
100
AcDbSpline
210
0.0
220
0.0
230
1.0
 70
     8
 71
     3
 72
     8
 73
     4
 74
     0
 42
0.000000001
 43
0.00000001
 40
0.0
 40
0.0
 40
0.0
 40
0.0
 40
1.0
 40
1.0
 40
1.0
 40
1.0
 10
55.92834981118877
 20
63.74145534779957
 30
0.0
 10
55.91921548783936
 20
63.68241015348346
 30
0.0
 10
55.91028075792201
 20
63.62334786531061
 30
0.0
 10
55.90155489194566
 20
63.56426768932329
 30
0.0
  0
LINE
  5
15D
330
1F
100
AcDbEntity
  8
0
  6
Continuous
 62
     7
370
    25
100
AcDbLine
 10
55.9283498112
 20
63.7414553478
 30
0.0
 11
57.7213189398
 21
63.7414553478
 31
0.0
  0
SPLINE
  5
15E
330
1F
100
AcDbEntity
  8
0
  6
Continuous
 62
     7
370
    25
100
AcDbSpline
210
0.0
220
0.0
230
1.0
 70
     8
 71
     3
 72
    14
 73
    10
 74
     0
 42
0.000000001
 43
0.00000001
 40
0.0
 40
0.0
 40
0.0
 40
0.0
 40
0.4999999999999994
 40
0.4999999999999994
 40
0.6249999999999996
 40
0.6249999999999996
 40
0.7499999999999996
 40
0.7499999999999996
 40
1.0
 40
1.0
 40
1.0
 40
1.0
 10
57.72131893978659
 20
63.74145534779964
 30
0.0
 10
58.04788083816269
 20
62.76176965267134
 30
0.0
 10
58.25646498968022
 20
61.76740647528389
 30
0.0
 10
58.25740277416858
 20
60.49213201501979
 30
0.0
 10
58.24487666777856
 20
60.23587750239137
 30
0.0
 10
58.19603162700329
 20
59.72897896107882
 30
0.0
 10
58.15976224894602
 20
59.47722913493745
 30
0.0
 10
58.01970954828689
 20
58.72646172328733
 30
0.0
 10
57.88480340390098
 20
58.23190874014355
 30
0.0
 10
57.7213189397863
 20
57.74145534779951
 30
0.0
  0
LINE
  5
15F
330
1F
100
AcDbEntity
  8
0
  6
Continuous
 62
     7
370
    25
100
AcDbLine
 10
55.9283498112
 20
57.7414553478
 30
0.0
 11
57.7213189398
 21
57.7414553478
 31
0.0
  0
SPLINE
  5
160
330
1F
100
AcDbEntity
  8
0
  6
Continuous
 62
     7
370
    25
100
AcDbSpline
210
0.0
220
0.0
230
1.0
 70
     8
 71
     3
 72
     8
 73
     4
 74
     0
 42
0.000000001
 43
0.00000001
 40
0.0
 40
0.0
 40
0.0
 40
0.0
 40
1.0
 40
1.0
 40
1.0
 40
1.0
 10
55.90155489194566
 20
57.91864300627582
 30
0.0
 10
55.91028254269543
 20
57.85955074613225
 30
0.0
 10
55.91921732735396
 20
57.80048865130636
 30
0.0
 10
55.92834981118877
 20
57.74145534779955
 30
0.0
  0
SPLINE
  5
161
330
1F
100
AcDbEntity
  8
0
  6
Continuous
 62
     7
370
    25
100
AcDbSpline
210
0.0
220
0.0
230
1.0
 70
     8
 71
     3
 72
     8
 73
     4
 74
     0
 42
0.000000001
 43
0.00000001
 40
0.0
 40
0.0
 40
0.0
 40
0.0
 40
1.0
 40
1.0
 40
1.0
 40
1.0
 10
55.87475997270255
 20
57.74145534779955
 30
0.0
 10
55.88389429605196
 20
57.80050054211566
 30
0.0
 10
55.8928290259693
 20
57.8595628302885
 30
0.0
 10
55.90155489194566
 20
57.91864300627582
 30
0.0
  0
LINE
  5
162
330
1F
100
AcDbEntity
  8
0
  6
Continuous
 62
     7
370
    25
100
AcDbLine
 10
53.4015548919
 20
57.7414553478
 30
0.0
 11
53.4015548919
 21
63.7414553478
 31
0.0
  0
SPLINE
  5
163
330
1F
100
AcDbEntity
  8
0
  6
Continuous
 62
     7
370
    25
100
AcDbSpline
210
0.0
220
0.0
230
1.0
 70
    24
 71
     3
 72
    12
 73
     8
 74
     0
 42
0.000000001
 43
0.00000001
 40
0.0
 40
0.0
 40
0.0
 40
0.0
 40
0.2518859083784043
 40
0.4376435540771615
 40
0.6239910210300772
 40
0.8118111947229413
 40
0.9999999999999999
 40
0.9999999999999999
 40
0.9999999999999999
 40
0.9999999999999999
 10
58.25632634057201
 20
63.74145534779954
 30
0.0
 10
58.24953334516844
 20
63.74145534779956
 30
0.0
 10
58.2377307371131
 20
63.74145534779956
 30
0.0
 10
58.15117494141904
 20
63.74145534779956
 30
0.0
 10
58.04055714374312
 20
63.74145534779956
 30
0.0
 10
57.89800869576407
 20
63.74145534779956
 30
0.0
 10
57.78025400654914
 20
63.74145534779956
 30
0.0
 10
57.72131893978601
 20
63.74145534779956
 30
0.0
  0
SPLINE
  5
164
330
1F
100
AcDbEntity
  8
0
  6
Continuous
 62
     7
370
    25
100
AcDbSpline
210
0.0
220
0.0
230
1.0
 70
    24
 71
     3
 72
    13
 73
     9
 74
     0
 42
0.000000001
 43
0.00000001
 40
0.0
 40
0.0
 40
0.0
 40
0.0
 40
0.186035760153519
 40
0.3723936558843732
 40
0.560005057124267
 40
0.7481830246398052
 40
0.9978112377898432
 40
0.9999999999999999
 40
0.9999999999999999
 40
0.9999999999999999
 40
0.9999999999999999
 10
57.72131893978601
 20
51.74145534779959
 30
0.0
 10
57.77963411943991
 20
51.74145534779958
 30
0.0
 10
57.89636545607623
 20
51.74145534779958
 30
0.0
 10
58.03824157353817
 20
51.74145534779957
 30
0.0
 10
58.15187200342657
 20
51.74145534779957
 30
0.0
 10
58.23050083310311
 20
51.74145534779956
 30
0.0
 10
58.26934704100837
 20
51.74145534779953
 30
0.0
 10
58.2570023615466
 20
51.74145534779954
 30
0.0
 10
58.25689506310945
 20
51.74145534779954
 30
0.0
  0
SPLINE
  5
165
330
1F
100
AcDbEntity
  8
0
  6
Continuous
 62
     7
370
    25
100
AcDbSpline
210
0.0
220
0.0
230
1.0
 70
     8
 71
     3
 72
    14
 73
    10
 74
     0
 42
0.000000001
 43
0.00000001
 40
0.0
 40
0.0
 40
0.0
 40
0.0
 40
0.5000000000000003
 40
0.5000000000000003
 40
0.6250000000000003
 40
0.6250000000000003
 40
0.7500000000000002
 40
0.7500000000000002
 40
1.0
 40
1.0
 40
1.0
 40
1.0
 10
57.72131893978659
 20
57.74145534779962
 30
0.0
 10
58.04788083816268
 20
56.76176965267134
 30
0.0
 10
58.2564649896802
 20
55.76740647528389
 30
0.0
 10
58.25740277416857
 20
54.49213201501981
 30
0.0
 10
58.24487666777854
 20
54.23587750239138
 30
0.0
 10
58.19603162700328
 20
53.72897896107884
 30
0.0
 10
58.15976224894602
 20
53.47722913493747
 30
0.0
 10
58.01970954828688
 20
52.72646172328736
 30
0.0
 10
57.88480340390098
 20
52.23190874014358
 30
0.0
 10
57.7213189397863
 20
51.74145534779954
 30
0.0
  0
LINE
  5
166
330
1F
100
AcDbEntity
  8
0
  6
Continuous
 62
     7
370
    25
100
AcDbLine
 10
58.4015548919
 20
63.4914553478
 30
0.0
 11
58.4015548919
 21
51.9914553478
 31
0.0
  0
LINE
  5
167
330
1F
100
AcDbEntity
  8
0
  6
Continuous
 62
     7
370
    25
100
AcDbLine
 10
55.9015548919
 20
57.5642676893
 30
0.0
 11
55.9015548919
 21
57.9186430063
 31
0.0
  0
SPLINE
  5
168
330
1F
100
AcDbEntity
  8
0
  6
Continuous
 62
     7
370
    25
100
AcDbSpline
210
0.0
220
0.0
230
1.0
 70
     8
 71
     3
 72
     8
 73
     4
 74
     0
 42
0.000000001
 43
0.00000001
 40
0.0
 40
0.0
 40
0.0
 40
0.0
 40
1.0
 40
1.0
 40
1.0
 40
1.0
 10
55.90155489194566
 20
57.56426768932327
 30
0.0
 10
55.89282724119588
 20
57.62335994946685
 30
0.0
 10
55.88389245653735
 20
57.68242204429274
 30
0.0
 10
55.87475997270255
 20
57.74145534779955
 30
0.0
  0
SPLINE
  5
169
330
1F
100
AcDbEntity
  8
0
  6
Continuous
 62
     7
370
    25
100
AcDbSpline
210
0.0
220
0.0
230
1.0
 70
     8
 71
     3
 72
     8
 73
     4
 74
     0
 42
0.000000001
 43
0.00000001
 40
0.0
 40
0.0
 40
0.0
 40
0.0
 40
1.0
 40
1.0
 40
1.0
 40
1.0
 10
55.92834981118877
 20
57.74145534779955
 30
0.0
 10
55.91921548783936
 20
57.68241015348344
 30
0.0
 10
55.91028075792201
 20
57.62334786531059
 30
0.0
 10
55.90155489194566
 20
57.56426768932327
 30
0.0
  0
LINE
  5
16A
330
1F
100
AcDbEntity
  8
0
  6
Continuous
 62
     7
370
    25
100
AcDbLine
 10
53.4015548919
 20
51.7414553478
 30
0.0
 11
55.8747599727
 21
51.7414553478
 31
0.0
  0
LINE
  5
16B
330
1F
100
AcDbEntity
  8
0
  6
Continuous
 62
     7
370
    25
100
AcDbLine
 10
55.9283498112
 20
51.7414553478
 30
0.0
 11
57.7213189398
 21
51.7414553478
 31
0.0
  0
SPLINE
  5
16C
330
1F
100
AcDbEntity
  8
0
  6
Continuous
 62
     7
370
    25
100
AcDbSpline
210
0.0
220
0.0
230
1.0
 70
     8
 71
     3
 72
     8
 73
     4
 74
     0
 42
0.000000001
 43
0.00000001
 40
0.0
 40
0.0
 40
0.0
 40
0.0
 40
1.0
 40
1.0
 40
1.0
 40
1.0
 10
55.90155489194566
 20
51.91864300627586
 30
0.0
 10
55.91028254269543
 20
51.85955074613229
 30
0.0
 10
55.91921732735396
 20
51.8004886513064
 30
0.0
 10
55.92834981118877
 20
51.74145534779959
 30
0.0
  0
SPLINE
  5
16D
330
1F
100
AcDbEntity
  8
0
  6
Continuous
 62
     7
370
    25
100
AcDbSpline
210
0.0
220
0.0
230
1.0
 70
     8
 71
     3
 72
     8
 73
     4
 74
     0
 42
0.000000001
 43
0.00000001
 40
0.0
 40
0.0
 40
0.0
 40
0.0
 40
1.0
 40
1.0
 40
1.0
 40
1.0
 10
55.87475997270255
 20
51.74145534779959
 30
0.0
 10
55.88389429605196
 20
51.8005005421157
 30
0.0
 10
55.8928290259693
 20
51.85956283028854
 30
0.0
 10
55.90155489194566
 20
51.91864300627586
 30
0.0
  0
LINE
  5
16E
330
1F
100
AcDbEntity
  8
0
  6
Continuous
 62
     7
370
    25
100
AcDbLine
 10
53.4015548919
 20
51.7414553478
 30
0.0
 11
53.4015548919
 21
57.7414553478
 31
0.0
  0
LINE
  5
16F
330
1F
100
AcDbEntity
  8
0
  6
Continuous
 62
     7
370
    25
100
AcDbLine
 10
46.7547862337
 20
62.5227438272
 30
0.0
 11
46.7547862337
 21
52.9601668684
 31
0.0
  0
LINE
  5
170
330
1F
100
AcDbEntity
  8
0
  6
Continuous
 62
     7
370
    25
100
AcDbLine
 10
45.4015548919
 20
53.7414553478
 30
0.0
 11
45.4015548919
 21
61.7414553478
 31
0.0
  0
SPLINE
  5
171
330
1F
100
AcDbEntity
  8
0
  6
Continuous
 62
     7
370
    25
100
AcDbSpline
210
0.0
220
0.0
230
1.0
 70
    24
 71
     3
 72
     8
 73
     4
 74
     0
 42
0.000000001
 43
0.00000001
 40
0.0
 40
0.0
 40
0.0
 40
0.0
 40
1.0
 40
1.0
 40
1.0
 40
1.0
 10
55.90155489194566
 20
51.74145534779958
 30
0.0
 10
55.89282733301347
 20
51.74145534779959
 30
0.0
 10
55.88389255113467
 20
51.74145534779959
 30
0.0
 10
55.87475997270255
 20
51.74145534779959
 30
0.0
  0
LINE
  5
172
330
1F
100
AcDbEntity
  8
0
  6
Continuous
 62
     7
370
    25
100
AcDbLine
 10
55.9015548919
 20
51.7414553478
 30
0.0
 11
55.9015548919
 21
51.9186430063
 31
0.0
  0
SPLINE
  5
173
330
1F
100
AcDbEntity
  8
0
  6
Continuous
 62
     7
370
    25
100
AcDbSpline
210
0.0
220
0.0
230
1.0
 70
    24
 71
     3
 72
     8
 73
     4
 74
     0
 42
0.000000001
 43
0.00000001
 40
0.0
 40
0.0
 40
0.0
 40
0.0
 40
1.0
 40
1.0
 40
1.0
 40
1.0
 10
55.92834981118877
 20
51.74145534779959
 30
0.0
 10
55.91921521795333
 20
51.74145534779959
 30
0.0
 10
55.91028049618924
 20
51.74145534779959
 30
0.0
 10
55.90155489194566
 20
51.74145534779958
 30
0.0
  0
SPLINE
  5
174
330
1F
100
AcDbEntity
  8
0
  6
Continuous
 62
     7
370
    25
100
AcDbSpline
210
0.0
220
0.0
230
1.0
 70
    24
 71
     3
 72
     8
 73
     4
 74
     0
 42
0.000000001
 43
0.00000001
 40
0.0
 40
0.0
 40
0.0
 40
0.0
 40
1.0
 40
1.0
 40
1.0
 40
1.0
 10
55.87475997270255
 20
63.74145534779956
 30
0.0
 10
55.88389456593799
 20
63.74145534779956
 30
0.0
 10
55.89282928770208
 20
63.74145534779956
 30
0.0
 10
55.90155489194566
 20
63.74145534779956
 30
0.0
  0
LINE
  5
175
330
1F
100
AcDbEntity
  8
0
  6
Continuous
 62
     7
370
    25
100
AcDbLine
 10
55.9015548919
 20
63.5642676893
 30
0.0
 11
55.9015548919
 21
63.7414553478
 31
0.0
  0
SPLINE
  5
176
330
1F
100
AcDbEntity
  8
0
  6
Continuous
 62
     7
370
    25
100
AcDbSpline
210
0.0
220
0.0
230
1.0
 70
    24
 71
     3
 72
     8
 73
     4
 74
     0
 42
0.000000001
 43
0.00000001
 40
0.0
 40
0.0
 40
0.0
 40
0.0
 40
1.0
 40
1.0
 40
1.0
 40
1.0
 10
55.90155489194566
 20
63.74145534779956
 30
0.0
 10
55.91028245087785
 20
63.74145534779956
 30
0.0
 10
55.91921723275665
 20
63.74145534779956
 30
0.0
 10
55.92834981118877
 20
63.74145534779956
 30
0.0
  0
LINE
  5
177
330
1F
100
AcDbEntity
  8
0
  6
Continuous
 62
     8
370
    25
100
AcDbLine
 10
59.8932645151
 20
63.5914553478
 30
0.0
 11
59.8932645151
 21
51.8914553478
 31
0.0
  0
LINE
  5
178
330
1F
100
AcDbEntity
  8
0
  6
Continuous
 62
     8
370
    25
100
AcDbLine
 10
69.2932645151
 20
63.5914553478
 30
0.0
 11
69.2932645151
 21
51.8914553478
 31
0.0
  0
LINE
  5
179
330
1F
100
AcDbEntity
  8
0
  6
Continuous
 62
     7
370
     0
100
AcDbLine
 10
45.842337536
 20
61.995941326
 30
0.0
 11
52.9015548919
 21
62.2165418684
 31
0.0
  0
LINE
  5
17A
330
1F
100
AcDbEntity
  8
0
  6
Continuous
 62
     7
370
     0
100
AcDbLine
 10
45.842337536
 20
53.4869693696
 30
0.0
 11
52.9015548919
 21
53.2663688272
 31
0.0
  0
LINE
  5
17B
330
1F
100
AcDbEntity
  8
0
  6
Continuous
 62
     7
370
     0
100
AcDbLine
 10
52.9015548919
 20
52.7680803478
 30
0.0
 11
52.9015548919
 21
62.7148303478
 31
0.0
  0
LINE
  5
17C
330
1F
100
AcDbEntity
  8
0
  6
CENTERX2
 62
     7
370
    18
100
AcDbLine
 10
44.4015548919
 20
57.7414553478
 30
0.0
 11
54.4015548919
 21
57.7414553478
 31
0.0
  0
LINE
  5
17D
330
1F
100
AcDbEntity
  8
0
  6
CENTERX2
 62
     7
370
    18
100
AcDbLine
 10
89.5932645151
 20
57.7414553478
 30
0.0
 11
56.7213189398
 21
57.7414553478
 31
0.0
  0
ENDSEC
  0
SECTION
  2
OBJECTS
  0
DICTIONARY
  5
C
330
0
100
AcDbDictionary
281
     1
  3
ACAD_GROUP
350
D
  3
ACAD_LAYOUT
350
1A
  3
ACAD_MLINESTYLE
350
17
  3
ACAD_PLOTSETTINGS
350
19
  3
ACAD_PLOTSTYLENAME
350
E
  3
ACAD_SCALELIST
350
47
  0
DICTIONARY
  5
D
102
{ACAD_REACTORS
330
C
102
}
330
C
100
AcDbDictionary
281
     1
  0
DICTIONARY
  5
1A
102
{ACAD_REACTORS
330
C
102
}
330
C
100
AcDbDictionary
281
     1
  3
Layout1
350
1E
  3
Layout2
350
26
  3
Model
350
22
  0
DICTIONARY
  5
17
102
{ACAD_REACTORS
330
C
102
}
330
C
100
AcDbDictionary
281
     1
  3
Standard
350
18
  0
DICTIONARY
  5
19
102
{ACAD_REACTORS
330
C
102
}
330
C
100
AcDbDictionary
281
     1
  0
ACDBDICTIONARYWDFLT
  5
E
102
{ACAD_REACTORS
330
C
102
}
330
C
100
AcDbDictionary
281
     1
  3
Normal
350
F
100
AcDbDictionaryWithDefault
340
F
  0
DICTIONARY
  5
47
102
{ACAD_REACTORS
330
C
102
}
330
C
100
AcDbDictionary
281
     1
  3
A0
350
48
  3
A1
350
49
  3
A2
350
4A
  3
A3
350
4B
  3
A4
350
4C
  3
A5
350
4D
  3
A6
350
4E
  3
A7
350
4F
  3
A8
350
50
  3
A9
350
51
  3
B0
350
52
  3
B1
350
53
  3
B2
350
54
  3
B3
350
55
  3
B4
350
56
  3
B5
350
57
  3
B6
350
58
  3
B7
350
59
  3
B8
350
5A
  3
B9
350
5B
  3
C0
350
5C
  3
C1
350
5D
  3
C2
350
5E
  3
C3
350
5F
  3
C4
350
60
  3
C5
350
61
  3
C6
350
62
  3
C7
350
63
  3
C8
350
64
  3
C9
350
65
  3
D0
350
66
  3
D1
350
67
  3
D2
350
68
  0
LAYOUT
  5
1E
102
{ACAD_REACTORS
330
1A
102
}
330
1A
100
AcDbPlotSettings
  1

  2
none_device
  4

  6

 40
0.0
 41
0.0
 42
0.0
 43
0.0
 44
0.0
 45
0.0
 46
0.0
 47
0.0
 48
0.0
 49
0.0
140
0.0
141
0.0
142
1.0
143
1.0
 70
   688
 72
     1
 73
     0
 74
     5
  7

 75
    16
147
1.0
148
0.0
149
0.0
100
AcDbLayout
  1
Layout1
 70
     1
 71
     1
 10
0.0
 20
0.0
 11
420.0
 21
297.0
 12
0.0
 22
0.0
 32
0.0
 14
1.0000000000E+20
 24
1.0000000000E+20
 34
1.0000000000E+20
 15
-1.0000000000E+20
 25
-1.0000000000E+20
 35
-1.0000000000E+20
146
0.0
 13
0.0
 23
0.0
 33
0.0
 16
1.0
 26
0.0
 36
0.0
 17
0.0
 27
1.0
 37
0.0
 76
     0
330
1B
  0
LAYOUT
  5
26
102
{ACAD_REACTORS
330
1A
102
}
330
1A
100
AcDbPlotSettings
  1

  2
none_device
  4

  6

 40
0.0
 41
0.0
 42
0.0
 43
0.0
 44
0.0
 45
0.0
 46
0.0
 47
0.0
 48
0.0
 49
0.0
140
0.0
141
0.0
142
1.0
143
1.0
 70
   688
 72
     1
 73
     0
 74
     5
  7

 75
    16
147
1.0
148
0.0
149
0.0
100
AcDbLayout
  1
Layout2
 70
     1
 71
     2
 10
0.0
 20
0.0
 11
0.0
 21
0.0
 12
0.0
 22
0.0
 32
0.0
 14
0.0
 24
0.0
 34
0.0
 15
0.0
 25
0.0
 35
0.0
146
0.0
 13
0.0
 23
0.0
 33
0.0
 16
1.0
 26
0.0
 36
0.0
 17
0.0
 27
1.0
 37
0.0
 76
     0
330
23
  0
LAYOUT
  5
22
102
{ACAD_REACTORS
330
1A
102
}
330
1A
100
AcDbPlotSettings
  1

  2
none_device
  4
Letter_(8.50_x_11.00_Inches)
  6

 40
6.35
 41
6.35
 42
6.35000508
 43
6.35000508
 44
215.9
 45
279.4
 46
0.0
 47
0.0
 48
0.0
 49
0.0
140
0.0
141
0.0
142
1.0
143
1.0
 70
  1712
 72
     1
 73
     0
 74
     0
  7

 75
     0
147
1.0
148
0.0
149
0.0
100
AcDbLayout
  1
Model
 70
     1
 71
     0
 10
0.0
 20
0.0
 11
215.9
 21
139.7
 12
0.0
 22
0.0
 32
0.0
 14
0.0
 24
0.0
 34
0.0
 15
215.9
 25
139.7
 35
0.0
146
0.0
 13
0.0
 23
0.0
 33
0.0
 16
1.0
 26
0.0
 36
0.0
 17
0.0
 27
1.0
 37
0.0
 76
     0
330
1F
331
29
  0
MLINESTYLE
  5
18
102
{ACAD_REACTORS
330
17
102
}
330
17
100
AcDbMlineStyle
  2
Standard
 70
     0
  3

 62
   256
 51
90.0
 52
90.0
 71
     2
 49
0.5
 62
   256
  6
BYLAYER
 49
-0.5
 62
   256
  6
BYLAYER
  0
ACDBPLACEHOLDER
  5
F
102
{ACAD_REACTORS
330
E
102
}
330
E
  0
SCALE
  5
48
102
{ACAD_REACTORS
330
47
102
}
330
47
100
AcDbScale
 70
     0
300
1:1
140
1.0
141
1.0
290
     1
  0
SCALE
  5
49
102
{ACAD_REACTORS
330
47
102
}
330
47
100
AcDbScale
 70
     0
300
1:2
140
1.0
141
2.0
290
     0
  0
SCALE
  5
4A
102
{ACAD_REACTORS
330
47
102
}
330
47
100
AcDbScale
 70
     0
300
1:4
140
1.0
141
4.0
290
     0
  0
SCALE
  5
4B
102
{ACAD_REACTORS
330
47
102
}
330
47
100
AcDbScale
 70
     0
300
1:5
140
1.0
141
5.0
290
     0
  0
SCALE
  5
4C
102
{ACAD_REACTORS
330
47
102
}
330
47
100
AcDbScale
 70
     0
300
1:8
140
1.0
141
8.0
290
     0
  0
SCALE
  5
4D
102
{ACAD_REACTORS
330
47
102
}
330
47
100
AcDbScale
 70
     0
300
1:10
140
1.0
141
10.0
290
     0
  0
SCALE
  5
4E
102
{ACAD_REACTORS
330
47
102
}
330
47
100
AcDbScale
 70
     0
300
1:16
140
1.0
141
16.0
290
     0
  0
SCALE
  5
4F
102
{ACAD_REACTORS
330
47
102
}
330
47
100
AcDbScale
 70
     0
300
1:20
140
1.0
141
20.0
290
     0
  0
SCALE
  5
50
102
{ACAD_REACTORS
330
47
102
}
330
47
100
AcDbScale
 70
     0
300
1:30
140
1.0
141
30.0
290
     0
  0
SCALE
  5
51
102
{ACAD_REACTORS
330
47
102
}
330
47
100
AcDbScale
 70
     0
300
1:40
140
1.0
141
40.0
290
     0
  0
SCALE
  5
52
102
{ACAD_REACTORS
330
47
102
}
330
47
100
AcDbScale
 70
     0
300
1:50
140
1.0
141
50.0
290
     0
  0
SCALE
  5
53
102
{ACAD_REACTORS
330
47
102
}
330
47
100
AcDbScale
 70
     0
300
1:100
140
1.0
141
100.0
290
     0
  0
SCALE
  5
54
102
{ACAD_REACTORS
330
47
102
}
330
47
100
AcDbScale
 70
     0
300
2:1
140
2.0
141
1.0
290
     0
  0
SCALE
  5
55
102
{ACAD_REACTORS
330
47
102
}
330
47
100
AcDbScale
 70
     0
300
4:1
140
4.0
141
1.0
290
     0
  0
SCALE
  5
56
102
{ACAD_REACTORS
330
47
102
}
330
47
100
AcDbScale
 70
     0
300
8:1
140
8.0
141
1.0
290
     0
  0
SCALE
  5
57
102
{ACAD_REACTORS
330
47
102
}
330
47
100
AcDbScale
 70
     0
300
10:1
140
10.0
141
1.0
290
     0
  0
SCALE
  5
58
102
{ACAD_REACTORS
330
47
102
}
330
47
100
AcDbScale
 70
     0
300
100:1
140
100.0
141
1.0
290
     0
  0
SCALE
  5
59
102
{ACAD_REACTORS
330
47
102
}
330
47
100
AcDbScale
 70
     0
300
1/128" = 1'-0"
140
0.0078125
141
12.0
290
     0
  0
SCALE
  5
5A
102
{ACAD_REACTORS
330
47
102
}
330
47
100
AcDbScale
 70
     0
300
1/64" = 1'-0"
140
0.015625
141
12.0
290
     0
  0
SCALE
  5
5B
102
{ACAD_REACTORS
330
47
102
}
330
47
100
AcDbScale
 70
     0
300
1/32" = 1'-0"
140
0.03125
141
12.0
290
     0
  0
SCALE
  5
5C
102
{ACAD_REACTORS
330
47
102
}
330
47
100
AcDbScale
 70
     0
300
1/16" = 1'-0"
140
0.0625
141
12.0
290
     0
  0
SCALE
  5
5D
102
{ACAD_REACTORS
330
47
102
}
330
47
100
AcDbScale
 70
     0
300
3/32" = 1'-0"
140
0.09375
141
12.0
290
     0
  0
SCALE
  5
5E
102
{ACAD_REACTORS
330
47
102
}
330
47
100
AcDbScale
 70
     0
300
1/8" = 1'-0"
140
0.125
141
12.0
290
     0
  0
SCALE
  5
5F
102
{ACAD_REACTORS
330
47
102
}
330
47
100
AcDbScale
 70
     0
300
3/16" = 1'-0"
140
0.1875
141
12.0
290
     0
  0
SCALE
  5
60
102
{ACAD_REACTORS
330
47
102
}
330
47
100
AcDbScale
 70
     0
300
1/4" = 1'-0"
140
0.25
141
12.0
290
     0
  0
SCALE
  5
61
102
{ACAD_REACTORS
330
47
102
}
330
47
100
AcDbScale
 70
     0
300
3/8" = 1'-0"
140
0.375
141
12.0
290
     0
  0
SCALE
  5
62
102
{ACAD_REACTORS
330
47
102
}
330
47
100
AcDbScale
 70
     0
300
1/2" = 1'-0"
140
0.5
141
12.0
290
     0
  0
SCALE
  5
63
102
{ACAD_REACTORS
330
47
102
}
330
47
100
AcDbScale
 70
     0
300
3/4" = 1'-0"
140
0.75
141
12.0
290
     0
  0
SCALE
  5
64
102
{ACAD_REACTORS
330
47
102
}
330
47
100
AcDbScale
 70
     0
300
1" = 1'-0"
140
1.0
141
12.0
290
     0
  0
SCALE
  5
65
102
{ACAD_REACTORS
330
47
102
}
330
47
100
AcDbScale
 70
     0
300
1-1/2" = 1'-0"
140
1.5
141
12.0
290
     0
  0
SCALE
  5
66
102
{ACAD_REACTORS
330
47
102
}
330
47
100
AcDbScale
 70
     0
300
3" = 1'-0"
140
3.0
141
12.0
290
     0
  0
SCALE
  5
67
102
{ACAD_REACTORS
330
47
102
}
330
47
100
AcDbScale
 70
     0
300
6" = 1'-0"
140
6.0
141
12.0
290
     0
  0
SCALE
  5
68
102
{ACAD_REACTORS
330
47
102
}
330
47
100
AcDbScale
 70
     0
300
1'-0" = 1'-0"
140
12.0
141
12.0
290
     0
  0
ENDSEC
  0
EOF
