  0
SECTION
  2
HEADER
  9
$ACADVER
  1
AC1015
  9
$ACADMAINTVER
 70
     6
  9
$DWGCODEPAGE
  3
DOS932
  9
$INSBASE
 10
0.0
 20
0.0
 30
0.0
  9
$EXTMIN
 10
0.0
 20
0.0
 30
0.0
  9
$EXTMAX
 10
431.8
 20
279.4
 30
0.0
  9
$LIMMIN
 10
0.0
 20
0.0
  9
$LIMMAX
 10
431.8
 20
279.4
  9
$ORTHOMODE
 70
     0
  9
$REGENMODE
 70
     1
  9
$FILLMODE
 70
     1
  9
$QTEXTMODE
 70
     0
  9
$MIRRTEXT
 70
     1
  9
$LTSCALE
 40
1.0
  9
$ATTMODE
 70
     1
  9
$TEXTSIZE
 40
3.5
  9
$TRACEWID
 40
1.0
  9
$TEXTSTYLE
  7
Standard
  9
$CLAYER
  8
0
  9
$CELTYPE
  6
ByLayer
  9
$CECOLOR
 62
   256
  9
$CELTSCALE
 40
1.0
  9
$DISPSILH
 70
     0
  9
$DIMSCALE
 40
1.0
  9
$DIMASZ
 40
3.302
  9
$DIMEXO
 40
1.0
  9
$DIMDLI
 40
3.75
  9
$DIMRND
 40
0.0
  9
$DIMDLE
 40
0.0
  9
$DIMEXE
 40
1.0
  9
$DIMTP
 40
0.0
  9
$DIMTM
 40
0.0
  9
$DIMTXT
 40
3.5
  9
$DIMCEN
 40
2.5
  9
$DIMTSZ
 40
0.0
  9
$DIMTOL
 70
     0
  9
$DIMLIM
 70
     0
  9
$DIMTIH
 70
     1
  9
$DIMTOH
 70
     1
  9
$DIMSE1
 70
     0
  9
$DIMSE2
 70
     0
  9
$DIMTAD
 70
     1
  9
$DIMZIN
 70
     1
  9
$DIMBLK
  1

  9
$DIMASO
 70
     1
  9
$DIMSHO
 70
     1
  9
$DIMPOST
  1

  9
$DIMAPOST
  1

  9
$DIMALT
 70
     0
  9
$DIMALTD
 70
     3
  9
$DIMALTF
 40
0.0393700787
  9
$DIMLFAC
 40
1.0
  9
$DIMTOFL
 70
     1
  9
$DIMTVP
 40
0.0
  9
$DIMTIX
 70
     0
  9
$DIMSOXD
 70
     0
  9
$DIMSAH
 70
     0
  9
$DIMBLK1
  1

  9
$DIMBLK2
  1

  9
$DIMSTYLE
  2
ISO-25
  9
$DIMCLRD
 70
     0
  9
$DIMCLRE
 70
     0
  9
$DIMCLRT
 70
     0
  9
$DIMTFAC
 40
1.0
  9
$DIMGAP
 40
1.524
  9
$DIMJUST
 70
     0
  9
$DIMSD1
 70
     0
  9
$DIMSD2
 70
     0
  9
$DIMTOLJ
 70
     0
  9
$DIMTZIN
 70
     1
  9
$DIMALTZ
 70
     0
  9
$DIMALTTZ
 70
     0
  9
$DIMUPT
 70
     0
  9
$DIMDEC
 70
     2
  9
$DIMTDEC
 70
     2
  9
$DIMALTU
 70
     2
  9
$DIMALTTD
 70
     3
  9
$DIMTXSTY
  7
Standard
  9
$DIMAUNIT
 70
     0
  9
$DIMADEC
 70
     2
  9
$DIMALTRND
 40
0.0
  9
$DIMAZIN
 70
     0
  9
$DIMDSEP
 70
    44
  9
$DIMATFIT
 70
     3
  9
$DIMFRAC
 70
     0
  9
$DIMLDRBLK
  1

  9
$DIMLUNIT
 70
     2
  9
$DIMLWD
 70
    -2
  9
$DIMLWE
 70
    -2
  9
$DIMTMOVE
 70
     0
  9
$LUNITS
 70
     2
  9
$LUPREC
 70
     2
  9
$SKETCHINC
 40
1.0
  9
$FILLETRAD
 40
10.0
  9
$AUNITS
 70
     0
  9
$AUPREC
 70
     2
  9
$MENU
  1
.
  9
$ELEVATION
 40
0.0
  9
$PELEVATION
 40
0.0
  9
$THICKNESS
 40
0.0
  9
$LIMCHECK
 70
     0
  9
$CHAMFERA
 40
0.0
  9
$CHAMFERB
 40
0.0
  9
$CHAMFERC
 40
0.0
  9
$CHAMFERD
 40
0.0
  9
$SKPOLY
 70
     0
  9
$TDCREATE
 40
2459296.645195463
  9
$TDUCREATE
 40
2459296.270195463
  9
$TDUPDATE
 40
2459296.645196088
  9
$TDUUPDATE
 40
2459296.270196088
  9
$TDINDWG
 40
0.0000000116
  9
$TDUSRTIMER
 40
0.0000000116
  9
$USRTIMER
 70
     1
  9
$ANGBASE
 50
0.0
  9
$ANGDIR
 70
     0
  9
$PDMODE
 70
     0
  9
$PDSIZE
 40
-1.0
  9
$PLINEWID
 40
0.0
  9
$SPLFRAME
 70
     0
  9
$SPLINETYPE
 70
     6
  9
$SPLINESEGS
 70
     8
  9
$HANDSEED
  5
23D
  9
$SURFTAB1
 70
     6
  9
$SURFTAB2
 70
     6
  9
$SURFTYPE
 70
     6
  9
$SURFU
 70
     6
  9
$SURFV
 70
     6
  9
$UCSBASE
  2

  9
$UCSNAME
  2

  9
$UCSORG
 10
0.0
 20
0.0
 30
0.0
  9
$UCSXDIR
 10
1.0
 20
0.0
 30
0.0
  9
$UCSYDIR
 10
0.0
 20
1.0
 30
0.0
  9
$UCSORTHOREF
  2

  9
$UCSORTHOVIEW
 70
     0
  9
$UCSORGTOP
 10
0.0
 20
0.0
 30
0.0
  9
$UCSORGBOTTOM
 10
0.0
 20
0.0
 30
0.0
  9
$UCSORGLEFT
 10
0.0
 20
0.0
 30
0.0
  9
$UCSORGRIGHT
 10
0.0
 20
0.0
 30
0.0
  9
$UCSORGFRONT
 10
0.0
 20
0.0
 30
0.0
  9
$UCSORGBACK
 10
0.0
 20
0.0
 30
0.0
  9
$PUCSBASE
  2

  9
$PUCSNAME
  2

  9
$PUCSORG
 10
0.0
 20
0.0
 30
0.0
  9
$PUCSXDIR
 10
1.0
 20
0.0
 30
0.0
  9
$PUCSYDIR
 10
0.0
 20
1.0
 30
0.0
  9
$PUCSORTHOREF
  2

  9
$PUCSORTHOVIEW
 70
     0
  9
$PUCSORGTOP
 10
0.0
 20
0.0
 30
0.0
  9
$PUCSORGBOTTOM
 10
0.0
 20
0.0
 30
0.0
  9
$PUCSORGLEFT
 10
0.0
 20
0.0
 30
0.0
  9
$PUCSORGRIGHT
 10
0.0
 20
0.0
 30
0.0
  9
$PUCSORGFRONT
 10
0.0
 20
0.0
 30
0.0
  9
$PUCSORGBACK
 10
0.0
 20
0.0
 30
0.0
  9
$USERI1
 70
     0
  9
$USERI2
 70
     0
  9
$USERI3
 70
     0
  9
$USERI4
 70
     0
  9
$USERI5
 70
     0
  9
$USERR1
 40
0.0
  9
$USERR2
 40
0.0
  9
$USERR3
 40
0.0
  9
$USERR4
 40
0.0
  9
$USERR5
 40
0.0
  9
$WORLDVIEW
 70
     1
  9
$SHADEDGE
 70
     3
  9
$SHADEDIF
 70
    70
  9
$TILEMODE
 70
     1
  9
$MAXACTVP
 70
    64
  9
$PINSBASE
 10
0.0
 20
0.0
 30
0.0
  9
$PLIMCHECK
 70
     0
  9
$PEXTMIN
 10
1.0000000000E+20
 20
1.0000000000E+20
 30
1.0000000000E+20
  9
$PEXTMAX
 10
-1.0000000000E+20
 20
-1.0000000000E+20
 30
-1.0000000000E+20
  9
$PLIMMIN
 10
0.0
 20
0.0
  9
$PLIMMAX
 10
420.0
 20
297.0
  9
$UNITMODE
 70
     0
  9
$VISRETAIN
 70
     1
  9
$PLINEGEN
 70
     0
  9
$PSLTSCALE
 70
     1
  9
$TREEDEPTH
 70
  3020
  9
$CMLSTYLE
  2
Standard
  9
$CMLJUST
 70
     0
  9
$CMLSCALE
 40
20.0
  9
$PROXYGRAPHICS
 70
     1
  9
$MEASUREMENT
 70
     1
  9
$CELWEIGHT
370
    -1
  9
$ENDCAPS
280
     0
  9
$JOINSTYLE
280
     0
  9
$LWDISPLAY
290
     1
  9
$INSUNITS
 70
     4
  9
$HYPERLINKBASE
  1

  9
$STYLESHEET
  1

  9
$XEDIT
290
     1
  9
$CEPSNTYPE
380
     0
  9
$PSTYLEMODE
290
     1
  9
$FINGERPRINTGUID
  2
{8B13ACFA-168D-4876-9945-BD48FAE7A914}
  9
$VERSIONGUID
  2
{FAEB1C32-E019-11D5-929B-00C0DF256EC4}
  9
$EXTNAMES
290
     1
  9
$PSVPSCALE
 40
0.0
  9
$OLESTARTUP
290
     0
  0
ENDSEC
  0
SECTION
  2
CLASSES
  0
CLASS
  1
ACDBDICTIONARYWDFLT
  2
AcDbDictionaryWithDefault
  3
ObjectDBX Classes
 90
        0
280
     0
281
     0
  0
CLASS
  1
VISUALSTYLE
  2
AcDbVisualStyle
  3
ObjectDBX Classes
 90
     4095
280
     0
281
     0
  0
CLASS
  1
MATERIAL
  2
AcDbMaterial
  3
ObjectDBX Classes
 90
     1153
280
     0
281
     0
  0
CLASS
  1
SCALE
  2
AcDbScale
  3
ObjectDBX Classes
 90
     1153
280
     0
281
     0
  0
CLASS
  1
TABLESTYLE
  2
AcDbTableStyle
  3
ObjectDBX Classes
 90
     4095
280
     0
281
     0
  0
CLASS
  1
MLEADERSTYLE
  2
AcDbMLeaderStyle
  3
ACDB_MLEADERSTYLE_CLASS
 90
     4095
280
     0
281
     0
  0
CLASS
  1
SUN
  2
AcDbSun
  3
SCENEOE
 90
     1153
280
     0
281
     0
  0
CLASS
  1
ACDBPLACEHOLDER
  2
AcDbPlaceHolder
  3
ObjectDBX Classes
 90
        0
280
     0
281
     0
  0
CLASS
  1
LAYOUT
  2
AcDbLayout
  3
ObjectDBX Classes
 90
        0
280
     0
281
     0
  0
ENDSEC
  0
SECTION
  2
TABLES
  0
TABLE
  2
VPORT
  5
8
330
0
100
AcDbSymbolTable
 70
     1
  0
VPORT
  5
29
330
8
100
AcDbSymbolTableRecord
100
AcDbViewportTableRecord
  2
*Active
 70
     0
 10
0.0
 20
0.0
 11
1.0
 21
1.0
 12
215.9
 22
139.7
 13
0.0
 23
0.0
 14
10.0
 24
10.0
 15
10.0
 25
10.0
 16
0.0
 26
0.0
 36
1.0
 17
0.0
 27
0.0
 37
0.0
 40
279.4
 41
1.5454545455
 42
50.0
 43
0.0
 44
0.0
 50
0.0
 51
0.0
 71
     0
 72
  2000
 73
     1
 74
     3
 75
     0
 76
     0
 77
     0
 78
     0
281
     0
 65
     1
110
0.0
120
0.0
130
0.0
111
1.0
121
0.0
131
0.0
112
0.0
122
1.0
132
0.0
 79
     0
146
0.0
  0
ENDTAB
  0
TABLE
  2
LTYPE
  5
5
330
0
100
AcDbSymbolTable
 70
     6
  0
LTYPE
  5
14
330
5
100
AcDbSymbolTableRecord
100
AcDbLinetypeTableRecord
  2
ByBlock
 70
     0
  3

 72
    65
 73
     0
 40
0.0
  0
LTYPE
  5
15
330
5
100
AcDbSymbolTableRecord
100
AcDbLinetypeTableRecord
  2
ByLayer
 70
     0
  3

 72
    65
 73
     0
 40
0.0
  0
LTYPE
  5
16
330
5
100
AcDbSymbolTableRecord
100
AcDbLinetypeTableRecord
  2
Continuous
 70
     0
  3
Solid line
 72
    65
 73
     0
 40
0.0
  0
LTYPE
  5
6E
330
5
100
AcDbSymbolTableRecord
100
AcDbLinetypeTableRecord
  2
HIDDEN
 70
     0
  3
Hidden __ __ __ __ __ __ __ __ __ __ __ __ __ __
 72
    65
 73
     2
 40
1.905
 49
1.27
 74
     0
 49
-0.635
 74
     0
  0
LTYPE
  5
6F
330
5
100
AcDbSymbolTableRecord
100
AcDbLinetypeTableRecord
  2
PHANTOM
 70
     0
  3
Phantom ______  __  __  ______  __  __  ______
 72
    65
 73
     6
 40
12.7
 49
6.35
 74
     0
 49
-1.27
 74
     0
 49
1.27
 74
     0
 49
-1.27
 74
     0
 49
1.27
 74
     0
 49
-1.27
 74
     0
  0
LTYPE
  5
70
330
5
100
AcDbSymbolTableRecord
100
AcDbLinetypeTableRecord
  2
CENTER
 70
     0
  3
Center ____ _ ____ _ ____ _ ____ _ ____ _ ____
 72
    65
 73
     4
 40
10.16
 49
6.35
 74
     0
 49
-1.27
 74
     0
 49
1.27
 74
     0
 49
-1.27
 74
     0
  0
LTYPE
  5
71
330
5
100
AcDbSymbolTableRecord
100
AcDbLinetypeTableRecord
  2
CENTERX2
 70
     0
  3
Center (2x) ________  __  ________  __  _____
 72
    65
 73
     4
 40
20.32
 49
12.7
 74
     0
 49
-2.54
 74
     0
 49
2.54
 74
     0
 49
-2.54
 74
     0
  0
LTYPE
  5
72
330
5
100
AcDbSymbolTableRecord
100
AcDbLinetypeTableRecord
  2
DOT2
 70
     0
  3
Dot (.5x) ........................................
 72
    65
 73
     2
 40
0.635
 49
0.0
 74
     0
 49
-0.635
 74
     0
  0
ENDTAB
  0
TABLE
  2
LAYER
  5
2
330
0
100
AcDbSymbolTable
 70
     1
  0
LAYER
  5
10
330
2
100
AcDbSymbolTableRecord
100
AcDbLayerTableRecord
  2
0
 70
     0
 62
     7
  6
Continuous
370
    -3
390
F
  0
ENDTAB
  0
TABLE
  2
STYLE
  5
3
330
0
100
AcDbSymbolTable
 70
     2
  0
STYLE
  5
11
330
3
100
AcDbSymbolTableRecord
100
AcDbTextStyleTableRecord
  2
Standard
 70
     0
 40
0.0
 41
1.0
 50
0.0
 71
     0
 42
3.5
  3
txt
  4
bigfont
  0
STYLE
  5
73
330
3
100
AcDbSymbolTableRecord
100
AcDbTextStyleTableRecord
  2
SLDTEXTSTYLE0
 70
     0
 40
0.0
 41
0.7
 50
0.0
 71
     0
 42
3.5
  3
TXT
  4
bigfont
  0
ENDTAB
  0
TABLE
  2
VIEW
  5
6
330
0
100
AcDbSymbolTable
 70
     0
  0
ENDTAB
  0
TABLE
  2
UCS
  5
7
330
0
100
AcDbSymbolTable
 70
     0
  0
ENDTAB
  0
TABLE
  2
APPID
  5
9
330
0
100
AcDbSymbolTable
 70
     1
  0
APPID
  5
12
330
9
100
AcDbSymbolTableRecord
100
AcDbRegAppTableRecord
  2
ACAD
 70
     0
  0
ENDTAB
  0
TABLE
  2
DIMSTYLE
  5
A
330
0
100
AcDbSymbolTable
 70
     1
100
AcDbDimStyleTable
  0
DIMSTYLE
105
27
330
A
100
AcDbSymbolTableRecord
100
AcDbDimStyleTableRecord
  2
ISO-25
 70
     0
 41
2.5
 42
0.625
 43
3.75
 44
1.25
 73
     0
 74
     0
 77
     1
 78
     8
140
2.5
141
2.5
143
0.0393700787
147
0.625
171
     3
172
     1
178
     0
271
     2
272
     2
274
     3
278
    44
283
     0
284
     8
340
11
  0
ENDTAB
  0
TABLE
  2
BLOCK_RECORD
  5
1
330
0
100
AcDbSymbolTable
 70
     3
  0
BLOCK_RECORD
  5
1F
330
1
100
AcDbSymbolTableRecord
100
AcDbBlockTableRecord
  2
*Model_Space
340
22
  0
BLOCK_RECORD
  5
1B
330
1
100
AcDbSymbolTableRecord
100
AcDbBlockTableRecord
  2
*Paper_Space
340
1E
  0
BLOCK_RECORD
  5
23
330
1
100
AcDbSymbolTableRecord
100
AcDbBlockTableRecord
  2
*Paper_Space0
340
26
  0
BLOCK_RECORD
  5
1A9
330
1
100
AcDbSymbolTableRecord
100
AcDbBlockTableRecord
  2
SW_CENTERMARKSYMBOL_0
340
0
102
{BLKREFS
331
1B4
102
}
  0
BLOCK_RECORD
  5
231
330
1
100
AcDbSymbolTableRecord
100
AcDbBlockTableRecord
  2
SW_CENTERMARKSYMBOL_1
340
0
102
{BLKREFS
331
23C
102
}
  0
ENDTAB
  0
ENDSEC
  0
SECTION
  2
BLOCKS
  0
BLOCK
  5
20
330
1F
100
AcDbEntity
  8
0
100
AcDbBlockBegin
  2
*Model_Space
 70
     0
 10
0.0
 20
0.0
 30
0.0
  3
*Model_Space
  1

  0
ENDBLK
  5
21
330
1F
100
AcDbEntity
  8
0
100
AcDbBlockEnd
  0
BLOCK
  5
1C
330
1B
100
AcDbEntity
 67
     1
  8
0
100
AcDbBlockBegin
  2
*Paper_Space
 70
     0
 10
0.0
 20
0.0
 30
0.0
  3
*Paper_Space
  1

  0
ENDBLK
  5
1D
330
1B
100
AcDbEntity
 67
     1
  8
0
100
AcDbBlockEnd
  0
BLOCK
  5
24
330
23
100
AcDbEntity
  8
0
100
AcDbBlockBegin
  2
*Paper_Space0
 70
     0
 10
0.0
 20
0.0
 30
0.0
  3
*Paper_Space0
  1

  0
ENDBLK
  5
25
330
23
100
AcDbEntity
  8
0
100
AcDbBlockEnd
  0
BLOCK
  5
1AA
330
1A9
100
AcDbEntity
  8
0
100
AcDbBlockBegin
  2
SW_CENTERMARKSYMBOL_0
 70
     0
 10
0.0
 20
0.0
 30
0.0
  3
SW_CENTERMARKSYMBOL_0
  1

  0
LINE
  5
1AC
330
1A9
100
AcDbEntity
  8
0
  6
Continuous
 62
     0
370
    18
100
AcDbLine
 10
0.0
 20
0.0
 30
0.0
 11
0.0
 21
2.5
 31
0.0
  0
LINE
  5
1AD
330
1A9
100
AcDbEntity
  8
0
  6
Continuous
 62
     0
370
    18
100
AcDbLine
 10
0.0
 20
0.0
 30
0.0
 11
-2.5
 21
0.0
 31
0.0
  0
LINE
  5
1AE
330
1A9
100
AcDbEntity
  8
0
  6
Continuous
 62
     0
370
    18
100
AcDbLine
 10
0.0
 20
0.0
 30
0.0
 11
0.0
 21
-2.5
 31
0.0
  0
LINE
  5
1AF
330
1A9
100
AcDbEntity
  8
0
  6
Continuous
 62
     0
370
    18
100
AcDbLine
 10
0.0
 20
0.0
 30
0.0
 11
2.5
 21
0.0
 31
0.0
  0
LINE
  5
1B0
330
1A9
100
AcDbEntity
  8
0
  6
Continuous
 62
     0
370
    18
100
AcDbLine
 10
0.0
 20
5.0
 30
0.0
 11
0.0
 21
30.6001419678
 31
0.0
  0
LINE
  5
1B1
330
1A9
100
AcDbEntity
  8
0
  6
Continuous
 62
     0
370
    18
100
AcDbLine
 10
-5.0
 20
0.0
 30
0.0
 11
-10.35
 21
0.0
 31
0.0
  0
LINE
  5
1B2
330
1A9
100
AcDbEntity
  8
0
  6
Continuous
 62
     0
370
    18
100
AcDbLine
 10
0.0
 20
-5.0
 30
0.0
 11
0.0
 21
-10.35
 31
0.0
  0
LINE
  5
1B3
330
1A9
100
AcDbEntity
  8
0
  6
Continuous
 62
     0
370
    18
100
AcDbLine
 10
5.0
 20
0.0
 30
0.0
 11
10.35
 21
0.0
 31
0.0
  0
ENDBLK
  5
1AB
330
1A9
100
AcDbEntity
  8
0
100
AcDbBlockEnd
  0
BLOCK
  5
232
330
231
100
AcDbEntity
  8
0
100
AcDbBlockBegin
  2
SW_CENTERMARKSYMBOL_1
 70
     0
 10
0.0
 20
0.0
 30
0.0
  3
SW_CENTERMARKSYMBOL_1
  1

  0
LINE
  5
234
330
231
100
AcDbEntity
  8
0
  6
Continuous
 62
     0
370
    18
100
AcDbLine
 10
0.0
 20
0.0
 30
0.0
 11
0.0
 21
2.5
 31
0.0
  0
LINE
  5
235
330
231
100
AcDbEntity
  8
0
  6
Continuous
 62
     0
370
    18
100
AcDbLine
 10
0.0
 20
0.0
 30
0.0
 11
-2.5
 21
0.0
 31
0.0
  0
LINE
  5
236
330
231
100
AcDbEntity
  8
0
  6
Continuous
 62
     0
370
    18
100
AcDbLine
 10
0.0
 20
0.0
 30
0.0
 11
0.0
 21
-2.5
 31
0.0
  0
LINE
  5
237
330
231
100
AcDbEntity
  8
0
  6
Continuous
 62
     0
370
    18
100
AcDbLine
 10
0.0
 20
0.0
 30
0.0
 11
2.5
 21
0.0
 31
0.0
  0
LINE
  5
238
330
231
100
AcDbEntity
  8
0
  6
Continuous
 62
     0
370
    18
100
AcDbLine
 10
0.0
 20
5.0
 30
0.0
 11
0.0
 21
13.1493869233
 31
0.0
  0
LINE
  5
239
330
231
100
AcDbEntity
  8
0
  6
Continuous
 62
     0
370
    18
100
AcDbLine
 10
-5.0
 20
0.0
 30
0.0
 11
-13.1493869233
 21
0.0
 31
0.0
  0
LINE
  5
23A
330
231
100
AcDbEntity
  8
0
  6
Continuous
 62
     0
370
    18
100
AcDbLine
 10
0.0
 20
-5.0
 30
0.0
 11
0.0
 21
-13.1493869233
 31
0.0
  0
LINE
  5
23B
330
231
100
AcDbEntity
  8
0
  6
Continuous
 62
     0
370
    18
100
AcDbLine
 10
5.0
 20
0.0
 30
0.0
 11
59.5296992866
 21
0.0
 31
0.0
  0
ENDBLK
  5
233
330
231
100
AcDbEntity
  8
0
100
AcDbBlockEnd
  0
ENDSEC
  0
SECTION
  2
ENTITIES
  0
MTEXT
  5
74
330
1F
100
AcDbEntity
  8
0
  6
Continuous
 62
     7
370
     0
100
AcDbMText
 10
177.1321259979
 20
147.3011809466
 30
0.0
 40
4.7625
 41
0.0
 71
     1
 72
     1
  1
HL-1408R
  7
SLDTEXTSTYLE0
 73
     1
 44
1.0
  0
LINE
  5
75
330
1F
100
AcDbEntity
  8
0
  6
Continuous
 62
     7
370
    25
100
AcDbLine
 10
134.6272453711
 20
102.5017405673
 30
0.0
 11
134.6004504519
 21
102.4017405673
 31
0.0
  0
LINE
  5
76
330
1F
100
AcDbEntity
  8
0
  6
Continuous
 62
     7
370
    25
100
AcDbLine
 10
134.6004504519
 20
93.6017405673
 30
0.0
 11
134.6272453711
 21
93.5017405673
 31
0.0
  0
LINE
  5
77
330
1F
100
AcDbEntity
  8
0
  6
Continuous
 62
     7
370
    25
100
AcDbLine
 10
134.6272453711
 20
93.5017405673
 30
0.0
 11
135.1004504519
 21
93.5017405673
 31
0.0
  0
LINE
  5
78
330
1F
100
AcDbEntity
  8
0
  6
Continuous
 62
     7
370
    25
100
AcDbLine
 10
135.1004504519
 20
102.5017405673
 30
0.0
 11
134.6272453711
 21
102.5017405673
 31
0.0
  0
LINE
  5
79
330
1F
100
AcDbEntity
  8
0
  6
Continuous
 62
     7
370
    25
100
AcDbLine
 10
135.1004504519
 20
94.0017405673
 30
0.0
 11
139.1004504519
 21
94.0017405673
 31
0.0
  0
LINE
  5
7A
330
1F
100
AcDbEntity
  8
0
  6
Continuous
 62
     7
370
    25
100
AcDbLine
 10
139.1004504519
 20
102.0017405673
 30
0.0
 11
135.1004504519
 21
102.0017405673
 31
0.0
  0
LINE
  5
7B
330
1F
100
AcDbEntity
  8
0
  6
Continuous
 62
     7
370
    25
100
AcDbLine
 10
139.1004504519
 20
94.0017405673
 30
0.0
 11
143.1004504519
 21
94.6517405673
 31
0.0
  0
LINE
  5
7C
330
1F
100
AcDbEntity
  8
0
  6
Continuous
 62
     7
370
    25
100
AcDbLine
 10
143.1004504519
 20
101.3517405673
 30
0.0
 11
139.1004504519
 21
102.0017405673
 31
0.0
  0
LINE
  5
7D
330
1F
100
AcDbEntity
  8
0
  6
Continuous
 62
     7
370
    25
100
AcDbLine
 10
155.1004504519
 20
94.0017405673
 30
0.0
 11
159.8943424878
 21
94.5682914442
 31
0.0
  0
LINE
  5
7E
330
1F
100
AcDbEntity
  8
0
  6
Continuous
 62
     7
370
    25
100
AcDbLine
 10
159.8943424878
 20
101.4351896903
 30
0.0
 11
155.1004504519
 21
102.0017405673
 31
0.0
  0
LINE
  5
7F
330
1F
100
AcDbEntity
  8
0
  6
Continuous
 62
     7
370
    25
100
AcDbLine
 10
143.1004504519
 20
94.0017405673
 30
0.0
 11
147.1004504519
 21
94.6517405673
 31
0.0
  0
LINE
  5
80
330
1F
100
AcDbEntity
  8
0
  6
Continuous
 62
     7
370
    25
100
AcDbLine
 10
147.1004504519
 20
101.3517405673
 30
0.0
 11
143.1004504519
 21
102.0017405673
 31
0.0
  0
LINE
  5
81
330
1F
100
AcDbEntity
  8
0
  6
Continuous
 62
     7
370
    25
100
AcDbLine
 10
151.1004504519
 20
94.0017405673
 30
0.0
 11
155.1004504519
 21
94.6517405673
 31
0.0
  0
LINE
  5
82
330
1F
100
AcDbEntity
  8
0
  6
Continuous
 62
     7
370
    25
100
AcDbLine
 10
155.1004504519
 20
101.3517405673
 30
0.0
 11
151.1004504519
 21
102.0017405673
 31
0.0
  0
LINE
  5
83
330
1F
100
AcDbEntity
  8
0
  6
Continuous
 62
     7
370
    25
100
AcDbLine
 10
147.1004504519
 20
94.0017405673
 30
0.0
 11
151.1004504519
 21
94.6517405673
 31
0.0
  0
LINE
  5
84
330
1F
100
AcDbEntity
  8
0
  6
Continuous
 62
     7
370
    25
100
AcDbLine
 10
151.1004504519
 20
101.3517405673
 30
0.0
 11
147.1004504519
 21
102.0017405673
 31
0.0
  0
ARC
  5
85
330
1F
100
AcDbEntity
  8
0
  6
Continuous
 62
     7
370
    25
100
AcDbCircle
 10
159.8004504519
 20
95.3627625171
 30
0.0
 40
0.8000000000000114
100
AcDbArc
 50
276.7400560979
 51
0.0
  0
ARC
  5
86
330
1F
100
AcDbEntity
  8
0
  6
Continuous
 62
     7
370
    25
100
AcDbCircle
 10
159.8004504519
 20
100.6407186174
 30
0.0
 40
0.8000000000000114
100
AcDbArc
 50
0.0
 51
83.2599439021
  0
LINE
  5
87
330
1F
100
AcDbEntity
  8
0
  6
Continuous
 62
     7
370
    25
100
AcDbLine
 10
124.4015841721
 20
107.2393448743
 30
0.0
 11
123.6004504519
 21
105.8517405673
 31
0.0
  0
LINE
  5
88
330
1F
100
AcDbEntity
  8
0
  6
Continuous
 62
     7
370
    25
100
AcDbLine
 10
123.6004504519
 20
90.1517405673
 30
0.0
 11
124.4015841721
 21
88.7641362602
 31
0.0
  0
LINE
  5
89
330
1F
100
AcDbEntity
  8
0
  6
Continuous
 62
     7
370
    25
100
AcDbLine
 10
131.7993167317
 20
88.7641362602
 30
0.0
 11
132.6004504519
 21
90.1517405673
 31
0.0
  0
LINE
  5
8A
330
1F
100
AcDbEntity
  8
0
  6
Continuous
 62
     7
370
    25
100
AcDbLine
 10
132.6004504519
 20
105.8517405673
 30
0.0
 11
131.7993167317
 21
107.2393448743
 31
0.0
  0
ARC
  5
8B
330
1F
100
AcDbEntity
  8
0
  6
Continuous
 62
     7
370
    25
100
AcDbCircle
 10
134.3004504519
 20
105.5517405673
 30
0.0
 40
0.3000000000000114
100
AcDbArc
 50
0.0
 51
90.0
  0
ARC
  5
8C
330
1F
100
AcDbEntity
  8
0
  6
Continuous
 62
     7
370
    25
100
AcDbCircle
 10
134.3004504519
 20
90.4517405673
 30
0.0
 40
0.3000000000000114
100
AcDbArc
 50
270.0
 51
0.0
  0
LINE
  5
8D
330
1F
100
AcDbEntity
  8
0
  6
Continuous
 62
     7
370
    25
100
AcDbLine
 10
123.6004504519
 20
105.8517405673
 30
0.0
 11
121.9004504519
 21
105.8517405673
 31
0.0
  0
LINE
  5
8E
330
1F
100
AcDbEntity
  8
0
  6
Continuous
 62
     7
370
    25
100
AcDbLine
 10
121.9004504519
 20
90.1517405673
 30
0.0
 11
123.6004504519
 21
90.1517405673
 31
0.0
  0
LINE
  5
8F
330
1F
100
AcDbEntity
  8
0
  6
Continuous
 62
     7
370
    25
100
AcDbLine
 10
132.6004504519
 20
90.1517405673
 30
0.0
 11
134.3004504519
 21
90.1517405673
 31
0.0
  0
LINE
  5
90
330
1F
100
AcDbEntity
  8
0
  6
Continuous
 62
     7
370
    25
100
AcDbLine
 10
134.3004504519
 20
105.8517405673
 30
0.0
 11
132.6004504519
 21
105.8517405673
 31
0.0
  0
ARC
  5
91
330
1F
100
AcDbEntity
  8
0
  6
Continuous
 62
     7
370
    25
100
AcDbCircle
 10
121.9004504519
 20
90.4517405673
 30
0.0
 40
0.2999999999999972
100
AcDbArc
 50
180.0
 51
270.0
  0
ARC
  5
92
330
1F
100
AcDbEntity
  8
0
  6
Continuous
 62
     7
370
    25
100
AcDbCircle
 10
121.9004504519
 20
105.5517405673
 30
0.0
 40
0.2999999999999972
100
AcDbArc
 50
90.0
 51
180.0
  0
LINE
  5
93
330
1F
100
AcDbEntity
  8
0
  6
Continuous
 62
     7
370
    25
100
AcDbLine
 10
128.1004504519
 20
88.9641362602
 30
0.0
 11
128.1540402904
 21
88.7641362602
 31
0.0
  0
LINE
  5
94
330
1F
100
AcDbEntity
  8
0
  6
Continuous
 62
     7
370
    25
100
AcDbLine
 10
128.0468606134
 20
88.7641362602
 30
0.0
 11
128.1004504519
 21
88.9641362602
 31
0.0
  0
LINE
  5
95
330
1F
100
AcDbEntity
  8
0
  6
Continuous
 62
     7
370
    25
100
AcDbLine
 10
128.1004504519
 20
107.0393448743
 30
0.0
 11
128.0468606134
 21
107.2393448743
 31
0.0
  0
LINE
  5
96
330
1F
100
AcDbEntity
  8
0
  6
Continuous
 62
     7
370
    25
100
AcDbLine
 10
128.1540402904
 20
107.2393448743
 30
0.0
 11
128.1004504519
 21
107.0393448743
 31
0.0
  0
ARC
  5
97
330
1F
100
AcDbEntity
  8
0
  6
Continuous
 62
     7
370
    25
100
AcDbCircle
 10
112.0961655336
 20
114.9668833421
 30
0.0
 40
2.500000000000003
100
AcDbArc
 50
296.7436839504
 51
319.4425836614
  0
ARC
  5
98
330
1F
100
AcDbEntity
  8
0
  6
Continuous
 62
     7
370
    25
100
AcDbCircle
 10
94.5961655336
 20
114.9668833421
 30
0.0
 40
2.500000000000009
100
AcDbArc
 50
220.5574163386
 51
243.2563160496
  0
LINE
  5
99
330
1F
100
AcDbEntity
  8
0
  6
Continuous
 62
     7
370
    25
100
AcDbLine
 10
113.9955524569
 20
113.3413590219
 30
0.0
 11
113.6529277609
 21
124.3053492943
 31
0.0
  0
LINE
  5
9A
330
1F
100
AcDbEntity
  8
0
  6
Continuous
 62
     7
370
    25
100
AcDbLine
 10
93.0394033063
 20
124.3053492943
 30
0.0
 11
92.6967786103
 21
113.3413590219
 31
0.0
  0
LINE
  5
9B
330
1F
100
AcDbEntity
  8
0
  6
Continuous
 62
     7
370
    25
100
AcDbLine
 10
113.6529277609
 20
124.3053492943
 30
0.0
 11
112.0961655336
 21
127.0017405673
 31
0.0
  0
LINE
  5
9C
330
1F
100
AcDbEntity
  8
0
  6
Continuous
 62
     7
370
    25
100
AcDbLine
 10
94.5961655336
 20
127.0017405673
 30
0.0
 11
93.0394033063
 21
124.3053492943
 31
0.0
  0
ARC
  5
9D
330
1F
100
AcDbEntity
  8
0
  6
Continuous
 62
     7
370
    25
100
AcDbCircle
 10
114.3461655336
 20
110.5017405673
 30
0.0
 40
2.499999999999986
100
AcDbArc
 50
116.7436839504
 51
180.0
  0
ARC
  5
9E
330
1F
100
AcDbEntity
  8
0
  6
Continuous
 62
     7
370
    25
100
AcDbCircle
 10
92.3461655336
 20
110.5017405673
 30
0.0
 40
2.500000000000014
100
AcDbArc
 50
0.0
 51
63.2563160496
  0
ARC
  5
9F
330
1F
100
AcDbEntity
  8
0
  6
Continuous
 62
     7
370
    25
100
AcDbCircle
 10
115.8461655336
 20
87.0017405673
 30
0.0
 40
2.499999999999996
100
AcDbArc
 50
73.7397952917
 51
90.0
  0
ARC
  5
A0
330
1F
100
AcDbEntity
  8
0
  6
Continuous
 62
     7
370
    25
100
AcDbCircle
 10
115.8461655336
 20
109.0017405673
 30
0.0
 40
2.5
100
AcDbArc
 50
270.0
 51
286.2602047083
  0
LINE
  5
A1
330
1F
100
AcDbEntity
  8
0
  6
Continuous
 62
     7
370
    25
100
AcDbLine
 10
116.5461655336
 20
89.4017405673
 30
0.0
 11
117.6461655336
 21
90.5017405673
 31
0.0
  0
LINE
  5
A2
330
1F
100
AcDbEntity
  8
0
  6
Continuous
 62
     7
370
    25
100
AcDbLine
 10
117.6461655336
 20
105.5017405673
 30
0.0
 11
116.5461655336
 21
106.6017405673
 31
0.0
  0
LINE
  5
A3
330
1F
100
AcDbEntity
  8
0
  6
Continuous
 62
     7
370
    25
100
AcDbLine
 10
94.8461655336
 20
110.5017405673
 30
0.0
 11
94.8461655336
 21
92.4973398988
 31
0.0
  0
LINE
  5
A4
330
1F
100
AcDbEntity
  8
0
  6
Continuous
 62
     7
370
    25
100
AcDbLine
 10
111.8461655336
 20
107.0017405673
 30
0.0
 11
111.8461655336
 21
110.5017405673
 31
0.0
  0
LINE
  5
A5
330
1F
100
AcDbEntity
  8
0
  6
Continuous
 62
     7
370
    25
100
AcDbLine
 10
115.8461655336
 20
106.5017405673
 30
0.0
 11
112.3461655336
 21
106.5017405673
 31
0.0
  0
LINE
  5
A6
330
1F
100
AcDbEntity
  8
0
  6
Continuous
 62
     7
370
    25
100
AcDbLine
 10
97.8417648651
 20
89.5017405673
 30
0.0
 11
115.8461655336
 21
89.5017405673
 31
0.0
  0
LINE
  5
A7
330
1F
100
AcDbEntity
  8
0
  6
Continuous
 62
     7
370
    25
100
AcDbLine
 10
121.6004504519
 20
104.5802405673
 30
0.0
 11
117.6461655336
 21
104.5802405673
 31
0.0
  0
LINE
  5
A8
330
1F
100
AcDbEntity
  8
0
  6
Continuous
 62
     7
370
    25
100
AcDbLine
 10
117.6461655336
 20
91.4232405673
 30
0.0
 11
121.6004504519
 21
91.4232405673
 31
0.0
  0
SPLINE
  5
A9
330
1F
100
AcDbEntity
  8
0
  6
Continuous
 62
     7
370
    25
100
AcDbSpline
210
0.0
220
0.0
230
1.0
 70
     8
 71
     3
 72
    19
 73
    15
 74
     0
 42
0.000000001
 43
0.00000001
 40
0.0
 40
0.0
 40
0.0
 40
0.0
 40
0.0827006411624455
 40
0.1577635432242071
 40
0.2847774264807384
 40
0.352559821817911
 40
0.4067530698479327
 40
0.4519872033054954
 40
0.5421843062927435
 40
0.6635235848630471
 40
0.7359521303665939
 40
0.8161691118597256
 40
0.9041909277756605
 40
1.0
 40
1.0
 40
1.0
 40
1.0
 10
94.84616553384072
 20
92.50170094428526
 30
0.0
 10
94.85108573138034
 20
92.37181369901921
 30
0.0
 10
94.86047172629286
 20
92.12403482155499
 30
0.0
 10
94.94742898113668
 20
91.68425198713115
 30
0.0
 10
95.09147145020228
 20
91.28286834232283
 30
0.0
 10
95.27979396477149
 20
90.9397107076614
 30
0.0
 10
95.4273174823971
 20
90.72231276994283
 30
0.0
 10
95.61314611867161
 20
90.4896090848101
 30
0.0
 10
95.89767738627064
 20
90.20234044747815
 30
0.0
 10
96.26196297100157
 20
89.94059807000363
 30
0.0
 10
96.64555087063924
 20
89.74438995834439
 30
0.0
 10
97.00116903649683
 20
89.61488621593304
 30
0.0
 10
97.40686375224533
 20
89.52095995206632
 30
0.0
 10
97.69562774932642
 20
89.5083254325696
 30
0.0
 10
97.8461259106094
 20
89.50174056751659
 30
0.0
  0
SPLINE
  5
AA
330
1F
100
AcDbEntity
  8
0
  6
Continuous
 62
     7
370
    25
100
AcDbSpline
210
0.0
220
0.0
230
1.0
 70
     8
 71
     3
 72
    11
 73
     7
 74
     0
 42
0.000000001
 43
0.00000001
 40
0.0
 40
0.0
 40
0.0
 40
0.0
 40
0.2500481156911711
 40
0.5000000000000012
 40
0.7499518843088333
 40
1.0
 40
1.0
 40
1.0
 40
1.0
 10
112.3509988647525
 20
106.5017405672515
 30
0.0
 10
112.2845977312657
 20
106.5088329915109
 30
0.0
 10
112.1518210188652
 20
106.5230151104997
 30
0.0
 10
111.9842227102802
 20
106.6397977439561
 30
0.0
 10
111.8674400768238
 20
106.8073960525411
 30
0.0
 10
111.853257957835
 20
106.9401727649416
 30
0.0
 10
111.8461655335757
 20
107.0065738984284
 30
0.0
  0
LINE
  5
AB
330
1F
100
AcDbEntity
  8
0
  6
Continuous
 62
     7
370
    25
100
AcDbLine
 10
134.6272453711
 20
98.0017405673
 30
0.0
 11
134.6272453711
 21
102.5017405673
 31
0.0
  0
LINE
  5
AC
330
1F
100
AcDbEntity
  8
0
  6
Continuous
 62
     7
370
    25
100
AcDbLine
 10
134.6272453711
 20
93.5017405673
 30
0.0
 11
134.6272453711
 21
98.0017405673
 31
0.0
  0
LINE
  5
AD
330
1F
100
AcDbEntity
  8
0
  6
Continuous
 62
     7
370
    25
100
AcDbLine
 10
135.1004504519
 20
102.5017405673
 30
0.0
 11
135.1004504519
 21
93.5017405673
 31
0.0
  0
LINE
  5
AE
330
1F
100
AcDbEntity
  8
0
  6
Continuous
 62
     7
370
    25
100
AcDbLine
 10
139.1004504519
 20
98.0017405673
 30
0.0
 11
139.1004504519
 21
102.0017405673
 31
0.0
  0
LINE
  5
AF
330
1F
100
AcDbEntity
  8
0
  6
Continuous
 62
     7
370
    25
100
AcDbLine
 10
139.1004504519
 20
94.0017405673
 30
0.0
 11
139.1004504519
 21
98.0017405673
 31
0.0
  0
LINE
  5
B0
330
1F
100
AcDbEntity
  8
0
  6
Continuous
 62
     7
370
    25
100
AcDbLine
 10
155.1004504519
 20
98.0017405673
 30
0.0
 11
155.1004504519
 21
102.0017405673
 31
0.0
  0
LINE
  5
B1
330
1F
100
AcDbEntity
  8
0
  6
Continuous
 62
     7
370
    25
100
AcDbLine
 10
155.1004504519
 20
94.0017405673
 30
0.0
 11
155.1004504519
 21
98.0017405673
 31
0.0
  0
LINE
  5
B2
330
1F
100
AcDbEntity
  8
0
  6
Continuous
 62
     7
370
    25
100
AcDbLine
 10
143.1004504519
 20
98.0017405673
 30
0.0
 11
143.1004504519
 21
102.0017405673
 31
0.0
  0
LINE
  5
B3
330
1F
100
AcDbEntity
  8
0
  6
Continuous
 62
     7
370
    25
100
AcDbLine
 10
143.1004504519
 20
94.0017405673
 30
0.0
 11
143.1004504519
 21
98.0017405673
 31
0.0
  0
LINE
  5
B4
330
1F
100
AcDbEntity
  8
0
  6
Continuous
 62
     7
370
    25
100
AcDbLine
 10
151.1004504519
 20
98.0017405673
 30
0.0
 11
151.1004504519
 21
102.0017405673
 31
0.0
  0
LINE
  5
B5
330
1F
100
AcDbEntity
  8
0
  6
Continuous
 62
     7
370
    25
100
AcDbLine
 10
151.1004504519
 20
94.0017405673
 30
0.0
 11
151.1004504519
 21
98.0017405673
 31
0.0
  0
LINE
  5
B6
330
1F
100
AcDbEntity
  8
0
  6
Continuous
 62
     7
370
    25
100
AcDbLine
 10
147.1004504519
 20
98.0017405673
 30
0.0
 11
147.1004504519
 21
102.0017405673
 31
0.0
  0
LINE
  5
B7
330
1F
100
AcDbEntity
  8
0
  6
Continuous
 62
     7
370
    25
100
AcDbLine
 10
147.1004504519
 20
94.0017405673
 30
0.0
 11
147.1004504519
 21
98.0017405673
 31
0.0
  0
LINE
  5
B8
330
1F
100
AcDbEntity
  8
0
  6
Continuous
 62
     7
370
    25
100
AcDbLine
 10
160.6004504519
 20
98.0017405673
 30
0.0
 11
160.6004504519
 21
95.3627625171
 31
0.0
  0
LINE
  5
B9
330
1F
100
AcDbEntity
  8
0
  6
Continuous
 62
     7
370
    25
100
AcDbLine
 10
160.6004504519
 20
100.6407186174
 30
0.0
 11
160.6004504519
 21
98.0017405673
 31
0.0
  0
LINE
  5
BA
330
1F
100
AcDbEntity
  8
0
  6
Continuous
 62
     7
370
    25
100
AcDbLine
 10
124.4015841721
 20
88.7641362602
 30
0.0
 11
128.0468606134
 21
88.7641362602
 31
0.0
  0
SPLINE
  5
BB
330
1F
100
AcDbEntity
  8
0
  6
Continuous
 62
     7
370
    25
100
AcDbSpline
210
0.0
220
0.0
230
1.0
 70
     8
 71
     3
 72
    15
 73
    11
 74
     0
 42
0.000000001
 43
0.00000001
 40
0.0
 40
0.0
 40
0.0
 40
0.0
 40
0.13230496641634
 40
0.264572525757654
 40
0.3997989469058927
 40
0.5350009659368333
 40
0.6501921044151404
 40
0.765401211680801
 40
0.8826892657702317
 40
1.0
 40
1.0
 40
1.0
 40
1.0
 10
124.4015841720948
 20
88.76413626021753
 30
0.0
 10
124.2928126445516
 20
88.96368647828665
 30
0.0
 10
124.0753003428436
 20
89.36273049484991
 30
0.0
 10
123.841265150048
 20
89.97722291034444
 30
0.0
 10
123.7005458940989
 20
90.60329858235136
 30
0.0
 10
123.6726766103754
 20
91.2066963355424
 30
0.0
 10
123.7449784087299
 20
91.77749653755849
 30
0.0
 10
123.893128388709
 20
92.31619241887235
 30
0.0
 10
124.1104485474136
 20
92.85245271214593
 30
0.0
 10
124.3045327094222
 20
93.20609845015248
 30
0.0
 10
124.4015841720948
 20
93.3829384137346
 30
0.0
  0
LINE
  5
BC
330
1F
100
AcDbEntity
  8
0
  6
Continuous
 62
     7
370
    25
100
AcDbLine
 10
124.4015841721
 20
93.3829384137
 30
0.0
 11
128.0468606134
 21
93.3829384137
 31
0.0
  0
LINE
  5
BD
330
1F
100
AcDbEntity
  8
0
  6
Continuous
 62
     7
370
    25
100
AcDbLine
 10
128.1004504519
 20
93.1758153639
 30
0.0
 11
128.0468606134
 21
93.3829384137
 31
0.0
  0
LINE
  5
BE
330
1F
100
AcDbEntity
  8
0
  6
Continuous
 62
     7
370
    25
100
AcDbLine
 10
128.1540402904
 20
93.3829384137
 30
0.0
 11
128.1004504519
 21
93.1758153639
 31
0.0
  0
LINE
  5
BF
330
1F
100
AcDbEntity
  8
0
  6
Continuous
 62
     7
370
    25
100
AcDbLine
 10
128.1540402904
 20
93.3829384137
 30
0.0
 11
131.7993167317
 21
93.3829384137
 31
0.0
  0
SPLINE
  5
C0
330
1F
100
AcDbEntity
  8
0
  6
Continuous
 62
     7
370
    25
100
AcDbSpline
210
0.0
220
0.0
230
1.0
 70
     8
 71
     3
 72
    15
 73
    11
 74
     0
 42
0.000000001
 43
0.00000001
 40
0.0
 40
0.0
 40
0.0
 40
0.0
 40
0.13230496641634
 40
0.264572525757654
 40
0.3997989469058927
 40
0.5350009659368333
 40
0.6501921044151404
 40
0.765401211680801
 40
0.8826892657702317
 40
1.0
 40
1.0
 40
1.0
 40
1.0
 10
131.7993167317053
 20
88.76413626021753
 30
0.0
 10
131.9080882592485
 20
88.96368647828665
 30
0.0
 10
132.1256005609565
 20
89.36273049484991
 30
0.0
 10
132.3596357537521
 20
89.97722291034444
 30
0.0
 10
132.5003550097011
 20
90.60329858235136
 30
0.0
 10
132.5282242934247
 20
91.2066963355424
 30
0.0
 10
132.4559224950702
 20
91.77749653755849
 30
0.0
 10
132.3077725150911
 20
92.31619241887235
 30
0.0
 10
132.0904523563865
 20
92.85245271214593
 30
0.0
 10
131.8963681943779
 20
93.20609845015248
 30
0.0
 10
131.7993167317053
 20
93.3829384137346
 30
0.0
  0
LINE
  5
C1
330
1F
100
AcDbEntity
  8
0
  6
Continuous
 62
     7
370
    25
100
AcDbLine
 10
128.1540402904
 20
88.7641362602
 30
0.0
 11
131.7993167317
 21
88.7641362602
 31
0.0
  0
LINE
  5
C2
330
1F
100
AcDbEntity
  8
0
  6
Continuous
 62
     7
370
    25
100
AcDbLine
 10
128.1004504519
 20
88.97125931
 30
0.0
 11
128.1540402904
 21
88.7641362602
 31
0.0
  0
LINE
  5
C3
330
1F
100
AcDbEntity
  8
0
  6
Continuous
 62
     7
370
    25
100
AcDbLine
 10
128.0468606134
 20
88.7641362602
 30
0.0
 11
128.1004504519
 21
88.97125931
 31
0.0
  0
SPLINE
  5
C4
330
1F
100
AcDbEntity
  8
0
  6
Continuous
 62
     7
370
    25
100
AcDbSpline
210
0.0
220
0.0
230
1.0
 70
     8
 71
     3
 72
    15
 73
    11
 74
     0
 42
0.000000001
 43
0.00000001
 40
0.0
 40
0.0
 40
0.0
 40
0.0
 40
0.1051986108799536
 40
0.2313029910844185
 40
0.357374381590015
 40
0.4865336488456432
 40
0.6156899699518121
 40
0.7112373335000975
 40
0.8067951074231912
 40
1.0
 40
1.0
 40
1.0
 40
1.0
 10
124.4015841720948
 20
93.3829384137346
 30
0.0
 10
124.3141415747731
 20
93.69996633981143
 30
0.0
 10
124.1218792042006
 20
94.39702409509434
 30
0.0
 10
123.8957708327629
 20
95.49194006424686
 30
0.0
 10
123.7332696536355
 20
96.67380993581685
 30
0.0
 10
123.6708212962412
 20
97.87515507444854
 30
0.0
 10
123.7081068923181
 20
98.98206496262452
 30
0.0
 10
123.8178304098658
 20
99.9775190665909
 30
0.0
 10
124.0133495117121
 20
101.1637037620817
 30
0.0
 10
124.2459537060163
 20
102.0365440486298
 30
0.0
 10
124.4015841720948
 20
102.6205427207686
 30
0.0
  0
LINE
  5
C5
330
1F
100
AcDbEntity
  8
0
  6
Continuous
 62
     7
370
    25
100
AcDbLine
 10
124.4015841721
 20
102.6205427208
 30
0.0
 11
128.0468606134
 21
102.6205427208
 31
0.0
  0
LINE
  5
C6
330
1F
100
AcDbEntity
  8
0
  6
Continuous
 62
     7
370
    25
100
AcDbLine
 10
128.1004504519
 20
102.2062966212
 30
0.0
 11
128.0468606134
 21
102.6205427208
 31
0.0
  0
LINE
  5
C7
330
1F
100
AcDbEntity
  8
0
  6
Continuous
 62
     7
370
    25
100
AcDbLine
 10
128.1540402904
 20
102.6205427208
 30
0.0
 11
128.1004504519
 21
102.2062966212
 31
0.0
  0
LINE
  5
C8
330
1F
100
AcDbEntity
  8
0
  6
Continuous
 62
     7
370
    25
100
AcDbLine
 10
128.1540402904
 20
102.6205427208
 30
0.0
 11
131.7993167317
 21
102.6205427208
 31
0.0
  0
SPLINE
  5
C9
330
1F
100
AcDbEntity
  8
0
  6
Continuous
 62
     7
370
    25
100
AcDbSpline
210
0.0
220
0.0
230
1.0
 70
     8
 71
     3
 72
    15
 73
    11
 74
     0
 42
0.000000001
 43
0.00000001
 40
0.0
 40
0.0
 40
0.0
 40
0.0
 40
0.1051986108799536
 40
0.2313029910844185
 40
0.357374381590015
 40
0.4865336488456432
 40
0.6156899699518121
 40
0.7112373335000975
 40
0.8067951074231912
 40
1.0
 40
1.0
 40
1.0
 40
1.0
 10
131.7993167317053
 20
93.3829384137346
 30
0.0
 10
131.886759329027
 20
93.69996633981143
 30
0.0
 10
132.0790216995995
 20
94.39702409509434
 30
0.0
 10
132.3051300710372
 20
95.49194006424686
 30
0.0
 10
132.4676312501646
 20
96.67380993581685
 30
0.0
 10
132.5300796075589
 20
97.87515507444854
 30
0.0
 10
132.4927940114819
 20
98.98206496262452
 30
0.0
 10
132.3830704939342
 20
99.9775190665909
 30
0.0
 10
132.187551392088
 20
101.1637037620817
 30
0.0
 10
131.9549471977838
 20
102.0365440486298
 30
0.0
 10
131.7993167317053
 20
102.6205427207686
 30
0.0
  0
LINE
  5
CA
330
1F
100
AcDbEntity
  8
0
  6
Continuous
 62
     7
370
    25
100
AcDbLine
 10
128.1004504519
 20
93.7971845133
 30
0.0
 11
128.1540402904
 21
93.3829384137
 31
0.0
  0
LINE
  5
CB
330
1F
100
AcDbEntity
  8
0
  6
Continuous
 62
     7
370
    25
100
AcDbLine
 10
128.0468606134
 20
93.3829384137
 30
0.0
 11
128.1004504519
 21
93.7971845133
 31
0.0
  0
LINE
  5
CC
330
1F
100
AcDbEntity
  8
0
  6
Continuous
 62
     7
370
    25
100
AcDbLine
 10
128.1004504519
 20
93.1758153639
 30
0.0
 11
128.1004504519
 21
93.7971845133
 31
0.0
  0
SPLINE
  5
CD
330
1F
100
AcDbEntity
  8
0
  6
Continuous
 62
     7
370
    25
100
AcDbSpline
210
0.0
220
0.0
230
1.0
 70
     8
 71
     3
 72
    15
 73
    11
 74
     0
 42
0.000000001
 43
0.00000001
 40
0.0
 40
0.0
 40
0.0
 40
0.0
 40
0.1323049664163416
 40
0.2645725257576573
 40
0.3997989469058976
 40
0.5350009659368398
 40
0.6501921044151454
 40
0.7654012116808045
 40
0.8826892657702334
 40
1.0
 40
1.0
 40
1.0
 40
1.0
 10
124.4015841720948
 20
102.6205427207686
 30
0.0
 10
124.2928126445516
 20
102.8200929388378
 30
0.0
 10
124.0753003428436
 20
103.219136955401
 30
0.0
 10
123.841265150048
 20
103.8336293708955
 30
0.0
 10
123.700545894099
 20
104.4597050429024
 30
0.0
 10
123.6726766103754
 20
105.0631027960935
 30
0.0
 10
123.7449784087299
 20
105.6339029981095
 30
0.0
 10
123.893128388709
 20
106.1725988794234
 30
0.0
 10
124.1104485474136
 20
106.7088591726969
 30
0.0
 10
124.3045327094222
 20
107.0625049107035
 30
0.0
 10
124.4015841720948
 20
107.2393448742856
 30
0.0
  0
LINE
  5
CE
330
1F
100
AcDbEntity
  8
0
  6
Continuous
 62
     7
370
    25
100
AcDbLine
 10
123.6004504519
 20
98.0017405673
 30
0.0
 11
123.6004504519
 21
105.8517405673
 31
0.0
  0
LINE
  5
CF
330
1F
100
AcDbEntity
  8
0
  6
Continuous
 62
     7
370
    25
100
AcDbLine
 10
123.6004504519
 20
90.1517405673
 30
0.0
 11
123.6004504519
 21
98.0017405673
 31
0.0
  0
LINE
  5
D0
330
1F
100
AcDbEntity
  8
0
  6
Continuous
 62
     7
370
    25
100
AcDbLine
 10
128.0468606134
 20
102.6205427208
 30
0.0
 11
128.1004504519
 21
102.8276657706
 31
0.0
  0
LINE
  5
D1
330
1F
100
AcDbEntity
  8
0
  6
Continuous
 62
     7
370
    25
100
AcDbLine
 10
128.1004504519
 20
102.2062966212
 30
0.0
 11
128.1004504519
 21
102.8276657706
 31
0.0
  0
SPLINE
  5
D2
330
1F
100
AcDbEntity
  8
0
  6
Continuous
 62
     7
370
    25
100
AcDbSpline
210
0.0
220
0.0
230
1.0
 70
     8
 71
     3
 72
    15
 73
    11
 74
     0
 42
0.000000001
 43
0.00000001
 40
0.0
 40
0.0
 40
0.0
 40
0.0
 40
0.1323049664163416
 40
0.2645725257576573
 40
0.3997989469058976
 40
0.5350009659368398
 40
0.6501921044151454
 40
0.7654012116808045
 40
0.8826892657702334
 40
1.0
 40
1.0
 40
1.0
 40
1.0
 10
131.7993167317053
 20
102.6205427207686
 30
0.0
 10
131.9080882592485
 20
102.8200929388378
 30
0.0
 10
132.1256005609565
 20
103.219136955401
 30
0.0
 10
132.3596357537521
 20
103.8336293708955
 30
0.0
 10
132.5003550097011
 20
104.4597050429024
 30
0.0
 10
132.5282242934246
 20
105.0631027960935
 30
0.0
 10
132.4559224950702
 20
105.6339029981095
 30
0.0
 10
132.3077725150911
 20
106.1725988794234
 30
0.0
 10
132.0904523563865
 20
106.7088591726969
 30
0.0
 10
131.8963681943779
 20
107.0625049107035
 30
0.0
 10
131.7993167317053
 20
107.2393448742856
 30
0.0
  0
LINE
  5
D3
330
1F
100
AcDbEntity
  8
0
  6
Continuous
 62
     7
370
    25
100
AcDbLine
 10
132.6004504519
 20
98.0017405673
 30
0.0
 11
132.6004504519
 21
105.8517405673
 31
0.0
  0
LINE
  5
D4
330
1F
100
AcDbEntity
  8
0
  6
Continuous
 62
     7
370
    25
100
AcDbLine
 10
132.6004504519
 20
90.1517405673
 30
0.0
 11
132.6004504519
 21
98.0017405673
 31
0.0
  0
LINE
  5
D5
330
1F
100
AcDbEntity
  8
0
  6
Continuous
 62
     7
370
    25
100
AcDbLine
 10
128.1004504519
 20
102.8276657706
 30
0.0
 11
128.1540402904
 21
102.6205427208
 31
0.0
  0
LINE
  5
D6
330
1F
100
AcDbEntity
  8
0
  6
Continuous
 62
     7
370
    25
100
AcDbLine
 10
124.4015841721
 20
107.2393448743
 30
0.0
 11
128.0468606134
 21
107.2393448743
 31
0.0
  0
LINE
  5
D7
330
1F
100
AcDbEntity
  8
0
  6
Continuous
 62
     7
370
    25
100
AcDbLine
 10
128.1004504519
 20
107.0322218245
 30
0.0
 11
128.0468606134
 21
107.2393448743
 31
0.0
  0
LINE
  5
D8
330
1F
100
AcDbEntity
  8
0
  6
Continuous
 62
     7
370
    25
100
AcDbLine
 10
128.1540402904
 20
107.2393448743
 30
0.0
 11
128.1004504519
 21
107.0322218245
 31
0.0
  0
LINE
  5
D9
330
1F
100
AcDbEntity
  8
0
  6
Continuous
 62
     7
370
    25
100
AcDbLine
 10
128.1540402904
 20
107.2393448743
 30
0.0
 11
131.7993167317
 21
107.2393448743
 31
0.0
  0
LINE
  5
DA
330
1F
100
AcDbEntity
  8
0
  6
Continuous
 62
     7
370
    25
100
AcDbLine
 10
134.6004504519
 20
105.5517405673
 30
0.0
 11
134.6004504519
 21
90.4517405673
 31
0.0
  0
LINE
  5
DB
330
1F
100
AcDbEntity
  8
0
  6
Continuous
 62
     7
370
    25
100
AcDbLine
 10
121.6004504519
 20
98.0017405673
 30
0.0
 11
121.6004504519
 21
105.5517405673
 31
0.0
  0
LINE
  5
DC
330
1F
100
AcDbEntity
  8
0
  6
Continuous
 62
     7
370
    25
100
AcDbLine
 10
121.6004504519
 20
90.4517405673
 30
0.0
 11
121.6004504519
 21
98.0017405673
 31
0.0
  0
LINE
  5
DD
330
1F
100
AcDbEntity
  8
0
  6
Continuous
 62
     7
370
    25
100
AcDbLine
 10
128.1004504519
 20
88.9641362602
 30
0.0
 11
128.1004504519
 21
88.97125931
 31
0.0
  0
LINE
  5
DE
330
1F
100
AcDbEntity
  8
0
  6
Continuous
 62
     7
370
    25
100
AcDbLine
 10
128.1004504519
 20
107.0322218245
 30
0.0
 11
128.1004504519
 21
107.0393448743
 31
0.0
  0
LINE
  5
DF
330
1F
100
AcDbEntity
  8
0
  6
Continuous
 62
     7
370
    25
100
AcDbLine
 10
113.9955524569
 20
113.3413590219
 30
0.0
 11
92.6967786103
 21
113.3413590219
 31
0.0
  0
LINE
  5
E0
330
1F
100
AcDbEntity
  8
0
  6
Continuous
 62
     7
370
    25
100
AcDbLine
 10
113.6529277609
 20
124.3053492943
 30
0.0
 11
93.0394033063
 21
124.3053492943
 31
0.0
  0
LINE
  5
E1
330
1F
100
AcDbEntity
  8
0
  6
Continuous
 62
     7
370
    25
100
AcDbLine
 10
103.3461655336
 20
127.0017405673
 30
0.0
 11
112.0961655336
 21
127.0017405673
 31
0.0
  0
LINE
  5
E2
330
1F
100
AcDbEntity
  8
0
  6
Continuous
 62
     7
370
    25
100
AcDbLine
 10
94.5961655336
 20
127.0017405673
 30
0.0
 11
103.3461655336
 21
127.0017405673
 31
0.0
  0
LINE
  5
E3
330
1F
100
AcDbEntity
  8
0
  6
Continuous
 62
     7
370
    25
100
AcDbLine
 10
116.5461655336
 20
98.0017405673
 30
0.0
 11
116.5461655336
 21
89.4017405673
 31
0.0
  0
LINE
  5
E4
330
1F
100
AcDbEntity
  8
0
  6
Continuous
 62
     7
370
    25
100
AcDbLine
 10
116.5461655336
 20
106.6017405673
 30
0.0
 11
116.5461655336
 21
98.0017405673
 31
0.0
  0
LINE
  5
E5
330
1F
100
AcDbEntity
  8
0
  6
Continuous
 62
     7
370
    25
100
AcDbLine
 10
117.6461655336
 20
105.5017405673
 30
0.0
 11
117.6461655336
 21
90.5017405673
 31
0.0
  0
SPLINE
  5
E6
330
1F
100
AcDbEntity
  8
0
  6
Continuous
 62
     7
370
    25
100
AcDbSpline
210
0.0
220
0.0
230
1.0
 70
    24
 71
     3
 72
     8
 73
     4
 74
     0
 42
0.000000001
 43
0.00000001
 40
0.0
 40
0.0
 40
0.0
 40
0.0
 40
1.0
 40
1.0
 40
1.0
 40
1.0
 10
103.3461655335757
 20
106.5017405672515
 30
0.0
 10
104.3228188763385
 20
106.5017405672515
 30
0.0
 10
105.299243710715
 20
106.5017405672515
 30
0.0
 10
106.2184468568447
 20
106.5017405672515
 30
0.0
  0
SPLINE
  5
E7
330
1F
100
AcDbEntity
  8
0
  6
Continuous
 62
     7
370
    25
100
AcDbSpline
210
0.0
220
0.0
230
1.0
 70
    24
 71
     3
 72
     8
 73
     4
 74
     0
 42
0.000000001
 43
0.00000001
 40
0.0
 40
0.0
 40
0.0
 40
0.0
 40
1.0
 40
1.0
 40
1.0
 40
1.0
 10
100.4738842103067
 20
106.5017405672515
 30
0.0
 10
101.3930873564364
 20
106.5017405672515
 30
0.0
 10
102.3695121908128
 20
106.5017405672515
 30
0.0
 10
103.3461655335757
 20
106.5017405672515
 30
0.0
  0
SPLINE
  5
E8
330
1F
100
AcDbEntity
  8
0
  6
Continuous
 62
     7
370
    25
100
AcDbSpline
210
0.0
220
0.0
230
1.0
 70
     8
 71
     3
 72
     8
 73
     4
 74
     0
 42
0.000000001
 43
0.00000001
 40
0.0
 40
0.0
 40
0.0
 40
0.0
 40
1.0
 40
1.0
 40
1.0
 40
1.0
 10
96.45414115753057
 20
106.3120901903969
 30
0.0
 10
96.38207491118814
 20
106.2210582601178
 30
0.0
 10
96.32158195362193
 20
106.1111030299435
 30
0.0
 10
96.26283220024234
 20
106.0017405672515
 30
0.0
  0
LINE
  5
E9
330
1F
100
AcDbEntity
  8
0
  6
Continuous
 62
     7
370
    25
100
AcDbLine
 10
96.2628322002
 20
106.0017405673
 30
0.0
 11
96.2628322002
 21
94.0017405673
 31
0.0
  0
SPLINE
  5
EA
330
1F
100
AcDbEntity
  8
0
  6
Continuous
 62
     7
370
    25
100
AcDbSpline
210
0.0
220
0.0
230
1.0
 70
     8
 71
     3
 72
    10
 73
     6
 74
     0
 42
0.000000001
 43
0.00000001
 40
0.0
 40
0.0
 40
0.0
 40
0.0
 40
0.0280934765544326
 40
0.0280934765544326
 40
0.0561869531088653
 40
0.0561869531088653
 40
0.0561869531088653
 40
0.0561869531088653
 10
96.26283220024234
 20
94.00174056725153
 30
0.0
 10
96.26283220024234
 20
93.90809564540342
 30
0.0
 10
96.26640969448691
 20
93.81403974019887
 30
0.0
 10
96.28057117254743
 20
93.62776902809283
 30
0.0
 10
96.29115044439374
 20
93.5355865588087
 30
0.0
 10
96.30483145018552
 20
93.44558321917556
 30
0.0
  0
ELLIPSE
  5
EB
330
1F
100
AcDbEntity
  8
0
  6
Continuous
 62
     7
370
    25
100
AcDbEllipse
 10
108.3461655336
 20
96.4628896751
 30
0.0
 11
0.5653269642954655
 21
1.222133505507372E-12
 31
0.0
210
0.0
220
0.0
230
1.0
 40
0.9531667975
 41
0.4357918987532769
 42
2.705800754832179
  0
LINE
  5
EC
330
1F
100
AcDbEntity
  8
0
  6
Continuous
 62
     7
370
    25
100
AcDbLine
 10
106.7415805522
 20
93.636902458
 30
0.0
 11
107.833676264
 21
96.69035395
 31
0.0
  0
ELLIPSE
  5
ED
330
1F
100
AcDbEntity
  8
0
  6
Continuous
 62
     7
370
    25
100
AcDbEllipse
 10
106.184741287
 20
93.8178436054
 30
0.0
 11
-0.5883077352006721
 21
1.421085471520200E-14
 31
0.0
210
0.0
220
0.0
230
1.0
 40
0.9531667975
 41
1.047197551197051
 42
2.813039483038246
  0
LINE
  5
EE
330
1F
100
AcDbEntity
  8
0
  6
Continuous
 62
     7
370
    25
100
AcDbLine
 10
105.845857659
 20
93.3568304677
 30
0.0
 11
105.8905874194
 21
93.3322151837
 31
0.0
  0
LINE
  5
EF
330
1F
100
AcDbEntity
  8
0
  6
Continuous
 62
     7
370
    25
100
AcDbLine
 10
106.5363677873
 20
92.0404878124
 30
0.0
 11
105.845857659
 21
93.3568304677
 31
0.0
  0
ELLIPSE
  5
F0
330
1F
100
AcDbEntity
  8
0
  6
Continuous
 62
     7
370
    25
100
AcDbEllipse
 10
106.6021425916
 20
92.0718349922
 30
0.0
 11
0.07353846690023147
 21
1.421085471520200E-14
 31
0.0
210
0.0
220
0.0
230
1.0
 40
0.9531667975
 41
3.605240262590348
 42
5.462183310214962
  0
ELLIPSE
  5
F1
330
1F
100
AcDbEntity
  8
0
  6
Continuous
 62
     7
370
    25
100
AcDbEllipse
 10
108.3461655336
 20
90.2866946531
 30
0.0
 11
2.485600181227426
 21
-1.563194018672220E-13
 31
0.0
210
0.0
220
0.0
230
1.0
 40
0.9531667975
 41
0.8210019969644983
 42
2.320590656625375
  0
ELLIPSE
  5
F2
330
1F
100
AcDbEntity
  8
0
  6
Continuous
 62
     7
370
    25
100
AcDbEllipse
 10
110.0901884755
 20
92.0718349922
 30
0.0
 11
0.07353846690018884
 21
4.263256414560601E-14
 31
0.0
210
0.0
220
0.0
230
1.0
 40
0.9531667975
 41
3.962594650553749
 42
5.81953769817836
  0
LINE
  5
F3
330
1F
100
AcDbEntity
  8
0
  6
Continuous
 62
     7
370
    25
100
AcDbLine
 10
110.8464734082
 20
93.3568304677
 30
0.0
 11
110.1559632799
 21
92.0404878124
 31
0.0
  0
LINE
  5
F4
330
1F
100
AcDbEntity
  8
0
  6
Continuous
 62
     7
370
    25
100
AcDbLine
 10
110.8103549864
 20
93.3361902224
 30
0.0
 11
110.8464734082
 21
93.3568304677
 31
0.0
  0
ELLIPSE
  5
F5
330
1F
100
AcDbEntity
  8
0
  6
Continuous
 62
     7
370
    25
100
AcDbEllipse
 10
110.5078443378
 20
93.8171318735
 30
0.0
 11
-0.5883077352015817
 21
-1.563194018672220E-13
 31
0.0
210
0.0
220
0.0
230
1.0
 40
0.9531667975
 41
0.3285531705512165
 42
2.110876526947632
  0
LINE
  5
F6
330
1F
100
AcDbEntity
  8
0
  6
Continuous
 62
     7
370
    25
100
AcDbLine
 10
108.8586548031
 20
96.69035395
 30
0.0
 11
109.9510050726
 21
93.636190726
 31
0.0
  0
SPLINE
  5
F7
330
1F
100
AcDbEntity
  8
0
  6
Continuous
 62
     7
370
    25
100
AcDbSpline
210
0.0
220
0.0
230
1.0
 70
     8
 71
     3
 72
    10
 73
     6
 74
     0
 42
0.000000001
 43
0.00000001
 40
-0.2904940295525288
 40
-0.2904940295525288
 40
-0.2904940295525288
 40
-0.2904940295525288
 40
-0.1303072746110114
 40
-0.1303072746110114
 40
0.001056361752625
 40
0.001056361752625
 40
0.001056361752625
 40
0.001056361752625
 10
111.8461655335757
 20
98.00174056725155
 30
0.0
 10
111.7166622178014
 20
97.48372730415443
 30
0.0
 10
111.5848712396517
 20
96.95980150051034
 30
0.0
 10
111.406447300211
 20
96.00139903691515
 30
0.0
 10
111.3461655335757
 20
95.56733803186131
 30
0.0
 10
111.3461655335757
 20
95.12945924398252
 30
0.0
  0
LINE
  5
F8
330
1F
100
AcDbEntity
  8
0
  6
Continuous
 62
     7
370
    25
100
AcDbLine
 10
111.3461655336
 20
95.129459244
 30
0.0
 11
111.3461655336
 21
91.5017405673
 31
0.0
  0
LINE
  5
F9
330
1F
100
AcDbEntity
  8
0
  6
Continuous
 62
     7
370
    25
100
AcDbLine
 10
111.3461655336
 20
91.5017405673
 30
0.0
 11
99.3461655336
 21
91.5017405673
 31
0.0
  0
ARC
  5
FA
330
1F
100
AcDbEntity
  8
0
  6
Continuous
 62
     7
370
    25
100
AcDbCircle
 10
99.3461655336
 20
94.0017405673
 30
0.0
 40
2.5
100
AcDbArc
 50
180.0
 51
270.0
  0
LINE
  5
FB
330
1F
100
AcDbEntity
  8
0
  6
Continuous
 62
     7
370
    25
100
AcDbLine
 10
96.8461655336
 20
94.0017405673
 30
0.0
 11
96.8461655336
 21
106.0017405673
 31
0.0
  0
LINE
  5
FC
330
1F
100
AcDbEntity
  8
0
  6
Continuous
 62
     7
370
    25
100
AcDbLine
 10
96.8461655336
 20
106.0017405673
 30
0.0
 11
100.4738842103
 21
106.0017405673
 31
0.0
  0
SPLINE
  5
FD
330
1F
100
AcDbEntity
  8
0
  6
Continuous
 62
     7
370
    25
100
AcDbSpline
210
0.0
220
0.0
230
1.0
 70
     8
 71
     3
 72
    10
 73
     6
 74
     0
 42
0.000000001
 43
0.00000001
 40
-0.8711658249657241
 40
-0.8711658249657241
 40
-0.8711658249657241
 40
-0.8711658249657241
 40
-0.7398021886020881
 40
-0.7398021886020881
 40
-0.5796154507864705
 40
-0.5796154507864705
 40
-0.5796154507864705
 40
-0.5796154507864705
 10
100.4738842103067
 20
106.0017405672515
 30
0.0
 10
100.9117629981854
 20
106.0017405672515
 30
0.0
 10
101.3458240032398
 20
106.0620223338869
 30
0.0
 10
102.3042264105374
 20
106.2404462628469
 30
0.0
 10
102.828152325845
 20
106.3722372653188
 30
0.0
 10
103.3461655335757
 20
106.5017405672515
 30
0.0
  0
SPLINE
  5
FE
330
1F
100
AcDbEntity
  8
0
  6
Continuous
 62
     7
370
    25
100
AcDbSpline
210
0.0
220
0.0
230
1.0
 70
     8
 71
     3
 72
    10
 73
     6
 74
     0
 42
0.000000001
 43
0.00000001
 40
-0.2904940295525327
 40
-0.2904940295525327
 40
-0.2904940295525327
 40
-0.2904940295525327
 40
-0.130307291676468
 40
-0.130307291676468
 40
0.0010563446871674
 40
0.0010563446871674
 40
0.0010563446871674
 40
0.0010563446871674
 10
103.3461655335757
 20
106.5017405672515
 30
0.0
 10
103.8641787415018
 20
106.37223726527
 30
0.0
 10
104.3881046564152
 20
106.2404462628839
 30
0.0
 10
105.3465070639115
 20
106.0620223338869
 30
0.0
 10
105.7805680689659
 20
106.0017405672515
 30
0.0
 10
106.2184468568447
 20
106.0017405672515
 30
0.0
  0
LINE
  5
FF
330
1F
100
AcDbEntity
  8
0
  6
Continuous
 62
     7
370
    25
100
AcDbLine
 10
106.2184468568
 20
106.0017405673
 30
0.0
 11
109.8461655336
 21
106.0017405673
 31
0.0
  0
ARC
  5
100
330
1F
100
AcDbEntity
  8
0
  6
Continuous
 62
     7
370
    25
100
AcDbCircle
 10
111.3461655336
 20
106.0017405673
 30
0.0
 40
1.5
100
AcDbArc
 50
180.0
 51
270.0
  0
LINE
  5
101
330
1F
100
AcDbEntity
  8
0
  6
Continuous
 62
     7
370
    25
100
AcDbLine
 10
111.3461655336
 20
104.5017405673
 30
0.0
 11
111.3461655336
 21
100.8740218905
 31
0.0
  0
SPLINE
  5
102
330
1F
100
AcDbEntity
  8
0
  6
Continuous
 62
     7
370
    25
100
AcDbSpline
210
0.0
220
0.0
230
1.0
 70
     8
 71
     3
 72
    10
 73
     6
 74
     0
 42
0.000000001
 43
0.00000001
 40
-0.8711658421011628
 40
-0.8711658421011628
 40
-0.8711658421011628
 40
-0.8711658421011628
 40
-0.739802205737527
 40
-0.739802205737527
 40
-0.579615450786466
 40
-0.579615450786466
 40
-0.579615450786466
 40
-0.579615450786466
 10
111.3461655335757
 20
100.8740218905206
 30
0.0
 10
111.3461655335757
 20
100.4361431026418
 30
0.0
 10
111.406447300211
 20
100.0020820975879
 30
0.0
 10
111.5848712396576
 20
99.04367963396137
 30
0.0
 10
111.7166622177936
 20
98.51975383037947
 30
0.0
 10
111.8461655335757
 20
98.00174056725155
 30
0.0
  0
SPLINE
  5
103
330
1F
100
AcDbEntity
  8
0
  6
Continuous
 62
     7
370
    25
100
AcDbSpline
210
0.0
220
0.0
230
1.0
 70
    24
 71
     3
 72
     8
 73
     4
 74
     0
 42
0.000000001
 43
0.00000001
 40
0.0
 40
0.0
 40
0.0
 40
0.0
 40
1.0
 40
1.0
 40
1.0
 40
1.0
 10
111.8461655335757
 20
98.00174056725155
 30
0.0
 10
111.8461655335757
 20
97.02508722448871
 30
0.0
 10
111.8461655335757
 20
96.04866239011224
 30
0.0
 10
111.8461655335757
 20
95.12945924398252
 30
0.0
  0
SPLINE
  5
104
330
1F
100
AcDbEntity
  8
0
  6
Continuous
 62
     7
370
    25
100
AcDbSpline
210
0.0
220
0.0
230
1.0
 70
    24
 71
     3
 72
     8
 73
     4
 74
     0
 42
0.000000001
 43
0.00000001
 40
0.0
 40
0.0
 40
0.0
 40
0.0
 40
1.0
 40
1.0
 40
1.0
 40
1.0
 10
111.8461655335757
 20
100.8740218905206
 30
0.0
 10
111.8461655335757
 20
99.95481874439082
 30
0.0
 10
111.8461655335757
 20
98.97839391001436
 30
0.0
 10
111.8461655335757
 20
98.00174056725155
 30
0.0
  0
SPLINE
  5
105
330
1F
100
AcDbEntity
  8
0
  6
Continuous
 62
     7
370
    25
100
AcDbSpline
210
0.0
220
0.0
230
1.0
 70
     8
 71
     3
 72
    10
 73
     6
 74
     0
 42
0.000000001
 43
0.00000001
 40
0.0
 40
0.0
 40
0.0
 40
0.0
 40
0.0280934765544328
 40
0.0280934765544328
 40
0.0561869531088657
 40
0.0561869531088657
 40
0.0561869531088657
 40
0.0561869531088657
 10
98.7900081854997
 20
90.96040648386139
 30
0.0
 10
98.88001152513284
 20
90.9467254780696
 30
0.0
 10
98.97219399441697
 20
90.9361462062233
 30
0.0
 10
99.15846470652299
 20
90.92198472816278
 30
0.0
 10
99.25252061172756
 20
90.9184072339182
 30
0.0
 10
99.34616553357567
 20
90.9184072339182
 30
0.0
  0
LINE
  5
106
330
1F
100
AcDbEntity
  8
0
  6
Continuous
 62
     7
370
    25
100
AcDbLine
 10
99.3461621005
 20
90.9184072339
 30
0.0
 11
111.3461655336
 21
90.9184072339
 31
0.0
  0
SPLINE
  5
107
330
1F
100
AcDbEntity
  8
0
  6
Continuous
 62
     7
370
    25
100
AcDbSpline
210
0.0
220
0.0
230
1.0
 70
     8
 71
     3
 72
     8
 73
     4
 74
     0
 42
0.000000001
 43
0.00000001
 40
0.0
 40
0.0
 40
0.0
 40
0.0
 40
1.0
 40
1.0
 40
1.0
 40
1.0
 10
111.656515156721
 20
91.10971619120642
 30
0.0
 10
111.5654832264419
 20
91.03764994486399
 30
0.0
 10
111.4555279962704
 20
90.97715698729624
 30
0.0
 10
111.3461655335757
 20
90.9184072339182
 30
0.0
  0
LINE
  5
108
330
1F
100
AcDbEntity
  8
0
  6
Continuous
 62
     7
370
    25
100
AcDbLine
 10
110.3461655336
 20
106.5017405673
 30
0.0
 11
106.2184468568
 21
106.5017405673
 31
0.0
  0
LINE
  5
109
330
1F
100
AcDbEntity
  8
0
  6
Continuous
 62
     7
370
    25
100
AcDbLine
 10
109.8461655336
 20
106.0017405673
 30
0.0
 11
110.3461655336
 21
106.5017405673
 31
0.0
  0
SPLINE
  5
10A
330
1F
100
AcDbEntity
  8
0
  6
Continuous
 62
     7
370
    25
100
AcDbSpline
210
0.0
220
0.0
230
1.0
 70
    24
 71
     3
 72
    10
 73
     6
 74
     0
 42
0.000000001
 43
0.00000001
 40
0.0
 40
0.0
 40
0.0
 40
0.0
 40
0.5
 40
0.5
 40
1.0
 40
1.0
 40
1.0
 40
1.0
 10
106.2184468568447
 20
106.5017405672515
 30
0.0
 10
106.2184468568447
 20
106.5017405672515
 30
0.0
 10
106.2184468568447
 20
106.4478540190565
 30
0.0
 10
106.2184468568447
 20
106.2627338966332
 30
0.0
 10
106.2184468568447
 20
106.1326402611511
 30
0.0
 10
106.2184468568447
 20
106.0017405672515
 30
0.0
  0
LINE
  5
10B
330
1F
100
AcDbEntity
  8
0
  6
Continuous
 62
     7
370
    25
100
AcDbLine
 10
111.8461655336
 20
100.8740218905
 30
0.0
 11
111.8461655336
 21
104.5017405673
 31
0.0
  0
SPLINE
  5
10C
330
1F
100
AcDbEntity
  8
0
  6
Continuous
 62
     7
370
    25
100
AcDbSpline
210
0.0
220
0.0
230
1.0
 70
    24
 71
     3
 72
    10
 73
     6
 74
     0
 42
0.000000001
 43
0.00000001
 40
0.0
 40
0.0
 40
0.0
 40
0.0
 40
0.5
 40
0.5
 40
1.0
 40
1.0
 40
1.0
 40
1.0
 10
111.3461655335757
 20
100.8740218905206
 30
0.0
 10
111.4770652274753
 20
100.8740218905206
 30
0.0
 10
111.6071588629573
 20
100.8740218905206
 30
0.0
 10
111.7922789853806
 20
100.8740218905206
 30
0.0
 10
111.8461655335757
 20
100.8740218905206
 30
0.0
 10
111.8461655335757
 20
100.8740218905206
 30
0.0
  0
LINE
  5
10D
330
1F
100
AcDbEntity
  8
0
  6
Continuous
 62
     7
370
    25
100
AcDbLine
 10
111.3461655336
 20
104.5017405673
 30
0.0
 11
111.8461655336
 21
104.5017405673
 31
0.0
  0
SPLINE
  5
10E
330
1F
100
AcDbEntity
  8
0
  6
Continuous
 62
     7
370
    25
100
AcDbSpline
210
0.0
220
0.0
230
1.0
 70
    24
 71
     3
 72
    10
 73
     6
 74
     0
 42
0.000000001
 43
0.00000001
 40
0.0
 40
0.0
 40
0.0
 40
0.0
 40
0.5
 40
0.5
 40
1.0
 40
1.0
 40
1.0
 40
1.0
 10
111.8461655335757
 20
95.12945924398252
 30
0.0
 10
111.8461655335757
 20
95.12945924398252
 30
0.0
 10
111.7922789853806
 20
95.12945924398252
 30
0.0
 10
111.6071588629573
 20
95.12945924398252
 30
0.0
 10
111.4770652274753
 20
95.12945924398252
 30
0.0
 10
111.3461655335757
 20
95.12945924398252
 30
0.0
  0
LINE
  5
10F
330
1F
100
AcDbEntity
  8
0
  6
Continuous
 62
     7
370
    25
100
AcDbLine
 10
111.8461655336
 20
91.5017405673
 30
0.0
 11
111.8461655336
 21
95.129459244
 31
0.0
  0
LINE
  5
110
330
1F
100
AcDbEntity
  8
0
  6
Continuous
 62
     7
370
    25
100
AcDbLine
 10
111.3461655336
 20
91.5017405673
 30
0.0
 11
111.8461655336
 21
91.5017405673
 31
0.0
  0
SPLINE
  5
111
330
1F
100
AcDbEntity
  8
0
  6
Continuous
 62
     7
370
    25
100
AcDbSpline
210
0.0
220
0.0
230
1.0
 70
    24
 71
     3
 72
    10
 73
     6
 74
     0
 42
0.000000001
 43
0.00000001
 40
0.0
 40
0.0
 40
0.0
 40
0.0
 40
0.5
 40
0.5
 40
1.0
 40
1.0
 40
1.0
 40
1.0
 10
100.4738842103067
 20
106.0017405672515
 30
0.0
 10
100.4738842103067
 20
106.1326402611511
 30
0.0
 10
100.4738842103067
 20
106.2627338966332
 30
0.0
 10
100.4738842103067
 20
106.4478540190565
 30
0.0
 10
100.4738842103067
 20
106.5017405672515
 30
0.0
 10
100.4738842103067
 20
106.5017405672515
 30
0.0
  0
LINE
  5
112
330
1F
100
AcDbEntity
  8
0
  6
Continuous
 62
     7
370
    25
100
AcDbLine
 10
96.8461655336
 20
106.5017405673
 30
0.0
 11
96.8461655336
 21
106.0017405673
 31
0.0
  0
LINE
  5
113
330
1F
100
AcDbEntity
  8
0
  6
Continuous
 62
     7
370
    25
100
AcDbLine
 10
100.4738842103
 20
106.5017405673
 30
0.0
 11
96.8461655336
 21
106.5017405673
 31
0.0
  0
ELLIPSE
  5
114
330
1F
100
AcDbEntity
  8
0
  6
Continuous
 62
     7
370
    25
100
AcDbEllipse
 10
108.0828246449
 20
93.7073025927
 30
0.0
 11
-0.07353846690023147
 21
1.421085471520200E-14
 31
0.0
210
0.0
220
0.0
230
1.0
 40
0.9531667975
 41
5.940161364898259
 42
7.853981633974668
  0
LINE
  5
115
330
1F
100
AcDbEntity
  8
0
  6
Continuous
 62
     7
370
    25
100
AcDbLine
 10
108.276911279
 20
94.4336997158
 30
0.0
 11
108.0135703886
 21
93.7308778991
 31
0.0
  0
ELLIPSE
  5
116
330
1F
100
AcDbEntity
  8
0
  6
Continuous
 62
     7
370
    25
100
AcDbEllipse
 10
108.3461655353
 20
94.4101244094
 30
0.0
 11
0.07353846690021726
 21
0.0
 31
0.0
210
0.0
220
0.0
230
1.0
 40
0.9531667975
 41
0.3430239394902344
 42
2.798568712238597
  0
ELLIPSE
  5
117
330
1F
100
AcDbEntity
  8
0
  6
Continuous
 62
     7
370
    25
100
AcDbEllipse
 10
108.6095064226
 20
93.7073025927
 30
0.0
 11
0.07353846690021726
 21
2.842170943040401E-14
 31
0.0
210
0.0
220
0.0
230
1.0
 40
0.9531667975
 41
4.712388980384334
 42
6.626209245738938
  0
LINE
  5
118
330
1F
100
AcDbEntity
  8
0
  6
Continuous
 62
     7
370
    25
100
AcDbLine
 10
108.0828246449
 20
93.6372081677
 30
0.0
 11
108.6095064226
 21
93.6372081677
 31
0.0
  0
LINE
  5
119
330
1F
100
AcDbEntity
  8
0
  6
Continuous
 62
     7
370
    25
100
AcDbLine
 10
108.6787606791
 20
93.7308778989
 30
0.0
 11
108.4154197917
 21
94.4336997157
 31
0.0
  0
ARC
  5
11A
330
1F
100
AcDbEntity
  8
0
  6
Continuous
 62
     7
370
    25
100
AcDbCircle
 10
96.8461655336
 20
106.0017405673
 30
0.0
 40
0.5
100
AcDbArc
 50
90.0
 51
180.0
  0
LINE
  5
11B
330
1F
100
AcDbEntity
  8
0
  6
Continuous
 62
     7
370
    25
100
AcDbLine
 10
96.8461655336
 20
106.0017405673
 30
0.0
 11
96.3461655336
 21
106.0017405673
 31
0.0
  0
LINE
  5
11C
330
1F
100
AcDbEntity
  8
0
  6
Continuous
 62
     7
370
    25
100
AcDbLine
 10
96.8461655336
 20
94.0017405673
 30
0.0
 11
96.3461655336
 21
94.0017405673
 31
0.0
  0
LINE
  5
11D
330
1F
100
AcDbEntity
  8
0
  6
Continuous
 62
     7
370
    25
100
AcDbLine
 10
96.3461655336
 20
106.0017405673
 30
0.0
 11
96.3461655336
 21
94.0017405673
 31
0.0
  0
LINE
  5
11E
330
1F
100
AcDbEntity
  8
0
  6
Continuous
 62
     7
370
    25
100
AcDbLine
 10
99.3461655336
 20
91.5017405673
 30
0.0
 11
99.3461655336
 21
91.0017405673
 31
0.0
  0
LINE
  5
11F
330
1F
100
AcDbEntity
  8
0
  6
Continuous
 62
     7
370
    25
100
AcDbLine
 10
111.3461655336
 20
91.0017405673
 30
0.0
 11
111.3461655336
 21
91.5017405673
 31
0.0
  0
LINE
  5
120
330
1F
100
AcDbEntity
  8
0
  6
Continuous
 62
     7
370
    25
100
AcDbLine
 10
99.3461655336
 20
91.0017405673
 30
0.0
 11
111.3461655336
 21
91.0017405673
 31
0.0
  0
ARC
  5
121
330
1F
100
AcDbEntity
  8
0
  6
Continuous
 62
     7
370
    25
100
AcDbCircle
 10
99.3461655336
 20
94.0017405673
 30
0.0
 40
3.0
100
AcDbArc
 50
180.0
 51
270.0
  0
LINE
  5
122
330
1F
100
AcDbEntity
  8
0
  6
Continuous
 62
     7
370
    25
100
AcDbLine
 10
110.3461655336
 20
106.0017405673
 30
0.0
 11
110.3461655336
 21
106.5017405673
 31
0.0
  0
LINE
  5
123
330
1F
100
AcDbEntity
  8
0
  6
Continuous
 62
     7
370
    25
100
AcDbLine
 10
109.8461655336
 20
106.0017405673
 30
0.0
 11
110.3461655336
 21
106.0017405673
 31
0.0
  0
ARC
  5
124
330
1F
100
AcDbEntity
  8
0
  6
Continuous
 62
     7
370
    25
100
AcDbCircle
 10
111.3461655336
 20
106.0017405673
 30
0.0
 40
1.0
100
AcDbArc
 50
180.0
 51
270.0
  0
LINE
  5
125
330
1F
100
AcDbEntity
  8
0
  6
Continuous
 62
     7
370
    25
100
AcDbLine
 10
111.3461655336
 20
104.5017405673
 30
0.0
 11
111.3461655336
 21
105.0017405673
 31
0.0
  0
ARC
  5
126
330
1F
100
AcDbEntity
  8
0
  6
Continuous
 62
     7
370
    25
100
AcDbCircle
 10
111.3461655336
 20
91.5017405673
 30
0.0
 40
0.5
100
AcDbArc
 50
270.0
 51
0.0
  0
ARC
  5
127
330
1F
100
AcDbEntity
  8
0
  6
Continuous
 62
     7
370
    25
100
AcDbCircle
 10
111.3461655336
 20
104.5017405673
 30
0.0
 40
0.5000000000000142
100
AcDbArc
 50
0.0
 51
90.0
  0
LWPOLYLINE
  5
128
330
1F
100
AcDbEntity
  8
0
  6
Continuous
 62
     7
370
    25
100
AcDbPolyline
 90
        9
 70
   128
 43
0.0
 10
98.8694592352
 20
91.0398575336
 10
98.8605798425
 20
91.0398001403
 10
98.8512861607
 20
91.0368451418
 10
98.8416327483
 20
91.0310098851
 10
98.8316762753
 20
91.022328626
 10
98.8214751909
 20
91.0108523277
 10
98.8110893803
 20
90.9966483613
 10
98.8005798131
 20
90.979800111
 10
98.7900081855
 20
90.9604064839
  0
SPLINE
  5
129
330
1F
100
AcDbEntity
  8
0
  6
Continuous
 62
     7
370
    25
100
AcDbSpline
210
0.0
220
0.0
230
1.0
 70
     8
 71
     3
 72
    14
 73
    10
 74
     0
 42
0.000000001
 43
0.00000001
 40
-0.4399100083495733
 40
-0.4399100083495733
 40
-0.4399100083495733
 40
-0.4399100083495733
 40
-0.2980125372576002
 40
-0.2980125372576002
 40
-0.1727985319285605
 40
-0.1727985319285605
 40
-0.0664609738186771
 40
-0.0664609738186771
 40
0.0
 40
0.0
 40
0.0
 40
0.0
 10
96.30483145018552
 20
93.44558321917556
 30
0.0
 10
96.36245623776131
 20
93.05083840708402
 30
0.0
 10
96.50187362508235
 20
92.66221755613364
 30
0.0
 10
96.90477798356353
 20
92.01209176973192
 30
0.0
 10
97.15114767605104
 20
91.74129003837012
 30
0.0
 10
97.68301590110845
 20
91.33947550711468
 30
0.0
 10
97.95334329964919
 20
91.19533568095648
 30
0.0
 10
98.42011690113141
 20
91.03233495253208
 30
0.0
 10
98.60512029130692
 20
90.98739639050955
 30
0.0
 10
98.79000818549969
 20
90.96040648386139
 30
0.0
  0
LWPOLYLINE
  5
12A
330
1F
100
AcDbEntity
  8
0
  6
Continuous
 62
     7
370
    25
100
AcDbPolyline
 90
        9
 70
   128
 43
0.0
 10
96.3842824999
 20
93.5250342689
 10
96.3842251067
 20
93.5161548761
 10
96.3812701081
 20
93.5068611944
 10
96.3754348514
 20
93.497207782
 10
96.3667535923
 20
93.487251309
 10
96.355277294
 20
93.4770502246
 10
96.3410733276
 20
93.466664414
 10
96.3242250773
 20
93.4561548468
 10
96.3048314502
 20
93.4455832192
  0
LINE
  5
12B
330
1F
100
AcDbEntity
  8
0
  6
Continuous
 62
     7
370
    25
100
AcDbLine
 10
96.3461655336
 20
94.0017405673
 30
0.0
 11
96.2628322002
 21
94.0017405673
 31
0.0
  0
LWPOLYLINE
  5
12C
330
1F
100
AcDbEntity
  8
0
  6
Continuous
 62
     7
370
    25
100
AcDbPolyline
 90
        9
 70
   128
 43
0.0
 10
99.3461655336
 20
91.0017405673
 10
99.3461655336
 20
91.0004012142
 10
99.3461655336
 20
90.9963903307
 10
99.3461655336
 20
90.9897294045
 10
99.3461655336
 20
90.9804541211
 10
99.3461655336
 20
90.968614172
 10
99.3461655336
 20
90.9542729885
 10
99.3461655336
 20
90.9375074025
 10
99.3461621005
 20
90.9184072339
  0
LINE
  5
12D
330
1F
100
AcDbEntity
  8
0
  6
Continuous
 62
     7
370
    25
100
AcDbLine
 10
96.3461655336
 20
106.0017405673
 30
0.0
 11
96.2628322002
 21
106.0017405673
 31
0.0
  0
LINE
  5
12E
330
1F
100
AcDbEntity
  8
0
  6
Continuous
 62
     7
370
    25
100
AcDbLine
 10
111.3461655336
 20
90.9184072339
 30
0.0
 11
111.3461655336
 21
91.0017405673
 31
0.0
  0
LINE
  5
12F
330
1F
100
AcDbEntity
  8
0
  6
Continuous
 62
     7
370
    25
100
AcDbLine
 10
98.8694592352
 20
91.0398575336
 30
0.0
 11
99.1059520596
 21
91.0125068204
 31
0.0
  0
LINE
  5
130
330
1F
100
AcDbEntity
  8
0
  6
Continuous
 62
     8
370
    25
100
AcDbLine
 10
159.8943424878
 20
94.5682914442
 30
0.0
 11
159.8943424878
 21
101.4351896903
 31
0.0
  0
LINE
  5
131
330
1F
100
AcDbEntity
  8
0
  6
Continuous
 62
     8
370
    25
100
AcDbLine
 10
134.3004504519
 20
90.1517405673
 30
0.0
 11
134.3004504519
 21
105.8517405673
 31
0.0
  0
LINE
  5
132
330
1F
100
AcDbEntity
  8
0
  6
Continuous
 62
     8
370
    25
100
AcDbLine
 10
121.9004504519
 20
98.0017405673
 30
0.0
 11
121.9004504519
 21
90.1517405673
 31
0.0
  0
LINE
  5
133
330
1F
100
AcDbEntity
  8
0
  6
Continuous
 62
     8
370
    25
100
AcDbLine
 10
121.9004504519
 20
105.8517405673
 30
0.0
 11
121.9004504519
 21
98.0017405673
 31
0.0
  0
LINE
  5
134
330
1F
100
AcDbEntity
  8
0
  6
Continuous
 62
     8
370
    25
100
AcDbLine
 10
93.4711655336
 20
112.7343119547
 30
0.0
 11
113.2211655336
 21
112.7343119547
 31
0.0
  0
LINE
  5
135
330
1F
100
AcDbEntity
  8
0
  6
Continuous
 62
     8
370
    25
100
AcDbLine
 10
94.8461655336
 20
110.5017405673
 30
0.0
 11
111.8461655336
 21
110.5017405673
 31
0.0
  0
LINE
  5
136
330
1F
100
AcDbEntity
  8
0
  6
Continuous
 62
     8
370
    25
100
AcDbLine
 10
115.8461655336
 20
106.5017405673
 30
0.0
 11
115.8461655336
 21
89.5017405673
 31
0.0
  0
SPLINE
  5
137
330
1F
100
AcDbEntity
  8
0
  6
Continuous
 62
     8
370
    25
100
AcDbSpline
210
0.0
220
0.0
230
1.0
 70
    24
 71
     3
 72
    12
 73
     8
 74
     0
 42
0.000000001
 43
0.00000001
 40
-0.5788447217180464
 40
-0.5788447217180464
 40
-0.5788447217180464
 40
-0.5788447217180464
 40
-0.3728576618289314
 40
-0.3728576618289314
 40
-0.0432783660063474
 40
-0.0432783660063474
 40
0.0
 40
0.0
 40
0.0
 40
0.0
 10
111.8461655335757
 20
107.0017405672515
 30
0.0
 10
111.8461655335759
 20
107.0017405672517
 30
0.0
 10
111.7858437773825
 20
106.9378704724588
 30
0.0
 10
111.4754769428212
 20
106.6092467652762
 30
0.0
 10
111.1325418585791
 20
106.2461390290199
 30
0.0
 10
110.5934158425821
 20
105.6752997179643
 30
0.0
 10
110.5285266744319
 20
105.6065935399228
 30
0.0
 10
110.4614034235448
 20
105.5355218625129
 30
0.0
  0
SPLINE
  5
138
330
1F
100
AcDbEntity
  8
0
  6
Continuous
 62
     8
370
    25
100
AcDbSpline
210
0.0
220
0.0
230
1.0
 70
     8
 71
     3
 72
    12
 73
     8
 74
     0
 42
0.000000001
 43
0.00000001
 40
0.0
 40
0.0
 40
0.0
 40
0.0
 40
0.0430206627346149
 40
0.0430206627346149
 40
0.3824319177041577
 40
0.3824319177041577
 40
0.594563952060122
 40
0.594563952060122
 40
0.594563952060122
 40
0.594563952060122
 10
96.30488264226526
 20
93.44558320592014
 30
0.0
 10
96.23657783360541
 20
93.40138567491529
 30
0.0
 10
96.17045211541145
 20
93.35859815356889
 30
0.0
 10
95.60266349861362
 20
92.99120301364707
 30
0.0
 10
95.23917619681147
 20
92.75600373792746
 30
0.0
 10
94.91015415065121
 20
92.54310563695246
 30
0.0
 10
94.84616553384072
 20
92.50170094428526
 30
0.0
 10
94.84616553384072
 20
92.50170094428526
 30
0.0
  0
SPLINE
  5
139
330
1F
100
AcDbEntity
  8
0
  6
Continuous
 62
     8
370
    25
100
AcDbSpline
210
0.0
220
0.0
230
1.0
 70
    24
 71
     3
 72
    12
 73
     8
 74
     0
 42
0.000000001
 43
0.00000001
 40
-0.5788447217180465
 40
-0.5788447217180465
 40
-0.5788447217180465
 40
-0.5788447217180465
 40
-0.535566355711699
 40
-0.535566355711699
 40
-0.205987059889115
 40
-0.205987059889115
 40
0.0
 40
0.0
 40
0.0
 40
0.0
 10
110.8799468288371
 20
105.1169784572206
 30
0.0
 10
110.951018506247
 20
105.1841017081078
 30
0.0
 10
111.0197246842884
 20
105.248990876258
 30
0.0
 10
111.590563995344
 20
105.7881168922549
 30
0.0
 10
111.9536717316003
 20
106.131051976497
 30
0.0
 10
112.2822954387829
 20
106.4414188110584
 30
0.0
 10
112.3461655335759
 20
106.5017405672517
 30
0.0
 10
112.3461655335757
 20
106.5017405672515
 30
0.0
  0
SPLINE
  5
13A
330
1F
100
AcDbEntity
  8
0
  6
Continuous
 62
     8
370
    25
100
AcDbSpline
210
0.0
220
0.0
230
1.0
 70
     8
 71
     3
 72
    12
 73
     8
 74
     0
 42
0.000000001
 43
0.00000001
 40
0.0
 40
0.0
 40
0.0
 40
0.0
 40
0.2121320343559643
 40
0.2121320343559643
 40
0.5515432893255071
 40
0.5515432893255071
 40
0.5945639520601226
 40
0.5945639520601226
 40
0.5945639520601226
 40
0.5945639520601226
 10
97.8461259106094
 20
89.50174056751659
 30
0.0
 10
97.8461259106094
 20
89.50174056751659
 30
0.0
 10
97.8875306032766
 20
89.56572918432707
 30
0.0
 10
98.10042870425158
 20
89.89475123048732
 30
0.0
 10
98.33562797997119
 20
90.2582385322895
 30
0.0
 10
98.70302311989305
 20
90.82602714908731
 30
0.0
 10
98.74581064123943
 20
90.89215286728128
 30
0.0
 10
98.79000817224427
 20
90.96045767594111
 30
0.0
  0
LINE
  5
13B
330
1F
100
AcDbEntity
  8
0
  6
Continuous
 62
     7
370
     0
100
AcDbLine
 10
112.6940256623
 20
125.9662164485
 30
0.0
 11
113.0885405336
 21
113.3417405673
 31
0.0
  0
LINE
  5
13C
330
1F
100
AcDbEntity
  8
0
  6
Continuous
 62
     7
370
     0
100
AcDbLine
 10
93.9983054049
 20
125.9662164485
 30
0.0
 11
93.6037905336
 21
113.3417405673
 31
0.0
  0
LINE
  5
13D
330
1F
100
AcDbEntity
  8
0
  6
Continuous
 62
     7
370
     0
100
AcDbLine
 10
92.6967905336
 20
113.3417405673
 30
0.0
 11
113.9955405336
 21
113.3417405673
 31
0.0
  0
LINE
  5
13E
330
1F
100
AcDbEntity
  8
0
  6
CENTERX2
 62
     7
370
    18
100
AcDbLine
 10
91.7628201934
 20
98.0017405673
 30
0.0
 11
162.6004504519
 21
98.0017405673
 31
0.0
  0
LINE
  5
13F
330
1F
100
AcDbEntity
  8
0
  6
CENTERX2
 62
     7
370
    18
100
AcDbLine
 10
103.3461655336
 20
124.3053492943
 30
0.0
 11
103.3461655336
 21
85.6828874716
 31
0.0
  0
LINE
  5
140
330
1F
100
AcDbEntity
  8
0
  6
CENTERX2
 62
     7
370
    18
100
AcDbLine
 10
103.3461655336
 20
124.3053492943
 30
0.0
 11
103.3461655336
 21
129.0017405673
 31
0.0
  0
ARC
  5
141
330
1F
100
AcDbEntity
  8
0
  6
Continuous
 62
     7
370
    25
100
AcDbCircle
 10
208.2047981844
 20
114.9668833421
 30
0.0
 40
2.499999999999996
100
AcDbArc
 50
296.7436839504
 51
319.4425836614
  0
ARC
  5
142
330
1F
100
AcDbEntity
  8
0
  6
Continuous
 62
     7
370
    25
100
AcDbCircle
 10
190.7047981844
 20
114.9668833421
 30
0.0
 40
2.499999999999999
100
AcDbArc
 50
220.5574163386
 51
243.2563160496
  0
LINE
  5
143
330
1F
100
AcDbEntity
  8
0
  6
Continuous
 62
     7
370
    25
100
AcDbLine
 10
210.1041851077
 20
113.3413590219
 30
0.0
 11
209.7615604117
 21
124.3053492943
 31
0.0
  0
LINE
  5
144
330
1F
100
AcDbEntity
  8
0
  6
Continuous
 62
     7
370
    25
100
AcDbLine
 10
189.1480359571
 20
124.3053492943
 30
0.0
 11
188.8054112611
 21
113.3413590219
 31
0.0
  0
LINE
  5
145
330
1F
100
AcDbEntity
  8
0
  6
Continuous
 62
     7
370
    25
100
AcDbLine
 10
209.7615604117
 20
124.3053492943
 30
0.0
 11
208.2047981844
 21
127.0017405673
 31
0.0
  0
LINE
  5
146
330
1F
100
AcDbEntity
  8
0
  6
Continuous
 62
     7
370
    25
100
AcDbLine
 10
190.7047981844
 20
127.0017405673
 30
0.0
 11
189.1480359571
 21
124.3053492943
 31
0.0
  0
ARC
  5
147
330
1F
100
AcDbEntity
  8
0
  6
Continuous
 62
     7
370
    25
100
AcDbCircle
 10
210.4547981844
 20
110.5017405673
 30
0.0
 40
2.5
100
AcDbArc
 50
116.7436839504
 51
180.0
  0
ARC
  5
148
330
1F
100
AcDbEntity
  8
0
  6
Continuous
 62
     7
370
    25
100
AcDbCircle
 10
188.4547981844
 20
110.5017405673
 30
0.0
 40
2.5
100
AcDbArc
 50
0.0
 51
63.2563160496
  0
LINE
  5
149
330
1F
100
AcDbEntity
  8
0
  6
Continuous
 62
     7
370
    25
100
AcDbLine
 10
190.9547981844
 20
110.5017405673
 30
0.0
 11
190.9547981844
 21
106.5017405673
 31
0.0
  0
LINE
  5
14A
330
1F
100
AcDbEntity
  8
0
  6
Continuous
 62
     7
370
    25
100
AcDbLine
 10
207.9547981844
 20
106.5017405673
 30
0.0
 11
207.9547981844
 21
110.5017405673
 31
0.0
  0
CIRCLE
  5
14B
330
1F
100
AcDbEntity
  8
0
  6
Continuous
 62
     7
370
    25
100
AcDbCircle
 10
199.4547981844
 20
98.0017405673
 30
0.0
 40
3.433449123032062
  0
CIRCLE
  5
14C
330
1F
100
AcDbEntity
  8
0
  6
Continuous
 62
     7
370
    25
100
AcDbCircle
 10
199.4547981844
 20
98.0017405673
 30
0.0
 40
2.638978050180526
  0
CIRCLE
  5
14D
330
1F
100
AcDbEntity
  8
0
  6
Continuous
 62
     7
370
    25
100
AcDbCircle
 10
199.4547981844
 20
98.0017405673
 30
0.0
 40
2.44999999999996
  0
CIRCLE
  5
14E
330
1F
100
AcDbEntity
  8
0
  6
Continuous
 62
     7
370
    25
100
AcDbCircle
 10
199.4547981844
 20
98.0017405673
 30
0.0
 40
2.25
  0
CIRCLE
  5
14F
330
1F
100
AcDbEntity
  8
0
  6
Continuous
 62
     7
370
    25
100
AcDbCircle
 10
199.4547981844
 20
98.0017405673
 30
0.0
 40
4.0
  0
CIRCLE
  5
150
330
1F
100
AcDbEntity
  8
0
  6
Continuous
 62
     7
370
    25
100
AcDbCircle
 10
199.4547981844
 20
98.0017405673
 30
0.0
 40
4.500000000000028
  0
CIRCLE
  5
151
330
1F
100
AcDbEntity
  8
0
  6
Continuous
 62
     7
370
    25
100
AcDbCircle
 10
199.4547981844
 20
98.0017405673
 30
0.0
 40
4.849999999999994
  0
CIRCLE
  5
152
330
1F
100
AcDbEntity
  8
0
  6
Continuous
 62
     7
370
    25
100
AcDbCircle
 10
199.4547981844
 20
98.0017405673
 30
0.0
 40
7.550000000000011
  0
CIRCLE
  5
153
330
1F
100
AcDbEntity
  8
0
  6
Continuous
 62
     7
370
    25
100
AcDbCircle
 10
199.4547981844
 20
98.0017405673
 30
0.0
 40
7.849999999999994
  0
CIRCLE
  5
154
330
1F
100
AcDbEntity
  8
0
  6
Continuous
 62
     7
370
    25
100
AcDbCircle
 10
199.4547981844
 20
98.0017405673
 30
0.0
 40
4.750000000000028
  0
SPLINE
  5
155
330
1F
100
AcDbEntity
  8
0
  6
Continuous
 62
     7
370
    25
100
AcDbSpline
210
0.0
220
0.0
230
1.0
 70
    24
 71
     3
 72
    15
 73
    11
 74
     0
 42
0.000000001
 43
0.00000001
 40
0.0
 40
0.0
 40
0.0
 40
0.0
 40
0.1323049664163416
 40
0.2645725257576573
 40
0.3997989469058976
 40
0.5350009659368398
 40
0.6501921044151454
 40
0.7654012116808045
 40
0.8826892657702334
 40
1.0
 40
1.0
 40
1.0
 40
1.0
 10
191.454798184407
 20
102.6205427207687
 30
0.0
 10
191.8004293007642
 20
102.8200929388378
 30
0.0
 10
192.4915938119081
 20
103.219136955401
 30
0.0
 10
193.5559258964103
 20
103.8336293708955
 30
0.0
 10
194.6403207697091
 20
104.4597050429024
 30
0.0
 10
195.6854363354089
 20
105.0631027960935
 30
0.0
 10
196.6740912862713
 20
105.6339029981095
 30
0.0
 10
197.607139922535
 20
106.1725988794234
 30
0.0
 10
198.5359699965666
 20
106.7088591726969
 30
0.0
 10
199.1485023826741
 20
107.0625049107035
 30
0.0
 10
199.4547981844069
 20
107.2393448742856
 30
0.0
  0
SPLINE
  5
156
330
1F
100
AcDbEntity
  8
0
  6
Continuous
 62
     7
370
    25
100
AcDbSpline
210
0.0
220
0.0
230
1.0
 70
    24
 71
     3
 72
    15
 73
    11
 74
     0
 42
0.000000001
 43
0.00000001
 40
0.0
 40
0.0
 40
0.0
 40
0.0
 40
0.13230496641634
 40
0.2645725257576541
 40
0.3997989469058928
 40
0.5350009659368333
 40
0.6501921044151404
 40
0.7654012116808011
 40
0.8826892657702318
 40
1.0
 40
1.0
 40
1.0
 40
1.0
 10
199.4547981844069
 20
107.2393448742856
 30
0.0
 10
199.8004293007641
 20
107.0397946562164
 30
0.0
 10
200.491593811908
 20
106.6407506396532
 30
0.0
 10
201.5559258964103
 20
106.0262582241587
 30
0.0
 10
202.6403207697091
 20
105.4001825521517
 30
0.0
 10
203.6854363354089
 20
104.7967847989607
 30
0.0
 10
204.6740912862713
 20
104.2259845969446
 30
0.0
 10
205.607139922535
 20
103.6872887156308
 30
0.0
 10
206.5359699965666
 20
103.1510284223572
 30
0.0
 10
207.1485023826741
 20
102.7973826843507
 30
0.0
 10
207.454798184407
 20
102.6205427207685
 30
0.0
  0
SPLINE
  5
157
330
1F
100
AcDbEntity
  8
0
  6
Continuous
 62
     7
370
    25
100
AcDbSpline
210
0.0
220
0.0
230
1.0
 70
    24
 71
     3
 72
    15
 73
    11
 74
     0
 42
0.000000001
 43
0.00000001
 40
0.0
 40
0.0
 40
0.0
 40
0.0
 40
0.1912003000487615
 40
0.2877607484999756
 40
0.3843103280839657
 40
0.5102449433648529
 40
0.6361815921001199
 40
0.7654734469771991
 40
0.894801686217326
 40
1.0
 40
1.0
 40
1.0
 40
1.0
 10
207.454798184407
 20
102.6205427207685
 30
0.0
 10
207.454798184407
 20
102.0426430411535
 30
0.0
 10
207.454798184407
 20
101.1728910359448
 30
0.0
 10
207.454798184407
 20
99.98686347035951
 30
0.0
 10
207.454798184407
 20
98.99520926112739
 30
0.0
 10
207.454798184407
 20
97.90543805128327
 30
0.0
 10
207.454798184407
 20
96.7140434670219
 30
0.0
 10
207.4547981844069
 20
95.52164112537045
 30
0.0
 10
207.4547981844069
 20
94.40674382771904
 30
0.0
 10
207.4547981844069
 20
93.69996732070118
 30
0.0
 10
207.4547981844069
 20
93.3829384137345
 30
0.0
  0
SPLINE
  5
158
330
1F
100
AcDbEntity
  8
0
  6
Continuous
 62
     7
370
    25
100
AcDbSpline
210
0.0
220
0.0
230
1.0
 70
    24
 71
     3
 72
    15
 73
    11
 74
     0
 42
0.000000001
 43
0.00000001
 40
0.0
 40
0.0
 40
0.0
 40
0.0
 40
0.13230496641634
 40
0.2645725257576539
 40
0.3997989469058926
 40
0.5350009659368332
 40
0.6501921044151403
 40
0.7654012116808009
 40
0.8826892657702315
 40
1.0
 40
1.0
 40
1.0
 40
1.0
 10
207.4547981844069
 20
93.3829384137345
 30
0.0
 10
207.1091670680497
 20
93.18338819566536
 30
0.0
 10
206.4180025569058
 20
92.7843441791021
 30
0.0
 10
205.3536704724036
 20
92.16985176360762
 30
0.0
 10
204.2692755991048
 20
91.54377609160069
 30
0.0
 10
203.224160033405
 20
90.94037833840966
 30
0.0
 10
202.2355050825426
 20
90.36957813639359
 30
0.0
 10
201.3024564462789
 20
89.83088225507973
 30
0.0
 10
200.3736263722473
 20
89.29462196180619
 30
0.0
 10
199.7610939861397
 20
88.94097622379964
 30
0.0
 10
199.4547981844069
 20
88.76413626021753
 30
0.0
  0
SPLINE
  5
159
330
1F
100
AcDbEntity
  8
0
  6
Continuous
 62
     7
370
    25
100
AcDbSpline
210
0.0
220
0.0
230
1.0
 70
    24
 71
     3
 72
    15
 73
    11
 74
     0
 42
0.000000001
 43
0.00000001
 40
0.0
 40
0.0
 40
0.0
 40
0.0
 40
0.13230496641634
 40
0.264572525757654
 40
0.3997989469058927
 40
0.5350009659368333
 40
0.6501921044151404
 40
0.765401211680801
 40
0.8826892657702317
 40
1.0
 40
1.0
 40
1.0
 40
1.0
 10
199.4547981844069
 20
88.76413626021753
 30
0.0
 10
199.1091670680497
 20
88.96368647828665
 30
0.0
 10
198.4180025569058
 20
89.36273049484991
 30
0.0
 10
197.3536704724036
 20
89.97722291034444
 30
0.0
 10
196.2692755991048
 20
90.60329858235136
 30
0.0
 10
195.224160033405
 20
91.2066963355424
 30
0.0
 10
194.2355050825425
 20
91.77749653755849
 30
0.0
 10
193.3024564462789
 20
92.31619241887235
 30
0.0
 10
192.3736263722473
 20
92.85245271214593
 30
0.0
 10
191.7610939861398
 20
93.20609845015248
 30
0.0
 10
191.4547981844069
 20
93.3829384137346
 30
0.0
  0
SPLINE
  5
15A
330
1F
100
AcDbEntity
  8
0
  6
Continuous
 62
     7
370
    25
100
AcDbSpline
210
0.0
220
0.0
230
1.0
 70
    24
 71
     3
 72
    15
 73
    11
 74
     0
 42
0.000000001
 43
0.00000001
 40
0.0
 40
0.0
 40
0.0
 40
0.0
 40
0.1051986108799536
 40
0.2313029910844185
 40
0.357374381590015
 40
0.4865336488456432
 40
0.6156899699518121
 40
0.7112373335000975
 40
0.8067951074231912
 40
1.0
 40
1.0
 40
1.0
 40
1.0
 10
191.4547981844069
 20
93.3829384137346
 30
0.0
 10
191.4547981844069
 20
93.69996633981143
 30
0.0
 10
191.4547981844069
 20
94.39702409509434
 30
0.0
 10
191.4547981844069
 20
95.49194006424686
 30
0.0
 10
191.4547981844069
 20
96.67380993581685
 30
0.0
 10
191.4547981844069
 20
97.87515507444854
 30
0.0
 10
191.454798184407
 20
98.98206496262452
 30
0.0
 10
191.454798184407
 20
99.9775190665909
 30
0.0
 10
191.454798184407
 20
101.1637037620817
 30
0.0
 10
191.454798184407
 20
102.0365440486298
 30
0.0
 10
191.454798184407
 20
102.6205427207686
 30
0.0
  0
ARC
  5
15B
330
1F
100
AcDbEntity
  8
0
  6
Continuous
 62
     7
370
    25
100
AcDbCircle
 10
199.4547981844
 20
98.0017405673
 30
0.0
 40
8.599999999999994
100
AcDbArc
 50
180.0
 51
201.1345695407
  0
ARC
  5
15C
330
1F
100
AcDbEntity
  8
0
  6
Continuous
 62
     7
370
    25
100
AcDbCircle
 10
199.4547981844
 20
98.0017405673
 30
0.0
 40
8.600000000000003
100
AcDbArc
 50
218.8058595374
 51
261.2971462208
  0
ARC
  5
15D
330
1F
100
AcDbEntity
  8
0
  6
Continuous
 62
     7
370
    25
100
AcDbCircle
 10
199.4547981844
 20
98.0017405673
 30
0.0
 40
8.599999999999998
100
AcDbArc
 50
278.8047940358
 51
321.0902113667
  0
ARC
  5
15E
330
1F
100
AcDbEntity
  8
0
  6
Continuous
 62
     7
370
    25
100
AcDbCircle
 10
199.4547981844
 20
98.0017405673
 30
0.0
 40
8.600000000000001
100
AcDbArc
 50
338.8778965883
 51
21.5289044056
  0
ARC
  5
15F
330
1F
100
AcDbEntity
  8
0
  6
Continuous
 62
     7
370
    25
100
AcDbCircle
 10
199.4547981844
 20
98.0017405673
 30
0.0
 40
8.599999999999998
100
AcDbArc
 50
38.7293588213
 51
81.0637956078
  0
ARC
  5
160
330
1F
100
AcDbEntity
  8
0
  6
Continuous
 62
     7
370
    25
100
AcDbCircle
 10
199.4547981844
 20
98.0017405673
 30
0.0
 40
8.599999999999982
100
AcDbArc
 50
98.9222414151
 51
141.4799287414
  0
ARC
  5
161
330
1F
100
AcDbEntity
  8
0
  6
Continuous
 62
     7
370
    25
100
AcDbCircle
 10
199.4547981844
 20
98.0017405673
 30
0.0
 40
8.599999999999994
100
AcDbArc
 50
158.4710955944
 51
180.0
  0
LINE
  5
162
330
1F
100
AcDbEntity
  8
0
  6
Continuous
 62
     7
370
    25
100
AcDbLine
 10
210.1041851077
 20
113.3413590219
 30
0.0
 11
188.8054112611
 21
113.3413590219
 31
0.0
  0
LINE
  5
163
330
1F
100
AcDbEntity
  8
0
  6
Continuous
 62
     7
370
    25
100
AcDbLine
 10
199.4547981844
 20
124.3053492943
 30
0.0
 11
189.1480359571
 21
124.3053492943
 31
0.0
  0
LINE
  5
164
330
1F
100
AcDbEntity
  8
0
  6
Continuous
 62
     7
370
    25
100
AcDbLine
 10
209.7615604117
 20
124.3053492943
 30
0.0
 11
199.4547981844
 21
124.3053492943
 31
0.0
  0
LINE
  5
165
330
1F
100
AcDbEntity
  8
0
  6
Continuous
 62
     7
370
    25
100
AcDbLine
 10
190.7047981844
 20
127.0017405673
 30
0.0
 11
208.2047981844
 21
127.0017405673
 31
0.0
  0
SPLINE
  5
166
330
1F
100
AcDbEntity
  8
0
  6
Continuous
 62
     7
370
    25
100
AcDbSpline
210
0.0
220
0.0
230
1.0
 70
     8
 71
     3
 72
    10
 73
     6
 74
     0
 42
0.000000001
 43
0.00000001
 40
0.0
 40
0.0
 40
0.0
 40
0.0
 40
0.0362478876900008
 40
0.5076170346777924
 40
1.0
 40
1.0
 40
1.0
 40
1.0
 10
194.8975796190672
 20
105.2842500445881
 30
0.0
 10
194.8982424728397
 20
105.2868155075494
 30
0.0
 10
194.9075251066108
 20
105.3227423651941
 30
0.0
 10
194.8836702153636
 20
105.4138789975653
 30
0.0
 10
194.8315401105309
 20
105.494478052674
 30
0.0
 10
194.8049067311875
 20
105.535656278122
 30
0.0
  0
SPLINE
  5
167
330
1F
100
AcDbEntity
  8
0
  6
Continuous
 62
     7
370
    25
100
AcDbSpline
210
0.0
220
0.0
230
1.0
 70
     8
 71
     3
 72
    10
 73
     6
 74
     0
 42
0.000000001
 43
0.00000001
 40
0.0
 40
0.0
 40
0.0
 40
0.0
 40
0.4737668444521103
 40
0.9475393535970681
 40
1.0
 40
1.0
 40
1.0
 40
1.0
 10
204.1046896376264
 20
105.535656278122
 30
0.0
 10
204.0789825179231
 20
105.4963162770493
 30
0.0
 10
204.027567971144
 20
105.4176358045271
 30
0.0
 10
204.0027292334378
 20
105.3269905773571
 30
0.0
 10
204.0117075935538
 20
105.2896637448614
 30
0.0
 10
204.0126026541754
 20
105.2859426000794
 30
0.0
  0
SPLINE
  5
168
330
1F
100
AcDbEntity
  8
0
  6
Continuous
 62
     7
370
    25
100
AcDbSpline
210
0.0
220
0.0
230
1.0
 70
    24
 71
     3
 72
     8
 73
     4
 74
     0
 42
0.000000001
 43
0.00000001
 40
0.0
 40
0.0
 40
0.0
 40
0.0
 40
1.0
 40
1.0
 40
1.0
 40
1.0
 10
207.454798184407
 20
106.5017405672515
 30
0.0
 10
207.7848244380218
 20
106.5017405672515
 30
0.0
 10
207.954798184407
 20
106.5017405672515
 30
0.0
 10
207.954798184407
 20
106.5017405672515
 30
0.0
  0
LINE
  5
169
330
1F
100
AcDbEntity
  8
0
  6
Continuous
 62
     7
370
    25
100
AcDbLine
 10
204.2766235649
 20
106.0017405673
 30
0.0
 11
204.2766235649
 21
106.5017405673
 31
0.0
  0
SPLINE
  5
16A
330
1F
100
AcDbEntity
  8
0
  6
Continuous
 62
     7
370
    25
100
AcDbSpline
210
0.0
220
0.0
230
1.0
 70
     8
 71
     3
 72
    10
 73
     6
 74
     0
 42
0.000000001
 43
0.00000001
 40
0.0
 40
0.0
 40
0.0
 40
0.0
 40
0.5000000000000023
 40
0.5000000000000023
 40
1.0
 40
1.0
 40
1.0
 40
1.0
 10
204.1048028973626
 20
105.5355848046107
 30
0.0
 10
204.1557278344226
 20
105.5987469857498
 30
0.0
 10
204.1986907688905
 20
105.6698510712298
 30
0.0
 10
204.2595847440464
 20
105.8280918807982
 30
0.0
 10
204.2766235649035
 20
105.9136448518272
 30
0.0
 10
204.2766235649035
 20
106.0017405672515
 30
0.0
  0
SPLINE
  5
16B
330
1F
100
AcDbEntity
  8
0
  6
Continuous
 62
     7
370
    25
100
AcDbSpline
210
0.0
220
0.0
230
1.0
 70
     8
 71
     3
 72
     8
 73
     4
 74
     0
 42
0.000000001
 43
0.00000001
 40
0.0
 40
0.0
 40
0.0
 40
0.0
 40
1.0
 40
1.0
 40
1.0
 40
1.0
 10
194.6329728039105
 20
106.0017405672515
 30
0.0
 10
194.6329728039105
 20
105.8254856595494
 30
0.0
 10
194.7028481328259
 20
105.6620275714802
 30
0.0
 10
194.8047934714511
 20
105.5355848046106
 30
0.0
  0
LINE
  5
16C
330
1F
100
AcDbEntity
  8
0
  6
Continuous
 62
     7
370
    25
100
AcDbLine
 10
194.6329728039
 20
106.5017405673
 30
0.0
 11
194.6329728039
 21
106.0017405673
 31
0.0
  0
SPLINE
  5
16D
330
1F
100
AcDbEntity
  8
0
  6
Continuous
 62
     7
370
    25
100
AcDbSpline
210
0.0
220
0.0
230
1.0
 70
    24
 71
     3
 72
     8
 73
     4
 74
     0
 42
0.000000001
 43
0.00000001
 40
0.0
 40
0.0
 40
0.0
 40
0.0
 40
1.0
 40
1.0
 40
1.0
 40
1.0
 10
190.9547981844069
 20
106.5017405672515
 30
0.0
 10
190.9547981844069
 20
106.5017405672515
 30
0.0
 10
191.1247719307921
 20
106.5017405672515
 30
0.0
 10
191.4547981844069
 20
106.5017405672515
 30
0.0
  0
LINE
  5
16E
330
1F
100
AcDbEntity
  8
0
  6
Continuous
 62
     7
370
    25
100
AcDbLine
 10
207.9547981844
 20
100.8740218905
 30
0.0
 11
207.9547981844
 21
104.5017405673
 31
0.0
  0
LINE
  5
16F
330
1F
100
AcDbEntity
  8
0
  6
Continuous
 62
     7
370
    25
100
AcDbLine
 10
207.4547981844
 20
104.5017405673
 30
0.0
 11
207.9547981844
 21
104.5017405673
 31
0.0
  0
LINE
  5
170
330
1F
100
AcDbEntity
  8
0
  6
Continuous
 62
     7
370
    25
100
AcDbLine
 10
190.9547981844
 20
91.5017405673
 30
0.0
 11
191.4547981844
 21
91.5017405673
 31
0.0
  0
LINE
  5
171
330
1F
100
AcDbEntity
  8
0
  6
Continuous
 62
     7
370
    25
100
AcDbLine
 10
190.9547981844
 20
95.129459244
 30
0.0
 11
190.9547981844
 21
91.5017405673
 31
0.0
  0
LINE
  5
172
330
1F
100
AcDbEntity
  8
0
  6
Continuous
 62
     7
370
    25
100
AcDbLine
 10
207.4547981844
 20
91.5017405673
 30
0.0
 11
207.9547981844
 21
91.5017405673
 31
0.0
  0
LINE
  5
173
330
1F
100
AcDbEntity
  8
0
  6
Continuous
 62
     7
370
    25
100
AcDbLine
 10
207.9547981844
 20
91.5017405673
 30
0.0
 11
207.9547981844
 21
95.129459244
 31
0.0
  0
LINE
  5
174
330
1F
100
AcDbEntity
  8
0
  6
Continuous
 62
     7
370
    25
100
AcDbLine
 10
190.9547981844
 20
104.5017405673
 30
0.0
 11
191.4547981844
 21
104.5017405673
 31
0.0
  0
LINE
  5
175
330
1F
100
AcDbEntity
  8
0
  6
Continuous
 62
     7
370
    25
100
AcDbLine
 10
190.9547981844
 20
104.5017405673
 30
0.0
 11
190.9547981844
 21
100.8740218905
 31
0.0
  0
SPLINE
  5
176
330
1F
100
AcDbEntity
  8
0
  6
Continuous
 62
     7
370
    25
100
AcDbSpline
210
0.0
220
0.0
230
1.0
 70
    24
 71
     3
 72
    10
 73
     6
 74
     0
 42
0.000000001
 43
0.00000001
 40
0.0
 40
0.0
 40
0.0
 40
0.0
 40
0.473144248227326
 40
0.9484905379598085
 40
1.0
 40
1.0
 40
1.0
 40
1.0
 10
207.954798184407
 20
95.12945924398252
 30
0.0
 10
207.954798184407
 20
95.40078902892624
 30
0.0
 10
207.954798184407
 20
95.94471138378944
 30
0.0
 10
207.954798184407
 20
96.51100641089461
 30
0.0
 10
207.954798184407
 20
96.80505962707852
 30
0.0
 10
207.954798184407
 20
96.8338085264231
 30
0.0
  0
SPLINE
  5
177
330
1F
100
AcDbEntity
  8
0
  6
Continuous
 62
     7
370
    25
100
AcDbSpline
210
0.0
220
0.0
230
1.0
 70
    24
 71
     3
 72
    10
 73
     6
 74
     0
 42
0.000000001
 43
0.00000001
 40
0.0
 40
0.0
 40
0.0
 40
0.0
 40
0.2785303914791569
 40
0.6397724359231457
 40
1.0
 40
1.0
 40
1.0
 40
1.0
 10
207.954798184407
 20
99.11818811082586
 30
0.0
 10
207.954798184407
 20
99.27857224543195
 30
0.0
 10
207.954798184407
 20
99.64696776570334
 30
0.0
 10
207.954798184407
 20
100.2335719771646
 30
0.0
 10
207.954798184407
 20
100.6607388034922
 30
0.0
 10
207.954798184407
 20
100.8740218905206
 30
0.0
  0
SPLINE
  5
178
330
1F
100
AcDbEntity
  8
0
  6
Continuous
 62
     7
370
    25
100
AcDbSpline
210
0.0
220
0.0
230
1.0
 70
    24
 71
     3
 72
    10
 73
     6
 74
     0
 42
0.000000001
 43
0.00000001
 40
0.0
 40
0.0
 40
0.0
 40
0.0
 40
0.4597904883345619
 40
0.9217208689650931
 40
1.0
 40
1.0
 40
1.0
 40
1.0
 10
190.9547981844069
 20
100.8740218905206
 30
0.0
 10
190.9547981844069
 20
100.6026751457775
 30
0.0
 10
190.9547981844069
 20
100.0587187923928
 30
0.0
 10
190.9547981844069
 20
99.47616172340548
 30
0.0
 10
190.9547981844069
 20
99.16596858272187
 30
0.0
 10
190.9547981844069
 20
99.12102000447334
 30
0.0
  0
SPLINE
  5
179
330
1F
100
AcDbEntity
  8
0
  6
Continuous
 62
     7
370
    25
100
AcDbSpline
210
0.0
220
0.0
230
1.0
 70
    24
 71
     3
 72
    10
 73
     6
 74
     0
 42
0.000000001
 43
0.00000001
 40
0.0
 40
0.0
 40
0.0
 40
0.0
 40
0.2202623774841787
 40
0.6106793951394096
 40
1.0
 40
1.0
 40
1.0
 40
1.0
 10
190.9547981844069
 20
96.75585250563073
 30
0.0
 10
190.9547981844069
 20
96.63844628170347
 30
0.0
 10
190.9547981844069
 20
96.31293648455873
 30
0.0
 10
190.9547981844069
 20
95.7698303825235
 30
0.0
 10
190.9547981844069
 20
95.34271609736572
 30
0.0
 10
190.9547981844069
 20
95.12945924398252
 30
0.0
  0
LINE
  5
17A
330
1F
100
AcDbEntity
  8
0
  6
Continuous
 62
     7
370
    25
100
AcDbLine
 10
207.4547981844
 20
91.0017405673
 30
0.0
 11
207.4547981844
 21
91.5017405673
 31
0.0
  0
LINE
  5
17B
330
1F
100
AcDbEntity
  8
0
  6
Continuous
 62
     7
370
    25
100
AcDbLine
 10
207.4547981844
 20
91.0017405673
 30
0.0
 11
204.4507965831
 21
91.0017405673
 31
0.0
  0
ARC
  5
17C
330
1F
100
AcDbEntity
  8
0
  6
Continuous
 62
     7
370
    25
100
AcDbCircle
 10
207.4547981844
 20
91.5017405673
 30
0.0
 40
0.5
100
AcDbArc
 50
270.0
 51
0.0
  0
ARC
  5
17D
330
1F
100
AcDbEntity
  8
0
  6
Continuous
 62
     7
370
    25
100
AcDbCircle
 10
207.4547981844
 20
104.5017405673
 30
0.0
 40
0.5
100
AcDbArc
 50
0.0
 51
90.0
  0
LINE
  5
17E
330
1F
100
AcDbEntity
  8
0
  6
Continuous
 62
     7
370
    25
100
AcDbLine
 10
207.4547981844
 20
105.0017405673
 30
0.0
 11
207.4547981844
 21
104.5017405673
 31
0.0
  0
LINE
  5
17F
330
1F
100
AcDbEntity
  8
0
  6
Continuous
 62
     7
370
    25
100
AcDbLine
 10
204.4507965831
 20
105.0017405673
 30
0.0
 11
207.4547981844
 21
105.0017405673
 31
0.0
  0
LINE
  5
180
330
1F
100
AcDbEntity
  8
0
  6
Continuous
 62
     7
370
    25
100
AcDbLine
 10
194.4587997857
 20
91.0017405673
 30
0.0
 11
191.4547981844
 21
91.0017405673
 31
0.0
  0
LINE
  5
181
330
1F
100
AcDbEntity
  8
0
  6
Continuous
 62
     7
370
    25
100
AcDbLine
 10
191.4547981844
 20
91.5017405673
 30
0.0
 11
191.4547981844
 21
91.0017405673
 31
0.0
  0
LINE
  5
182
330
1F
100
AcDbEntity
  8
0
  6
Continuous
 62
     7
370
    25
100
AcDbLine
 10
191.4547981844
 20
105.0017405673
 30
0.0
 11
191.4547981844
 21
104.5017405673
 31
0.0
  0
LINE
  5
183
330
1F
100
AcDbEntity
  8
0
  6
Continuous
 62
     7
370
    25
100
AcDbLine
 10
191.4547981844
 20
105.0017405673
 30
0.0
 11
194.4587997857
 21
105.0017405673
 31
0.0
  0
ARC
  5
184
330
1F
100
AcDbEntity
  8
0
  6
Continuous
 62
     7
370
    25
100
AcDbCircle
 10
191.4547981844
 20
91.5017405673
 30
0.0
 40
0.5
100
AcDbArc
 50
180.0
 51
270.0
  0
ARC
  5
185
330
1F
100
AcDbEntity
  8
0
  6
Continuous
 62
     7
370
    25
100
AcDbCircle
 10
191.4547981844
 20
104.5017405673
 30
0.0
 40
0.5
100
AcDbArc
 50
90.0
 51
180.0
  0
LINE
  5
186
330
1F
100
AcDbEntity
  8
0
  6
Continuous
 62
     7
370
    25
100
AcDbLine
 10
207.4547981844
 20
106.0017405673
 30
0.0
 11
204.2766235649
 21
106.0017405673
 31
0.0
  0
LINE
  5
187
330
1F
100
AcDbEntity
  8
0
  6
Continuous
 62
     7
370
    25
100
AcDbLine
 10
207.4547981844
 20
106.0017405673
 30
0.0
 11
207.4547981844
 21
105.0017405673
 31
0.0
  0
LINE
  5
188
330
1F
100
AcDbEntity
  8
0
  6
Continuous
 62
     7
370
    25
100
AcDbLine
 10
194.6329728039
 20
106.0017405673
 30
0.0
 11
191.4547981844
 21
106.0017405673
 31
0.0
  0
LINE
  5
189
330
1F
100
AcDbEntity
  8
0
  6
Continuous
 62
     7
370
    25
100
AcDbLine
 10
191.4547981844
 20
105.0017405673
 30
0.0
 11
191.4547981844
 21
106.0017405673
 31
0.0
  0
LINE
  5
18A
330
1F
100
AcDbEntity
  8
0
  6
Continuous
 62
     7
370
    25
100
AcDbLine
 10
207.9547981844
 20
106.0017405673
 30
0.0
 11
207.4547981844
 21
106.0017405673
 31
0.0
  0
LINE
  5
18B
330
1F
100
AcDbEntity
  8
0
  6
Continuous
 62
     7
370
    25
100
AcDbLine
 10
207.9547981844
 20
104.5017405673
 30
0.0
 11
207.9547981844
 21
106.0017405673
 31
0.0
  0
LINE
  5
18C
330
1F
100
AcDbEntity
  8
0
  6
Continuous
 62
     7
370
    25
100
AcDbLine
 10
190.9547981844
 20
106.0017405673
 30
0.0
 11
191.4547981844
 21
106.0017405673
 31
0.0
  0
LINE
  5
18D
330
1F
100
AcDbEntity
  8
0
  6
Continuous
 62
     7
370
    25
100
AcDbLine
 10
190.9547981844
 20
106.0017405673
 30
0.0
 11
190.9547981844
 21
104.5017405673
 31
0.0
  0
LINE
  5
18E
330
1F
100
AcDbEntity
  8
0
  6
Continuous
 62
     7
370
    25
100
AcDbLine
 10
207.4547981844
 20
106.5017405673
 30
0.0
 11
207.4547981844
 21
106.0017405673
 31
0.0
  0
ARC
  5
18F
330
1F
100
AcDbEntity
  8
0
  6
Continuous
 62
     7
370
    25
100
AcDbCircle
 10
207.4547981844
 20
106.0017405673
 30
0.0
 40
0.5
100
AcDbArc
 50
0.0
 51
90.0
  0
LINE
  5
190
330
1F
100
AcDbEntity
  8
0
  6
Continuous
 62
     7
370
    25
100
AcDbLine
 10
207.4547981844
 20
106.5017405673
 30
0.0
 11
204.2766235649
 21
106.5017405673
 31
0.0
  0
LINE
  5
191
330
1F
100
AcDbEntity
  8
0
  6
Continuous
 62
     7
370
    25
100
AcDbLine
 10
191.4547981844
 20
106.0017405673
 30
0.0
 11
191.4547981844
 21
106.5017405673
 31
0.0
  0
LINE
  5
192
330
1F
100
AcDbEntity
  8
0
  6
Continuous
 62
     7
370
    25
100
AcDbLine
 10
194.6329728039
 20
106.5017405673
 30
0.0
 11
191.4547981844
 21
106.5017405673
 31
0.0
  0
ARC
  5
193
330
1F
100
AcDbEntity
  8
0
  6
Continuous
 62
     7
370
    25
100
AcDbCircle
 10
191.4547981844
 20
106.0017405673
 30
0.0
 40
0.5
100
AcDbArc
 50
90.0
 51
180.0
  0
LINE
  5
194
330
1F
100
AcDbEntity
  8
0
  6
Continuous
 62
     7
370
    25
100
AcDbLine
 10
200.4855745908
 20
96.0017405673
 30
0.0
 11
198.424021778
 21
96.0017405673
 31
0.0
  0
SPLINE
  5
195
330
1F
100
AcDbEntity
  8
0
  6
Continuous
 62
     7
370
    25
100
AcDbSpline
210
0.0
220
0.0
230
1.0
 70
    24
 71
     3
 72
    10
 73
     6
 74
     0
 42
0.000000001
 43
0.00000001
 40
-0.2904940295525327
 40
-0.2904940295525327
 40
-0.2904940295525327
 40
-0.2904940295525327
 40
-0.130307291676468
 40
-0.130307291676468
 40
0.0010563446871674
 40
0.0010563446871674
 40
0.0010563446871674
 40
0.0010563446871674
 10
190.9547981844069
 20
106.5017405672515
 30
0.0
 10
190.9547981844069
 20
106.37223726527
 30
0.0
 10
190.9547981844069
 20
106.2404462628839
 30
0.0
 10
190.9547981844069
 20
106.0620223338869
 30
0.0
 10
190.9547981844069
 20
106.0017405672515
 30
0.0
 10
190.9547981844069
 20
106.0017405672515
 30
0.0
  0
SPLINE
  5
196
330
1F
100
AcDbEntity
  8
0
  6
Continuous
 62
     7
370
    25
100
AcDbSpline
210
0.0
220
0.0
230
1.0
 70
    24
 71
     3
 72
    10
 73
     6
 74
     0
 42
0.000000001
 43
0.00000001
 40
-0.8711658249912583
 40
-0.8711658249912583
 40
-0.8711658249912583
 40
-0.8711658249912583
 40
-0.7398021886276228
 40
-0.7398021886276228
 40
-0.5796154507864709
 40
-0.5796154507864709
 40
-0.5796154507864709
 40
-0.5796154507864709
 10
207.954798184407
 20
106.0017405672515
 30
0.0
 10
207.954798184407
 20
106.0017405672515
 30
0.0
 10
207.954798184407
 20
106.0620223338869
 30
0.0
 10
207.954798184407
 20
106.2404462628625
 30
0.0
 10
207.954798184407
 20
106.3722372652982
 30
0.0
 10
207.954798184407
 20
106.5017405672515
 30
0.0
  0
LINE
  5
197
330
1F
100
AcDbEntity
  8
0
  6
Continuous
 62
     8
370
    25
100
AcDbLine
 10
199.4547981844
 20
112.7343119547
 30
0.0
 11
209.3297981844
 21
112.7343119547
 31
0.0
  0
LINE
  5
198
330
1F
100
AcDbEntity
  8
0
  6
Continuous
 62
     8
370
    25
100
AcDbLine
 10
189.5797981844
 20
112.7343119547
 30
0.0
 11
199.4547981844
 21
112.7343119547
 31
0.0
  0
LINE
  5
199
330
1F
100
AcDbEntity
  8
0
  6
Continuous
 62
     8
370
    25
100
AcDbLine
 10
199.4547981844
 20
110.5017405673
 30
0.0
 11
207.9547981844
 21
110.5017405673
 31
0.0
  0
LINE
  5
19A
330
1F
100
AcDbEntity
  8
0
  6
Continuous
 62
     8
370
    25
100
AcDbLine
 10
190.9547981844
 20
110.5017405673
 30
0.0
 11
199.4547981844
 21
110.5017405673
 31
0.0
  0
SPLINE
  5
19B
330
1F
100
AcDbEntity
  8
0
  6
Continuous
 62
     8
370
    25
100
AcDbSpline
210
0.0
220
0.0
230
1.0
 70
     8
 71
     3
 72
    14
 73
    10
 74
     0
 42
0.000000001
 43
0.00000001
 40
0.0
 40
0.0
 40
0.0
 40
0.0
 40
0.1953513489475623
 40
0.3810447280582296
 40
0.5581860599895785
 40
0.6905843659366793
 40
0.8203977781007216
 40
0.948311176520381
 40
1.0
 40
1.0
 40
1.0
 40
1.0
 10
204.1048028973626
 20
105.5355848046104
 30
0.0
 10
203.8702917311001
 20
105.6882731126046
 30
0.0
 10
203.4128633895171
 20
105.9861009756358
 30
0.0
 10
202.6629275429331
 20
106.3499877369412
 30
0.0
 10
201.9524085745492
 20
106.6157291715455
 30
0.0
 10
201.2894794622991
 20
106.7980864407737
 30
0.0
 10
200.6813484888861
 20
106.9134682472944
 30
0.0
 10
200.1889963869908
 20
106.9771996868133
 30
0.0
 10
199.8999274627202
 20
106.9854990190639
 30
0.0
 10
199.8167345464965
 20
106.9878875347246
 30
0.0
  0
SPLINE
  5
19C
330
1F
100
AcDbEntity
  8
0
  6
Continuous
 62
     8
370
    25
100
AcDbSpline
210
0.0
220
0.0
230
1.0
 70
     8
 71
     3
 72
    14
 73
    10
 74
     0
 42
0.000000001
 43
0.00000001
 40
0.0
 40
0.0
 40
0.0
 40
0.0
 40
0.0516916266181161
 40
0.1796059322246401
 40
0.3094184285450081
 40
0.4418140495142084
 40
0.6189593102515987
 40
0.804652675754261
 40
1.0
 40
1.0
 40
1.0
 40
1.0
 10
199.0928620203921
 20
106.9878878446616
 30
0.0
 10
199.0096645826376
 20
106.9854992903273
 30
0.0
 10
198.7205896522432
 20
106.9772001023168
 30
0.0
 10
198.2282330733425
 20
106.9134689381034
 30
0.0
 10
197.6201064360895
 20
106.7980875935429
 30
0.0
 10
196.9571781264573
 20
106.6157254725385
 30
0.0
 10
196.2466589237396
 20
106.3499795209336
 30
0.0
 10
195.4967233977193
 20
105.9860941418737
 30
0.0
 10
195.0392998393498
 20
105.6882697866805
 30
0.0
 10
194.8047934714513
 20
105.5355848046104
 30
0.0
  0
SPLINE
  5
19D
330
1F
100
AcDbEntity
  8
0
  6
Continuous
 62
     8
370
    25
100
AcDbSpline
210
0.0
220
0.0
230
1.0
 70
    24
 71
     3
 72
    11
 73
     7
 74
     0
 42
0.000000001
 43
0.00000001
 40
0.0
 40
0.0
 40
0.0
 40
0.0
 40
0.1577279087345773
 40
0.4384852724897184
 40
0.7192426362448593
 40
1.0
 40
1.0
 40
1.0
 40
1.0
 10
207.5386452000285
 20
100.8740218905206
 30
0.0
 10
207.575193554324
 20
100.8740218905206
 30
0.0
 10
207.6767983699899
 20
100.8740218905206
 30
0.0
 10
207.8161997012499
 20
100.8740218905206
 30
0.0
 10
207.9323574545797
 20
100.8740218905206
 30
0.0
 10
207.9473179411312
 20
100.8740218905206
 30
0.0
 10
207.954798184407
 20
100.8740218905206
 30
0.0
  0
LINE
  5
19E
330
1F
100
AcDbEntity
  8
0
  6
Continuous
 62
     8
370
    25
100
AcDbLine
 10
207.4547981844
 20
104.5017405673
 30
0.0
 11
207.4547981844
 21
102.648121541
 31
0.0
  0
LINE
  5
19F
330
1F
100
AcDbEntity
  8
0
  6
Continuous
 62
     8
370
    25
100
AcDbLine
 10
205.0859614745
 20
104.5017405673
 30
0.0
 11
207.4547981844
 21
104.5017405673
 31
0.0
  0
LINE
  5
1A0
330
1F
100
AcDbEntity
  8
0
  6
Continuous
 62
     8
370
    25
100
AcDbLine
 10
191.4547981844
 20
91.5017405673
 30
0.0
 11
193.8236348943
 21
91.5017405673
 31
0.0
  0
LINE
  5
1A1
330
1F
100
AcDbEntity
  8
0
  6
Continuous
 62
     8
370
    25
100
AcDbLine
 10
191.4547981844
 20
91.5017405673
 30
0.0
 11
191.4547981844
 21
93.3553595935
 31
0.0
  0
SPLINE
  5
1A2
330
1F
100
AcDbEntity
  8
0
  6
Continuous
 62
     8
370
    25
100
AcDbSpline
210
0.0
220
0.0
230
1.0
 70
    24
 71
     3
 72
    11
 73
     7
 74
     0
 42
0.000000001
 43
0.00000001
 40
0.0
 40
0.0
 40
0.0
 40
0.0
 40
0.1462619228804164
 40
0.4308412819202776
 40
0.7154206409601389
 40
0.9999999999999999
 40
0.9999999999999999
 40
0.9999999999999999
 40
0.9999999999999999
 10
191.3617981309174
 20
95.12945924398252
 30
0.0
 10
191.3283968733891
 20
95.12945924398252
 30
0.0
 10
191.2300073518523
 20
95.12945924398252
 30
0.0
 10
191.093459618975
 20
95.12945924398252
 30
0.0
 10
190.9772231763815
 20
95.12945924398252
 30
0.0
 10
190.9622731817318
 20
95.12945924398252
 30
0.0
 10
190.9547981844069
 20
95.12945924398252
 30
0.0
  0
SPLINE
  5
1A3
330
1F
100
AcDbEntity
  8
0
  6
Continuous
 62
     8
370
    25
100
AcDbSpline
210
0.0
220
0.0
230
1.0
 70
    24
 71
     3
 72
    11
 73
     7
 74
     0
 42
0.000000001
 43
0.00000001
 40
0.0
 40
0.0
 40
0.0
 40
0.0
 40
0.2779510083882771
 40
0.5559020167765545
 40
0.8338530251648318
 40
0.9999999999999999
 40
0.9999999999999999
 40
0.9999999999999999
 40
0.9999999999999999
 10
207.954798184407
 20
95.12945924398252
 30
0.0
 10
207.9473142230312
 20
95.12945924398252
 30
0.0
 10
207.9323463002797
 20
95.12945924398252
 30
0.0
 10
207.8162443184497
 20
95.12945924398252
 30
0.0
 10
207.6747025838333
 20
95.12945924398252
 30
0.0
 10
207.5706809828071
 20
95.12945924398252
 30
0.0
 10
207.5317641784511
 20
95.12945924398252
 30
0.0
  0
LINE
  5
1A4
330
1F
100
AcDbEntity
  8
0
  6
Continuous
 62
     8
370
    25
100
AcDbLine
 10
207.4547981844
 20
93.3553595935
 30
0.0
 11
207.4547981844
 21
91.5017405673
 31
0.0
  0
LINE
  5
1A5
330
1F
100
AcDbEntity
  8
0
  6
Continuous
 62
     8
370
    25
100
AcDbLine
 10
205.0859614745
 20
91.5017405673
 30
0.0
 11
207.4547981844
 21
91.5017405673
 31
0.0
  0
LINE
  5
1A6
330
1F
100
AcDbEntity
  8
0
  6
Continuous
 62
     8
370
    25
100
AcDbLine
 10
191.4547981844
 20
102.648121541
 30
0.0
 11
191.4547981844
 21
104.5017405673
 31
0.0
  0
LINE
  5
1A7
330
1F
100
AcDbEntity
  8
0
  6
Continuous
 62
     8
370
    25
100
AcDbLine
 10
191.4547981844
 20
104.5017405673
 30
0.0
 11
193.8236348943
 21
104.5017405673
 31
0.0
  0
SPLINE
  5
1A8
330
1F
100
AcDbEntity
  8
0
  6
Continuous
 62
     8
370
    25
100
AcDbSpline
210
0.0
220
0.0
230
1.0
 70
    24
 71
     3
 72
    11
 73
     7
 74
     0
 42
0.000000001
 43
0.00000001
 40
0.0
 40
0.0
 40
0.0
 40
0.0
 40
0.2858419881476877
 40
0.5716839762953757
 40
0.8575259644430637
 40
1.0
 40
1.0
 40
1.0
 40
1.0
 10
190.9547981844069
 20
100.8740218905206
 30
0.0
 10
190.9622714005101
 20
100.8740218905206
 30
0.0
 10
190.9772178327163
 20
100.8740218905206
 30
0.0
 10
191.0934809936356
 20
100.8740218905206
 30
0.0
 10
191.229101083608
 20
100.8740218905206
 30
0.0
 10
191.3264471627213
 20
100.8740218905206
 30
0.0
 10
191.3588281337084
 20
100.8740218905206
 30
0.0
  0
INSERT
  5
1B4
330
1F
100
AcDbEntity
  8
0
  6
Continuous
 62
     7
370
    18
100
AcDbBlockReference
  2
SW_CENTERMARKSYMBOL_0
 10
199.4547981844
 20
98.0017405673
 30
0.0
  0
LINE
  5
1B5
330
1F
100
AcDbEntity
  8
0
  6
Continuous
 62
     7
370
     0
100
AcDbLine
 10
208.8026583131
 20
125.9662164485
 30
0.0
 11
209.1971731844
 21
113.3417405673
 31
0.0
  0
LINE
  5
1B6
330
1F
100
AcDbEntity
  8
0
  6
Continuous
 62
     7
370
     0
100
AcDbLine
 10
190.1069380557
 20
125.9662164485
 30
0.0
 11
189.7124231844
 21
113.3417405673
 31
0.0
  0
LINE
  5
1B7
330
1F
100
AcDbEntity
  8
0
  6
Continuous
 62
     7
370
     0
100
AcDbLine
 10
188.8054231844
 20
113.3417405673
 30
0.0
 11
210.1041731844
 21
113.3417405673
 31
0.0
  0
ARC
  5
1B8
330
1F
100
AcDbEntity
  8
0
  6
Continuous
 62
     7
370
     0
100
AcDbCircle
 10
199.4547981844
 20
98.0017405673
 30
0.0
 40
6.578500000000031
100
AcDbArc
 50
75.0
 51
345.0
  0
LINE
  5
1B9
330
1F
100
AcDbEntity
  8
0
  6
Continuous
 62
     7
370
    25
100
AcDbLine
 10
134.6272453711
 20
161.3033720748
 30
0.0
 11
135.1004504519
 21
161.3033720748
 31
0.0
  0
LINE
  5
1BA
330
1F
100
AcDbEntity
  8
0
  6
Continuous
 62
     7
370
    25
100
AcDbLine
 10
135.1004504519
 20
170.3033720748
 30
0.0
 11
134.6272453711
 21
170.3033720748
 31
0.0
  0
LINE
  5
1BB
330
1F
100
AcDbEntity
  8
0
  6
Continuous
 62
     7
370
    25
100
AcDbLine
 10
134.6272453711
 20
170.3033720748
 30
0.0
 11
134.6004504519
 21
170.2033720748
 31
0.0
  0
LINE
  5
1BC
330
1F
100
AcDbEntity
  8
0
  6
Continuous
 62
     7
370
    25
100
AcDbLine
 10
134.6004504519
 20
161.4033720748
 30
0.0
 11
134.6272453711
 21
161.3033720748
 31
0.0
  0
LINE
  5
1BD
330
1F
100
AcDbEntity
  8
0
  6
Continuous
 62
     7
370
    25
100
AcDbLine
 10
139.1004504519
 20
161.8033720748
 30
0.0
 11
143.1004504519
 21
162.4533720748
 31
0.0
  0
LINE
  5
1BE
330
1F
100
AcDbEntity
  8
0
  6
Continuous
 62
     7
370
    25
100
AcDbLine
 10
143.1004504519
 20
169.1533720748
 30
0.0
 11
139.1004504519
 21
169.8033720748
 31
0.0
  0
LINE
  5
1BF
330
1F
100
AcDbEntity
  8
0
  6
Continuous
 62
     7
370
    25
100
AcDbLine
 10
135.1004504519
 20
161.8033720748
 30
0.0
 11
139.1004504519
 21
161.8033720748
 31
0.0
  0
LINE
  5
1C0
330
1F
100
AcDbEntity
  8
0
  6
Continuous
 62
     7
370
    25
100
AcDbLine
 10
139.1004504519
 20
169.8033720748
 30
0.0
 11
135.1004504519
 21
169.8033720748
 31
0.0
  0
LINE
  5
1C1
330
1F
100
AcDbEntity
  8
0
  6
Continuous
 62
     7
370
    25
100
AcDbLine
 10
155.1004504519
 20
161.8033720748
 30
0.0
 11
159.8943424878
 21
162.3699229518
 31
0.0
  0
LINE
  5
1C2
330
1F
100
AcDbEntity
  8
0
  6
Continuous
 62
     7
370
    25
100
AcDbLine
 10
159.8943424878
 20
169.2368211979
 30
0.0
 11
155.1004504519
 21
169.8033720748
 31
0.0
  0
LINE
  5
1C3
330
1F
100
AcDbEntity
  8
0
  6
Continuous
 62
     7
370
    25
100
AcDbLine
 10
147.1004504519
 20
161.8033720748
 30
0.0
 11
151.1004504519
 21
162.4533720748
 31
0.0
  0
LINE
  5
1C4
330
1F
100
AcDbEntity
  8
0
  6
Continuous
 62
     7
370
    25
100
AcDbLine
 10
151.1004504519
 20
169.1533720748
 30
0.0
 11
147.1004504519
 21
169.8033720748
 31
0.0
  0
LINE
  5
1C5
330
1F
100
AcDbEntity
  8
0
  6
Continuous
 62
     7
370
    25
100
AcDbLine
 10
151.1004504519
 20
161.8033720748
 30
0.0
 11
155.1004504519
 21
162.4533720748
 31
0.0
  0
LINE
  5
1C6
330
1F
100
AcDbEntity
  8
0
  6
Continuous
 62
     7
370
    25
100
AcDbLine
 10
155.1004504519
 20
169.1533720748
 30
0.0
 11
151.1004504519
 21
169.8033720748
 31
0.0
  0
LINE
  5
1C7
330
1F
100
AcDbEntity
  8
0
  6
Continuous
 62
     7
370
    25
100
AcDbLine
 10
143.1004504519
 20
161.8033720748
 30
0.0
 11
147.1004504519
 21
162.4533720748
 31
0.0
  0
LINE
  5
1C8
330
1F
100
AcDbEntity
  8
0
  6
Continuous
 62
     7
370
    25
100
AcDbLine
 10
147.1004504519
 20
169.1533720748
 30
0.0
 11
143.1004504519
 21
169.8033720748
 31
0.0
  0
ARC
  5
1C9
330
1F
100
AcDbEntity
  8
0
  6
Continuous
 62
     7
370
    25
100
AcDbCircle
 10
159.8004504519
 20
163.1643940246
 30
0.0
 40
0.8000000000000168
100
AcDbArc
 50
276.7400560979
 51
0.0
  0
ARC
  5
1CA
330
1F
100
AcDbEntity
  8
0
  6
Continuous
 62
     7
370
    25
100
AcDbCircle
 10
159.8004504519
 20
168.442350125
 30
0.0
 40
0.8000000000000168
100
AcDbArc
 50
0.0
 51
83.2599439021
  0
LINE
  5
1CB
330
1F
100
AcDbEntity
  8
0
  6
Continuous
 62
     7
370
    25
100
AcDbLine
 10
123.6870529923
 20
173.8033720748
 30
0.0
 11
123.6004504519
 21
173.6533720748
 31
0.0
  0
LINE
  5
1CC
330
1F
100
AcDbEntity
  8
0
  6
Continuous
 62
     7
370
    25
100
AcDbLine
 10
123.6004504519
 20
157.9533720748
 30
0.0
 11
123.6870529923
 21
157.8033720748
 31
0.0
  0
LINE
  5
1CD
330
1F
100
AcDbEntity
  8
0
  6
Continuous
 62
     7
370
    25
100
AcDbLine
 10
132.5138479115
 20
157.8033720748
 30
0.0
 11
132.6004504519
 21
157.9533720748
 31
0.0
  0
LINE
  5
1CE
330
1F
100
AcDbEntity
  8
0
  6
Continuous
 62
     7
370
    25
100
AcDbLine
 10
132.6004504519
 20
173.6533720748
 30
0.0
 11
132.5138479115
 21
173.8033720748
 31
0.0
  0
LINE
  5
1CF
330
1F
100
AcDbEntity
  8
0
  6
Continuous
 62
     7
370
    25
100
AcDbLine
 10
123.6004504519
 20
173.6533720748
 30
0.0
 11
121.9004504519
 21
173.6533720748
 31
0.0
  0
LINE
  5
1D0
330
1F
100
AcDbEntity
  8
0
  6
Continuous
 62
     7
370
    25
100
AcDbLine
 10
121.9004504519
 20
157.9533720748
 30
0.0
 11
123.6004504519
 21
157.9533720748
 31
0.0
  0
LINE
  5
1D1
330
1F
100
AcDbEntity
  8
0
  6
Continuous
 62
     7
370
    25
100
AcDbLine
 10
132.6004504519
 20
157.9533720748
 30
0.0
 11
134.3004504519
 21
157.9533720748
 31
0.0
  0
LINE
  5
1D2
330
1F
100
AcDbEntity
  8
0
  6
Continuous
 62
     7
370
    25
100
AcDbLine
 10
134.3004504519
 20
173.6533720748
 30
0.0
 11
132.6004504519
 21
173.6533720748
 31
0.0
  0
ARC
  5
1D3
330
1F
100
AcDbEntity
  8
0
  6
Continuous
 62
     7
370
    25
100
AcDbCircle
 10
134.3004504519
 20
173.3533720748
 30
0.0
 40
0.3000000000000114
100
AcDbArc
 50
0.0
 51
90.0
  0
ARC
  5
1D4
330
1F
100
AcDbEntity
  8
0
  6
Continuous
 62
     7
370
    25
100
AcDbCircle
 10
134.3004504519
 20
158.2533720748
 30
0.0
 40
0.3000000000000114
100
AcDbArc
 50
270.0
 51
0.0
  0
ARC
  5
1D5
330
1F
100
AcDbEntity
  8
0
  6
Continuous
 62
     7
370
    25
100
AcDbCircle
 10
121.9004504519
 20
158.2533720748
 30
0.0
 40
0.2999999999999972
100
AcDbArc
 50
180.0
 51
270.0
  0
ARC
  5
1D6
330
1F
100
AcDbEntity
  8
0
  6
Continuous
 62
     7
370
    25
100
AcDbCircle
 10
121.9004504519
 20
173.3533720748
 30
0.0
 40
0.2999999999999972
100
AcDbArc
 50
90.0
 51
180.0
  0
ARC
  5
1D7
330
1F
100
AcDbEntity
  8
0
  6
Continuous
 62
     7
370
    25
100
AcDbCircle
 10
115.8461655336
 20
154.8033720748
 30
0.0
 40
2.499999999999983
100
AcDbArc
 50
73.7397952917
 51
90.0
  0
ARC
  5
1D8
330
1F
100
AcDbEntity
  8
0
  6
Continuous
 62
     7
370
    25
100
AcDbCircle
 10
115.8461655336
 20
176.8033720748
 30
0.0
 40
2.50000000000001
100
AcDbArc
 50
270.0
 51
286.2602047083
  0
LINE
  5
1D9
330
1F
100
AcDbEntity
  8
0
  6
Continuous
 62
     7
370
    25
100
AcDbLine
 10
116.5461655336
 20
157.2033720748
 30
0.0
 11
117.6461655336
 21
158.3033720748
 31
0.0
  0
LINE
  5
1DA
330
1F
100
AcDbEntity
  8
0
  6
Continuous
 62
     7
370
    25
100
AcDbLine
 10
117.6461655336
 20
173.3033720748
 30
0.0
 11
116.5461655336
 21
174.4033720748
 31
0.0
  0
LINE
  5
1DB
330
1F
100
AcDbEntity
  8
0
  6
Continuous
 62
     7
370
    25
100
AcDbLine
 10
115.8461655336
 20
174.3033720748
 30
0.0
 11
111.8461655336
 21
174.3033720748
 31
0.0
  0
LINE
  5
1DC
330
1F
100
AcDbEntity
  8
0
  6
Continuous
 62
     7
370
    25
100
AcDbLine
 10
111.8461655336
 20
157.3033720748
 30
0.0
 11
115.8461655336
 21
157.3033720748
 31
0.0
  0
LINE
  5
1DD
330
1F
100
AcDbEntity
  8
0
  6
Continuous
 62
     7
370
    25
100
AcDbLine
 10
121.6004504519
 20
172.3818720748
 30
0.0
 11
117.6461655336
 21
172.3818720748
 31
0.0
  0
LINE
  5
1DE
330
1F
100
AcDbEntity
  8
0
  6
Continuous
 62
     7
370
    25
100
AcDbLine
 10
117.6461655336
 20
159.2248720748
 30
0.0
 11
121.6004504519
 21
159.2248720748
 31
0.0
  0
LINE
  5
1DF
330
1F
100
AcDbEntity
  8
0
  6
Continuous
 62
     7
370
    25
100
AcDbLine
 10
134.6272453711
 20
161.3033720748
 30
0.0
 11
134.6272453711
 21
170.3033720748
 31
0.0
  0
LINE
  5
1E0
330
1F
100
AcDbEntity
  8
0
  6
Continuous
 62
     7
370
    25
100
AcDbLine
 10
135.1004504519
 20
170.3033720748
 30
0.0
 11
135.1004504519
 21
161.3033720748
 31
0.0
  0
LINE
  5
1E1
330
1F
100
AcDbEntity
  8
0
  6
Continuous
 62
     7
370
    25
100
AcDbLine
 10
139.1004504519
 20
161.8033720748
 30
0.0
 11
139.1004504519
 21
169.8033720748
 31
0.0
  0
LINE
  5
1E2
330
1F
100
AcDbEntity
  8
0
  6
Continuous
 62
     7
370
    25
100
AcDbLine
 10
155.1004504519
 20
161.8033720748
 30
0.0
 11
155.1004504519
 21
169.8033720748
 31
0.0
  0
LINE
  5
1E3
330
1F
100
AcDbEntity
  8
0
  6
Continuous
 62
     7
370
    25
100
AcDbLine
 10
147.1004504519
 20
161.8033720748
 30
0.0
 11
147.1004504519
 21
169.8033720748
 31
0.0
  0
LINE
  5
1E4
330
1F
100
AcDbEntity
  8
0
  6
Continuous
 62
     7
370
    25
100
AcDbLine
 10
151.1004504519
 20
161.8033720748
 30
0.0
 11
151.1004504519
 21
169.8033720748
 31
0.0
  0
LINE
  5
1E5
330
1F
100
AcDbEntity
  8
0
  6
Continuous
 62
     7
370
    25
100
AcDbLine
 10
143.1004504519
 20
161.8033720748
 30
0.0
 11
143.1004504519
 21
169.8033720748
 31
0.0
  0
LINE
  5
1E6
330
1F
100
AcDbEntity
  8
0
  6
Continuous
 62
     7
370
    25
100
AcDbLine
 10
160.6004504519
 20
168.4423500838
 30
0.0
 11
160.6004504519
 21
163.1643940246
 31
0.0
  0
LINE
  5
1E7
330
1F
100
AcDbEntity
  8
0
  6
Continuous
 62
     7
370
    25
100
AcDbLine
 10
124.4015841721
 20
165.8033720748
 30
0.0
 11
128.0468606134
 21
165.8033720748
 31
0.0
  0
SPLINE
  5
1E8
330
1F
100
AcDbEntity
  8
0
  6
Continuous
 62
     7
370
    25
100
AcDbSpline
210
0.0
220
0.0
230
1.0
 70
     8
 71
     3
 72
    15
 73
    11
 74
     0
 42
0.000000001
 43
0.00000001
 40
0.0
 40
0.0
 40
0.0
 40
0.0
 40
0.13230496641634
 40
0.2645725257576541
 40
0.3997989469058928
 40
0.5350009659368333
 40
0.6501921044151404
 40
0.7654012116808011
 40
0.8826892657702318
 40
1.0
 40
1.0
 40
1.0
 40
1.0
 10
124.4015841720948
 20
165.803372074824
 30
0.0
 10
124.2928126445516
 20
166.1490031911812
 30
0.0
 10
124.0753003428436
 20
166.8401677023251
 30
0.0
 10
123.841265150048
 20
167.9044997868273
 30
0.0
 10
123.7005458940989
 20
168.9888946601261
 30
0.0
 10
123.6726766103754
 20
170.034010225826
 30
0.0
 10
123.7449784087299
 20
171.0226651766884
 30
0.0
 10
123.893128388709
 20
171.955713812952
 30
0.0
 10
124.1104485474136
 20
172.8845438869837
 30
0.0
 10
124.3045327094222
 20
173.4970762730912
 30
0.0
 10
124.4015841720948
 20
173.8033720748241
 30
0.0
  0
LINE
  5
1E9
330
1F
100
AcDbEntity
  8
0
  6
Continuous
 62
     7
370
    25
100
AcDbLine
 10
124.4015841721
 20
173.8033720748
 30
0.0
 11
128.0468606134
 21
173.8033720748
 31
0.0
  0
LINE
  5
1EA
330
1F
100
AcDbEntity
  8
0
  6
Continuous
 62
     7
370
    25
100
AcDbLine
 10
128.1004504519
 20
173.4446244292
 30
0.0
 11
128.0468606134
 21
173.8033720748
 31
0.0
  0
LINE
  5
1EB
330
1F
100
AcDbEntity
  8
0
  6
Continuous
 62
     7
370
    25
100
AcDbLine
 10
128.1540402904
 20
173.8033720748
 30
0.0
 11
128.1004504519
 21
173.4446244292
 31
0.0
  0
LINE
  5
1EC
330
1F
100
AcDbEntity
  8
0
  6
Continuous
 62
     7
370
    25
100
AcDbLine
 10
128.1540402904
 20
173.8033720748
 30
0.0
 11
131.7993167317
 21
173.8033720748
 31
0.0
  0
SPLINE
  5
1ED
330
1F
100
AcDbEntity
  8
0
  6
Continuous
 62
     7
370
    25
100
AcDbSpline
210
0.0
220
0.0
230
1.0
 70
     8
 71
     3
 72
    15
 73
    11
 74
     0
 42
0.000000001
 43
0.00000001
 40
0.0
 40
0.0
 40
0.0
 40
0.0
 40
0.13230496641634
 40
0.2645725257576541
 40
0.3997989469058928
 40
0.5350009659368333
 40
0.6501921044151404
 40
0.7654012116808011
 40
0.8826892657702318
 40
1.0
 40
1.0
 40
1.0
 40
1.0
 10
131.7993167317053
 20
165.803372074824
 30
0.0
 10
131.9080882592485
 20
166.1490031911812
 30
0.0
 10
132.1256005609565
 20
166.8401677023251
 30
0.0
 10
132.3596357537521
 20
167.9044997868273
 30
0.0
 10
132.5003550097011
 20
168.9888946601261
 30
0.0
 10
132.5282242934247
 20
170.034010225826
 30
0.0
 10
132.4559224950702
 20
171.0226651766884
 30
0.0
 10
132.3077725150911
 20
171.955713812952
 30
0.0
 10
132.0904523563865
 20
172.8845438869837
 30
0.0
 10
131.8963681943779
 20
173.4970762730912
 30
0.0
 10
131.7993167317053
 20
173.8033720748241
 30
0.0
  0
LINE
  5
1EE
330
1F
100
AcDbEntity
  8
0
  6
Continuous
 62
     7
370
    25
100
AcDbLine
 10
128.1540402904
 20
165.8033720748
 30
0.0
 11
131.7993167317
 21
165.8033720748
 31
0.0
  0
LINE
  5
1EF
330
1F
100
AcDbEntity
  8
0
  6
Continuous
 62
     7
370
    25
100
AcDbLine
 10
128.1004504519
 20
166.1621197205
 30
0.0
 11
128.1540402904
 21
165.8033720748
 31
0.0
  0
LINE
  5
1F0
330
1F
100
AcDbEntity
  8
0
  6
Continuous
 62
     7
370
    25
100
AcDbLine
 10
128.0468606134
 20
165.8033720748
 30
0.0
 11
128.1004504519
 21
166.1621197205
 31
0.0
  0
SPLINE
  5
1F1
330
1F
100
AcDbEntity
  8
0
  6
Continuous
 62
     7
370
    25
100
AcDbSpline
210
0.0
220
0.0
230
1.0
 70
    24
 71
     3
 72
    11
 73
     7
 74
     0
 42
0.000000001
 43
0.00000001
 40
0.0
 40
0.0
 40
0.0
 40
0.0
 40
0.2314114045922046
 40
0.422184345454736
 40
0.6136065358029087
 40
1.0
 40
1.0
 40
1.0
 40
1.0
 10
123.6921405137488
 20
157.803372074824
 30
0.0
 10
123.6980187313138
 20
157.8033720748241
 30
0.0
 10
123.7087428848597
 20
157.8033720748241
 30
0.0
 10
123.8185881789162
 20
157.8033720748241
 30
0.0
 10
124.0127603222281
 20
157.8033720748241
 30
0.0
 10
124.245768393762
 20
157.8033720748241
 30
0.0
 10
124.4015841720948
 20
157.8033720748241
 30
0.0
  0
SPLINE
  5
1F2
330
1F
100
AcDbEntity
  8
0
  6
Continuous
 62
     7
370
    25
100
AcDbSpline
210
0.0
220
0.0
230
1.0
 70
    24
 71
     3
 72
    11
 73
     7
 74
     0
 42
0.000000001
 43
0.00000001
 40
0.0
 40
0.0
 40
0.0
 40
0.0
 40
0.3823825854551847
 40
0.5751715745140149
 40
0.7685854559938281
 40
1.0
 40
1.0
 40
1.0
 40
1.0
 10
124.4015841720948
 20
173.8033720748241
 30
0.0
 10
124.2472948960656
 20
173.803372074824
 30
0.0
 10
124.0152163203147
 20
173.803372074824
 30
0.0
 10
123.8197935072293
 20
173.803372074824
 30
0.0
 10
123.7091705235575
 20
173.803372074824
 30
0.0
 10
123.6971631036337
 20
173.803372074824
 30
0.0
 10
123.6906223652093
 20
173.803372074824
 30
0.0
  0
SPLINE
  5
1F3
330
1F
100
AcDbEntity
  8
0
  6
Continuous
 62
     7
370
    25
100
AcDbSpline
210
0.0
220
0.0
230
1.0
 70
     8
 71
     3
 72
    15
 73
    11
 74
     0
 42
0.000000001
 43
0.00000001
 40
0.0
 40
0.0
 40
0.0
 40
0.0
 40
0.1323049664163416
 40
0.2645725257576573
 40
0.3997989469058976
 40
0.5350009659368398
 40
0.6501921044151454
 40
0.7654012116808045
 40
0.8826892657702334
 40
1.0
 40
1.0
 40
1.0
 40
1.0
 10
124.4015841720948
 20
157.8033720748241
 30
0.0
 10
124.2928126445516
 20
158.1490031911813
 30
0.0
 10
124.0753003428436
 20
158.8401677023252
 30
0.0
 10
123.841265150048
 20
159.9044997868274
 30
0.0
 10
123.700545894099
 20
160.9888946601262
 30
0.0
 10
123.6726766103754
 20
162.034010225826
 30
0.0
 10
123.7449784087299
 20
163.0226651766885
 30
0.0
 10
123.893128388709
 20
163.9557138129521
 30
0.0
 10
124.1104485474136
 20
164.8845438869837
 30
0.0
 10
124.3045327094222
 20
165.4970762730912
 30
0.0
 10
124.4015841720948
 20
165.803372074824
 30
0.0
  0
LINE
  5
1F4
330
1F
100
AcDbEntity
  8
0
  6
Continuous
 62
     7
370
    25
100
AcDbLine
 10
123.6004504519
 20
157.9533720748
 30
0.0
 11
123.6004504519
 21
173.6533720748
 31
0.0
  0
SPLINE
  5
1F5
330
1F
100
AcDbEntity
  8
0
  6
Continuous
 62
     7
370
    25
100
AcDbSpline
210
0.0
220
0.0
230
1.0
 70
     8
 71
     3
 72
    15
 73
    11
 74
     0
 42
0.000000001
 43
0.00000001
 40
0.0
 40
0.0
 40
0.0
 40
0.0
 40
0.1323049664163416
 40
0.2645725257576573
 40
0.3997989469058976
 40
0.5350009659368398
 40
0.6501921044151454
 40
0.7654012116808045
 40
0.8826892657702334
 40
1.0
 40
1.0
 40
1.0
 40
1.0
 10
131.7993167317053
 20
157.8033720748241
 30
0.0
 10
131.9080882592485
 20
158.1490031911813
 30
0.0
 10
132.1256005609565
 20
158.8401677023252
 30
0.0
 10
132.3596357537521
 20
159.9044997868274
 30
0.0
 10
132.5003550097011
 20
160.9888946601262
 30
0.0
 10
132.5282242934246
 20
162.034010225826
 30
0.0
 10
132.4559224950702
 20
163.0226651766885
 30
0.0
 10
132.3077725150911
 20
163.9557138129521
 30
0.0
 10
132.0904523563865
 20
164.8845438869837
 30
0.0
 10
131.8963681943779
 20
165.4970762730912
 30
0.0
 10
131.7993167317053
 20
165.803372074824
 30
0.0
  0
SPLINE
  5
1F6
330
1F
100
AcDbEntity
  8
0
  6
Continuous
 62
     7
370
    25
100
AcDbSpline
210
0.0
220
0.0
230
1.0
 70
    24
 71
     3
 72
    11
 73
     7
 74
     0
 42
0.000000001
 43
0.00000001
 40
0.0
 40
0.0
 40
0.0
 40
0.0
 40
0.3823825854551847
 40
0.575171574514015
 40
0.7685854559938282
 40
0.9999999999999999
 40
0.9999999999999999
 40
0.9999999999999999
 40
0.9999999999999999
 10
131.7993167317053
 20
173.8033720748241
 30
0.0
 10
131.9536060077345
 20
173.803372074824
 30
0.0
 10
132.1856845834854
 20
173.803372074824
 30
0.0
 10
132.3811073965708
 20
173.803372074824
 30
0.0
 10
132.4917303802425
 20
173.803372074824
 30
0.0
 10
132.5037378001663
 20
173.803372074824
 30
0.0
 10
132.5102785385908
 20
173.803372074824
 30
0.0
  0
SPLINE
  5
1F7
330
1F
100
AcDbEntity
  8
0
  6
Continuous
 62
     7
370
    25
100
AcDbSpline
210
0.0
220
0.0
230
1.0
 70
    24
 71
     3
 72
    11
 73
     7
 74
     0
 42
0.000000001
 43
0.00000001
 40
0.0
 40
0.0
 40
0.0
 40
0.0
 40
0.2314114045922046
 40
0.422184345454736
 40
0.6136065358029087
 40
1.0
 40
1.0
 40
1.0
 40
1.0
 10
132.5087603900513
 20
157.803372074824
 30
0.0
 10
132.5028821724863
 20
157.8033720748241
 30
0.0
 10
132.4921580189404
 20
157.8033720748241
 30
0.0
 10
132.3823127248838
 20
157.8033720748241
 30
0.0
 10
132.188140581572
 20
157.8033720748241
 30
0.0
 10
131.9551325100381
 20
157.8033720748241
 30
0.0
 10
131.7993167317053
 20
157.8033720748241
 30
0.0
  0
LINE
  5
1F8
330
1F
100
AcDbEntity
  8
0
  6
Continuous
 62
     7
370
    25
100
AcDbLine
 10
132.6004504519
 20
157.9533720748
 30
0.0
 11
132.6004504519
 21
173.6533720748
 31
0.0
  0
LINE
  5
1F9
330
1F
100
AcDbEntity
  8
0
  6
Continuous
 62
     7
370
    25
100
AcDbLine
 10
128.1004504519
 20
165.4446244292
 30
0.0
 11
128.0468606134
 21
165.8033720748
 31
0.0
  0
LINE
  5
1FA
330
1F
100
AcDbEntity
  8
0
  6
Continuous
 62
     7
370
    25
100
AcDbLine
 10
128.1004504519
 20
165.4446244292
 30
0.0
 11
128.1004504519
 21
166.1621197205
 31
0.0
  0
LINE
  5
1FB
330
1F
100
AcDbEntity
  8
0
  6
Continuous
 62
     7
370
    25
100
AcDbLine
 10
128.1540402904
 20
165.8033720748
 30
0.0
 11
128.1004504519
 21
165.4446244292
 31
0.0
  0
LINE
  5
1FC
330
1F
100
AcDbEntity
  8
0
  6
Continuous
 62
     7
370
    25
100
AcDbLine
 10
124.4015841721
 20
157.8033720748
 30
0.0
 11
128.0468606134
 21
157.8033720748
 31
0.0
  0
LINE
  5
1FD
330
1F
100
AcDbEntity
  8
0
  6
Continuous
 62
     7
370
    25
100
AcDbLine
 10
128.1540402904
 20
157.8033720748
 30
0.0
 11
131.7993167317
 21
157.8033720748
 31
0.0
  0
LINE
  5
1FE
330
1F
100
AcDbEntity
  8
0
  6
Continuous
 62
     7
370
    25
100
AcDbLine
 10
128.1004504519
 20
158.1621197205
 30
0.0
 11
128.1540402904
 21
157.8033720748
 31
0.0
  0
LINE
  5
1FF
330
1F
100
AcDbEntity
  8
0
  6
Continuous
 62
     7
370
    25
100
AcDbLine
 10
128.0468606134
 20
157.8033720748
 30
0.0
 11
128.1004504519
 21
158.1621197205
 31
0.0
  0
LINE
  5
200
330
1F
100
AcDbEntity
  8
0
  6
Continuous
 62
     7
370
    25
100
AcDbLine
 10
134.6004504519
 20
173.3533720748
 30
0.0
 11
134.6004504519
 21
158.2533720771
 31
0.0
  0
LINE
  5
201
330
1F
100
AcDbEntity
  8
0
  6
Continuous
 62
     7
370
    25
100
AcDbLine
 10
121.6004504519
 20
158.2533720748
 30
0.0
 11
121.6004504519
 21
173.3533720726
 31
0.0
  0
LINE
  5
202
330
1F
100
AcDbEntity
  8
0
  6
Continuous
 62
     7
370
    25
100
AcDbLine
 10
128.1540402904
 20
157.8033720748
 30
0.0
 11
128.1004504519
 21
157.8033720748
 31
0.0
  0
LINE
  5
203
330
1F
100
AcDbEntity
  8
0
  6
Continuous
 62
     7
370
    25
100
AcDbLine
 10
128.1004504519
 20
157.8033720748
 30
0.0
 11
128.1004504519
 21
158.1621197205
 31
0.0
  0
LINE
  5
204
330
1F
100
AcDbEntity
  8
0
  6
Continuous
 62
     7
370
    25
100
AcDbLine
 10
128.1004504519
 20
157.8033720748
 30
0.0
 11
128.0468606134
 21
157.8033720748
 31
0.0
  0
LINE
  5
205
330
1F
100
AcDbEntity
  8
0
  6
Continuous
 62
     7
370
    25
100
AcDbLine
 10
128.1004504519
 20
173.4446244292
 30
0.0
 11
128.1004504519
 21
173.8033720748
 31
0.0
  0
LINE
  5
206
330
1F
100
AcDbEntity
  8
0
  6
Continuous
 62
     7
370
    25
100
AcDbLine
 10
128.1004504519
 20
173.8033720748
 30
0.0
 11
128.1540402904
 21
173.8033720748
 31
0.0
  0
LINE
  5
207
330
1F
100
AcDbEntity
  8
0
  6
Continuous
 62
     7
370
    25
100
AcDbLine
 10
128.0468606134
 20
173.8033720748
 30
0.0
 11
128.1004504519
 21
173.8033720748
 31
0.0
  0
CIRCLE
  5
208
330
1F
100
AcDbEntity
  8
0
  6
Continuous
 62
     7
370
    25
100
AcDbCircle
 10
103.3461655336
 20
165.8033720748
 30
0.0
 40
8.75
  0
CIRCLE
  5
209
330
1F
100
AcDbEntity
  8
0
  6
Continuous
 62
     7
370
    25
100
AcDbCircle
 10
103.3461655336
 20
165.8033720748
 30
0.0
 40
10.30676222727978
  0
CIRCLE
  5
20A
330
1F
100
AcDbEntity
  8
0
  6
Continuous
 62
     7
370
    25
100
AcDbCircle
 10
103.3461655336
 20
165.8033720748
 30
0.0
 40
6.999999999999972
  0
CIRCLE
  5
20B
330
1F
100
AcDbEntity
  8
0
  6
Continuous
 62
     7
370
    25
100
AcDbCircle
 10
103.3461655336
 20
165.8033720748
 30
0.0
 40
6.499999999999972
  0
CIRCLE
  5
20C
330
1F
100
AcDbEntity
  8
0
  6
Continuous
 62
     7
370
    25
100
AcDbCircle
 10
103.3461655336
 20
165.8033720748
 30
0.0
 40
10.6493869232919
  0
LINE
  5
20D
330
1F
100
AcDbEntity
  8
0
  6
Continuous
 62
     7
370
    25
100
AcDbLine
 10
116.5461655336
 20
174.4033720748
 30
0.0
 11
116.5461655336
 21
157.2033720748
 31
0.0
  0
LINE
  5
20E
330
1F
100
AcDbEntity
  8
0
  6
Continuous
 62
     7
370
    25
100
AcDbLine
 10
117.6461655336
 20
173.3033720748
 30
0.0
 11
117.6461655336
 21
158.3033720748
 31
0.0
  0
SPLINE
  5
20F
330
1F
100
AcDbEntity
  8
0
  6
Continuous
 62
     7
370
    25
100
AcDbSpline
210
0.0
220
0.0
230
1.0
 70
    24
 71
     3
 72
     8
 73
     4
 74
     0
 42
0.000000001
 43
0.00000001
 40
0.0
 40
0.0
 40
0.0
 40
0.0
 40
1.0
 40
1.0
 40
1.0
 40
1.0
 10
111.8461655335757
 20
157.803372074824
 30
0.0
 10
111.8461655335757
 20
157.4733458212092
 30
0.0
 10
111.8461655335757
 20
157.303372074824
 30
0.0
 10
111.8461655335757
 20
157.303372074824
 30
0.0
  0
SPLINE
  5
210
330
1F
100
AcDbEntity
  8
0
  6
Continuous
 62
     7
370
    25
100
AcDbSpline
210
0.0
220
0.0
230
1.0
 70
    24
 71
     3
 72
     8
 73
     4
 74
     0
 42
0.000000001
 43
0.00000001
 40
0.0
 40
0.0
 40
0.0
 40
0.0
 40
1.0
 40
1.0
 40
1.0
 40
1.0
 10
111.8461655335757
 20
174.303372074824
 30
0.0
 10
111.8461655335757
 20
174.303372074824
 30
0.0
 10
111.8461655335757
 20
174.1333983284389
 30
0.0
 10
111.8461655335757
 20
173.803372074824
 30
0.0
  0
ARC
  5
211
330
1F
100
AcDbEntity
  8
0
  6
Continuous
 62
     7
370
    25
100
AcDbCircle
 10
109.8461655336
 20
157.8033720748
 30
0.0
 40
0.5
100
AcDbArc
 50
270.0
 51
0.0
  0
LINE
  5
212
330
1F
100
AcDbEntity
  8
0
  6
Continuous
 62
     7
370
    25
100
AcDbLine
 10
109.7617280063
 20
157.3033720748
 30
0.0
 11
109.8461655336
 21
157.3033720748
 31
0.0
  0
LINE
  5
213
330
1F
100
AcDbEntity
  8
0
  6
Continuous
 62
     7
370
    25
100
AcDbLine
 10
96.9306030608
 20
174.3033720748
 30
0.0
 11
96.8461655336
 21
174.3033720748
 31
0.0
  0
LINE
  5
214
330
1F
100
AcDbEntity
  8
0
  6
Continuous
 62
     7
370
    25
100
AcDbLine
 10
96.8461655336
 20
157.3033720748
 30
0.0
 11
96.9306030608
 21
157.3033720748
 31
0.0
  0
ARC
  5
215
330
1F
100
AcDbEntity
  8
0
  6
Continuous
 62
     7
370
    25
100
AcDbCircle
 10
109.8461655336
 20
173.8033720748
 30
0.0
 40
0.5
100
AcDbArc
 50
0.0
 51
90.0
  0
LINE
  5
216
330
1F
100
AcDbEntity
  8
0
  6
Continuous
 62
     7
370
    25
100
AcDbLine
 10
109.8461655336
 20
174.3033720748
 30
0.0
 11
109.7617280063
 21
174.3033720748
 31
0.0
  0
ARC
  5
217
330
1F
100
AcDbEntity
  8
0
  6
Continuous
 62
     7
370
    25
100
AcDbCircle
 10
96.8461655336
 20
173.8033720748
 30
0.0
 40
0.5000000000000067
100
AcDbArc
 50
90.0
 51
177.0025302101
  0
ARC
  5
218
330
1F
100
AcDbEntity
  8
0
  6
Continuous
 62
     7
370
    25
100
AcDbCircle
 10
96.8461655336
 20
157.8033720748
 30
0.0
 40
0.5
100
AcDbArc
 50
182.9974697899
 51
270.0
  0
LINE
  5
219
330
1F
100
AcDbEntity
  8
0
  6
Continuous
 62
     7
370
    25
100
AcDbLine
 10
111.3461655336
 20
174.3033720748
 30
0.0
 11
111.3461655336
 21
173.8033720748
 31
0.0
  0
LINE
  5
21A
330
1F
100
AcDbEntity
  8
0
  6
Continuous
 62
     7
370
    25
100
AcDbLine
 10
111.3461655336
 20
174.3033720748
 30
0.0
 11
109.8461655336
 21
174.3033720748
 31
0.0
  0
LINE
  5
21B
330
1F
100
AcDbEntity
  8
0
  6
Continuous
 62
     7
370
    25
100
AcDbLine
 10
111.3461655336
 20
157.3033720748
 30
0.0
 11
111.3461655336
 21
157.8033720748
 31
0.0
  0
LINE
  5
21C
330
1F
100
AcDbEntity
  8
0
  6
Continuous
 62
     7
370
    25
100
AcDbLine
 10
109.8461655336
 20
157.3033720748
 30
0.0
 11
111.3461655336
 21
157.3033720748
 31
0.0
  0
ARC
  5
21D
330
1F
100
AcDbEntity
  8
0
  6
Continuous
 62
     7
370
    25
100
AcDbCircle
 10
111.3461655336
 20
173.8033720748
 30
0.0
 40
0.5
100
AcDbArc
 50
0.0
 51
90.0
  0
LINE
  5
21E
330
1F
100
AcDbEntity
  8
0
  6
Continuous
 62
     7
370
    25
100
AcDbLine
 10
111.3461655336
 20
173.8033720748
 30
0.0
 11
111.8461655336
 21
173.8033720748
 31
0.0
  0
LINE
  5
21F
330
1F
100
AcDbEntity
  8
0
  6
Continuous
 62
     7
370
    25
100
AcDbLine
 10
111.8461655336
 20
172.2189345476
 30
0.0
 11
111.8461655336
 21
173.8033720748
 31
0.0
  0
LINE
  5
220
330
1F
100
AcDbEntity
  8
0
  6
Continuous
 62
     7
370
    25
100
AcDbLine
 10
111.8461655336
 20
157.8033720748
 30
0.0
 11
111.8461655336
 21
159.3878096021
 31
0.0
  0
LINE
  5
221
330
1F
100
AcDbEntity
  8
0
  6
Continuous
 62
     7
370
    25
100
AcDbLine
 10
111.3461655336
 20
157.8033720748
 30
0.0
 11
111.8461655336
 21
157.8033720748
 31
0.0
  0
ARC
  5
222
330
1F
100
AcDbEntity
  8
0
  6
Continuous
 62
     7
370
    25
100
AcDbCircle
 10
111.3461655336
 20
157.8033720748
 30
0.0
 40
0.5
100
AcDbArc
 50
270.0
 51
0.0
  0
SPLINE
  5
223
330
1F
100
AcDbEntity
  8
0
  6
Continuous
 62
     7
370
    25
100
AcDbSpline
210
0.0
220
0.0
230
1.0
 70
     8
 71
     3
 72
    26
 73
    22
 74
     0
 42
0.000000001
 43
0.00000001
 40
0.0
 40
0.0
 40
0.0
 40
0.0
 40
0.1249999999999999
 40
0.1249999999999999
 40
0.2499999999999999
 40
0.2499999999999999
 40
0.3749999999999998
 40
0.3749999999999998
 40
0.4374999999999998
 40
0.4374999999999998
 40
0.4999999999999998
 40
0.4999999999999998
 40
0.5624999999999998
 40
0.5624999999999998
 40
0.6249999999999998
 40
0.6249999999999998
 40
0.7499999999999999
 40
0.7499999999999999
 40
0.875
 40
0.875
 40
1.0
 40
1.0
 40
1.0
 40
1.0
 10
109.4494433414425
 20
168.0394400523238
 30
0.0
 10
109.2718540563385
 20
167.9294980031236
 30
0.0
 10
109.1044869318805
 20
167.8041714412019
 30
0.0
 10
108.796915805418
 20
167.5104367273493
 30
0.0
 10
108.65668974159
 20
167.340530024798
 30
0.0
 10
108.4268030007957
 20
166.9603948869219
 30
0.0
 10
108.3346899485867
 20
166.7446064212966
 30
0.0
 10
108.2438342807985
 20
166.4050093299906
 30
0.0
 10
108.2208642526846
 20
166.2885727945474
 30
0.0
 10
108.1897980702833
 20
166.0488331891182
 30
0.0
 10
108.1819632629346
 20
165.9261624663849
 30
0.0
 10
108.1818099928744
 20
165.6842228796688
 30
0.0
 10
108.189300665388
 20
165.5637041312278
 30
0.0
 10
108.2199211248341
 20
165.32358402699
 30
0.0
 10
108.2431441590325
 20
165.2047349139233
 30
0.0
 10
108.3342397964221
 20
164.8629916578638
 30
0.0
 10
108.4260667931229
 20
164.6477106160175
 30
0.0
 10
108.6566097538894
 20
164.266202921115
 30
0.0
 10
108.7971255657411
 20
164.0960908604414
 30
0.0
 10
109.1044912597839
 20
163.8025848243768
 30
0.0
 10
109.2718191608726
 20
163.6772677496242
 30
0.0
 10
109.4494433414425
 20
163.5673040973243
 30
0.0
  0
SPLINE
  5
224
330
1F
100
AcDbEntity
  8
0
  6
Continuous
 62
     7
370
    25
100
AcDbSpline
210
0.0
220
0.0
230
1.0
 70
    24
 71
     3
 72
    10
 73
     6
 74
     0
 42
0.000000001
 43
0.00000001
 40
-0.2904940295525288
 40
-0.2904940295525288
 40
-0.2904940295525288
 40
-0.2904940295525288
 40
-0.1303072746364131
 40
-0.1303072746364131
 40
0.0010563617272233
 40
0.0010563617272233
 40
0.0010563617272233
 40
0.0010563617272233
 10
111.8461655335757
 20
174.303372074824
 30
0.0
 10
111.716662217822
 20
174.303372074824
 30
0.0
 10
111.5848712396362
 20
174.303372074824
 30
0.0
 10
111.406447300211
 20
174.303372074824
 30
0.0
 10
111.3461655335757
 20
174.303372074824
 30
0.0
 10
111.3461655335757
 20
174.303372074824
 30
0.0
  0
SPLINE
  5
225
330
1F
100
AcDbEntity
  8
0
  6
Continuous
 62
     7
370
    25
100
AcDbSpline
210
0.0
220
0.0
230
1.0
 70
    24
 71
     3
 72
    10
 73
     6
 74
     0
 42
0.000000001
 43
0.00000001
 40
-0.8711658421011628
 40
-0.8711658421011628
 40
-0.8711658421011628
 40
-0.8711658421011628
 40
-0.739802205737527
 40
-0.739802205737527
 40
-0.579615450786466
 40
-0.579615450786466
 40
-0.579615450786466
 40
-0.579615450786466
 10
111.3461655335757
 20
157.303372074824
 30
0.0
 10
111.3461655335757
 20
157.303372074824
 30
0.0
 10
111.406447300211
 20
157.303372074824
 30
0.0
 10
111.5848712396576
 20
157.303372074824
 30
0.0
 10
111.7166622177936
 20
157.303372074824
 30
0.0
 10
111.8461655335757
 20
157.303372074824
 30
0.0
  0
LINE
  5
226
330
1F
100
AcDbEntity
  8
0
  6
Continuous
 62
     8
370
    25
100
AcDbLine
 10
159.8943424878
 20
162.3699229518
 30
0.0
 11
159.8943424878
 21
169.2368211979
 31
0.0
  0
LINE
  5
227
330
1F
100
AcDbEntity
  8
0
  6
Continuous
 62
     8
370
    25
100
AcDbLine
 10
121.9004504519
 20
173.6533720748
 30
0.0
 11
121.9004504519
 21
157.9533720748
 31
0.0
  0
LINE
  5
228
330
1F
100
AcDbEntity
  8
0
  6
Continuous
 62
     8
370
    25
100
AcDbLine
 10
134.3004504519
 20
157.9533720748
 30
0.0
 11
134.3004504519
 21
173.6533720748
 31
0.0
  0
LINE
  5
229
330
1F
100
AcDbEntity
  8
0
  6
Continuous
 62
     8
370
    25
100
AcDbLine
 10
115.8461655336
 20
165.8033720748
 30
0.0
 11
115.8461655336
 21
157.3033720748
 31
0.0
  0
LINE
  5
22A
330
1F
100
AcDbEntity
  8
0
  6
Continuous
 62
     8
370
    25
100
AcDbLine
 10
115.8461655336
 20
174.3033720748
 30
0.0
 11
115.8461655336
 21
165.8033720748
 31
0.0
  0
LINE
  5
22B
330
1F
100
AcDbEntity
  8
0
  6
Continuous
 62
     8
370
    25
100
AcDbLine
 10
96.8461655336
 20
174.3033720748
 30
0.0
 11
96.8461655336
 21
174.238977675
 31
0.0
  0
LINE
  5
22C
330
1F
100
AcDbEntity
  8
0
  6
Continuous
 62
     8
370
    25
100
AcDbLine
 10
96.8461655336
 20
157.3677664746
 30
0.0
 11
96.8461655336
 21
157.3033720748
 31
0.0
  0
LINE
  5
22D
330
1F
100
AcDbEntity
  8
0
  6
Continuous
 62
     8
370
    25
100
AcDbLine
 10
111.3461655336
 20
172.8325570804
 30
0.0
 11
111.3461655336
 21
173.8033720748
 31
0.0
  0
LINE
  5
22E
330
1F
100
AcDbEntity
  8
0
  6
Continuous
 62
     8
370
    25
100
AcDbLine
 10
110.3753505391
 20
173.8033720748
 30
0.0
 11
111.3461655336
 21
173.8033720748
 31
0.0
  0
LINE
  5
22F
330
1F
100
AcDbEntity
  8
0
  6
Continuous
 62
     8
370
    25
100
AcDbLine
 10
111.3461655336
 20
157.8033720748
 30
0.0
 11
111.3461655336
 21
158.7741870693
 31
0.0
  0
LINE
  5
230
330
1F
100
AcDbEntity
  8
0
  6
Continuous
 62
     8
370
    25
100
AcDbLine
 10
111.3461655336
 20
157.8033720748
 30
0.0
 11
110.3753505391
 21
157.8033720748
 31
0.0
  0
INSERT
  5
23C
330
1F
100
AcDbEntity
  8
0
  6
Continuous
 62
     7
370
    18
100
AcDbBlockReference
  2
SW_CENTERMARKSYMBOL_1
 10
103.3461655336
 20
165.8033720748
 30
0.0
  0
ENDSEC
  0
SECTION
  2
OBJECTS
  0
DICTIONARY
  5
C
330
0
100
AcDbDictionary
281
     1
  3
ACAD_GROUP
350
D
  3
ACAD_LAYOUT
350
1A
  3
ACAD_MLINESTYLE
350
17
  3
ACAD_PLOTSETTINGS
350
19
  3
ACAD_PLOTSTYLENAME
350
E
  3
ACAD_SCALELIST
350
47
  0
DICTIONARY
  5
D
102
{ACAD_REACTORS
330
C
102
}
330
C
100
AcDbDictionary
281
     1
  0
DICTIONARY
  5
1A
102
{ACAD_REACTORS
330
C
102
}
330
C
100
AcDbDictionary
281
     1
  3
Layout1
350
1E
  3
Layout2
350
26
  3
Model
350
22
  0
DICTIONARY
  5
17
102
{ACAD_REACTORS
330
C
102
}
330
C
100
AcDbDictionary
281
     1
  3
Standard
350
18
  0
DICTIONARY
  5
19
102
{ACAD_REACTORS
330
C
102
}
330
C
100
AcDbDictionary
281
     1
  0
ACDBDICTIONARYWDFLT
  5
E
102
{ACAD_REACTORS
330
C
102
}
330
C
100
AcDbDictionary
281
     1
  3
Normal
350
F
100
AcDbDictionaryWithDefault
340
F
  0
DICTIONARY
  5
47
102
{ACAD_REACTORS
330
C
102
}
330
C
100
AcDbDictionary
281
     1
  3
A0
350
48
  3
A1
350
49
  3
A2
350
4A
  3
A3
350
4B
  3
A4
350
4C
  3
A5
350
4D
  3
A6
350
4E
  3
A7
350
4F
  3
A8
350
50
  3
A9
350
51
  3
B0
350
52
  3
B1
350
53
  3
B2
350
54
  3
B3
350
55
  3
B4
350
56
  3
B5
350
57
  3
B6
350
58
  3
B7
350
59
  3
B8
350
5A
  3
B9
350
5B
  3
C0
350
5C
  3
C1
350
5D
  3
C2
350
5E
  3
C3
350
5F
  3
C4
350
60
  3
C5
350
61
  3
C6
350
62
  3
C7
350
63
  3
C8
350
64
  3
C9
350
65
  3
D0
350
66
  3
D1
350
67
  3
D2
350
68
  0
LAYOUT
  5
1E
102
{ACAD_REACTORS
330
1A
102
}
330
1A
100
AcDbPlotSettings
  1

  2
none_device
  4

  6

 40
0.0
 41
0.0
 42
0.0
 43
0.0
 44
0.0
 45
0.0
 46
0.0
 47
0.0
 48
0.0
 49
0.0
140
0.0
141
0.0
142
1.0
143
1.0
 70
   688
 72
     1
 73
     0
 74
     5
  7

 75
    16
147
1.0
148
0.0
149
0.0
100
AcDbLayout
  1
Layout1
 70
     1
 71
     1
 10
0.0
 20
0.0
 11
420.0
 21
297.0
 12
0.0
 22
0.0
 32
0.0
 14
1.0000000000E+20
 24
1.0000000000E+20
 34
1.0000000000E+20
 15
-1.0000000000E+20
 25
-1.0000000000E+20
 35
-1.0000000000E+20
146
0.0
 13
0.0
 23
0.0
 33
0.0
 16
1.0
 26
0.0
 36
0.0
 17
0.0
 27
1.0
 37
0.0
 76
     0
330
1B
  0
LAYOUT
  5
26
102
{ACAD_REACTORS
330
1A
102
}
330
1A
100
AcDbPlotSettings
  1

  2
none_device
  4

  6

 40
0.0
 41
0.0
 42
0.0
 43
0.0
 44
0.0
 45
0.0
 46
0.0
 47
0.0
 48
0.0
 49
0.0
140
0.0
141
0.0
142
1.0
143
1.0
 70
   688
 72
     1
 73
     0
 74
     5
  7

 75
    16
147
1.0
148
0.0
149
0.0
100
AcDbLayout
  1
Layout2
 70
     1
 71
     2
 10
0.0
 20
0.0
 11
0.0
 21
0.0
 12
0.0
 22
0.0
 32
0.0
 14
0.0
 24
0.0
 34
0.0
 15
0.0
 25
0.0
 35
0.0
146
0.0
 13
0.0
 23
0.0
 33
0.0
 16
1.0
 26
0.0
 36
0.0
 17
0.0
 27
1.0
 37
0.0
 76
     0
330
23
  0
LAYOUT
  5
22
102
{ACAD_REACTORS
330
1A
102
}
330
1A
100
AcDbPlotSettings
  1

  2
none_device
  4
Letter_(8.50_x_11.00_Inches)
  6

 40
6.35
 41
6.35
 42
6.35000508
 43
6.35000508
 44
215.9
 45
279.4
 46
0.0
 47
0.0
 48
0.0
 49
0.0
140
0.0
141
0.0
142
1.0
143
1.0
 70
  1712
 72
     1
 73
     0
 74
     0
  7

 75
     0
147
1.0
148
0.0
149
0.0
100
AcDbLayout
  1
Model
 70
     1
 71
     0
 10
0.0
 20
0.0
 11
431.8
 21
279.4
 12
0.0
 22
0.0
 32
0.0
 14
0.0
 24
0.0
 34
0.0
 15
431.8
 25
279.4
 35
0.0
146
0.0
 13
0.0
 23
0.0
 33
0.0
 16
1.0
 26
0.0
 36
0.0
 17
0.0
 27
1.0
 37
0.0
 76
     0
330
1F
331
29
  0
MLINESTYLE
  5
18
102
{ACAD_REACTORS
330
17
102
}
330
17
100
AcDbMlineStyle
  2
Standard
 70
     0
  3

 62
   256
 51
90.0
 52
90.0
 71
     2
 49
0.5
 62
   256
  6
BYLAYER
 49
-0.5
 62
   256
  6
BYLAYER
  0
ACDBPLACEHOLDER
  5
F
102
{ACAD_REACTORS
330
E
102
}
330
E
  0
SCALE
  5
48
102
{ACAD_REACTORS
330
47
102
}
330
47
100
AcDbScale
 70
     0
300
1:1
140
1.0
141
1.0
290
     1
  0
SCALE
  5
49
102
{ACAD_REACTORS
330
47
102
}
330
47
100
AcDbScale
 70
     0
300
1:2
140
1.0
141
2.0
290
     0
  0
SCALE
  5
4A
102
{ACAD_REACTORS
330
47
102
}
330
47
100
AcDbScale
 70
     0
300
1:4
140
1.0
141
4.0
290
     0
  0
SCALE
  5
4B
102
{ACAD_REACTORS
330
47
102
}
330
47
100
AcDbScale
 70
     0
300
1:5
140
1.0
141
5.0
290
     0
  0
SCALE
  5
4C
102
{ACAD_REACTORS
330
47
102
}
330
47
100
AcDbScale
 70
     0
300
1:8
140
1.0
141
8.0
290
     0
  0
SCALE
  5
4D
102
{ACAD_REACTORS
330
47
102
}
330
47
100
AcDbScale
 70
     0
300
1:10
140
1.0
141
10.0
290
     0
  0
SCALE
  5
4E
102
{ACAD_REACTORS
330
47
102
}
330
47
100
AcDbScale
 70
     0
300
1:16
140
1.0
141
16.0
290
     0
  0
SCALE
  5
4F
102
{ACAD_REACTORS
330
47
102
}
330
47
100
AcDbScale
 70
     0
300
1:20
140
1.0
141
20.0
290
     0
  0
SCALE
  5
50
102
{ACAD_REACTORS
330
47
102
}
330
47
100
AcDbScale
 70
     0
300
1:30
140
1.0
141
30.0
290
     0
  0
SCALE
  5
51
102
{ACAD_REACTORS
330
47
102
}
330
47
100
AcDbScale
 70
     0
300
1:40
140
1.0
141
40.0
290
     0
  0
SCALE
  5
52
102
{ACAD_REACTORS
330
47
102
}
330
47
100
AcDbScale
 70
     0
300
1:50
140
1.0
141
50.0
290
     0
  0
SCALE
  5
53
102
{ACAD_REACTORS
330
47
102
}
330
47
100
AcDbScale
 70
     0
300
1:100
140
1.0
141
100.0
290
     0
  0
SCALE
  5
54
102
{ACAD_REACTORS
330
47
102
}
330
47
100
AcDbScale
 70
     0
300
2:1
140
2.0
141
1.0
290
     0
  0
SCALE
  5
55
102
{ACAD_REACTORS
330
47
102
}
330
47
100
AcDbScale
 70
     0
300
4:1
140
4.0
141
1.0
290
     0
  0
SCALE
  5
56
102
{ACAD_REACTORS
330
47
102
}
330
47
100
AcDbScale
 70
     0
300
8:1
140
8.0
141
1.0
290
     0
  0
SCALE
  5
57
102
{ACAD_REACTORS
330
47
102
}
330
47
100
AcDbScale
 70
     0
300
10:1
140
10.0
141
1.0
290
     0
  0
SCALE
  5
58
102
{ACAD_REACTORS
330
47
102
}
330
47
100
AcDbScale
 70
     0
300
100:1
140
100.0
141
1.0
290
     0
  0
SCALE
  5
59
102
{ACAD_REACTORS
330
47
102
}
330
47
100
AcDbScale
 70
     0
300
1/128" = 1'-0"
140
0.0078125
141
12.0
290
     0
  0
SCALE
  5
5A
102
{ACAD_REACTORS
330
47
102
}
330
47
100
AcDbScale
 70
     0
300
1/64" = 1'-0"
140
0.015625
141
12.0
290
     0
  0
SCALE
  5
5B
102
{ACAD_REACTORS
330
47
102
}
330
47
100
AcDbScale
 70
     0
300
1/32" = 1'-0"
140
0.03125
141
12.0
290
     0
  0
SCALE
  5
5C
102
{ACAD_REACTORS
330
47
102
}
330
47
100
AcDbScale
 70
     0
300
1/16" = 1'-0"
140
0.0625
141
12.0
290
     0
  0
SCALE
  5
5D
102
{ACAD_REACTORS
330
47
102
}
330
47
100
AcDbScale
 70
     0
300
3/32" = 1'-0"
140
0.09375
141
12.0
290
     0
  0
SCALE
  5
5E
102
{ACAD_REACTORS
330
47
102
}
330
47
100
AcDbScale
 70
     0
300
1/8" = 1'-0"
140
0.125
141
12.0
290
     0
  0
SCALE
  5
5F
102
{ACAD_REACTORS
330
47
102
}
330
47
100
AcDbScale
 70
     0
300
3/16" = 1'-0"
140
0.1875
141
12.0
290
     0
  0
SCALE
  5
60
102
{ACAD_REACTORS
330
47
102
}
330
47
100
AcDbScale
 70
     0
300
1/4" = 1'-0"
140
0.25
141
12.0
290
     0
  0
SCALE
  5
61
102
{ACAD_REACTORS
330
47
102
}
330
47
100
AcDbScale
 70
     0
300
3/8" = 1'-0"
140
0.375
141
12.0
290
     0
  0
SCALE
  5
62
102
{ACAD_REACTORS
330
47
102
}
330
47
100
AcDbScale
 70
     0
300
1/2" = 1'-0"
140
0.5
141
12.0
290
     0
  0
SCALE
  5
63
102
{ACAD_REACTORS
330
47
102
}
330
47
100
AcDbScale
 70
     0
300
3/4" = 1'-0"
140
0.75
141
12.0
290
     0
  0
SCALE
  5
64
102
{ACAD_REACTORS
330
47
102
}
330
47
100
AcDbScale
 70
     0
300
1" = 1'-0"
140
1.0
141
12.0
290
     0
  0
SCALE
  5
65
102
{ACAD_REACTORS
330
47
102
}
330
47
100
AcDbScale
 70
     0
300
1-1/2" = 1'-0"
140
1.5
141
12.0
290
     0
  0
SCALE
  5
66
102
{ACAD_REACTORS
330
47
102
}
330
47
100
AcDbScale
 70
     0
300
3" = 1'-0"
140
3.0
141
12.0
290
     0
  0
SCALE
  5
67
102
{ACAD_REACTORS
330
47
102
}
330
47
100
AcDbScale
 70
     0
300
6" = 1'-0"
140
6.0
141
12.0
290
     0
  0
SCALE
  5
68
102
{ACAD_REACTORS
330
47
102
}
330
47
100
AcDbScale
 70
     0
300
1'-0" = 1'-0"
140
12.0
141
12.0
290
     0
  0
ENDSEC
  0
EOF
