  0
SECTION
  2
HEADER
  9
$ACADVER
  1
AC1015
  9
$ACADMAINTVER
 70
     6
  9
$DWGCODEPAGE
  3
DOS932
  9
$INSBASE
 10
0.0
 20
0.0
 30
0.0
  9
$EXTMIN
 10
0.0
 20
0.0
 30
0.0
  9
$EXTMAX
 10
431.8
 20
279.4
 30
0.0
  9
$LIMMIN
 10
0.0
 20
0.0
  9
$LIMMAX
 10
431.8
 20
279.4
  9
$ORTHOMODE
 70
     0
  9
$REGENMODE
 70
     1
  9
$FILLMODE
 70
     1
  9
$QTEXTMODE
 70
     0
  9
$MIRRTEXT
 70
     1
  9
$LTSCALE
 40
1.0
  9
$ATTMODE
 70
     1
  9
$TEXTSIZE
 40
3.5
  9
$TRACEWID
 40
1.0
  9
$TEXTSTYLE
  7
Standard
  9
$CLAYER
  8
0
  9
$CELTYPE
  6
ByLayer
  9
$CECOLOR
 62
   256
  9
$CELTSCALE
 40
1.0
  9
$DISPSILH
 70
     0
  9
$DIMSCALE
 40
1.0
  9
$DIMASZ
 40
3.302
  9
$DIMEXO
 40
1.0
  9
$DIMDLI
 40
3.75
  9
$DIMRND
 40
0.0
  9
$DIMDLE
 40
0.0
  9
$DIMEXE
 40
1.0
  9
$DIMTP
 40
0.0
  9
$DIMTM
 40
0.0
  9
$DIMTXT
 40
3.5
  9
$DIMCEN
 40
2.5
  9
$DIMTSZ
 40
0.0
  9
$DIMTOL
 70
     0
  9
$DIMLIM
 70
     0
  9
$DIMTIH
 70
     1
  9
$DIMTOH
 70
     1
  9
$DIMSE1
 70
     0
  9
$DIMSE2
 70
     0
  9
$DIMTAD
 70
     1
  9
$DIMZIN
 70
     1
  9
$DIMBLK
  1

  9
$DIMASO
 70
     1
  9
$DIMSHO
 70
     1
  9
$DIMPOST
  1

  9
$DIMAPOST
  1

  9
$DIMALT
 70
     0
  9
$DIMALTD
 70
     3
  9
$DIMALTF
 40
0.0393700787
  9
$DIMLFAC
 40
1.0
  9
$DIMTOFL
 70
     1
  9
$DIMTVP
 40
0.0
  9
$DIMTIX
 70
     0
  9
$DIMSOXD
 70
     0
  9
$DIMSAH
 70
     0
  9
$DIMBLK1
  1

  9
$DIMBLK2
  1

  9
$DIMSTYLE
  2
ISO-25
  9
$DIMCLRD
 70
     0
  9
$DIMCLRE
 70
     0
  9
$DIMCLRT
 70
     0
  9
$DIMTFAC
 40
1.0
  9
$DIMGAP
 40
1.524
  9
$DIMJUST
 70
     0
  9
$DIMSD1
 70
     0
  9
$DIMSD2
 70
     0
  9
$DIMTOLJ
 70
     0
  9
$DIMTZIN
 70
     1
  9
$DIMALTZ
 70
     0
  9
$DIMALTTZ
 70
     0
  9
$DIMUPT
 70
     0
  9
$DIMDEC
 70
     2
  9
$DIMTDEC
 70
     2
  9
$DIMALTU
 70
     2
  9
$DIMALTTD
 70
     3
  9
$DIMTXSTY
  7
Standard
  9
$DIMAUNIT
 70
     0
  9
$DIMADEC
 70
     2
  9
$DIMALTRND
 40
0.0
  9
$DIMAZIN
 70
     0
  9
$DIMDSEP
 70
    44
  9
$DIMATFIT
 70
     3
  9
$DIMFRAC
 70
     0
  9
$DIMLDRBLK
  1

  9
$DIMLUNIT
 70
     2
  9
$DIMLWD
 70
    -2
  9
$DIMLWE
 70
    -2
  9
$DIMTMOVE
 70
     0
  9
$LUNITS
 70
     2
  9
$LUPREC
 70
     2
  9
$SKETCHINC
 40
1.0
  9
$FILLETRAD
 40
10.0
  9
$AUNITS
 70
     0
  9
$AUPREC
 70
     2
  9
$MENU
  1
.
  9
$ELEVATION
 40
0.0
  9
$PELEVATION
 40
0.0
  9
$THICKNESS
 40
0.0
  9
$LIMCHECK
 70
     0
  9
$CHAMFERA
 40
0.0
  9
$CHAMFERB
 40
0.0
  9
$CHAMFERC
 40
0.0
  9
$CHAMFERD
 40
0.0
  9
$SKPOLY
 70
     0
  9
$TDCREATE
 40
2459296.61713456
  9
$TDUCREATE
 40
2459296.24213456
  9
$TDUPDATE
 40
2459296.617135417
  9
$TDUUPDATE
 40
2459296.242135417
  9
$TDINDWG
 40
0.0000000116
  9
$TDUSRTIMER
 40
0.0000000116
  9
$USRTIMER
 70
     1
  9
$ANGBASE
 50
0.0
  9
$ANGDIR
 70
     0
  9
$PDMODE
 70
     0
  9
$PDSIZE
 40
-1.0
  9
$PLINEWID
 40
0.0
  9
$SPLFRAME
 70
     0
  9
$SPLINETYPE
 70
     6
  9
$SPLINESEGS
 70
     8
  9
$HANDSEED
  5
235
  9
$SURFTAB1
 70
     6
  9
$SURFTAB2
 70
     6
  9
$SURFTYPE
 70
     6
  9
$SURFU
 70
     6
  9
$SURFV
 70
     6
  9
$UCSBASE
  2

  9
$UCSNAME
  2

  9
$UCSORG
 10
0.0
 20
0.0
 30
0.0
  9
$UCSXDIR
 10
1.0
 20
0.0
 30
0.0
  9
$UCSYDIR
 10
0.0
 20
1.0
 30
0.0
  9
$UCSORTHOREF
  2

  9
$UCSORTHOVIEW
 70
     0
  9
$UCSORGTOP
 10
0.0
 20
0.0
 30
0.0
  9
$UCSORGBOTTOM
 10
0.0
 20
0.0
 30
0.0
  9
$UCSORGLEFT
 10
0.0
 20
0.0
 30
0.0
  9
$UCSORGRIGHT
 10
0.0
 20
0.0
 30
0.0
  9
$UCSORGFRONT
 10
0.0
 20
0.0
 30
0.0
  9
$UCSORGBACK
 10
0.0
 20
0.0
 30
0.0
  9
$PUCSBASE
  2

  9
$PUCSNAME
  2

  9
$PUCSORG
 10
0.0
 20
0.0
 30
0.0
  9
$PUCSXDIR
 10
1.0
 20
0.0
 30
0.0
  9
$PUCSYDIR
 10
0.0
 20
1.0
 30
0.0
  9
$PUCSORTHOREF
  2

  9
$PUCSORTHOVIEW
 70
     0
  9
$PUCSORGTOP
 10
0.0
 20
0.0
 30
0.0
  9
$PUCSORGBOTTOM
 10
0.0
 20
0.0
 30
0.0
  9
$PUCSORGLEFT
 10
0.0
 20
0.0
 30
0.0
  9
$PUCSORGRIGHT
 10
0.0
 20
0.0
 30
0.0
  9
$PUCSORGFRONT
 10
0.0
 20
0.0
 30
0.0
  9
$PUCSORGBACK
 10
0.0
 20
0.0
 30
0.0
  9
$USERI1
 70
     0
  9
$USERI2
 70
     0
  9
$USERI3
 70
     0
  9
$USERI4
 70
     0
  9
$USERI5
 70
     0
  9
$USERR1
 40
0.0
  9
$USERR2
 40
0.0
  9
$USERR3
 40
0.0
  9
$USERR4
 40
0.0
  9
$USERR5
 40
0.0
  9
$WORLDVIEW
 70
     1
  9
$SHADEDGE
 70
     3
  9
$SHADEDIF
 70
    70
  9
$TILEMODE
 70
     1
  9
$MAXACTVP
 70
    64
  9
$PINSBASE
 10
0.0
 20
0.0
 30
0.0
  9
$PLIMCHECK
 70
     0
  9
$PEXTMIN
 10
1.0000000000E+20
 20
1.0000000000E+20
 30
1.0000000000E+20
  9
$PEXTMAX
 10
-1.0000000000E+20
 20
-1.0000000000E+20
 30
-1.0000000000E+20
  9
$PLIMMIN
 10
0.0
 20
0.0
  9
$PLIMMAX
 10
420.0
 20
297.0
  9
$UNITMODE
 70
     0
  9
$VISRETAIN
 70
     1
  9
$PLINEGEN
 70
     0
  9
$PSLTSCALE
 70
     1
  9
$TREEDEPTH
 70
  3020
  9
$CMLSTYLE
  2
Standard
  9
$CMLJUST
 70
     0
  9
$CMLSCALE
 40
20.0
  9
$PROXYGRAPHICS
 70
     1
  9
$MEASUREMENT
 70
     1
  9
$CELWEIGHT
370
    -1
  9
$ENDCAPS
280
     0
  9
$JOINSTYLE
280
     0
  9
$LWDISPLAY
290
     1
  9
$INSUNITS
 70
     4
  9
$HYPERLINKBASE
  1

  9
$STYLESHEET
  1

  9
$XEDIT
290
     1
  9
$CEPSNTYPE
380
     0
  9
$PSTYLEMODE
290
     1
  9
$FINGERPRINTGUID
  2
{7850B84D-CDCB-46A5-9964-A777C4F372AE}
  9
$VERSIONGUID
  2
{FAEB1C32-E019-11D5-929B-00C0DF256EC4}
  9
$EXTNAMES
290
     1
  9
$PSVPSCALE
 40
0.0
  9
$OLESTARTUP
290
     0
  0
ENDSEC
  0
SECTION
  2
CLASSES
  0
CLASS
  1
ACDBDICTIONARYWDFLT
  2
AcDbDictionaryWithDefault
  3
ObjectDBX Classes
 90
        0
280
     0
281
     0
  0
CLASS
  1
VISUALSTYLE
  2
AcDbVisualStyle
  3
ObjectDBX Classes
 90
     4095
280
     0
281
     0
  0
CLASS
  1
MATERIAL
  2
AcDbMaterial
  3
ObjectDBX Classes
 90
     1153
280
     0
281
     0
  0
CLASS
  1
SCALE
  2
AcDbScale
  3
ObjectDBX Classes
 90
     1153
280
     0
281
     0
  0
CLASS
  1
TABLESTYLE
  2
AcDbTableStyle
  3
ObjectDBX Classes
 90
     4095
280
     0
281
     0
  0
CLASS
  1
MLEADERSTYLE
  2
AcDbMLeaderStyle
  3
ACDB_MLEADERSTYLE_CLASS
 90
     4095
280
     0
281
     0
  0
CLASS
  1
SUN
  2
AcDbSun
  3
SCENEOE
 90
     1153
280
     0
281
     0
  0
CLASS
  1
ACDBPLACEHOLDER
  2
AcDbPlaceHolder
  3
ObjectDBX Classes
 90
        0
280
     0
281
     0
  0
CLASS
  1
LAYOUT
  2
AcDbLayout
  3
ObjectDBX Classes
 90
        0
280
     0
281
     0
  0
ENDSEC
  0
SECTION
  2
TABLES
  0
TABLE
  2
VPORT
  5
8
330
0
100
AcDbSymbolTable
 70
     1
  0
VPORT
  5
29
330
8
100
AcDbSymbolTableRecord
100
AcDbViewportTableRecord
  2
*Active
 70
     0
 10
0.0
 20
0.0
 11
1.0
 21
1.0
 12
215.9
 22
139.7
 13
0.0
 23
0.0
 14
10.0
 24
10.0
 15
10.0
 25
10.0
 16
0.0
 26
0.0
 36
1.0
 17
0.0
 27
0.0
 37
0.0
 40
279.4
 41
1.5454545455
 42
50.0
 43
0.0
 44
0.0
 50
0.0
 51
0.0
 71
     0
 72
  2000
 73
     1
 74
     3
 75
     0
 76
     0
 77
     0
 78
     0
281
     0
 65
     1
110
0.0
120
0.0
130
0.0
111
1.0
121
0.0
131
0.0
112
0.0
122
1.0
132
0.0
 79
     0
146
0.0
  0
ENDTAB
  0
TABLE
  2
LTYPE
  5
5
330
0
100
AcDbSymbolTable
 70
     6
  0
LTYPE
  5
14
330
5
100
AcDbSymbolTableRecord
100
AcDbLinetypeTableRecord
  2
ByBlock
 70
     0
  3

 72
    65
 73
     0
 40
0.0
  0
LTYPE
  5
15
330
5
100
AcDbSymbolTableRecord
100
AcDbLinetypeTableRecord
  2
ByLayer
 70
     0
  3

 72
    65
 73
     0
 40
0.0
  0
LTYPE
  5
16
330
5
100
AcDbSymbolTableRecord
100
AcDbLinetypeTableRecord
  2
Continuous
 70
     0
  3
Solid line
 72
    65
 73
     0
 40
0.0
  0
LTYPE
  5
6E
330
5
100
AcDbSymbolTableRecord
100
AcDbLinetypeTableRecord
  2
HIDDEN
 70
     0
  3
Hidden __ __ __ __ __ __ __ __ __ __ __ __ __ __
 72
    65
 73
     2
 40
1.905
 49
1.27
 74
     0
 49
-0.635
 74
     0
  0
LTYPE
  5
6F
330
5
100
AcDbSymbolTableRecord
100
AcDbLinetypeTableRecord
  2
PHANTOM
 70
     0
  3
Phantom ______  __  __  ______  __  __  ______
 72
    65
 73
     6
 40
12.7
 49
6.35
 74
     0
 49
-1.27
 74
     0
 49
1.27
 74
     0
 49
-1.27
 74
     0
 49
1.27
 74
     0
 49
-1.27
 74
     0
  0
LTYPE
  5
70
330
5
100
AcDbSymbolTableRecord
100
AcDbLinetypeTableRecord
  2
CENTER
 70
     0
  3
Center ____ _ ____ _ ____ _ ____ _ ____ _ ____
 72
    65
 73
     4
 40
10.16
 49
6.35
 74
     0
 49
-1.27
 74
     0
 49
1.27
 74
     0
 49
-1.27
 74
     0
  0
LTYPE
  5
71
330
5
100
AcDbSymbolTableRecord
100
AcDbLinetypeTableRecord
  2
CENTERX2
 70
     0
  3
Center (2x) ________  __  ________  __  _____
 72
    65
 73
     4
 40
20.32
 49
12.7
 74
     0
 49
-2.54
 74
     0
 49
2.54
 74
     0
 49
-2.54
 74
     0
  0
LTYPE
  5
72
330
5
100
AcDbSymbolTableRecord
100
AcDbLinetypeTableRecord
  2
DOT2
 70
     0
  3
Dot (.5x) ........................................
 72
    65
 73
     2
 40
0.635
 49
0.0
 74
     0
 49
-0.635
 74
     0
  0
ENDTAB
  0
TABLE
  2
LAYER
  5
2
330
0
100
AcDbSymbolTable
 70
     1
  0
LAYER
  5
10
330
2
100
AcDbSymbolTableRecord
100
AcDbLayerTableRecord
  2
0
 70
     0
 62
     7
  6
Continuous
370
    -3
390
F
  0
ENDTAB
  0
TABLE
  2
STYLE
  5
3
330
0
100
AcDbSymbolTable
 70
     2
  0
STYLE
  5
11
330
3
100
AcDbSymbolTableRecord
100
AcDbTextStyleTableRecord
  2
Standard
 70
     0
 40
0.0
 41
1.0
 50
0.0
 71
     0
 42
3.5
  3
txt
  4
bigfont
  0
STYLE
  5
73
330
3
100
AcDbSymbolTableRecord
100
AcDbTextStyleTableRecord
  2
SLDTEXTSTYLE0
 70
     0
 40
0.0
 41
0.7
 50
0.0
 71
     0
 42
3.5
  3
TXT
  4
bigfont
  0
ENDTAB
  0
TABLE
  2
VIEW
  5
6
330
0
100
AcDbSymbolTable
 70
     0
  0
ENDTAB
  0
TABLE
  2
UCS
  5
7
330
0
100
AcDbSymbolTable
 70
     0
  0
ENDTAB
  0
TABLE
  2
APPID
  5
9
330
0
100
AcDbSymbolTable
 70
     1
  0
APPID
  5
12
330
9
100
AcDbSymbolTableRecord
100
AcDbRegAppTableRecord
  2
ACAD
 70
     0
  0
ENDTAB
  0
TABLE
  2
DIMSTYLE
  5
A
330
0
100
AcDbSymbolTable
 70
     1
100
AcDbDimStyleTable
  0
DIMSTYLE
105
27
330
A
100
AcDbSymbolTableRecord
100
AcDbDimStyleTableRecord
  2
ISO-25
 70
     0
 41
2.5
 42
0.625
 43
3.75
 44
1.25
 73
     0
 74
     0
 77
     1
 78
     8
140
2.5
141
2.5
143
0.0393700787
147
0.625
171
     3
172
     1
178
     0
271
     2
272
     2
274
     3
278
    44
283
     0
284
     8
340
11
  0
ENDTAB
  0
TABLE
  2
BLOCK_RECORD
  5
1
330
0
100
AcDbSymbolTable
 70
     3
  0
BLOCK_RECORD
  5
1F
330
1
100
AcDbSymbolTableRecord
100
AcDbBlockTableRecord
  2
*Model_Space
340
22
  0
BLOCK_RECORD
  5
1B
330
1
100
AcDbSymbolTableRecord
100
AcDbBlockTableRecord
  2
*Paper_Space
340
1E
  0
BLOCK_RECORD
  5
23
330
1
100
AcDbSymbolTableRecord
100
AcDbBlockTableRecord
  2
*Paper_Space0
340
26
  0
BLOCK_RECORD
  5
16F
330
1
100
AcDbSymbolTableRecord
100
AcDbBlockTableRecord
  2
SW_CENTERMARKSYMBOL_0
340
0
102
{BLKREFS
331
17A
102
}
  0
BLOCK_RECORD
  5
229
330
1
100
AcDbSymbolTableRecord
100
AcDbBlockTableRecord
  2
SW_CENTERMARKSYMBOL_1
340
0
102
{BLKREFS
331
234
102
}
  0
ENDTAB
  0
ENDSEC
  0
SECTION
  2
BLOCKS
  0
BLOCK
  5
20
330
1F
100
AcDbEntity
  8
0
100
AcDbBlockBegin
  2
*Model_Space
 70
     0
 10
0.0
 20
0.0
 30
0.0
  3
*Model_Space
  1

  0
ENDBLK
  5
21
330
1F
100
AcDbEntity
  8
0
100
AcDbBlockEnd
  0
BLOCK
  5
1C
330
1B
100
AcDbEntity
 67
     1
  8
0
100
AcDbBlockBegin
  2
*Paper_Space
 70
     0
 10
0.0
 20
0.0
 30
0.0
  3
*Paper_Space
  1

  0
ENDBLK
  5
1D
330
1B
100
AcDbEntity
 67
     1
  8
0
100
AcDbBlockEnd
  0
BLOCK
  5
24
330
23
100
AcDbEntity
  8
0
100
AcDbBlockBegin
  2
*Paper_Space0
 70
     0
 10
0.0
 20
0.0
 30
0.0
  3
*Paper_Space0
  1

  0
ENDBLK
  5
25
330
23
100
AcDbEntity
  8
0
100
AcDbBlockEnd
  0
BLOCK
  5
170
330
16F
100
AcDbEntity
  8
0
100
AcDbBlockBegin
  2
SW_CENTERMARKSYMBOL_0
 70
     0
 10
0.0
 20
0.0
 30
0.0
  3
SW_CENTERMARKSYMBOL_0
  1

  0
LINE
  5
172
330
16F
100
AcDbEntity
  8
0
  6
Continuous
 62
     0
370
    18
100
AcDbLine
 10
0.0
 20
0.0
 30
0.0
 11
0.0
 21
2.5
 31
0.0
  0
LINE
  5
173
330
16F
100
AcDbEntity
  8
0
  6
Continuous
 62
     0
370
    18
100
AcDbLine
 10
0.0
 20
0.0
 30
0.0
 11
-2.5
 21
0.0
 31
0.0
  0
LINE
  5
174
330
16F
100
AcDbEntity
  8
0
  6
Continuous
 62
     0
370
    18
100
AcDbLine
 10
0.0
 20
0.0
 30
0.0
 11
0.0
 21
-2.5
 31
0.0
  0
LINE
  5
175
330
16F
100
AcDbEntity
  8
0
  6
Continuous
 62
     0
370
    18
100
AcDbLine
 10
0.0
 20
0.0
 30
0.0
 11
2.5
 21
0.0
 31
0.0
  0
LINE
  5
176
330
16F
100
AcDbEntity
  8
0
  6
Continuous
 62
     0
370
    18
100
AcDbLine
 10
0.0
 20
5.0
 30
0.0
 11
0.0
 21
30.1503529594
 31
0.0
  0
LINE
  5
177
330
16F
100
AcDbEntity
  8
0
  6
Continuous
 62
     0
370
    18
100
AcDbLine
 10
-5.0
 20
0.0
 30
0.0
 11
-14.25
 21
0.0
 31
0.0
  0
LINE
  5
178
330
16F
100
AcDbEntity
  8
0
  6
Continuous
 62
     0
370
    18
100
AcDbLine
 10
0.0
 20
-5.0
 30
0.0
 11
0.0
 21
-14.25
 31
0.0
  0
LINE
  5
179
330
16F
100
AcDbEntity
  8
0
  6
Continuous
 62
     0
370
    18
100
AcDbLine
 10
5.0
 20
0.0
 30
0.0
 11
14.25
 21
0.0
 31
0.0
  0
ENDBLK
  5
171
330
16F
100
AcDbEntity
  8
0
100
AcDbBlockEnd
  0
BLOCK
  5
22A
330
229
100
AcDbEntity
  8
0
100
AcDbBlockBegin
  2
SW_CENTERMARKSYMBOL_1
 70
     0
 10
0.0
 20
0.0
 30
0.0
  3
SW_CENTERMARKSYMBOL_1
  1

  0
LINE
  5
22C
330
229
100
AcDbEntity
  8
0
  6
Continuous
 62
     0
370
    18
100
AcDbLine
 10
0.0
 20
0.0
 30
0.0
 11
0.0
 21
2.5
 31
0.0
  0
LINE
  5
22D
330
229
100
AcDbEntity
  8
0
  6
Continuous
 62
     0
370
    18
100
AcDbLine
 10
0.0
 20
0.0
 30
0.0
 11
-2.5
 21
0.0
 31
0.0
  0
LINE
  5
22E
330
229
100
AcDbEntity
  8
0
  6
Continuous
 62
     0
370
    18
100
AcDbLine
 10
0.0
 20
0.0
 30
0.0
 11
0.0
 21
-2.5
 31
0.0
  0
LINE
  5
22F
330
229
100
AcDbEntity
  8
0
  6
Continuous
 62
     0
370
    18
100
AcDbLine
 10
0.0
 20
0.0
 30
0.0
 11
2.5
 21
0.0
 31
0.0
  0
LINE
  5
230
330
229
100
AcDbEntity
  8
0
  6
Continuous
 62
     0
370
    18
100
AcDbLine
 10
0.0
 20
5.0
 30
0.0
 11
0.0
 21
11.0700625
 31
0.0
  0
LINE
  5
231
330
229
100
AcDbEntity
  8
0
  6
Continuous
 62
     0
370
    18
100
AcDbLine
 10
-5.0
 20
0.0
 30
0.0
 11
-11.0700625
 21
0.0
 31
0.0
  0
LINE
  5
232
330
229
100
AcDbEntity
  8
0
  6
Continuous
 62
     0
370
    18
100
AcDbLine
 10
0.0
 20
-5.0
 30
0.0
 11
0.0
 21
-11.0700625
 31
0.0
  0
LINE
  5
233
330
229
100
AcDbEntity
  8
0
  6
Continuous
 62
     0
370
    18
100
AcDbLine
 10
5.0
 20
0.0
 30
0.0
 11
66.8869748134
 21
0.0
 31
0.0
  0
ENDBLK
  5
22B
330
229
100
AcDbEntity
  8
0
100
AcDbBlockEnd
  0
ENDSEC
  0
SECTION
  2
ENTITIES
  0
MTEXT
  5
74
330
1F
100
AcDbEntity
  8
0
  6
Continuous
 62
     7
370
     0
100
AcDbMText
 10
177.1321259979
 20
143.575953165
 30
0.0
 40
4.7625
 41
0.0
 71
     1
 72
     1
  1
HL-1316R
  7
SLDTEXTSTYLE0
 73
     1
 44
1.0
  0
LINE
  5
75
330
1F
100
AcDbEntity
  8
0
  6
Continuous
 62
     7
370
    25
100
AcDbLine
 10
132.3439929113
 20
81.047951683
 30
0.0
 11
133.5601272484
 21
83.1543581436
 31
0.0
  0
LINE
  5
76
330
1F
100
AcDbEntity
  8
0
  6
Continuous
 62
     7
370
    25
100
AcDbLine
 10
133.5601272484
 20
106.6543581436
 30
0.0
 11
132.3439929113
 21
108.7607646041
 31
0.0
  0
LINE
  5
77
330
1F
100
AcDbEntity
  8
0
  6
Continuous
 62
     7
370
    25
100
AcDbLine
 10
122.7762615854
 20
108.7607646041
 30
0.0
 11
121.5601272484
 21
106.6543581436
 31
0.0
  0
LINE
  5
78
330
1F
100
AcDbEntity
  8
0
  6
Continuous
 62
     7
370
    25
100
AcDbLine
 10
121.5601272484
 20
83.1543581436
 30
0.0
 11
122.7762615854
 21
81.047951683
 31
0.0
  0
LINE
  5
79
330
1F
100
AcDbEntity
  8
0
  6
Continuous
 62
     7
370
    25
100
AcDbLine
 10
135.0601272484
 20
83.1543581436
 30
0.0
 11
135.5601272484
 21
83.6543581436
 31
0.0
  0
LINE
  5
7A
330
1F
100
AcDbEntity
  8
0
  6
Continuous
 62
     7
370
    25
100
AcDbLine
 10
135.5601272484
 20
106.1543581436
 30
0.0
 11
135.0601272484
 21
106.6543581436
 31
0.0
  0
LINE
  5
7B
330
1F
100
AcDbEntity
  8
0
  6
Continuous
 62
     7
370
    25
100
AcDbLine
 10
120.0601272484
 20
106.6543581436
 30
0.0
 11
119.5601272484
 21
106.1543581436
 31
0.0
  0
LINE
  5
7C
330
1F
100
AcDbEntity
  8
0
  6
Continuous
 62
     7
370
    25
100
AcDbLine
 10
119.5601272484
 20
83.6543581436
 30
0.0
 11
120.0601272484
 21
83.1543581436
 31
0.0
  0
LINE
  5
7D
330
1F
100
AcDbEntity
  8
0
  6
Continuous
 62
     7
370
    25
100
AcDbLine
 10
133.5601272484
 20
83.1543581436
 30
0.0
 11
135.0601272484
 21
83.1543581436
 31
0.0
  0
LINE
  5
7E
330
1F
100
AcDbEntity
  8
0
  6
Continuous
 62
     7
370
    25
100
AcDbLine
 10
135.0601272484
 20
106.6543581436
 30
0.0
 11
133.5601272484
 21
106.6543581436
 31
0.0
  0
LINE
  5
7F
330
1F
100
AcDbEntity
  8
0
  6
Continuous
 62
     7
370
    25
100
AcDbLine
 10
121.5601272484
 20
106.6543581436
 30
0.0
 11
120.0601272484
 21
106.6543581436
 31
0.0
  0
LINE
  5
80
330
1F
100
AcDbEntity
  8
0
  6
Continuous
 62
     7
370
    25
100
AcDbLine
 10
120.0601272484
 20
83.1543581436
 30
0.0
 11
121.5601272484
 21
83.1543581436
 31
0.0
  0
LINE
  5
81
330
1F
100
AcDbEntity
  8
0
  6
Continuous
 62
     7
370
    25
100
AcDbLine
 10
127.5601272484
 20
108.2607646041
 30
0.0
 11
127.4261526522
 21
108.7607646041
 31
0.0
  0
LINE
  5
82
330
1F
100
AcDbEntity
  8
0
  6
Continuous
 62
     7
370
    25
100
AcDbLine
 10
127.6941018446
 20
108.7607646041
 30
0.0
 11
127.5601272484
 21
108.2607646041
 31
0.0
  0
LINE
  5
83
330
1F
100
AcDbEntity
  8
0
  6
Continuous
 62
     7
370
    25
100
AcDbLine
 10
127.5601272484
 20
81.547951683
 30
0.0
 11
127.6941018446
 21
81.047951683
 31
0.0
  0
LINE
  5
84
330
1F
100
AcDbEntity
  8
0
  6
Continuous
 62
     7
370
    25
100
AcDbLine
 10
127.4261526522
 20
81.047951683
 30
0.0
 11
127.5601272484
 21
81.547951683
 31
0.0
  0
LINE
  5
85
330
1F
100
AcDbEntity
  8
0
  6
Continuous
 62
     7
370
    25
100
AcDbLine
 10
135.5601272484
 20
86.9043581436
 30
0.0
 11
142.0601272484
 21
86.9043581436
 31
0.0
  0
LINE
  5
86
330
1F
100
AcDbEntity
  8
0
  6
Continuous
 62
     7
370
    25
100
AcDbLine
 10
142.0601272484
 20
102.9043581436
 30
0.0
 11
135.5601272484
 21
102.9043581436
 31
0.0
  0
LINE
  5
87
330
1F
100
AcDbEntity
  8
0
  6
Continuous
 62
     7
370
    25
100
AcDbLine
 10
142.0601272484
 20
86.9043581436
 30
0.0
 11
146.5601272484
 21
87.6543581436
 31
0.0
  0
LINE
  5
88
330
1F
100
AcDbEntity
  8
0
  6
Continuous
 62
     7
370
    25
100
AcDbLine
 10
146.5601272484
 20
102.1543581436
 30
0.0
 11
142.0601272484
 21
102.9043581436
 31
0.0
  0
ARC
  5
89
330
1F
100
AcDbEntity
  8
0
  6
Continuous
 62
     7
370
    25
100
AcDbCircle
 10
160.1601272484
 20
102.7921562026
 30
0.0
 40
0.100000000000002
100
AcDbArc
 50
83.4180553448
 51
180.0
  0
ARC
  5
8A
330
1F
100
AcDbEntity
  8
0
  6
Continuous
 62
     7
370
    25
100
AcDbCircle
 10
160.1601272484
 20
87.0165600846
 30
0.0
 40
0.1000000000000161
100
AcDbArc
 50
180.0
 51
276.5819446552
  0
LINE
  5
8B
330
1F
100
AcDbEntity
  8
0
  6
Continuous
 62
     7
370
    25
100
AcDbLine
 10
160.1715896592
 20
86.917219191
 30
0.0
 11
165.9640818868
 21
87.5855836788
 31
0.0
  0
LINE
  5
8C
330
1F
100
AcDbEntity
  8
0
  6
Continuous
 62
     7
370
    25
100
AcDbLine
 10
165.9640818868
 20
102.2231326084
 30
0.0
 11
160.1715896592
 21
102.8914970962
 31
0.0
  0
ARC
  5
8D
330
1F
100
AcDbEntity
  8
0
  6
Continuous
 62
     7
370
    25
100
AcDbCircle
 10
146.6601272484
 20
102.7863121014
 30
0.0
 40
0.1000000000000057
100
AcDbArc
 50
80.537677792
 51
180.0
  0
ARC
  5
8E
330
1F
100
AcDbEntity
  8
0
  6
Continuous
 62
     7
370
    25
100
AcDbCircle
 10
146.6601272484
 20
87.0224041857
 30
0.0
 40
0.0999999999999943
100
AcDbArc
 50
180.0
 51
279.462322208
  0
ARC
  5
8F
330
1F
100
AcDbEntity
  8
0
  6
Continuous
 62
     7
370
    25
100
AcDbCircle
 10
151.1601272484
 20
102.7863121014
 30
0.0
 40
0.1000000000000057
100
AcDbArc
 50
80.537677792
 51
180.0
  0
ARC
  5
90
330
1F
100
AcDbEntity
  8
0
  6
Continuous
 62
     7
370
    25
100
AcDbCircle
 10
151.1601272484
 20
87.0224041857
 30
0.0
 40
0.0999999999999943
100
AcDbArc
 50
180.0
 51
279.462322208
  0
ARC
  5
91
330
1F
100
AcDbEntity
  8
0
  6
Continuous
 62
     7
370
    25
100
AcDbCircle
 10
155.6601272484
 20
102.7863121014
 30
0.0
 40
0.1000000000000057
100
AcDbArc
 50
80.537677792
 51
180.0
  0
ARC
  5
92
330
1F
100
AcDbEntity
  8
0
  6
Continuous
 62
     7
370
    25
100
AcDbCircle
 10
155.6601272484
 20
87.0224041857
 30
0.0
 40
0.0999999999999917
100
AcDbArc
 50
180.0
 51
279.462322208
  0
LINE
  5
93
330
1F
100
AcDbEntity
  8
0
  6
Continuous
 62
     7
370
    25
100
AcDbLine
 10
146.6765671471
 20
86.9237647934
 30
0.0
 11
151.0601272484
 21
87.6543581436
 31
0.0
  0
LINE
  5
94
330
1F
100
AcDbEntity
  8
0
  6
Continuous
 62
     7
370
    25
100
AcDbLine
 10
151.0601272484
 20
102.1543581436
 30
0.0
 11
146.6765671471
 21
102.8849514938
 31
0.0
  0
LINE
  5
95
330
1F
100
AcDbEntity
  8
0
  6
Continuous
 62
     7
370
    25
100
AcDbLine
 10
151.1765671471
 20
86.9237647934
 30
0.0
 11
155.5601272484
 21
87.6543581436
 31
0.0
  0
LINE
  5
96
330
1F
100
AcDbEntity
  8
0
  6
Continuous
 62
     7
370
    25
100
AcDbLine
 10
155.5601272484
 20
102.1543581436
 30
0.0
 11
151.1765671471
 21
102.8849514938
 31
0.0
  0
LINE
  5
97
330
1F
100
AcDbEntity
  8
0
  6
Continuous
 62
     7
370
    25
100
AcDbLine
 10
155.6765671471
 20
86.9237647934
 30
0.0
 11
160.0601272484
 21
87.6543581436
 31
0.0
  0
LINE
  5
98
330
1F
100
AcDbEntity
  8
0
  6
Continuous
 62
     7
370
    25
100
AcDbLine
 10
160.0601272484
 20
102.1543581436
 30
0.0
 11
155.6765671471
 21
102.8849514938
 31
0.0
  0
LINE
  5
99
330
1F
100
AcDbEntity
  8
0
  6
Continuous
 62
     7
370
    25
100
AcDbLine
 10
165.9640818868
 20
87.5855836788
 30
0.0
 11
166.5601272484
 21
88.2543581436
 31
0.0
  0
LINE
  5
9A
330
1F
100
AcDbEntity
  8
0
  6
Continuous
 62
     7
370
    25
100
AcDbLine
 10
166.5601272484
 20
101.5543581436
 30
0.0
 11
165.9640818868
 21
102.2231326084
 31
0.0
  0
LINE
  5
9B
330
1F
100
AcDbEntity
  8
0
  6
Continuous
 62
     7
370
    25
100
AcDbLine
 10
119.5601272484
 20
105.3818581436
 30
0.0
 11
117.3162093416
 21
105.3818581436
 31
0.0
  0
LINE
  5
9C
330
1F
100
AcDbEntity
  8
0
  6
Continuous
 62
     7
370
    25
100
AcDbLine
 10
117.3162093416
 20
84.4268581436
 30
0.0
 11
119.5601272484
 21
84.4268581436
 31
0.0
  0
ARC
  5
9D
330
1F
100
AcDbEntity
  8
0
  6
Continuous
 62
     7
370
    25
100
AcDbCircle
 10
119.1233462346
 20
86.1543581436
 30
0.0
 40
2.499999999999996
100
AcDbArc
 50
206.7436839504
 51
223.7093197495
  0
ARC
  5
9E
330
1F
100
AcDbEntity
  8
0
  6
Continuous
 62
     7
370
    25
100
AcDbCircle
 10
119.1233462346
 20
103.6543581436
 30
0.0
 40
2.500000000000006
100
AcDbArc
 50
136.2906802505
 51
153.2563160496
  0
ARC
  5
9F
330
1F
100
AcDbEntity
  8
0
  6
Continuous
 62
     7
370
    25
100
AcDbCircle
 10
114.6582034597
 20
83.9043581436
 30
0.0
 40
2.49999999999999
100
AcDbArc
 50
26.7436839504
 51
90.0
  0
ARC
  5
A0
330
1F
100
AcDbEntity
  8
0
  6
Continuous
 62
     7
370
    25
100
AcDbCircle
 10
114.6582034597
 20
105.9043581436
 30
0.0
 40
2.5
100
AcDbArc
 50
270.0
 51
333.2563160496
  0
ARC
  5
A1
330
1F
100
AcDbEntity
  8
0
  6
Continuous
 62
     7
370
    25
100
AcDbCircle
 10
113.1582034597
 20
107.4043581436
 30
0.0
 40
2.500000000000005
100
AcDbArc
 50
166.4034115815
 51
180.0
  0
ARC
  5
A2
330
1F
100
AcDbEntity
  8
0
  6
Continuous
 62
     7
370
    25
100
AcDbCircle
 10
91.1582034597
 20
107.4043581436
 30
0.0
 40
2.500000000000005
100
AcDbArc
 50
0.0
 51
13.5965884185
  0
LINE
  5
A3
330
1F
100
AcDbEntity
  8
0
  6
Continuous
 62
     7
370
    25
100
AcDbLine
 10
110.7282659597
 20
108.9043581436
 30
0.0
 11
110.3555756295
 21
120.8304487099
 31
0.0
  0
LINE
  5
A4
330
1F
100
AcDbEntity
  8
0
  6
Continuous
 62
     7
370
    25
100
AcDbLine
 10
93.9608312899
 20
120.8304487099
 30
0.0
 11
93.5881409597
 21
108.9043581436
 31
0.0
  0
LINE
  5
A5
330
1F
100
AcDbEntity
  8
0
  6
Continuous
 62
     7
370
    25
100
AcDbLine
 10
93.5881409597
 20
108.9043581436
 30
0.0
 11
93.5881409597
 21
107.9920687408
 31
0.0
  0
LINE
  5
A6
330
1F
100
AcDbEntity
  8
0
  6
Continuous
 62
     7
370
    25
100
AcDbLine
 10
110.7282659597
 20
107.9920687408
 30
0.0
 11
110.7282659597
 21
108.9043581436
 31
0.0
  0
LINE
  5
A7
330
1F
100
AcDbEntity
  8
0
  6
Continuous
 62
     7
370
    25
100
AcDbLine
 10
93.6582034597
 20
107.4043581436
 30
0.0
 11
93.6582034597
 21
89.3999574751
 31
0.0
  0
LINE
  5
A8
330
1F
100
AcDbEntity
  8
0
  6
Continuous
 62
     7
370
    25
100
AcDbLine
 10
110.6582034597
 20
103.9043581436
 30
0.0
 11
110.6582034597
 21
107.4043581436
 31
0.0
  0
LINE
  5
A9
330
1F
100
AcDbEntity
  8
0
  6
Continuous
 62
     7
370
    25
100
AcDbLine
 10
114.6582034597
 20
103.4043581436
 30
0.0
 11
111.1582034597
 21
103.4043581436
 31
0.0
  0
LINE
  5
AA
330
1F
100
AcDbEntity
  8
0
  6
Continuous
 62
     7
370
    25
100
AcDbLine
 10
96.6538027913
 20
86.4043581436
 30
0.0
 11
114.6582034597
 21
86.4043581436
 31
0.0
  0
LINE
  5
AB
330
1F
100
AcDbEntity
  8
0
  6
Continuous
 62
     7
370
    25
100
AcDbLine
 10
110.3555756295
 20
120.8304487099
 30
0.0
 11
109.1582034597
 21
122.9043581436
 31
0.0
  0
LINE
  5
AC
330
1F
100
AcDbEntity
  8
0
  6
Continuous
 62
     7
370
    25
100
AcDbLine
 10
95.1582034597
 20
122.9043581436
 30
0.0
 11
93.9608312899
 21
120.8304487099
 31
0.0
  0
SPLINE
  5
AD
330
1F
100
AcDbEntity
  8
0
  6
Continuous
 62
     7
370
    25
100
AcDbSpline
210
0.0
220
0.0
230
1.0
 70
     8
 71
     3
 72
    18
 73
    14
 74
     0
 42
0.000000001
 43
0.00000001
 40
0.0
 40
0.0
 40
0.0
 40
0.0
 40
0.0827064529141086
 40
0.157774629988733
 40
0.2847974390907824
 40
0.3813326480059515
 40
0.4519486919440617
 40
0.542152133493574
 40
0.6634999391290143
 40
0.7359335745171601
 40
0.8161561932238498
 40
0.9041841948346939
 40
1.0
 40
1.0
 40
1.0
 40
1.0
 10
93.65820345998785
 20
89.40431852060405
 30
0.0
 10
93.66312355979767
 20
89.27443288738941
 30
0.0
 10
93.67250936827637
 20
89.02665708514851
 30
0.0
 10
93.75946821253002
 20
88.58684803343445
 30
0.0
 10
93.9188452151919
 20
88.14285992770466
 30
0.0
 10
94.15101595594751
 20
87.74175191341811
 30
0.0
 10
94.39707580962394
 20
87.42058497582339
 30
0.0
 10
94.70971019457157
 20
87.10497162451203
 30
0.0
 10
95.07400176439154
 20
86.843213341618
 30
0.0
 10
95.45758859444229
 20
86.64700807239413
 30
0.0
 10
95.8132070248636
 20
86.51750362690274
 30
0.0
 10
96.21890166056946
 20
86.4235775757499
 30
0.0
 10
96.50766566936711
 20
86.41094302511631
 30
0.0
 10
96.65816383675654
 20
86.40435814383538
 30
0.0
  0
SPLINE
  5
AE
330
1F
100
AcDbEntity
  8
0
  6
Continuous
 62
     7
370
    25
100
AcDbSpline
210
0.0
220
0.0
230
1.0
 70
     8
 71
     3
 72
    11
 73
     7
 74
     0
 42
0.000000001
 43
0.00000001
 40
0.0
 40
0.0
 40
0.0
 40
0.0
 40
0.2500481156911711
 40
0.5000000000000012
 40
0.7499518843088333
 40
1.0
 40
1.0
 40
1.0
 40
1.0
 10
111.1630367908997
 20
103.4043581435703
 30
0.0
 10
111.0966356574128
 20
103.4114505678297
 30
0.0
 10
110.9638589450124
 20
103.4256326868185
 30
0.0
 10
110.7962606364273
 20
103.5424153202749
 30
0.0
 10
110.679478002971
 20
103.7100136288599
 30
0.0
 10
110.6652958839821
 20
103.8427903412604
 30
0.0
 10
110.6582034597228
 20
103.9091914747472
 30
0.0
  0
LINE
  5
AF
330
1F
100
AcDbEntity
  8
0
  6
Continuous
 62
     7
370
    25
100
AcDbLine
 10
127.5601272484
 20
102.3643604151
 30
0.0
 11
127.4261526522
 21
101.8325613738
 31
0.0
  0
LINE
  5
B0
330
1F
100
AcDbEntity
  8
0
  6
Continuous
 62
     7
370
    25
100
AcDbLine
 10
127.5601272484
 20
102.3643604151
 30
0.0
 11
127.5601272484
 21
100.7689632914
 31
0.0
  0
LINE
  5
B1
330
1F
100
AcDbEntity
  8
0
  6
Continuous
 62
     7
370
    25
100
AcDbLine
 10
127.4261526522
 20
101.8325613738
 30
0.0
 11
127.5601272484
 21
100.7689632914
 31
0.0
  0
LINE
  5
B2
330
1F
100
AcDbEntity
  8
0
  6
Continuous
 62
     7
370
    25
100
AcDbLine
 10
127.6941018446
 20
108.7607646041
 30
0.0
 11
127.5601272484
 21
108.2289655629
 31
0.0
  0
LINE
  5
B3
330
1F
100
AcDbEntity
  8
0
  6
Continuous
 62
     7
370
    25
100
AcDbLine
 10
132.3439929113
 20
108.7607646041
 30
0.0
 11
127.6941018446
 21
108.7607646041
 31
0.0
  0
SPLINE
  5
B4
330
1F
100
AcDbEntity
  8
0
  6
Continuous
 62
     7
370
    25
100
AcDbSpline
210
0.0
220
0.0
230
1.0
 70
     8
 71
     3
 72
    15
 73
    11
 74
     0
 42
0.000000001
 43
0.00000001
 40
0.0
 40
0.0
 40
0.0
 40
0.0
 40
0.1323065044264402
 40
0.2645755999739296
 40
0.3998036789671093
 40
0.5350073556765893
 40
0.6501969475405021
 40
0.7654045076453766
 40
0.8826909144168968
 40
0.9999999999999999
 40
0.9999999999999999
 40
0.9999999999999999
 40
0.9999999999999999
 10
132.3439929113476
 20
108.7607646041213
 30
0.0
 10
132.5071519932654
 20
108.4614357813507
 30
0.0
 10
132.8334240248387
 20
107.8628627692578
 30
0.0
 10
133.1844787278585
 20
106.941112992465
 30
0.0
 10
133.3955555133877
 20
106.0019878787145
 30
0.0
 10
133.4373528236733
 20
105.0968869806713
 30
0.0
 10
133.3288941909725
 20
104.2406902758867
 30
0.0
 10
133.1066682819117
 20
103.4326577670772
 30
0.0
 10
132.7806905086254
 20
102.6282786979673
 30
0.0
 10
132.4895681582319
 20
102.0978175754626
 30
0.0
 10
132.3439929113476
 20
101.8325613738458
 30
0.0
  0
LINE
  5
B5
330
1F
100
AcDbEntity
  8
0
  6
Continuous
 62
     7
370
    25
100
AcDbLine
 10
132.3439929113
 20
101.8325613738
 30
0.0
 11
127.6941018446
 21
101.8325613738
 31
0.0
  0
LINE
  5
B6
330
1F
100
AcDbEntity
  8
0
  6
Continuous
 62
     7
370
    25
100
AcDbLine
 10
127.5601272484
 20
102.3643604151
 30
0.0
 11
127.6941018446
 21
101.8325613738
 31
0.0
  0
LINE
  5
B7
330
1F
100
AcDbEntity
  8
0
  6
Continuous
 62
     7
370
    25
100
AcDbLine
 10
127.4261526522
 20
101.8325613738
 30
0.0
 11
122.7762615854
 21
101.8325613738
 31
0.0
  0
SPLINE
  5
B8
330
1F
100
AcDbEntity
  8
0
  6
Continuous
 62
     7
370
    25
100
AcDbSpline
210
0.0
220
0.0
230
1.0
 70
     8
 71
     3
 72
    15
 73
    11
 74
     0
 42
0.000000001
 43
0.00000001
 40
0.0
 40
0.0
 40
0.0
 40
0.0
 40
0.1323065044264403
 40
0.2645755999739297
 40
0.3998036789671093
 40
0.5350073556765894
 40
0.6501969475405022
 40
0.7654045076453766
 40
0.8826909144168968
 40
1.0
 40
1.0
 40
1.0
 40
1.0
 10
122.7762615853914
 20
108.7607646041213
 30
0.0
 10
122.6131025034737
 20
108.4614357813507
 30
0.0
 10
122.2868304719004
 20
107.8628627692578
 30
0.0
 10
121.9357757688805
 20
106.941112992465
 30
0.0
 10
121.7246989833514
 20
106.0019878787145
 30
0.0
 10
121.6829016730658
 20
105.0968869806713
 30
0.0
 10
121.7913603057665
 20
104.2406902758867
 30
0.0
 10
122.0135862148274
 20
103.4326577670772
 30
0.0
 10
122.3395639881137
 20
102.6282786979673
 30
0.0
 10
122.6306863385072
 20
102.0978175754626
 30
0.0
 10
122.7762615853914
 20
101.8325613738458
 30
0.0
  0
LINE
  5
B9
330
1F
100
AcDbEntity
  8
0
  6
Continuous
 62
     7
370
    25
100
AcDbLine
 10
127.4261526522
 20
108.7607646041
 30
0.0
 11
122.7762615854
 21
108.7607646041
 31
0.0
  0
LINE
  5
BA
330
1F
100
AcDbEntity
  8
0
  6
Continuous
 62
     7
370
    25
100
AcDbLine
 10
127.4261526522
 20
108.7607646041
 30
0.0
 11
127.5601272484
 21
108.2289655629
 31
0.0
  0
LINE
  5
BB
330
1F
100
AcDbEntity
  8
0
  6
Continuous
 62
     7
370
    25
100
AcDbLine
 10
127.6941018446
 20
101.8325613738
 30
0.0
 11
127.5601272484
 21
100.7689632914
 31
0.0
  0
SPLINE
  5
BC
330
1F
100
AcDbEntity
  8
0
  6
Continuous
 62
     7
370
    25
100
AcDbSpline
210
0.0
220
0.0
230
1.0
 70
     8
 71
     3
 72
    16
 73
    12
 74
     0
 42
0.000000001
 43
0.00000001
 40
0.0
 40
0.0
 40
0.0
 40
0.0
 40
0.0914549339022162
 40
0.1830622674787068
 40
0.2752604925693056
 40
0.3677249302510069
 40
0.4921330353590103
 40
0.6174134837141382
 40
0.745233520335259
 40
0.8737890192194769
 40
0.9999999999999999
 40
0.9999999999999999
 40
0.9999999999999999
 40
0.9999999999999999
 10
132.3439929113476
 20
101.8325613738458
 30
0.0
 10
132.4586945480772
 20
101.4193255781295
 30
0.0
 10
132.688288959306
 20
100.5921653743062
 30
0.0
 10
132.9693417283513
 20
99.33191629032738
 30
0.0
 10
133.1930456833541
 20
98.05550994040267
 30
0.0
 10
133.3637321811249
 20
96.61566925212747
 30
0.0
 10
133.4403990932229
 20
95.0113481403771
 30
0.0
 10
133.3745007219173
 20
93.24034496108763
 30
0.0
 10
133.1580320973983
 20
91.46231556828212
 30
0.0
 10
132.8151419627665
 20
89.69966276657001
 30
0.0
 10
132.5000761184851
 20
88.54712206786235
 30
0.0
 10
132.3439929113476
 20
87.97615491329482
 30
0.0
  0
LINE
  5
BD
330
1F
100
AcDbEntity
  8
0
  6
Continuous
 62
     7
370
    25
100
AcDbLine
 10
132.3439929113
 20
87.9761549133
 30
0.0
 11
127.6941018446
 21
87.9761549133
 31
0.0
  0
LINE
  5
BE
330
1F
100
AcDbEntity
  8
0
  6
Continuous
 62
     7
370
    25
100
AcDbLine
 10
127.5601272484
 20
89.0397529958
 30
0.0
 11
127.6941018446
 21
87.9761549133
 31
0.0
  0
LINE
  5
BF
330
1F
100
AcDbEntity
  8
0
  6
Continuous
 62
     7
370
    25
100
AcDbLine
 10
127.5601272484
 20
89.0397529958
 30
0.0
 11
127.4261526522
 21
87.9761549133
 31
0.0
  0
LINE
  5
C0
330
1F
100
AcDbEntity
  8
0
  6
Continuous
 62
     7
370
    25
100
AcDbLine
 10
127.4261526522
 20
87.9761549133
 30
0.0
 11
122.7762615854
 21
87.9761549133
 31
0.0
  0
SPLINE
  5
C1
330
1F
100
AcDbEntity
  8
0
  6
Continuous
 62
     7
370
    25
100
AcDbSpline
210
0.0
220
0.0
230
1.0
 70
     8
 71
     3
 72
    16
 73
    12
 74
     0
 42
0.000000001
 43
0.00000001
 40
0.0
 40
0.0
 40
0.0
 40
0.0
 40
0.0914549339022162
 40
0.1830622674787068
 40
0.2752604925693056
 40
0.3677249302510069
 40
0.4921330353590103
 40
0.6174134837141384
 40
0.745233520335259
 40
0.8737890192194772
 40
0.9999999999999999
 40
0.9999999999999999
 40
0.9999999999999999
 40
0.9999999999999999
 10
122.7762615853914
 20
101.8325613738458
 30
0.0
 10
122.6615599486618
 20
101.4193255781295
 30
0.0
 10
122.4319655374331
 20
100.5921653743062
 30
0.0
 10
122.1509127683878
 20
99.33191629032738
 30
0.0
 10
121.927208813385
 20
98.05550994040267
 30
0.0
 10
121.7565223156142
 20
96.61566925212747
 30
0.0
 10
121.6798554035161
 20
95.0113481403771
 30
0.0
 10
121.7457537748218
 20
93.24034496108763
 30
0.0
 10
121.9622223993408
 20
91.46231556828211
 30
0.0
 10
122.3051125339725
 20
89.69966276657001
 30
0.0
 10
122.6201783782539
 20
88.54712206786235
 30
0.0
 10
122.7762615853914
 20
87.97615491329482
 30
0.0
  0
SPLINE
  5
C2
330
1F
100
AcDbEntity
  8
0
  6
Continuous
 62
     7
370
    25
100
AcDbSpline
210
0.0
220
0.0
230
1.0
 70
     8
 71
     3
 72
    15
 73
    11
 74
     0
 42
0.000000001
 43
0.00000001
 40
0.0
 40
0.0
 40
0.0
 40
0.0
 40
0.13202976123994
 40
0.2645740184078837
 40
0.3992784260596375
 40
0.5350086679185999
 40
0.6498919368826491
 40
0.7654060347253147
 40
0.8825079804350991
 40
0.9999999999999999
 40
0.9999999999999999
 40
0.9999999999999999
 40
0.9999999999999999
 10
132.3439929113476
 20
87.97615491329482
 30
0.0
 10
132.5068917735525
 20
87.67745843367572
 30
0.0
 10
132.8333242851533
 20
87.07890150866929
 30
0.0
 10
133.1834814203935
 20
86.15833240844398
 30
0.0
 10
133.3967863616575
 20
85.21865885029834
 30
0.0
 10
133.4369824832324
 20
84.3142296804242
 30
0.0
 10
133.3297138746286
 20
83.4567710612493
 30
0.0
 10
133.1068819327026
 20
82.64919114522137
 30
0.0
 10
132.7809716097416
 20
81.84408293517097
 30
0.0
 10
132.489813852799
 20
81.31362277667743
 30
0.0
 10
132.3439929113476
 20
81.04795168301932
 30
0.0
  0
LINE
  5
C3
330
1F
100
AcDbEntity
  8
0
  6
Continuous
 62
     7
370
    25
100
AcDbLine
 10
133.5601272484
 20
106.6543581436
 30
0.0
 11
133.5601272484
 21
83.1543581436
 31
0.0
  0
SPLINE
  5
C4
330
1F
100
AcDbEntity
  8
0
  6
Continuous
 62
     7
370
    25
100
AcDbSpline
210
0.0
220
0.0
230
1.0
 70
     8
 71
     3
 72
    15
 73
    11
 74
     0
 42
0.000000001
 43
0.00000001
 40
0.0
 40
0.0
 40
0.0
 40
0.0
 40
0.1320297612399398
 40
0.2645740184078837
 40
0.3992784260596374
 40
0.5350086679185998
 40
0.649891936882649
 40
0.7654060347253145
 40
0.882507980435099
 40
1.0
 40
1.0
 40
1.0
 40
1.0
 10
122.7762615853914
 20
87.97615491329482
 30
0.0
 10
122.6133627231866
 20
87.67745843367572
 30
0.0
 10
122.2869302115857
 20
87.07890150866929
 30
0.0
 10
121.9367730763455
 20
86.15833240844398
 30
0.0
 10
121.7234681350815
 20
85.21865885029834
 30
0.0
 10
121.6832720135067
 20
84.3142296804242
 30
0.0
 10
121.7905406221105
 20
83.45677106124928
 30
0.0
 10
122.0133725640364
 20
82.64919114522137
 30
0.0
 10
122.3392828869974
 20
81.84408293517096
 30
0.0
 10
122.63044064394
 20
81.31362277667743
 30
0.0
 10
122.7762615853914
 20
81.04795168301932
 30
0.0
  0
LINE
  5
C5
330
1F
100
AcDbEntity
  8
0
  6
Continuous
 62
     7
370
    25
100
AcDbLine
 10
121.5601272484
 20
106.6543581436
 30
0.0
 11
121.5601272484
 21
83.1543581436
 31
0.0
  0
LINE
  5
C6
330
1F
100
AcDbEntity
  8
0
  6
Continuous
 62
     7
370
    25
100
AcDbLine
 10
127.5601272484
 20
89.0397529958
 30
0.0
 11
127.5601272484
 21
87.4443558721
 31
0.0
  0
LINE
  5
C7
330
1F
100
AcDbEntity
  8
0
  6
Continuous
 62
     7
370
    25
100
AcDbLine
 10
127.4261526522
 20
87.9761549133
 30
0.0
 11
127.5601272484
 21
87.4443558721
 31
0.0
  0
LINE
  5
C8
330
1F
100
AcDbEntity
  8
0
  6
Continuous
 62
     7
370
    25
100
AcDbLine
 10
127.6941018446
 20
87.9761549133
 30
0.0
 11
127.5601272484
 21
87.4443558721
 31
0.0
  0
LINE
  5
C9
330
1F
100
AcDbEntity
  8
0
  6
Continuous
 62
     7
370
    25
100
AcDbLine
 10
132.3439929113
 20
81.047951683
 30
0.0
 11
127.6941018446
 21
81.047951683
 31
0.0
  0
LINE
  5
CA
330
1F
100
AcDbEntity
  8
0
  6
Continuous
 62
     7
370
    25
100
AcDbLine
 10
127.5601272484
 20
81.5797507243
 30
0.0
 11
127.6941018446
 21
81.047951683
 31
0.0
  0
LINE
  5
CB
330
1F
100
AcDbEntity
  8
0
  6
Continuous
 62
     7
370
    25
100
AcDbLine
 10
127.5601272484
 20
81.5797507243
 30
0.0
 11
127.4261526522
 21
81.047951683
 31
0.0
  0
LINE
  5
CC
330
1F
100
AcDbEntity
  8
0
  6
Continuous
 62
     7
370
    25
100
AcDbLine
 10
127.4261526522
 20
81.047951683
 30
0.0
 11
122.7762615854
 21
81.047951683
 31
0.0
  0
LINE
  5
CD
330
1F
100
AcDbEntity
  8
0
  6
Continuous
 62
     7
370
    25
100
AcDbLine
 10
135.5601272484
 20
106.1543581436
 30
0.0
 11
135.5601272484
 21
83.6543581436
 31
0.0
  0
LINE
  5
CE
330
1F
100
AcDbEntity
  8
0
  6
Continuous
 62
     7
370
    25
100
AcDbLine
 10
135.0601272484
 20
83.1543581436
 30
0.0
 11
135.0601272484
 21
106.6543581436
 31
0.0
  0
LINE
  5
CF
330
1F
100
AcDbEntity
  8
0
  6
Continuous
 62
     7
370
    25
100
AcDbLine
 10
120.0601272484
 20
94.9043581436
 30
0.0
 11
120.0601272484
 21
83.1543581436
 31
0.0
  0
LINE
  5
D0
330
1F
100
AcDbEntity
  8
0
  6
Continuous
 62
     7
370
    25
100
AcDbLine
 10
120.0601272484
 20
106.6543581436
 30
0.0
 11
120.0601272484
 21
94.9043581436
 31
0.0
  0
LINE
  5
D1
330
1F
100
AcDbEntity
  8
0
  6
Continuous
 62
     7
370
    25
100
AcDbLine
 10
119.5601272484
 20
94.9043581436
 30
0.0
 11
119.5601272484
 21
106.1543581436
 31
0.0
  0
LINE
  5
D2
330
1F
100
AcDbEntity
  8
0
  6
Continuous
 62
     7
370
    25
100
AcDbLine
 10
119.5601272484
 20
83.6543581436
 30
0.0
 11
119.5601272484
 21
94.9043581436
 31
0.0
  0
LINE
  5
D3
330
1F
100
AcDbEntity
  8
0
  6
Continuous
 62
     7
370
    25
100
AcDbLine
 10
127.5601272484
 20
108.2607646041
 30
0.0
 11
127.5601272484
 21
108.2289655629
 31
0.0
  0
LINE
  5
D4
330
1F
100
AcDbEntity
  8
0
  6
Continuous
 62
     7
370
    25
100
AcDbLine
 10
127.5601272484
 20
81.5797507243
 30
0.0
 11
127.5601272484
 21
81.547951683
 31
0.0
  0
LINE
  5
D5
330
1F
100
AcDbEntity
  8
0
  6
Continuous
 62
     7
370
    25
100
AcDbLine
 10
142.0601272484
 20
86.9043581436
 30
0.0
 11
142.0601272484
 21
102.9043581436
 31
0.0
  0
LINE
  5
D6
330
1F
100
AcDbEntity
  8
0
  6
Continuous
 62
     7
370
    25
100
AcDbLine
 10
160.0601272484
 20
96.3487806484
 30
0.0
 11
160.0601272484
 21
102.7921562026
 31
0.0
  0
LINE
  5
D7
330
1F
100
AcDbEntity
  8
0
  6
Continuous
 62
     7
370
    25
100
AcDbLine
 10
160.0601272484
 20
87.0165600846
 30
0.0
 11
160.0601272484
 21
96.3487806484
 31
0.0
  0
LINE
  5
D8
330
1F
100
AcDbEntity
  8
0
  6
Continuous
 62
     7
370
    25
100
AcDbLine
 10
165.9640818868
 20
96.244580404
 30
0.0
 11
165.9640818868
 21
102.2231326084
 31
0.0
  0
LINE
  5
D9
330
1F
100
AcDbEntity
  8
0
  6
Continuous
 62
     7
370
    25
100
AcDbLine
 10
165.9640818868
 20
87.5855836788
 30
0.0
 11
165.9640818868
 21
96.244580404
 31
0.0
  0
LINE
  5
DA
330
1F
100
AcDbEntity
  8
0
  6
Continuous
 62
     7
370
    25
100
AcDbLine
 10
146.5601272484
 20
96.34771047
 30
0.0
 11
146.5601272484
 21
102.7863121014
 31
0.0
  0
LINE
  5
DB
330
1F
100
AcDbEntity
  8
0
  6
Continuous
 62
     7
370
    25
100
AcDbLine
 10
146.5601272484
 20
87.0224041857
 30
0.0
 11
146.5601272484
 21
96.34771047
 31
0.0
  0
LINE
  5
DC
330
1F
100
AcDbEntity
  8
0
  6
Continuous
 62
     7
370
    25
100
AcDbLine
 10
151.0601272484
 20
96.34771047
 30
0.0
 11
151.0601272484
 21
102.7863121014
 31
0.0
  0
LINE
  5
DD
330
1F
100
AcDbEntity
  8
0
  6
Continuous
 62
     7
370
    25
100
AcDbLine
 10
151.0601272484
 20
87.0224041857
 30
0.0
 11
151.0601272484
 21
96.34771047
 31
0.0
  0
LINE
  5
DE
330
1F
100
AcDbEntity
  8
0
  6
Continuous
 62
     7
370
    25
100
AcDbLine
 10
155.5601272484
 20
96.34771047
 30
0.0
 11
155.5601272484
 21
102.7863121014
 31
0.0
  0
LINE
  5
DF
330
1F
100
AcDbEntity
  8
0
  6
Continuous
 62
     7
370
    25
100
AcDbLine
 10
155.5601272484
 20
87.0224041857
 30
0.0
 11
155.5601272484
 21
96.34771047
 31
0.0
  0
LINE
  5
E0
330
1F
100
AcDbEntity
  8
0
  6
Continuous
 62
     7
370
    25
100
AcDbLine
 10
166.5601272484
 20
101.5543581436
 30
0.0
 11
166.5601272484
 21
88.2543581436
 31
0.0
  0
LINE
  5
E1
330
1F
100
AcDbEntity
  8
0
  6
Continuous
 62
     7
370
    25
100
AcDbLine
 10
117.3162093416
 20
84.4268581436
 30
0.0
 11
117.3162093416
 21
105.3818581436
 31
0.0
  0
LINE
  5
E2
330
1F
100
AcDbEntity
  8
0
  6
Continuous
 62
     7
370
    25
100
AcDbLine
 10
93.5881409597
 20
107.9920687408
 30
0.0
 11
110.7282659597
 21
107.9920687408
 31
0.0
  0
LINE
  5
E3
330
1F
100
AcDbEntity
  8
0
  6
Continuous
 62
     7
370
    25
100
AcDbLine
 10
110.3555756295
 20
120.8304487099
 30
0.0
 11
93.9608312899
 21
120.8304487099
 31
0.0
  0
LINE
  5
E4
330
1F
100
AcDbEntity
  8
0
  6
Continuous
 62
     7
370
    25
100
AcDbLine
 10
93.5881409597
 20
108.9043581436
 30
0.0
 11
110.7282659597
 21
108.9043581436
 31
0.0
  0
SPLINE
  5
E5
330
1F
100
AcDbEntity
  8
0
  6
Continuous
 62
     7
370
    25
100
AcDbSpline
210
0.0
220
0.0
230
1.0
 70
    24
 71
     3
 72
     8
 73
     4
 74
     0
 42
0.000000001
 43
0.00000001
 40
0.0
 40
0.0
 40
0.0
 40
0.0
 40
1.0
 40
1.0
 40
1.0
 40
1.0
 10
102.1582034597228
 20
103.4043581435703
 30
0.0
 10
103.1348568024856
 20
103.4043581435703
 30
0.0
 10
104.1112816368621
 20
103.4043581435703
 30
0.0
 10
105.0304847829918
 20
103.4043581435703
 30
0.0
  0
SPLINE
  5
E6
330
1F
100
AcDbEntity
  8
0
  6
Continuous
 62
     7
370
    25
100
AcDbSpline
210
0.0
220
0.0
230
1.0
 70
    24
 71
     3
 72
     8
 73
     4
 74
     0
 42
0.000000001
 43
0.00000001
 40
0.0
 40
0.0
 40
0.0
 40
0.0
 40
1.0
 40
1.0
 40
1.0
 40
1.0
 10
99.28592213645379
 20
103.4043581435703
 30
0.0
 10
100.2051252825835
 20
103.4043581435703
 30
0.0
 10
101.18155011696
 20
103.4043581435703
 30
0.0
 10
102.1582034597228
 20
103.4043581435703
 30
0.0
  0
SPLINE
  5
E7
330
1F
100
AcDbEntity
  8
0
  6
Continuous
 62
     7
370
    25
100
AcDbSpline
210
0.0
220
0.0
230
1.0
 70
     8
 71
     3
 72
     8
 73
     4
 74
     0
 42
0.000000001
 43
0.00000001
 40
0.0
 40
0.0
 40
0.0
 40
0.0
 40
1.0
 40
1.0
 40
1.0
 40
1.0
 10
95.26617908367771
 20
103.2147077667156
 30
0.0
 10
95.19411283733527
 20
103.1236758364366
 30
0.0
 10
95.13361987976907
 20
103.0137206062623
 30
0.0
 10
95.07487012638947
 20
102.9043581435703
 30
0.0
  0
LINE
  5
E8
330
1F
100
AcDbEntity
  8
0
  6
Continuous
 62
     7
370
    25
100
AcDbLine
 10
95.0748701264
 20
102.9043581436
 30
0.0
 11
95.0748701264
 21
90.9043581436
 31
0.0
  0
SPLINE
  5
E9
330
1F
100
AcDbEntity
  8
0
  6
Continuous
 62
     7
370
    25
100
AcDbSpline
210
0.0
220
0.0
230
1.0
 70
     8
 71
     3
 72
    10
 73
     6
 74
     0
 42
0.000000001
 43
0.00000001
 40
0.0
 40
0.0
 40
0.0
 40
0.0
 40
0.0280934765544326
 40
0.0280934765544326
 40
0.0561869531088653
 40
0.0561869531088653
 40
0.0561869531088653
 40
0.0561869531088653
 10
95.07487012638947
 20
90.90435814357032
 30
0.0
 10
95.07487012638947
 20
90.81071322172221
 30
0.0
 10
95.07844762063405
 20
90.71665731651765
 30
0.0
 10
95.09260909869458
 20
90.53038660441162
 30
0.0
 10
95.10318837054086
 20
90.43820413512749
 30
0.0
 10
95.11686937633266
 20
90.34820079549435
 30
0.0
  0
ELLIPSE
  5
EA
330
1F
100
AcDbEntity
  8
0
  6
Continuous
 62
     7
370
    25
100
AcDbEllipse
 10
107.1582034597
 20
93.3655072515
 30
0.0
 11
0.5653269642954513
 21
1.222133505507372E-12
 31
0.0
210
0.0
220
0.0
230
1.0
 40
0.9531667975
 41
0.4357918987532672
 42
2.705800754832189
  0
LINE
  5
EB
330
1F
100
AcDbEntity
  8
0
  6
Continuous
 62
     7
370
    25
100
AcDbLine
 10
105.5536184783
 20
90.5395200343
 30
0.0
 11
106.6457141902
 21
93.5929715263
 31
0.0
  0
ELLIPSE
  5
EC
330
1F
100
AcDbEntity
  8
0
  6
Continuous
 62
     7
370
    25
100
AcDbEllipse
 10
104.9967792131
 20
90.7204611817
 30
0.0
 11
-0.588307735200658
 21
1.421085471520200E-14
 31
0.0
210
0.0
220
0.0
230
1.0
 40
0.9531667975
 41
1.047197551197041
 42
2.813039483038253
  0
LINE
  5
ED
330
1F
100
AcDbEntity
  8
0
  6
Continuous
 62
     7
370
    25
100
AcDbLine
 10
104.6578955851
 20
90.259448044
 30
0.0
 11
104.7026253455
 21
90.23483276
 31
0.0
  0
LINE
  5
EE
330
1F
100
AcDbEntity
  8
0
  6
Continuous
 62
     7
370
    25
100
AcDbLine
 10
105.3484057134
 20
88.9431053887
 30
0.0
 11
104.6578955851
 21
90.259448044
 31
0.0
  0
ELLIPSE
  5
EF
330
1F
100
AcDbEntity
  8
0
  6
Continuous
 62
     7
370
    25
100
AcDbEllipse
 10
105.4141805178
 20
88.9744525686
 30
0.0
 11
0.07353846690023147
 21
1.421085471520200E-14
 31
0.0
210
0.0
220
0.0
230
1.0
 40
0.9531667975
 41
3.605240262590435
 42
5.462183310215104
  0
ELLIPSE
  5
F0
330
1F
100
AcDbEntity
  8
0
  6
Continuous
 62
     7
370
    25
100
AcDbEllipse
 10
107.1582034597
 20
87.1893122294
 30
0.0
 11
2.48560018122744
 21
-1.563194018672220E-13
 31
0.0
210
0.0
220
0.0
230
1.0
 40
0.9531667975
 41
0.8210019969645094
 42
2.320590656625372
  0
ELLIPSE
  5
F1
330
1F
100
AcDbEntity
  8
0
  6
Continuous
 62
     7
370
    25
100
AcDbEllipse
 10
108.9022264017
 20
88.9744525686
 30
0.0
 11
0.07353846690017463
 21
4.263256414560602E-14
 31
0.0
210
0.0
220
0.0
230
1.0
 40
0.9531667975
 41
3.962594650553373
 42
5.819537698178256
  0
LINE
  5
F2
330
1F
100
AcDbEntity
  8
0
  6
Continuous
 62
     7
370
    25
100
AcDbLine
 10
109.6585113343
 20
90.259448044
 30
0.0
 11
108.968001206
 21
88.9431053887
 31
0.0
  0
LINE
  5
F3
330
1F
100
AcDbEntity
  8
0
  6
Continuous
 62
     7
370
    25
100
AcDbLine
 10
109.6223929125
 20
90.2388077988
 30
0.0
 11
109.6585113343
 21
90.259448044
 31
0.0
  0
ELLIPSE
  5
F4
330
1F
100
AcDbEntity
  8
0
  6
Continuous
 62
     7
370
    25
100
AcDbEllipse
 10
109.3198822639
 20
90.7197494498
 30
0.0
 11
-0.5883077352016102
 21
-1.563194018672220E-13
 31
0.0
210
0.0
220
0.0
230
1.0
 40
0.9531667975
 41
0.3285531705512157
 42
2.11087652694759
  0
LINE
  5
F5
330
1F
100
AcDbEntity
  8
0
  6
Continuous
 62
     7
370
    25
100
AcDbLine
 10
107.6706927293
 20
93.5929715263
 30
0.0
 11
108.7630429988
 21
90.5388083024
 31
0.0
  0
SPLINE
  5
F6
330
1F
100
AcDbEntity
  8
0
  6
Continuous
 62
     7
370
    25
100
AcDbSpline
210
0.0
220
0.0
230
1.0
 70
     8
 71
     3
 72
    10
 73
     6
 74
     0
 42
0.000000001
 43
0.00000001
 40
-0.2904940295525288
 40
-0.2904940295525288
 40
-0.2904940295525288
 40
-0.2904940295525288
 40
-0.1303072746110114
 40
-0.1303072746110114
 40
0.001056361752625
 40
0.001056361752625
 40
0.001056361752625
 40
0.001056361752625
 10
110.6582034597228
 20
94.90435814357033
 30
0.0
 10
110.5287001439485
 20
94.38634488047322
 30
0.0
 10
110.3969091657989
 20
93.86241907682913
 30
0.0
 10
110.2184852263581
 20
92.90401661323394
 30
0.0
 10
110.1582034597228
 20
92.4699556081801
 30
0.0
 10
110.1582034597228
 20
92.03207682030131
 30
0.0
  0
LINE
  5
F7
330
1F
100
AcDbEntity
  8
0
  6
Continuous
 62
     7
370
    25
100
AcDbLine
 10
110.1582034597
 20
92.0320768203
 30
0.0
 11
110.1582034597
 21
88.4043581436
 31
0.0
  0
LINE
  5
F8
330
1F
100
AcDbEntity
  8
0
  6
Continuous
 62
     7
370
    25
100
AcDbLine
 10
110.1582034597
 20
88.4043581436
 30
0.0
 11
98.1582034597
 21
88.4043581436
 31
0.0
  0
ARC
  5
F9
330
1F
100
AcDbEntity
  8
0
  6
Continuous
 62
     7
370
    25
100
AcDbCircle
 10
98.1582034597
 20
90.9043581436
 30
0.0
 40
2.5
100
AcDbArc
 50
180.0
 51
270.0
  0
LINE
  5
FA
330
1F
100
AcDbEntity
  8
0
  6
Continuous
 62
     7
370
    25
100
AcDbLine
 10
95.6582034597
 20
90.9043581436
 30
0.0
 11
95.6582034597
 21
102.9043581436
 31
0.0
  0
LINE
  5
FB
330
1F
100
AcDbEntity
  8
0
  6
Continuous
 62
     7
370
    25
100
AcDbLine
 10
95.6582034597
 20
102.9043581436
 30
0.0
 11
99.2859221365
 21
102.9043581436
 31
0.0
  0
SPLINE
  5
FC
330
1F
100
AcDbEntity
  8
0
  6
Continuous
 62
     7
370
    25
100
AcDbSpline
210
0.0
220
0.0
230
1.0
 70
     8
 71
     3
 72
    10
 73
     6
 74
     0
 42
0.000000001
 43
0.00000001
 40
-0.8711658249657241
 40
-0.8711658249657241
 40
-0.8711658249657241
 40
-0.8711658249657241
 40
-0.7398021886020881
 40
-0.7398021886020881
 40
-0.5796154507864705
 40
-0.5796154507864705
 40
-0.5796154507864705
 40
-0.5796154507864705
 10
99.28592213645379
 20
102.9043581435703
 30
0.0
 10
99.72380092433258
 20
102.9043581435703
 30
0.0
 10
100.157861929387
 20
102.9646399102057
 30
0.0
 10
101.1162643366846
 20
103.1430638391657
 30
0.0
 10
101.6401902519921
 20
103.2748548416376
 30
0.0
 10
102.1582034597228
 20
103.4043581435703
 30
0.0
  0
SPLINE
  5
FD
330
1F
100
AcDbEntity
  8
0
  6
Continuous
 62
     7
370
    25
100
AcDbSpline
210
0.0
220
0.0
230
1.0
 70
     8
 71
     3
 72
    10
 73
     6
 74
     0
 42
0.000000001
 43
0.00000001
 40
-0.2904940295525327
 40
-0.2904940295525327
 40
-0.2904940295525327
 40
-0.2904940295525327
 40
-0.130307291676468
 40
-0.130307291676468
 40
0.0010563446871674
 40
0.0010563446871674
 40
0.0010563446871674
 40
0.0010563446871674
 10
102.1582034597228
 20
103.4043581435703
 30
0.0
 10
102.676216667649
 20
103.2748548415888
 30
0.0
 10
103.2001425825623
 20
103.1430638392027
 30
0.0
 10
104.1585449900587
 20
102.9646399102057
 30
0.0
 10
104.592605995113
 20
102.9043581435703
 30
0.0
 10
105.0304847829918
 20
102.9043581435703
 30
0.0
  0
LINE
  5
FE
330
1F
100
AcDbEntity
  8
0
  6
Continuous
 62
     7
370
    25
100
AcDbLine
 10
105.030484783
 20
102.9043581436
 30
0.0
 11
108.6582034597
 21
102.9043581436
 31
0.0
  0
ARC
  5
FF
330
1F
100
AcDbEntity
  8
0
  6
Continuous
 62
     7
370
    25
100
AcDbCircle
 10
110.1582034597
 20
102.9043581436
 30
0.0
 40
1.5
100
AcDbArc
 50
180.0
 51
270.0
  0
LINE
  5
100
330
1F
100
AcDbEntity
  8
0
  6
Continuous
 62
     7
370
    25
100
AcDbLine
 10
110.1582034597
 20
101.4043581436
 30
0.0
 11
110.1582034597
 21
97.7766394668
 31
0.0
  0
SPLINE
  5
101
330
1F
100
AcDbEntity
  8
0
  6
Continuous
 62
     7
370
    25
100
AcDbSpline
210
0.0
220
0.0
230
1.0
 70
     8
 71
     3
 72
    10
 73
     6
 74
     0
 42
0.000000001
 43
0.00000001
 40
-0.8711658421011628
 40
-0.8711658421011628
 40
-0.8711658421011628
 40
-0.8711658421011628
 40
-0.739802205737527
 40
-0.739802205737527
 40
-0.579615450786466
 40
-0.579615450786466
 40
-0.579615450786466
 40
-0.579615450786466
 10
110.1582034597228
 20
97.77663946683934
 30
0.0
 10
110.1582034597228
 20
97.33876067896055
 30
0.0
 10
110.2184852263581
 20
96.9046996739067
 30
0.0
 10
110.3969091658047
 20
95.94629721028016
 30
0.0
 10
110.5287001439408
 20
95.42237140669826
 30
0.0
 10
110.6582034597228
 20
94.90435814357033
 30
0.0
  0
SPLINE
  5
102
330
1F
100
AcDbEntity
  8
0
  6
Continuous
 62
     7
370
    25
100
AcDbSpline
210
0.0
220
0.0
230
1.0
 70
    24
 71
     3
 72
     8
 73
     4
 74
     0
 42
0.000000001
 43
0.00000001
 40
0.0
 40
0.0
 40
0.0
 40
0.0
 40
1.0
 40
1.0
 40
1.0
 40
1.0
 10
110.6582034597228
 20
94.90435814357033
 30
0.0
 10
110.6582034597228
 20
93.9277048008075
 30
0.0
 10
110.6582034597228
 20
92.95127996643103
 30
0.0
 10
110.6582034597228
 20
92.03207682030131
 30
0.0
  0
SPLINE
  5
103
330
1F
100
AcDbEntity
  8
0
  6
Continuous
 62
     7
370
    25
100
AcDbSpline
210
0.0
220
0.0
230
1.0
 70
    24
 71
     3
 72
     8
 73
     4
 74
     0
 42
0.000000001
 43
0.00000001
 40
0.0
 40
0.0
 40
0.0
 40
0.0
 40
1.0
 40
1.0
 40
1.0
 40
1.0
 10
110.6582034597228
 20
97.77663946683934
 30
0.0
 10
110.6582034597228
 20
96.85743632070961
 30
0.0
 10
110.6582034597228
 20
95.88101148633315
 30
0.0
 10
110.6582034597228
 20
94.90435814357033
 30
0.0
  0
SPLINE
  5
104
330
1F
100
AcDbEntity
  8
0
  6
Continuous
 62
     7
370
    25
100
AcDbSpline
210
0.0
220
0.0
230
1.0
 70
     8
 71
     3
 72
    10
 73
     6
 74
     0
 42
0.000000001
 43
0.00000001
 40
0.0
 40
0.0
 40
0.0
 40
0.0
 40
0.0280934765544328
 40
0.0280934765544328
 40
0.0561869531088657
 40
0.0561869531088657
 40
0.0561869531088657
 40
0.0561869531088657
 10
97.60204611164683
 20
87.86302406018018
 30
0.0
 10
97.69204945127997
 20
87.84934305438838
 30
0.0
 10
97.7842319205641
 20
87.83876378254209
 30
0.0
 10
97.97050263267012
 20
87.82460230448157
 30
0.0
 10
98.0645585378747
 20
87.82102481023699
 30
0.0
 10
98.15820345972281
 20
87.82102481023699
 30
0.0
  0
LINE
  5
105
330
1F
100
AcDbEntity
  8
0
  6
Continuous
 62
     7
370
    25
100
AcDbLine
 10
98.1582000266
 20
87.8210248102
 30
0.0
 11
110.1582034597
 21
87.8210248102
 31
0.0
  0
SPLINE
  5
106
330
1F
100
AcDbEntity
  8
0
  6
Continuous
 62
     7
370
    25
100
AcDbSpline
210
0.0
220
0.0
230
1.0
 70
     8
 71
     3
 72
     8
 73
     4
 74
     0
 42
0.000000001
 43
0.00000001
 40
0.0
 40
0.0
 40
0.0
 40
0.0
 40
1.0
 40
1.0
 40
1.0
 40
1.0
 10
110.4685530828681
 20
88.0123337675252
 30
0.0
 10
110.3775211525891
 20
87.94026752118278
 30
0.0
 10
110.2675659224175
 20
87.87977456361503
 30
0.0
 10
110.1582034597228
 20
87.82102481023699
 30
0.0
  0
LINE
  5
107
330
1F
100
AcDbEntity
  8
0
  6
Continuous
 62
     7
370
    25
100
AcDbLine
 10
110.6582034597
 20
97.7766394668
 30
0.0
 11
110.6582034597
 21
101.4043581436
 31
0.0
  0
SPLINE
  5
108
330
1F
100
AcDbEntity
  8
0
  6
Continuous
 62
     7
370
    25
100
AcDbSpline
210
0.0
220
0.0
230
1.0
 70
    24
 71
     3
 72
    10
 73
     6
 74
     0
 42
0.000000001
 43
0.00000001
 40
0.0
 40
0.0
 40
0.0
 40
0.0
 40
0.5
 40
0.5
 40
1.0
 40
1.0
 40
1.0
 40
1.0
 10
110.1582034597228
 20
97.77663946683934
 30
0.0
 10
110.2891031536224
 20
97.77663946683934
 30
0.0
 10
110.4191967891044
 20
97.77663946683934
 30
0.0
 10
110.6043169115277
 20
97.77663946683934
 30
0.0
 10
110.6582034597228
 20
97.77663946683934
 30
0.0
 10
110.6582034597228
 20
97.77663946683934
 30
0.0
  0
LINE
  5
109
330
1F
100
AcDbEntity
  8
0
  6
Continuous
 62
     7
370
    25
100
AcDbLine
 10
110.1582034597
 20
101.4043581436
 30
0.0
 11
110.6582034597
 21
101.4043581436
 31
0.0
  0
LINE
  5
10A
330
1F
100
AcDbEntity
  8
0
  6
Continuous
 62
     7
370
    25
100
AcDbLine
 10
109.1582034597
 20
103.4043581436
 30
0.0
 11
105.030484783
 21
103.4043581436
 31
0.0
  0
LINE
  5
10B
330
1F
100
AcDbEntity
  8
0
  6
Continuous
 62
     7
370
    25
100
AcDbLine
 10
108.6582034597
 20
102.9043581436
 30
0.0
 11
109.1582034597
 21
103.4043581436
 31
0.0
  0
SPLINE
  5
10C
330
1F
100
AcDbEntity
  8
0
  6
Continuous
 62
     7
370
    25
100
AcDbSpline
210
0.0
220
0.0
230
1.0
 70
    24
 71
     3
 72
    10
 73
     6
 74
     0
 42
0.000000001
 43
0.00000001
 40
0.0
 40
0.0
 40
0.0
 40
0.0
 40
0.5
 40
0.5
 40
1.0
 40
1.0
 40
1.0
 40
1.0
 10
105.0304847829918
 20
103.4043581435703
 30
0.0
 10
105.0304847829918
 20
103.4043581435703
 30
0.0
 10
105.0304847829918
 20
103.3504715953752
 30
0.0
 10
105.0304847829918
 20
103.165351472952
 30
0.0
 10
105.0304847829918
 20
103.0352578374699
 30
0.0
 10
105.0304847829918
 20
102.9043581435703
 30
0.0
  0
SPLINE
  5
10D
330
1F
100
AcDbEntity
  8
0
  6
Continuous
 62
     7
370
    25
100
AcDbSpline
210
0.0
220
0.0
230
1.0
 70
    24
 71
     3
 72
    10
 73
     6
 74
     0
 42
0.000000001
 43
0.00000001
 40
0.0
 40
0.0
 40
0.0
 40
0.0
 40
0.5
 40
0.5
 40
1.0
 40
1.0
 40
1.0
 40
1.0
 10
110.6582034597228
 20
92.03207682030131
 30
0.0
 10
110.6582034597228
 20
92.03207682030131
 30
0.0
 10
110.6043169115277
 20
92.03207682030131
 30
0.0
 10
110.4191967891044
 20
92.03207682030131
 30
0.0
 10
110.2891031536224
 20
92.03207682030131
 30
0.0
 10
110.1582034597228
 20
92.03207682030131
 30
0.0
  0
LINE
  5
10E
330
1F
100
AcDbEntity
  8
0
  6
Continuous
 62
     7
370
    25
100
AcDbLine
 10
110.6582034597
 20
88.4043581436
 30
0.0
 11
110.6582034597
 21
92.0320768203
 31
0.0
  0
LINE
  5
10F
330
1F
100
AcDbEntity
  8
0
  6
Continuous
 62
     7
370
    25
100
AcDbLine
 10
110.1582034597
 20
88.4043581436
 30
0.0
 11
110.6582034597
 21
88.4043581436
 31
0.0
  0
SPLINE
  5
110
330
1F
100
AcDbEntity
  8
0
  6
Continuous
 62
     7
370
    25
100
AcDbSpline
210
0.0
220
0.0
230
1.0
 70
    24
 71
     3
 72
    10
 73
     6
 74
     0
 42
0.000000001
 43
0.00000001
 40
0.0
 40
0.0
 40
0.0
 40
0.0
 40
0.5
 40
0.5
 40
1.0
 40
1.0
 40
1.0
 40
1.0
 10
99.28592213645379
 20
102.9043581435703
 30
0.0
 10
99.28592213645379
 20
103.0352578374699
 30
0.0
 10
99.28592213645379
 20
103.165351472952
 30
0.0
 10
99.28592213645379
 20
103.3504715953752
 30
0.0
 10
99.28592213645379
 20
103.4043581435703
 30
0.0
 10
99.28592213645379
 20
103.4043581435703
 30
0.0
  0
LINE
  5
111
330
1F
100
AcDbEntity
  8
0
  6
Continuous
 62
     7
370
    25
100
AcDbLine
 10
95.6582034597
 20
103.4043581436
 30
0.0
 11
95.6582034597
 21
102.9043581436
 31
0.0
  0
LINE
  5
112
330
1F
100
AcDbEntity
  8
0
  6
Continuous
 62
     7
370
    25
100
AcDbLine
 10
99.2859221365
 20
103.4043581436
 30
0.0
 11
95.6582034597
 21
103.4043581436
 31
0.0
  0
ELLIPSE
  5
113
330
1F
100
AcDbEntity
  8
0
  6
Continuous
 62
     7
370
    25
100
AcDbEllipse
 10
106.8948625711
 20
90.609920169
 30
0.0
 11
-0.07353846690023147
 21
1.421085471520200E-14
 31
0.0
210
0.0
220
0.0
230
1.0
 40
0.9531667975
 41
5.940161364898129
 42
7.853981633974668
  0
LINE
  5
114
330
1F
100
AcDbEntity
  8
0
  6
Continuous
 62
     7
370
    25
100
AcDbLine
 10
107.0889492051
 20
91.3363172921
 30
0.0
 11
106.8256083147
 21
90.6334954755
 31
0.0
  0
ELLIPSE
  5
115
330
1F
100
AcDbEntity
  8
0
  6
Continuous
 62
     7
370
    25
100
AcDbEllipse
 10
107.1582034615
 20
91.3127419857
 30
0.0
 11
0.07353846690021726
 21
0.0
 31
0.0
210
0.0
220
0.0
230
1.0
 40
0.9531667975
 41
0.3430239394902994
 42
2.798568712238662
  0
LINE
  5
116
330
1F
100
AcDbEntity
  8
0
  6
Continuous
 62
     7
370
    25
100
AcDbLine
 10
107.4907986052
 20
90.6334954752
 30
0.0
 11
107.2274577179
 21
91.336317292
 31
0.0
  0
ELLIPSE
  5
117
330
1F
100
AcDbEntity
  8
0
  6
Continuous
 62
     7
370
    25
100
AcDbEllipse
 10
107.4215443488
 20
90.609920169
 30
0.0
 11
0.07353846690020305
 21
2.842170943040401E-14
 31
0.0
210
0.0
220
0.0
230
1.0
 40
0.9531667975
 41
4.712388980384334
 42
6.626209245738942
  0
LINE
  5
118
330
1F
100
AcDbEntity
  8
0
  6
Continuous
 62
     7
370
    25
100
AcDbLine
 10
106.8948625711
 20
90.539825744
 30
0.0
 11
107.4215443488
 21
90.539825744
 31
0.0
  0
LINE
  5
119
330
1F
100
AcDbEntity
  8
0
  6
Continuous
 62
     7
370
    25
100
AcDbLine
 10
95.6582034597
 20
90.9043581436
 30
0.0
 11
95.1582034597
 21
90.9043581436
 31
0.0
  0
LINE
  5
11A
330
1F
100
AcDbEntity
  8
0
  6
Continuous
 62
     7
370
    25
100
AcDbLine
 10
95.1582034597
 20
102.9043581436
 30
0.0
 11
95.1582034597
 21
90.9043581436
 31
0.0
  0
LINE
  5
11B
330
1F
100
AcDbEntity
  8
0
  6
Continuous
 62
     7
370
    25
100
AcDbLine
 10
95.6582034597
 20
102.9043581436
 30
0.0
 11
95.1582034597
 21
102.9043581436
 31
0.0
  0
LINE
  5
11C
330
1F
100
AcDbEntity
  8
0
  6
Continuous
 62
     7
370
    25
100
AcDbLine
 10
98.1582034597
 20
88.4043581436
 30
0.0
 11
98.1582034597
 21
87.9043581436
 31
0.0
  0
LINE
  5
11D
330
1F
100
AcDbEntity
  8
0
  6
Continuous
 62
     7
370
    25
100
AcDbLine
 10
110.1582034597
 20
87.9043581436
 30
0.0
 11
110.1582034597
 21
88.4043581436
 31
0.0
  0
LINE
  5
11E
330
1F
100
AcDbEntity
  8
0
  6
Continuous
 62
     7
370
    25
100
AcDbLine
 10
98.1582034597
 20
87.9043581436
 30
0.0
 11
110.1582034597
 21
87.9043581436
 31
0.0
  0
LINE
  5
11F
330
1F
100
AcDbEntity
  8
0
  6
Continuous
 62
     7
370
    25
100
AcDbLine
 10
110.1582034597
 20
101.4043581436
 30
0.0
 11
110.1582034597
 21
101.9043581436
 31
0.0
  0
ARC
  5
120
330
1F
100
AcDbEntity
  8
0
  6
Continuous
 62
     7
370
    25
100
AcDbCircle
 10
110.1582034597
 20
101.4043581436
 30
0.0
 40
0.5
100
AcDbArc
 50
0.0
 51
90.0
  0
ARC
  5
121
330
1F
100
AcDbEntity
  8
0
  6
Continuous
 62
     7
370
    25
100
AcDbCircle
 10
98.1582034597
 20
90.9043581436
 30
0.0
 40
3.0
100
AcDbArc
 50
180.0
 51
270.0
  0
ARC
  5
122
330
1F
100
AcDbEntity
  8
0
  6
Continuous
 62
     7
370
    25
100
AcDbCircle
 10
110.1582034597
 20
88.4043581436
 30
0.0
 40
0.5
100
AcDbArc
 50
270.0
 51
0.0
  0
LINE
  5
123
330
1F
100
AcDbEntity
  8
0
  6
Continuous
 62
     7
370
    25
100
AcDbLine
 10
108.6582034597
 20
102.9043581436
 30
0.0
 11
109.1582034597
 21
102.9043581436
 31
0.0
  0
ARC
  5
124
330
1F
100
AcDbEntity
  8
0
  6
Continuous
 62
     7
370
    25
100
AcDbCircle
 10
110.1582034597
 20
102.9043581436
 30
0.0
 40
1.0
100
AcDbArc
 50
180.0
 51
270.0
  0
LINE
  5
125
330
1F
100
AcDbEntity
  8
0
  6
Continuous
 62
     7
370
    25
100
AcDbLine
 10
109.1582034597
 20
102.9043581436
 30
0.0
 11
109.1582034597
 21
103.4043581436
 31
0.0
  0
ARC
  5
126
330
1F
100
AcDbEntity
  8
0
  6
Continuous
 62
     7
370
    25
100
AcDbCircle
 10
95.6582034597
 20
102.9043581436
 30
0.0
 40
0.5
100
AcDbArc
 50
90.0
 51
180.0
  0
LINE
  5
127
330
1F
100
AcDbEntity
  8
0
  6
Continuous
 62
     7
370
    25
100
AcDbLine
 10
102.1582034597
 20
122.9043581436
 30
0.0
 11
109.1582034597
 21
122.9043581436
 31
0.0
  0
LINE
  5
128
330
1F
100
AcDbEntity
  8
0
  6
Continuous
 62
     7
370
    25
100
AcDbLine
 10
95.1582034597
 20
122.9043581436
 30
0.0
 11
102.1582034597
 21
122.9043581436
 31
0.0
  0
LWPOLYLINE
  5
129
330
1F
100
AcDbEntity
  8
0
  6
Continuous
 62
     7
370
    25
100
AcDbPolyline
 90
        9
 70
   128
 43
0.0
 10
97.6814971614
 20
87.9424751099
 10
97.6726177686
 20
87.9424177167
 10
97.6633240869
 20
87.9394627181
 10
97.6536706744
 20
87.9336274614
 10
97.6437142014
 20
87.9249462023
 10
97.633513117
 20
87.913469904
 10
97.6231273064
 20
87.8992659376
 10
97.6126177393
 20
87.8824176873
 10
97.6020461116
 20
87.8630240602
  0
SPLINE
  5
12A
330
1F
100
AcDbEntity
  8
0
  6
Continuous
 62
     7
370
    25
100
AcDbSpline
210
0.0
220
0.0
230
1.0
 70
     8
 71
     3
 72
    14
 73
    10
 74
     0
 42
0.000000001
 43
0.00000001
 40
-0.4399100083495733
 40
-0.4399100083495733
 40
-0.4399100083495733
 40
-0.4399100083495733
 40
-0.2980125372576002
 40
-0.2980125372576002
 40
-0.1727985319285605
 40
-0.1727985319285605
 40
-0.0664609738186771
 40
-0.0664609738186771
 40
0.0
 40
0.0
 40
0.0
 40
0.0
 10
95.11686937633266
 20
90.34820079549435
 30
0.0
 10
95.17449416390843
 20
89.9534559834028
 30
0.0
 10
95.31391155122948
 20
89.56483513245243
 30
0.0
 10
95.71681590971066
 20
88.91470934605071
 30
0.0
 10
95.96318560219818
 20
88.64390761468891
 30
0.0
 10
96.49505382725559
 20
88.24209308343347
 30
0.0
 10
96.76538122579633
 20
88.09795325727526
 30
0.0
 10
97.23215482727853
 20
87.93495252885087
 30
0.0
 10
97.41715821745406
 20
87.89001396682833
 30
0.0
 10
97.60204611164683
 20
87.86302406018018
 30
0.0
  0
LWPOLYLINE
  5
12B
330
1F
100
AcDbEntity
  8
0
  6
Continuous
 62
     7
370
    25
100
AcDbPolyline
 90
        9
 70
   128
 43
0.0
 10
95.1963204261
 20
90.4276518452
 10
95.1962630328
 20
90.4187724525
 10
95.1933080342
 20
90.4094787707
 10
95.1874727775
 20
90.3998253583
 10
95.1787915185
 20
90.3898688853
 10
95.1673152201
 20
90.3796678009
 10
95.1531112538
 20
90.3692819903
 10
95.1362630035
 20
90.3587724231
 10
95.1168693763
 20
90.3482007955
  0
LINE
  5
12C
330
1F
100
AcDbEntity
  8
0
  6
Continuous
 62
     7
370
    25
100
AcDbLine
 10
95.1582034597
 20
90.9043581436
 30
0.0
 11
95.0748701264
 21
90.9043581436
 31
0.0
  0
LWPOLYLINE
  5
12D
330
1F
100
AcDbEntity
  8
0
  6
Continuous
 62
     7
370
    25
100
AcDbPolyline
 90
        9
 70
   128
 43
0.0
 10
98.1582034597
 20
87.9043581436
 10
98.1582034597
 20
87.9030187906
 10
98.1582034597
 20
87.899007907
 10
98.1582034597
 20
87.8923469809
 10
98.1582034597
 20
87.8830716974
 10
98.1582034597
 20
87.8712317483
 10
98.1582034597
 20
87.8568905649
 10
98.1582034597
 20
87.8401249788
 10
98.1582000266
 20
87.8210248102
  0
LINE
  5
12E
330
1F
100
AcDbEntity
  8
0
  6
Continuous
 62
     7
370
    25
100
AcDbLine
 10
95.1582034597
 20
102.9043581436
 30
0.0
 11
95.0748701264
 21
102.9043581436
 31
0.0
  0
LINE
  5
12F
330
1F
100
AcDbEntity
  8
0
  6
Continuous
 62
     7
370
    25
100
AcDbLine
 10
110.1582034597
 20
87.8210248102
 30
0.0
 11
110.1582034597
 21
87.9043581436
 31
0.0
  0
LINE
  5
130
330
1F
100
AcDbEntity
  8
0
  6
Continuous
 62
     7
370
    25
100
AcDbLine
 10
95.1889367035
 20
90.4865330222
 30
0.0
 11
95.1963204261
 21
90.4276518452
 31
0.0
  0
LINE
  5
131
330
1F
100
AcDbEntity
  8
0
  6
Continuous
 62
     8
370
    25
100
AcDbLine
 10
160.1715896592
 20
96.3669720652
 30
0.0
 11
160.1715896592
 21
86.917219191
 31
0.0
  0
LINE
  5
132
330
1F
100
AcDbEntity
  8
0
  6
Continuous
 62
     8
370
    25
100
AcDbLine
 10
160.1715896592
 20
102.8914970962
 30
0.0
 11
160.1715896592
 21
96.3669720652
 31
0.0
  0
LINE
  5
133
330
1F
100
AcDbEntity
  8
0
  6
Continuous
 62
     8
370
    25
100
AcDbLine
 10
146.6765671471
 20
96.3657734271
 30
0.0
 11
146.6765671471
 21
86.9237647934
 31
0.0
  0
LINE
  5
134
330
1F
100
AcDbEntity
  8
0
  6
Continuous
 62
     8
370
    25
100
AcDbLine
 10
146.6765671471
 20
102.8849514938
 30
0.0
 11
146.6765671471
 21
96.3657734271
 31
0.0
  0
LINE
  5
135
330
1F
100
AcDbEntity
  8
0
  6
Continuous
 62
     8
370
    25
100
AcDbLine
 10
151.1765671471
 20
96.3657734271
 30
0.0
 11
151.1765671471
 21
86.9237647934
 31
0.0
  0
LINE
  5
136
330
1F
100
AcDbEntity
  8
0
  6
Continuous
 62
     8
370
    25
100
AcDbLine
 10
151.1765671471
 20
102.8849514938
 30
0.0
 11
151.1765671471
 21
96.3657734271
 31
0.0
  0
LINE
  5
137
330
1F
100
AcDbEntity
  8
0
  6
Continuous
 62
     8
370
    25
100
AcDbLine
 10
155.6765671471
 20
96.3657734271
 30
0.0
 11
155.6765671471
 21
86.9237647934
 31
0.0
  0
LINE
  5
138
330
1F
100
AcDbEntity
  8
0
  6
Continuous
 62
     8
370
    25
100
AcDbLine
 10
155.6765671471
 20
102.8849514938
 30
0.0
 11
155.6765671471
 21
96.3657734271
 31
0.0
  0
LINE
  5
139
330
1F
100
AcDbEntity
  8
0
  6
Continuous
 62
     8
370
    25
100
AcDbLine
 10
116.8907748472
 20
104.7793581436
 30
0.0
 11
116.8907748472
 21
85.0293581436
 31
0.0
  0
LINE
  5
13A
330
1F
100
AcDbEntity
  8
0
  6
Continuous
 62
     8
370
    25
100
AcDbLine
 10
114.6582034597
 20
103.4043581436
 30
0.0
 11
114.6582034597
 21
86.4043581436
 31
0.0
  0
LINE
  5
13B
330
1F
100
AcDbEntity
  8
0
  6
Continuous
 62
     8
370
    25
100
AcDbLine
 10
93.6582034597
 20
107.4043581436
 30
0.0
 11
110.6582034597
 21
107.4043581436
 31
0.0
  0
SPLINE
  5
13C
330
1F
100
AcDbEntity
  8
0
  6
Continuous
 62
     8
370
    25
100
AcDbSpline
210
0.0
220
0.0
230
1.0
 70
    24
 71
     3
 72
    12
 73
     8
 74
     0
 42
0.000000001
 43
0.00000001
 40
-0.5788447217180464
 40
-0.5788447217180464
 40
-0.5788447217180464
 40
-0.5788447217180464
 40
-0.3728576618289314
 40
-0.3728576618289314
 40
-0.0432783660063474
 40
-0.0432783660063474
 40
0.0
 40
0.0
 40
0.0
 40
0.0
 10
110.6582034597228
 20
103.9043581435703
 30
0.0
 10
110.658203459723
 20
103.9043581435705
 30
0.0
 10
110.5978817035297
 20
103.8404880487776
 30
0.0
 10
110.2875148689683
 20
103.511864341595
 30
0.0
 10
109.9445797847262
 20
103.1487566053386
 30
0.0
 10
109.4054537687293
 20
102.577917294283
 30
0.0
 10
109.340564600579
 20
102.5092111162416
 30
0.0
 10
109.2734413496919
 20
102.4381394388317
 30
0.0
  0
SPLINE
  5
13D
330
1F
100
AcDbEntity
  8
0
  6
Continuous
 62
     8
370
    25
100
AcDbSpline
210
0.0
220
0.0
230
1.0
 70
     8
 71
     3
 72
    12
 73
     8
 74
     0
 42
0.000000001
 43
0.00000001
 40
0.0
 40
0.0
 40
0.0
 40
0.0
 40
0.0430206627346149
 40
0.0430206627346149
 40
0.3824319177041577
 40
0.3824319177041577
 40
0.594563952060122
 40
0.594563952060122
 40
0.594563952060122
 40
0.594563952060122
 10
95.1169205684124
 20
90.34820078223893
 30
0.0
 10
95.04861575975254
 20
90.30400325123408
 30
0.0
 10
94.98249004155859
 20
90.26121572988768
 30
0.0
 10
94.41470142476078
 20
89.89382058996586
 30
0.0
 10
94.0512141229586
 20
89.65862131424625
 30
0.0
 10
93.72219207679834
 20
89.44572321327125
 30
0.0
 10
93.65820345998785
 20
89.40431852060405
 30
0.0
 10
93.65820345998785
 20
89.40431852060405
 30
0.0
  0
SPLINE
  5
13E
330
1F
100
AcDbEntity
  8
0
  6
Continuous
 62
     8
370
    25
100
AcDbSpline
210
0.0
220
0.0
230
1.0
 70
    24
 71
     3
 72
    12
 73
     8
 74
     0
 42
0.000000001
 43
0.00000001
 40
-0.5788447217180465
 40
-0.5788447217180465
 40
-0.5788447217180465
 40
-0.5788447217180465
 40
-0.535566355711699
 40
-0.535566355711699
 40
-0.205987059889115
 40
-0.205987059889115
 40
0.0
 40
0.0
 40
0.0
 40
0.0
 10
109.6919847549842
 20
102.0195960335394
 30
0.0
 10
109.7630564323941
 20
102.0867192844266
 30
0.0
 10
109.8317626104355
 20
102.1516084525768
 30
0.0
 10
110.4026019214911
 20
102.6907344685737
 30
0.0
 10
110.7657096577475
 20
103.0336695528158
 30
0.0
 10
111.0943333649301
 20
103.3440363873772
 30
0.0
 10
111.158203459723
 20
103.4043581435705
 30
0.0
 10
111.1582034597228
 20
103.4043581435703
 30
0.0
  0
SPLINE
  5
13F
330
1F
100
AcDbEntity
  8
0
  6
Continuous
 62
     8
370
    25
100
AcDbSpline
210
0.0
220
0.0
230
1.0
 70
     8
 71
     3
 72
    12
 73
     8
 74
     0
 42
0.000000001
 43
0.00000001
 40
0.0
 40
0.0
 40
0.0
 40
0.0
 40
0.2121320343559643
 40
0.2121320343559643
 40
0.5515432893255071
 40
0.5515432893255071
 40
0.5945639520601226
 40
0.5945639520601226
 40
0.5945639520601226
 40
0.5945639520601226
 10
96.65816383675654
 20
86.40435814383538
 30
0.0
 10
96.65816383675654
 20
86.40435814383538
 30
0.0
 10
96.69956852942374
 20
86.46834676064586
 30
0.0
 10
96.91246663039874
 20
86.79736880680612
 30
0.0
 10
97.14766590611833
 20
87.16085610860829
 30
0.0
 10
97.51506104604017
 20
87.7286447254061
 30
0.0
 10
97.55784856738656
 20
87.79477044360007
 30
0.0
 10
97.6020460983914
 20
87.8630752522599
 30
0.0
  0
LINE
  5
140
330
1F
100
AcDbEntity
  8
0
  6
Continuous
 62
     7
370
     0
100
AcDbLine
 10
109.6603848234
 20
122.0345545071
 30
0.0
 11
110.0707034597
 21
108.9043581436
 31
0.0
  0
LINE
  5
141
330
1F
100
AcDbEntity
  8
0
  6
Continuous
 62
     7
370
     0
100
AcDbLine
 10
94.6560220961
 20
122.0345545071
 30
0.0
 11
94.2457034597
 21
108.9043581436
 31
0.0
  0
LINE
  5
142
330
1F
100
AcDbEntity
  8
0
  6
Continuous
 62
     7
370
     0
100
AcDbLine
 10
93.5881409597
 20
108.9043581436
 30
0.0
 11
110.7282659597
 21
108.9043581436
 31
0.0
  0
LINE
  5
143
330
1F
100
AcDbEntity
  8
0
  6
CENTERX2
 62
     7
370
    18
100
AcDbLine
 10
90.5570150095
 20
94.9043581436
 30
0.0
 11
124.7601272484
 21
94.9043581436
 31
0.0
  0
LINE
  5
144
330
1F
100
AcDbEntity
  8
0
  6
CENTERX2
 62
     7
370
    18
100
AcDbLine
 10
168.5601272484
 20
94.9043581436
 30
0.0
 11
124.7601272484
 21
94.9043581436
 31
0.0
  0
LINE
  5
145
330
1F
100
AcDbEntity
  8
0
  6
CENTERX2
 62
     7
370
    18
100
AcDbLine
 10
102.1582034597
 20
120.8304487099
 30
0.0
 11
102.1582034597
 21
82.939111303
 31
0.0
  0
LINE
  5
146
330
1F
100
AcDbEntity
  8
0
  6
CENTERX2
 62
     7
370
    18
100
AcDbLine
 10
102.1582034597
 20
120.8304487099
 30
0.0
 11
102.1582034597
 21
124.9043581436
 31
0.0
  0
CIRCLE
  5
147
330
1F
100
AcDbEntity
  8
0
  6
Continuous
 62
     7
370
    25
100
AcDbCircle
 10
204.8855852896
 20
94.9043581436
 30
0.0
 40
7.987798059013055
  0
LINE
  5
148
330
1F
100
AcDbEntity
  8
0
  6
Continuous
 62
     7
370
    25
100
AcDbLine
 10
213.4556477896
 20
108.9043581436
 30
0.0
 11
213.0829574594
 21
120.8304487099
 31
0.0
  0
LINE
  5
149
330
1F
100
AcDbEntity
  8
0
  6
Continuous
 62
     7
370
    25
100
AcDbLine
 10
196.6882131198
 20
120.8304487099
 30
0.0
 11
196.3155227896
 21
108.9043581436
 31
0.0
  0
LINE
  5
14A
330
1F
100
AcDbEntity
  8
0
  6
Continuous
 62
     7
370
    25
100
AcDbLine
 10
196.3155227896
 20
108.9043581436
 30
0.0
 11
196.3155227896
 21
107.9920687408
 31
0.0
  0
LINE
  5
14B
330
1F
100
AcDbEntity
  8
0
  6
Continuous
 62
     7
370
    25
100
AcDbLine
 10
213.4556477896
 20
107.9920687408
 30
0.0
 11
213.4556477896
 21
108.9043581436
 31
0.0
  0
ARC
  5
14C
330
1F
100
AcDbEntity
  8
0
  6
Continuous
 62
     7
370
    25
100
AcDbCircle
 10
215.8855852896
 20
107.4043581436
 30
0.0
 40
2.5
100
AcDbArc
 50
166.4034115815
 51
180.0
  0
ARC
  5
14D
330
1F
100
AcDbEntity
  8
0
  6
Continuous
 62
     7
370
    25
100
AcDbCircle
 10
193.8855852896
 20
107.4043581436
 30
0.0
 40
2.5
100
AcDbArc
 50
0.0
 51
13.5965884185
  0
LINE
  5
14E
330
1F
100
AcDbEntity
  8
0
  6
Continuous
 62
     7
370
    25
100
AcDbLine
 10
196.3855852896
 20
107.4043581436
 30
0.0
 11
196.3855852896
 21
103.853287316
 31
0.0
  0
LINE
  5
14F
330
1F
100
AcDbEntity
  8
0
  6
Continuous
 62
     7
370
    25
100
AcDbLine
 10
213.3855852896
 20
103.853287316
 30
0.0
 11
213.3855852896
 21
107.4043581436
 31
0.0
  0
LINE
  5
150
330
1F
100
AcDbEntity
  8
0
  6
Continuous
 62
     7
370
    25
100
AcDbLine
 10
213.0829574594
 20
120.8304487099
 30
0.0
 11
211.8855852896
 21
122.9043581436
 31
0.0
  0
LINE
  5
151
330
1F
100
AcDbEntity
  8
0
  6
Continuous
 62
     7
370
    25
100
AcDbLine
 10
197.8855852896
 20
122.9043581436
 30
0.0
 11
196.6882131198
 21
120.8304487099
 31
0.0
  0
CIRCLE
  5
152
330
1F
100
AcDbEntity
  8
0
  6
Continuous
 62
     7
370
    25
100
AcDbCircle
 10
204.8855852896
 20
94.9043581436
 30
0.0
 40
11.24999999999997
  0
CIRCLE
  5
153
330
1F
100
AcDbEntity
  8
0
  6
Continuous
 62
     7
370
    25
100
AcDbCircle
 10
204.8855852896
 20
94.9043581436
 30
0.0
 40
8.349999999999966
  0
CIRCLE
  5
154
330
1F
100
AcDbEntity
  8
0
  6
Continuous
 62
     7
370
    25
100
AcDbCircle
 10
204.8855852896
 20
94.9043581436
 30
0.0
 40
11.74999999999997
  0
CIRCLE
  5
155
330
1F
100
AcDbEntity
  8
0
  6
Continuous
 62
     7
370
    25
100
AcDbCircle
 10
204.8855852896
 20
94.9043581436
 30
0.0
 40
8.249999999999972
  0
SPLINE
  5
156
330
1F
100
AcDbEntity
  8
0
  6
Continuous
 62
     7
370
    25
100
AcDbSpline
210
0.0
220
0.0
230
1.0
 70
    24
 71
     3
 72
    15
 73
    11
 74
     0
 42
0.000000001
 43
0.00000001
 40
0.0
 40
0.0
 40
0.0
 40
0.0
 40
0.1320297612399397
 40
0.2645740184078833
 40
0.3992784260596369
 40
0.5350086679185991
 40
0.6498919368826483
 40
0.7654060347253141
 40
0.8825079804350988
 40
1.0
 40
1.0
 40
1.0
 40
1.0
 10
216.8855852896073
 20
101.8325613738458
 30
0.0
 10
216.3682278108651
 20
102.1312578534649
 30
0.0
 10
215.3314968055317
 20
102.7298147784714
 30
0.0
 10
213.7370243520635
 20
103.6503838786967
 30
0.0
 10
212.1094620068262
 20
104.5900574368423
 30
0.0
 10
210.5429447327569
 20
105.4944866067164
 30
0.0
 10
209.0577828389581
 20
106.3519452258914
 30
0.0
 10
207.6590133932255
 20
107.1595251419193
 30
0.0
 10
206.2645250678274
 20
107.9646333519697
 30
0.0
 10
205.3457411219256
 20
108.4950935104632
 30
0.0
 10
204.8855852896073
 20
108.7607646041213
 30
0.0
  0
SPLINE
  5
157
330
1F
100
AcDbEntity
  8
0
  6
Continuous
 62
     7
370
    25
100
AcDbSpline
210
0.0
220
0.0
230
1.0
 70
    24
 71
     3
 72
    16
 73
    12
 74
     0
 42
0.000000001
 43
0.00000001
 40
0.0
 40
0.0
 40
0.0
 40
0.0
 40
0.1262110910872338
 40
0.2508792255761272
 40
0.3761598532944713
 40
0.503745619093175
 40
0.6322745580720848
 40
0.7236077426379801
 40
0.8152184199227579
 40
0.9075222578215073
 40
0.9999999999999999
 40
0.9999999999999999
 40
0.9999999999999999
 40
0.9999999999999999
 10
216.8855852896073
 20
87.97615491329482
 30
0.0
 10
216.8855852896073
 20
88.5471193952089
 30
0.0
 10
216.8855852896073
 20
89.68206820058033
 30
0.0
 10
216.8855852896073
 20
91.4146720284233
 30
0.0
 10
216.8855852896073
 20
93.17271813264699
 30
0.0
 10
216.8855852896073
 20
94.96177631405169
 30
0.0
 10
216.8855852896073
 20
96.59117687258762
 30
0.0
 10
216.8855852896073
 20
98.04223923123917
 30
0.0
 10
216.8855852896073
 20
99.3140984099135
 30
0.0
 10
216.8855852896073
 20
100.5797336701007
 30
0.0
 10
216.8855852896073
 20
101.4146902038581
 30
0.0
 10
216.8855852896073
 20
101.8325613738458
 30
0.0
  0
SPLINE
  5
158
330
1F
100
AcDbEntity
  8
0
  6
Continuous
 62
     7
370
    25
100
AcDbSpline
210
0.0
220
0.0
230
1.0
 70
    24
 71
     3
 72
    15
 73
    11
 74
     0
 42
0.000000001
 43
0.00000001
 40
0.0
 40
0.0
 40
0.0
 40
0.0
 40
0.1320297612399398
 40
0.2645740184078835
 40
0.3992784260596373
 40
0.5350086679185996
 40
0.6498919368826488
 40
0.7654060347253145
 40
0.882507980435099
 40
0.9999999999999999
 40
0.9999999999999999
 40
0.9999999999999999
 40
0.9999999999999999
 10
204.8855852896073
 20
81.04795168301932
 30
0.0
 10
205.4029427683495
 20
81.3466481626384
 30
0.0
 10
206.4396737736829
 20
81.94520508764482
 30
0.0
 10
208.034146227151
 20
82.86577418787014
 30
0.0
 10
209.6617085723883
 20
83.80544774601579
 30
0.0
 10
211.2282258464576
 20
84.70987691588991
 30
0.0
 10
212.7133877402565
 20
85.56733553506484
 30
0.0
 10
214.112157185989
 20
86.37491545109278
 30
0.0
 10
215.5066455113872
 20
87.18002366114317
 30
0.0
 10
216.425429457289
 20
87.71048381963669
 30
0.0
 10
216.8855852896073
 20
87.97615491329482
 30
0.0
  0
SPLINE
  5
159
330
1F
100
AcDbEntity
  8
0
  6
Continuous
 62
     7
370
    25
100
AcDbSpline
210
0.0
220
0.0
230
1.0
 70
    24
 71
     3
 72
    15
 73
    11
 74
     0
 42
0.000000001
 43
0.00000001
 40
0.0
 40
0.0
 40
0.0
 40
0.0
 40
0.13202976123994
 40
0.2645740184078837
 40
0.3992784260596375
 40
0.5350086679185999
 40
0.6498919368826491
 40
0.7654060347253147
 40
0.8825079804350991
 40
0.9999999999999999
 40
0.9999999999999999
 40
0.9999999999999999
 40
0.9999999999999999
 10
192.8855852896073
 20
87.97615491329482
 30
0.0
 10
193.4029427683495
 20
87.67745843367572
 30
0.0
 10
194.4396737736828
 20
87.07890150866929
 30
0.0
 10
196.034146227151
 20
86.15833240844398
 30
0.0
 10
197.6617085723883
 20
85.21865885029834
 30
0.0
 10
199.2282258464577
 20
84.3142296804242
 30
0.0
 10
200.7133877402565
 20
83.4567710612493
 30
0.0
 10
202.1121571859891
 20
82.64919114522137
 30
0.0
 10
203.5066455113872
 20
81.84408293517097
 30
0.0
 10
204.425429457289
 20
81.31362277667743
 30
0.0
 10
204.8855852896073
 20
81.04795168301932
 30
0.0
  0
SPLINE
  5
15A
330
1F
100
AcDbEntity
  8
0
  6
Continuous
 62
     7
370
    25
100
AcDbSpline
210
0.0
220
0.0
230
1.0
 70
    24
 71
     3
 72
    16
 73
    12
 74
     0
 42
0.000000001
 43
0.00000001
 40
0.0
 40
0.0
 40
0.0
 40
0.0
 40
0.0914549339022162
 40
0.1830622674787068
 40
0.2752604925693056
 40
0.3677249302510069
 40
0.4921330353590103
 40
0.6174134837141382
 40
0.745233520335259
 40
0.8737890192194769
 40
0.9999999999999999
 40
0.9999999999999999
 40
0.9999999999999999
 40
0.9999999999999999
 10
192.8855852896073
 20
101.8325613738458
 30
0.0
 10
192.8855852896073
 20
101.4193255781295
 30
0.0
 10
192.8855852896073
 20
100.5921653743062
 30
0.0
 10
192.8855852896073
 20
99.33191629032738
 30
0.0
 10
192.8855852896073
 20
98.05550994040267
 30
0.0
 10
192.8855852896073
 20
96.61566925212747
 30
0.0
 10
192.8855852896073
 20
95.0113481403771
 30
0.0
 10
192.8855852896073
 20
93.24034496108763
 30
0.0
 10
192.8855852896073
 20
91.46231556828212
 30
0.0
 10
192.8855852896073
 20
89.69966276657001
 30
0.0
 10
192.8855852896073
 20
88.54712206786235
 30
0.0
 10
192.8855852896073
 20
87.97615491329482
 30
0.0
  0
SPLINE
  5
15B
330
1F
100
AcDbEntity
  8
0
  6
Continuous
 62
     7
370
    25
100
AcDbSpline
210
0.0
220
0.0
230
1.0
 70
    24
 71
     3
 72
    15
 73
    11
 74
     0
 42
0.000000001
 43
0.00000001
 40
0.0
 40
0.0
 40
0.0
 40
0.0
 40
0.1323065044264402
 40
0.2645755999739296
 40
0.3998036789671093
 40
0.5350073556765893
 40
0.6501969475405021
 40
0.7654045076453766
 40
0.8826909144168968
 40
0.9999999999999999
 40
0.9999999999999999
 40
0.9999999999999999
 40
0.9999999999999999
 10
204.8855852896073
 20
108.7607646041213
 30
0.0
 10
204.3671325603988
 20
108.4614357813507
 30
0.0
 10
203.3303736914143
 20
107.8628627692578
 30
0.0
 10
201.7338562461439
 20
106.941112992465
 30
0.0
 10
200.107243834464
 20
106.0019878787145
 30
0.0
 10
198.539563093077
 20
105.0968869806713
 30
0.0
 10
197.0565868991171
 20
104.2406902758867
 30
0.0
 10
195.6570335396917
 20
103.4326577670772
 30
0.0
 10
194.2638081234483
 20
102.6282786979673
 30
0.0
 10
193.3450225078303
 20
102.0978175754626
 30
0.0
 10
192.8855852896073
 20
101.8325613738458
 30
0.0
  0
CIRCLE
  5
15C
330
1F
100
AcDbEntity
  8
0
  6
Continuous
 62
     7
370
    25
100
AcDbCircle
 10
204.8855852896
 20
94.9043581436
 30
0.0
 40
5.949999999999982
  0
CIRCLE
  5
15D
330
1F
100
AcDbEntity
  8
0
  6
Continuous
 62
     7
370
    25
100
AcDbCircle
 10
204.8855852896
 20
94.9043581436
 30
0.0
 40
5.750000000000022
  0
CIRCLE
  5
15E
330
1F
100
AcDbEntity
  8
0
  6
Continuous
 62
     7
370
    25
100
AcDbCircle
 10
204.8855852896
 20
94.9043581436
 30
0.0
 40
7.318774464791105
  0
CIRCLE
  5
15F
330
1F
100
AcDbEntity
  8
0
  6
Continuous
 62
     7
370
    25
100
AcDbCircle
 10
204.8855852896
 20
94.9043581436
 30
0.0
 40
6.649999999999995
  0
CIRCLE
  5
160
330
1F
100
AcDbEntity
  8
0
  6
Continuous
 62
     7
370
    25
100
AcDbCircle
 10
204.8855852896
 20
94.9043581436
 30
0.0
 40
7.987138952600185
  0
CIRCLE
  5
161
330
1F
100
AcDbEntity
  8
0
  6
Continuous
 62
     7
370
    25
100
AcDbCircle
 10
204.8855852896
 20
94.9043581436
 30
0.0
 40
8.00000000000001
  0
CIRCLE
  5
162
330
1F
100
AcDbEntity
  8
0
  6
Continuous
 62
     7
370
    25
100
AcDbCircle
 10
204.8855852896
 20
94.9043581436
 30
0.0
 40
5.0
  0
LINE
  5
163
330
1F
100
AcDbEntity
  8
0
  6
Continuous
 62
     7
370
    25
100
AcDbLine
 10
204.8855852896
 20
120.8304487099
 30
0.0
 11
196.6882131198
 21
120.8304487099
 31
0.0
  0
LINE
  5
164
330
1F
100
AcDbEntity
  8
0
  6
Continuous
 62
     7
370
    25
100
AcDbLine
 10
213.0829574594
 20
120.8304487099
 30
0.0
 11
204.8855852896
 21
120.8304487099
 31
0.0
  0
LINE
  5
165
330
1F
100
AcDbEntity
  8
0
  6
Continuous
 62
     7
370
    25
100
AcDbLine
 10
196.3155227896
 20
108.9043581436
 30
0.0
 11
213.4556477896
 21
108.9043581436
 31
0.0
  0
LINE
  5
166
330
1F
100
AcDbEntity
  8
0
  6
Continuous
 62
     7
370
    25
100
AcDbLine
 10
196.3155227896
 20
107.9920687408
 30
0.0
 11
203.5509577715
 21
107.9920687408
 31
0.0
  0
LINE
  5
167
330
1F
100
AcDbEntity
  8
0
  6
Continuous
 62
     7
370
    25
100
AcDbLine
 10
206.2200623154
 20
107.9920687408
 30
0.0
 11
213.4556477896
 21
107.9920687408
 31
0.0
  0
LINE
  5
168
330
1F
100
AcDbEntity
  8
0
  6
Continuous
 62
     7
370
    25
100
AcDbLine
 10
197.8855852896
 20
122.9043581436
 30
0.0
 11
211.8855852896
 21
122.9043581436
 31
0.0
  0
LINE
  5
169
330
1F
100
AcDbEntity
  8
0
  6
Continuous
 62
     7
370
    25
100
AcDbLine
 10
209.7845647752
 20
93.9043581436
 30
0.0
 11
199.986605804
 21
93.9043581436
 31
0.0
  0
SPLINE
  5
16A
330
1F
100
AcDbEntity
  8
0
  6
Continuous
 62
     7
370
    25
100
AcDbSpline
210
0.0
220
0.0
230
1.0
 70
     8
 71
     3
 72
    10
 73
     6
 74
     0
 42
0.000000001
 43
0.00000001
 40
0.0
 40
0.0
 40
0.0
 40
0.0
 40
0.5
 40
0.5
 40
1.0
 40
1.0
 40
1.0
 40
1.0
 10
199.9866058040409
 20
95.90435814357033
 30
0.0
 10
199.995763229639
 20
95.57590531896109
 30
0.0
 10
200.0012444170833
 20
95.24499386017473
 30
0.0
 10
200.0013856875459
 20
94.5773654569861
 30
0.0
 10
199.9959291740456
 20
94.23876295855906
 30
0.0
 10
199.9866058040409
 20
93.90435814357033
 30
0.0
  0
SPLINE
  5
16B
330
1F
100
AcDbEntity
  8
0
  6
Continuous
 62
     7
370
    25
100
AcDbSpline
210
0.0
220
0.0
230
1.0
 70
     8
 71
     3
 72
    10
 73
     6
 74
     0
 42
0.000000001
 43
0.00000001
 40
0.0
 40
0.0
 40
0.0
 40
0.0
 40
0.5
 40
0.5
 40
1.0
 40
1.0
 40
1.0
 40
1.0
 10
209.7845647751736
 20
93.90435814357032
 30
0.0
 10
209.7753188079951
 20
94.23598672231232
 30
0.0
 10
209.7698820091343
 20
94.56840877687135
 30
0.0
 10
209.7698278142726
 20
95.23506610330604
 30
0.0
 10
209.7752232580296
 20
95.56930243831702
 30
0.0
 10
209.7845647751736
 20
95.90435814357033
 30
0.0
  0
SPLINE
  5
16C
330
1F
100
AcDbEntity
  8
0
  6
Continuous
 62
     7
370
    25
100
AcDbSpline
210
0.0
220
0.0
230
1.0
 70
     8
 71
     3
 72
    24
 73
    20
 74
     0
 42
0.000000001
 43
0.00000001
 40
0.0
 40
0.0
 40
0.0
 40
0.0
 40
0.1250000000000001
 40
0.1250000000000001
 40
0.2500000000000002
 40
0.2500000000000002
 40
0.3750000000000001
 40
0.3750000000000001
 40
0.4375000000000001
 40
0.4375000000000001
 40
0.5000000000000001
 40
0.5000000000000001
 40
0.6250000000000001
 40
0.6250000000000001
 40
0.75
 40
0.75
 40
0.875
 40
0.875
 40
1.0
 40
1.0
 40
1.0
 40
1.0
 10
199.9866058040409
 20
93.90435814357033
 30
0.0
 10
200.3507925184176
 20
93.71295516354101
 30
0.0
 10
200.7212955710249
 20
93.52885209196789
 30
0.0
 10
201.4825007527589
 20
93.18399039367328
 30
0.0
 10
201.8730494534517
 20
93.02305444688422
 30
0.0
 10
202.6880795114076
 20
92.74039914963004
 30
0.0
 10
203.1116736777462
 20
92.6196045894659
 30
0.0
 10
203.7646985656245
 20
92.49288638583492
 30
0.0
 10
203.9859915361948
 20
92.45955441809781
 30
0.0
 10
204.437283117129
 20
92.41432352215739
 30
0.0
 10
204.6653877817088
 20
92.40284483078027
 30
0.0
 10
205.3411787512244
 20
92.4033585630955
 30
0.0
 10
205.7875627932968
 20
92.4502111059439
 30
0.0
 10
206.6673562031552
 20
92.62132752944265
 30
0.0
 10
207.0850490402403
 20
92.74112515129703
 30
0.0
 10
207.89395001482
 20
93.02156104930788
 30
0.0
 10
208.2857879028119
 20
93.18273104465382
 30
0.0
 10
209.0495840663593
 20
93.5286741758209
 30
0.0
 10
209.4204751687175
 20
93.71300619984915
 30
0.0
 10
209.7845647751736
 20
93.90435814357033
 30
0.0
  0
LINE
  5
16D
330
1F
100
AcDbEntity
  8
0
  6
Continuous
 62
     8
370
    25
100
AcDbLine
 10
207.2417157737
 20
107.4043581436
 30
0.0
 11
213.3855852896
 21
107.4043581436
 31
0.0
  0
LINE
  5
16E
330
1F
100
AcDbEntity
  8
0
  6
Continuous
 62
     8
370
    25
100
AcDbLine
 10
196.3855852896
 20
107.4043581436
 30
0.0
 11
202.5302945482
 21
107.4043581436
 31
0.0
  0
INSERT
  5
17A
330
1F
100
AcDbEntity
  8
0
  6
Continuous
 62
     7
370
    18
100
AcDbBlockReference
  2
SW_CENTERMARKSYMBOL_0
 10
204.8855852896
 20
94.9043581436
 30
0.0
  0
LINE
  5
17B
330
1F
100
AcDbEntity
  8
0
  6
Continuous
 62
     7
370
     0
100
AcDbLine
 10
212.3877666532
 20
122.0345545071
 30
0.0
 11
212.7980852896
 21
108.9043581436
 31
0.0
  0
LINE
  5
17C
330
1F
100
AcDbEntity
  8
0
  6
Continuous
 62
     7
370
     0
100
AcDbLine
 10
197.383403926
 20
122.0345545071
 30
0.0
 11
196.9730852896
 21
108.9043581436
 31
0.0
  0
LINE
  5
17D
330
1F
100
AcDbEntity
  8
0
  6
Continuous
 62
     7
370
     0
100
AcDbLine
 10
196.3155227896
 20
108.9043581436
 30
0.0
 11
213.4556477896
 21
108.9043581436
 31
0.0
  0
ARC
  5
17E
330
1F
100
AcDbEntity
  8
0
  6
Continuous
 62
     7
370
     0
100
AcDbCircle
 10
204.8855852896
 20
94.9043581436
 30
0.0
 40
10.4775
100
AcDbArc
 50
75.0
 51
345.0
  0
LINE
  5
17F
330
1F
100
AcDbEntity
  8
0
  6
Continuous
 62
     7
370
    25
100
AcDbLine
 10
121.7044648157
 20
174.9214623452
 30
0.0
 11
121.5601272484
 21
174.6714623452
 31
0.0
  0
LINE
  5
180
330
1F
100
AcDbEntity
  8
0
  6
Continuous
 62
     7
370
    25
100
AcDbLine
 10
121.5601272484
 20
151.1714623452
 30
0.0
 11
121.7044648157
 21
150.9214623452
 31
0.0
  0
LINE
  5
181
330
1F
100
AcDbEntity
  8
0
  6
Continuous
 62
     7
370
    25
100
AcDbLine
 10
133.4157896811
 20
150.9214623452
 30
0.0
 11
133.5601272484
 21
151.1714623452
 31
0.0
  0
LINE
  5
182
330
1F
100
AcDbEntity
  8
0
  6
Continuous
 62
     7
370
    25
100
AcDbLine
 10
133.5601272484
 20
174.6714623452
 30
0.0
 11
133.4157896811
 21
174.9214623452
 31
0.0
  0
LINE
  5
183
330
1F
100
AcDbEntity
  8
0
  6
Continuous
 62
     7
370
    25
100
AcDbLine
 10
133.5601272484
 20
151.1714623452
 30
0.0
 11
135.0601272484
 21
151.1714623452
 31
0.0
  0
LINE
  5
184
330
1F
100
AcDbEntity
  8
0
  6
Continuous
 62
     7
370
    25
100
AcDbLine
 10
135.0601272484
 20
174.6714623452
 30
0.0
 11
133.5601272484
 21
174.6714623452
 31
0.0
  0
LINE
  5
185
330
1F
100
AcDbEntity
  8
0
  6
Continuous
 62
     7
370
    25
100
AcDbLine
 10
120.0601272484
 20
174.6714623452
 30
0.0
 11
119.5601272484
 21
174.1714623452
 31
0.0
  0
LINE
  5
186
330
1F
100
AcDbEntity
  8
0
  6
Continuous
 62
     7
370
    25
100
AcDbLine
 10
119.5601272484
 20
151.6714623452
 30
0.0
 11
120.0601272484
 21
151.1714623452
 31
0.0
  0
LINE
  5
187
330
1F
100
AcDbEntity
  8
0
  6
Continuous
 62
     7
370
    25
100
AcDbLine
 10
121.5601272484
 20
174.6714623452
 30
0.0
 11
120.0601272484
 21
174.6714623452
 31
0.0
  0
LINE
  5
188
330
1F
100
AcDbEntity
  8
0
  6
Continuous
 62
     7
370
    25
100
AcDbLine
 10
120.0601272484
 20
151.1714623452
 30
0.0
 11
121.5601272484
 21
151.1714623452
 31
0.0
  0
LINE
  5
189
330
1F
100
AcDbEntity
  8
0
  6
Continuous
 62
     7
370
    25
100
AcDbLine
 10
135.0601272484
 20
151.1714623452
 30
0.0
 11
135.5601272484
 21
151.6714623452
 31
0.0
  0
LINE
  5
18A
330
1F
100
AcDbEntity
  8
0
  6
Continuous
 62
     7
370
    25
100
AcDbLine
 10
135.5601272484
 20
174.1714623452
 30
0.0
 11
135.0601272484
 21
174.6714623452
 31
0.0
  0
LINE
  5
18B
330
1F
100
AcDbEntity
  8
0
  6
Continuous
 62
     7
370
    25
100
AcDbLine
 10
135.5601272484
 20
154.9214623452
 30
0.0
 11
142.0601272484
 21
154.9214623452
 31
0.0
  0
LINE
  5
18C
330
1F
100
AcDbEntity
  8
0
  6
Continuous
 62
     7
370
    25
100
AcDbLine
 10
142.0601272484
 20
170.9214623452
 30
0.0
 11
135.5601272484
 21
170.9214623452
 31
0.0
  0
LINE
  5
18D
330
1F
100
AcDbEntity
  8
0
  6
Continuous
 62
     7
370
    25
100
AcDbLine
 10
142.0601272484
 20
154.9214623452
 30
0.0
 11
146.5601272484
 21
155.6714623452
 31
0.0
  0
LINE
  5
18E
330
1F
100
AcDbEntity
  8
0
  6
Continuous
 62
     7
370
    25
100
AcDbLine
 10
146.5601272484
 20
170.1714623452
 30
0.0
 11
142.0601272484
 21
170.9214623452
 31
0.0
  0
ARC
  5
18F
330
1F
100
AcDbEntity
  8
0
  6
Continuous
 62
     7
370
    25
100
AcDbCircle
 10
160.1601272484
 20
170.8092604042
 30
0.0
 40
0.100000000000002
100
AcDbArc
 50
83.4180553448
 51
180.0
  0
ARC
  5
190
330
1F
100
AcDbEntity
  8
0
  6
Continuous
 62
     7
370
    25
100
AcDbCircle
 10
160.1601272484
 20
155.0336642862
 30
0.0
 40
0.100000000000002
100
AcDbArc
 50
180.0
 51
276.5819446552
  0
LINE
  5
191
330
1F
100
AcDbEntity
  8
0
  6
Continuous
 62
     7
370
    25
100
AcDbLine
 10
160.1715896592
 20
154.9343233926
 30
0.0
 11
165.9640818868
 21
155.6026878804
 31
0.0
  0
LINE
  5
192
330
1F
100
AcDbEntity
  8
0
  6
Continuous
 62
     7
370
    25
100
AcDbLine
 10
165.9640818868
 20
170.24023681
 30
0.0
 11
160.1715896592
 21
170.9086012978
 31
0.0
  0
ARC
  5
193
330
1F
100
AcDbEntity
  8
0
  6
Continuous
 62
     7
370
    25
100
AcDbCircle
 10
146.6601272484
 20
170.803416303
 30
0.0
 40
0.0999999999999943
100
AcDbArc
 50
80.537677792
 51
180.0
  0
ARC
  5
194
330
1F
100
AcDbEntity
  8
0
  6
Continuous
 62
     7
370
    25
100
AcDbCircle
 10
146.6601272484
 20
155.0395083873
 30
0.0
 40
0.1000000000000197
100
AcDbArc
 50
180.0
 51
279.462322208
  0
ARC
  5
195
330
1F
100
AcDbEntity
  8
0
  6
Continuous
 62
     7
370
    25
100
AcDbCircle
 10
151.1601272484
 20
170.803416303
 30
0.0
 40
0.0999999999999943
100
AcDbArc
 50
80.537677792
 51
180.0
  0
ARC
  5
196
330
1F
100
AcDbEntity
  8
0
  6
Continuous
 62
     7
370
    25
100
AcDbCircle
 10
151.1601272484
 20
155.0395083873
 30
0.0
 40
0.1000000000000197
100
AcDbArc
 50
180.0
 51
279.462322208
  0
ARC
  5
197
330
1F
100
AcDbEntity
  8
0
  6
Continuous
 62
     7
370
    25
100
AcDbCircle
 10
155.6601272484
 20
170.803416303
 30
0.0
 40
0.0999999999999659
100
AcDbArc
 50
80.537677792
 51
180.0
  0
ARC
  5
198
330
1F
100
AcDbEntity
  8
0
  6
Continuous
 62
     7
370
    25
100
AcDbCircle
 10
155.6601272484
 20
155.0395083873
 30
0.0
 40
0.1000000000000197
100
AcDbArc
 50
180.0
 51
279.462322208
  0
LINE
  5
199
330
1F
100
AcDbEntity
  8
0
  6
Continuous
 62
     7
370
    25
100
AcDbLine
 10
146.6765671471
 20
154.940868995
 30
0.0
 11
151.0601272484
 21
155.6714623452
 31
0.0
  0
LINE
  5
19A
330
1F
100
AcDbEntity
  8
0
  6
Continuous
 62
     7
370
    25
100
AcDbLine
 10
151.0601272484
 20
170.1714623452
 30
0.0
 11
146.6765671471
 21
170.9020556954
 31
0.0
  0
LINE
  5
19B
330
1F
100
AcDbEntity
  8
0
  6
Continuous
 62
     7
370
    25
100
AcDbLine
 10
151.1765671471
 20
154.940868995
 30
0.0
 11
155.5601272484
 21
155.6714623452
 31
0.0
  0
LINE
  5
19C
330
1F
100
AcDbEntity
  8
0
  6
Continuous
 62
     7
370
    25
100
AcDbLine
 10
155.5601272484
 20
170.1714623452
 30
0.0
 11
151.1765671471
 21
170.9020556954
 31
0.0
  0
LINE
  5
19D
330
1F
100
AcDbEntity
  8
0
  6
Continuous
 62
     7
370
    25
100
AcDbLine
 10
155.6765671471
 20
154.940868995
 30
0.0
 11
160.0601272484
 21
155.6714623452
 31
0.0
  0
LINE
  5
19E
330
1F
100
AcDbEntity
  8
0
  6
Continuous
 62
     7
370
    25
100
AcDbLine
 10
160.0601272484
 20
170.1714623452
 30
0.0
 11
155.6765671471
 21
170.9020556954
 31
0.0
  0
LINE
  5
19F
330
1F
100
AcDbEntity
  8
0
  6
Continuous
 62
     7
370
    25
100
AcDbLine
 10
165.9640818868
 20
155.6026878804
 30
0.0
 11
166.5601272484
 21
156.2714623452
 31
0.0
  0
LINE
  5
1A0
330
1F
100
AcDbEntity
  8
0
  6
Continuous
 62
     7
370
    25
100
AcDbLine
 10
166.5601272484
 20
169.5714623452
 30
0.0
 11
165.9640818868
 21
170.24023681
 31
0.0
  0
LINE
  5
1A1
330
1F
100
AcDbEntity
  8
0
  6
Continuous
 62
     7
370
    25
100
AcDbLine
 10
119.5601272484
 20
173.3989623452
 30
0.0
 11
117.3162093416
 21
173.3989623452
 31
0.0
  0
LINE
  5
1A2
330
1F
100
AcDbEntity
  8
0
  6
Continuous
 62
     7
370
    25
100
AcDbLine
 10
117.3162093416
 20
152.4439623452
 30
0.0
 11
119.5601272484
 21
152.4439623452
 31
0.0
  0
ARC
  5
1A3
330
1F
100
AcDbEntity
  8
0
  6
Continuous
 62
     7
370
    25
100
AcDbCircle
 10
119.1233462346
 20
154.1714623452
 30
0.0
 40
2.499999999999996
100
AcDbArc
 50
206.7436839504
 51
223.7093197495
  0
ARC
  5
1A4
330
1F
100
AcDbEntity
  8
0
  6
Continuous
 62
     7
370
    25
100
AcDbCircle
 10
119.1233462346
 20
171.6714623452
 30
0.0
 40
2.499999999999996
100
AcDbArc
 50
136.2906802505
 51
153.2563160496
  0
ARC
  5
1A5
330
1F
100
AcDbEntity
  8
0
  6
Continuous
 62
     7
370
    25
100
AcDbCircle
 10
114.6582034597
 20
151.9214623452
 30
0.0
 40
2.500000000000009
100
AcDbArc
 50
26.7436839504
 51
90.0
  0
ARC
  5
1A6
330
1F
100
AcDbEntity
  8
0
  6
Continuous
 62
     7
370
    25
100
AcDbCircle
 10
114.6582034597
 20
173.9214623452
 30
0.0
 40
2.500000000000009
100
AcDbArc
 50
270.0
 51
333.2563160496
  0
LINE
  5
1A7
330
1F
100
AcDbEntity
  8
0
  6
Continuous
 62
     7
370
    25
100
AcDbLine
 10
114.6582034597
 20
171.4214623452
 30
0.0
 11
110.6582034597
 21
171.4214623452
 31
0.0
  0
LINE
  5
1A8
330
1F
100
AcDbEntity
  8
0
  6
Continuous
 62
     7
370
    25
100
AcDbLine
 10
110.6582034597
 20
154.4214623452
 30
0.0
 11
114.6582034597
 21
154.4214623452
 31
0.0
  0
LINE
  5
1A9
330
1F
100
AcDbEntity
  8
0
  6
Continuous
 62
     7
370
    25
100
AcDbLine
 10
127.6941018446
 20
174.9214623452
 30
0.0
 11
127.5601272484
 21
174.0003593863
 31
0.0
  0
LINE
  5
1AA
330
1F
100
AcDbEntity
  8
0
  6
Continuous
 62
     7
370
    25
100
AcDbLine
 10
132.3439929113
 20
174.9214623452
 30
0.0
 11
127.6941018446
 21
174.9214623452
 31
0.0
  0
SPLINE
  5
1AB
330
1F
100
AcDbEntity
  8
0
  6
Continuous
 62
     7
370
    25
100
AcDbSpline
210
0.0
220
0.0
230
1.0
 70
     8
 71
     3
 72
    15
 73
    11
 74
     0
 42
0.000000001
 43
0.00000001
 40
0.0
 40
0.0
 40
0.0
 40
0.0
 40
0.1320297612399397
 40
0.2645740184078833
 40
0.3992784260596369
 40
0.5350086679185991
 40
0.6498919368826483
 40
0.7654060347253141
 40
0.8825079804350988
 40
1.0
 40
1.0
 40
1.0
 40
1.0
 10
132.3439929113476
 20
174.9214623451693
 30
0.0
 10
132.5068917735525
 20
174.4041048664271
 30
0.0
 10
132.8333242851533
 20
173.3673738610938
 30
0.0
 10
133.1834814203935
 20
171.7729014076256
 30
0.0
 10
133.3967863616575
 20
170.1453390623883
 30
0.0
 10
133.4369824832324
 20
168.5788217883189
 30
0.0
 10
133.3297138746286
 20
167.0936598945201
 30
0.0
 10
133.1068819327026
 20
165.6948904487875
 30
0.0
 10
132.7809716097416
 20
164.3004021233894
 30
0.0
 10
132.489813852799
 20
163.3816181774876
 30
0.0
 10
132.3439929113476
 20
162.9214623451693
 30
0.0
  0
LINE
  5
1AC
330
1F
100
AcDbEntity
  8
0
  6
Continuous
 62
     7
370
    25
100
AcDbLine
 10
132.3439929113
 20
162.9214623452
 30
0.0
 11
127.6941018446
 21
162.9214623452
 31
0.0
  0
LINE
  5
1AD
330
1F
100
AcDbEntity
  8
0
  6
Continuous
 62
     7
370
    25
100
AcDbLine
 10
127.5601272484
 20
163.842565304
 30
0.0
 11
127.6941018446
 21
162.9214623452
 31
0.0
  0
LINE
  5
1AE
330
1F
100
AcDbEntity
  8
0
  6
Continuous
 62
     7
370
    25
100
AcDbLine
 10
127.5601272484
 20
163.842565304
 30
0.0
 11
127.4261526522
 21
162.9214623452
 31
0.0
  0
LINE
  5
1AF
330
1F
100
AcDbEntity
  8
0
  6
Continuous
 62
     7
370
    25
100
AcDbLine
 10
127.4261526522
 20
162.9214623452
 30
0.0
 11
122.7762615854
 21
162.9214623452
 31
0.0
  0
SPLINE
  5
1B0
330
1F
100
AcDbEntity
  8
0
  6
Continuous
 62
     7
370
    25
100
AcDbSpline
210
0.0
220
0.0
230
1.0
 70
     8
 71
     3
 72
    15
 73
    11
 74
     0
 42
0.000000001
 43
0.00000001
 40
0.0
 40
0.0
 40
0.0
 40
0.0
 40
0.1320297612399397
 40
0.2645740184078833
 40
0.3992784260596369
 40
0.5350086679185991
 40
0.6498919368826483
 40
0.7654060347253142
 40
0.8825079804350988
 40
1.0
 40
1.0
 40
1.0
 40
1.0
 10
122.7762615853914
 20
174.9214623451693
 30
0.0
 10
122.6133627231866
 20
174.4041048664271
 30
0.0
 10
122.2869302115857
 20
173.3673738610938
 30
0.0
 10
121.9367730763455
 20
171.7729014076256
 30
0.0
 10
121.7234681350815
 20
170.1453390623883
 30
0.0
 10
121.6832720135067
 20
168.5788217883189
 30
0.0
 10
121.7905406221104
 20
167.0936598945201
 30
0.0
 10
122.0133725640364
 20
165.6948904487875
 30
0.0
 10
122.3392828869974
 20
164.3004021233894
 30
0.0
 10
122.63044064394
 20
163.3816181774876
 30
0.0
 10
122.7762615853914
 20
162.9214623451693
 30
0.0
  0
LINE
  5
1B1
330
1F
100
AcDbEntity
  8
0
  6
Continuous
 62
     7
370
    25
100
AcDbLine
 10
127.4261526522
 20
174.9214623452
 30
0.0
 11
122.7762615854
 21
174.9214623452
 31
0.0
  0
LINE
  5
1B2
330
1F
100
AcDbEntity
  8
0
  6
Continuous
 62
     7
370
    25
100
AcDbLine
 10
127.4261526522
 20
174.9214623452
 30
0.0
 11
127.5601272484
 21
174.0003593863
 31
0.0
  0
SPLINE
  5
1B3
330
1F
100
AcDbEntity
  8
0
  6
Continuous
 62
     7
370
    25
100
AcDbSpline
210
0.0
220
0.0
230
1.0
 70
     8
 71
     3
 72
    15
 73
    11
 74
     0
 42
0.000000001
 43
0.00000001
 40
0.0
 40
0.0
 40
0.0
 40
0.0
 40
0.1323065044264403
 40
0.2645755999739297
 40
0.3998036789671093
 40
0.5350073556765894
 40
0.6501969475405022
 40
0.7654045076453766
 40
0.8826909144168968
 40
1.0
 40
1.0
 40
1.0
 40
1.0
 10
122.7762615853914
 20
162.9214623451693
 30
0.0
 10
122.6131025034737
 20
162.4030096159609
 30
0.0
 10
122.2868304719004
 20
161.3662507469763
 30
0.0
 10
121.9357757688805
 20
159.769733301706
 30
0.0
 10
121.7246989833514
 20
158.1431208900261
 30
0.0
 10
121.6829016730658
 20
156.575440148639
 30
0.0
 10
121.7913603057665
 20
155.0924639546791
 30
0.0
 10
122.0135862148274
 20
153.6929105952538
 30
0.0
 10
122.3395639881137
 20
152.2996851790104
 30
0.0
 10
122.6306863385072
 20
151.3808995633923
 30
0.0
 10
122.7762615853914
 20
150.9214623451693
 30
0.0
  0
SPLINE
  5
1B4
330
1F
100
AcDbEntity
  8
0
  6
Continuous
 62
     7
370
    25
100
AcDbSpline
210
0.0
220
0.0
230
1.0
 70
    24
 71
     3
 72
    13
 73
     9
 74
     0
 42
0.000000001
 43
0.00000001
 40
0.0
 40
0.0
 40
0.0
 40
0.0
 40
0.1829115378190404
 40
0.3661278777695268
 40
0.5505260115382155
 40
0.7354565753502897
 40
0.9842750573229312
 40
0.9999999999999999
 40
0.9999999999999999
 40
0.9999999999999999
 40
0.9999999999999999
 10
122.7762615853914
 20
150.9214623451693
 30
0.0
 10
122.6615217076003
 20
150.9214623451693
 30
0.0
 10
122.4318507505239
 20
150.9214623451693
 30
0.0
 10
122.1513740454207
 20
150.9214623451693
 30
0.0
 10
121.9254645321866
 20
150.9214623451693
 30
0.0
 10
121.7640077358903
 20
150.9214623451693
 30
0.0
 10
121.6831282461885
 20
150.9214623451693
 30
0.0
 10
121.7073914115117
 20
150.9214623451693
 30
0.0
 10
121.7088336582218
 20
150.9214623451693
 30
0.0
  0
SPLINE
  5
1B5
330
1F
100
AcDbEntity
  8
0
  6
Continuous
 62
     7
370
    25
100
AcDbSpline
210
0.0
220
0.0
230
1.0
 70
    24
 71
     3
 72
    13
 73
     9
 74
     0
 42
0.000000001
 43
0.00000001
 40
0.0
 40
0.0
 40
0.0
 40
0.0
 40
0.0074765928838622
 40
0.2645382639471175
 40
0.4472073284749926
 40
0.6304313866299099
 40
0.8150417864691076
 40
0.9999999999999999
 40
0.9999999999999999
 40
0.9999999999999999
 40
0.9999999999999999
 10
121.706653707004
 20
174.9214623451693
 30
0.0
 10
121.7059268045618
 20
174.9214623451693
 30
0.0
 10
121.6802074009392
 20
174.9214623451693
 30
0.0
 10
121.761974980765
 20
174.9214623451693
 30
0.0
 10
121.9236496639678
 20
174.9214623451693
 30
0.0
 10
122.1478133127803
 20
174.9214623451693
 30
0.0
 10
122.4285413089097
 20
174.9214623451693
 30
0.0
 10
122.6602821268214
 20
174.9214623451693
 30
0.0
 10
122.7762615853914
 20
174.9214623451693
 30
0.0
  0
LINE
  5
1B6
330
1F
100
AcDbEntity
  8
0
  6
Continuous
 62
     7
370
    25
100
AcDbLine
 10
121.5601272484
 20
174.6714623452
 30
0.0
 11
121.5601272484
 21
151.1714623452
 31
0.0
  0
SPLINE
  5
1B7
330
1F
100
AcDbEntity
  8
0
  6
Continuous
 62
     7
370
    25
100
AcDbSpline
210
0.0
220
0.0
230
1.0
 70
    24
 71
     3
 72
    13
 73
     9
 74
     0
 42
0.000000001
 43
0.00000001
 40
0.0
 40
0.0
 40
0.0
 40
0.0
 40
0.0074765928838622
 40
0.2645382639471176
 40
0.4472073284749927
 40
0.63043138662991
 40
0.8150417864691077
 40
1.0
 40
1.0
 40
1.0
 40
1.0
 10
133.4136007897351
 20
174.9214623451693
 30
0.0
 10
133.4143276921772
 20
174.9214623451693
 30
0.0
 10
133.4400470957999
 20
174.9214623451693
 30
0.0
 10
133.358279515974
 20
174.9214623451693
 30
0.0
 10
133.1966048327713
 20
174.9214623451693
 30
0.0
 10
132.9724411839588
 20
174.9214623451693
 30
0.0
 10
132.6917131878293
 20
174.9214623451693
 30
0.0
 10
132.4599723699176
 20
174.9214623451693
 30
0.0
 10
132.3439929113476
 20
174.9214623451693
 30
0.0
  0
SPLINE
  5
1B8
330
1F
100
AcDbEntity
  8
0
  6
Continuous
 62
     7
370
    25
100
AcDbSpline
210
0.0
220
0.0
230
1.0
 70
    24
 71
     3
 72
    13
 73
     9
 74
     0
 42
0.000000001
 43
0.00000001
 40
0.0
 40
0.0
 40
0.0
 40
0.0
 40
0.1829115378190404
 40
0.3661278777695268
 40
0.5505260115382156
 40
0.7354565753502899
 40
0.9842750573229313
 40
1.0
 40
1.0
 40
1.0
 40
1.0
 10
132.3439929113476
 20
150.9214623451693
 30
0.0
 10
132.4587327891388
 20
150.9214623451693
 30
0.0
 10
132.6884037462152
 20
150.9214623451693
 30
0.0
 10
132.9688804513183
 20
150.9214623451693
 30
0.0
 10
133.1947899645525
 20
150.9214623451693
 30
0.0
 10
133.3562467608488
 20
150.9214623451693
 30
0.0
 10
133.4371262505506
 20
150.9214623451693
 30
0.0
 10
133.4128630852273
 20
150.9214623451693
 30
0.0
 10
133.4114208385172
 20
150.9214623451693
 30
0.0
  0
SPLINE
  5
1B9
330
1F
100
AcDbEntity
  8
0
  6
Continuous
 62
     7
370
    25
100
AcDbSpline
210
0.0
220
0.0
230
1.0
 70
     8
 71
     3
 72
    15
 73
    11
 74
     0
 42
0.000000001
 43
0.00000001
 40
0.0
 40
0.0
 40
0.0
 40
0.0
 40
0.1323065044264402
 40
0.2645755999739296
 40
0.3998036789671093
 40
0.5350073556765893
 40
0.6501969475405021
 40
0.7654045076453766
 40
0.8826909144168968
 40
0.9999999999999999
 40
0.9999999999999999
 40
0.9999999999999999
 40
0.9999999999999999
 10
132.3439929113476
 20
162.9214623451693
 30
0.0
 10
132.5071519932654
 20
162.4030096159609
 30
0.0
 10
132.8334240248387
 20
161.3662507469763
 30
0.0
 10
133.1844787278585
 20
159.769733301706
 30
0.0
 10
133.3955555133877
 20
158.1431208900261
 30
0.0
 10
133.4373528236733
 20
156.575440148639
 30
0.0
 10
133.3288941909725
 20
155.0924639546791
 30
0.0
 10
133.1066682819117
 20
153.6929105952538
 30
0.0
 10
132.7806905086254
 20
152.2996851790104
 30
0.0
 10
132.4895681582319
 20
151.3808995633923
 30
0.0
 10
132.3439929113476
 20
150.9214623451693
 30
0.0
  0
LINE
  5
1BA
330
1F
100
AcDbEntity
  8
0
  6
Continuous
 62
     7
370
    25
100
AcDbLine
 10
133.5601272484
 20
174.6714623452
 30
0.0
 11
133.5601272484
 21
151.1714623452
 31
0.0
  0
LINE
  5
1BB
330
1F
100
AcDbEntity
  8
0
  6
Continuous
 62
     7
370
    25
100
AcDbLine
 10
127.6941018446
 20
162.9214623452
 30
0.0
 11
127.5601272484
 21
162.0003593863
 31
0.0
  0
LINE
  5
1BC
330
1F
100
AcDbEntity
  8
0
  6
Continuous
 62
     7
370
    25
100
AcDbLine
 10
127.5601272484
 20
163.842565304
 30
0.0
 11
127.5601272484
 21
162.0003593863
 31
0.0
  0
LINE
  5
1BD
330
1F
100
AcDbEntity
  8
0
  6
Continuous
 62
     7
370
    25
100
AcDbLine
 10
127.4261526522
 20
162.9214623452
 30
0.0
 11
127.5601272484
 21
162.0003593863
 31
0.0
  0
LINE
  5
1BE
330
1F
100
AcDbEntity
  8
0
  6
Continuous
 62
     7
370
    25
100
AcDbLine
 10
132.3439929113
 20
150.9214623452
 30
0.0
 11
127.6941018446
 21
150.9214623452
 31
0.0
  0
LINE
  5
1BF
330
1F
100
AcDbEntity
  8
0
  6
Continuous
 62
     7
370
    25
100
AcDbLine
 10
127.5601272484
 20
151.842565304
 30
0.0
 11
127.6941018446
 21
150.9214623452
 31
0.0
  0
LINE
  5
1C0
330
1F
100
AcDbEntity
  8
0
  6
Continuous
 62
     7
370
    25
100
AcDbLine
 10
127.5601272484
 20
151.842565304
 30
0.0
 11
127.4261526522
 21
150.9214623452
 31
0.0
  0
LINE
  5
1C1
330
1F
100
AcDbEntity
  8
0
  6
Continuous
 62
     7
370
    25
100
AcDbLine
 10
127.4261526522
 20
150.9214623452
 30
0.0
 11
122.7762615854
 21
150.9214623452
 31
0.0
  0
LINE
  5
1C2
330
1F
100
AcDbEntity
  8
0
  6
Continuous
 62
     7
370
    25
100
AcDbLine
 10
135.0601272484
 20
151.1714623452
 30
0.0
 11
135.0601272484
 21
174.6714623452
 31
0.0
  0
LINE
  5
1C3
330
1F
100
AcDbEntity
  8
0
  6
Continuous
 62
     7
370
    25
100
AcDbLine
 10
120.0601272484
 20
174.6714623452
 30
0.0
 11
120.0601272484
 21
151.1714623452
 31
0.0
  0
LINE
  5
1C4
330
1F
100
AcDbEntity
  8
0
  6
Continuous
 62
     7
370
    25
100
AcDbLine
 10
119.5601272484
 20
151.6714623452
 30
0.0
 11
119.5601272484
 21
174.1714623452
 31
0.0
  0
LINE
  5
1C5
330
1F
100
AcDbEntity
  8
0
  6
Continuous
 62
     7
370
    25
100
AcDbLine
 10
135.5601272484
 20
174.1714623452
 30
0.0
 11
135.5601272484
 21
151.6714623452
 31
0.0
  0
LINE
  5
1C6
330
1F
100
AcDbEntity
  8
0
  6
Continuous
 62
     7
370
    25
100
AcDbLine
 10
127.5601272484
 20
174.9214623452
 30
0.0
 11
127.4261526522
 21
174.9214623452
 31
0.0
  0
LINE
  5
1C7
330
1F
100
AcDbEntity
  8
0
  6
Continuous
 62
     7
370
    25
100
AcDbLine
 10
127.5601272484
 20
174.9214623452
 30
0.0
 11
127.5601272484
 21
174.0003593863
 31
0.0
  0
LINE
  5
1C8
330
1F
100
AcDbEntity
  8
0
  6
Continuous
 62
     7
370
    25
100
AcDbLine
 10
127.5601272484
 20
174.9214623452
 30
0.0
 11
127.6941018446
 21
174.9214623452
 31
0.0
  0
LINE
  5
1C9
330
1F
100
AcDbEntity
  8
0
  6
Continuous
 62
     7
370
    25
100
AcDbLine
 10
127.5601272484
 20
151.842565304
 30
0.0
 11
127.5601272484
 21
150.9214623452
 31
0.0
  0
LINE
  5
1CA
330
1F
100
AcDbEntity
  8
0
  6
Continuous
 62
     7
370
    25
100
AcDbLine
 10
127.4261526522
 20
150.9214623452
 30
0.0
 11
127.5601272484
 21
150.9214623452
 31
0.0
  0
LINE
  5
1CB
330
1F
100
AcDbEntity
  8
0
  6
Continuous
 62
     7
370
    25
100
AcDbLine
 10
127.6941018446
 20
150.9214623452
 30
0.0
 11
127.5601272484
 21
150.9214623452
 31
0.0
  0
LINE
  5
1CC
330
1F
100
AcDbEntity
  8
0
  6
Continuous
 62
     7
370
    25
100
AcDbLine
 10
142.0601272484
 20
154.9214623452
 30
0.0
 11
142.0601272484
 21
170.9214623452
 31
0.0
  0
LINE
  5
1CD
330
1F
100
AcDbEntity
  8
0
  6
Continuous
 62
     7
370
    25
100
AcDbLine
 10
160.0601272484
 20
155.1670441305
 30
0.0
 11
160.0601272484
 21
170.8092604042
 31
0.0
  0
LINE
  5
1CE
330
1F
100
AcDbEntity
  8
0
  6
Continuous
 62
     7
370
    25
100
AcDbLine
 10
160.0601272484
 20
155.0336642862
 30
0.0
 11
160.0601272484
 21
155.1670441305
 31
0.0
  0
LINE
  5
1CF
330
1F
100
AcDbEntity
  8
0
  6
Continuous
 62
     7
370
    25
100
AcDbLine
 10
165.9640818868
 20
155.7264457393
 30
0.0
 11
165.9640818868
 21
170.24023681
 31
0.0
  0
LINE
  5
1D0
330
1F
100
AcDbEntity
  8
0
  6
Continuous
 62
     7
370
    25
100
AcDbLine
 10
165.9640818868
 20
155.6026878804
 30
0.0
 11
165.9640818868
 21
155.7264457393
 31
0.0
  0
LINE
  5
1D1
330
1F
100
AcDbEntity
  8
0
  6
Continuous
 62
     7
370
    25
100
AcDbLine
 10
146.5601272484
 20
155.1727894101
 30
0.0
 11
146.5601272484
 21
170.803416303
 31
0.0
  0
LINE
  5
1D2
330
1F
100
AcDbEntity
  8
0
  6
Continuous
 62
     7
370
    25
100
AcDbLine
 10
146.5601272484
 20
155.0395083873
 30
0.0
 11
146.5601272484
 21
155.1727894101
 31
0.0
  0
LINE
  5
1D3
330
1F
100
AcDbEntity
  8
0
  6
Continuous
 62
     7
370
    25
100
AcDbLine
 10
151.0601272484
 20
155.1727894101
 30
0.0
 11
151.0601272484
 21
170.803416303
 31
0.0
  0
LINE
  5
1D4
330
1F
100
AcDbEntity
  8
0
  6
Continuous
 62
     7
370
    25
100
AcDbLine
 10
151.0601272484
 20
155.0395083873
 30
0.0
 11
151.0601272484
 21
155.1727894101
 31
0.0
  0
LINE
  5
1D5
330
1F
100
AcDbEntity
  8
0
  6
Continuous
 62
     7
370
    25
100
AcDbLine
 10
155.5601272484
 20
155.1727894101
 30
0.0
 11
155.5601272484
 21
170.803416303
 31
0.0
  0
LINE
  5
1D6
330
1F
100
AcDbEntity
  8
0
  6
Continuous
 62
     7
370
    25
100
AcDbLine
 10
155.5601272484
 20
155.0395083873
 30
0.0
 11
155.5601272484
 21
155.1727894101
 31
0.0
  0
LINE
  5
1D7
330
1F
100
AcDbEntity
  8
0
  6
Continuous
 62
     7
370
    25
100
AcDbLine
 10
166.5601272484
 20
169.5714623452
 30
0.0
 11
166.5601272484
 21
156.2714623452
 31
0.0
  0
CIRCLE
  5
1D8
330
1F
100
AcDbEntity
  8
0
  6
Continuous
 62
     7
370
    25
100
AcDbCircle
 10
102.1582034597
 20
162.9214623452
 30
0.0
 40
7.0
  0
CIRCLE
  5
1D9
330
1F
100
AcDbEntity
  8
0
  6
Continuous
 62
     7
370
    25
100
AcDbCircle
 10
102.1582034597
 20
162.9214623452
 30
0.0
 40
8.19737216980208
  0
CIRCLE
  5
1DA
330
1F
100
AcDbEntity
  8
0
  6
Continuous
 62
     7
370
    25
100
AcDbCircle
 10
102.1582034597
 20
162.9214623452
 30
0.0
 40
5.499999999999972
  0
CIRCLE
  5
1DB
330
1F
100
AcDbEntity
  8
0
  6
Continuous
 62
     7
370
    25
100
AcDbCircle
 10
102.1582034597
 20
162.9214623452
 30
0.0
 40
5.0
  0
CIRCLE
  5
1DC
330
1F
100
AcDbEntity
  8
0
  6
Continuous
 62
     7
370
    25
100
AcDbCircle
 10
102.1582034597
 20
162.9214623452
 30
0.0
 40
8.570062499999992
  0
LINE
  5
1DD
330
1F
100
AcDbEntity
  8
0
  6
Continuous
 62
     7
370
    25
100
AcDbLine
 10
117.3162093416
 20
152.4439623452
 30
0.0
 11
117.3162093416
 21
173.3989623452
 31
0.0
  0
SPLINE
  5
1DE
330
1F
100
AcDbEntity
  8
0
  6
Continuous
 62
     7
370
    25
100
AcDbSpline
210
0.0
220
0.0
230
1.0
 70
     8
 71
     3
 72
    19
 73
    15
 74
     0
 42
0.000000001
 43
0.00000001
 40
-0.5788447217180465
 40
-0.5788447217180465
 40
-0.5788447217180465
 40
-0.5788447217180465
 40
-0.535566355711699
 40
-0.535566355711699
 40
-0.205987059889115
 40
-0.205987059889115
 40
0.0
 40
0.0
 40
0.0
 40
0.205987059889115
 40
0.205987059889115
 40
0.535566355711699
 40
0.535566355711699
 40
0.5788447217180465
 40
0.5788447217180465
 40
0.5788447217180465
 40
0.5788447217180465
 10
109.6919847549842
 20
158.2715376465089
 30
0.0
 10
109.7630564323941
 20
158.374147330908
 30
0.0
 10
109.8317626104355
 20
158.4782203843294
 30
0.0
 10
110.4026019214911
 20
159.3867288169791
 30
0.0
 10
110.7657096577475
 20
160.2688610933042
 30
0.0
 10
111.0943333649297
 20
161.7542198161963
 30
0.0
 10
111.1582034597228
 20
162.3378323421502
 30
0.0
 10
111.1582034597228
 20
162.9214623451693
 30
0.0
 10
111.1582034597228
 20
163.5050923481885
 30
0.0
 10
111.0943333649297
 20
164.0887048741424
 30
0.0
 10
110.7657096577475
 20
165.5740635970345
 30
0.0
 10
110.4026019214911
 20
166.4561958733595
 30
0.0
 10
109.8317626104355
 20
167.3647043060092
 30
0.0
 10
109.7630564323941
 20
167.4687773594306
 30
0.0
 10
109.6919847549842
 20
167.5713870438298
 30
0.0
  0
SPLINE
  5
1DF
330
1F
100
AcDbEntity
  8
0
  6
Continuous
 62
     7
370
    25
100
AcDbSpline
210
0.0
220
0.0
230
1.0
 70
     8
 71
     3
 72
    10
 73
     6
 74
     0
 42
0.000000001
 43
0.00000001
 40
0.0
 40
0.0
 40
0.0
 40
0.0
 40
0.3559017013548463
 40
0.7118076417980607
 40
1.0
 40
1.0
 40
1.0
 40
1.0
 10
109.6921191705932
 20
158.2715708919499
 30
0.0
 10
109.6525011838
 20
158.2978889995889
 30
0.0
 10
109.5732647383302
 20
158.3505255283376
 30
0.0
 10
109.456717168054
 20
158.374923749863
 30
0.0
 10
109.3977493774161
 20
158.3564046329492
 30
0.0
 10
109.3713651024108
 20
158.348118525089
 30
0.0
  0
SPLINE
  5
1E0
330
1F
100
AcDbEntity
  8
0
  6
Continuous
 62
     7
370
    25
100
AcDbSpline
210
0.0
220
0.0
230
1.0
 70
     8
 71
     3
 72
    10
 73
     6
 74
     0
 42
0.000000001
 43
0.00000001
 40
0.0
 40
0.0
 40
0.0
 40
0.0
 40
0.2329441180184194
 40
0.6082245966549761
 40
1.0
 40
1.0
 40
1.0
 40
1.0
 10
109.3859738053796
 20
167.4919584793925
 30
0.0
 10
109.4060969565028
 20
167.4853962825675
 30
0.0
 10
109.4586391523712
 20
167.4682621752503
 30
0.0
 10
109.5695437624162
 20
167.4908549124964
 30
0.0
 10
109.6506791175097
 20
167.544138893261
 30
0.0
 10
109.6921191705932
 20
167.5713537983888
 30
0.0
  0
SPLINE
  5
1E1
330
1F
100
AcDbEntity
  8
0
  6
Continuous
 62
     7
370
    25
100
AcDbSpline
210
0.0
220
0.0
230
1.0
 70
    24
 71
     3
 72
     8
 73
     4
 74
     0
 42
0.000000001
 43
0.00000001
 40
0.0
 40
0.0
 40
0.0
 40
0.0
 40
1.0
 40
1.0
 40
1.0
 40
1.0
 10
110.6582034597228
 20
154.9214623451693
 30
0.0
 10
110.6582034597228
 20
154.5914360915545
 30
0.0
 10
110.6582034597228
 20
154.4214623451693
 30
0.0
 10
110.6582034597228
 20
154.4214623451693
 30
0.0
  0
SPLINE
  5
1E2
330
1F
100
AcDbEntity
  8
0
  6
Continuous
 62
     7
370
    25
100
AcDbSpline
210
0.0
220
0.0
230
1.0
 70
     8
 71
     3
 72
    14
 73
    10
 74
     0
 42
0.000000001
 43
0.00000001
 40
0.0
 40
0.0
 40
0.0
 40
0.0
 40
0.25
 40
0.25
 40
0.5
 40
0.5
 40
0.75
 40
0.75
 40
1.0
 40
1.0
 40
1.0
 40
1.0
 10
110.6582034597228
 20
157.4442367701176
 30
0.0
 10
110.6582034597228
 20
157.5115977609173
 30
0.0
 10
110.6488156097008
 20
157.5785962128745
 30
0.0
 10
110.6121559629855
 20
157.7118055516032
 30
0.0
 10
110.5844534177226
 20
157.7788518508372
 30
0.0
 10
110.5080671566444
 20
157.9049915273617
 30
0.0
 10
110.4588640119567
 20
157.9657491278993
 30
0.0
 10
110.3301972387617
 20
158.0633609934667
 30
0.0
 10
110.2472722385511
 20
158.0996369646729
 30
0.0
 10
110.1582034597228
 20
158.0996369646729
 30
0.0
  0
SPLINE
  5
1E3
330
1F
100
AcDbEntity
  8
0
  6
Continuous
 62
     7
370
    25
100
AcDbSpline
210
0.0
220
0.0
230
1.0
 70
     8
 71
     3
 72
    10
 73
     6
 74
     0
 42
0.000000001
 43
0.00000001
 40
0.0
 40
0.0
 40
0.0
 40
0.0
 40
0.5
 40
0.5
 40
1.0
 40
1.0
 40
1.0
 40
1.0
 10
109.692047697082
 20
158.2714576322137
 30
0.0
 10
109.755209878221
 20
158.2205326951537
 30
0.0
 10
109.8263139637011
 20
158.1775697606858
 30
0.0
 10
109.9845547732695
 20
158.11667578553
 30
0.0
 10
110.0701077442985
 20
158.0996369646728
 30
0.0
 10
110.1582034597228
 20
158.0996369646728
 30
0.0
  0
SPLINE
  5
1E4
330
1F
100
AcDbEntity
  8
0
  6
Continuous
 62
     7
370
    25
100
AcDbSpline
210
0.0
220
0.0
230
1.0
 70
     8
 71
     3
 72
     8
 73
     4
 74
     0
 42
0.000000001
 43
0.00000001
 40
0.0
 40
0.0
 40
0.0
 40
0.0
 40
1.0
 40
1.0
 40
1.0
 40
1.0
 10
110.1582034597228
 20
167.7432877256658
 30
0.0
 10
109.9819485520207
 20
167.7432877256658
 30
0.0
 10
109.8184904639514
 20
167.6734123967504
 30
0.0
 10
109.6920476970818
 20
167.5714670581251
 30
0.0
  0
SPLINE
  5
1E5
330
1F
100
AcDbEntity
  8
0
  6
Continuous
 62
     7
370
    25
100
AcDbSpline
210
0.0
220
0.0
230
1.0
 70
     8
 71
     3
 72
    14
 73
    10
 74
     0
 42
0.000000001
 43
0.00000001
 40
0.0
 40
0.0
 40
0.0
 40
0.0
 40
0.25
 40
0.25
 40
0.5
 40
0.5
 40
0.75
 40
0.75
 40
1.0
 40
1.0
 40
1.0
 40
1.0
 10
110.1582034597228
 20
167.7432877256658
 30
0.0
 10
110.2473032879758
 20
167.7432877256658
 30
0.0
 10
110.3302181050345
 20
167.7795798993476
 30
0.0
 10
110.4588402188901
 20
167.877157139587
 30
0.0
 10
110.5080072139241
 20
167.9378972922597
 30
0.0
 10
110.5841778571618
 20
168.0635549577562
 30
0.0
 10
110.611861679014
 20
168.1302222189824
 30
0.0
 10
110.6488327636709
 20
168.2642196852353
 30
0.0
 10
110.6582034597228
 20
168.3313908493805
 30
0.0
 10
110.6582034597228
 20
168.398687920221
 30
0.0
  0
SPLINE
  5
1E6
330
1F
100
AcDbEntity
  8
0
  6
Continuous
 62
     7
370
    25
100
AcDbSpline
210
0.0
220
0.0
230
1.0
 70
    24
 71
     3
 72
     8
 73
     4
 74
     0
 42
0.000000001
 43
0.00000001
 40
0.0
 40
0.0
 40
0.0
 40
0.0
 40
1.0
 40
1.0
 40
1.0
 40
1.0
 10
110.6582034597228
 20
171.4214623451693
 30
0.0
 10
110.6582034597228
 20
171.4214623451693
 30
0.0
 10
110.6582034597228
 20
171.2514885987841
 30
0.0
 10
110.6582034597228
 20
170.9214623451693
 30
0.0
  0
LINE
  5
1E7
330
1F
100
AcDbEntity
  8
0
  6
Continuous
 62
     7
370
    25
100
AcDbLine
 10
109.1582034597
 20
157.9771756166
 30
0.0
 11
109.1582034597
 21
154.9214623452
 31
0.0
  0
ARC
  5
1E8
330
1F
100
AcDbEntity
  8
0
  6
Continuous
 62
     7
370
    25
100
AcDbCircle
 10
108.6582034597
 20
154.9214623452
 30
0.0
 40
0.5
100
AcDbArc
 50
270.0
 51
0.0
  0
LINE
  5
1E9
330
1F
100
AcDbEntity
  8
0
  6
Continuous
 62
     7
370
    25
100
AcDbLine
 10
105.030484783
 20
154.4214623452
 30
0.0
 11
108.6582034597
 21
154.4214623452
 31
0.0
  0
SPLINE
  5
1EA
330
1F
100
AcDbEntity
  8
0
  6
Continuous
 62
     7
370
    25
100
AcDbSpline
210
0.0
220
0.0
230
1.0
 70
    24
 71
     3
 72
    10
 73
     6
 74
     0
 42
0.000000001
 43
0.00000001
 40
0.0
 40
0.0
 40
0.0
 40
0.0
 40
0.5
 40
0.5
 40
1.0
 40
1.0
 40
1.0
 40
1.0
 10
105.0304847829918
 20
154.9214623451693
 30
0.0
 10
105.0304847829918
 20
154.7905626512698
 30
0.0
 10
105.0304847829918
 20
154.6604690157877
 30
0.0
 10
105.0304847829918
 20
154.4753488933644
 30
0.0
 10
105.0304847829918
 20
154.4214623451693
 30
0.0
 10
105.0304847829918
 20
154.4214623451693
 30
0.0
  0
SPLINE
  5
1EB
330
1F
100
AcDbEntity
  8
0
  6
Continuous
 62
     7
370
    25
100
AcDbSpline
210
0.0
220
0.0
230
1.0
 70
    24
 71
     3
 72
    10
 73
     6
 74
     0
 42
0.000000001
 43
0.00000001
 40
0.0
 40
0.0
 40
0.0
 40
0.0
 40
0.5
 40
0.5
 40
1.0
 40
1.0
 40
1.0
 40
1.0
 10
99.28592213645379
 20
170.9214623451693
 30
0.0
 10
99.28592213645379
 20
171.0523620390689
 30
0.0
 10
99.28592213645379
 20
171.182455674551
 30
0.0
 10
99.28592213645379
 20
171.3675757969742
 30
0.0
 10
99.28592213645379
 20
171.4214623451693
 30
0.0
 10
99.28592213645379
 20
171.4214623451693
 30
0.0
  0
LINE
  5
1EC
330
1F
100
AcDbEntity
  8
0
  6
Continuous
 62
     7
370
    25
100
AcDbLine
 10
95.6582034597
 20
171.4214623452
 30
0.0
 11
95.6582034597
 21
170.9214623452
 31
0.0
  0
LINE
  5
1ED
330
1F
100
AcDbEntity
  8
0
  6
Continuous
 62
     7
370
    25
100
AcDbLine
 10
99.2859221365
 20
171.4214623452
 30
0.0
 11
95.6582034597
 21
171.4214623452
 31
0.0
  0
SPLINE
  5
1EE
330
1F
100
AcDbEntity
  8
0
  6
Continuous
 62
     7
370
    25
100
AcDbSpline
210
0.0
220
0.0
230
1.0
 70
    24
 71
     3
 72
    10
 73
     6
 74
     0
 42
0.000000001
 43
0.00000001
 40
0.0
 40
0.0
 40
0.0
 40
0.0
 40
0.5
 40
0.5
 40
1.0
 40
1.0
 40
1.0
 40
1.0
 10
99.28592213645379
 20
154.4214623451693
 30
0.0
 10
99.28592213645379
 20
154.4214623451693
 30
0.0
 10
99.28592213645379
 20
154.4753488933644
 30
0.0
 10
99.28592213645379
 20
154.6604690157877
 30
0.0
 10
99.28592213645379
 20
154.7905626512698
 30
0.0
 10
99.28592213645379
 20
154.9214623451693
 30
0.0
  0
LINE
  5
1EF
330
1F
100
AcDbEntity
  8
0
  6
Continuous
 62
     7
370
    25
100
AcDbLine
 10
95.6582034597
 20
154.9214623452
 30
0.0
 11
95.6582034597
 21
154.4214623452
 31
0.0
  0
LINE
  5
1F0
330
1F
100
AcDbEntity
  8
0
  6
Continuous
 62
     7
370
    25
100
AcDbLine
 10
95.6582034597
 20
154.4214623452
 30
0.0
 11
99.2859221365
 21
154.4214623452
 31
0.0
  0
ARC
  5
1F1
330
1F
100
AcDbEntity
  8
0
  6
Continuous
 62
     7
370
    25
100
AcDbCircle
 10
108.6582034597
 20
170.9214623452
 30
0.0
 40
0.5
100
AcDbArc
 50
0.0
 51
90.0
  0
SPLINE
  5
1F2
330
1F
100
AcDbEntity
  8
0
  6
Continuous
 62
     7
370
    25
100
AcDbSpline
210
0.0
220
0.0
230
1.0
 70
    24
 71
     3
 72
    10
 73
     6
 74
     0
 42
0.000000001
 43
0.00000001
 40
0.0
 40
0.0
 40
0.0
 40
0.0
 40
0.5
 40
0.5
 40
1.0
 40
1.0
 40
1.0
 40
1.0
 10
105.0304847829918
 20
171.4214623451693
 30
0.0
 10
105.0304847829918
 20
171.4214623451693
 30
0.0
 10
105.0304847829918
 20
171.3675757969742
 30
0.0
 10
105.0304847829918
 20
171.182455674551
 30
0.0
 10
105.0304847829918
 20
171.0523620390689
 30
0.0
 10
105.0304847829918
 20
170.9214623451693
 30
0.0
  0
LINE
  5
1F3
330
1F
100
AcDbEntity
  8
0
  6
Continuous
 62
     7
370
    25
100
AcDbLine
 10
108.6582034597
 20
171.4214623452
 30
0.0
 11
105.030484783
 21
171.4214623452
 31
0.0
  0
LINE
  5
1F4
330
1F
100
AcDbEntity
  8
0
  6
Continuous
 62
     7
370
    25
100
AcDbLine
 10
109.1582034597
 20
170.9214623452
 30
0.0
 11
109.1582034597
 21
167.8657490737
 31
0.0
  0
SPLINE
  5
1F5
330
1F
100
AcDbEntity
  8
0
  6
Continuous
 62
     7
370
    25
100
AcDbSpline
210
0.0
220
0.0
230
1.0
 70
    24
 71
     3
 72
    10
 73
     6
 74
     0
 42
0.000000001
 43
0.00000001
 40
0.0
 40
0.0
 40
0.0
 40
0.0
 40
0.4103094091626993
 40
0.8225284314884542
 40
1.0
 40
1.0
 40
1.0
 40
1.0
 10
99.28592213645379
 20
154.4214623451693
 30
0.0
 10
99.55732344526278
 20
154.4214623451693
 30
0.0
 10
100.1013891865143
 20
154.4214623451693
 30
0.0
 10
100.7535324612732
 20
154.4214623451693
 30
0.0
 10
101.132696958499
 20
154.4214623451693
 30
0.0
 10
101.2468092049755
 20
154.4214623451693
 30
0.0
  0
SPLINE
  5
1F6
330
1F
100
AcDbEntity
  8
0
  6
Continuous
 62
     7
370
    25
100
AcDbSpline
210
0.0
220
0.0
230
1.0
 70
    24
 71
     3
 72
    10
 73
     6
 74
     0
 42
0.000000001
 43
0.00000001
 40
0.0
 40
0.0
 40
0.0
 40
0.0
 40
0.324193315152785
 40
0.6625717936791318
 40
0.9999999999999999
 40
0.9999999999999999
 40
0.9999999999999999
 40
0.9999999999999999
 10
103.1576123424122
 20
154.4214623451693
 30
0.0
 10
103.3568409736993
 20
154.4214623451693
 30
0.0
 10
103.7640155371905
 20
154.4214623451693
 30
0.0
 10
104.389978987132
 20
154.4214623451693
 30
0.0
 10
104.8171830859036
 20
154.4214623451693
 30
0.0
 10
105.0304847829918
 20
154.4214623451693
 30
0.0
  0
SPLINE
  5
1F7
330
1F
100
AcDbEntity
  8
0
  6
Continuous
 62
     7
370
    25
100
AcDbSpline
210
0.0
220
0.0
230
1.0
 70
    24
 71
     3
 72
    10
 73
     6
 74
     0
 42
0.000000001
 43
0.00000001
 40
0.0
 40
0.0
 40
0.0
 40
0.0
 40
0.3009088398917817
 40
0.6509459265508828
 40
1.0
 40
1.0
 40
1.0
 40
1.0
 10
101.097203656729
 20
171.4214623451693
 30
0.0
 10
100.918415165731
 20
171.4214623451693
 30
0.0
 10
100.53164806387
 20
171.4214623451693
 30
0.0
 10
99.92640000820619
 20
171.4214623451693
 30
0.0
 10
99.49921453423578
 20
171.4214623451693
 30
0.0
 10
99.28592213645379
 20
171.4214623451693
 30
0.0
  0
SPLINE
  5
1F8
330
1F
100
AcDbEntity
  8
0
  6
Continuous
 62
     7
370
    25
100
AcDbSpline
210
0.0
220
0.0
230
1.0
 70
    24
 71
     3
 72
    10
 73
     6
 74
     0
 42
0.000000001
 43
0.00000001
 40
0.0
 40
0.0
 40
0.0
 40
0.0
 40
0.3970810790595634
 40
0.7960102055517698
 40
1.0
 40
1.0
 40
1.0
 40
1.0
 10
105.0304847829918
 20
171.4214623451693
 30
0.0
 10
104.7590707458192
 20
171.4214623451693
 30
0.0
 10
104.2149794886103
 20
171.4214623451693
 30
0.0
 10
103.5412714816792
 20
171.4214623451693
 30
0.0
 10
103.1407542769092
 20
171.4214623451693
 30
0.0
 10
103.0052444771063
 20
171.4214623451693
 30
0.0
  0
LINE
  5
1F9
330
1F
100
AcDbEntity
  8
0
  6
Continuous
 62
     7
370
    25
100
AcDbLine
 10
95.6582034597
 20
170.9214623452
 30
0.0
 11
95.1582034597
 21
170.9214623452
 31
0.0
  0
ARC
  5
1FA
330
1F
100
AcDbEntity
  8
0
  6
Continuous
 62
     7
370
    25
100
AcDbCircle
 10
95.6582034597
 20
170.9214623452
 30
0.0
 40
0.5
100
AcDbArc
 50
90.0
 51
180.0
  0
LINE
  5
1FB
330
1F
100
AcDbEntity
  8
0
  6
Continuous
 62
     7
370
    25
100
AcDbLine
 10
95.1582034597
 20
167.8963995307
 30
0.0
 11
95.1582034597
 21
170.9214623452
 31
0.0
  0
LINE
  5
1FC
330
1F
100
AcDbEntity
  8
0
  6
Continuous
 62
     7
370
    25
100
AcDbLine
 10
95.1582034597
 20
154.9214623452
 30
0.0
 11
95.6582034597
 21
154.9214623452
 31
0.0
  0
LINE
  5
1FD
330
1F
100
AcDbEntity
  8
0
  6
Continuous
 62
     7
370
    25
100
AcDbLine
 10
95.1582034597
 20
154.9214623452
 30
0.0
 11
95.1582034597
 21
157.9465251596
 31
0.0
  0
ARC
  5
1FE
330
1F
100
AcDbEntity
  8
0
  6
Continuous
 62
     7
370
    25
100
AcDbCircle
 10
95.6582034597
 20
154.9214623452
 30
0.0
 40
0.5
100
AcDbArc
 50
180.0
 51
270.0
  0
LINE
  5
1FF
330
1F
100
AcDbEntity
  8
0
  6
Continuous
 62
     7
370
    25
100
AcDbLine
 10
95.1571711988
 20
167.8642873001
 30
0.0
 11
95.1582034597
 21
167.8963995307
 31
0.0
  0
LINE
  5
200
330
1F
100
AcDbEntity
  8
0
  6
Continuous
 62
     7
370
    25
100
AcDbLine
 10
95.1582034597
 20
157.9465251596
 30
0.0
 11
95.1571711988
 21
157.9786373902
 31
0.0
  0
LINE
  5
201
330
1F
100
AcDbEntity
  8
0
  6
Continuous
 62
     7
370
    25
100
AcDbLine
 10
110.1582034597
 20
167.7432877257
 30
0.0
 11
110.1582034597
 21
170.9214623452
 31
0.0
  0
LINE
  5
202
330
1F
100
AcDbEntity
  8
0
  6
Continuous
 62
     7
370
    25
100
AcDbLine
 10
109.1582034597
 20
170.9214623452
 30
0.0
 11
110.1582034597
 21
170.9214623452
 31
0.0
  0
LINE
  5
203
330
1F
100
AcDbEntity
  8
0
  6
Continuous
 62
     7
370
    25
100
AcDbLine
 10
110.1582034597
 20
154.9214623452
 30
0.0
 11
110.1582034597
 21
158.0996369647
 31
0.0
  0
LINE
  5
204
330
1F
100
AcDbEntity
  8
0
  6
Continuous
 62
     7
370
    25
100
AcDbLine
 10
110.1582034597
 20
154.9214623452
 30
0.0
 11
109.1582034597
 21
154.9214623452
 31
0.0
  0
LINE
  5
205
330
1F
100
AcDbEntity
  8
0
  6
Continuous
 62
     7
370
    25
100
AcDbLine
 10
110.1582034597
 20
171.4214623452
 30
0.0
 11
110.1582034597
 21
170.9214623452
 31
0.0
  0
LINE
  5
206
330
1F
100
AcDbEntity
  8
0
  6
Continuous
 62
     7
370
    25
100
AcDbLine
 10
110.1582034597
 20
171.4214623452
 30
0.0
 11
108.6582034597
 21
171.4214623452
 31
0.0
  0
LINE
  5
207
330
1F
100
AcDbEntity
  8
0
  6
Continuous
 62
     7
370
    25
100
AcDbLine
 10
110.1582034597
 20
154.4214623452
 30
0.0
 11
110.1582034597
 21
154.9214623452
 31
0.0
  0
LINE
  5
208
330
1F
100
AcDbEntity
  8
0
  6
Continuous
 62
     7
370
    25
100
AcDbLine
 10
108.6582034597
 20
154.4214623452
 30
0.0
 11
110.1582034597
 21
154.4214623452
 31
0.0
  0
ARC
  5
209
330
1F
100
AcDbEntity
  8
0
  6
Continuous
 62
     7
370
    25
100
AcDbCircle
 10
110.1582034597
 20
170.9214623452
 30
0.0
 40
0.5
100
AcDbArc
 50
0.0
 51
90.0
  0
LINE
  5
20A
330
1F
100
AcDbEntity
  8
0
  6
Continuous
 62
     7
370
    25
100
AcDbLine
 10
110.1582034597
 20
170.9214623452
 30
0.0
 11
110.6582034597
 21
170.9214623452
 31
0.0
  0
LINE
  5
20B
330
1F
100
AcDbEntity
  8
0
  6
Continuous
 62
     7
370
    25
100
AcDbLine
 10
110.6582034597
 20
168.3986879202
 30
0.0
 11
110.6582034597
 21
170.9214623452
 31
0.0
  0
LINE
  5
20C
330
1F
100
AcDbEntity
  8
0
  6
Continuous
 62
     7
370
    25
100
AcDbLine
 10
110.6582034597
 20
154.9214623452
 30
0.0
 11
110.6582034597
 21
157.4442367701
 31
0.0
  0
LINE
  5
20D
330
1F
100
AcDbEntity
  8
0
  6
Continuous
 62
     7
370
    25
100
AcDbLine
 10
110.1582034597
 20
154.9214623452
 30
0.0
 11
110.6582034597
 21
154.9214623452
 31
0.0
  0
ARC
  5
20E
330
1F
100
AcDbEntity
  8
0
  6
Continuous
 62
     7
370
    25
100
AcDbCircle
 10
110.1582034597
 20
154.9214623452
 30
0.0
 40
0.5
100
AcDbArc
 50
270.0
 51
0.0
  0
SPLINE
  5
20F
330
1F
100
AcDbEntity
  8
0
  6
Continuous
 62
     7
370
    25
100
AcDbSpline
210
0.0
220
0.0
230
1.0
 70
     8
 71
     3
 72
    10
 73
     6
 74
     0
 42
0.000000001
 43
0.00000001
 40
0.0
 40
0.0
 40
0.0
 40
0.0
 40
0.5
 40
0.5
 40
1.0
 40
1.0
 40
1.0
 40
1.0
 10
103.1582034597228
 20
158.022482859603
 30
0.0
 10
102.8297506351136
 20
158.0316402852011
 30
0.0
 10
102.4988391763272
 20
158.0371214726453
 30
0.0
 10
101.8312107731386
 20
158.037262743108
 30
0.0
 10
101.4926082747116
 20
158.0318062296077
 30
0.0
 10
101.1582034597228
 20
158.022482859603
 30
0.0
  0
LINE
  5
210
330
1F
100
AcDbEntity
  8
0
  6
Continuous
 62
     7
370
    25
100
AcDbLine
 10
101.1582034597
 20
158.0224828596
 30
0.0
 11
101.1582034597
 21
167.8204418307
 31
0.0
  0
SPLINE
  5
211
330
1F
100
AcDbEntity
  8
0
  6
Continuous
 62
     7
370
    25
100
AcDbSpline
210
0.0
220
0.0
230
1.0
 70
     8
 71
     3
 72
    10
 73
     6
 74
     0
 42
0.000000001
 43
0.00000001
 40
0.0
 40
0.0
 40
0.0
 40
0.0
 40
0.5
 40
0.5
 40
1.0
 40
1.0
 40
1.0
 40
1.0
 10
101.1582034597228
 20
167.8204418307357
 30
0.0
 10
101.4898320384648
 20
167.8111958635571
 30
0.0
 10
101.8222540930239
 20
167.8057590646963
 30
0.0
 10
102.4889114194585
 20
167.8057048698346
 30
0.0
 10
102.8231477544695
 20
167.8111003135917
 30
0.0
 10
103.1582034597228
 20
167.8204418307357
 30
0.0
  0
SPLINE
  5
212
330
1F
100
AcDbEntity
  8
0
  6
Continuous
 62
     7
370
    25
100
AcDbSpline
210
0.0
220
0.0
230
1.0
 70
    24
 71
     3
 72
    10
 73
     6
 74
     0
 42
0.000000001
 43
0.00000001
 40
-0.2904940295525288
 40
-0.2904940295525288
 40
-0.2904940295525288
 40
-0.2904940295525288
 40
-0.1303072746364131
 40
-0.1303072746364131
 40
0.0010563617272233
 40
0.0010563617272233
 40
0.0010563617272233
 40
0.0010563617272233
 10
110.6582034597228
 20
171.4214623451693
 30
0.0
 10
110.5287001439691
 20
171.4214623451693
 30
0.0
 10
110.3969091657833
 20
171.4214623451693
 30
0.0
 10
110.2184852263581
 20
171.4214623451693
 30
0.0
 10
110.1582034597228
 20
171.4214623451693
 30
0.0
 10
110.1582034597228
 20
171.4214623451693
 30
0.0
  0
SPLINE
  5
213
330
1F
100
AcDbEntity
  8
0
  6
Continuous
 62
     7
370
    25
100
AcDbSpline
210
0.0
220
0.0
230
1.0
 70
    24
 71
     3
 72
    10
 73
     6
 74
     0
 42
0.000000001
 43
0.00000001
 40
-0.8711658421011628
 40
-0.8711658421011628
 40
-0.8711658421011628
 40
-0.8711658421011628
 40
-0.739802205737527
 40
-0.739802205737527
 40
-0.579615450786466
 40
-0.579615450786466
 40
-0.579615450786466
 40
-0.579615450786466
 10
110.1582034597228
 20
154.4214623451693
 30
0.0
 10
110.1582034597228
 20
154.4214623451693
 30
0.0
 10
110.2184852263581
 20
154.4214623451693
 30
0.0
 10
110.3969091658047
 20
154.4214623451693
 30
0.0
 10
110.5287001439408
 20
154.4214623451693
 30
0.0
 10
110.6582034597228
 20
154.4214623451693
 30
0.0
  0
SPLINE
  5
214
330
1F
100
AcDbEntity
  8
0
  6
Continuous
 62
     7
370
    25
100
AcDbSpline
210
0.0
220
0.0
230
1.0
 70
     8
 71
     3
 72
    24
 73
    20
 74
     0
 42
0.000000001
 43
0.00000001
 40
0.0
 40
0.0
 40
0.0
 40
0.0
 40
0.1250000000000001
 40
0.1250000000000001
 40
0.2500000000000002
 40
0.2500000000000002
 40
0.3750000000000001
 40
0.3750000000000001
 40
0.4375000000000001
 40
0.4375000000000001
 40
0.5000000000000001
 40
0.5000000000000001
 40
0.6250000000000001
 40
0.6250000000000001
 40
0.75
 40
0.75
 40
0.875
 40
0.875
 40
1.0
 40
1.0
 40
1.0
 40
1.0
 10
101.1582034597228
 20
158.022482859603
 30
0.0
 10
100.9668004796935
 20
158.3866695739796
 30
0.0
 10
100.7826974081204
 20
158.7571726265869
 30
0.0
 10
100.4378357098258
 20
159.5183778083209
 30
0.0
 10
100.2768997630367
 20
159.9089265090137
 30
0.0
 10
99.99424446578253
 20
160.7239565669697
 30
0.0
 10
99.87344990561839
 20
161.1475507333083
 30
0.0
 10
99.74673170198741
 20
161.8005756211866
 30
0.0
 10
99.7133997342503
 20
162.0218685917569
 30
0.0
 10
99.6681688383099
 20
162.473160172691
 30
0.0
 10
99.65669014693275
 20
162.7012648372709
 30
0.0
 10
99.65720387924799
 20
163.3770558067864
 30
0.0
 10
99.7040564220964
 20
163.8234398488588
 30
0.0
 10
99.87517284559513
 20
164.7032332587172
 30
0.0
 10
99.9949704674495
 20
165.1209260958023
 30
0.0
 10
100.2754063654604
 20
165.9298270703821
 30
0.0
 10
100.4365763608063
 20
166.321664958374
 30
0.0
 10
100.7825194919734
 20
167.0854611219214
 30
0.0
 10
100.9668515160017
 20
167.4563522242796
 30
0.0
 10
101.1582034597228
 20
167.8204418307357
 30
0.0
  0
LINE
  5
215
330
1F
100
AcDbEntity
  8
0
  6
Continuous
 62
     8
370
    25
100
AcDbLine
 10
160.1715896592
 20
155.0693830559
 30
0.0
 11
160.1715896592
 21
154.9343233926
 31
0.0
  0
LINE
  5
216
330
1F
100
AcDbEntity
  8
0
  6
Continuous
 62
     8
370
    25
100
AcDbLine
 10
160.1715896592
 20
170.9086012978
 30
0.0
 11
160.1715896592
 21
155.0693830559
 31
0.0
  0
LINE
  5
217
330
1F
100
AcDbEntity
  8
0
  6
Continuous
 62
     8
370
    25
100
AcDbLine
 10
146.6765671471
 20
155.0758179745
 30
0.0
 11
146.6765671471
 21
154.940868995
 31
0.0
  0
LINE
  5
218
330
1F
100
AcDbEntity
  8
0
  6
Continuous
 62
     8
370
    25
100
AcDbLine
 10
146.6765671471
 20
170.9020556954
 30
0.0
 11
146.6765671471
 21
155.0758179745
 31
0.0
  0
LINE
  5
219
330
1F
100
AcDbEntity
  8
0
  6
Continuous
 62
     8
370
    25
100
AcDbLine
 10
151.1765671471
 20
155.0758179745
 30
0.0
 11
151.1765671471
 21
154.940868995
 31
0.0
  0
LINE
  5
21A
330
1F
100
AcDbEntity
  8
0
  6
Continuous
 62
     8
370
    25
100
AcDbLine
 10
151.1765671471
 20
170.9020556954
 30
0.0
 11
151.1765671471
 21
155.0758179745
 31
0.0
  0
LINE
  5
21B
330
1F
100
AcDbEntity
  8
0
  6
Continuous
 62
     8
370
    25
100
AcDbLine
 10
155.6765671471
 20
155.0758179745
 30
0.0
 11
155.6765671471
 21
154.940868995
 31
0.0
  0
LINE
  5
21C
330
1F
100
AcDbEntity
  8
0
  6
Continuous
 62
     8
370
    25
100
AcDbLine
 10
155.6765671471
 20
170.9020556954
 30
0.0
 11
155.6765671471
 21
155.0758179745
 31
0.0
  0
LINE
  5
21D
330
1F
100
AcDbEntity
  8
0
  6
Continuous
 62
     8
370
    25
100
AcDbLine
 10
116.8907748472
 20
162.9214623452
 30
0.0
 11
116.8907748472
 21
153.0464623452
 31
0.0
  0
LINE
  5
21E
330
1F
100
AcDbEntity
  8
0
  6
Continuous
 62
     8
370
    25
100
AcDbLine
 10
116.8907748472
 20
172.7964623452
 30
0.0
 11
116.8907748472
 21
162.9214623452
 31
0.0
  0
LINE
  5
21F
330
1F
100
AcDbEntity
  8
0
  6
Continuous
 62
     8
370
    25
100
AcDbLine
 10
114.6582034597
 20
162.9214623452
 30
0.0
 11
114.6582034597
 21
154.4214623452
 31
0.0
  0
LINE
  5
220
330
1F
100
AcDbEntity
  8
0
  6
Continuous
 62
     8
370
    25
100
AcDbLine
 10
114.6582034597
 20
171.4214623452
 30
0.0
 11
114.6582034597
 21
162.9214623452
 31
0.0
  0
LINE
  5
221
330
1F
100
AcDbEntity
  8
0
  6
Continuous
 62
     8
370
    25
100
AcDbLine
 10
109.1582034597
 20
154.9214623452
 30
0.0
 11
105.2316333441
 21
154.9214623452
 31
0.0
  0
LINE
  5
222
330
1F
100
AcDbEntity
  8
0
  6
Continuous
 62
     8
370
    25
100
AcDbLine
 10
95.6582034597
 20
170.9214623452
 30
0.0
 11
99.0847735754
 21
170.9214623452
 31
0.0
  0
LINE
  5
223
330
1F
100
AcDbEntity
  8
0
  6
Continuous
 62
     8
370
    25
100
AcDbLine
 10
95.6582034597
 20
170.9214623452
 30
0.0
 11
95.6582034597
 21
168.5067977204
 31
0.0
  0
LINE
  5
224
330
1F
100
AcDbEntity
  8
0
  6
Continuous
 62
     8
370
    25
100
AcDbLine
 10
99.0847735754
 20
154.9214623452
 30
0.0
 11
95.6582034597
 21
154.9214623452
 31
0.0
  0
LINE
  5
225
330
1F
100
AcDbEntity
  8
0
  6
Continuous
 62
     8
370
    25
100
AcDbLine
 10
95.6582034597
 20
157.3361269699
 30
0.0
 11
95.6582034597
 21
154.9214623452
 31
0.0
  0
LINE
  5
226
330
1F
100
AcDbEntity
  8
0
  6
Continuous
 62
     8
370
    25
100
AcDbLine
 10
105.2316333441
 20
170.9214623452
 30
0.0
 11
109.1582034597
 21
170.9214623452
 31
0.0
  0
LINE
  5
227
330
1F
100
AcDbEntity
  8
0
  6
Continuous
 62
     8
370
    25
100
AcDbLine
 10
95.1799535893
 20
167.8963995307
 30
0.0
 11
95.1582034597
 21
167.8963995307
 31
0.0
  0
LINE
  5
228
330
1F
100
AcDbEntity
  8
0
  6
Continuous
 62
     8
370
    25
100
AcDbLine
 10
95.1582034597
 20
157.9465251596
 30
0.0
 11
95.1799535893
 21
157.9465251596
 31
0.0
  0
INSERT
  5
234
330
1F
100
AcDbEntity
  8
0
  6
Continuous
 62
     7
370
    18
100
AcDbBlockReference
  2
SW_CENTERMARKSYMBOL_1
 10
102.1582034597
 20
162.9214623452
 30
0.0
  0
ENDSEC
  0
SECTION
  2
OBJECTS
  0
DICTIONARY
  5
C
330
0
100
AcDbDictionary
281
     1
  3
ACAD_GROUP
350
D
  3
ACAD_LAYOUT
350
1A
  3
ACAD_MLINESTYLE
350
17
  3
ACAD_PLOTSETTINGS
350
19
  3
ACAD_PLOTSTYLENAME
350
E
  3
ACAD_SCALELIST
350
47
  0
DICTIONARY
  5
D
102
{ACAD_REACTORS
330
C
102
}
330
C
100
AcDbDictionary
281
     1
  0
DICTIONARY
  5
1A
102
{ACAD_REACTORS
330
C
102
}
330
C
100
AcDbDictionary
281
     1
  3
Layout1
350
1E
  3
Layout2
350
26
  3
Model
350
22
  0
DICTIONARY
  5
17
102
{ACAD_REACTORS
330
C
102
}
330
C
100
AcDbDictionary
281
     1
  3
Standard
350
18
  0
DICTIONARY
  5
19
102
{ACAD_REACTORS
330
C
102
}
330
C
100
AcDbDictionary
281
     1
  0
ACDBDICTIONARYWDFLT
  5
E
102
{ACAD_REACTORS
330
C
102
}
330
C
100
AcDbDictionary
281
     1
  3
Normal
350
F
100
AcDbDictionaryWithDefault
340
F
  0
DICTIONARY
  5
47
102
{ACAD_REACTORS
330
C
102
}
330
C
100
AcDbDictionary
281
     1
  3
A0
350
48
  3
A1
350
49
  3
A2
350
4A
  3
A3
350
4B
  3
A4
350
4C
  3
A5
350
4D
  3
A6
350
4E
  3
A7
350
4F
  3
A8
350
50
  3
A9
350
51
  3
B0
350
52
  3
B1
350
53
  3
B2
350
54
  3
B3
350
55
  3
B4
350
56
  3
B5
350
57
  3
B6
350
58
  3
B7
350
59
  3
B8
350
5A
  3
B9
350
5B
  3
C0
350
5C
  3
C1
350
5D
  3
C2
350
5E
  3
C3
350
5F
  3
C4
350
60
  3
C5
350
61
  3
C6
350
62
  3
C7
350
63
  3
C8
350
64
  3
C9
350
65
  3
D0
350
66
  3
D1
350
67
  3
D2
350
68
  0
LAYOUT
  5
1E
102
{ACAD_REACTORS
330
1A
102
}
330
1A
100
AcDbPlotSettings
  1

  2
none_device
  4

  6

 40
0.0
 41
0.0
 42
0.0
 43
0.0
 44
0.0
 45
0.0
 46
0.0
 47
0.0
 48
0.0
 49
0.0
140
0.0
141
0.0
142
1.0
143
1.0
 70
   688
 72
     1
 73
     0
 74
     5
  7

 75
    16
147
1.0
148
0.0
149
0.0
100
AcDbLayout
  1
Layout1
 70
     1
 71
     1
 10
0.0
 20
0.0
 11
420.0
 21
297.0
 12
0.0
 22
0.0
 32
0.0
 14
1.0000000000E+20
 24
1.0000000000E+20
 34
1.0000000000E+20
 15
-1.0000000000E+20
 25
-1.0000000000E+20
 35
-1.0000000000E+20
146
0.0
 13
0.0
 23
0.0
 33
0.0
 16
1.0
 26
0.0
 36
0.0
 17
0.0
 27
1.0
 37
0.0
 76
     0
330
1B
  0
LAYOUT
  5
26
102
{ACAD_REACTORS
330
1A
102
}
330
1A
100
AcDbPlotSettings
  1

  2
none_device
  4

  6

 40
0.0
 41
0.0
 42
0.0
 43
0.0
 44
0.0
 45
0.0
 46
0.0
 47
0.0
 48
0.0
 49
0.0
140
0.0
141
0.0
142
1.0
143
1.0
 70
   688
 72
     1
 73
     0
 74
     5
  7

 75
    16
147
1.0
148
0.0
149
0.0
100
AcDbLayout
  1
Layout2
 70
     1
 71
     2
 10
0.0
 20
0.0
 11
0.0
 21
0.0
 12
0.0
 22
0.0
 32
0.0
 14
0.0
 24
0.0
 34
0.0
 15
0.0
 25
0.0
 35
0.0
146
0.0
 13
0.0
 23
0.0
 33
0.0
 16
1.0
 26
0.0
 36
0.0
 17
0.0
 27
1.0
 37
0.0
 76
     0
330
23
  0
LAYOUT
  5
22
102
{ACAD_REACTORS
330
1A
102
}
330
1A
100
AcDbPlotSettings
  1

  2
none_device
  4
Letter_(8.50_x_11.00_Inches)
  6

 40
6.35
 41
6.35
 42
6.35000508
 43
6.35000508
 44
215.9
 45
279.4
 46
0.0
 47
0.0
 48
0.0
 49
0.0
140
0.0
141
0.0
142
1.0
143
1.0
 70
  1712
 72
     1
 73
     0
 74
     0
  7

 75
     0
147
1.0
148
0.0
149
0.0
100
AcDbLayout
  1
Model
 70
     1
 71
     0
 10
0.0
 20
0.0
 11
431.8
 21
279.4
 12
0.0
 22
0.0
 32
0.0
 14
0.0
 24
0.0
 34
0.0
 15
431.8
 25
279.4
 35
0.0
146
0.0
 13
0.0
 23
0.0
 33
0.0
 16
1.0
 26
0.0
 36
0.0
 17
0.0
 27
1.0
 37
0.0
 76
     0
330
1F
331
29
  0
MLINESTYLE
  5
18
102
{ACAD_REACTORS
330
17
102
}
330
17
100
AcDbMlineStyle
  2
Standard
 70
     0
  3

 62
   256
 51
90.0
 52
90.0
 71
     2
 49
0.5
 62
   256
  6
BYLAYER
 49
-0.5
 62
   256
  6
BYLAYER
  0
ACDBPLACEHOLDER
  5
F
102
{ACAD_REACTORS
330
E
102
}
330
E
  0
SCALE
  5
48
102
{ACAD_REACTORS
330
47
102
}
330
47
100
AcDbScale
 70
     0
300
1:1
140
1.0
141
1.0
290
     1
  0
SCALE
  5
49
102
{ACAD_REACTORS
330
47
102
}
330
47
100
AcDbScale
 70
     0
300
1:2
140
1.0
141
2.0
290
     0
  0
SCALE
  5
4A
102
{ACAD_REACTORS
330
47
102
}
330
47
100
AcDbScale
 70
     0
300
1:4
140
1.0
141
4.0
290
     0
  0
SCALE
  5
4B
102
{ACAD_REACTORS
330
47
102
}
330
47
100
AcDbScale
 70
     0
300
1:5
140
1.0
141
5.0
290
     0
  0
SCALE
  5
4C
102
{ACAD_REACTORS
330
47
102
}
330
47
100
AcDbScale
 70
     0
300
1:8
140
1.0
141
8.0
290
     0
  0
SCALE
  5
4D
102
{ACAD_REACTORS
330
47
102
}
330
47
100
AcDbScale
 70
     0
300
1:10
140
1.0
141
10.0
290
     0
  0
SCALE
  5
4E
102
{ACAD_REACTORS
330
47
102
}
330
47
100
AcDbScale
 70
     0
300
1:16
140
1.0
141
16.0
290
     0
  0
SCALE
  5
4F
102
{ACAD_REACTORS
330
47
102
}
330
47
100
AcDbScale
 70
     0
300
1:20
140
1.0
141
20.0
290
     0
  0
SCALE
  5
50
102
{ACAD_REACTORS
330
47
102
}
330
47
100
AcDbScale
 70
     0
300
1:30
140
1.0
141
30.0
290
     0
  0
SCALE
  5
51
102
{ACAD_REACTORS
330
47
102
}
330
47
100
AcDbScale
 70
     0
300
1:40
140
1.0
141
40.0
290
     0
  0
SCALE
  5
52
102
{ACAD_REACTORS
330
47
102
}
330
47
100
AcDbScale
 70
     0
300
1:50
140
1.0
141
50.0
290
     0
  0
SCALE
  5
53
102
{ACAD_REACTORS
330
47
102
}
330
47
100
AcDbScale
 70
     0
300
1:100
140
1.0
141
100.0
290
     0
  0
SCALE
  5
54
102
{ACAD_REACTORS
330
47
102
}
330
47
100
AcDbScale
 70
     0
300
2:1
140
2.0
141
1.0
290
     0
  0
SCALE
  5
55
102
{ACAD_REACTORS
330
47
102
}
330
47
100
AcDbScale
 70
     0
300
4:1
140
4.0
141
1.0
290
     0
  0
SCALE
  5
56
102
{ACAD_REACTORS
330
47
102
}
330
47
100
AcDbScale
 70
     0
300
8:1
140
8.0
141
1.0
290
     0
  0
SCALE
  5
57
102
{ACAD_REACTORS
330
47
102
}
330
47
100
AcDbScale
 70
     0
300
10:1
140
10.0
141
1.0
290
     0
  0
SCALE
  5
58
102
{ACAD_REACTORS
330
47
102
}
330
47
100
AcDbScale
 70
     0
300
100:1
140
100.0
141
1.0
290
     0
  0
SCALE
  5
59
102
{ACAD_REACTORS
330
47
102
}
330
47
100
AcDbScale
 70
     0
300
1/128" = 1'-0"
140
0.0078125
141
12.0
290
     0
  0
SCALE
  5
5A
102
{ACAD_REACTORS
330
47
102
}
330
47
100
AcDbScale
 70
     0
300
1/64" = 1'-0"
140
0.015625
141
12.0
290
     0
  0
SCALE
  5
5B
102
{ACAD_REACTORS
330
47
102
}
330
47
100
AcDbScale
 70
     0
300
1/32" = 1'-0"
140
0.03125
141
12.0
290
     0
  0
SCALE
  5
5C
102
{ACAD_REACTORS
330
47
102
}
330
47
100
AcDbScale
 70
     0
300
1/16" = 1'-0"
140
0.0625
141
12.0
290
     0
  0
SCALE
  5
5D
102
{ACAD_REACTORS
330
47
102
}
330
47
100
AcDbScale
 70
     0
300
3/32" = 1'-0"
140
0.09375
141
12.0
290
     0
  0
SCALE
  5
5E
102
{ACAD_REACTORS
330
47
102
}
330
47
100
AcDbScale
 70
     0
300
1/8" = 1'-0"
140
0.125
141
12.0
290
     0
  0
SCALE
  5
5F
102
{ACAD_REACTORS
330
47
102
}
330
47
100
AcDbScale
 70
     0
300
3/16" = 1'-0"
140
0.1875
141
12.0
290
     0
  0
SCALE
  5
60
102
{ACAD_REACTORS
330
47
102
}
330
47
100
AcDbScale
 70
     0
300
1/4" = 1'-0"
140
0.25
141
12.0
290
     0
  0
SCALE
  5
61
102
{ACAD_REACTORS
330
47
102
}
330
47
100
AcDbScale
 70
     0
300
3/8" = 1'-0"
140
0.375
141
12.0
290
     0
  0
SCALE
  5
62
102
{ACAD_REACTORS
330
47
102
}
330
47
100
AcDbScale
 70
     0
300
1/2" = 1'-0"
140
0.5
141
12.0
290
     0
  0
SCALE
  5
63
102
{ACAD_REACTORS
330
47
102
}
330
47
100
AcDbScale
 70
     0
300
3/4" = 1'-0"
140
0.75
141
12.0
290
     0
  0
SCALE
  5
64
102
{ACAD_REACTORS
330
47
102
}
330
47
100
AcDbScale
 70
     0
300
1" = 1'-0"
140
1.0
141
12.0
290
     0
  0
SCALE
  5
65
102
{ACAD_REACTORS
330
47
102
}
330
47
100
AcDbScale
 70
     0
300
1-1/2" = 1'-0"
140
1.5
141
12.0
290
     0
  0
SCALE
  5
66
102
{ACAD_REACTORS
330
47
102
}
330
47
100
AcDbScale
 70
     0
300
3" = 1'-0"
140
3.0
141
12.0
290
     0
  0
SCALE
  5
67
102
{ACAD_REACTORS
330
47
102
}
330
47
100
AcDbScale
 70
     0
300
6" = 1'-0"
140
6.0
141
12.0
290
     0
  0
SCALE
  5
68
102
{ACAD_REACTORS
330
47
102
}
330
47
100
AcDbScale
 70
     0
300
1'-0" = 1'-0"
140
12.0
141
12.0
290
     0
  0
ENDSEC
  0
EOF
