  0
SECTION
  2
HEADER
  9
$ACADVER
  1
AC1015
  9
$ACADMAINTVER
 70
     6
  9
$DWGCODEPAGE
  3
DOS932
  9
$INSBASE
 10
0.0
 20
0.0
 30
0.0
  9
$EXTMIN
 10
0.0
 20
0.0
 30
0.0
  9
$EXTMAX
 10
431.8
 20
279.4
 30
0.0
  9
$LIMMIN
 10
0.0
 20
0.0
  9
$LIMMAX
 10
431.8
 20
279.4
  9
$ORTHOMODE
 70
     0
  9
$REGENMODE
 70
     1
  9
$FILLMODE
 70
     1
  9
$QTEXTMODE
 70
     0
  9
$MIRRTEXT
 70
     1
  9
$LTSCALE
 40
1.0
  9
$ATTMODE
 70
     1
  9
$TEXTSIZE
 40
3.5
  9
$TRACEWID
 40
1.0
  9
$TEXTSTYLE
  7
Standard
  9
$CLAYER
  8
0
  9
$CELTYPE
  6
ByLayer
  9
$CECOLOR
 62
   256
  9
$CELTSCALE
 40
1.0
  9
$DISPSILH
 70
     0
  9
$DIMSCALE
 40
1.0
  9
$DIMASZ
 40
3.302
  9
$DIMEXO
 40
1.0
  9
$DIMDLI
 40
3.75
  9
$DIMRND
 40
0.0
  9
$DIMDLE
 40
0.0
  9
$DIMEXE
 40
1.0
  9
$DIMTP
 40
0.0
  9
$DIMTM
 40
0.0
  9
$DIMTXT
 40
3.5
  9
$DIMCEN
 40
2.5
  9
$DIMTSZ
 40
0.0
  9
$DIMTOL
 70
     0
  9
$DIMLIM
 70
     0
  9
$DIMTIH
 70
     1
  9
$DIMTOH
 70
     1
  9
$DIMSE1
 70
     0
  9
$DIMSE2
 70
     0
  9
$DIMTAD
 70
     1
  9
$DIMZIN
 70
     1
  9
$DIMBLK
  1

  9
$DIMASO
 70
     1
  9
$DIMSHO
 70
     1
  9
$DIMPOST
  1

  9
$DIMAPOST
  1

  9
$DIMALT
 70
     0
  9
$DIMALTD
 70
     3
  9
$DIMALTF
 40
0.0393700787
  9
$DIMLFAC
 40
1.0
  9
$DIMTOFL
 70
     1
  9
$DIMTVP
 40
0.0
  9
$DIMTIX
 70
     0
  9
$DIMSOXD
 70
     0
  9
$DIMSAH
 70
     0
  9
$DIMBLK1
  1

  9
$DIMBLK2
  1

  9
$DIMSTYLE
  2
ISO-25
  9
$DIMCLRD
 70
     0
  9
$DIMCLRE
 70
     0
  9
$DIMCLRT
 70
     0
  9
$DIMTFAC
 40
1.0
  9
$DIMGAP
 40
1.524
  9
$DIMJUST
 70
     0
  9
$DIMSD1
 70
     0
  9
$DIMSD2
 70
     0
  9
$DIMTOLJ
 70
     0
  9
$DIMTZIN
 70
     1
  9
$DIMALTZ
 70
     0
  9
$DIMALTTZ
 70
     0
  9
$DIMUPT
 70
     0
  9
$DIMDEC
 70
     2
  9
$DIMTDEC
 70
     2
  9
$DIMALTU
 70
     2
  9
$DIMALTTD
 70
     3
  9
$DIMTXSTY
  7
Standard
  9
$DIMAUNIT
 70
     0
  9
$DIMADEC
 70
     2
  9
$DIMALTRND
 40
0.0
  9
$DIMAZIN
 70
     0
  9
$DIMDSEP
 70
    44
  9
$DIMATFIT
 70
     3
  9
$DIMFRAC
 70
     0
  9
$DIMLDRBLK
  1

  9
$DIMLUNIT
 70
     2
  9
$DIMLWD
 70
    -2
  9
$DIMLWE
 70
    -2
  9
$DIMTMOVE
 70
     0
  9
$LUNITS
 70
     2
  9
$LUPREC
 70
     2
  9
$SKETCHINC
 40
1.0
  9
$FILLETRAD
 40
10.0
  9
$AUNITS
 70
     0
  9
$AUPREC
 70
     2
  9
$MENU
  1
.
  9
$ELEVATION
 40
0.0
  9
$PELEVATION
 40
0.0
  9
$THICKNESS
 40
0.0
  9
$LIMCHECK
 70
     0
  9
$CHAMFERA
 40
0.0
  9
$CHAMFERB
 40
0.0
  9
$CHAMFERC
 40
0.0
  9
$CHAMFERD
 40
0.0
  9
$SKPOLY
 70
     0
  9
$TDCREATE
 40
2459296.613947488
  9
$TDUCREATE
 40
2459296.238947488
  9
$TDUPDATE
 40
2459296.61394831
  9
$TDUUPDATE
 40
2459296.23894831
  9
$TDINDWG
 40
0.0000000116
  9
$TDUSRTIMER
 40
0.0000000116
  9
$USRTIMER
 70
     1
  9
$ANGBASE
 50
0.0
  9
$ANGDIR
 70
     0
  9
$PDMODE
 70
     0
  9
$PDSIZE
 40
-1.0
  9
$PLINEWID
 40
0.0
  9
$SPLFRAME
 70
     0
  9
$SPLINETYPE
 70
     6
  9
$SPLINESEGS
 70
     8
  9
$HANDSEED
  5
275
  9
$SURFTAB1
 70
     6
  9
$SURFTAB2
 70
     6
  9
$SURFTYPE
 70
     6
  9
$SURFU
 70
     6
  9
$SURFV
 70
     6
  9
$UCSBASE
  2

  9
$UCSNAME
  2

  9
$UCSORG
 10
0.0
 20
0.0
 30
0.0
  9
$UCSXDIR
 10
1.0
 20
0.0
 30
0.0
  9
$UCSYDIR
 10
0.0
 20
1.0
 30
0.0
  9
$UCSORTHOREF
  2

  9
$UCSORTHOVIEW
 70
     0
  9
$UCSORGTOP
 10
0.0
 20
0.0
 30
0.0
  9
$UCSORGBOTTOM
 10
0.0
 20
0.0
 30
0.0
  9
$UCSORGLEFT
 10
0.0
 20
0.0
 30
0.0
  9
$UCSORGRIGHT
 10
0.0
 20
0.0
 30
0.0
  9
$UCSORGFRONT
 10
0.0
 20
0.0
 30
0.0
  9
$UCSORGBACK
 10
0.0
 20
0.0
 30
0.0
  9
$PUCSBASE
  2

  9
$PUCSNAME
  2

  9
$PUCSORG
 10
0.0
 20
0.0
 30
0.0
  9
$PUCSXDIR
 10
1.0
 20
0.0
 30
0.0
  9
$PUCSYDIR
 10
0.0
 20
1.0
 30
0.0
  9
$PUCSORTHOREF
  2

  9
$PUCSORTHOVIEW
 70
     0
  9
$PUCSORGTOP
 10
0.0
 20
0.0
 30
0.0
  9
$PUCSORGBOTTOM
 10
0.0
 20
0.0
 30
0.0
  9
$PUCSORGLEFT
 10
0.0
 20
0.0
 30
0.0
  9
$PUCSORGRIGHT
 10
0.0
 20
0.0
 30
0.0
  9
$PUCSORGFRONT
 10
0.0
 20
0.0
 30
0.0
  9
$PUCSORGBACK
 10
0.0
 20
0.0
 30
0.0
  9
$USERI1
 70
     0
  9
$USERI2
 70
     0
  9
$USERI3
 70
     0
  9
$USERI4
 70
     0
  9
$USERI5
 70
     0
  9
$USERR1
 40
0.0
  9
$USERR2
 40
0.0
  9
$USERR3
 40
0.0
  9
$USERR4
 40
0.0
  9
$USERR5
 40
0.0
  9
$WORLDVIEW
 70
     1
  9
$SHADEDGE
 70
     3
  9
$SHADEDIF
 70
    70
  9
$TILEMODE
 70
     1
  9
$MAXACTVP
 70
    64
  9
$PINSBASE
 10
0.0
 20
0.0
 30
0.0
  9
$PLIMCHECK
 70
     0
  9
$PEXTMIN
 10
1.0000000000E+20
 20
1.0000000000E+20
 30
1.0000000000E+20
  9
$PEXTMAX
 10
-1.0000000000E+20
 20
-1.0000000000E+20
 30
-1.0000000000E+20
  9
$PLIMMIN
 10
0.0
 20
0.0
  9
$PLIMMAX
 10
420.0
 20
297.0
  9
$UNITMODE
 70
     0
  9
$VISRETAIN
 70
     1
  9
$PLINEGEN
 70
     0
  9
$PSLTSCALE
 70
     1
  9
$TREEDEPTH
 70
  3020
  9
$CMLSTYLE
  2
Standard
  9
$CMLJUST
 70
     0
  9
$CMLSCALE
 40
20.0
  9
$PROXYGRAPHICS
 70
     1
  9
$MEASUREMENT
 70
     1
  9
$CELWEIGHT
370
    -1
  9
$ENDCAPS
280
     0
  9
$JOINSTYLE
280
     0
  9
$LWDISPLAY
290
     1
  9
$INSUNITS
 70
     4
  9
$HYPERLINKBASE
  1

  9
$STYLESHEET
  1

  9
$XEDIT
290
     1
  9
$CEPSNTYPE
380
     0
  9
$PSTYLEMODE
290
     1
  9
$FINGERPRINTGUID
  2
{4B2BB84C-9444-4281-A197-709D1D3A6FCC}
  9
$VERSIONGUID
  2
{FAEB1C32-E019-11D5-929B-00C0DF256EC4}
  9
$EXTNAMES
290
     1
  9
$PSVPSCALE
 40
0.0
  9
$OLESTARTUP
290
     0
  0
ENDSEC
  0
SECTION
  2
CLASSES
  0
CLASS
  1
ACDBDICTIONARYWDFLT
  2
AcDbDictionaryWithDefault
  3
ObjectDBX Classes
 90
        0
280
     0
281
     0
  0
CLASS
  1
VISUALSTYLE
  2
AcDbVisualStyle
  3
ObjectDBX Classes
 90
     4095
280
     0
281
     0
  0
CLASS
  1
MATERIAL
  2
AcDbMaterial
  3
ObjectDBX Classes
 90
     1153
280
     0
281
     0
  0
CLASS
  1
SCALE
  2
AcDbScale
  3
ObjectDBX Classes
 90
     1153
280
     0
281
     0
  0
CLASS
  1
TABLESTYLE
  2
AcDbTableStyle
  3
ObjectDBX Classes
 90
     4095
280
     0
281
     0
  0
CLASS
  1
MLEADERSTYLE
  2
AcDbMLeaderStyle
  3
ACDB_MLEADERSTYLE_CLASS
 90
     4095
280
     0
281
     0
  0
CLASS
  1
SUN
  2
AcDbSun
  3
SCENEOE
 90
     1153
280
     0
281
     0
  0
CLASS
  1
ACDBPLACEHOLDER
  2
AcDbPlaceHolder
  3
ObjectDBX Classes
 90
        0
280
     0
281
     0
  0
CLASS
  1
LAYOUT
  2
AcDbLayout
  3
ObjectDBX Classes
 90
        0
280
     0
281
     0
  0
ENDSEC
  0
SECTION
  2
TABLES
  0
TABLE
  2
VPORT
  5
8
330
0
100
AcDbSymbolTable
 70
     1
  0
VPORT
  5
29
330
8
100
AcDbSymbolTableRecord
100
AcDbViewportTableRecord
  2
*Active
 70
     0
 10
0.0
 20
0.0
 11
1.0
 21
1.0
 12
215.9
 22
139.7
 13
0.0
 23
0.0
 14
10.0
 24
10.0
 15
10.0
 25
10.0
 16
0.0
 26
0.0
 36
1.0
 17
0.0
 27
0.0
 37
0.0
 40
279.4
 41
1.5454545455
 42
50.0
 43
0.0
 44
0.0
 50
0.0
 51
0.0
 71
     0
 72
  2000
 73
     1
 74
     3
 75
     0
 76
     0
 77
     0
 78
     0
281
     0
 65
     1
110
0.0
120
0.0
130
0.0
111
1.0
121
0.0
131
0.0
112
0.0
122
1.0
132
0.0
 79
     0
146
0.0
  0
ENDTAB
  0
TABLE
  2
LTYPE
  5
5
330
0
100
AcDbSymbolTable
 70
     6
  0
LTYPE
  5
14
330
5
100
AcDbSymbolTableRecord
100
AcDbLinetypeTableRecord
  2
ByBlock
 70
     0
  3

 72
    65
 73
     0
 40
0.0
  0
LTYPE
  5
15
330
5
100
AcDbSymbolTableRecord
100
AcDbLinetypeTableRecord
  2
ByLayer
 70
     0
  3

 72
    65
 73
     0
 40
0.0
  0
LTYPE
  5
16
330
5
100
AcDbSymbolTableRecord
100
AcDbLinetypeTableRecord
  2
Continuous
 70
     0
  3
Solid line
 72
    65
 73
     0
 40
0.0
  0
LTYPE
  5
6E
330
5
100
AcDbSymbolTableRecord
100
AcDbLinetypeTableRecord
  2
HIDDEN
 70
     0
  3
Hidden __ __ __ __ __ __ __ __ __ __ __ __ __ __
 72
    65
 73
     2
 40
1.905
 49
1.27
 74
     0
 49
-0.635
 74
     0
  0
LTYPE
  5
6F
330
5
100
AcDbSymbolTableRecord
100
AcDbLinetypeTableRecord
  2
PHANTOM
 70
     0
  3
Phantom ______  __  __  ______  __  __  ______
 72
    65
 73
     6
 40
12.7
 49
6.35
 74
     0
 49
-1.27
 74
     0
 49
1.27
 74
     0
 49
-1.27
 74
     0
 49
1.27
 74
     0
 49
-1.27
 74
     0
  0
LTYPE
  5
70
330
5
100
AcDbSymbolTableRecord
100
AcDbLinetypeTableRecord
  2
CENTER
 70
     0
  3
Center ____ _ ____ _ ____ _ ____ _ ____ _ ____
 72
    65
 73
     4
 40
10.16
 49
6.35
 74
     0
 49
-1.27
 74
     0
 49
1.27
 74
     0
 49
-1.27
 74
     0
  0
LTYPE
  5
71
330
5
100
AcDbSymbolTableRecord
100
AcDbLinetypeTableRecord
  2
CENTERX2
 70
     0
  3
Center (2x) ________  __  ________  __  _____
 72
    65
 73
     4
 40
20.32
 49
12.7
 74
     0
 49
-2.54
 74
     0
 49
2.54
 74
     0
 49
-2.54
 74
     0
  0
LTYPE
  5
72
330
5
100
AcDbSymbolTableRecord
100
AcDbLinetypeTableRecord
  2
DOT2
 70
     0
  3
Dot (.5x) ........................................
 72
    65
 73
     2
 40
0.635
 49
0.0
 74
     0
 49
-0.635
 74
     0
  0
ENDTAB
  0
TABLE
  2
LAYER
  5
2
330
0
100
AcDbSymbolTable
 70
     1
  0
LAYER
  5
10
330
2
100
AcDbSymbolTableRecord
100
AcDbLayerTableRecord
  2
0
 70
     0
 62
     7
  6
Continuous
370
    -3
390
F
  0
ENDTAB
  0
TABLE
  2
STYLE
  5
3
330
0
100
AcDbSymbolTable
 70
     2
  0
STYLE
  5
11
330
3
100
AcDbSymbolTableRecord
100
AcDbTextStyleTableRecord
  2
Standard
 70
     0
 40
0.0
 41
1.0
 50
0.0
 71
     0
 42
3.5
  3
txt
  4
bigfont
  0
STYLE
  5
73
330
3
100
AcDbSymbolTableRecord
100
AcDbTextStyleTableRecord
  2
SLDTEXTSTYLE0
 70
     0
 40
0.0
 41
0.7
 50
0.0
 71
     0
 42
3.5
  3
TXT
  4
bigfont
  0
ENDTAB
  0
TABLE
  2
VIEW
  5
6
330
0
100
AcDbSymbolTable
 70
     0
  0
ENDTAB
  0
TABLE
  2
UCS
  5
7
330
0
100
AcDbSymbolTable
 70
     0
  0
ENDTAB
  0
TABLE
  2
APPID
  5
9
330
0
100
AcDbSymbolTable
 70
     1
  0
APPID
  5
12
330
9
100
AcDbSymbolTableRecord
100
AcDbRegAppTableRecord
  2
ACAD
 70
     0
  0
ENDTAB
  0
TABLE
  2
DIMSTYLE
  5
A
330
0
100
AcDbSymbolTable
 70
     1
100
AcDbDimStyleTable
  0
DIMSTYLE
105
27
330
A
100
AcDbSymbolTableRecord
100
AcDbDimStyleTableRecord
  2
ISO-25
 70
     0
 41
2.5
 42
0.625
 43
3.75
 44
1.25
 73
     0
 74
     0
 77
     1
 78
     8
140
2.5
141
2.5
143
0.0393700787
147
0.625
171
     3
172
     1
178
     0
271
     2
272
     2
274
     3
278
    44
283
     0
284
     8
340
11
  0
ENDTAB
  0
TABLE
  2
BLOCK_RECORD
  5
1
330
0
100
AcDbSymbolTable
 70
     3
  0
BLOCK_RECORD
  5
1F
330
1
100
AcDbSymbolTableRecord
100
AcDbBlockTableRecord
  2
*Model_Space
340
22
  0
BLOCK_RECORD
  5
1B
330
1
100
AcDbSymbolTableRecord
100
AcDbBlockTableRecord
  2
*Paper_Space
340
1E
  0
BLOCK_RECORD
  5
23
330
1
100
AcDbSymbolTableRecord
100
AcDbBlockTableRecord
  2
*Paper_Space0
340
26
  0
BLOCK_RECORD
  5
1BE
330
1
100
AcDbSymbolTableRecord
100
AcDbBlockTableRecord
  2
SW_CENTERMARKSYMBOL_0
340
0
102
{BLKREFS
331
1C9
102
}
  0
BLOCK_RECORD
  5
269
330
1
100
AcDbSymbolTableRecord
100
AcDbBlockTableRecord
  2
SW_CENTERMARKSYMBOL_1
340
0
102
{BLKREFS
331
274
102
}
  0
ENDTAB
  0
ENDSEC
  0
SECTION
  2
BLOCKS
  0
BLOCK
  5
20
330
1F
100
AcDbEntity
  8
0
100
AcDbBlockBegin
  2
*Model_Space
 70
     0
 10
0.0
 20
0.0
 30
0.0
  3
*Model_Space
  1

  0
ENDBLK
  5
21
330
1F
100
AcDbEntity
  8
0
100
AcDbBlockEnd
  0
BLOCK
  5
1C
330
1B
100
AcDbEntity
 67
     1
  8
0
100
AcDbBlockBegin
  2
*Paper_Space
 70
     0
 10
0.0
 20
0.0
 30
0.0
  3
*Paper_Space
  1

  0
ENDBLK
  5
1D
330
1B
100
AcDbEntity
 67
     1
  8
0
100
AcDbBlockEnd
  0
BLOCK
  5
24
330
23
100
AcDbEntity
  8
0
100
AcDbBlockBegin
  2
*Paper_Space0
 70
     0
 10
0.0
 20
0.0
 30
0.0
  3
*Paper_Space0
  1

  0
ENDBLK
  5
25
330
23
100
AcDbEntity
  8
0
100
AcDbBlockEnd
  0
BLOCK
  5
1BF
330
1BE
100
AcDbEntity
  8
0
100
AcDbBlockBegin
  2
SW_CENTERMARKSYMBOL_0
 70
     0
 10
0.0
 20
0.0
 30
0.0
  3
SW_CENTERMARKSYMBOL_0
  1

  0
LINE
  5
1C1
330
1BE
100
AcDbEntity
  8
0
  6
Continuous
 62
     0
370
    18
100
AcDbLine
 10
0.0
 20
0.0
 30
0.0
 11
0.0
 21
2.5
 31
0.0
  0
LINE
  5
1C2
330
1BE
100
AcDbEntity
  8
0
  6
Continuous
 62
     0
370
    18
100
AcDbLine
 10
0.0
 20
0.0
 30
0.0
 11
-2.5
 21
0.0
 31
0.0
  0
LINE
  5
1C3
330
1BE
100
AcDbEntity
  8
0
  6
Continuous
 62
     0
370
    18
100
AcDbLine
 10
0.0
 20
0.0
 30
0.0
 11
0.0
 21
-2.5
 31
0.0
  0
LINE
  5
1C4
330
1BE
100
AcDbEntity
  8
0
  6
Continuous
 62
     0
370
    18
100
AcDbLine
 10
0.0
 20
0.0
 30
0.0
 11
2.5
 21
0.0
 31
0.0
  0
LINE
  5
1C5
330
1BE
100
AcDbEntity
  8
0
  6
Continuous
 62
     0
370
    18
100
AcDbLine
 10
0.0
 20
5.0
 30
0.0
 11
0.0
 21
26.7140657387
 31
0.0
  0
LINE
  5
1C6
330
1BE
100
AcDbEntity
  8
0
  6
Continuous
 62
     0
370
    18
100
AcDbLine
 10
-5.0
 20
0.0
 30
0.0
 11
-11.85
 21
0.0
 31
0.0
  0
LINE
  5
1C7
330
1BE
100
AcDbEntity
  8
0
  6
Continuous
 62
     0
370
    18
100
AcDbLine
 10
0.0
 20
-5.0
 30
0.0
 11
0.0
 21
-11.85
 31
0.0
  0
LINE
  5
1C8
330
1BE
100
AcDbEntity
  8
0
  6
Continuous
 62
     0
370
    18
100
AcDbLine
 10
5.0
 20
0.0
 30
0.0
 11
11.85
 21
0.0
 31
0.0
  0
ENDBLK
  5
1C0
330
1BE
100
AcDbEntity
  8
0
100
AcDbBlockEnd
  0
BLOCK
  5
26A
330
269
100
AcDbEntity
  8
0
100
AcDbBlockBegin
  2
SW_CENTERMARKSYMBOL_1
 70
     0
 10
0.0
 20
0.0
 30
0.0
  3
SW_CENTERMARKSYMBOL_1
  1

  0
LINE
  5
26C
330
269
100
AcDbEntity
  8
0
  6
Continuous
 62
     0
370
    18
100
AcDbLine
 10
0.0
 20
0.0
 30
0.0
 11
0.0
 21
2.5
 31
0.0
  0
LINE
  5
26D
330
269
100
AcDbEntity
  8
0
  6
Continuous
 62
     0
370
    18
100
AcDbLine
 10
0.0
 20
0.0
 30
0.0
 11
-2.5
 21
0.0
 31
0.0
  0
LINE
  5
26E
330
269
100
AcDbEntity
  8
0
  6
Continuous
 62
     0
370
    18
100
AcDbLine
 10
0.0
 20
0.0
 30
0.0
 11
0.0
 21
-2.5
 31
0.0
  0
LINE
  5
26F
330
269
100
AcDbEntity
  8
0
  6
Continuous
 62
     0
370
    18
100
AcDbLine
 10
0.0
 20
0.0
 30
0.0
 11
2.5
 21
0.0
 31
0.0
  0
LINE
  5
270
330
269
100
AcDbEntity
  8
0
  6
Continuous
 62
     0
370
    18
100
AcDbLine
 10
0.0
 20
5.0
 30
0.0
 11
0.0
 21
11.0339842017
 31
0.0
  0
LINE
  5
271
330
269
100
AcDbEntity
  8
0
  6
Continuous
 62
     0
370
    18
100
AcDbLine
 10
-5.0
 20
0.0
 30
0.0
 11
-11.0339842017
 21
0.0
 31
0.0
  0
LINE
  5
272
330
269
100
AcDbEntity
  8
0
  6
Continuous
 62
     0
370
    18
100
AcDbLine
 10
0.0
 20
-5.0
 30
0.0
 11
0.0
 21
-11.0339842017
 31
0.0
  0
LINE
  5
273
330
269
100
AcDbEntity
  8
0
  6
Continuous
 62
     0
370
    18
100
AcDbLine
 10
5.0
 20
0.0
 30
0.0
 11
54.6279686305
 21
0.0
 31
0.0
  0
ENDBLK
  5
26B
330
269
100
AcDbEntity
  8
0
100
AcDbBlockEnd
  0
ENDSEC
  0
SECTION
  2
ENTITIES
  0
MTEXT
  5
74
330
1F
100
AcDbEntity
  8
0
  6
Continuous
 62
     7
370
     0
100
AcDbMText
 10
172.5091958743
 20
133.7629313692
 30
0.0
 40
4.2333333333
 41
0.0
 71
     1
 72
     1
  1
HL-1310R
  7
SLDTEXTSTYLE0
 73
     1
 44
1.0
  0
LINE
  5
75
330
1F
100
AcDbEntity
  8
0
  6
Continuous
 62
     7
370
    25
100
AcDbLine
 10
137.7325330601
 20
84.9385403821
 30
0.0
 11
141.7325337157
 21
85.6885405051
 31
0.0
  0
LINE
  5
76
330
1F
100
AcDbEntity
  8
0
  6
Continuous
 62
     7
370
    25
100
AcDbLine
 10
141.7325337157
 20
94.6885401176
 30
0.0
 11
137.7325330601
 21
95.4385402406
 31
0.0
  0
LINE
  5
77
330
1F
100
AcDbEntity
  8
0
  6
Continuous
 62
     7
370
    25
100
AcDbLine
 10
133.2325332538
 20
84.9385403821
 30
0.0
 11
137.7325330601
 21
84.9385403821
 31
0.0
  0
LINE
  5
78
330
1F
100
AcDbEntity
  8
0
  6
Continuous
 62
     7
370
    25
100
AcDbLine
 10
137.7325330601
 20
95.4385402406
 30
0.0
 11
133.2325332538
 21
95.4385402406
 31
0.0
  0
LINE
  5
79
330
1F
100
AcDbEntity
  8
0
  6
Continuous
 62
     7
370
    25
100
AcDbLine
 10
141.7325337157
 20
84.9385403821
 30
0.0
 11
145.7325343714
 21
85.6885405051
 31
0.0
  0
LINE
  5
7A
330
1F
100
AcDbEntity
  8
0
  6
Continuous
 62
     7
370
    25
100
AcDbLine
 10
145.7325343714
 20
94.6885401176
 30
0.0
 11
141.7325337157
 21
95.4385402406
 31
0.0
  0
LINE
  5
7B
330
1F
100
AcDbEntity
  8
0
  6
Continuous
 62
     7
370
    25
100
AcDbLine
 10
145.7325343714
 20
84.9385403821
 30
0.0
 11
149.732535027
 21
85.6885405051
 31
0.0
  0
LINE
  5
7C
330
1F
100
AcDbEntity
  8
0
  6
Continuous
 62
     7
370
    25
100
AcDbLine
 10
149.732535027
 20
94.6885401176
 30
0.0
 11
145.7325343714
 21
95.4385402406
 31
0.0
  0
LINE
  5
7D
330
1F
100
AcDbEntity
  8
0
  6
Continuous
 62
     7
370
    25
100
AcDbLine
 10
153.7325356827
 20
84.9385403821
 30
0.0
 11
159.2753913924
 21
85.6313973458
 31
0.0
  0
LINE
  5
7E
330
1F
100
AcDbEntity
  8
0
  6
Continuous
 62
     7
370
    25
100
AcDbLine
 10
159.2753913924
 20
94.7456832768
 30
0.0
 11
153.7325356827
 21
95.4385402406
 31
0.0
  0
LINE
  5
7F
330
1F
100
AcDbEntity
  8
0
  6
Continuous
 62
     7
370
    25
100
AcDbLine
 10
149.732535027
 20
84.9385403821
 30
0.0
 11
153.7325356827
 21
85.6885405051
 31
0.0
  0
LINE
  5
80
330
1F
100
AcDbEntity
  8
0
  6
Continuous
 62
     7
370
    25
100
AcDbLine
 10
153.7325356827
 20
94.6885401176
 30
0.0
 11
149.732535027
 21
95.4385402406
 31
0.0
  0
LINE
  5
81
330
1F
100
AcDbEntity
  8
0
  6
Continuous
 62
     7
370
    25
100
AcDbLine
 10
159.2753913924
 20
85.6313973458
 30
0.0
 11
159.7325329408
 21
86.0885402912
 31
0.0
  0
LINE
  5
82
330
1F
100
AcDbEntity
  8
0
  6
Continuous
 62
     7
370
    25
100
AcDbLine
 10
159.7325329408
 20
94.2885403315
 30
0.0
 11
159.2753913924
 21
94.7456832768
 31
0.0
  0
LINE
  5
83
330
1F
100
AcDbEntity
  8
0
  6
Continuous
 62
     7
370
    25
100
AcDbLine
 10
122.1676424817
 20
101.1581949683
 30
0.0
 11
121.2325340808
 21
99.5385402607
 31
0.0
  0
LINE
  5
84
330
1F
100
AcDbEntity
  8
0
  6
Continuous
 62
     7
370
    25
100
AcDbLine
 10
121.2325340808
 20
80.838540362
 30
0.0
 11
122.1676424817
 21
79.2188856544
 31
0.0
  0
LINE
  5
85
330
1F
100
AcDbEntity
  8
0
  6
Continuous
 62
     7
370
    25
100
AcDbLine
 10
130.2974254564
 20
79.2188856544
 30
0.0
 11
131.2325347886
 21
80.838540362
 31
0.0
  0
LINE
  5
86
330
1F
100
AcDbEntity
  8
0
  6
Continuous
 62
     7
370
    25
100
AcDbLine
 10
131.2325347886
 20
99.5385402607
 30
0.0
 11
130.2974254564
 21
101.1581949683
 31
0.0
  0
ARC
  5
87
330
1F
100
AcDbEntity
  8
0
  6
Continuous
 62
     7
370
    25
100
AcDbCircle
 10
132.9325339171
 20
99.2385403113
 30
0.0
 40
0.3000000000000114
100
AcDbArc
 50
0.0
 51
90.0
  0
ARC
  5
88
330
1F
100
AcDbEntity
  8
0
  6
Continuous
 62
     7
370
    25
100
AcDbCircle
 10
132.9325339171
 20
81.1385403113
 30
0.0
 40
0.3000000000000114
100
AcDbArc
 50
270.0
 51
0.0
  0
LINE
  5
89
330
1F
100
AcDbEntity
  8
0
  6
Continuous
 62
     7
370
    25
100
AcDbLine
 10
131.2325347886
 20
80.838540362
 30
0.0
 11
132.9325337634
 21
80.838540362
 31
0.0
  0
LINE
  5
8A
330
1F
100
AcDbEntity
  8
0
  6
Continuous
 62
     7
370
    25
100
AcDbLine
 10
132.9325337634
 20
99.5385402607
 30
0.0
 11
131.2325347886
 21
99.5385402607
 31
0.0
  0
LINE
  5
8B
330
1F
100
AcDbEntity
  8
0
  6
Continuous
 62
     7
370
    25
100
AcDbLine
 10
121.2325340808
 20
99.5385402607
 30
0.0
 11
119.5325341747
 21
99.5385402607
 31
0.0
  0
LINE
  5
8C
330
1F
100
AcDbEntity
  8
0
  6
Continuous
 62
     7
370
    25
100
AcDbLine
 10
119.5325341747
 20
80.838540362
 30
0.0
 11
121.2325340808
 21
80.838540362
 31
0.0
  0
ARC
  5
8D
330
1F
100
AcDbEntity
  8
0
  6
Continuous
 62
     7
370
    25
100
AcDbCircle
 10
119.5325339171
 20
81.1385403113
 30
0.0
 40
0.2999999999999972
100
AcDbArc
 50
180.0
 51
270.0
  0
ARC
  5
8E
330
1F
100
AcDbEntity
  8
0
  6
Continuous
 62
     7
370
    25
100
AcDbCircle
 10
119.5325339171
 20
99.2385403113
 30
0.0
 40
0.2999999999999972
100
AcDbArc
 50
90.0
 51
180.0
  0
LINE
  5
8F
330
1F
100
AcDbEntity
  8
0
  6
Continuous
 62
     7
370
    25
100
AcDbLine
 10
126.3887037263
 20
101.1581949683
 30
0.0
 11
126.232533969
 21
100.8581954779
 31
0.0
  0
LINE
  5
90
330
1F
100
AcDbEntity
  8
0
  6
Continuous
 62
     7
370
    25
100
AcDbLine
 10
126.232533969
 20
100.8581954779
 30
0.0
 11
126.0763642118
 21
101.1581949683
 31
0.0
  0
LINE
  5
91
330
1F
100
AcDbEntity
  8
0
  6
Continuous
 62
     7
370
    25
100
AcDbLine
 10
126.232533969
 20
79.5188851448
 30
0.0
 11
126.3887037263
 21
79.2188856544
 31
0.0
  0
LINE
  5
92
330
1F
100
AcDbEntity
  8
0
  6
Continuous
 62
     7
370
    25
100
AcDbLine
 10
126.0763642118
 20
79.2188856544
 30
0.0
 11
126.232533969
 21
79.5188851448
 31
0.0
  0
LINE
  5
93
330
1F
100
AcDbEntity
  8
0
  6
Continuous
 62
     7
370
    25
100
AcDbLine
 10
115.990427576
 20
102.3430458995
 30
0.0
 11
115.6538150013
 21
113.1146305965
 31
0.0
  0
LINE
  5
94
330
1F
100
AcDbEntity
  8
0
  6
Continuous
 62
     7
370
    25
100
AcDbLine
 10
99.2590713054
 20
113.1146305965
 30
0.0
 11
98.9224587307
 21
102.3430458995
 31
0.0
  0
ARC
  5
95
330
1F
100
AcDbEntity
  8
0
  6
Continuous
 62
     7
370
    25
100
AcDbCircle
 10
99.4564431534
 20
103.1885403113
 30
0.0
 40
1.0
100
AcDbArc
 50
237.7249513291
 51
270.0
  0
ARC
  5
96
330
1F
100
AcDbEntity
  8
0
  6
Continuous
 62
     7
370
    25
100
AcDbCircle
 10
115.4564431534
 20
103.1885403113
 30
0.0
 40
1.0
100
AcDbArc
 50
270.0
 51
302.2750486709
  0
LINE
  5
97
330
1F
100
AcDbEntity
  8
0
  6
Continuous
 62
     7
370
    25
100
AcDbLine
 10
115.6538150013
 20
113.1146305965
 30
0.0
 11
114.4564433694
 21
115.1885406839
 31
0.0
  0
LINE
  5
98
330
1F
100
AcDbEntity
  8
0
  6
Continuous
 62
     7
370
    25
100
AcDbLine
 10
100.4564429373
 20
115.1885406839
 30
0.0
 11
99.2590713054
 21
113.1146305965
 31
0.0
  0
ARC
  5
99
330
1F
100
AcDbEntity
  8
0
  6
Continuous
 62
     7
370
    25
100
AcDbCircle
 10
99.4564431534
 20
101.1885403113
 30
0.0
 40
1.0
100
AcDbArc
 50
0.0
 51
90.0
  0
ARC
  5
9A
330
1F
100
AcDbEntity
  8
0
  6
Continuous
 62
     7
370
    25
100
AcDbCircle
 10
115.4564431534
 20
101.1885403113
 30
0.0
 40
1.0
100
AcDbArc
 50
90.0
 51
180.0
  0
ARC
  5
9B
330
1F
100
AcDbEntity
  8
0
  6
Continuous
 62
     7
370
    25
100
AcDbCircle
 10
118.4564431534
 20
98.1885403113
 30
0.0
 40
1.000000000000006
100
AcDbArc
 50
270.0
 51
320.9040298984
  0
ARC
  5
9C
330
1F
100
AcDbEntity
  8
0
  6
Continuous
 62
     7
370
    25
100
AcDbCircle
 10
118.4564431534
 20
82.1885403113
 30
0.0
 40
1.0
100
AcDbArc
 50
39.0959701016
 51
90.0
  0
LINE
  5
9D
330
1F
100
AcDbEntity
  8
0
  6
Continuous
 62
     7
370
    25
100
AcDbLine
 10
114.4564433694
 20
97.1885405274
 30
0.0
 11
114.4564433694
 21
101.1885402517
 31
0.0
  0
LINE
  5
9E
330
1F
100
AcDbEntity
  8
0
  6
Continuous
 62
     7
370
    25
100
AcDbLine
 10
100.4564429373
 20
101.1885402517
 30
0.0
 11
100.4564429373
 21
85.1885404231
 31
0.0
  0
LINE
  5
9F
330
1F
100
AcDbEntity
  8
0
  6
Continuous
 62
     7
370
    25
100
AcDbLine
 10
102.4564432651
 20
83.1885400953
 30
0.0
 11
118.4564430938
 21
83.1885400953
 31
0.0
  0
LINE
  5
A0
330
1F
100
AcDbEntity
  8
0
  6
Continuous
 62
     7
370
    25
100
AcDbLine
 10
118.4564430938
 20
97.1885405274
 30
0.0
 11
114.4564433694
 21
97.1885405274
 31
0.0
  0
ARC
  5
A1
330
1F
100
AcDbEntity
  8
0
  6
Continuous
 62
     7
370
    25
100
AcDbCircle
 10
102.4564431534
 20
85.1885403113
 30
0.0
 40
2.000000000000001
100
AcDbArc
 50
179.5777140689
 51
270.4147769748
  0
LINE
  5
A2
330
1F
100
AcDbEntity
  8
0
  6
Continuous
 62
     7
370
    25
100
AcDbLine
 10
137.7325330601
 20
84.9385403821
 30
0.0
 11
137.7325330601
 21
95.4385402406
 31
0.0
  0
LINE
  5
A3
330
1F
100
AcDbEntity
  8
0
  6
Continuous
 62
     7
370
    25
100
AcDbLine
 10
141.7325337157
 20
84.9385403821
 30
0.0
 11
141.7325337157
 21
95.4385402406
 31
0.0
  0
LINE
  5
A4
330
1F
100
AcDbEntity
  8
0
  6
Continuous
 62
     7
370
    25
100
AcDbLine
 10
145.7325343714
 20
84.9385403821
 30
0.0
 11
145.7325343714
 21
95.4385402406
 31
0.0
  0
LINE
  5
A5
330
1F
100
AcDbEntity
  8
0
  6
Continuous
 62
     7
370
    25
100
AcDbLine
 10
153.7325356827
 20
84.9385403821
 30
0.0
 11
153.7325356827
 21
95.4385402406
 31
0.0
  0
LINE
  5
A6
330
1F
100
AcDbEntity
  8
0
  6
Continuous
 62
     7
370
    25
100
AcDbLine
 10
159.2753913924
 20
90.1885403113
 30
0.0
 11
159.2753913924
 21
94.7456832768
 31
0.0
  0
LINE
  5
A7
330
1F
100
AcDbEntity
  8
0
  6
Continuous
 62
     7
370
    25
100
AcDbLine
 10
159.2753913924
 20
85.6313973458
 30
0.0
 11
159.2753913924
 21
90.1885403113
 31
0.0
  0
LINE
  5
A8
330
1F
100
AcDbEntity
  8
0
  6
Continuous
 62
     7
370
    25
100
AcDbLine
 10
149.732535027
 20
84.9385403821
 30
0.0
 11
149.732535027
 21
95.4385402406
 31
0.0
  0
LINE
  5
A9
330
1F
100
AcDbEntity
  8
0
  6
Continuous
 62
     7
370
    25
100
AcDbLine
 10
159.7325329408
 20
90.1885403113
 30
0.0
 11
159.7325329408
 21
86.0885402912
 31
0.0
  0
LINE
  5
AA
330
1F
100
AcDbEntity
  8
0
  6
Continuous
 62
     7
370
    25
100
AcDbLine
 10
159.7325329408
 20
94.2885403315
 30
0.0
 11
159.7325329408
 21
90.1885403113
 31
0.0
  0
LINE
  5
AB
330
1F
100
AcDbEntity
  8
0
  6
Continuous
 62
     7
370
    25
100
AcDbLine
 10
130.2974254564
 20
95.6733676398
 30
0.0
 11
126.3887037263
 21
95.6733676398
 31
0.0
  0
SPLINE
  5
AC
330
1F
100
AcDbEntity
  8
0
  6
Continuous
 62
     7
370
    25
100
AcDbSpline
210
0.0
220
0.0
230
1.0
 70
     8
 71
     3
 72
    16
 73
    12
 74
     0
 42
0.000000001
 43
0.00000001
 40
0.0
 40
0.0
 40
0.0
 40
0.0
 40
0.0929885394318734
 40
0.1859684549096651
 40
0.2798026913280258
 40
0.373627101459906
 40
0.4988494890998807
 40
0.6240716473127095
 40
0.7526321536928279
 40
0.8812279839704913
 40
0.9999999999999999
 40
0.9999999999999999
 40
0.9999999999999999
 40
0.9999999999999999
 10
130.2974254563811
 20
84.70371298287132
 30
0.0
 10
130.3896937198659
 20
85.0363596996244
 30
0.0
 10
130.5742216896813
 20
85.7016222827695
 30
0.0
 10
130.7993385042278
 20
86.71603513629752
 30
0.0
 10
130.9768900226924
 20
87.74291443489584
 30
0.0
 10
131.1103495030936
 20
88.89727007345945
 30
0.0
 10
131.1648093322443
 20
90.17551438814208
 30
0.0
 10
131.1073423680603
 20
91.58288348318644
 30
0.0
 10
130.9286560398045
 20
92.99231358774277
 30
0.0
 10
130.6569989346229
 20
94.36241607304592
 30
0.0
 10
130.4140674047584
 20
95.24810839732835
 30
0.0
 10
130.2974254563811
 20
95.67336763981798
 30
0.0
  0
LINE
  5
AD
330
1F
100
AcDbEntity
  8
0
  6
Continuous
 62
     7
370
    25
100
AcDbLine
 10
130.2974254564
 20
84.7037129829
 30
0.0
 11
126.3887037263
 21
84.7037129829
 31
0.0
  0
LINE
  5
AE
330
1F
100
AcDbEntity
  8
0
  6
Continuous
 62
     7
370
    25
100
AcDbLine
 10
126.232533969
 20
85.3314281235
 30
0.0
 11
126.3887037263
 21
84.7037129829
 31
0.0
  0
LINE
  5
AF
330
1F
100
AcDbEntity
  8
0
  6
Continuous
 62
     7
370
    25
100
AcDbLine
 10
126.0763642118
 20
84.7037129829
 30
0.0
 11
126.232533969
 21
85.3314281235
 31
0.0
  0
LINE
  5
B0
330
1F
100
AcDbEntity
  8
0
  6
Continuous
 62
     7
370
    25
100
AcDbLine
 10
126.0763642118
 20
84.7037129829
 30
0.0
 11
122.1676424817
 21
84.7037129829
 31
0.0
  0
SPLINE
  5
B1
330
1F
100
AcDbEntity
  8
0
  6
Continuous
 62
     7
370
    25
100
AcDbSpline
210
0.0
220
0.0
230
1.0
 70
     8
 71
     3
 72
    16
 73
    12
 74
     0
 42
0.000000001
 43
0.00000001
 40
0.0
 40
0.0
 40
0.0
 40
0.0
 40
0.0929885178610358
 40
0.1859684334202355
 40
0.2798026981798666
 40
0.3736271083938942
 40
0.4988494961435066
 40
0.6240716578888065
 40
0.7526321746682786
 40
0.8812280050585334
 40
1.0
 40
1.0
 40
1.0
 40
1.0
 10
122.1676424816611
 20
84.70371298287132
 30
0.0
 10
122.0753745527803
 20
85.03635971139427
 30
0.0
 10
121.8908472306592
 20
85.7016223955272
 30
0.0
 10
121.6657309350976
 20
86.71603533371389
 30
0.0
 10
121.4881763473508
 20
87.74291422326448
 30
0.0
 10
121.3547177893692
 20
88.89727011231184
 30
0.0
 10
121.300257343407
 20
90.17551439346896
 30
0.0
 10
121.3577256336071
 20
91.58288353320921
 30
0.0
 10
121.5364129887712
 20
92.9923135298636
 30
0.0
 10
121.8080701190373
 20
94.36241593820262
 30
0.0
 10
122.0510009024885
 20
95.24810838023625
 30
0.0
 10
122.1676424816611
 20
95.67336763981798
 30
0.0
  0
LINE
  5
B2
330
1F
100
AcDbEntity
  8
0
  6
Continuous
 62
     7
370
    25
100
AcDbLine
 10
126.0763642118
 20
95.6733676398
 30
0.0
 11
122.1676424817
 21
95.6733676398
 31
0.0
  0
LINE
  5
B3
330
1F
100
AcDbEntity
  8
0
  6
Continuous
 62
     7
370
    25
100
AcDbLine
 10
126.232533969
 20
95.0456524992
 30
0.0
 11
126.0763642118
 21
95.6733676398
 31
0.0
  0
LINE
  5
B4
330
1F
100
AcDbEntity
  8
0
  6
Continuous
 62
     7
370
    25
100
AcDbLine
 10
126.3887037263
 20
95.6733676398
 30
0.0
 11
126.232533969
 21
95.0456524992
 31
0.0
  0
LINE
  5
B5
330
1F
100
AcDbEntity
  8
0
  6
Continuous
 62
     7
370
    25
100
AcDbLine
 10
130.2974254564
 20
101.1581949683
 30
0.0
 11
126.3887037263
 21
101.1581949683
 31
0.0
  0
SPLINE
  5
B6
330
1F
100
AcDbEntity
  8
0
  6
Continuous
 62
     7
370
    25
100
AcDbSpline
210
0.0
220
0.0
230
1.0
 70
     8
 71
     3
 72
    15
 73
    11
 74
     0
 42
0.000000001
 43
0.00000001
 40
0.0
 40
0.0
 40
0.0
 40
0.0
 40
0.132305701945699
 40
0.2645739711615568
 40
0.3998012119107648
 40
0.5350039810752782
 40
0.6501944293983923
 40
0.7654027730894072
 40
0.8826900743328735
 40
1.0
 40
1.0
 40
1.0
 40
1.0
 10
130.2974254563811
 20
95.67336763981798
 30
0.0
 10
130.4265926523124
 20
95.91033499093496
 30
0.0
 10
130.6848904994103
 20
96.38420264893189
 30
0.0
 10
130.9628067775418
 20
97.11391607793487
 30
0.0
 10
131.1299122812574
 20
97.857385919133
 30
0.0
 10
131.1630013915935
 20
98.57392161670973
 30
0.0
 10
131.077143191046
 20
99.25174649411825
 30
0.0
 10
130.9012127464044
 20
99.89144247708393
 30
0.0
 10
130.6431471220795
 20
100.5282483452752
 30
0.0
 10
130.4126734205317
 20
100.9481992606765
 30
0.0
 10
130.2974254563811
 20
101.1581949682913
 30
0.0
  0
LINE
  5
B7
330
1F
100
AcDbEntity
  8
0
  6
Continuous
 62
     7
370
    25
100
AcDbLine
 10
126.232533969
 20
95.9872256758
 30
0.0
 11
126.3887037263
 21
95.6733676398
 31
0.0
  0
LINE
  5
B8
330
1F
100
AcDbEntity
  8
0
  6
Continuous
 62
     7
370
    25
100
AcDbLine
 10
126.0763642118
 20
95.6733676398
 30
0.0
 11
126.232533969
 21
95.9872256758
 31
0.0
  0
SPLINE
  5
B9
330
1F
100
AcDbEntity
  8
0
  6
Continuous
 62
     7
370
    25
100
AcDbSpline
210
0.0
220
0.0
230
1.0
 70
     8
 71
     3
 72
    15
 73
    11
 74
     0
 42
0.000000001
 43
0.00000001
 40
0.0
 40
0.0
 40
0.0
 40
0.0
 40
0.1323057012602369
 40
0.2645739697908265
 40
0.3998012006614076
 40
0.5350039728637891
 40
0.6501944257921894
 40
0.7654027576403793
 40
0.8826900749406439
 40
0.9999999999999999
 40
0.9999999999999999
 40
0.9999999999999999
 40
0.9999999999999999
 10
122.1676424816611
 20
95.67336763981798
 30
0.0
 10
122.0384753311253
 20
95.91033499246291
 30
0.0
 10
121.7801775748054
 20
96.38420265351532
 30
0.0
 10
121.5022606172912
 20
97.1139160426848
 30
0.0
 10
121.3351577739233
 20
97.85738596314744
 30
0.0
 10
121.3020644297153
 20
98.57392163128951
 30
0.0
 10
121.3879256495345
 20
99.25174642510638
 30
0.0
 10
121.5638534891769
 20
99.8914425852672
 30
0.0
 10
121.82192122487
 20
100.5282482780012
 30
0.0
 10
122.0523946592793
 20
100.9481992481946
 30
0.0
 10
122.1676424816611
 20
101.1581949682913
 30
0.0
  0
LINE
  5
BA
330
1F
100
AcDbEntity
  8
0
  6
Continuous
 62
     7
370
    25
100
AcDbLine
 10
126.0763642118
 20
101.1581949683
 30
0.0
 11
122.1676424817
 21
101.1581949683
 31
0.0
  0
LINE
  5
BB
330
1F
100
AcDbEntity
  8
0
  6
Continuous
 62
     7
370
    25
100
AcDbLine
 10
126.232533969
 20
100.844337398
 30
0.0
 11
126.0763642118
 21
101.1581949683
 31
0.0
  0
LINE
  5
BC
330
1F
100
AcDbEntity
  8
0
  6
Continuous
 62
     7
370
    25
100
AcDbLine
 10
126.3887037263
 20
101.1581949683
 30
0.0
 11
126.232533969
 21
100.844337398
 31
0.0
  0
LINE
  5
BD
330
1F
100
AcDbEntity
  8
0
  6
Continuous
 62
     7
370
    25
100
AcDbLine
 10
126.232533969
 20
95.9872256758
 30
0.0
 11
126.232533969
 21
95.0456524992
 31
0.0
  0
SPLINE
  5
BE
330
1F
100
AcDbEntity
  8
0
  6
Continuous
 62
     7
370
    25
100
AcDbSpline
210
0.0
220
0.0
230
1.0
 70
     8
 71
     3
 72
    15
 73
    11
 74
     0
 42
0.000000001
 43
0.00000001
 40
0.0
 40
0.0
 40
0.0
 40
0.0
 40
0.1323056877110737
 40
0.2645739479885554
 40
0.3998012094750219
 40
0.5350039966972207
 40
0.6501944060393672
 40
0.7654027883544242
 40
0.8826900601954766
 40
0.9999999999999999
 40
0.9999999999999999
 40
0.9999999999999999
 40
0.9999999999999999
 10
130.2974254563811
 20
79.218885654398
 30
0.0
 10
130.4265926522614
 20
79.45585262354297
 30
0.0
 10
130.6848905044238
 20
79.92971952718266
 30
0.0
 10
130.9628068092856
 20
80.65943317301229
 30
0.0
 10
131.1299122666509
 20
81.40290356452942
 30
0.0
 10
131.1630014184199
 20
82.11943915663225
 30
0.0
 10
131.0771431244949
 20
82.79726350932262
 30
0.0
 10
130.9012128381282
 20
83.4369601833148
 30
0.0
 10
130.6431470459341
 20
84.07376514515623
 30
0.0
 10
130.4126734094064
 20
84.49371684435062
 30
0.0
 10
130.2974254563811
 20
84.70371298287132
 30
0.0
  0
LINE
  5
BF
330
1F
100
AcDbEntity
  8
0
  6
Continuous
 62
     7
370
    25
100
AcDbLine
 10
130.2974254564
 20
79.2188856544
 30
0.0
 11
126.3887037263
 21
79.2188856544
 31
0.0
  0
LINE
  5
C0
330
1F
100
AcDbEntity
  8
0
  6
Continuous
 62
     7
370
    25
100
AcDbLine
 10
126.232533969
 20
79.5327432247
 30
0.0
 11
126.3887037263
 21
79.2188856544
 31
0.0
  0
LINE
  5
C1
330
1F
100
AcDbEntity
  8
0
  6
Continuous
 62
     7
370
    25
100
AcDbLine
 10
126.0763642118
 20
79.2188856544
 30
0.0
 11
126.232533969
 21
79.5327432247
 31
0.0
  0
LINE
  5
C2
330
1F
100
AcDbEntity
  8
0
  6
Continuous
 62
     7
370
    25
100
AcDbLine
 10
126.0763642118
 20
79.2188856544
 30
0.0
 11
122.1676424817
 21
79.2188856544
 31
0.0
  0
SPLINE
  5
C3
330
1F
100
AcDbEntity
  8
0
  6
Continuous
 62
     7
370
    25
100
AcDbSpline
210
0.0
220
0.0
230
1.0
 70
     8
 71
     3
 72
    15
 73
    11
 74
     0
 42
0.000000001
 43
0.00000001
 40
0.0
 40
0.0
 40
0.0
 40
0.0
 40
0.1323056870256103
 40
0.2645739466178224
 40
0.399801198225662
 40
0.5350039884857266
 40
0.6501944024331603
 40
0.7654027729053949
 40
0.8826900608032485
 40
1.0
 40
1.0
 40
1.0
 40
1.0
 10
122.1676424816611
 20
79.218885654398
 30
0.0
 10
122.0384753311763
 20
79.4558526250709
 30
0.0
 10
121.7801775697918
 20
79.92971953176605
 30
0.0
 10
121.5022605855475
 20
80.65943313776222
 30
0.0
 10
121.3351577885299
 20
81.40290360854385
 30
0.0
 10
121.3020644028892
 20
82.11943917121205
 30
0.0
 10
121.3879257160856
 20
82.79726344031079
 30
0.0
 10
121.5638533974532
 20
83.43696029149807
 30
0.0
 10
121.8219213010155
 20
84.07376507788216
 30
0.0
 10
122.0523946704046
 20
84.49371683186878
 30
0.0
 10
122.1676424816611
 20
84.70371298287132
 30
0.0
  0
LINE
  5
C4
330
1F
100
AcDbEntity
  8
0
  6
Continuous
 62
     7
370
    25
100
AcDbLine
 10
126.232533969
 20
84.3898549469
 30
0.0
 11
126.0763642118
 21
84.7037129829
 31
0.0
  0
LINE
  5
C5
330
1F
100
AcDbEntity
  8
0
  6
Continuous
 62
     7
370
    25
100
AcDbLine
 10
126.3887037263
 20
84.7037129829
 30
0.0
 11
126.232533969
 21
84.3898549469
 31
0.0
  0
LINE
  5
C6
330
1F
100
AcDbEntity
  8
0
  6
Continuous
 62
     7
370
    25
100
AcDbLine
 10
126.232533969
 20
85.3314281235
 30
0.0
 11
126.232533969
 21
84.3898549469
 31
0.0
  0
LINE
  5
C7
330
1F
100
AcDbEntity
  8
0
  6
Continuous
 62
     7
370
    25
100
AcDbLine
 10
121.2325340808
 20
90.1885403113
 30
0.0
 11
121.2325340808
 21
99.5385402607
 31
0.0
  0
LINE
  5
C8
330
1F
100
AcDbEntity
  8
0
  6
Continuous
 62
     7
370
    25
100
AcDbLine
 10
121.2325340808
 20
80.838540362
 30
0.0
 11
121.2325340808
 21
90.1885403113
 31
0.0
  0
LINE
  5
C9
330
1F
100
AcDbEntity
  8
0
  6
Continuous
 62
     7
370
    25
100
AcDbLine
 10
131.2325347886
 20
90.1885403113
 30
0.0
 11
131.2325347886
 21
99.5385402607
 31
0.0
  0
LINE
  5
CA
330
1F
100
AcDbEntity
  8
0
  6
Continuous
 62
     7
370
    25
100
AcDbLine
 10
131.2325347886
 20
80.838540362
 30
0.0
 11
131.2325347886
 21
90.1885403113
 31
0.0
  0
LINE
  5
CB
330
1F
100
AcDbEntity
  8
0
  6
Continuous
 62
     7
370
    25
100
AcDbLine
 10
133.2325332538
 20
90.1885403113
 30
0.0
 11
133.2325332538
 21
81.1385398524
 31
0.0
  0
LINE
  5
CC
330
1F
100
AcDbEntity
  8
0
  6
Continuous
 62
     7
370
    25
100
AcDbLine
 10
133.2325332538
 20
99.2385407703
 30
0.0
 11
133.2325332538
 21
90.1885403113
 31
0.0
  0
LINE
  5
CD
330
1F
100
AcDbEntity
  8
0
  6
Continuous
 62
     7
370
    25
100
AcDbLine
 10
119.232533753
 20
81.1385398524
 30
0.0
 11
119.232533753
 21
99.2385407703
 31
0.0
  0
LINE
  5
CE
330
1F
100
AcDbEntity
  8
0
  6
Continuous
 62
     7
370
    25
100
AcDbLine
 10
126.232533969
 20
100.8581954779
 30
0.0
 11
126.232533969
 21
100.844337398
 31
0.0
  0
LINE
  5
CF
330
1F
100
AcDbEntity
  8
0
  6
Continuous
 62
     7
370
    25
100
AcDbLine
 10
126.232533969
 20
79.5327432247
 30
0.0
 11
126.232533969
 21
79.5188851448
 31
0.0
  0
LINE
  5
D0
330
1F
100
AcDbEntity
  8
0
  6
Continuous
 62
     7
370
    25
100
AcDbLine
 10
115.6538150013
 20
113.1146305965
 30
0.0
 11
99.2590713054
 21
113.1146305965
 31
0.0
  0
LINE
  5
D1
330
1F
100
AcDbEntity
  8
0
  6
Continuous
 62
     7
370
    25
100
AcDbLine
 10
115.990427576
 20
102.3430458995
 30
0.0
 11
98.9224587307
 21
102.3430458995
 31
0.0
  0
LINE
  5
D2
330
1F
100
AcDbEntity
  8
0
  6
Continuous
 62
     7
370
    25
100
AcDbLine
 10
99.4564427734
 20
102.1885404157
 30
0.0
 11
115.4564435333
 21
102.1885404157
 31
0.0
  0
LINE
  5
D3
330
1F
100
AcDbEntity
  8
0
  6
Continuous
 62
     7
370
    25
100
AcDbLine
 10
100.4564429373
 20
115.1885406839
 30
0.0
 11
114.4564433694
 21
115.1885406839
 31
0.0
  0
LINE
  5
D4
330
1F
100
AcDbEntity
  8
0
  6
Continuous
 62
     7
370
    25
100
AcDbLine
 10
114.7064429447
 20
84.4385403002
 30
0.0
 11
114.7064429447
 21
87.5427890828
 31
0.0
  0
SPLINE
  5
D5
330
1F
100
AcDbEntity
  8
0
  6
Continuous
 62
     7
370
    25
100
AcDbSpline
210
0.0
220
0.0
230
1.0
 70
     8
 71
     3
 72
    10
 73
     6
 74
     0
 42
0.000000001
 43
0.00000001
 40
0.0
 40
0.0
 40
0.0
 40
0.0
 40
0.5
 40
0.5
 40
1.0
 40
1.0
 40
1.0
 40
1.0
 10
114.8832198486529
 20
87.55615494834768
 30
0.0
 10
114.8546652451435
 20
87.55276665869589
 30
0.0
 10
114.8216437100667
 20
87.54942517167899
 30
0.0
 10
114.7587053029208
 20
87.54443634247109
 30
0.0
 10
114.7287884308517
 20
87.54278900028007
 30
0.0
 10
114.7064431533578
 20
87.54278900028007
 30
0.0
  0
SPLINE
  5
D6
330
1F
100
AcDbEntity
  8
0
  6
Continuous
 62
     7
370
    25
100
AcDbSpline
210
0.0
220
0.0
230
1.0
 70
     8
 71
     3
 72
    12
 73
     8
 74
     0
 42
0.000000001
 43
0.00000001
 40
0.0
 40
0.0
 40
0.0
 40
0.0
 40
0.25
 40
0.25
 40
0.5
 40
0.5
 40
1.0
 40
1.0
 40
1.0
 40
1.0
 10
114.8832198486529
 20
87.55615494834768
 30
0.0
 10
114.8974971504076
 20
87.55784909317357
 30
0.0
 10
114.909212257829
 20
87.55977530272968
 30
0.0
 10
114.9282956156192
 20
87.56269076402019
 30
0.0
 10
114.935663865988
 20
87.56368001575458
 30
0.0
 10
114.9524146289363
 20
87.56314070330197
 30
0.0
 10
114.9564431533578
 20
87.55810507145917
 30
0.0
 10
114.9564431533578
 20
87.54278900028007
 30
0.0
  0
LINE
  5
D7
330
1F
100
AcDbEntity
  8
0
  6
Continuous
 62
     7
370
    25
100
AcDbLine
 10
114.9564429857
 20
87.5427890828
 30
0.0
 11
114.9564429857
 21
84.4385403002
 31
0.0
  0
LINE
  5
D8
330
1F
100
AcDbEntity
  8
0
  6
Continuous
 62
     7
370
    25
100
AcDbLine
 10
114.7064429447
 20
84.4385403002
 30
0.0
 11
114.9564429857
 21
84.4385403002
 31
0.0
  0
SPLINE
  5
D9
330
1F
100
AcDbEntity
  8
0
  6
Continuous
 62
     7
370
    25
100
AcDbSpline
210
0.0
220
0.0
230
1.0
 70
     8
 71
     3
 72
    12
 73
     8
 74
     0
 42
0.000000001
 43
0.00000001
 40
0.0
 40
0.0
 40
0.0
 40
0.0
 40
0.25
 40
0.25
 40
0.5
 40
0.5
 40
1.0
 40
1.0
 40
1.0
 40
1.0
 10
110.0888285163548
 20
97.6153170066398
 30
0.0
 10
110.0871343715289
 20
97.62959430839449
 30
0.0
 10
110.0852081619728
 20
97.6413094158159
 30
0.0
 10
110.0822927006823
 20
97.66039277360606
 30
0.0
 10
110.0813034489479
 20
97.66776102397485
 30
0.0
 10
110.0818427614005
 20
97.68451178692314
 30
0.0
 10
110.0868783932433
 20
97.68854031134467
 30
0.0
 10
110.1021944644224
 20
97.68854031134467
 30
0.0
  0
LINE
  5
DA
330
1F
100
AcDbEntity
  8
0
  6
Continuous
 62
     7
370
    25
100
AcDbLine
 10
110.1021943819
 20
97.6885401437
 30
0.0
 11
113.2064431645
 21
97.6885401437
 31
0.0
  0
LINE
  5
DB
330
1F
100
AcDbEntity
  8
0
  6
Continuous
 62
     7
370
    25
100
AcDbLine
 10
113.2064431645
 20
97.6885401437
 30
0.0
 11
113.2064431645
 21
97.4385401027
 31
0.0
  0
LINE
  5
DC
330
1F
100
AcDbEntity
  8
0
  6
Continuous
 62
     7
370
    25
100
AcDbLine
 10
113.2064431645
 20
97.4385401027
 30
0.0
 11
110.1021943819
 21
97.4385401027
 31
0.0
  0
SPLINE
  5
DD
330
1F
100
AcDbEntity
  8
0
  6
Continuous
 62
     7
370
    25
100
AcDbSpline
210
0.0
220
0.0
230
1.0
 70
     8
 71
     3
 72
    10
 73
     6
 74
     0
 42
0.000000001
 43
0.00000001
 40
0.0
 40
0.0
 40
0.0
 40
0.0
 40
0.5
 40
0.5
 40
1.0
 40
1.0
 40
1.0
 40
1.0
 10
110.0888285163548
 20
97.6153170066398
 30
0.0
 10
110.0922168060066
 20
97.5867624031304
 30
0.0
 10
110.0955582930235
 20
97.55374086805355
 30
0.0
 10
110.1005471222314
 20
97.4908024609076
 30
0.0
 10
110.1021944644224
 20
97.46088558883854
 30
0.0
 10
110.1021944644224
 20
97.43854031134467
 30
0.0
  0
LINE
  5
DE
330
1F
100
AcDbEntity
  8
0
  6
Continuous
 62
     7
370
    25
100
AcDbLine
 10
113.2064431645
 20
97.1885405274
 30
0.0
 11
113.2064431645
 21
97.4385401027
 31
0.0
  0
ARC
  5
DF
330
1F
100
AcDbEntity
  8
0
  6
Continuous
 62
     7
370
    25
100
AcDbCircle
 10
114.4564431534
 20
97.1885403113
 30
0.0
 40
1.25
100
AcDbArc
 50
180.0
 51
270.0
  0
LINE
  5
E0
330
1F
100
AcDbEntity
  8
0
  6
Continuous
 62
     7
370
    25
100
AcDbLine
 10
114.7064429447
 20
95.9385403225
 30
0.0
 11
114.4564433694
 21
95.9385403225
 31
0.0
  0
LINE
  5
E1
330
1F
100
AcDbEntity
  8
0
  6
Continuous
 62
     7
370
    25
100
AcDbLine
 10
114.7064429447
 20
92.8342915399
 30
0.0
 11
114.7064429447
 21
95.9385403225
 31
0.0
  0
LINE
  5
E2
330
1F
100
AcDbEntity
  8
0
  6
Continuous
 62
     7
370
    25
100
AcDbLine
 10
114.7064429447
 20
92.8342915399
 30
0.0
 11
114.7064429447
 21
90.1885403113
 31
0.0
  0
LINE
  5
E3
330
1F
100
AcDbEntity
  8
0
  6
Continuous
 62
     7
370
    25
100
AcDbLine
 10
114.7064429447
 20
90.1885403113
 30
0.0
 11
114.7064429447
 21
87.5427890828
 31
0.0
  0
LINE
  5
E4
330
1F
100
AcDbEntity
  8
0
  6
Continuous
 62
     7
370
    25
100
AcDbLine
 10
103.4564429634
 20
84.4385403002
 30
0.0
 11
114.7064429447
 21
84.4385403002
 31
0.0
  0
ARC
  5
E5
330
1F
100
AcDbEntity
  8
0
  6
Continuous
 62
     7
370
    25
100
AcDbCircle
 10
103.4564431534
 20
86.1885403113
 30
0.0
 40
1.75
100
AcDbArc
 50
180.0
 51
270.0
  0
LINE
  5
E6
330
1F
100
AcDbEntity
  8
0
  6
Continuous
 62
     7
370
    25
100
AcDbLine
 10
101.7064431422
 20
97.4385401027
 30
0.0
 11
101.7064431422
 21
86.1885401214
 31
0.0
  0
LINE
  5
E7
330
1F
100
AcDbEntity
  8
0
  6
Continuous
 62
     7
370
    25
100
AcDbLine
 10
104.8106919248
 20
97.4385401027
 30
0.0
 11
101.7064431422
 21
97.4385401027
 31
0.0
  0
LINE
  5
E8
330
1F
100
AcDbEntity
  8
0
  6
Continuous
 62
     7
370
    25
100
AcDbLine
 10
104.8106919248
 20
97.4385401027
 30
0.0
 11
107.4564431534
 21
97.4385401027
 31
0.0
  0
LINE
  5
E9
330
1F
100
AcDbEntity
  8
0
  6
Continuous
 62
     7
370
    25
100
AcDbLine
 10
107.4564431534
 20
97.4385401027
 30
0.0
 11
110.1021943819
 21
97.4385401027
 31
0.0
  0
LINE
  5
EA
330
1F
100
AcDbEntity
  8
0
  6
Continuous
 62
     7
370
    25
100
AcDbLine
 10
112.3083450571
 20
90.0075858194
 30
0.0
 11
113.2836204693
 21
87.2807584496
 31
0.0
  0
SPLINE
  5
EB
330
1F
100
AcDbEntity
  8
0
  6
Continuous
 62
     7
370
    25
100
AcDbSpline
210
0.0
220
0.0
230
1.0
 70
     8
 71
     3
 72
    14
 73
    10
 74
     0
 42
0.000000001
 43
0.00000001
 40
0.0
 40
0.0
 40
0.0
 40
0.0
 40
0.25
 40
0.25
 40
0.5
 40
0.5
 40
0.75
 40
0.75
 40
1.0
 40
1.0
 40
1.0
 40
1.0
 10
110.934697383004
 20
90.00758581598743
 30
0.0
 10
110.9950938062029
 20
90.13822319629227
 30
0.0
 10
111.0946233678603
 20
90.24828756145779
 30
0.0
 10
111.3357090586067
 20
90.39806484493097
 30
0.0
 10
111.4770260919
 20
90.43841078206539
 30
0.0
 10
111.7646193060127
 20
90.43866921299495
 30
0.0
 10
111.9060769619016
 20
90.3988481758972
 30
0.0
 10
112.1496968989999
 20
90.24749076174213
 30
0.0
 10
112.247953897967
 20
90.13821151584246
 30
0.0
 10
112.3083449210467
 20
90.00758581598797
 30
0.0
  0
LINE
  5
EC
330
1F
100
AcDbEntity
  8
0
  6
Continuous
 62
     7
370
    25
100
AcDbLine
 10
109.9596482441
 20
87.2813910505
 30
0.0
 11
110.9346973449
 21
90.0075858194
 31
0.0
  0
SPLINE
  5
ED
330
1F
100
AcDbEntity
  8
0
  6
Continuous
 62
     7
370
    25
100
AcDbSpline
210
0.0
220
0.0
230
1.0
 70
     8
 71
     3
 72
    10
 73
     6
 74
     0
 42
0.000000001
 43
0.00000001
 40
0.0
 40
0.0
 40
0.0
 40
0.0
 40
0.5
 40
0.5
 40
1.0
 40
1.0
 40
1.0
 40
1.0
 10
109.559044207541
 20
87.14535744305972
 30
0.0
 10
109.629496105798
 20
87.10658698092958
 30
0.0
 10
109.7148281008928
 20
87.099264640876
 30
0.0
 10
109.8668140140544
 20
87.14822995591838
 30
0.0
 10
109.9325185793195
 20
87.20553803744308
 30
0.0
 10
109.9596481658685
 20
87.28139116609027
 30
0.0
  0
LINE
  5
EE
330
1F
100
AcDbEntity
  8
0
  6
Continuous
 62
     7
370
    25
100
AcDbLine
 10
108.7914346923
 20
87.5677815897
 30
0.0
 11
109.5590442624
 21
87.1453574186
 31
0.0
  0
LINE
  5
EF
330
1F
100
AcDbEntity
  8
0
  6
Continuous
 62
     7
370
    25
100
AcDbLine
 10
109.791222049
 20
85.6618534567
 30
0.0
 11
108.7914346923
 21
87.5677815897
 31
0.0
  0
SPLINE
  5
F0
330
1F
100
AcDbEntity
  8
0
  6
Continuous
 62
     7
370
    25
100
AcDbSpline
210
0.0
220
0.0
230
1.0
 70
     8
 71
     3
 72
    10
 73
     6
 74
     0
 42
0.000000001
 43
0.00000001
 40
0.0
 40
0.0
 40
0.0
 40
0.0
 40
0.5
 40
0.5
 40
1.0
 40
1.0
 40
1.0
 40
1.0
 10
110.2815938977434
 20
85.57327922383945
 30
0.0
 10
110.2094829034214
 20
85.50927345403548
 30
0.0
 10
110.1083787765816
 20
85.48168811578188
 30
0.0
 10
109.9208209185416
 20
85.51548887574565
 30
0.0
 10
109.8360176929493
 20
85.57645783391604
 30
0.0
 10
109.7912220541657
 20
85.66185326504211
 30
0.0
  0
SPLINE
  5
F1
330
1F
100
AcDbEntity
  8
0
  6
Continuous
 62
     7
370
    25
100
AcDbSpline
210
0.0
220
0.0
230
1.0
 70
     8
 71
     3
 72
    14
 73
    10
 74
     0
 42
0.000000001
 43
0.00000001
 40
0.0
 40
0.0
 40
0.0
 40
0.0
 40
0.4999999999999987
 40
0.4999999999999987
 40
0.6249999999999988
 40
0.6249999999999988
 40
0.7499999999999993
 40
0.7499999999999993
 40
1.0
 40
1.0
 40
1.0
 40
1.0
 10
112.9614484063074
 20
85.57327922383936
 30
0.0
 10
112.5934279177375
 20
85.89993447101754
 30
0.0
 10
112.1093801340162
 20
86.07505731440963
 30
0.0
 10
111.4996543479446
 20
86.0750804128988
 30
0.0
 10
111.3765474893039
 20
86.06411353050886
 30
0.0
 10
111.137479396847
 20
86.02123304657869
 30
0.0
 10
111.0202924647349
 20
85.98938718985222
 30
0.0
 10
110.6760554024123
 20
85.86138082992342
 30
0.0
 10
110.4656246158452
 20
85.7366250200029
 30
0.0
 10
110.2815938977434
 20
85.57327922383945
 30
0.0
  0
SPLINE
  5
F2
330
1F
100
AcDbEntity
  8
0
  6
Continuous
 62
     7
370
    25
100
AcDbSpline
210
0.0
220
0.0
230
1.0
 70
     8
 71
     3
 72
    10
 73
     6
 74
     0
 42
0.000000001
 43
0.00000001
 40
0.0
 40
0.0
 40
0.0
 40
0.0
 40
0.5
 40
0.5
 40
1.0
 40
1.0
 40
1.0
 40
1.0
 10
113.4518202498853
 20
85.66185326504244
 30
0.0
 10
113.4070212604981
 20
85.57645144654771
 30
0.0
 10
113.3217374148405
 20
85.51526299677198
 30
0.0
 10
113.1342475552397
 20
85.48175247869888
 30
0.0
 10
113.0335684899204
 20
85.50926538637424
 30
0.0
 10
112.9614484063074
 20
85.57327922383935
 30
0.0
  0
LINE
  5
F3
330
1F
100
AcDbEntity
  8
0
  6
Continuous
 62
     7
370
    25
100
AcDbLine
 10
114.4631670528
 20
87.589817846
 30
0.0
 11
113.4518201203
 21
85.6618534567
 31
0.0
  0
LINE
  5
F4
330
1F
100
AcDbEntity
  8
0
  6
Continuous
 62
     7
370
    25
100
AcDbLine
 10
113.6881455519
 20
87.1469239032
 30
0.0
 11
114.4631670528
 21
87.589817846
 31
0.0
  0
SPLINE
  5
F5
330
1F
100
AcDbEntity
  8
0
  6
Continuous
 62
     7
370
    25
100
AcDbSpline
210
0.0
220
0.0
230
1.0
 70
     8
 71
     3
 72
    10
 73
     6
 74
     0
 42
0.000000001
 43
0.00000001
 40
0.0
 40
0.0
 40
0.0
 40
0.0
 40
0.5
 40
0.5
 40
1.0
 40
1.0
 40
1.0
 40
1.0
 10
113.2836204399151
 20
87.2807584364144
 30
0.0
 10
113.3110626151052
 20
87.20403132370014
 30
0.0
 10
113.3781452457776
 20
87.14642413833508
 30
0.0
 10
113.5309531002378
 20
87.09846838945163
 30
0.0
 10
113.6175455854027
 20
87.10657873769838
 30
0.0
 10
113.6881456442533
 20
87.14692387069522
 30
0.0
  0
SPLINE
  5
F6
330
1F
100
AcDbEntity
  8
0
  6
Continuous
 62
     7
370
    25
100
AcDbSpline
210
0.0
220
0.0
230
1.0
 70
     8
 71
     3
 72
     8
 73
     4
 74
     0
 42
0.000000001
 43
0.00000001
 40
0.0
 40
0.0
 40
0.0
 40
0.0
 40
1.0
 40
1.0
 40
1.0
 40
1.0
 10
101.4409421798398
 20
85.89175390168892
 30
0.0
 10
101.4284263221552
 20
85.98916932080027
 30
0.0
 10
101.4219603947371
 20
86.08805005832754
 30
0.0
 10
101.4219603947371
 20
86.18854031134465
 30
0.0
  0
LINE
  5
F7
330
1F
100
AcDbEntity
  8
0
  6
Continuous
 62
     7
370
    25
100
AcDbLine
 10
113.8247295954
 20
96.5568267534
 30
0.0
 11
114.4564433694
 21
97.1885405274
 31
0.0
  0
SPLINE
  5
F8
330
1F
100
AcDbEntity
  8
0
  6
Continuous
 62
     7
370
    25
100
AcDbSpline
210
0.0
220
0.0
230
1.0
 70
     8
 71
     3
 72
    12
 73
     8
 74
     0
 42
0.000000001
 43
0.00000001
 40
0.0
 40
0.0
 40
0.0
 40
0.0
 40
0.2500000000000002
 40
0.2500000000000002
 40
0.5000000000000004
 40
0.5000000000000004
 40
1.0
 40
1.0
 40
1.0
 40
1.0
 10
113.4909259119785
 20
97.18854031134467
 30
0.0
 10
113.4909259119785
 20
97.10173453422803
 30
0.0
 10
113.5060247649167
 20
97.01824933569115
 30
0.0
 10
113.5534766231032
 20
96.8742691469529
 30
0.0
 10
113.5843816350194
 20
96.81503301402965
 30
0.0
 10
113.6837153867686
 20
96.66471944587265
 30
0.0
 10
113.7560476585041
 20
96.6023506729439
 30
0.0
 10
113.8247296420551
 20
96.55682680004195
 30
0.0
  0
LINE
  5
F9
330
1F
100
AcDbEntity
  8
0
  6
Continuous
 62
     7
370
    25
100
AcDbLine
 10
113.4909258895
 20
97.4385401027
 30
0.0
 11
113.4909258895
 21
97.1885405274
 31
0.0
  0
SPLINE
  5
FA
330
1F
100
AcDbEntity
  8
0
  6
Continuous
 62
     7
370
    25
100
AcDbSpline
210
0.0
220
0.0
230
1.0
 70
     8
 71
     3
 72
    14
 73
    10
 74
     0
 42
0.000000001
 43
0.00000001
 40
0.0
 40
0.0
 40
0.0
 40
0.0
 40
0.25
 40
0.25
 40
0.5
 40
0.5
 40
0.75
 40
0.75
 40
1.0
 40
1.0
 40
1.0
 40
1.0
 10
113.4909259119785
 20
97.43854031134467
 30
0.0
 10
113.4909259119785
 20
97.5303427059576
 30
0.0
 10
113.4654157180394
 20
97.61450664487302
 30
0.0
 10
113.3984493502499
 20
97.74160232544439
 30
0.0
 10
113.3566347176484
 20
97.78972479469554
 30
0.0
 10
113.2666741999669
 20
97.8650425744743
 30
0.0
 10
113.2176672078672
 20
97.89241878756764
 30
0.0
 10
113.1163533573279
 20
97.92898063818977
 30
0.0
 10
113.0634847406773
 20
97.93854031134467
 30
0.0
 10
113.0081672912888
 20
97.93854031134467
 30
0.0
  0
LINE
  5
FB
330
1F
100
AcDbEntity
  8
0
  6
Continuous
 62
     7
370
    25
100
AcDbLine
 10
110.0109615568
 20
97.9385401847
 30
0.0
 11
113.0081673824
 21
97.9385401847
 31
0.0
  0
SPLINE
  5
FC
330
1F
100
AcDbEntity
  8
0
  6
Continuous
 62
     7
370
    25
100
AcDbSpline
210
0.0
220
0.0
230
1.0
 70
    24
 71
     3
 72
    14
 73
    10
 74
     0
 42
0.000000001
 43
0.00000001
 40
0.0
 40
0.0
 40
0.0
 40
0.0
 40
0.25
 40
0.25
 40
0.5
 40
0.5
 40
0.75
 40
0.75
 40
1.0
 40
1.0
 40
1.0
 40
1.0
 10
107.4564431533578
 20
97.93854031134467
 30
0.0
 10
107.6717393838804
 20
97.93854031134467
 30
0.0
 10
107.8870367450236
 20
97.93854031134467
 30
0.0
 10
108.3167705096197
 20
97.93854031134467
 30
0.0
 10
108.5312091790161
 20
97.93854031134467
 30
0.0
 10
108.9582989827262
 20
97.93854031134467
 30
0.0
 10
109.1709523941608
 20
97.93854031134467
 30
0.0
 10
109.5934090966732
 20
97.93854031134467
 30
0.0
 10
109.8032146735584
 20
97.93854031134467
 30
0.0
 10
110.0109616605926
 20
97.93854031134467
 30
0.0
  0
SPLINE
  5
FD
330
1F
100
AcDbEntity
  8
0
  6
Continuous
 62
     7
370
    25
100
AcDbSpline
210
0.0
220
0.0
230
1.0
 70
    24
 71
     3
 72
    14
 73
    10
 74
     0
 42
0.000000001
 43
0.00000001
 40
0.0
 40
0.0
 40
0.0
 40
0.0
 40
0.25
 40
0.25
 40
0.5
 40
0.5
 40
0.75
 40
0.75
 40
1.0
 40
1.0
 40
1.0
 40
1.0
 10
107.4564431533578
 20
97.93854031134467
 30
0.0
 10
107.2411469228352
 20
97.93854031134467
 30
0.0
 10
107.025849561692
 20
97.93854031134467
 30
0.0
 10
106.596115797096
 20
97.93854031134467
 30
0.0
 10
106.3816771276995
 20
97.93854031134467
 30
0.0
 10
105.9545873239894
 20
97.93854031134467
 30
0.0
 10
105.7419339125548
 20
97.93854031134467
 30
0.0
 10
105.3194772100424
 20
97.93854031134467
 30
0.0
 10
105.1096716331572
 20
97.93854031134467
 30
0.0
 10
104.901924646123
 20
97.93854031134467
 30
0.0
  0
LINE
  5
FE
330
1F
100
AcDbEntity
  8
0
  6
Continuous
 62
     7
370
    25
100
AcDbLine
 10
101.9047189243
 20
97.9385401847
 30
0.0
 11
104.9019247499
 21
97.9385401847
 31
0.0
  0
SPLINE
  5
FF
330
1F
100
AcDbEntity
  8
0
  6
Continuous
 62
     7
370
    25
100
AcDbSpline
210
0.0
220
0.0
230
1.0
 70
     8
 71
     3
 72
    14
 73
    10
 74
     0
 42
0.000000001
 43
0.00000001
 40
0.0
 40
0.0
 40
0.0
 40
0.0
 40
0.25
 40
0.25
 40
0.5
 40
0.5
 40
0.75
 40
0.75
 40
1.0
 40
1.0
 40
1.0
 40
1.0
 10
101.9047190154268
 20
97.93854031134467
 30
0.0
 10
101.8494402388012
 20
97.93854031134467
 30
0.0
 10
101.796461560635
 20
97.92899174710853
 30
0.0
 10
101.6947200929088
 20
97.89220162898371
 30
0.0
 10
101.6456758191864
 20
97.86465058169553
 30
0.0
 10
101.5562277742181
 20
97.78964749412538
 30
0.0
 10
101.5143532058936
 20
97.7414671139334
 30
0.0
 10
101.4474815776899
 20
97.61450373615658
 30
0.0
 10
101.4219603947371
 20
97.53048125606779
 30
0.0
 10
101.4219603947371
 20
97.43854031134467
 30
0.0
  0
LINE
  5
100
330
1F
100
AcDbEntity
  8
0
  6
Continuous
 62
     7
370
    25
100
AcDbLine
 10
101.4219604172
 20
86.1885401214
 30
0.0
 11
101.4219604172
 21
97.4385401027
 31
0.0
  0
LINE
  5
101
330
1F
100
AcDbEntity
  8
0
  6
Continuous
 62
     7
370
    25
100
AcDbLine
 10
114.9564429857
 20
95.9385403225
 30
0.0
 11
114.9564429857
 21
92.8342915399
 31
0.0
  0
SPLINE
  5
102
330
1F
100
AcDbEntity
  8
0
  6
Continuous
 62
     7
370
    25
100
AcDbSpline
210
0.0
220
0.0
230
1.0
 70
     8
 71
     3
 72
    12
 73
     8
 74
     0
 42
0.000000001
 43
0.00000001
 40
0.0
 40
0.0
 40
0.0
 40
0.0
 40
0.25
 40
0.25
 40
0.5
 40
0.5
 40
1.0
 40
1.0
 40
1.0
 40
1.0
 10
114.8832198486529
 20
92.82092567434164
 30
0.0
 10
114.8974971504076
 20
92.81923152951573
 30
0.0
 10
114.909212257829
 20
92.81730531995963
 30
0.0
 10
114.9282956156192
 20
92.81438985866913
 30
0.0
 10
114.935663865988
 20
92.81340060693475
 30
0.0
 10
114.9524146289363
 20
92.81393991938735
 30
0.0
 10
114.9564431533578
 20
92.81897555123015
 30
0.0
 10
114.9564431533578
 20
92.83429162240925
 30
0.0
  0
SPLINE
  5
103
330
1F
100
AcDbEntity
  8
0
  6
Continuous
 62
     7
370
    25
100
AcDbSpline
210
0.0
220
0.0
230
1.0
 70
     8
 71
     3
 72
    10
 73
     6
 74
     0
 42
0.000000001
 43
0.00000001
 40
0.0
 40
0.0
 40
0.0
 40
0.0
 40
0.5
 40
0.5
 40
1.0
 40
1.0
 40
1.0
 40
1.0
 10
114.8832198486529
 20
92.82092567434164
 30
0.0
 10
114.8546652451435
 20
92.82431396399342
 30
0.0
 10
114.8216437100667
 20
92.82765545101032
 30
0.0
 10
114.7587053029208
 20
92.83264428021825
 30
0.0
 10
114.7287884308517
 20
92.83429162240925
 30
0.0
 10
114.7064431533578
 20
92.83429162240925
 30
0.0
  0
LINE
  5
104
330
1F
100
AcDbEntity
  8
0
  6
Continuous
 62
     7
370
    25
100
AcDbLine
 10
114.7064429447
 20
95.9385403225
 30
0.0
 11
114.9564429857
 21
95.9385403225
 31
0.0
  0
LINE
  5
105
330
1F
100
AcDbEntity
  8
0
  6
Continuous
 62
     7
370
    25
100
AcDbLine
 10
101.7064431422
 20
97.6885401437
 30
0.0
 11
104.8106919248
 21
97.6885401437
 31
0.0
  0
SPLINE
  5
106
330
1F
100
AcDbEntity
  8
0
  6
Continuous
 62
     7
370
    25
100
AcDbSpline
210
0.0
220
0.0
230
1.0
 70
     8
 71
     3
 72
    12
 73
     8
 74
     0
 42
0.000000001
 43
0.00000001
 40
0.0
 40
0.0
 40
0.0
 40
0.0
 40
0.25
 40
0.25
 40
0.5
 40
0.5
 40
1.0
 40
1.0
 40
1.0
 40
1.0
 10
104.8240577903608
 20
97.6153170066398
 30
0.0
 10
104.8257519351867
 20
97.62959430839449
 30
0.0
 10
104.8276781447428
 20
97.6413094158159
 30
0.0
 10
104.8305936060333
 20
97.66039277360606
 30
0.0
 10
104.8315828577677
 20
97.66776102397485
 30
0.0
 10
104.8310435453151
 20
97.68451178692314
 30
0.0
 10
104.8260079134723
 20
97.68854031134467
 30
0.0
 10
104.8106918422932
 20
97.68854031134467
 30
0.0
  0
SPLINE
  5
107
330
1F
100
AcDbEntity
  8
0
  6
Continuous
 62
     7
370
    25
100
AcDbSpline
210
0.0
220
0.0
230
1.0
 70
     8
 71
     3
 72
    10
 73
     6
 74
     0
 42
0.000000001
 43
0.00000001
 40
0.0
 40
0.0
 40
0.0
 40
0.0
 40
0.5
 40
0.5
 40
1.0
 40
1.0
 40
1.0
 40
1.0
 10
104.8240577903608
 20
97.6153170066398
 30
0.0
 10
104.820669500709
 20
97.5867624031304
 30
0.0
 10
104.8173280136921
 20
97.55374086805355
 30
0.0
 10
104.8123391844842
 20
97.4908024609076
 30
0.0
 10
104.8106918422932
 20
97.46088558883854
 30
0.0
 10
104.8106918422932
 20
97.43854031134467
 30
0.0
  0
LINE
  5
108
330
1F
100
AcDbEntity
  8
0
  6
Continuous
 62
     7
370
    25
100
AcDbLine
 10
101.7064431422
 20
97.6885401437
 30
0.0
 11
101.7064431422
 21
97.4385401027
 31
0.0
  0
SPLINE
  5
109
330
1F
100
AcDbEntity
  8
0
  6
Continuous
 62
     7
370
    25
100
AcDbSpline
210
0.0
220
0.0
230
1.0
 70
    24
 71
     3
 72
    14
 73
    10
 74
     0
 42
0.000000001
 43
0.00000001
 40
0.0
 40
0.0
 40
0.0
 40
0.0
 40
0.25
 40
0.25
 40
0.5
 40
0.5
 40
0.75
 40
0.75
 40
1.0
 40
1.0
 40
1.0
 40
1.0
 10
115.2064431533578
 20
90.18854031134465
 30
0.0
 10
115.2064431533578
 20
89.97324408082207
 30
0.0
 10
115.2064431533578
 20
89.75794671967886
 30
0.0
 10
115.2064431533578
 20
89.32821295508282
 30
0.0
 10
115.2064431533578
 20
89.11377428568636
 30
0.0
 10
115.2064431533578
 20
88.68668448197626
 30
0.0
 10
115.2064431533578
 20
88.47403107054168
 30
0.0
 10
115.2064431533578
 20
88.05157436802929
 30
0.0
 10
115.2064431533578
 20
87.84176879114403
 30
0.0
 10
115.2064431533578
 20
87.63402180410988
 30
0.0
  0
SPLINE
  5
10A
330
1F
100
AcDbEntity
  8
0
  6
Continuous
 62
     7
370
    25
100
AcDbSpline
210
0.0
220
0.0
230
1.0
 70
    24
 71
     3
 72
    14
 73
    10
 74
     0
 42
0.000000001
 43
0.00000001
 40
0.0
 40
0.0
 40
0.0
 40
0.0
 40
0.25
 40
0.25
 40
0.5
 40
0.5
 40
0.75
 40
0.75
 40
1.0
 40
1.0
 40
1.0
 40
1.0
 10
115.2064431533578
 20
90.18854031134465
 30
0.0
 10
115.2064431533578
 20
90.40383654186726
 30
0.0
 10
115.2064431533578
 20
90.61913390301048
 30
0.0
 10
115.2064431533578
 20
91.0488676676065
 30
0.0
 10
115.2064431533578
 20
91.26330633700297
 30
0.0
 10
115.2064431533578
 20
91.69039614071308
 30
0.0
 10
115.2064431533578
 20
91.90304955214764
 30
0.0
 10
115.2064431533578
 20
92.32550625466003
 30
0.0
 10
115.2064431533578
 20
92.53531183154529
 30
0.0
 10
115.2064431533578
 20
92.74305881857944
 30
0.0
  0
LINE
  5
10B
330
1F
100
AcDbEntity
  8
0
  6
Continuous
 62
     7
370
    25
100
AcDbLine
 10
115.2064430267
 20
95.7402645404
 30
0.0
 11
115.2064430267
 21
92.7430587148
 31
0.0
  0
SPLINE
  5
10C
330
1F
100
AcDbEntity
  8
0
  6
Continuous
 62
     7
370
    25
100
AcDbSpline
210
0.0
220
0.0
230
1.0
 70
     8
 71
     3
 72
    14
 73
    10
 74
     0
 42
0.000000001
 43
0.00000001
 40
0.0
 40
0.0
 40
0.0
 40
0.0
 40
0.25
 40
0.25
 40
0.5
 40
0.5
 40
0.75
 40
0.75
 40
1.0
 40
1.0
 40
1.0
 40
1.0
 10
115.2064431533578
 20
95.74026444927568
 30
0.0
 10
115.2064431533578
 20
95.79554322590128
 30
0.0
 10
115.1968945891217
 20
95.84852190406752
 30
0.0
 10
115.1601044709969
 20
95.95026337179368
 30
0.0
 10
115.1325534237087
 20
95.99930764551611
 30
0.0
 10
115.0575503361385
 20
96.08875569048432
 30
0.0
 10
115.0093699559465
 20
96.13063025880889
 30
0.0
 10
114.8824065781697
 20
96.19750188701259
 30
0.0
 10
114.7983840980809
 20
96.22302306996535
 30
0.0
 10
114.7064431533578
 20
96.22302306996535
 30
0.0
  0
LINE
  5
10D
330
1F
100
AcDbEntity
  8
0
  6
Continuous
 62
     7
370
    25
100
AcDbLine
 10
114.4564433694
 20
96.2230230475
 30
0.0
 11
114.7064429447
 21
96.2230230475
 31
0.0
  0
SPLINE
  5
10E
330
1F
100
AcDbEntity
  8
0
  6
Continuous
 62
     7
370
    25
100
AcDbSpline
210
0.0
220
0.0
230
1.0
 70
     8
 71
     3
 72
    12
 73
     8
 74
     0
 42
0.000000001
 43
0.00000001
 40
0.0
 40
0.0
 40
0.0
 40
0.0
 40
0.4999999999999991
 40
0.4999999999999991
 40
0.7499999999999996
 40
0.7499999999999996
 40
1.0
 40
1.0
 40
1.0
 40
1.0
 10
113.8247296420551
 20
96.55682680004195
 30
0.0
 10
113.8702535149571
 20
96.48814481649099
 30
0.0
 10
113.9326222878858
 20
96.41581254475545
 30
0.0
 10
114.0829358560428
 20
96.3164787930063
 30
0.0
 10
114.142171988966
 20
96.28557378109005
 30
0.0
 10
114.2861521777043
 20
96.23812192290356
 30
0.0
 10
114.3696373762412
 20
96.22302306996535
 30
0.0
 10
114.4564431533578
 20
96.22302306996535
 30
0.0
  0
SPLINE
  5
10F
330
1F
100
AcDbEntity
  8
0
  6
Continuous
 62
     7
370
    25
100
AcDbSpline
210
0.0
220
0.0
230
1.0
 70
     8
 71
     3
 72
     8
 73
     4
 74
     0
 42
0.000000001
 43
0.00000001
 40
0.0
 40
0.0
 40
0.0
 40
0.0
 40
1.0
 40
1.0
 40
1.0
 40
1.0
 10
103.4564431533578
 20
84.15405755272397
 30
0.0
 10
103.3559529003407
 20
84.15405755272397
 30
0.0
 10
103.2570721628134
 20
84.16052348014205
 30
0.0
 10
103.1596567437021
 20
84.17303933782664
 30
0.0
  0
LINE
  5
110
330
1F
100
AcDbEntity
  8
0
  6
Continuous
 62
     7
370
    25
100
AcDbLine
 10
114.7064429447
 20
84.1540575752
 30
0.0
 11
103.4564429634
 21
84.1540575752
 31
0.0
  0
SPLINE
  5
111
330
1F
100
AcDbEntity
  8
0
  6
Continuous
 62
     7
370
    25
100
AcDbSpline
210
0.0
220
0.0
230
1.0
 70
     8
 71
     3
 72
    14
 73
    10
 74
     0
 42
0.000000001
 43
0.00000001
 40
0.0
 40
0.0
 40
0.0
 40
0.0
 40
0.25
 40
0.25
 40
0.5
 40
0.5
 40
0.75
 40
0.75
 40
1.0
 40
1.0
 40
1.0
 40
1.0
 10
114.7064431533578
 20
84.15405755272397
 30
0.0
 10
114.7982455479708
 20
84.15405755272397
 30
0.0
 10
114.8824094868862
 20
84.1795677466631
 30
0.0
 10
115.0095051674575
 20
84.24653411445257
 30
0.0
 10
115.0576276367087
 20
84.28834874705403
 30
0.0
 10
115.1329454164875
 20
84.37830926473556
 30
0.0
 10
115.1603216295808
 20
84.42731625683525
 30
0.0
 10
115.1968834802029
 20
84.52863010737455
 30
0.0
 10
115.2064431533578
 20
84.58149872402515
 30
0.0
 10
115.2064431533578
 20
84.63681617341362
 30
0.0
  0
LINE
  5
112
330
1F
100
AcDbEntity
  8
0
  6
Continuous
 62
     7
370
    25
100
AcDbLine
 10
115.2064430267
 20
87.6340219079
 30
0.0
 11
115.2064430267
 21
84.6368160823
 31
0.0
  0
SPLINE
  5
113
330
1F
100
AcDbEntity
  8
0
  6
Continuous
 62
     7
370
    25
100
AcDbSpline
210
0.0
220
0.0
230
1.0
 70
    24
 71
     3
 72
    10
 73
     6
 74
     0
 42
0.000000001
 43
0.00000001
 40
0.0
 40
0.0
 40
0.0
 40
0.0
 40
0.5
 40
0.5
 40
1.0
 40
1.0
 40
1.0
 40
1.0
 10
114.9581629110121
 20
90.18854031134465
 30
0.0
 10
114.9171945172158
 20
90.18854031134465
 30
0.0
 10
114.8732300074713
 20
90.18854031134465
 30
0.0
 10
114.7821833677275
 20
90.18854031134465
 30
0.0
 10
114.7492349271467
 20
90.18854031134465
 30
0.0
 10
114.7064431533578
 20
90.18854031134465
 30
0.0
  0
SPLINE
  5
114
330
1F
100
AcDbEntity
  8
0
  6
Continuous
 62
     7
370
    25
100
AcDbSpline
210
0.0
220
0.0
230
1.0
 70
     8
 71
     3
 72
    12
 73
     8
 74
     0
 42
0.000000001
 43
0.00000001
 40
0.0
 40
0.0
 40
0.0
 40
0.0
 40
0.25
 40
0.25
 40
0.5
 40
0.5
 40
1.0
 40
1.0
 40
1.0
 40
1.0
 10
114.9581629110121
 20
90.18854031134465
 30
0.0
 10
114.9479208125631
 20
90.407229397551
 30
0.0
 10
114.9403816010097
 20
90.62561219896436
 30
0.0
 10
114.9260520853854
 20
91.06388235099209
 30
0.0
 10
114.9192617813144
 20
91.28376970160647
 30
0.0
 10
114.8930289308611
 20
91.94886425543173
 30
0.0
 10
114.8833462141728
 20
92.38205196050377
 30
0.0
 10
114.8832198486529
 20
92.82092567434164
 30
0.0
  0
SPLINE
  5
115
330
1F
100
AcDbEntity
  8
0
  6
Continuous
 62
     7
370
    25
100
AcDbSpline
210
0.0
220
0.0
230
1.0
 70
     8
 71
     3
 72
    12
 73
     8
 74
     0
 42
0.000000001
 43
0.00000001
 40
0.0
 40
0.0
 40
0.0
 40
0.0
 40
0.25
 40
0.25
 40
0.5
 40
0.5
 40
1.0
 40
1.0
 40
1.0
 40
1.0
 10
114.9581629110121
 20
90.18854031134465
 30
0.0
 10
114.9479208125631
 20
89.96985122513831
 30
0.0
 10
114.9403816010097
 20
89.75146842372496
 30
0.0
 10
114.9260520853854
 20
89.31319827169723
 30
0.0
 10
114.9192617813144
 20
89.09331092108286
 30
0.0
 10
114.8930289308611
 20
88.42821636725759
 30
0.0
 10
114.8833462141728
 20
87.99502866218555
 30
0.0
 10
114.8832198486529
 20
87.55615494834768
 30
0.0
  0
SPLINE
  5
116
330
1F
100
AcDbEntity
  8
0
  6
Continuous
 62
     7
370
    25
100
AcDbSpline
210
0.0
220
0.0
230
1.0
 70
    24
 71
     3
 72
    10
 73
     6
 74
     0
 42
0.000000001
 43
0.00000001
 40
0.0
 40
0.0
 40
0.0
 40
0.0
 40
0.5
 40
0.5
 40
1.0
 40
1.0
 40
1.0
 40
1.0
 10
107.4564431533578
 20
97.69026006899898
 30
0.0
 10
107.4564431533578
 20
97.64929167520272
 30
0.0
 10
107.4564431533578
 20
97.60532716545819
 30
0.0
 10
107.4564431533578
 20
97.51428052571438
 30
0.0
 10
107.4564431533578
 20
97.48133208513352
 30
0.0
 10
107.4564431533578
 20
97.43854031134467
 30
0.0
  0
SPLINE
  5
117
330
1F
100
AcDbEntity
  8
0
  6
Continuous
 62
     7
370
    25
100
AcDbSpline
210
0.0
220
0.0
230
1.0
 70
     8
 71
     3
 72
    12
 73
     8
 74
     0
 42
0.000000001
 43
0.00000001
 40
0.0
 40
0.0
 40
0.0
 40
0.0
 40
0.25
 40
0.25
 40
0.5
 40
0.5
 40
1.0
 40
1.0
 40
1.0
 40
1.0
 10
107.4564431533578
 20
97.69026006899898
 30
0.0
 10
107.2377540671515
 20
97.68001797054991
 30
0.0
 10
107.0193712657381
 20
97.67247875899658
 30
0.0
 10
106.5811011137104
 20
97.65814924337222
 30
0.0
 10
106.361213763096
 20
97.65135893930122
 30
0.0
 10
105.6961192092707
 20
97.62512608884794
 30
0.0
 10
105.2629315041987
 20
97.61544337215963
 30
0.0
 10
104.8240577903608
 20
97.6153170066398
 30
0.0
  0
SPLINE
  5
118
330
1F
100
AcDbEntity
  8
0
  6
Continuous
 62
     7
370
    25
100
AcDbSpline
210
0.0
220
0.0
230
1.0
 70
     8
 71
     3
 72
    12
 73
     8
 74
     0
 42
0.000000001
 43
0.00000001
 40
0.0
 40
0.0
 40
0.0
 40
0.0
 40
0.25
 40
0.25
 40
0.5
 40
0.5
 40
1.0
 40
1.0
 40
1.0
 40
1.0
 10
107.4564431533578
 20
97.69026006899898
 30
0.0
 10
107.6751322395642
 20
97.68001797054991
 30
0.0
 10
107.8935150409775
 20
97.67247875899656
 30
0.0
 10
108.3317851930052
 20
97.65814924337222
 30
0.0
 10
108.5516725436196
 20
97.65135893930122
 30
0.0
 10
109.2167670974449
 20
97.62512608884794
 30
0.0
 10
109.6499548025169
 20
97.61544337215963
 30
0.0
 10
110.0888285163548
 20
97.6153170066398
 30
0.0
  0
SPLINE
  5
119
330
1F
100
AcDbEntity
  8
0
  6
Continuous
 62
     7
370
    25
100
AcDbSpline
210
0.0
220
0.0
230
1.0
 70
     8
 71
     3
 72
    10
 73
     6
 74
     0
 42
0.000000001
 43
0.00000001
 40
0.0
 40
0.0
 40
0.0
 40
0.0
 40
0.5
 40
0.5
 40
1.0
 40
1.0
 40
1.0
 40
1.0
 10
111.1659181913875
 20
89.91171760859436
 30
0.0
 10
111.1659181913875
 20
89.91171760859436
 30
0.0
 10
111.1409006839534
 20
89.92229853912443
 30
0.0
 10
111.0556838094425
 20
89.95783333018876
 30
0.0
 10
110.9949942229566
 20
89.98291084838247
 30
0.0
 10
110.934697383004
 20
90.00758581598743
 30
0.0
  0
LINE
  5
11A
330
1F
100
AcDbEntity
  8
0
  6
Continuous
 62
     7
370
    25
100
AcDbLine
 10
111.1659181975
 20
89.9117175981
 30
0.0
 11
110.1950451471
 21
87.1971992569
 31
0.0
  0
LWPOLYLINE
  5
11B
330
1F
100
AcDbEntity
  8
0
  6
Continuous
 62
     7
370
    25
100
AcDbPolyline
 90
        9
 70
   128
 43
0.0
 10
109.9596482441
 20
87.2813910505
 10
110.0055717603
 20
87.2649662456
 10
110.049730653
 20
87.2491724117
 10
110.0904275868
 20
87.2346165383
 10
110.1260988713
 20
87.2218585832
 10
110.1553735994
 20
87.2113881892
 10
110.1771265008
 20
87.2036079204
 10
110.1905219462
 20
87.1988169642
 10
110.1950451471
 20
87.1971992569
  0
SPLINE
  5
11C
330
1F
100
AcDbEntity
  8
0
  6
Continuous
 62
     7
370
    25
100
AcDbSpline
210
0.0
220
0.0
230
1.0
 70
     8
 71
     3
 72
    10
 73
     6
 74
     0
 42
0.000000001
 43
0.00000001
 40
0.0
 40
0.0
 40
0.0
 40
0.0
 40
0.5
 40
0.5
 40
1.0
 40
1.0
 40
1.0
 40
1.0
 10
112.0771241126634
 20
89.91171760859447
 30
0.0
 10
112.0771241126634
 20
89.91171760859447
 30
0.0
 10
112.1021416200973
 20
89.92229853912488
 30
0.0
 10
112.1873584946079
 20
89.95783333018913
 30
0.0
 10
112.2480480810946
 20
89.98291084838344
 30
0.0
 10
112.3083449210468
 20
90.00758581598798
 30
0.0
  0
SPLINE
  5
11D
330
1F
100
AcDbEntity
  8
0
  6
Continuous
 62
     7
370
    25
100
AcDbSpline
210
0.0
220
0.0
230
1.0
 70
     8
 71
     3
 72
    14
 73
    10
 74
     0
 42
0.000000001
 43
0.00000001
 40
0.0
 40
0.0
 40
0.0
 40
0.0
 40
0.25
 40
0.25
 40
0.5
 40
0.5
 40
0.75
 40
0.75
 40
1.0
 40
1.0
 40
1.0
 40
1.0
 10
112.0771241126635
 20
89.91171760859449
 30
0.0
 10
112.0356760933616
 20
89.99656005307553
 30
0.0
 10
111.9697500381344
 20
90.0667174423716
 30
0.0
 10
111.8079076986748
 20
90.16360738219429
 30
0.0
 10
111.7153034329588
 20
90.18863678237918
 30
0.0
 10
111.5266572180044
 20
90.1884432855777
 30
0.0
 10
111.4338203599268
 20
90.16287013928344
 30
0.0
 10
111.2742085511398
 20
90.067216315268
 30
0.0
 10
111.2073733909714
 20
89.99657475082662
 30
0.0
 10
111.1659181913875
 20
89.91171760859436
 30
0.0
  0
LWPOLYLINE
  5
11E
330
1F
100
AcDbEntity
  8
0
  6
Continuous
 62
     7
370
    25
100
AcDbPolyline
 90
        9
 70
   128
 43
0.0
 10
113.2836204693
 20
87.2807584496
 10
113.2376969532
 20
87.2643334119
 10
113.1935378276
 20
87.248539578
 10
113.1528408938
 20
87.2339839375
 10
113.1171698422
 20
87.2212257495
 10
113.087895114
 20
87.2107553555
 10
113.0661422126
 20
87.2029753195
 10
113.0527465344
 20
87.1981841305
 10
113.0482235663
 20
87.1965664232
  0
LINE
  5
11F
330
1F
100
AcDbEntity
  8
0
  6
Continuous
 62
     7
370
    25
100
AcDbLine
 10
113.0482235663
 20
87.1965664232
 30
0.0
 11
112.0771242045
 21
89.9117175981
 31
0.0
  0
SPLINE
  5
120
330
1F
100
AcDbEntity
  8
0
  6
Continuous
 62
     7
370
    25
100
AcDbSpline
210
0.0
220
0.0
230
1.0
 70
     8
 71
     3
 72
     8
 73
     4
 74
     0
 42
0.000000001
 43
0.00000001
 40
0.0
 40
0.0
 40
0.0
 40
0.0
 40
1.0
 40
1.0
 40
1.0
 40
1.0
 10
110.0109616605926
 20
97.93854031134467
 30
0.0
 10
110.0069564303356
 20
97.8730876309085
 30
0.0
 10
110.0127787432611
 20
97.80803806590028
 30
0.0
 10
110.0255395526916
 20
97.76175760541794
 30
0.0
  0
SPLINE
  5
121
330
1F
100
AcDbEntity
  8
0
  6
Continuous
 62
     7
370
    25
100
AcDbSpline
210
0.0
220
0.0
230
1.0
 70
     8
 71
     3
 72
    12
 73
     8
 74
     0
 42
0.000000001
 43
0.00000001
 40
0.0
 40
0.0
 40
0.0
 40
0.0
 40
0.25
 40
0.25
 40
0.5
 40
0.5
 40
1.0
 40
1.0
 40
1.0
 40
1.0
 10
107.4564431533578
 20
97.69026006899898
 30
0.0
 10
107.6751322395642
 20
97.70050216744804
 30
0.0
 10
107.8923111445726
 20
97.71518488191144
 30
0.0
 10
108.3236601791531
 20
97.7470072725693
 30
0.0
 10
108.537830308725
 20
97.76414694876377
 30
0.0
 10
109.1758449147248
 20
97.80961501449731
 30
0.0
 10
109.605371538061
 20
97.80278216343318
 30
0.0
 10
110.0255395526916
 20
97.76175760541794
 30
0.0
  0
SPLINE
  5
122
330
1F
100
AcDbEntity
  8
0
  6
Continuous
 62
     7
370
    25
100
AcDbSpline
210
0.0
220
0.0
230
1.0
 70
    24
 71
     3
 72
    10
 73
     6
 74
     0
 42
0.000000001
 43
0.00000001
 40
0.0
 40
0.0
 40
0.0
 40
0.0
 40
0.5
 40
0.5
 40
1.0
 40
1.0
 40
1.0
 40
1.0
 10
107.4564431533578
 20
97.69026006899898
 30
0.0
 10
107.4564431533578
 20
97.73122846279523
 30
0.0
 10
107.4564431533578
 20
97.77468390986716
 30
0.0
 10
107.4564431533578
 20
97.8637697550844
 30
0.0
 10
107.4564431533578
 20
97.89615698369973
 30
0.0
 10
107.4564431533578
 20
97.93854031134467
 30
0.0
  0
SPLINE
  5
123
330
1F
100
AcDbEntity
  8
0
  6
Continuous
 62
     7
370
    25
100
AcDbSpline
210
0.0
220
0.0
230
1.0
 70
     8
 71
     3
 72
    12
 73
     8
 74
     0
 42
0.000000001
 43
0.00000001
 40
0.0
 40
0.0
 40
0.0
 40
0.0
 40
0.25
 40
0.25
 40
0.5
 40
0.5
 40
1.0
 40
1.0
 40
1.0
 40
1.0
 10
107.4564431533578
 20
97.69026006899898
 30
0.0
 10
107.2377540671515
 20
97.70050216744805
 30
0.0
 10
107.020575162143
 20
97.71518488191144
 30
0.0
 10
106.5892261275626
 20
97.7470072725693
 30
0.0
 10
106.3750559979906
 20
97.76414694876377
 30
0.0
 10
105.7370413919908
 20
97.80961501449733
 30
0.0
 10
105.3075147686546
 20
97.80278216343318
 30
0.0
 10
104.887346754024
 20
97.76175760541794
 30
0.0
  0
SPLINE
  5
124
330
1F
100
AcDbEntity
  8
0
  6
Continuous
 62
     7
370
    25
100
AcDbSpline
210
0.0
220
0.0
230
1.0
 70
     8
 71
     3
 72
    10
 73
     6
 74
     0
 42
0.000000001
 43
0.00000001
 40
0.0
 40
0.0
 40
0.0
 40
0.0
 40
0.5
 40
0.5
 40
1.0
 40
1.0
 40
1.0
 40
1.0
 10
104.887346754024
 20
97.76175760541794
 30
0.0
 10
104.8946387344816
 20
97.79031142738152
 30
0.0
 10
104.8985358971064
 20
97.82467145911396
 30
0.0
 10
104.9020721010882
 20
97.88771428364308
 30
0.0
 10
104.901924646123
 20
97.91619319362133
 30
0.0
 10
104.901924646123
 20
97.93854031134467
 30
0.0
  0
SPLINE
  5
125
330
1F
100
AcDbEntity
  8
0
  6
Continuous
 62
     7
370
    25
100
AcDbSpline
210
0.0
220
0.0
230
1.0
 70
     8
 71
     3
 72
    14
 73
    10
 74
     0
 42
0.000000001
 43
0.00000001
 40
0.0
 40
0.0
 40
0.0
 40
0.0
 40
0.25
 40
0.25
 40
0.5
 40
0.5
 40
0.75
 40
0.75
 40
1.0
 40
1.0
 40
1.0
 40
1.0
 10
114.9581629110121
 20
90.18854031134465
 30
0.0
 10
114.9684050094612
 20
90.407229397551
 30
0.0
 10
114.9830877239246
 20
90.6244083025595
 30
0.0
 10
115.0149101145824
 20
91.05575733713991
 30
0.0
 10
115.0320497907769
 20
91.26992746671186
 30
0.0
 10
115.0623618345993
 20
91.6952705373784
 30
0.0
 10
115.0682316327888
 20
91.90898796087909
 30
0.0
 10
115.0621370787085
 20
92.33512904387146
 30
0.0
 10
115.0501727264387
 20
92.54755270336317
 30
0.0
 10
115.0296604474311
 20
92.75763671067848
 30
0.0
  0
SPLINE
  5
126
330
1F
100
AcDbEntity
  8
0
  6
Continuous
 62
     7
370
    25
100
AcDbSpline
210
0.0
220
0.0
230
1.0
 70
     8
 71
     3
 72
     8
 73
     4
 74
     0
 42
0.000000001
 43
0.00000001
 40
0.0
 40
0.0
 40
0.0
 40
0.0
 40
1.0
 40
1.0
 40
1.0
 40
1.0
 10
115.0296604474311
 20
92.75763671067848
 30
0.0
 10
115.0759409079134
 20
92.74487590124794
 30
0.0
 10
115.1409904729217
 20
92.73905358832246
 30
0.0
 10
115.2064431533578
 20
92.74305881857944
 30
0.0
  0
SPLINE
  5
127
330
1F
100
AcDbEntity
  8
0
  6
Continuous
 62
     7
370
    25
100
AcDbSpline
210
0.0
220
0.0
230
1.0
 70
    24
 71
     3
 72
    10
 73
     6
 74
     0
 42
0.000000001
 43
0.00000001
 40
0.0
 40
0.0
 40
0.0
 40
0.0
 40
0.5
 40
0.5
 40
1.0
 40
1.0
 40
1.0
 40
1.0
 10
114.9581629110121
 20
90.18854031134465
 30
0.0
 10
114.9991313048084
 20
90.18854031134465
 30
0.0
 10
115.0425867518803
 20
90.18854031134465
 30
0.0
 10
115.1316725970976
 20
90.18854031134465
 30
0.0
 10
115.1640598257129
 20
90.18854031134465
 30
0.0
 10
115.2064431533578
 20
90.18854031134465
 30
0.0
  0
SPLINE
  5
128
330
1F
100
AcDbEntity
  8
0
  6
Continuous
 62
     7
370
    25
100
AcDbSpline
210
0.0
220
0.0
230
1.0
 70
     8
 71
     3
 72
    10
 73
     6
 74
     0
 42
0.000000001
 43
0.00000001
 40
0.0
 40
0.0
 40
0.0
 40
0.0
 40
0.5
 40
0.5
 40
1.0
 40
1.0
 40
1.0
 40
1.0
 10
115.0296604474311
 20
87.61944391201084
 30
0.0
 10
115.0582142693947
 20
87.62673589246849
 30
0.0
 10
115.0925743011271
 20
87.63063305509328
 30
0.0
 10
115.1556171256562
 20
87.63416925907502
 30
0.0
 10
115.1840960356345
 20
87.63402180410988
 30
0.0
 10
115.2064431533578
 20
87.63402180410988
 30
0.0
  0
SPLINE
  5
129
330
1F
100
AcDbEntity
  8
0
  6
Continuous
 62
     7
370
    25
100
AcDbSpline
210
0.0
220
0.0
230
1.0
 70
     8
 71
     3
 72
    14
 73
    10
 74
     0
 42
0.000000001
 43
0.00000001
 40
0.0
 40
0.0
 40
0.0
 40
0.0
 40
0.25
 40
0.25
 40
0.5
 40
0.5
 40
0.75
 40
0.75
 40
1.0
 40
1.0
 40
1.0
 40
1.0
 10
114.9581629110121
 20
90.18854031134465
 30
0.0
 10
114.9684050094612
 20
89.96985122513831
 30
0.0
 10
114.9830877239246
 20
89.75267232012983
 30
0.0
 10
115.0149101145824
 20
89.3213232855494
 30
0.0
 10
115.0320497907769
 20
89.10715315597746
 30
0.0
 10
115.0623618345993
 20
88.68181008531091
 30
0.0
 10
115.0682316327888
 20
88.46809266181023
 30
0.0
 10
115.0621370787085
 20
88.04195157881784
 30
0.0
 10
115.0501727264387
 20
87.82952791932617
 30
0.0
 10
115.0296604474311
 20
87.61944391201084
 30
0.0
  0
SPLINE
  5
12A
330
1F
100
AcDbEntity
  8
0
  6
Continuous
 62
     7
370
    25
100
AcDbSpline
210
0.0
220
0.0
230
1.0
 70
     8
 71
     3
 72
    12
 73
     8
 74
     0
 42
0.000000001
 43
0.00000001
 40
0.0
 40
0.0
 40
0.0
 40
0.0
 40
0.25
 40
0.25
 40
0.5
 40
0.5
 40
1.0
 40
1.0
 40
1.0
 40
1.0
 10
104.887346754024
 20
97.76175760541794
 30
0.0
 10
104.8837007637952
 20
97.74748069443615
 30
0.0
 10
104.8791442308627
 20
97.73471815818661
 30
0.0
 10
104.8685256168788
 20
97.71357140530775
 30
0.0
 10
104.8624635358273
 20
97.70518718867841
 30
0.0
 10
104.8424922764263
 20
97.68862637345417
 30
0.0
 10
104.8271414834571
 20
97.68854031134467
 30
0.0
 10
104.8106918422932
 20
97.68854031134467
 30
0.0
  0
SPLINE
  5
12B
330
1F
100
AcDbEntity
  8
0
  6
Continuous
 62
     7
370
    25
100
AcDbSpline
210
0.0
220
0.0
230
1.0
 70
     8
 71
     3
 72
    15
 73
    11
 74
     0
 42
0.000000001
 43
0.00000001
 40
0.0
 40
0.0
 40
0.0
 40
0.0
 40
0.0425877399909041
 40
0.1028282325346875
 40
0.1864706729280299
 40
0.2956205441869006
 40
0.4311891005861807
 40
0.5936297641565581
 40
0.7831876993469636
 40
1.0
 40
1.0
 40
1.0
 40
1.0
 10
114.9564431533578
 20
92.83429162240925
 30
0.0
 10
114.95644894646
 20
92.83147229892874
 30
0.0
 10
114.9564629339233
 20
92.8246650334926
 30
0.0
 10
114.9569546347551
 20
92.8161248371517
 30
0.0
 10
114.9585819887137
 20
92.80682715462133
 30
0.0
 10
114.9624071370978
 20
92.79701941899431
 30
0.0
 10
114.9697794471386
 20
92.78669377294521
 30
0.0
 10
114.9823974361154
 20
92.77622706149324
 30
0.0
 10
115.0016416383196
 20
92.76589382625258
 30
0.0
 10
115.0199123846898
 20
92.76050945521084
 30
0.0
 10
115.0296604474311
 20
92.75763671067848
 30
0.0
  0
SPLINE
  5
12C
330
1F
100
AcDbEntity
  8
0
  6
Continuous
 62
     7
370
    25
100
AcDbSpline
210
0.0
220
0.0
230
1.0
 70
     8
 71
     3
 72
    12
 73
     8
 74
     0
 42
0.000000001
 43
0.00000001
 40
0.0
 40
0.0
 40
0.0
 40
0.0
 40
0.25
 40
0.25
 40
0.5
 40
0.5
 40
1.0
 40
1.0
 40
1.0
 40
1.0
 10
115.0296604474311
 20
87.61944391201084
 30
0.0
 10
115.0153835364493
 20
87.61579792178202
 30
0.0
 10
115.0026210001998
 20
87.61124138884958
 30
0.0
 10
114.9814742473209
 20
87.60062277486563
 30
0.0
 10
114.9730900306916
 20
87.5945606938141
 30
0.0
 10
114.9565292154673
 20
87.57458943441314
 30
0.0
 10
114.9564431533578
 20
87.55923864144393
 30
0.0
 10
114.9564431533578
 20
87.54278900028007
 30
0.0
  0
SPLINE
  5
12D
330
1F
100
AcDbEntity
  8
0
  6
Continuous
 62
     7
370
    25
100
AcDbSpline
210
0.0
220
0.0
230
1.0
 70
     8
 71
     3
 72
    14
 73
    10
 74
     0
 42
0.000000001
 43
0.00000001
 40
0.0
 40
0.0
 40
0.0
 40
0.0
 40
0.2455893235675696
 40
0.4556181963142487
 40
0.6303106213393677
 40
0.7701164303669036
 40
0.8759901151610805
 40
0.9502659312389182
 40
1.0
 40
1.0
 40
1.0
 40
1.0
 10
110.0255395526916
 20
97.76175760541794
 30
0.0
 10
110.0288311301649
 20
97.75079256610265
 30
0.0
 10
110.034937676531
 20
97.73045018573049
 30
0.0
 10
110.0468606667902
 20
97.71029817325402
 30
0.0
 10
110.0587897493047
 20
97.69817861378316
 30
0.0
 10
110.0702369566688
 20
97.69197279055076
 30
0.0
 10
110.0811224817156
 20
97.68935309157692
 30
0.0
 10
110.0908097435067
 20
97.6885728972319
 30
0.0
 10
110.0989355971
 20
97.688549639029
 30
0.0
 10
110.1021944644224
 20
97.68854031134467
 30
0.0
  0
ARC
  5
12E
330
1F
100
AcDbEntity
  8
0
  6
Continuous
 62
     7
370
    25
100
AcDbCircle
 10
114.7064431534
 20
84.4385403113
 30
0.0
 40
0.25
100
AcDbArc
 50
270.0
 51
0.0
  0
LINE
  5
12F
330
1F
100
AcDbEntity
  8
0
  6
Continuous
 62
     7
370
    25
100
AcDbLine
 10
114.7064429447
 20
84.4385403002
 30
0.0
 11
114.7064429447
 21
84.1885402592
 31
0.0
  0
ARC
  5
130
330
1F
100
AcDbEntity
  8
0
  6
Continuous
 62
     7
370
    25
100
AcDbCircle
 10
113.2064431534
 20
97.4385403113
 30
0.0
 40
0.25
100
AcDbArc
 50
0.0
 51
90.0
  0
LINE
  5
131
330
1F
100
AcDbEntity
  8
0
  6
Continuous
 62
     7
370
    25
100
AcDbLine
 10
113.2064431645
 20
97.4385401027
 30
0.0
 11
113.4564432055
 21
97.4385401027
 31
0.0
  0
LWPOLYLINE
  5
132
330
1F
100
AcDbEntity
  8
0
  6
Continuous
 62
     7
370
    25
100
AcDbPolyline
 90
        9
 70
   128
 43
0.0
 10
113.6881455519
 20
87.1469239032
 10
113.712344572
 20
87.1045780627
 10
113.7356136665
 20
87.0638594756
 10
113.7570587658
 20
87.0263329966
 10
113.7758551836
 20
86.9934407787
 10
113.7912811451
 20
86.9664468596
 10
113.8027433977
 20
86.9463884996
 10
113.8098023571
 20
86.934036834
 10
113.8121856116
 20
86.9298661387
  0
SPLINE
  5
133
330
1F
100
AcDbEntity
  8
0
  6
Continuous
 62
     7
370
    25
100
AcDbSpline
210
0.0
220
0.0
230
1.0
 70
     8
 71
     3
 72
    10
 73
     6
 74
     0
 42
0.000000001
 43
0.00000001
 40
0.0
 40
0.0
 40
0.0
 40
0.0
 40
0.5
 40
0.5
 40
1.0
 40
1.0
 40
1.0
 40
1.0
 10
113.8121855755628
 20
86.92986605480107
 30
0.0
 10
113.6777510279709
 20
86.85304204374114
 30
0.0
 10
113.5120856608093
 20
86.83879255325569
 30
0.0
 10
113.2233062190993
 20
86.93687860829995
 30
0.0
 10
113.1004234306586
 20
87.05061780261758
 30
0.0
 10
113.048223502245
 20
87.19656650250407
 30
0.0
  0
LWPOLYLINE
  5
134
330
1F
100
AcDbEntity
  8
0
  6
Continuous
 62
     7
370
    25
100
AcDbPolyline
 90
       10
 70
   128
 43
0.0
 10
113.84429482
 20
86.9482152889
 10
113.8536969871
 20
86.9579625109
 10
113.8816175722
 20
86.986908715
 10
113.9272081405
 20
87.0341738014
 10
113.9890833497
 20
87.0983216705
 10
114.0653637909
 20
87.1774037628
 10
114.1537309364
 20
87.2690165674
 10
114.2515002489
 20
87.370376827
 10
114.3557012752
 20
87.4784048906
 10
114.4631670528
 20
87.589817846
  0
LINE
  5
135
330
1F
100
AcDbEntity
  8
0
  6
Continuous
 62
     7
370
    25
100
AcDbLine
 10
113.84429482
 20
86.9482152889
 30
0.0
 11
113.8121856116
 21
86.9298661387
 31
0.0
  0
LINE
  5
136
330
1F
100
AcDbEntity
  8
0
  6
Continuous
 62
     7
370
    25
100
AcDbLine
 10
114.7064429447
 20
84.1885402592
 30
0.0
 11
103.4564429634
 21
84.1885402592
 31
0.0
  0
LINE
  5
137
330
1F
100
AcDbEntity
  8
0
  6
Continuous
 62
     7
370
    25
100
AcDbLine
 10
103.4564429634
 20
84.4385403002
 30
0.0
 11
103.4564429634
 21
84.1885402592
 31
0.0
  0
ARC
  5
138
330
1F
100
AcDbEntity
  8
0
  6
Continuous
 62
     7
370
    25
100
AcDbCircle
 10
114.4564431534
 20
97.1885403113
 30
0.0
 40
1.0
100
AcDbArc
 50
180.0
 51
270.0
  0
LINE
  5
139
330
1F
100
AcDbEntity
  8
0
  6
Continuous
 62
     7
370
    25
100
AcDbLine
 10
114.4564433694
 20
96.1885403635
 30
0.0
 11
114.4564433694
 21
95.9385403225
 31
0.0
  0
LINE
  5
13A
330
1F
100
AcDbEntity
  8
0
  6
Continuous
 62
     7
370
    25
100
AcDbLine
 10
113.4564432055
 20
97.1885405274
 30
0.0
 11
113.2064431645
 21
97.1885405274
 31
0.0
  0
SPLINE
  5
13B
330
1F
100
AcDbEntity
  8
0
  6
Continuous
 62
     7
370
    25
100
AcDbSpline
210
0.0
220
0.0
230
1.0
 70
     8
 71
     3
 72
    20
 73
    16
 74
     0
 42
0.000000001
 43
0.00000001
 40
0.0
 40
0.0
 40
0.0
 40
0.0
 40
0.2500000000000003
 40
0.2500000000000003
 40
0.3750000000000002
 40
0.3750000000000002
 40
0.5000000000000002
 40
0.5000000000000002
 40
0.6250000000000002
 40
0.6250000000000002
 40
0.7500000000000001
 40
0.7500000000000001
 40
0.8750000000000001
 40
0.8750000000000001
 40
1.0
 40
1.0
 40
1.0
 40
1.0
 10
110.115637526624
 20
85.76025110109606
 30
0.0
 10
110.3224927430018
 20
85.94385593814896
 30
0.0
 10
110.5588424696499
 20
86.08429203797351
 30
0.0
 10
110.9457247929096
 20
86.22849662198188
 30
0.0
 10
111.077433581443
 20
86.26438580990192
 30
0.0
 10
111.3461419639677
 20
86.31271570523224
 30
0.0
 10
111.4845236649598
 20
86.32508066181526
 30
0.0
 10
111.7586833126962
 20
86.32507092463062
 30
0.0
 10
111.8944529802119
 20
86.31301199437813
 30
0.0
 10
112.1633873017923
 20
86.26492677097019
 30
0.0
 10
112.2977201048706
 20
86.22831823234975
 30
0.0
 10
112.554009714794
 20
86.13284669024124
 30
0.0
 10
112.676831282347
 20
86.07405911105116
 30
0.0
 10
112.9116125971461
 20
85.93393324812332
 30
0.0
 10
113.0239873467777
 20
85.85204448603089
 30
0.0
 10
113.1274047774268
 20
85.76025110109603
 30
0.0
  0
LWPOLYLINE
  5
13C
330
1F
100
AcDbEntity
  8
0
  6
Continuous
 62
     7
370
    25
100
AcDbPolyline
 90
        9
 70
   128
 43
0.0
 10
113.1274046116
 20
85.7602509463
 10
113.1242157631
 20
85.7566583695
 10
113.1147721522
 20
85.7460189404
 10
113.0994360634
 20
85.7287405783
 10
113.0787974894
 20
85.7054882476
 10
113.053648986
 20
85.6771550866
 10
113.0249572657
 20
85.644830277
 10
112.9938250147
 20
85.6097557375
 10
112.9614485167
 20
85.5732790919
  0
LWPOLYLINE
  5
13D
330
1F
100
AcDbEntity
  8
0
  6
Continuous
 62
     7
370
    25
100
AcDbPolyline
 90
        9
 70
   128
 43
0.0
 10
110.1156375576
 20
85.7602509463
 10
110.1188264061
 20
85.7566583695
 10
110.1282702498
 20
85.7460189404
 10
110.1436061059
 20
85.7287405783
 10
110.1642449126
 20
85.7054882476
 10
110.1893934161
 20
85.6771550866
 10
110.2180851363
 20
85.644830277
 10
110.2492173873
 20
85.6097557375
 10
110.2815938853
 20
85.5732790919
  0
SPLINE
  5
13E
330
1F
100
AcDbEntity
  8
0
  6
Continuous
 62
     7
370
    25
100
AcDbSpline
210
0.0
220
0.0
230
1.0
 70
     8
 71
     3
 72
    23
 73
    19
 74
     0
 42
0.000000001
 43
0.00000001
 40
0.0
 40
0.0
 40
0.0
 40
0.0
 40
0.0000221251499261
 40
0.0000221251499261
 40
0.0000221251499261
 40
0.0000448428854419
 40
0.0000448428854419
 40
0.0000448428854419
 40
0.000067774629955
 40
0.000067774629955
 40
0.000067774629955
 40
0.0000902663208602
 40
0.0000902663208602
 40
0.0000902663208602
 40
0.000111841557339
 40
0.000111841557339
 40
0.000111841557339
 40
0.0001193253350659
 40
0.0001193253350659
 40
0.0001193253350659
 40
0.0001193253350659
 10
113.1274047774268
 20
85.76025110109603
 30
0.0
 10
113.1329204851818
 20
85.75535535497308
 30
0.0
 10
113.1393741194771
 20
85.75136948078203
 30
0.0
 10
113.1462013317354
 20
85.74858011975881
 30
0.0
 10
113.1532107006959
 20
85.74571633585468
 30
0.0
 10
113.1608103328799
 20
85.7440300192251
 30
0.0
 10
113.1683717989754
 20
85.74363411272046
 30
0.0
 10
113.1760032300631
 20
85.74323454295859
 30
0.0
 10
113.1838094332679
 20
85.74413807254147
 30
0.0
 10
113.1911437661364
 20
85.74628422207364
 30
0.0
 10
113.1983376799481
 20
85.74838928262085
 30
0.0
 10
113.2052772048036
 20
85.75175083390347
 30
0.0
 10
113.2113602849614
 20
85.75613031008588
 30
0.0
 10
113.2171973164446
 20
85.76033264503683
 30
0.0
 10
113.2224045930301
 20
85.76559126863907
 30
0.0
 10
113.2265021604128
 20
85.77150231737171
 30
0.0
 10
113.2279419765406
 20
85.77357936028575
 30
0.0
 10
113.2292573394762
 20
85.77574855944908
 30
0.0
 10
113.230431348503
 20
85.77798661229777
 30
0.0
  0
LWPOLYLINE
  5
13F
330
1F
100
AcDbEntity
  8
0
  6
Continuous
 62
     7
370
    25
100
AcDbPolyline
 90
        9
 70
   128
 43
0.0
 10
113.2304312401
 20
85.7779865878
 10
113.2346850559
 20
85.7757551389
 10
113.2472835221
 20
85.7691464739
 10
113.2677418851
 20
85.7584148439
 10
113.2952745743
 20
85.7439718934
 10
113.3288231418
 20
85.726373622
 10
113.3670981713
 20
85.7062957043
 10
113.4086295702
 20
85.684509741
 10
113.4518201203
 20
85.6618534567
  0
ELLIPSE
  5
140
330
1F
100
AcDbEntity
  8
0
  6
Continuous
 62
     7
370
    25
100
AcDbEllipse
 10
111.6215211536
 20
87.884593547
 30
0.0
 11
0.06537569707428759
 21
0.0
 31
0.0
210
0.0
220
0.0
230
1.0
 40
0.9531667975
 41
0.3430239404204254
 42
2.798568713169441
  0
LINE
  5
141
330
1F
100
AcDbEntity
  8
0
  6
Continuous
 62
     7
370
    25
100
AcDbLine
 10
111.6830881425
 20
87.9055520313
 30
0.0
 11
111.9171984233
 21
87.2807433156
 31
0.0
  0
ELLIPSE
  5
142
330
1F
100
AcDbEntity
  8
0
  6
Continuous
 62
     7
370
    25
100
AcDbEllipse
 10
111.8556312024
 20
87.2597849519
 30
0.0
 11
0.06537569707428759
 21
0.0
 31
0.0
210
0.0
220
0.0
230
1.0
 40
0.9531667975
 41
4.712388980384703
 42
6.626209245739475
  0
ELLIPSE
  5
143
330
1F
100
AcDbEntity
  8
0
  6
Continuous
 62
     7
370
    25
100
AcDbEllipse
 10
111.387411102
 20
87.2597849519
 30
0.0
 11
-0.0653756970743018
 21
0.0
 31
0.0
210
0.0
220
0.0
230
1.0
 40
0.9531667975
 41
5.940161364895899
 42
7.853981633974265
  0
LINE
  5
144
330
1F
100
AcDbEntity
  8
0
  6
Continuous
 62
     7
370
    25
100
AcDbLine
 10
111.3258439787
 20
87.2807433156
 30
0.0
 11
111.5599542596
 21
87.9055520313
 31
0.0
  0
LINE
  5
145
330
1F
100
AcDbEntity
  8
0
  6
Continuous
 62
     7
370
    25
100
AcDbLine
 10
111.8556310162
 20
87.1974709703
 30
0.0
 11
111.3874109201
 21
87.1974709703
 31
0.0
  0
LINE
  5
146
330
1F
100
AcDbEntity
  8
0
  6
Continuous
 62
     7
370
    25
100
AcDbLine
 10
113.2304312401
 20
85.7779865878
 30
0.0
 11
113.84429482
 21
86.9482152889
 31
0.0
  0
LINE
  5
147
330
1F
100
AcDbEntity
  8
0
  6
Continuous
 62
     7
370
    25
100
AcDbLine
 10
101.7064431422
 20
86.1885401214
 30
0.0
 11
101.4564431012
 21
86.1885401214
 31
0.0
  0
LINE
  5
148
330
1F
100
AcDbEntity
  8
0
  6
Continuous
 62
     7
370
    25
100
AcDbLine
 10
101.4564431012
 20
86.1885401214
 30
0.0
 11
101.4564431012
 21
97.4385401027
 31
0.0
  0
LINE
  5
149
330
1F
100
AcDbEntity
  8
0
  6
Continuous
 62
     7
370
    25
100
AcDbLine
 10
101.4564431012
 20
97.4385401027
 30
0.0
 11
101.7064431422
 21
97.4385401027
 31
0.0
  0
SPLINE
  5
14A
330
1F
100
AcDbEntity
  8
0
  6
Continuous
 62
     7
370
    25
100
AcDbSpline
210
0.0
220
0.0
230
1.0
 70
     8
 71
     3
 72
    23
 73
    19
 74
     0
 42
0.000000001
 43
0.00000001
 40
0.0
 40
0.0
 40
0.0
 40
0.0
 40
0.0000210594021204
 40
0.0000210594021204
 40
0.0000210594021204
 40
0.0000429122282046
 40
0.0000429122282046
 40
0.0000429122282046
 40
0.0000655452306719
 40
0.0000655452306719
 40
0.0000655452306719
 40
0.000088492665435
 40
0.000088492665435
 40
0.000088492665435
 40
0.0001110534468608
 40
0.0001110534468608
 40
0.0001110534468608
 40
0.000119364715226
 40
0.000119364715226
 40
0.000119364715226
 40
0.000119364715226
 10
110.0126109555478
 20
85.77798661229777
 30
0.0
 10
110.0158718873604
 20
85.77177018843216
 30
0.0
 10
110.0202758186501
 20
85.76604868449736
 30
0.0
 10
110.0254147339242
 20
85.76126651430287
 30
0.0
 10
110.0307464668151
 20
85.75630491194988
 30
0.0
 10
110.037015725519
 20
85.75221209591527
 30
0.0
 10
110.043682016663
 20
85.74927859358635
 30
0.0
 10
110.0505841645649
 20
85.74624130245884
 30
0.0
 10
110.0581038974554
 20
85.74435925889532
 30
0.0
 10
110.0656207898185
 20
85.74375833273065
 30
0.0
 10
110.0732402907103
 20
85.74314920368816
 30
0.0
 10
110.081069997114
 20
85.74383916442686
 30
0.0
 10
110.0884627390909
 20
85.74578215132672
 30
0.0
 10
110.0957310735831
 20
85.74769244100628
 30
0.0
 10
110.1027789116433
 20
85.75086939438614
 30
0.0
 10
110.1089977075903
 20
85.75508892871109
 30
0.0
 10
110.1113175776778
 20
85.75666299088435
 30
0.0
 10
110.1135408431068
 20
85.75839008331624
 30
0.0
 10
110.115637526624
 20
85.76025110109605
 30
0.0
  0
LWPOLYLINE
  5
14B
330
1F
100
AcDbEntity
  8
0
  6
Continuous
 62
     7
370
    25
100
AcDbPolyline
 90
        9
 70
   128
 43
0.0
 10
110.0126109291
 20
85.7779865878
 10
110.0083571133
 20
85.7757551389
 10
109.9957586471
 20
85.7691464739
 10
109.9753002841
 20
85.7584148439
 10
109.9477675949
 20
85.7439718934
 10
109.9142190274
 20
85.726373622
 10
109.8759439979
 20
85.7062957043
 10
109.8344128318
 20
85.684509741
 10
109.791222049
 20
85.6618534567
  0
SPLINE
  5
14C
330
1F
100
AcDbEntity
  8
0
  6
Continuous
 62
     7
370
    25
100
AcDbSpline
210
0.0
220
0.0
230
1.0
 70
     8
 71
     3
 72
    10
 73
     6
 74
     0
 42
0.000000001
 43
0.00000001
 40
0.0
 40
0.0
 40
0.0
 40
0.0
 40
0.5
 40
0.5
 40
1.0
 40
1.0
 40
1.0
 40
1.0
 10
110.1950451035386
 20
87.19719923217981
 30
0.0
 10
110.1434281855382
 20
87.05288060372034
 30
0.0
 10
110.0228479614682
 20
86.9397613420486
 30
0.0
 10
109.7362803379931
 20
86.83992159183069
 30
0.0
 10
109.572672713199
 20
86.85250222953034
 30
0.0
 10
109.4385122085215
 20
86.92633224539432
 30
0.0
  0
LWPOLYLINE
  5
14D
330
1F
100
AcDbEntity
  8
0
  6
Continuous
 62
     7
370
    25
100
AcDbPolyline
 90
        9
 70
   128
 43
0.0
 10
109.5590442624
 20
87.1453574186
 10
109.5355295316
 20
87.1026276404
 10
109.5129186493
 20
87.0615400167
 10
109.4920803067
 20
87.023673605
 10
109.4738152083
 20
86.9904831311
 10
109.4588255715
 20
86.9632447397
 10
109.4476871863
 20
86.9430045391
 10
109.4408282284
 20
86.930540649
 10
109.438512262
 20
86.9263322352
  0
LINE
  5
14E
330
1F
100
AcDbEntity
  8
0
  6
Continuous
 62
     7
370
    25
100
AcDbLine
 10
113.4564432055
 20
97.4385401027
 30
0.0
 11
113.4564432055
 21
97.1885405274
 31
0.0
  0
ARC
  5
14F
330
1F
100
AcDbEntity
  8
0
  6
Continuous
 62
     7
370
    25
100
AcDbCircle
 10
103.4564431534
 20
86.1885403113
 30
0.0
 40
2.0
100
AcDbArc
 50
180.0
 51
270.0
  0
ARC
  5
150
330
1F
100
AcDbEntity
  8
0
  6
Continuous
 62
     7
370
    25
100
AcDbCircle
 10
101.7064431534
 20
97.4385403113
 30
0.0
 40
0.25
100
AcDbArc
 50
90.0
 51
180.0
  0
LINE
  5
151
330
1F
100
AcDbEntity
  8
0
  6
Continuous
 62
     7
370
    25
100
AcDbLine
 10
109.3987474656
 20
86.9482152889
 30
0.0
 11
110.0126109291
 21
85.7779865878
 31
0.0
  0
LWPOLYLINE
  5
152
330
1F
100
AcDbEntity
  8
0
  6
Continuous
 62
     7
370
    25
100
AcDbPolyline
 90
       10
 70
   128
 43
0.0
 10
109.3987474656
 20
86.9482152889
 10
109.3895209693
 20
86.9576279333
 10
109.3621220412
 20
86.9855797177
 10
109.3173829345
 20
87.031221276
 10
109.2566632638
 20
87.0931661015
 10
109.1818078626
 20
87.1695319915
 10
109.0950910207
 20
87.2579983229
 10
108.9991479153
 20
87.3558772987
 10
108.8968934697
 20
87.4601949731
 10
108.7914346923
 20
87.5677815897
  0
LINE
  5
153
330
1F
100
AcDbEntity
  8
0
  6
Continuous
 62
     7
370
    25
100
AcDbLine
 10
114.4564433694
 20
96.1885403635
 30
0.0
 11
114.7064429447
 21
96.1885403635
 31
0.0
  0
LINE
  5
154
330
1F
100
AcDbEntity
  8
0
  6
Continuous
 62
     7
370
    25
100
AcDbLine
 10
114.7064429447
 20
96.1885403635
 30
0.0
 11
114.7064429447
 21
95.9385403225
 31
0.0
  0
ARC
  5
155
330
1F
100
AcDbEntity
  8
0
  6
Continuous
 62
     7
370
    25
100
AcDbCircle
 10
114.7064431534
 20
95.9385403113
 30
0.0
 40
0.25
100
AcDbArc
 50
0.0
 51
90.0
  0
LINE
  5
156
330
1F
100
AcDbEntity
  8
0
  6
Continuous
 62
     7
370
    25
100
AcDbLine
 10
109.438512262
 20
86.9263322352
 30
0.0
 11
109.3987474656
 21
86.9482152889
 31
0.0
  0
ARC
  5
157
330
1F
100
AcDbEntity
  8
0
  6
Continuous
 62
     7
370
    25
100
AcDbCircle
 10
113.2356785054
 20
97.9153533594
 30
0.0
 40
0.2286896149092809
100
AcDbArc
 50
174.1807852453
 51
262.6552938174
  0
ARC
  5
158
330
1F
100
AcDbEntity
  8
0
  6
Continuous
 62
     7
370
    25
100
AcDbCircle
 10
115.1832562014
 20
84.4093049593
 30
0.0
 40
0.2286896149092791
100
AcDbArc
 50
84.1807852453
 51
172.6552938174
  0
ARC
  5
159
330
1F
100
AcDbEntity
  8
0
  6
Continuous
 62
     7
370
    25
100
AcDbCircle
 10
101.6772078013
 20
97.9153533594
 30
0.0
 40
0.2286896149092809
100
AcDbArc
 50
277.3447061826
 51
5.8192147547
  0
ARC
  5
15A
330
1F
100
AcDbEntity
  8
0
  6
Continuous
 62
     7
370
    25
100
AcDbCircle
 10
115.1832562014
 20
95.9677756634
 30
0.0
 40
0.2286896149092809
100
AcDbArc
 50
187.3447061826
 51
275.8192147547
  0
LINE
  5
15B
330
1F
100
AcDbEntity
  8
0
  6
Continuous
 62
     7
370
    25
100
AcDbLine
 10
113.4909258895
 20
97.4385401027
 30
0.0
 11
113.4564432055
 21
97.4385401027
 31
0.0
  0
LINE
  5
15C
330
1F
100
AcDbEntity
  8
0
  6
Continuous
 62
     7
370
    25
100
AcDbLine
 10
114.7064429447
 20
84.1885402592
 30
0.0
 11
114.7064429447
 21
84.1540575752
 31
0.0
  0
LINE
  5
15D
330
1F
100
AcDbEntity
  8
0
  6
Continuous
 62
     7
370
    25
100
AcDbLine
 10
101.4219604172
 20
97.4385401027
 30
0.0
 11
101.4564431012
 21
97.4385401027
 31
0.0
  0
LINE
  5
15E
330
1F
100
AcDbEntity
  8
0
  6
Continuous
 62
     7
370
    25
100
AcDbLine
 10
114.7064429447
 20
96.1885403635
 30
0.0
 11
114.7064429447
 21
96.2230230475
 31
0.0
  0
LWPOLYLINE
  5
15F
330
1F
100
AcDbEntity
  8
0
  6
Continuous
 62
     7
370
    25
100
AcDbPolyline
 90
        9
 70
   128
 43
0.0
 10
103.1926328056
 20
84.206015596
 10
103.1888618805
 20
84.2059187384
 10
103.1849521883
 20
84.2046460861
 10
103.1809223555
 20
84.2022036927
 10
103.1767919399
 20
84.1986027339
 10
103.1725795679
 20
84.1938609051
 10
103.1683061943
 20
84.1880000921
 10
103.1639918425
 20
84.1810487004
 10
103.1596565359
 20
84.1730393263
  0
SPLINE
  5
160
330
1F
100
AcDbEntity
  8
0
  6
Continuous
 62
     7
370
    25
100
AcDbSpline
210
0.0
220
0.0
230
1.0
 70
     8
 71
     3
 72
    14
 73
    10
 74
     0
 42
0.000000001
 43
0.00000001
 40
0.0
 40
0.0
 40
0.0
 40
0.0
 40
0.25
 40
0.25
 40
0.5
 40
0.5
 40
0.75
 40
0.75
 40
1.0
 40
1.0
 40
1.0
 40
1.0
 10
103.1596567437021
 20
84.17303933782664
 30
0.0
 10
102.9437974716043
 20
84.19949027474303
 30
0.0
 10
102.7359659772122
 20
84.25987612059839
 30
0.0
 10
102.3385625863015
 20
84.45215668587899
 30
0.0
 10
102.1600797784211
 20
84.57872447778946
 30
0.0
 10
101.8462639655859
 20
84.89263292226107
 30
0.0
 10
101.7193325414943
 20
85.07191523302603
 30
0.0
 10
101.5276656789835
 20
85.46854539230756
 30
0.0
 10
101.4673919290779
 20
85.67590432192748
 30
0.0
 10
101.4409421798398
 20
85.89175390168892
 30
0.0
  0
LWPOLYLINE
  5
161
330
1F
100
AcDbEntity
  8
0
  6
Continuous
 62
     7
370
    25
100
AcDbPolyline
 90
        9
 70
   128
 43
0.0
 10
101.473918438
 20
85.9247299636
 10
101.4738215804
 20
85.9209590385
 10
101.4725489281
 20
85.9170493463
 10
101.4701065347
 20
85.9130195135
 10
101.466505576
 20
85.9088890979
 10
101.4617637471
 20
85.9046767259
 10
101.4559029341
 20
85.9004033523
 10
101.4489515424
 20
85.8960890004
 10
101.4409421683
 20
85.8917536939
  0
LINE
  5
162
330
1F
100
AcDbEntity
  8
0
  6
Continuous
 62
     7
370
    25
100
AcDbLine
 10
103.4564429634
 20
84.1885402592
 30
0.0
 11
103.4564429634
 21
84.1540575752
 31
0.0
  0
LINE
  5
163
330
1F
100
AcDbEntity
  8
0
  6
Continuous
 62
     7
370
    25
100
AcDbLine
 10
101.4219604172
 20
86.1885401214
 30
0.0
 11
101.4564431012
 21
86.1885401214
 31
0.0
  0
SPLINE
  5
164
330
1F
100
AcDbEntity
  8
0
  6
Continuous
 62
     7
370
    25
100
AcDbSpline
210
0.0
220
0.0
230
1.0
 70
    24
 71
     3
 72
    10
 73
     6
 74
     0
 42
0.000000001
 43
0.00000001
 40
0.0
 40
0.0
 40
0.0
 40
0.0
 40
0.5
 40
0.5
 40
1.0
 40
1.0
 40
1.0
 40
1.0
 10
113.8247296420551
 20
96.55682680004195
 30
0.0
 10
113.7998382715433
 20
96.53193542953014
 30
0.0
 10
113.7818915743724
 20
96.51398873235924
 30
0.0
 10
113.7563746363059
 20
96.48847179429275
 30
0.0
 10
113.7493363721716
 20
96.4814335301588
 30
0.0
 10
113.7493363721709
 20
96.48143353015776
 30
0.0
  0
LINE
  5
165
330
1F
100
AcDbEntity
  8
0
  6
Continuous
 62
     7
370
    25
100
AcDbLine
 10
113.4909258895
 20
97.1885405274
 30
0.0
 11
113.4564432055
 21
97.1885405274
 31
0.0
  0
LINE
  5
166
330
1F
100
AcDbEntity
  8
0
  6
Continuous
 62
     7
370
    25
100
AcDbLine
 10
114.4564433694
 20
96.1885403635
 30
0.0
 11
114.4564433694
 21
96.2230230475
 31
0.0
  0
LINE
  5
167
330
1F
100
AcDbEntity
  8
0
  6
Continuous
 62
     8
370
    25
100
AcDbLine
 10
132.9325337634
 20
90.1885403113
 30
0.0
 11
132.9325337634
 21
99.5385402607
 31
0.0
  0
LINE
  5
168
330
1F
100
AcDbEntity
  8
0
  6
Continuous
 62
     8
370
    25
100
AcDbLine
 10
132.9325337634
 20
80.838540362
 30
0.0
 11
132.9325337634
 21
90.1885403113
 31
0.0
  0
LINE
  5
169
330
1F
100
AcDbEntity
  8
0
  6
Continuous
 62
     8
370
    25
100
AcDbLine
 10
119.5325341747
 20
99.5385402607
 30
0.0
 11
119.5325341747
 21
80.838540362
 31
0.0
  0
LINE
  5
16A
330
1F
100
AcDbEntity
  8
0
  6
Continuous
 62
     8
370
    25
100
AcDbLine
 10
114.4564433694
 20
101.1885402517
 30
0.0
 11
100.4564429373
 21
101.1885402517
 31
0.0
  0
LINE
  5
16B
330
1F
100
AcDbEntity
  8
0
  6
Continuous
 62
     8
370
    25
100
AcDbLine
 10
118.4564430938
 20
83.1885400953
 30
0.0
 11
118.4564430938
 21
97.1885405274
 31
0.0
  0
LWPOLYLINE
  5
16C
330
1F
100
AcDbEntity
  8
0
  6
Continuous
 62
     8
370
    25
100
AcDbPolyline
 90
        8
 70
   128
 43
0.0
 10
100.4564429373
 20
85.1885404231
 10
100.477014456
 20
85.2032338994
 10
100.5386070088
 20
85.2472286465
 10
100.6408592426
 20
85.3202662224
 10
100.7831699886
 20
85.4219163561
 10
100.9647024535
 20
85.5515830012
 10
101.184390273
 20
85.7085024731
 10
101.4409421683
 20
85.8917536939
  0
LWPOLYLINE
  5
16D
330
1F
100
AcDbEntity
  8
0
  6
Continuous
 62
     8
370
    25
100
AcDbPolyline
 90
        8
 70
   128
 43
0.0
 10
103.1596565359
 20
84.1730393263
 10
102.9764053151
 20
83.916487431
 10
102.8194858432
 20
83.6967996115
 10
102.6898191981
 20
83.5152671466
 10
102.5881690644
 20
83.3729564006
 10
102.5151314885
 20
83.2707041668
 10
102.4711367414
 20
83.209111614
 10
102.4564432651
 20
83.1885400953
  0
LINE
  5
16E
330
1F
100
AcDbEntity
  8
0
  6
Continuous
 62
     7
370
     0
100
AcDbLine
 10
114.958624517
 20
114.3187366749
 30
0.0
 11
115.3326931534
 21
102.3485403113
 31
0.0
  0
LINE
  5
16F
330
1F
100
AcDbEntity
  8
0
  6
Continuous
 62
     7
370
     0
100
AcDbLine
 10
99.9542617897
 20
114.3187366749
 30
0.0
 11
99.5801931534
 21
102.3485403113
 31
0.0
  0
LINE
  5
170
330
1F
100
AcDbEntity
  8
0
  6
Continuous
 62
     7
370
     0
100
AcDbLine
 10
98.9226306534
 20
102.3485403113
 30
0.0
 11
115.9902556534
 21
102.3485403113
 31
0.0
  0
LINE
  5
171
330
1F
100
AcDbEntity
  8
0
  6
CENTERX2
 62
     7
370
    18
100
AcDbLine
 10
161.6325339171
 20
90.1885403113
 30
0.0
 11
96.8267605366
 21
90.1885403113
 31
0.0
  0
LINE
  5
172
330
1F
100
AcDbEntity
  8
0
  6
CENTERX2
 62
     7
370
    18
100
AcDbLine
 10
107.4564431534
 20
113.1146308777
 30
0.0
 11
107.4564431534
 21
80.1537400356
 31
0.0
  0
LINE
  5
173
330
1F
100
AcDbEntity
  8
0
  6
CENTERX2
 62
     7
370
    18
100
AcDbLine
 10
107.4564431534
 20
113.1146308777
 30
0.0
 11
107.4564431534
 21
117.1885403113
 31
0.0
  0
ARC
  5
174
330
1F
100
AcDbEntity
  8
0
  6
Continuous
 62
     7
370
    25
100
AcDbCircle
 10
186.5722777296
 20
103.1885403113
 30
0.0
 40
1.0
100
AcDbArc
 50
237.7249513291
 51
270.0
  0
ARC
  5
175
330
1F
100
AcDbEntity
  8
0
  6
Continuous
 62
     7
370
    25
100
AcDbCircle
 10
202.5722777296
 20
103.1885403113
 30
0.0
 40
1.0
100
AcDbArc
 50
270.0
 51
302.2750486709
  0
LINE
  5
176
330
1F
100
AcDbEntity
  8
0
  6
Continuous
 62
     7
370
    25
100
AcDbLine
 10
203.1062621523
 20
102.3430458995
 30
0.0
 11
202.7696495775
 21
113.1146305965
 31
0.0
  0
LINE
  5
177
330
1F
100
AcDbEntity
  8
0
  6
Continuous
 62
     7
370
    25
100
AcDbLine
 10
186.3749058817
 20
113.1146305965
 30
0.0
 11
186.0382933069
 21
102.3430458995
 31
0.0
  0
LINE
  5
178
330
1F
100
AcDbEntity
  8
0
  6
Continuous
 62
     7
370
    25
100
AcDbLine
 10
202.7696495775
 20
113.1146305965
 30
0.0
 11
201.5722779457
 21
115.1885406839
 31
0.0
  0
LINE
  5
179
330
1F
100
AcDbEntity
  8
0
  6
Continuous
 62
     7
370
    25
100
AcDbLine
 10
187.5722775135
 20
115.1885406839
 30
0.0
 11
186.3749058817
 21
113.1146305965
 31
0.0
  0
ARC
  5
17A
330
1F
100
AcDbEntity
  8
0
  6
Continuous
 62
     7
370
    25
100
AcDbCircle
 10
186.5722777296
 20
101.1885403113
 30
0.0
 40
1.0
100
AcDbArc
 50
0.0
 51
90.0
  0
ARC
  5
17B
330
1F
100
AcDbEntity
  8
0
  6
Continuous
 62
     7
370
    25
100
AcDbCircle
 10
202.5722777296
 20
101.1885403113
 30
0.0
 40
1.0
100
AcDbArc
 50
90.0
 51
180.0
  0
LINE
  5
17C
330
1F
100
AcDbEntity
  8
0
  6
Continuous
 62
     7
370
    25
100
AcDbLine
 10
201.5722779457
 20
97.9385401847
 30
0.0
 11
201.5722779457
 21
101.1885402517
 31
0.0
  0
LINE
  5
17D
330
1F
100
AcDbEntity
  8
0
  6
Continuous
 62
     7
370
    25
100
AcDbLine
 10
187.5722775135
 20
101.1885402517
 30
0.0
 11
187.5722775135
 21
97.9385401847
 31
0.0
  0
SPLINE
  5
17E
330
1F
100
AcDbEntity
  8
0
  6
Continuous
 62
     7
370
    25
100
AcDbSpline
210
0.0
220
0.0
230
1.0
 70
     8
 71
     3
 72
    16
 73
    12
 74
     0
 42
0.000000001
 43
0.00000001
 40
0.0
 40
0.0
 40
0.0
 40
0.0
 40
0.7221229069155195
 40
0.9390266461983071
 40
0.9870920850039897
 40
0.9916400445717392
 40
0.9930292243381138
 40
0.9935063600177917
 40
0.994757573876845
 40
0.9994756227886644
 40
1.0
 40
1.0
 40
1.0
 40
1.0
 10
187.5745843995583
 20
97.81330710072139
 30
0.0
 10
187.5743552781234
 20
97.80652927673516
 30
0.0
 10
187.5740573355841
 20
97.79771560074545
 30
0.0
 10
187.5738841128689
 20
97.78930068572608
 30
0.0
 10
187.5738145379843
 20
97.78643571670791
 30
0.0
 10
187.5738117015962
 20
97.78609948438267
 30
0.0
 10
187.5738085461585
 20
97.78598936984083
 30
0.0
 10
187.5738099551854
 20
97.78602711245807
 30
0.0
 10
187.5738096313809
 20
97.78606991745356
 30
0.0
 10
187.5738142402233
 20
97.78622650338309
 30
0.0
 10
187.5738125065552
 20
97.78617237785565
 30
0.0
 10
187.5738123331439
 20
97.78616696391323
 30
0.0
  0
CIRCLE
  5
17F
330
1F
100
AcDbEntity
  8
0
  6
Continuous
 62
     7
370
    25
100
AcDbCircle
 10
194.5722777296
 20
90.1885403113
 30
0.0
 40
4.55714285714285
  0
CIRCLE
  5
180
330
1F
100
AcDbEntity
  8
0
  6
Continuous
 62
     7
370
    25
100
AcDbCircle
 10
194.5722777296
 20
90.1885403113
 30
0.0
 40
4.099999999999994
  0
CIRCLE
  5
181
330
1F
100
AcDbEntity
  8
0
  6
Continuous
 62
     7
370
    25
100
AcDbCircle
 10
194.5722777296
 20
90.1885403113
 30
0.0
 40
3.599999999999994
  0
CIRCLE
  5
182
330
1F
100
AcDbEntity
  8
0
  6
Continuous
 62
     7
370
    25
100
AcDbCircle
 10
194.5722777296
 20
90.1885403113
 30
0.0
 40
3.5
  0
CIRCLE
  5
183
330
1F
100
AcDbEntity
  8
0
  6
Continuous
 62
     7
370
    25
100
AcDbCircle
 10
194.5722777296
 20
90.1885403113
 30
0.0
 40
5.25
  0
CIRCLE
  5
184
330
1F
100
AcDbEntity
  8
0
  6
Continuous
 62
     7
370
    25
100
AcDbCircle
 10
194.5722777296
 20
90.1885403113
 30
0.0
 40
9.050000000000011
  0
CIRCLE
  5
185
330
1F
100
AcDbEntity
  8
0
  6
Continuous
 62
     7
370
    25
100
AcDbCircle
 10
194.5722777296
 20
90.1885403113
 30
0.0
 40
5.599999999999994
  0
CIRCLE
  5
186
330
1F
100
AcDbEntity
  8
0
  6
Continuous
 62
     7
370
    25
100
AcDbCircle
 10
194.5722777296
 20
90.1885403113
 30
0.0
 40
9.349999999999994
  0
CIRCLE
  5
187
330
1F
100
AcDbEntity
  8
0
  6
Continuous
 62
     7
370
    25
100
AcDbCircle
 10
194.5722777296
 20
90.1885403113
 30
0.0
 40
5.5
  0
SPLINE
  5
188
330
1F
100
AcDbEntity
  8
0
  6
Continuous
 62
     7
370
    25
100
AcDbSpline
210
0.0
220
0.0
230
1.0
 70
     8
 71
     3
 72
    15
 73
    11
 74
     0
 42
0.000000001
 43
0.00000001
 40
0.0
 40
0.0
 40
0.0
 40
0.0
 40
0.1323057019456991
 40
0.264573971161557
 40
0.399801211910765
 40
0.5350039810752786
 40
0.6501944293983927
 40
0.7654027730894075
 40
0.8826900743328739
 40
1.0
 40
1.0
 40
1.0
 40
1.0
 10
204.072277424134
 20
84.70371298287132
 30
0.0
 10
203.6618383642968
 20
84.46674563175436
 30
0.0
 10
202.841076368525
 20
83.99287797375742
 30
0.0
 10
201.5771742062086
 20
83.26316454475445
 30
0.0
 10
200.2894484350024
 20
82.51969470355631
 30
0.0
 10
199.0483703027302
 20
81.80315900597961
 30
0.0
 10
197.874345444005
 20
81.12533412857107
 30
0.0
 10
196.7663570095162
 20
80.48563814560539
 30
0.0
 10
195.6633792294543
 20
79.84883227741413
 30
0.0
 10
194.9360016121851
 20
79.42888136201283
 30
0.0
 10
194.5722777296078
 20
79.218885654398
 30
0.0
  0
SPLINE
  5
189
330
1F
100
AcDbEntity
  8
0
  6
Continuous
 62
     7
370
    25
100
AcDbSpline
210
0.0
220
0.0
230
1.0
 70
     8
 71
     3
 72
    15
 73
    11
 74
     0
 42
0.000000001
 43
0.00000001
 40
0.0
 40
0.0
 40
0.0
 40
0.0
 40
0.1323056877110737
 40
0.2645739479885554
 40
0.3998012094750219
 40
0.5350039966972207
 40
0.6501944060393672
 40
0.7654027883544242
 40
0.8826900601954766
 40
0.9999999999999999
 40
0.9999999999999999
 40
0.9999999999999999
 40
0.9999999999999999
 10
194.5722777296078
 20
79.218885654398
 30
0.0
 10
194.1618385123836
 20
79.45585262354297
 30
0.0
 10
193.3410761854647
 20
79.92971952718266
 30
0.0
 10
192.0771741615461
 20
80.65943317301229
 30
0.0
 10
190.7894485744792
 20
81.40290356452942
 30
0.0
 10
189.548370379491
 20
82.11943915663225
 30
0.0
 10
188.3743451521307
 20
82.79726350932262
 30
0.0
 10
187.2663572177688
 20
83.4369601833148
 30
0.0
 10
186.1633788499861
 20
84.07376514515623
 30
0.0
 10
185.4360017343292
 20
84.49371684435062
 30
0.0
 10
185.0722780350816
 20
84.70371298287132
 30
0.0
  0
SPLINE
  5
18A
330
1F
100
AcDbEntity
  8
0
  6
Continuous
 62
     7
370
    25
100
AcDbSpline
210
0.0
220
0.0
230
1.0
 70
    24
 71
     3
 72
    16
 73
    12
 74
     0
 42
0.000000001
 43
0.00000001
 40
0.0
 40
0.0
 40
0.0
 40
0.0
 40
0.0929885394318734
 40
0.1859684549096651
 40
0.2798026913280258
 40
0.373627101459906
 40
0.4988494890998807
 40
0.6240716473127095
 40
0.7526321536928279
 40
0.8812279839704913
 40
0.9999999999999999
 40
0.9999999999999999
 40
0.9999999999999999
 40
0.9999999999999999
 10
185.0722780350816
 20
84.70371298287132
 30
0.0
 10
185.0722780350816
 20
85.0363596996244
 30
0.0
 10
185.0722780350816
 20
85.7016222827695
 30
0.0
 10
185.0722780350816
 20
86.71603513629752
 30
0.0
 10
185.0722780350816
 20
87.74291443489584
 30
0.0
 10
185.0722780350816
 20
88.89727007345945
 30
0.0
 10
185.0722780350816
 20
90.17551438814208
 30
0.0
 10
185.0722780350816
 20
91.58288348318644
 30
0.0
 10
185.0722780350816
 20
92.99231358774277
 30
0.0
 10
185.0722780350816
 20
94.36241607304592
 30
0.0
 10
185.0722780350816
 20
95.24810839732835
 30
0.0
 10
185.0722780350816
 20
95.67336763981798
 30
0.0
  0
SPLINE
  5
18B
330
1F
100
AcDbEntity
  8
0
  6
Continuous
 62
     7
370
    25
100
AcDbSpline
210
0.0
220
0.0
230
1.0
 70
     8
 71
     3
 72
    15
 73
    11
 74
     0
 42
0.000000001
 43
0.00000001
 40
0.0
 40
0.0
 40
0.0
 40
0.0
 40
0.132305701945699
 40
0.2645739711615568
 40
0.3998012119107648
 40
0.5350039810752782
 40
0.6501944293983923
 40
0.7654027730894072
 40
0.8826900743328735
 40
1.0
 40
1.0
 40
1.0
 40
1.0
 10
185.0722780350816
 20
95.67336763981798
 30
0.0
 10
185.4827170949188
 20
95.91033499093496
 30
0.0
 10
186.3034790906906
 20
96.38420264893189
 30
0.0
 10
187.5673812530071
 20
97.11391607793487
 30
0.0
 10
188.8551070242132
 20
97.857385919133
 30
0.0
 10
190.0961851564854
 20
98.57392161670973
 30
0.0
 10
191.2702100152106
 20
99.25174649411825
 30
0.0
 10
192.3781984496994
 20
99.89144247708393
 30
0.0
 10
193.4811762297613
 20
100.5282483452752
 30
0.0
 10
194.2085538470305
 20
100.9481992606765
 30
0.0
 10
194.5722777296078
 20
101.1581949682913
 30
0.0
  0
SPLINE
  5
18C
330
1F
100
AcDbEntity
  8
0
  6
Continuous
 62
     7
370
    25
100
AcDbSpline
210
0.0
220
0.0
230
1.0
 70
     8
 71
     3
 72
    15
 73
    11
 74
     0
 42
0.000000001
 43
0.00000001
 40
0.0
 40
0.0
 40
0.0
 40
0.0
 40
0.1323056877110733
 40
0.264573947988555
 40
0.3998012094750216
 40
0.5350039966972203
 40
0.6501944060393671
 40
0.7654027883544241
 40
0.8826900601954766
 40
1.0
 40
1.0
 40
1.0
 40
1.0
 10
194.5722777296078
 20
101.1581949682913
 30
0.0
 10
194.982716946832
 20
100.9212279991464
 30
0.0
 10
195.8034792737509
 20
100.4473610955067
 30
0.0
 10
197.0673812976696
 20
99.71764744967703
 30
0.0
 10
198.3551068847364
 20
98.97417705815991
 30
0.0
 10
199.5961850797246
 20
98.25764146605707
 30
0.0
 10
200.7702103070849
 20
97.57981711336669
 30
0.0
 10
201.8781982414468
 20
96.94012043937452
 30
0.0
 10
202.9811766092295
 20
96.30331547753309
 30
0.0
 10
203.7085537248864
 20
95.88336377833872
 30
0.0
 10
204.072277424134
 20
95.67336763981798
 30
0.0
  0
SPLINE
  5
18D
330
1F
100
AcDbEntity
  8
0
  6
Continuous
 62
     7
370
    25
100
AcDbSpline
210
0.0
220
0.0
230
1.0
 70
    24
 71
     3
 72
    16
 73
    12
 74
     0
 42
0.000000001
 43
0.00000001
 40
0.0
 40
0.0
 40
0.0
 40
0.0
 40
0.1187721483798171
 40
0.244149170340446
 40
0.3694941481667921
 40
0.4979334298056077
 40
0.6263722792741918
 40
0.7192884558148467
 40
0.8122141225033145
 40
0.9061025952644427
 40
1.0
 40
1.0
 40
1.0
 40
1.0
 10
204.072277424134
 20
95.67336763981798
 30
0.0
 10
204.072277424134
 20
95.24810990245294
 30
0.0
 10
204.072277424134
 20
94.37394600818283
 30
0.0
 10
204.072277424134
 20
93.02757911580188
 30
0.0
 10
204.072277424134
 20
91.63062182493158
 30
0.0
 10
204.072277424134
 20
90.21141128118848
 30
0.0
 10
204.072277424134
 20
88.91250424845221
 30
0.0
 10
204.072277424134
 20
87.75296368151086
 30
0.0
 10
204.072277424134
 20
86.72927877996962
 30
0.0
 10
204.072277424134
 20
85.71140467394399
 30
0.0
 10
204.072277424134
 20
85.03962086428865
 30
0.0
 10
204.072277424134
 20
84.70371298287132
 30
0.0
  0
LINE
  5
18E
330
1F
100
AcDbEntity
  8
0
  6
Continuous
 62
     7
370
    25
100
AcDbLine
 10
194.5722777296
 20
102.3430458995
 30
0.0
 11
186.0382933069
 21
102.3430458995
 31
0.0
  0
LINE
  5
18F
330
1F
100
AcDbEntity
  8
0
  6
Continuous
 62
     7
370
    25
100
AcDbLine
 10
203.1062621523
 20
102.3430458995
 30
0.0
 11
194.5722777296
 21
102.3430458995
 31
0.0
  0
LINE
  5
190
330
1F
100
AcDbEntity
  8
0
  6
Continuous
 62
     7
370
    25
100
AcDbLine
 10
194.5722777296
 20
102.1885404157
 30
0.0
 11
202.5722781096
 21
102.1885404157
 31
0.0
  0
LINE
  5
191
330
1F
100
AcDbEntity
  8
0
  6
Continuous
 62
     7
370
    25
100
AcDbLine
 10
186.5722773496
 20
102.1885404157
 30
0.0
 11
194.5722777296
 21
102.1885404157
 31
0.0
  0
LINE
  5
192
330
1F
100
AcDbEntity
  8
0
  6
Continuous
 62
     7
370
    25
100
AcDbLine
 10
202.7696495775
 20
113.1146305965
 30
0.0
 11
186.3749058817
 21
113.1146305965
 31
0.0
  0
LINE
  5
193
330
1F
100
AcDbEntity
  8
0
  6
Continuous
 62
     7
370
    25
100
AcDbLine
 10
194.5722777296
 20
115.1885406839
 30
0.0
 11
201.5722779457
 21
115.1885406839
 31
0.0
  0
LINE
  5
194
330
1F
100
AcDbEntity
  8
0
  6
Continuous
 62
     7
370
    25
100
AcDbLine
 10
187.5722775135
 20
115.1885406839
 30
0.0
 11
194.5722777296
 21
115.1885406839
 31
0.0
  0
LINE
  5
195
330
1F
100
AcDbEntity
  8
0
  6
Continuous
 62
     7
370
    25
100
AcDbLine
 10
187.5722775135
 20
97.1151248345
 30
0.0
 11
187.5722775135
 21
97.1885405274
 31
0.0
  0
LINE
  5
196
330
1F
100
AcDbEntity
  8
0
  6
Continuous
 62
     7
370
    25
100
AcDbLine
 10
201.5722779457
 20
97.1885405274
 30
0.0
 11
201.5722779457
 21
97.1148314679
 31
0.0
  0
SPLINE
  5
197
330
1F
100
AcDbEntity
  8
0
  6
Continuous
 62
     7
370
    25
100
AcDbSpline
210
0.0
220
0.0
230
1.0
 70
    24
 71
     3
 72
    14
 73
    10
 74
     0
 42
0.000000001
 43
0.00000001
 40
0.0
 40
0.0
 40
0.0
 40
0.0
 40
0.25
 40
0.25
 40
0.5
 40
0.5
 40
0.75
 40
0.75
 40
1.0
 40
1.0
 40
1.0
 40
1.0
 10
201.5722777296078
 20
97.93854031134467
 30
0.0
 10
201.5722777296078
 20
97.93854031134467
 30
0.0
 10
201.5623530396824
 20
97.93854031134467
 30
0.0
 10
201.5225583370197
 20
97.93854031134467
 30
0.0
 10
201.4926879917981
 20
97.93854031134467
 30
0.0
 10
201.4127184518661
 20
97.93854031134467
 30
0.0
 10
201.3626185714302
 20
97.93854031134467
 30
0.0
 10
201.2417340224424
 20
97.93854031134467
 30
0.0
 10
201.1709482738538
 20
97.93854031134467
 30
0.0
 10
201.0895191089182
 20
97.93854031134467
 30
0.0
  0
SPLINE
  5
198
330
1F
100
AcDbEntity
  8
0
  6
Continuous
 62
     7
370
    25
100
AcDbSpline
210
0.0
220
0.0
230
1.0
 70
    24
 71
     3
 72
    14
 73
    10
 74
     0
 42
0.000000001
 43
0.00000001
 40
0.0
 40
0.0
 40
0.0
 40
0.0
 40
0.25
 40
0.25
 40
0.5
 40
0.5
 40
0.75
 40
0.75
 40
1.0
 40
1.0
 40
1.0
 40
1.0
 10
187.5722777296078
 20
97.93854031134467
 30
0.0
 10
187.5722777296078
 20
97.93854031134467
 30
0.0
 10
187.5822024195332
 20
97.93854031134467
 30
0.0
 10
187.6219971221959
 20
97.93854031134467
 30
0.0
 10
187.6518674674176
 20
97.93854031134467
 30
0.0
 10
187.7318370073495
 20
97.93854031134467
 30
0.0
 10
187.7819368877854
 20
97.93854031134467
 30
0.0
 10
187.9028214367732
 20
97.93854031134467
 30
0.0
 10
187.9736071853619
 20
97.93854031134467
 30
0.0
 10
188.0550363502975
 20
97.93854031134467
 30
0.0
  0
LINE
  5
199
330
1F
100
AcDbEntity
  8
0
  6
Continuous
 62
     7
370
    25
100
AcDbLine
 10
187.8222775545
 20
97.6885401437
 30
0.0
 11
188.5626589779
 21
97.6885401437
 31
0.0
  0
LINE
  5
19A
330
1F
100
AcDbEntity
  8
0
  6
Continuous
 62
     7
370
    25
100
AcDbLine
 10
187.8222775545
 20
97.6885401437
 30
0.0
 11
187.8222775545
 21
97.4385401027
 31
0.0
  0
LINE
  5
19B
330
1F
100
AcDbEntity
  8
0
  6
Continuous
 62
     7
370
    25
100
AcDbLine
 10
187.5722775135
 20
97.4385401027
 30
0.0
 11
187.8222775545
 21
97.4385401027
 31
0.0
  0
ARC
  5
19C
330
1F
100
AcDbEntity
  8
0
  6
Continuous
 62
     7
370
    25
100
AcDbCircle
 10
187.8222777296
 20
97.4385403113
 30
0.0
 40
0.25
100
AcDbArc
 50
90.0
 51
180.0
  0
LINE
  5
19D
330
1F
100
AcDbEntity
  8
0
  6
Continuous
 62
     7
370
    25
100
AcDbLine
 10
187.5722775135
 20
97.1885405274
 30
0.0
 11
187.5722775135
 21
97.4385401027
 31
0.0
  0
LINE
  5
19E
330
1F
100
AcDbEntity
  8
0
  6
Continuous
 62
     7
370
    25
100
AcDbLine
 10
200.5818964813
 20
97.6885401437
 30
0.0
 11
201.3222779047
 21
97.6885401437
 31
0.0
  0
LINE
  5
19F
330
1F
100
AcDbEntity
  8
0
  6
Continuous
 62
     7
370
    25
100
AcDbLine
 10
201.3222779047
 20
97.4385401027
 30
0.0
 11
201.3222779047
 21
97.6885401437
 31
0.0
  0
LINE
  5
1A0
330
1F
100
AcDbEntity
  8
0
  6
Continuous
 62
     7
370
    25
100
AcDbLine
 10
201.3222779047
 20
97.4385401027
 30
0.0
 11
201.5722779457
 21
97.4385401027
 31
0.0
  0
LINE
  5
1A1
330
1F
100
AcDbEntity
  8
0
  6
Continuous
 62
     7
370
    25
100
AcDbLine
 10
201.5722779457
 20
97.4385401027
 30
0.0
 11
201.5722779457
 21
97.1885405274
 31
0.0
  0
ARC
  5
1A2
330
1F
100
AcDbEntity
  8
0
  6
Continuous
 62
     7
370
    25
100
AcDbCircle
 10
201.3222777296
 20
97.4385403113
 30
0.0
 40
0.25
100
AcDbArc
 50
0.0
 51
90.0
  0
SPLINE
  5
1A3
330
1F
100
AcDbEntity
  8
0
  6
Continuous
 62
     7
370
    25
100
AcDbSpline
210
0.0
220
0.0
230
1.0
 70
     8
 71
     3
 72
     8
 73
     4
 74
     0
 42
0.000000001
 43
0.00000001
 40
0.0
 40
0.0
 40
0.0
 40
0.0
 40
1.0
 40
1.0
 40
1.0
 40
1.0
 10
188.0550363502975
 20
97.93854031134467
 30
0.0
 10
188.0534664476006
 20
97.8730876309085
 30
0.0
 10
188.0268111131967
 20
97.80803806590028
 30
0.0
 10
187.9821095495753
 20
97.76175760541794
 30
0.0
  0
SPLINE
  5
1A4
330
1F
100
AcDbEntity
  8
0
  6
Continuous
 62
     7
370
    25
100
AcDbSpline
210
0.0
220
0.0
230
1.0
 70
     8
 71
     3
 72
    14
 73
    10
 74
     0
 42
0.000000001
 43
0.00000001
 40
0.0
 40
0.0
 40
0.0
 40
0.0
 40
0.2455893235675696
 40
0.4556181963142487
 40
0.6303106213393677
 40
0.7701164303669036
 40
0.8759901151610805
 40
0.9502659312389182
 40
1.0
 40
1.0
 40
1.0
 40
1.0
 10
187.9821095495753
 20
97.76175760541794
 30
0.0
 10
187.9702186090361
 20
97.75079256610265
 30
0.0
 10
187.9481584933835
 20
97.73045018573049
 30
0.0
 10
187.9125947950633
 20
97.71029817325402
 30
0.0
 10
187.8818024864601
 20
97.69817861378316
 30
0.0
 10
187.8565629038872
 20
97.69197279055076
 30
0.0
 10
187.8385806109524
 20
97.68935309157692
 30
0.0
 10
187.8256584475365
 20
97.6885728972319
 30
0.0
 10
187.8232454574305
 20
97.688549639029
 30
0.0
 10
187.8222777296078
 20
97.68854031134467
 30
0.0
  0
SPLINE
  5
1A5
330
1F
100
AcDbEntity
  8
0
  6
Continuous
 62
     7
370
    25
100
AcDbSpline
210
0.0
220
0.0
230
1.0
 70
     8
 71
     3
 72
    15
 73
    11
 74
     0
 42
0.000000001
 43
0.00000001
 40
0.0
 40
0.0
 40
0.0
 40
0.0
 40
0.0425877399909108
 40
0.1028282325346858
 40
0.1864706729280343
 40
0.2956205441869044
 40
0.4311891005861843
 40
0.5936297641565587
 40
0.7831876993469675
 40
1.0
 40
1.0
 40
1.0
 40
1.0
 10
201.3222777296078
 20
97.68854031134467
 30
0.0
 10
201.321562228011
 20
97.6885461044468
 30
0.0
 10
201.3198346471487
 20
97.6885600919102
 30
0.0
 10
201.3099604680538
 20
97.68905179274194
 30
0.0
 10
201.2960667882315
 20
97.69067914670053
 30
0.0
 10
201.2765695304098
 20
97.69450429508461
 30
0.0
 10
201.2523646775606
 20
97.70187660512543
 30
0.0
 10
201.2239960208964
 20
97.71449459410223
 30
0.0
 10
201.1924568501528
 20
97.73373879630641
 30
0.0
 10
201.1728870575805
 20
97.75200954267667
 30
0.0
 10
201.1624459096404
 20
97.76175760541794
 30
0.0
  0
SPLINE
  5
1A6
330
1F
100
AcDbEntity
  8
0
  6
Continuous
 62
     7
370
    25
100
AcDbSpline
210
0.0
220
0.0
230
1.0
 70
     8
 71
     3
 72
     8
 73
     4
 74
     0
 42
0.000000001
 43
0.00000001
 40
0.0
 40
0.0
 40
0.0
 40
0.0
 40
1.0
 40
1.0
 40
1.0
 40
1.0
 10
201.1624459096404
 20
97.76175760541794
 30
0.0
 10
201.1177443460189
 20
97.80803806590028
 30
0.0
 10
201.091089011615
 20
97.8730876309085
 30
0.0
 10
201.0895191089182
 20
97.93854031134467
 30
0.0
  0
LINE
  5
1A7
330
1F
100
AcDbEntity
  8
0
  6
Continuous
 62
     7
370
    25
100
AcDbLine
 10
197.9263796371
 20
89.1885402638
 30
0.0
 11
191.2181758221
 21
89.1885402638
 31
0.0
  0
SPLINE
  5
1A8
330
1F
100
AcDbEntity
  8
0
  6
Continuous
 62
     7
370
    25
100
AcDbSpline
210
0.0
220
0.0
230
1.0
 70
     8
 71
     3
 72
    15
 73
    11
 74
     0
 42
0.000000001
 43
0.00000001
 40
0.0
 40
0.0
 40
0.0
 40
0.0
 40
0.1381458177743257
 40
0.2819204836551613
 40
0.4208140413354861
 40
0.559555154304379
 40
0.6980224992766195
 40
0.8367147361134897
 40
0.9937596772440735
 40
1.0
 40
1.0
 40
1.0
 40
1.0
 10
197.4406381037307
 20
88.2238124290488
 30
0.0
 10
197.1931594152978
 20
88.13105012606779
 30
0.0
 10
196.6881183459308
 20
87.94174585509741
 30
0.0
 10
195.8872694362023
 20
87.72695518369412
 30
0.0
 10
195.0532805900012
 20
87.59534830397928
 30
0.0
 10
194.2131026606349
 20
87.58234308073108
 30
0.0
 10
193.385448919452
 20
87.6993369434842
 30
0.0
 10
192.5581239538656
 20
87.91576025750472
 30
0.0
 10
192.0000616113618
 20
88.09855681606635
 30
0.0
 10
191.7170086990725
 20
88.21886038269315
 30
0.0
 10
191.7061911795509
 20
88.22345806080916
 30
0.0
  0
SPLINE
  5
1A9
330
1F
100
AcDbEntity
  8
0
  6
Continuous
 62
     7
370
    25
100
AcDbSpline
210
0.0
220
0.0
230
1.0
 70
     8
 71
     3
 72
    14
 73
    10
 74
     0
 42
0.000000001
 43
0.00000001
 40
0.0
 40
0.0
 40
0.0
 40
0.0
 40
0.25
 40
0.25
 40
0.5
 40
0.5
 40
0.75
 40
0.75
 40
1.0
 40
1.0
 40
1.0
 40
1.0
 10
201.5711681903257
 20
97.69026006899898
 30
0.0
 10
201.571176797711
 20
97.70050216744804
 30
0.0
 10
201.5625856625261
 20
97.71518488191144
 30
0.0
 10
201.5262760630159
 20
97.7470072725693
 30
0.0
 10
201.4985575986904
 20
97.76414694876377
 30
0.0
 10
201.4220654968983
 20
97.79445899258614
 30
0.0
 10
201.3775397607925
 20
97.80032879077568
 30
0.0
 10
201.2776706405963
 20
97.7942342366954
 30
0.0
 10
201.2223272565058
 20
97.78226988442556
 30
0.0
 10
201.1624459096404
 20
97.76175760541794
 30
0.0
  0
SPLINE
  5
1AA
330
1F
100
AcDbEntity
  8
0
  6
Continuous
 62
     7
370
    25
100
AcDbSpline
210
0.0
220
0.0
230
1.0
 70
     8
 71
     3
 72
    12
 73
     8
 74
     0
 42
0.000000001
 43
0.00000001
 40
0.0
 40
0.0
 40
0.0
 40
0.0
 40
0.25
 40
0.25
 40
0.5
 40
0.5
 40
1.0
 40
1.0
 40
1.0
 40
1.0
 10
201.5711681903257
 20
97.69026006899898
 30
0.0
 10
201.5711595829406
 20
97.68001797054991
 30
0.0
 10
201.5625497726104
 20
97.67247875899658
 30
0.0
 10
201.5410686623401
 20
97.65814924337222
 30
0.0
 10
201.5281973624
 20
97.65135893930122
 30
0.0
 10
201.5026026025848
 20
97.62512608884794
 30
0.0
 10
201.4989280593861
 20
97.61544337215963
 30
0.0
 10
201.4990544249059
 20
97.6153170066398
 30
0.0
  0
LINE
  5
1AB
330
1F
100
AcDbEntity
  8
0
  6
Continuous
 62
     7
370
    25
100
AcDbLine
 10
201.5726327796
 20
97.4966741892
 30
0.0
 11
201.5730183471
 21
97.5598094778
 31
0.0
  0
SPLINE
  5
1AC
330
1F
100
AcDbEntity
  8
0
  6
Continuous
 62
     7
370
    25
100
AcDbSpline
210
0.0
220
0.0
230
1.0
 70
     8
 71
     3
 72
    12
 73
     8
 74
     0
 42
0.000000001
 43
0.00000001
 40
0.0
 40
0.0
 40
0.0
 40
0.0
 40
0.25
 40
0.25
 40
0.5
 40
0.5
 40
1.0
 40
1.0
 40
1.0
 40
1.0
 10
187.5733872688899
 20
97.69026006899898
 30
0.0
 10
187.573395876275
 20
97.68001797054991
 30
0.0
 10
187.5820056866052
 20
97.67247875899656
 30
0.0
 10
187.6034867968755
 20
97.65814924337222
 30
0.0
 10
187.6163580968156
 20
97.65135893930122
 30
0.0
 10
187.6419528566308
 20
97.62512608884794
 30
0.0
 10
187.6456273998295
 20
97.61544337215963
 30
0.0
 10
187.6455010343097
 20
97.6153170066398
 30
0.0
  0
LINE
  5
1AD
330
1F
100
AcDbEntity
  8
0
  6
Continuous
 62
     7
370
    25
100
AcDbLine
 10
187.5719226796
 20
97.4966741892
 30
0.0
 11
187.5715371121
 21
97.5598094778
 31
0.0
  0
SPLINE
  5
1AE
330
1F
100
AcDbEntity
  8
0
  6
Continuous
 62
     7
370
    25
100
AcDbSpline
210
0.0
220
0.0
230
1.0
 70
     8
 71
     3
 72
    12
 73
     8
 74
     0
 42
0.000000001
 43
0.00000001
 40
0.0
 40
0.0
 40
0.0
 40
0.0
 40
0.25
 40
0.25
 40
0.5
 40
0.5
 40
1.0
 40
1.0
 40
1.0
 40
1.0
 10
187.5733872688899
 20
97.69026006899898
 30
0.0
 10
187.5733786615047
 20
97.70050216744804
 30
0.0
 10
187.5819697966895
 20
97.71518488191144
 30
0.0
 10
187.6182793961998
 20
97.7470072725693
 30
0.0
 10
187.6459978605252
 20
97.76414694876377
 30
0.0
 10
187.7607360132134
 20
97.80961501449731
 30
0.0
 10
187.8623468558443
 20
97.80278216343318
 30
0.0
 10
187.9821095495753
 20
97.76175760541794
 30
0.0
  0
SPLINE
  5
1AF
330
1F
100
AcDbEntity
  8
0
  6
Continuous
 62
     7
370
    25
100
AcDbSpline
210
0.0
220
0.0
230
1.0
 70
     8
 71
     3
 72
    10
 73
     6
 74
     0
 42
0.000000001
 43
0.00000001
 40
0.0
 40
0.0
 40
0.0
 40
0.0
 40
0.5
 40
0.5
 40
1.0
 40
1.0
 40
1.0
 40
1.0
 10
187.5733872688899
 20
97.69026006899898
 30
0.0
 10
187.5733528393491
 20
97.73122846279523
 30
0.0
 10
187.5729711619149
 20
97.77468390986716
 30
0.0
 10
187.5766631760411
 20
97.8637697550844
 30
0.0
 10
187.5722777296078
 20
97.89615698369973
 30
0.0
 10
187.5722777296078
 20
97.93854031134467
 30
0.0
  0
SPLINE
  5
1B0
330
1F
100
AcDbEntity
  8
0
  6
Continuous
 62
     7
370
    25
100
AcDbSpline
210
0.0
220
0.0
230
1.0
 70
     8
 71
     3
 72
     9
 73
     5
 74
     0
 42
0.000000001
 43
0.00000001
 40
0.0
 40
0.0
 40
0.0
 40
0.0
 40
0.1238817103976022
 40
1.0
 40
1.0
 40
1.0
 40
1.0
 10
201.5705433573794
 20
97.81921494547346
 30
0.0
 10
201.5704586019673
 20
97.81389028927053
 30
0.0
 10
201.569774437922
 20
97.77090851104155
 30
0.0
 10
201.5705173745016
 20
97.72792176815514
 30
0.0
 10
201.571168274827
 20
97.6902602965019
 30
0.0
  0
LINE
  5
1B1
330
1F
100
AcDbEntity
  8
0
  6
Continuous
 62
     8
370
    25
100
AcDbLine
 10
194.5722777296
 20
101.1885402517
 30
0.0
 11
187.5722775135
 21
101.1885402517
 31
0.0
  0
LINE
  5
1B2
330
1F
100
AcDbEntity
  8
0
  6
Continuous
 62
     8
370
    25
100
AcDbLine
 10
201.5722779457
 20
101.1885402517
 30
0.0
 11
194.5722777296
 21
101.1885402517
 31
0.0
  0
LINE
  5
1B3
330
1F
100
AcDbEntity
  8
0
  6
Continuous
 62
     8
370
    25
100
AcDbLine
 10
187.6941643555
 20
97.1885405274
 30
0.0
 11
187.5722775135
 21
97.1885405274
 31
0.0
  0
LINE
  5
1B4
330
1F
100
AcDbEntity
  8
0
  6
Continuous
 62
     8
370
    25
100
AcDbLine
 10
201.4503911037
 20
97.1885405274
 30
0.0
 11
201.5722779457
 21
97.1885405274
 31
0.0
  0
LINE
  5
1B5
330
1F
100
AcDbEntity
  8
0
  6
Continuous
 62
     8
370
    25
100
AcDbLine
 10
200.1677769136
 20
97.9385401847
 30
0.0
 11
201.0895189729
 21
97.9385401847
 31
0.0
  0
LINE
  5
1B6
330
1F
100
AcDbEntity
  8
0
  6
Continuous
 62
     8
370
    25
100
AcDbLine
 10
188.0550364863
 20
97.9385401847
 30
0.0
 11
188.9764008943
 21
97.9385401847
 31
0.0
  0
LINE
  5
1B7
330
1F
100
AcDbEntity
  8
0
  6
Continuous
 62
     8
370
    25
100
AcDbLine
 10
188.1296461348
 20
97.4385401027
 30
0.0
 11
187.8222775545
 21
97.4385401027
 31
0.0
  0
LINE
  5
1B8
330
1F
100
AcDbEntity
  8
0
  6
Continuous
 62
     8
370
    25
100
AcDbLine
 10
187.8222775545
 20
97.4385401027
 30
0.0
 11
187.8222775545
 21
97.2610812427
 31
0.0
  0
LINE
  5
1B9
330
1F
100
AcDbEntity
  8
0
  6
Continuous
 62
     8
370
    25
100
AcDbLine
 10
201.3222779047
 20
97.4385401027
 30
0.0
 11
201.0149093244
 21
97.4385401027
 31
0.0
  0
LINE
  5
1BA
330
1F
100
AcDbEntity
  8
0
  6
Continuous
 62
     8
370
    25
100
AcDbLine
 10
201.3222779047
 20
97.2610812427
 30
0.0
 11
201.3222779047
 21
97.4385401027
 31
0.0
  0
SPLINE
  5
1BB
330
1F
100
AcDbEntity
  8
0
  6
Continuous
 62
     8
370
    25
100
AcDbSpline
210
0.0
220
0.0
230
1.0
 70
     8
 71
     3
 72
     9
 73
     5
 74
     0
 42
0.000000001
 43
0.00000001
 40
0.0
 40
0.0
 40
0.0
 40
0.0
 40
0.1250373943442832
 40
1.0
 40
1.0
 40
1.0
 40
1.0
 10
201.5730183471215
 20
97.55980947781423
 30
0.0
 10
201.5730594474576
 20
97.56524720313367
 30
0.0
 10
201.5733881518127
 20
97.60873599581011
 30
0.0
 10
201.5722041938079
 20
97.65221649000551
 30
0.0
 10
201.571168274827
 20
97.6902602965019
 30
0.0
  0
SPLINE
  5
1BC
330
1F
100
AcDbEntity
  8
0
  6
Continuous
 62
     8
370
    25
100
AcDbSpline
210
0.0
220
0.0
230
1.0
 70
     8
 71
     3
 72
     9
 73
     5
 74
     0
 42
0.000000001
 43
0.00000001
 40
0.0
 40
0.0
 40
0.0
 40
0.0
 40
0.1250373943442832
 40
1.0
 40
1.0
 40
1.0
 40
1.0
 10
187.5715371120941
 20
97.55980947781423
 30
0.0
 10
187.5714960117581
 20
97.56524720313367
 30
0.0
 10
187.571167307403
 20
97.60873599581011
 30
0.0
 10
187.5723512654077
 20
97.65221649000551
 30
0.0
 10
187.5733871843886
 20
97.6902602965019
 30
0.0
  0
LINE
  5
1BD
330
1F
100
AcDbEntity
  8
0
  6
Continuous
 62
     8
370
    25
100
AcDbLine
 10
201.5722779457
 20
97.9385401847
 30
0.0
 11
201.5705433574
 21
97.8192149455
 31
0.0
  0
INSERT
  5
1C9
330
1F
100
AcDbEntity
  8
0
  6
Continuous
 62
     7
370
    18
100
AcDbBlockReference
  2
SW_CENTERMARKSYMBOL_0
 10
194.5722777296
 20
90.1885403113
 30
0.0
  0
LINE
  5
1CA
330
1F
100
AcDbEntity
  8
0
  6
Continuous
 62
     7
370
     0
100
AcDbLine
 10
202.0744590932
 20
114.3187366749
 30
0.0
 11
202.4485277296
 21
102.3485403113
 31
0.0
  0
LINE
  5
1CB
330
1F
100
AcDbEntity
  8
0
  6
Continuous
 62
     7
370
     0
100
AcDbLine
 10
187.070096366
 20
114.3187366749
 30
0.0
 11
186.6960277296
 21
102.3485403113
 31
0.0
  0
LINE
  5
1CC
330
1F
100
AcDbEntity
  8
0
  6
Continuous
 62
     7
370
     0
100
AcDbLine
 10
186.0384652296
 20
102.3485403113
 30
0.0
 11
203.1060902296
 21
102.3485403113
 31
0.0
  0
ARC
  5
1CD
330
1F
100
AcDbEntity
  8
0
  6
Continuous
 62
     7
370
     0
100
AcDbCircle
 10
194.5722777296
 20
90.1885403113
 30
0.0
 40
8.331000000000012
100
AcDbArc
 50
75.0
 51
345.0
  0
LINE
  5
1CE
330
1F
100
AcDbEntity
  8
0
  6
Continuous
 62
     7
370
    25
100
AcDbLine
 10
133.2325332538
 20
143.5513049093
 30
0.0
 11
137.7325330601
 21
143.5513049093
 31
0.0
  0
LINE
  5
1CF
330
1F
100
AcDbEntity
  8
0
  6
Continuous
 62
     7
370
    25
100
AcDbLine
 10
137.7325330601
 20
154.0513047677
 30
0.0
 11
133.2325332538
 21
154.0513047677
 31
0.0
  0
LINE
  5
1D0
330
1F
100
AcDbEntity
  8
0
  6
Continuous
 62
     7
370
    25
100
AcDbLine
 10
137.7325330601
 20
143.5513049093
 30
0.0
 11
141.7325337157
 21
144.3013050322
 31
0.0
  0
LINE
  5
1D1
330
1F
100
AcDbEntity
  8
0
  6
Continuous
 62
     7
370
    25
100
AcDbLine
 10
141.7325337157
 20
153.3013046448
 30
0.0
 11
137.7325330601
 21
154.0513047677
 31
0.0
  0
LINE
  5
1D2
330
1F
100
AcDbEntity
  8
0
  6
Continuous
 62
     7
370
    25
100
AcDbLine
 10
141.7325337157
 20
143.5513049093
 30
0.0
 11
145.7325343714
 21
144.3013050322
 31
0.0
  0
LINE
  5
1D3
330
1F
100
AcDbEntity
  8
0
  6
Continuous
 62
     7
370
    25
100
AcDbLine
 10
145.7325343714
 20
153.3013046448
 30
0.0
 11
141.7325337157
 21
154.0513047677
 31
0.0
  0
LINE
  5
1D4
330
1F
100
AcDbEntity
  8
0
  6
Continuous
 62
     7
370
    25
100
AcDbLine
 10
145.7325343714
 20
143.5513049093
 30
0.0
 11
149.732535027
 21
144.3013050322
 31
0.0
  0
LINE
  5
1D5
330
1F
100
AcDbEntity
  8
0
  6
Continuous
 62
     7
370
    25
100
AcDbLine
 10
149.732535027
 20
153.3013046448
 30
0.0
 11
145.7325343714
 21
154.0513047677
 31
0.0
  0
LINE
  5
1D6
330
1F
100
AcDbEntity
  8
0
  6
Continuous
 62
     7
370
    25
100
AcDbLine
 10
149.732535027
 20
143.5513049093
 30
0.0
 11
153.7325356827
 21
144.3013050322
 31
0.0
  0
LINE
  5
1D7
330
1F
100
AcDbEntity
  8
0
  6
Continuous
 62
     7
370
    25
100
AcDbLine
 10
153.7325356827
 20
153.3013046448
 30
0.0
 11
149.732535027
 21
154.0513047677
 31
0.0
  0
LINE
  5
1D8
330
1F
100
AcDbEntity
  8
0
  6
Continuous
 62
     7
370
    25
100
AcDbLine
 10
153.7325356827
 20
143.5513049093
 30
0.0
 11
159.2753913924
 21
144.244161873
 31
0.0
  0
LINE
  5
1D9
330
1F
100
AcDbEntity
  8
0
  6
Continuous
 62
     7
370
    25
100
AcDbLine
 10
159.2753913924
 20
153.358447804
 30
0.0
 11
153.7325356827
 21
154.0513047677
 31
0.0
  0
LINE
  5
1DA
330
1F
100
AcDbEntity
  8
0
  6
Continuous
 62
     7
370
    25
100
AcDbLine
 10
159.2753913924
 20
144.244161873
 30
0.0
 11
159.7325329408
 21
144.7013048184
 31
0.0
  0
LINE
  5
1DB
330
1F
100
AcDbEntity
  8
0
  6
Continuous
 62
     7
370
    25
100
AcDbLine
 10
159.7325329408
 20
152.9013048586
 30
0.0
 11
159.2753913924
 21
153.358447804
 31
0.0
  0
LINE
  5
1DC
330
1F
100
AcDbEntity
  8
0
  6
Continuous
 62
     7
370
    25
100
AcDbLine
 10
121.3191368357
 20
158.3013045331
 30
0.0
 11
121.2325340808
 21
158.1513047879
 31
0.0
  0
LINE
  5
1DD
330
1F
100
AcDbEntity
  8
0
  6
Continuous
 62
     7
370
    25
100
AcDbLine
 10
121.2325340808
 20
139.4513048892
 30
0.0
 11
121.3191368357
 21
139.301305144
 31
0.0
  0
LINE
  5
1DE
330
1F
100
AcDbEntity
  8
0
  6
Continuous
 62
     7
370
    25
100
AcDbLine
 10
131.1459311024
 20
139.301305144
 30
0.0
 11
131.2325347886
 21
139.4513048892
 31
0.0
  0
LINE
  5
1DF
330
1F
100
AcDbEntity
  8
0
  6
Continuous
 62
     7
370
    25
100
AcDbLine
 10
131.2325347886
 20
158.1513047879
 30
0.0
 11
131.1459311024
 21
158.3013045331
 31
0.0
  0
LINE
  5
1E0
330
1F
100
AcDbEntity
  8
0
  6
Continuous
 62
     7
370
    25
100
AcDbLine
 10
131.2325347886
 20
139.4513048892
 30
0.0
 11
132.9325337634
 21
139.4513048892
 31
0.0
  0
LINE
  5
1E1
330
1F
100
AcDbEntity
  8
0
  6
Continuous
 62
     7
370
    25
100
AcDbLine
 10
132.9325337634
 20
158.1513047879
 30
0.0
 11
131.2325347886
 21
158.1513047879
 31
0.0
  0
ARC
  5
1E2
330
1F
100
AcDbEntity
  8
0
  6
Continuous
 62
     7
370
    25
100
AcDbCircle
 10
132.9325339171
 20
157.8513048385
 30
0.0
 40
0.3000000000000114
100
AcDbArc
 50
0.0
 51
90.0
  0
ARC
  5
1E3
330
1F
100
AcDbEntity
  8
0
  6
Continuous
 62
     7
370
    25
100
AcDbCircle
 10
132.9325339171
 20
139.7513048385
 30
0.0
 40
0.3000000000000114
100
AcDbArc
 50
270.0
 51
0.0
  0
ARC
  5
1E4
330
1F
100
AcDbEntity
  8
0
  6
Continuous
 62
     7
370
    25
100
AcDbCircle
 10
119.5325339171
 20
139.7513048385
 30
0.0
 40
0.2999999999999972
100
AcDbArc
 50
180.0
 51
270.0
  0
ARC
  5
1E5
330
1F
100
AcDbEntity
  8
0
  6
Continuous
 62
     7
370
    25
100
AcDbCircle
 10
119.5325339171
 20
157.8513048385
 30
0.0
 40
0.3000000000000114
100
AcDbArc
 50
90.0
 51
180.0
  0
LINE
  5
1E6
330
1F
100
AcDbEntity
  8
0
  6
Continuous
 62
     7
370
    25
100
AcDbLine
 10
121.2325340808
 20
158.1513047879
 30
0.0
 11
119.5325341747
 21
158.1513047879
 31
0.0
  0
LINE
  5
1E7
330
1F
100
AcDbEntity
  8
0
  6
Continuous
 62
     7
370
    25
100
AcDbLine
 10
119.5325341747
 20
139.4513048892
 30
0.0
 11
121.2325340808
 21
139.4513048892
 31
0.0
  0
ARC
  5
1E8
330
1F
100
AcDbEntity
  8
0
  6
Continuous
 62
     7
370
    25
100
AcDbCircle
 10
118.4564431534
 20
156.8013048385
 30
0.0
 40
1.000000000000006
100
AcDbArc
 50
270.0
 51
320.9040298984
  0
ARC
  5
1E9
330
1F
100
AcDbEntity
  8
0
  6
Continuous
 62
     7
370
    25
100
AcDbCircle
 10
118.4564431534
 20
140.8013048385
 30
0.0
 40
1.000000000000028
100
AcDbArc
 50
39.0959701016
 51
90.0
  0
LINE
  5
1EA
330
1F
100
AcDbEntity
  8
0
  6
Continuous
 62
     7
370
    25
100
AcDbLine
 10
115.2064430267
 20
141.8013046225
 30
0.0
 11
118.4564430938
 21
141.8013046225
 31
0.0
  0
LINE
  5
1EB
330
1F
100
AcDbEntity
  8
0
  6
Continuous
 62
     7
370
    25
100
AcDbLine
 10
118.4564430938
 20
155.8013050546
 30
0.0
 11
115.2064430267
 21
155.8013050546
 31
0.0
  0
LINE
  5
1EC
330
1F
100
AcDbEntity
  8
0
  6
Continuous
 62
     7
370
    25
100
AcDbLine
 10
137.7325330601
 20
143.5513049093
 30
0.0
 11
137.7325330601
 21
154.0513047677
 31
0.0
  0
LINE
  5
1ED
330
1F
100
AcDbEntity
  8
0
  6
Continuous
 62
     7
370
    25
100
AcDbLine
 10
141.7325337157
 20
143.5513049093
 30
0.0
 11
141.7325337157
 21
154.0513047677
 31
0.0
  0
LINE
  5
1EE
330
1F
100
AcDbEntity
  8
0
  6
Continuous
 62
     7
370
    25
100
AcDbLine
 10
145.7325343714
 20
143.5513049093
 30
0.0
 11
145.7325343714
 21
154.0513047677
 31
0.0
  0
LINE
  5
1EF
330
1F
100
AcDbEntity
  8
0
  6
Continuous
 62
     7
370
    25
100
AcDbLine
 10
149.732535027
 20
143.5513049093
 30
0.0
 11
149.732535027
 21
154.0513047677
 31
0.0
  0
LINE
  5
1F0
330
1F
100
AcDbEntity
  8
0
  6
Continuous
 62
     7
370
    25
100
AcDbLine
 10
153.7325356827
 20
143.5513049093
 30
0.0
 11
153.7325356827
 21
154.0513047677
 31
0.0
  0
LINE
  5
1F1
330
1F
100
AcDbEntity
  8
0
  6
Continuous
 62
     7
370
    25
100
AcDbLine
 10
159.2753913924
 20
144.244161873
 30
0.0
 11
159.2753913924
 21
153.358447804
 31
0.0
  0
LINE
  5
1F2
330
1F
100
AcDbEntity
  8
0
  6
Continuous
 62
     7
370
    25
100
AcDbLine
 10
159.7325329408
 20
152.9013048586
 30
0.0
 11
159.7325329408
 21
144.7013048184
 31
0.0
  0
LINE
  5
1F3
330
1F
100
AcDbEntity
  8
0
  6
Continuous
 62
     7
370
    25
100
AcDbLine
 10
130.2974254564
 20
158.3013045331
 30
0.0
 11
126.3887037263
 21
158.3013045331
 31
0.0
  0
SPLINE
  5
1F4
330
1F
100
AcDbEntity
  8
0
  6
Continuous
 62
     7
370
    25
100
AcDbSpline
210
0.0
220
0.0
230
1.0
 70
     8
 71
     3
 72
    15
 73
    11
 74
     0
 42
0.000000001
 43
0.00000001
 40
0.0
 40
0.0
 40
0.0
 40
0.0
 40
0.1323056877110733
 40
0.264573947988555
 40
0.3998012094750216
 40
0.5350039966972203
 40
0.6501944060393671
 40
0.7654027883544241
 40
0.8826900601954766
 40
1.0
 40
1.0
 40
1.0
 40
1.0
 10
130.2974254563811
 20
148.8013048385275
 30
0.0
 10
130.4265926522614
 20
149.2117440557517
 30
0.0
 10
130.6848905044238
 20
150.0325063826706
 30
0.0
 10
130.9628068092857
 20
151.2964084065893
 30
0.0
 10
131.129912266651
 20
152.5841339936561
 30
0.0
 10
131.1630014184199
 20
153.8252121886443
 30
0.0
 10
131.0771431244949
 20
154.9992374160046
 30
0.0
 10
130.9012128381282
 20
156.1072253503665
 30
0.0
 10
130.6431470459341
 20
157.2102037181492
 30
0.0
 10
130.4126734094064
 20
157.9375808338061
 30
0.0
 10
130.2974254563811
 20
158.3013045330537
 30
0.0
  0
LINE
  5
1F5
330
1F
100
AcDbEntity
  8
0
  6
Continuous
 62
     7
370
    25
100
AcDbLine
 10
130.2974254564
 20
148.8013048385
 30
0.0
 11
126.3887037263
 21
148.8013048385
 31
0.0
  0
LINE
  5
1F6
330
1F
100
AcDbEntity
  8
0
  6
Continuous
 62
     7
370
    25
100
AcDbLine
 10
126.232533969
 20
149.3449221909
 30
0.0
 11
126.3887037263
 21
148.8013048385
 31
0.0
  0
LINE
  5
1F7
330
1F
100
AcDbEntity
  8
0
  6
Continuous
 62
     7
370
    25
100
AcDbLine
 10
126.0763642118
 20
148.8013048385
 30
0.0
 11
126.232533969
 21
149.3449221909
 31
0.0
  0
LINE
  5
1F8
330
1F
100
AcDbEntity
  8
0
  6
Continuous
 62
     7
370
    25
100
AcDbLine
 10
126.0763642118
 20
148.8013048385
 30
0.0
 11
122.1676424817
 21
148.8013048385
 31
0.0
  0
SPLINE
  5
1F9
330
1F
100
AcDbEntity
  8
0
  6
Continuous
 62
     7
370
    25
100
AcDbSpline
210
0.0
220
0.0
230
1.0
 70
     8
 71
     3
 72
    15
 73
    11
 74
     0
 42
0.000000001
 43
0.00000001
 40
0.0
 40
0.0
 40
0.0
 40
0.0
 40
0.1323056870256098
 40
0.2645739466178221
 40
0.3998011982256617
 40
0.5350039884857264
 40
0.6501944024331601
 40
0.7654027729053947
 40
0.8826900608032485
 40
1.0
 40
1.0
 40
1.0
 40
1.0
 10
122.1676424816611
 20
148.8013048385275
 30
0.0
 10
122.0384753311763
 20
149.2117440583982
 30
0.0
 10
121.7801775697918
 20
150.0325063906093
 30
0.0
 10
121.5022605855475
 20
151.2964083455344
 30
0.0
 10
121.3351577885299
 20
152.5841340698913
 30
0.0
 10
121.3020644028892
 20
153.8252122138973
 30
0.0
 10
121.3879257160856
 20
154.9992372964726
 30
0.0
 10
121.5638533974532
 20
156.1072255377454
 30
0.0
 10
121.8219213010155
 20
157.2102036016271
 30
0.0
 10
122.0523946704046
 20
157.9375808121869
 30
0.0
 10
122.1676424816611
 20
158.3013045330537
 30
0.0
  0
LINE
  5
1FA
330
1F
100
AcDbEntity
  8
0
  6
Continuous
 62
     7
370
    25
100
AcDbLine
 10
126.0763642118
 20
158.3013045331
 30
0.0
 11
122.1676424817
 21
158.3013045331
 31
0.0
  0
LINE
  5
1FB
330
1F
100
AcDbEntity
  8
0
  6
Continuous
 62
     7
370
    25
100
AcDbLine
 10
126.232533969
 20
157.757687821
 30
0.0
 11
126.0763642118
 21
158.3013045331
 31
0.0
  0
LINE
  5
1FC
330
1F
100
AcDbEntity
  8
0
  6
Continuous
 62
     7
370
    25
100
AcDbLine
 10
126.3887037263
 20
158.3013045331
 30
0.0
 11
126.232533969
 21
157.757687821
 31
0.0
  0
SPLINE
  5
1FD
330
1F
100
AcDbEntity
  8
0
  6
Continuous
 62
     7
370
    25
100
AcDbSpline
210
0.0
220
0.0
230
1.0
 70
    24
 71
     3
 72
    12
 73
     8
 74
     0
 42
0.000000001
 43
0.00000001
 40
0.0
 40
0.0
 40
0.0
 40
0.0
 40
0.2375637331117265
 40
0.4883383717985307
 40
0.7390488841408717
 40
0.9959485041982258
 40
0.9999999999999999
 40
0.9999999999999999
 40
0.9999999999999999
 40
0.9999999999999999
 10
122.1676424816611
 20
158.3013045330537
 30
0.0
 10
122.051174357694
 20
158.3013045330537
 30
0.0
 10
121.811761324065
 20
158.3013045330537
 30
0.0
 10
121.5407185758489
 20
158.3013045330537
 30
0.0
 10
121.370811607039
 20
158.3013045330537
 30
0.0
 10
121.3000112450031
 20
158.3013045330537
 30
0.0
 10
121.3203383637316
 20
158.3013045330537
 30
0.0
 10
121.3206539601448
 20
158.3013045330537
 30
0.0
  0
SPLINE
  5
1FE
330
1F
100
AcDbEntity
  8
0
  6
Continuous
 62
     7
370
    25
100
AcDbSpline
210
0.0
220
0.0
230
1.0
 70
     8
 71
     3
 72
    15
 73
    11
 74
     0
 42
0.000000001
 43
0.00000001
 40
0.0
 40
0.0
 40
0.0
 40
0.0
 40
0.1323057012602369
 40
0.2645739697908265
 40
0.3998012006614076
 40
0.5350039728637891
 40
0.6501944257921894
 40
0.7654027576403793
 40
0.8826900749406439
 40
0.9999999999999999
 40
0.9999999999999999
 40
0.9999999999999999
 40
0.9999999999999999
 10
122.1676424816611
 20
139.3013051440013
 30
0.0
 10
122.0384753311253
 20
139.711744206485
 30
0.0
 10
121.7801775748054
 20
140.532506207549
 30
0.0
 10
121.5022606172912
 20
141.7964083008718
 30
0.0
 10
121.3351577739233
 20
143.0841342093682
 30
0.0
 10
121.3020644297153
 20
144.325212290658
 30
0.0
 10
121.3879256495345
 20
145.4992370045983
 30
0.0
 10
121.5638534891769
 20
146.607225745998
 30
0.0
 10
121.82192122487
 20
147.7102032221589
 30
0.0
 10
122.0523946592793
 20
148.437580934331
 30
0.0
 10
122.1676424816611
 20
148.8013048385275
 30
0.0
  0
SPLINE
  5
1FF
330
1F
100
AcDbEntity
  8
0
  6
Continuous
 62
     7
370
    25
100
AcDbSpline
210
0.0
220
0.0
230
1.0
 70
    24
 71
     3
 72
    11
 73
     7
 74
     0
 42
0.000000001
 43
0.00000001
 40
0.0
 40
0.0
 40
0.0
 40
0.0
 40
0.2481559872639724
 40
0.5052726874097306
 40
0.7624600135867317
 40
1.0
 40
1.0
 40
1.0
 40
1.0
 10
121.320176191664
 20
139.3013051440013
 30
0.0
 10
121.3309228219836
 20
139.3013051440013
 30
0.0
 10
121.3528041347901
 20
139.3013051440013
 30
0.0
 10
121.5378938179358
 20
139.3013051440013
 30
0.0
 10
121.8077326804724
 20
139.3013051440013
 30
0.0
 10
122.0508914408858
 20
139.3013051440013
 30
0.0
 10
122.1676424816611
 20
139.3013051440013
 30
0.0
  0
LINE
  5
200
330
1F
100
AcDbEntity
  8
0
  6
Continuous
 62
     7
370
    25
100
AcDbLine
 10
121.2325340808
 20
139.4513048892
 30
0.0
 11
121.2325340808
 21
158.1513047879
 31
0.0
  0
SPLINE
  5
201
330
1F
100
AcDbEntity
  8
0
  6
Continuous
 62
     7
370
    25
100
AcDbSpline
210
0.0
220
0.0
230
1.0
 70
    24
 71
     3
 72
    11
 73
     7
 74
     0
 42
0.000000001
 43
0.00000001
 40
0.0
 40
0.0
 40
0.0
 40
0.0
 40
0.2481559818516633
 40
0.5052726558164385
 40
0.7624599763841559
 40
1.0
 40
1.0
 40
1.0
 40
1.0
 10
131.1448917463782
 20
139.3013051440013
 30
0.0
 10
131.1341450233958
 20
139.3013051440013
 30
0.0
 10
131.1122635228083
 20
139.3013051440013
 30
0.0
 10
130.927175305226
 20
139.3013051440013
 30
0.0
 10
130.6573363517161
 20
139.3013051440013
 30
0.0
 10
130.4141768594027
 20
139.3013051440013
 30
0.0
 10
130.2974254563811
 20
139.3013051440013
 30
0.0
  0
SPLINE
  5
202
330
1F
100
AcDbEntity
  8
0
  6
Continuous
 62
     7
370
    25
100
AcDbSpline
210
0.0
220
0.0
230
1.0
 70
     8
 71
     3
 72
    15
 73
    11
 74
     0
 42
0.000000001
 43
0.00000001
 40
0.0
 40
0.0
 40
0.0
 40
0.0
 40
0.132305701945699
 40
0.2645739711615568
 40
0.3998012119107648
 40
0.5350039810752782
 40
0.6501944293983923
 40
0.7654027730894072
 40
0.8826900743328735
 40
1.0
 40
1.0
 40
1.0
 40
1.0
 10
130.2974254563811
 20
139.3013051440013
 30
0.0
 10
130.4265926523124
 20
139.7117442038385
 30
0.0
 10
130.6848904994103
 20
140.5325061996103
 30
0.0
 10
130.9628067775418
 20
141.7964083619268
 30
0.0
 10
131.1299122812574
 20
143.0841341331329
 30
0.0
 10
131.1630013915935
 20
144.3252122654051
 30
0.0
 10
131.077143191046
 20
145.4992371241303
 30
0.0
 10
130.9012127464044
 20
146.607225558619
 30
0.0
 10
130.6431471220795
 20
147.710203338681
 30
0.0
 10
130.4126734205317
 20
148.4375809559502
 30
0.0
 10
130.2974254563811
 20
148.8013048385275
 30
0.0
  0
SPLINE
  5
203
330
1F
100
AcDbEntity
  8
0
  6
Continuous
 62
     7
370
    25
100
AcDbSpline
210
0.0
220
0.0
230
1.0
 70
    24
 71
     3
 72
    12
 73
     8
 74
     0
 42
0.000000001
 43
0.00000001
 40
0.0
 40
0.0
 40
0.0
 40
0.0
 40
0.2375637714736754
 40
0.4883383730903471
 40
0.7390488811842721
 40
0.9959485042668805
 40
1.0
 40
1.0
 40
1.0
 40
1.0
 10
130.2974254563811
 20
158.3013045330537
 30
0.0
 10
130.4138940536117
 20
158.3013045330537
 30
0.0
 10
130.6533080220583
 20
158.3013045330537
 30
0.0
 10
130.9243490885188
 20
158.3013045330537
 30
0.0
 10
131.0942560297689
 20
158.3013045330537
 30
0.0
 10
131.1650576282567
 20
158.3013045330536
 30
0.0
 10
131.144730505684
 20
158.3013045330537
 30
0.0
 10
131.14441490922
 20
158.3013045330537
 30
0.0
  0
LINE
  5
204
330
1F
100
AcDbEntity
  8
0
  6
Continuous
 62
     7
370
    25
100
AcDbLine
 10
131.2325347886
 20
139.4513048892
 30
0.0
 11
131.2325347886
 21
158.1513047879
 31
0.0
  0
LINE
  5
205
330
1F
100
AcDbEntity
  8
0
  6
Continuous
 62
     7
370
    25
100
AcDbLine
 10
126.232533969
 20
148.2576874861
 30
0.0
 11
126.0763642118
 21
148.8013048385
 31
0.0
  0
LINE
  5
206
330
1F
100
AcDbEntity
  8
0
  6
Continuous
 62
     7
370
    25
100
AcDbLine
 10
126.232533969
 20
149.3449221909
 30
0.0
 11
126.232533969
 21
148.2576874861
 31
0.0
  0
LINE
  5
207
330
1F
100
AcDbEntity
  8
0
  6
Continuous
 62
     7
370
    25
100
AcDbLine
 10
126.3887037263
 20
148.8013048385
 30
0.0
 11
126.232533969
 21
148.2576874861
 31
0.0
  0
LINE
  5
208
330
1F
100
AcDbEntity
  8
0
  6
Continuous
 62
     7
370
    25
100
AcDbLine
 10
130.2974254564
 20
139.301305144
 30
0.0
 11
126.3887037263
 21
139.301305144
 31
0.0
  0
LINE
  5
209
330
1F
100
AcDbEntity
  8
0
  6
Continuous
 62
     7
370
    25
100
AcDbLine
 10
126.232533969
 20
139.8449218561
 30
0.0
 11
126.3887037263
 21
139.301305144
 31
0.0
  0
LINE
  5
20A
330
1F
100
AcDbEntity
  8
0
  6
Continuous
 62
     7
370
    25
100
AcDbLine
 10
126.0763642118
 20
139.301305144
 30
0.0
 11
126.232533969
 21
139.8449218561
 31
0.0
  0
LINE
  5
20B
330
1F
100
AcDbEntity
  8
0
  6
Continuous
 62
     7
370
    25
100
AcDbLine
 10
126.0763642118
 20
139.301305144
 30
0.0
 11
122.1676424817
 21
139.301305144
 31
0.0
  0
LINE
  5
20C
330
1F
100
AcDbEntity
  8
0
  6
Continuous
 62
     7
370
    25
100
AcDbLine
 10
133.2325332538
 20
139.7513043796
 30
0.0
 11
133.2325332538
 21
157.8513052975
 31
0.0
  0
LINE
  5
20D
330
1F
100
AcDbEntity
  8
0
  6
Continuous
 62
     7
370
    25
100
AcDbLine
 10
119.232533753
 20
157.8513052975
 30
0.0
 11
119.232533753
 21
139.7513043796
 31
0.0
  0
LINE
  5
20E
330
1F
100
AcDbEntity
  8
0
  6
Continuous
 62
     7
370
    25
100
AcDbLine
 10
126.232533969
 20
158.3013045331
 30
0.0
 11
126.232533969
 21
157.757687821
 31
0.0
  0
LINE
  5
20F
330
1F
100
AcDbEntity
  8
0
  6
Continuous
 62
     7
370
    25
100
AcDbLine
 10
126.232533969
 20
158.3013045331
 30
0.0
 11
126.3887037263
 21
158.3013045331
 31
0.0
  0
LINE
  5
210
330
1F
100
AcDbEntity
  8
0
  6
Continuous
 62
     7
370
    25
100
AcDbLine
 10
126.0763642118
 20
158.3013045331
 30
0.0
 11
126.232533969
 21
158.3013045331
 31
0.0
  0
LINE
  5
211
330
1F
100
AcDbEntity
  8
0
  6
Continuous
 62
     7
370
    25
100
AcDbLine
 10
126.232533969
 20
139.301305144
 30
0.0
 11
126.0763642118
 21
139.301305144
 31
0.0
  0
LINE
  5
212
330
1F
100
AcDbEntity
  8
0
  6
Continuous
 62
     7
370
    25
100
AcDbLine
 10
126.232533969
 20
139.8449218561
 30
0.0
 11
126.232533969
 21
139.301305144
 31
0.0
  0
LINE
  5
213
330
1F
100
AcDbEntity
  8
0
  6
Continuous
 62
     7
370
    25
100
AcDbLine
 10
126.3887037263
 20
139.301305144
 30
0.0
 11
126.232533969
 21
139.301305144
 31
0.0
  0
CIRCLE
  5
214
330
1F
100
AcDbEntity
  8
0
  6
Continuous
 62
     7
370
    25
100
AcDbCircle
 10
107.4564431534
 20
148.8013048385
 30
0.0
 40
7.0
  0
CIRCLE
  5
215
330
1F
100
AcDbEntity
  8
0
  6
Continuous
 62
     7
370
    25
100
AcDbCircle
 10
107.4564431534
 20
148.8013048385
 30
0.0
 40
8.197372169802065
  0
CIRCLE
  5
216
330
1F
100
AcDbEntity
  8
0
  6
Continuous
 62
     7
370
    25
100
AcDbCircle
 10
107.4564431534
 20
148.8013048385
 30
0.0
 40
5.5
  0
CIRCLE
  5
217
330
1F
100
AcDbEntity
  8
0
  6
Continuous
 62
     7
370
    25
100
AcDbCircle
 10
107.4564431534
 20
148.8013048385
 30
0.0
 40
4.999999999999986
  0
CIRCLE
  5
218
330
1F
100
AcDbEntity
  8
0
  6
Continuous
 62
     7
370
    25
100
AcDbCircle
 10
107.4564431534
 20
148.8013048385
 30
0.0
 40
8.533984201698033
  0
LINE
  5
219
330
1F
100
AcDbEntity
  8
0
  6
Continuous
 62
     7
370
    25
100
AcDbLine
 10
112.3379271217
 20
155.8013050546
 30
0.0
 11
113.2064431645
 21
155.8013050546
 31
0.0
  0
LINE
  5
21A
330
1F
100
AcDbEntity
  8
0
  6
Continuous
 62
     7
370
    25
100
AcDbLine
 10
113.2064431645
 20
155.8013050546
 30
0.0
 11
113.2064431645
 21
155.5513050136
 31
0.0
  0
LINE
  5
21B
330
1F
100
AcDbEntity
  8
0
  6
Continuous
 62
     7
370
    25
100
AcDbLine
 10
101.7064431422
 20
155.8013050546
 30
0.0
 11
102.574959185
 21
155.8013050546
 31
0.0
  0
LINE
  5
21C
330
1F
100
AcDbEntity
  8
0
  6
Continuous
 62
     7
370
    25
100
AcDbLine
 10
101.7064431422
 20
155.8013050546
 30
0.0
 11
101.7064431422
 21
155.5513050136
 31
0.0
  0
LINE
  5
21D
330
1F
100
AcDbEntity
  8
0
  6
Continuous
 62
     7
370
    25
100
AcDbLine
 10
102.574959185
 20
141.8013046225
 30
0.0
 11
101.7064431422
 21
141.8013046225
 31
0.0
  0
LINE
  5
21E
330
1F
100
AcDbEntity
  8
0
  6
Continuous
 62
     7
370
    25
100
AcDbLine
 10
101.7064431422
 20
142.0513046634
 30
0.0
 11
101.7064431422
 21
141.8013046225
 31
0.0
  0
LINE
  5
21F
330
1F
100
AcDbEntity
  8
0
  6
Continuous
 62
     7
370
    25
100
AcDbLine
 10
113.2064431645
 20
142.0513046634
 30
0.0
 11
113.2064431645
 21
141.8013046225
 31
0.0
  0
LINE
  5
220
330
1F
100
AcDbEntity
  8
0
  6
Continuous
 62
     7
370
    25
100
AcDbLine
 10
113.2064431645
 20
141.8013046225
 30
0.0
 11
112.3379271217
 21
141.8013046225
 31
0.0
  0
LINE
  5
221
330
1F
100
AcDbEntity
  8
0
  6
Continuous
 62
     7
370
    25
100
AcDbLine
 10
113.4564432055
 20
155.5513050136
 30
0.0
 11
113.2064431645
 21
155.5513050136
 31
0.0
  0
ARC
  5
222
330
1F
100
AcDbEntity
  8
0
  6
Continuous
 62
     7
370
    25
100
AcDbCircle
 10
113.2064431534
 20
155.5513048385
 30
0.0
 40
0.25
100
AcDbArc
 50
0.0
 51
90.0
  0
LINE
  5
223
330
1F
100
AcDbEntity
  8
0
  6
Continuous
 62
     7
370
    25
100
AcDbLine
 10
101.4564431012
 20
155.5513050136
 30
0.0
 11
101.7064431422
 21
155.5513050136
 31
0.0
  0
ARC
  5
224
330
1F
100
AcDbEntity
  8
0
  6
Continuous
 62
     7
370
    25
100
AcDbCircle
 10
101.7064431534
 20
155.5513048385
 30
0.0
 40
0.25
100
AcDbArc
 50
90.0
 51
180.0
  0
LINE
  5
225
330
1F
100
AcDbEntity
  8
0
  6
Continuous
 62
     7
370
    25
100
AcDbLine
 10
101.4564431012
 20
154.8699857396
 30
0.0
 11
101.4564431012
 21
155.5513050136
 31
0.0
  0
LINE
  5
226
330
1F
100
AcDbEntity
  8
0
  6
Continuous
 62
     7
370
    25
100
AcDbLine
 10
113.4564432055
 20
155.5513050136
 30
0.0
 11
113.4564432055
 21
154.8699857396
 31
0.0
  0
LINE
  5
227
330
1F
100
AcDbEntity
  8
0
  6
Continuous
 62
     7
370
    25
100
AcDbLine
 10
113.4564432055
 20
142.7326239374
 30
0.0
 11
113.4564432055
 21
142.0513046634
 31
0.0
  0
LINE
  5
228
330
1F
100
AcDbEntity
  8
0
  6
Continuous
 62
     7
370
    25
100
AcDbLine
 10
113.2064431645
 20
142.0513046634
 30
0.0
 11
113.4564432055
 21
142.0513046634
 31
0.0
  0
LINE
  5
229
330
1F
100
AcDbEntity
  8
0
  6
Continuous
 62
     7
370
    25
100
AcDbLine
 10
101.7064431422
 20
142.0513046634
 30
0.0
 11
101.4564431012
 21
142.0513046634
 31
0.0
  0
LINE
  5
22A
330
1F
100
AcDbEntity
  8
0
  6
Continuous
 62
     7
370
    25
100
AcDbLine
 10
101.4564431012
 20
142.0513046634
 30
0.0
 11
101.4564431012
 21
142.7326239374
 31
0.0
  0
ARC
  5
22B
330
1F
100
AcDbEntity
  8
0
  6
Continuous
 62
     7
370
    25
100
AcDbCircle
 10
113.2064431534
 20
142.0513048385
 30
0.0
 40
0.25
100
AcDbArc
 50
270.0
 51
0.0
  0
ARC
  5
22C
330
1F
100
AcDbEntity
  8
0
  6
Continuous
 62
     7
370
    25
100
AcDbCircle
 10
101.7064431534
 20
142.0513048385
 30
0.0
 40
0.25
100
AcDbArc
 50
180.0
 51
270.0
  0
LINE
  5
22D
330
1F
100
AcDbEntity
  8
0
  6
Continuous
 62
     7
370
    25
100
AcDbLine
 10
114.4564433694
 20
155.5513050136
 30
0.0
 11
113.4564432055
 21
155.5513050136
 31
0.0
  0
LINE
  5
22E
330
1F
100
AcDbEntity
  8
0
  6
Continuous
 62
     7
370
    25
100
AcDbLine
 10
114.4564433694
 20
155.8013050546
 30
0.0
 11
114.4564433694
 21
155.5513050136
 31
0.0
  0
LINE
  5
22F
330
1F
100
AcDbEntity
  8
0
  6
Continuous
 62
     7
370
    25
100
AcDbLine
 10
113.2064431645
 20
155.8013050546
 30
0.0
 11
114.4564433694
 21
155.8013050546
 31
0.0
  0
SPLINE
  5
230
330
1F
100
AcDbEntity
  8
0
  6
Continuous
 62
     7
370
    25
100
AcDbSpline
210
0.0
220
0.0
230
1.0
 70
    24
 71
     3
 72
    14
 73
    10
 74
     0
 42
0.000000001
 43
0.00000001
 40
0.0
 40
0.0
 40
0.0
 40
0.0
 40
0.25
 40
0.25
 40
0.5
 40
0.5
 40
0.75
 40
0.75
 40
1.0
 40
1.0
 40
1.0
 40
1.0
 10
115.2064431533578
 20
141.8013048385275
 30
0.0
 10
115.2064431533578
 20
141.8013048385275
 30
0.0
 10
115.2064431533578
 20
141.8112295284529
 30
0.0
 10
115.2064431533578
 20
141.8510242311156
 30
0.0
 10
115.2064431533578
 20
141.8808945763372
 30
0.0
 10
115.2064431533578
 20
141.9608641162692
 30
0.0
 10
115.2064431533578
 20
142.0109639967051
 30
0.0
 10
115.2064431533578
 20
142.1318485456929
 30
0.0
 10
115.2064431533578
 20
142.2026342942816
 30
0.0
 10
115.2064431533578
 20
142.2840634592172
 30
0.0
  0
LINE
  5
231
330
1F
100
AcDbEntity
  8
0
  6
Continuous
 62
     7
370
    25
100
AcDbLine
 10
115.2064430267
 20
144.5376961221
 30
0.0
 11
115.2064430267
 21
142.2840635953
 31
0.0
  0
LINE
  5
232
330
1F
100
AcDbEntity
  8
0
  6
Continuous
 62
     7
370
    25
100
AcDbLine
 10
115.2064430267
 20
155.3185460818
 30
0.0
 11
115.2064430267
 21
153.064913555
 31
0.0
  0
SPLINE
  5
233
330
1F
100
AcDbEntity
  8
0
  6
Continuous
 62
     7
370
    25
100
AcDbSpline
210
0.0
220
0.0
230
1.0
 70
    24
 71
     3
 72
    14
 73
    10
 74
     0
 42
0.000000001
 43
0.00000001
 40
0.0
 40
0.0
 40
0.0
 40
0.0
 40
0.25
 40
0.25
 40
0.5
 40
0.5
 40
0.75
 40
0.75
 40
1.0
 40
1.0
 40
1.0
 40
1.0
 10
115.2064431533578
 20
155.8013048385275
 30
0.0
 10
115.2064431533578
 20
155.8013048385275
 30
0.0
 10
115.2064431533578
 20
155.7913801486021
 30
0.0
 10
115.2064431533578
 20
155.7515854459394
 30
0.0
 10
115.2064431533578
 20
155.7217151007177
 30
0.0
 10
115.2064431533578
 20
155.6417455607858
 30
0.0
 10
115.2064431533578
 20
155.5916456803499
 30
0.0
 10
115.2064431533578
 20
155.4707611313621
 30
0.0
 10
115.2064431533578
 20
155.3999753827734
 30
0.0
 10
115.2064431533578
 20
155.3185462178378
 30
0.0
  0
LINE
  5
234
330
1F
100
AcDbEntity
  8
0
  6
Continuous
 62
     7
370
    25
100
AcDbLine
 10
113.4564432055
 20
142.0513046634
 30
0.0
 11
114.4564433694
 21
142.0513046634
 31
0.0
  0
LINE
  5
235
330
1F
100
AcDbEntity
  8
0
  6
Continuous
 62
     7
370
    25
100
AcDbLine
 10
114.4564433694
 20
142.0513046634
 30
0.0
 11
114.4564433694
 21
141.8013046225
 31
0.0
  0
LINE
  5
236
330
1F
100
AcDbEntity
  8
0
  6
Continuous
 62
     7
370
    25
100
AcDbLine
 10
114.4564433694
 20
141.8013046225
 30
0.0
 11
113.2064431645
 21
141.8013046225
 31
0.0
  0
LWPOLYLINE
  5
237
330
1F
100
AcDbEntity
  8
0
  6
Continuous
 62
     7
370
    25
100
AcDbPolyline
 90
        9
 70
   128
 43
0.0
 10
115.2064430267
 20
153.064913555
 10
115.1576705948
 20
153.0678393048
 10
115.1107724496
 20
153.0765043301
 10
115.0675507002
 20
153.0905761485
 10
115.0296663605
 20
153.1095127304
 10
114.9985755533
 20
153.1325876442
 10
114.9754731655
 20
153.1589133394
 10
114.9612467476
 20
153.1874783997
 10
114.9564429857
 20
153.2171852616
  0
LWPOLYLINE
  5
238
330
1F
100
AcDbEntity
  8
0
  6
Continuous
 62
     7
370
    25
100
AcDbPolyline
 90
        9
 70
   128
 43
0.0
 10
114.9564429857
 20
144.3854244155
 10
114.9612467476
 20
144.4151312773
 10
114.9754731655
 20
144.4436963377
 10
114.9985755533
 20
144.4700220329
 10
115.0296663605
 20
144.4930969466
 10
115.0675507002
 20
144.5120335286
 10
115.1107724496
 20
144.526105347
 10
115.1576705948
 20
144.5347703722
 10
115.2064430267
 20
144.5376961221
  0
LINE
  5
239
330
1F
100
AcDbEntity
  8
0
  6
Continuous
 62
     7
370
    25
100
AcDbLine
 10
114.7064429447
 20
155.8013050546
 30
0.0
 11
114.7064429447
 21
155.5513050136
 31
0.0
  0
LINE
  5
23A
330
1F
100
AcDbEntity
  8
0
  6
Continuous
 62
     7
370
    25
100
AcDbLine
 10
114.7064429447
 20
155.5513050136
 30
0.0
 11
114.4564433694
 21
155.5513050136
 31
0.0
  0
LINE
  5
23B
330
1F
100
AcDbEntity
  8
0
  6
Continuous
 62
     7
370
    25
100
AcDbLine
 10
114.4564433694
 20
155.8013050546
 30
0.0
 11
114.7064429447
 21
155.8013050546
 31
0.0
  0
LINE
  5
23C
330
1F
100
AcDbEntity
  8
0
  6
Continuous
 62
     7
370
    25
100
AcDbLine
 10
114.9564429857
 20
155.5513050136
 30
0.0
 11
114.7064429447
 21
155.5513050136
 31
0.0
  0
ARC
  5
23D
330
1F
100
AcDbEntity
  8
0
  6
Continuous
 62
     7
370
    25
100
AcDbCircle
 10
114.7064431534
 20
155.5513048385
 30
0.0
 40
0.25
100
AcDbArc
 50
0.0
 51
90.0
  0
LINE
  5
23E
330
1F
100
AcDbEntity
  8
0
  6
Continuous
 62
     7
370
    25
100
AcDbLine
 10
114.9564429857
 20
155.5513050136
 30
0.0
 11
114.9564429857
 21
153.2171852616
 31
0.0
  0
LINE
  5
23F
330
1F
100
AcDbEntity
  8
0
  6
Continuous
 62
     7
370
    25
100
AcDbLine
 10
114.4564433694
 20
142.0513046634
 30
0.0
 11
114.7064429447
 21
142.0513046634
 31
0.0
  0
LINE
  5
240
330
1F
100
AcDbEntity
  8
0
  6
Continuous
 62
     7
370
    25
100
AcDbLine
 10
114.9564429857
 20
144.3854244155
 30
0.0
 11
114.9564429857
 21
142.0513046634
 31
0.0
  0
LINE
  5
241
330
1F
100
AcDbEntity
  8
0
  6
Continuous
 62
     7
370
    25
100
AcDbLine
 10
114.7064429447
 20
142.0513046634
 30
0.0
 11
114.9564429857
 21
142.0513046634
 31
0.0
  0
ARC
  5
242
330
1F
100
AcDbEntity
  8
0
  6
Continuous
 62
     7
370
    25
100
AcDbCircle
 10
114.7064431534
 20
142.0513048385
 30
0.0
 40
0.25
100
AcDbArc
 50
270.0
 51
0.0
  0
LINE
  5
243
330
1F
100
AcDbEntity
  8
0
  6
Continuous
 62
     7
370
    25
100
AcDbLine
 10
114.7064429447
 20
142.0513046634
 30
0.0
 11
114.7064429447
 21
141.8013046225
 31
0.0
  0
LINE
  5
244
330
1F
100
AcDbEntity
  8
0
  6
Continuous
 62
     7
370
    25
100
AcDbLine
 10
114.7064429447
 20
141.8013046225
 30
0.0
 11
114.4564433694
 21
141.8013046225
 31
0.0
  0
SPLINE
  5
245
330
1F
100
AcDbEntity
  8
0
  6
Continuous
 62
     7
370
    25
100
AcDbSpline
210
0.0
220
0.0
230
1.0
 70
     8
 71
     3
 72
     8
 73
     4
 74
     0
 42
0.000000001
 43
0.00000001
 40
0.0
 40
0.0
 40
0.0
 40
0.0
 40
1.0
 40
1.0
 40
1.0
 40
1.0
 10
115.2064431533578
 20
155.3185462178378
 30
0.0
 10
115.1409904729217
 20
155.3201161205346
 30
0.0
 10
115.0759409079134
 20
155.3467714549386
 30
0.0
 10
115.0296604474311
 20
155.39147301856
 30
0.0
  0
SPLINE
  5
246
330
1F
100
AcDbEntity
  8
0
  6
Continuous
 62
     7
370
    25
100
AcDbSpline
210
0.0
220
0.0
230
1.0
 70
     8
 71
     3
 72
    14
 73
    10
 74
     0
 42
0.000000001
 43
0.00000001
 40
0.0
 40
0.0
 40
0.0
 40
0.0
 40
0.245589323567575
 40
0.455618196314265
 40
0.6303106213393797
 40
0.77011643036692
 40
0.8759901151610914
 40
0.9502659312389357
 40
1.0
 40
1.0
 40
1.0
 40
1.0
 10
115.0296604474311
 20
155.39147301856
 30
0.0
 10
115.0186954081158
 20
155.4033639590992
 30
0.0
 10
114.9983530277436
 20
155.4254240747518
 30
0.0
 10
114.9782010152672
 20
155.460987773072
 30
0.0
 10
114.9660814557963
 20
155.4917800816752
 30
0.0
 10
114.9598756325639
 20
155.517019664248
 30
0.0
 10
114.9572559335901
 20
155.5350019571829
 30
0.0
 10
114.956475739245
 20
155.5479241205988
 30
0.0
 10
114.9564524810421
 20
155.5503371107048
 30
0.0
 10
114.9564431533578
 20
155.5513048385275
 30
0.0
  0
SPLINE
  5
247
330
1F
100
AcDbEntity
  8
0
  6
Continuous
 62
     7
370
    25
100
AcDbSpline
210
0.0
220
0.0
230
1.0
 70
     8
 71
     3
 72
    15
 73
    11
 74
     0
 42
0.000000001
 43
0.00000001
 40
0.0
 40
0.0
 40
0.0
 40
0.0
 40
0.0425877399909041
 40
0.1028282325346875
 40
0.1864706729280299
 40
0.2956205441869006
 40
0.4311891005861807
 40
0.5936297641565581
 40
0.7831876993469636
 40
1.0
 40
1.0
 40
1.0
 40
1.0
 10
114.9564431533578
 20
142.0513048385275
 30
0.0
 10
114.95644894646
 20
142.0520203401243
 30
0.0
 10
114.9564629339233
 20
142.0537479209866
 30
0.0
 10
114.9569546347551
 20
142.0636221000815
 30
0.0
 10
114.9585819887137
 20
142.0775157799038
 30
0.0
 10
114.9624071370978
 20
142.0970130377255
 30
0.0
 10
114.9697794471386
 20
142.1212178905747
 30
0.0
 10
114.9823974361154
 20
142.1495865472389
 30
0.0
 10
115.0016416383196
 20
142.1811257179825
 30
0.0
 10
115.0199123846898
 20
142.2006955105548
 30
0.0
 10
115.0296604474311
 20
142.211136658495
 30
0.0
  0
SPLINE
  5
248
330
1F
100
AcDbEntity
  8
0
  6
Continuous
 62
     7
370
    25
100
AcDbSpline
210
0.0
220
0.0
230
1.0
 70
     8
 71
     3
 72
     8
 73
     4
 74
     0
 42
0.000000001
 43
0.00000001
 40
0.0
 40
0.0
 40
0.0
 40
0.0
 40
1.0
 40
1.0
 40
1.0
 40
1.0
 10
115.0296604474311
 20
142.211136658495
 30
0.0
 10
115.0759409079134
 20
142.2558382221164
 30
0.0
 10
115.1409904729217
 20
142.2824935565203
 30
0.0
 10
115.2064431533578
 20
142.2840634592172
 30
0.0
  0
SPLINE
  5
249
330
1F
100
AcDbEntity
  8
0
  6
Continuous
 62
     7
370
    25
100
AcDbSpline
210
0.0
220
0.0
230
1.0
 70
     8
 71
     3
 72
    16
 73
    12
 74
     0
 42
0.000000001
 43
0.00000001
 40
0.0
 40
0.0
 40
0.0
 40
0.0
 40
0.2500000000000001
 40
0.2500000000000001
 40
0.5000000000000001
 40
0.5000000000000001
 40
0.625
 40
0.625
 40
0.7500000000000001
 40
0.7500000000000001
 40
1.0
 40
1.0
 40
1.0
 40
1.0
 10
110.6187208135262
 20
152.6742881847349
 30
0.0
 10
110.2485903632357
 20
152.633010511886
 30
0.0
 10
109.8768830382704
 20
152.5825532622092
 30
0.0
 10
109.1215201720391
 20
152.4758387574168
 30
0.0
 10
108.7358271563121
 20
152.418610815898
 30
0.0
 10
108.1462623716086
 20
152.3584124155979
 30
0.0
 10
107.9475793346617
 20
152.3429682960536
 30
0.0
 10
107.5441020511112
 20
152.3275960950544
 30
0.0
 10
107.337654061904
 20
152.3280523555466
 30
0.0
 10
106.7328177547996
 20
152.3534682663383
 30
0.0
 10
106.3421034502486
 20
152.4008080987903
 30
0.0
 10
105.9564431533578
 20
152.4531641020634
 30
0.0
  0
SPLINE
  5
24A
330
1F
100
AcDbEntity
  8
0
  6
Continuous
 62
     7
370
    25
100
AcDbSpline
210
0.0
220
0.0
230
1.0
 70
     8
 71
     3
 72
    16
 73
    12
 74
     0
 42
0.000000001
 43
0.00000001
 40
0.0
 40
0.0
 40
0.0
 40
0.0
 40
0.2500000000000001
 40
0.2500000000000001
 40
0.5000000000000001
 40
0.5000000000000001
 40
0.625
 40
0.625
 40
0.7499999999999999
 40
0.7499999999999999
 40
1.0
 40
1.0
 40
1.0
 40
1.0
 10
105.9564431533578
 20
145.1494455749918
 30
0.0
 10
106.339998072904
 20
145.2015157589984
 30
0.0
 10
106.7308634785632
 20
145.2492281791249
 30
0.0
 10
107.5478185342849
 20
145.283218413521
 30
0.0
 10
107.9477394685556
 20
145.2644335571916
 30
0.0
 10
108.5387328831621
 20
145.2041404927568
 30
0.0
 10
108.7349643758857
 20
145.1793363732994
 30
0.0
 10
109.1207619305728
 20
145.1272905771571
 30
0.0
 10
109.3109642133918
 20
145.1000065423285
 30
0.0
 10
109.8770498644708
 20
145.0200338800354
 30
0.0
 10
110.2486379830019
 20
144.9695938545194
 30
0.0
 10
110.6187208135262
 20
144.9283214923201
 30
0.0
  0
LINE
  5
24B
330
1F
100
AcDbEntity
  8
0
  6
Continuous
 62
     7
370
    25
100
AcDbLine
 10
105.9564431403
 20
145.1494455998
 30
0.0
 11
105.9564431403
 21
152.4531640773
 31
0.0
  0
SPLINE
  5
24C
330
1F
100
AcDbEntity
  8
0
  6
Continuous
 62
     7
370
    25
100
AcDbSpline
210
0.0
220
0.0
230
1.0
 70
    11
 71
     3
 72
    62
 73
    58
 74
     0
 42
0.000000001
 43
0.00000001
 40
0.0
 40
0.0
 40
0.0
 40
0.0
 40
0.0000024013284194
 40
0.0000024013284194
 40
0.0000024013284194
 40
0.0000048026978684
 40
0.0000048026978684
 40
0.0000048026978684
 40
0.0000072062406814
 40
0.0000072062406814
 40
0.0000072062406814
 40
0.0000096132436059
 40
0.0000096132436059
 40
0.0000096132436059
 40
0.0000120234788493
 40
0.0000120234788493
 40
0.0000120234788493
 40
0.0000144353099142
 40
0.0000144353099142
 40
0.0000144353099142
 40
0.0000168464025177
 40
0.0000168464025177
 40
0.0000168464025177
 40
0.0000192547387027
 40
0.0000192547387027
 40
0.0000192547387027
 40
0.0000216595037013
 40
0.0000216595037013
 40
0.0000216595037013
 40
0.0000240614530891
 40
0.0000240614530891
 40
0.0000240614530891
 40
0.0000264625834291
 40
0.0000264625834291
 40
0.0000264625834291
 40
0.0000288652480329
 40
0.0000288652480329
 40
0.0000288652480329
 40
0.0000312711198769
 40
0.0000312711198769
 40
0.0000312711198769
 40
0.0000336804649592
 40
0.0000336804649592
 40
0.0000336804649592
 40
0.0000360920343575
 40
0.0000360920343575
 40
0.0000360920343575
 40
0.0000385036089495
 40
0.0000385036089495
 40
0.0000385036089495
 40
0.0000409129620263
 40
0.0000409129620263
 40
0.0000409129620263
 40
0.0000433188334322
 40
0.0000433188334322
 40
0.0000433188334322
 40
0.0000448099169402
 40
0.0000448099169402
 40
0.0000448099169402
 40
0.0000448099169402
 10
107.4564021304864
 20
148.794132701667
 30
0.0
 10
107.4556017008516
 20
148.7941372936322
 30
0.0
 10
107.4547910328305
 20
148.7942801697026
 30
0.0
 10
107.4540372390209
 20
148.7945494342051
 30
0.0
 10
107.453283419364
 20
148.7948187079406
 30
0.0
 10
107.452565709667
 20
148.7952217813055
 30
0.0
 10
107.4519433524882
 20
148.7957251933391
 30
0.0
 10
107.4513204309621
 20
148.7962290618618
 30
0.0
 10
107.450775877962
 20
148.796847307578
 30
0.0
 10
107.4503545150739
 20
148.797528753183
 30
0.0
 10
107.4499325522037
 20
148.798211169104
 30
0.0
 10
107.4496225041644
 20
148.7989757474719
 30
0.0
 10
107.4494498541606
 20
148.7997592884425
 30
0.0
 10
107.4492769768237
 20
148.8005438611231
 30
0.0
 10
107.4492370952861
 20
148.8013690683684
 30
0.0
 10
107.4493334894229
 20
148.8021666579228
 30
0.0
 10
107.4494299449462
 20
148.8029647554044
 30
0.0
 10
107.4496655221238
 20
148.8037572230738
 30
0.0
 10
107.4500208010017
 20
148.8044783609795
 30
0.0
 10
107.4503759663258
 20
148.805199268396
 30
0.0
 10
107.4508605839805
 20
148.8058688006517
 30
0.0
 10
107.4514345793973
 20
148.8064312764106
 30
0.0
 10
107.4520079211073
 20
148.8069931115822
 30
0.0
 10
107.4526862939107
 20
148.8074636506975
 30
0.0
 10
107.4534134603412
 20
148.8078036634502
 30
0.0
 10
107.45413956332
 20
148.8081431789478
 30
0.0
 10
107.4549343781757
 20
148.8083619214837
 30
0.0
 10
107.4557319630385
 20
148.808441639608
 30
0.0
 10
107.4565286359756
 20
148.8085212665859
 30
0.0
 10
107.4573500532052
 20
148.8084643878236
 30
0.0
 10
107.4581281542737
 20
148.8082757430156
 30
0.0
 10
107.458906007446
 20
148.8080871583082
 30
0.0
 10
107.4596620083143
 20
148.8077617084585
 30
0.0
 10
107.4603336916533
 20
148.8073264373703
 30
0.0
 10
107.4610058091754
 20
148.8068908849182
 30
0.0
 10
107.4616120123684
 20
148.8063333931612
 30
0.0
 10
107.4621023660006
 20
148.8057001466349
 30
0.0
 10
107.4625933689565
 20
148.8050660615668
 30
0.0
 10
107.4629817416924
 20
148.8043385744424
 30
0.0
 10
107.4632355557078
 20
148.8035778336715
 30
0.0
 10
107.4634897300543
 20
148.8028160129029
 30
0.0
 10
107.4636159688702
 20
148.8019998579722
 30
0.0
 10
107.4636038944458
 20
148.8011968449728
 30
0.0
 10
107.4635918091983
 20
148.8003931121852
 30
0.0
 10
107.4634408216635
 20
148.799580374546
 30
0.0
 10
107.4631633676477
 20
148.7988259532458
 30
0.0
 10
107.4628859180512
 20
148.7980715439619
 30
0.0
 10
107.4624743285606
 20
148.7973546185871
 30
0.0
 10
107.4619626017494
 20
148.7967347419591
 30
0.0
 10
107.4614513470485
 20
148.7961154372186
 30
0.0
 10
107.4608259972107
 20
148.7955758971812
 30
0.0
 10
107.4601383610562
 20
148.7951610763229
 30
0.0
 10
107.4594517075416
 20
148.7947468482485
 30
0.0
 10
107.4586839674472
 20
148.7944455468528
 30
0.0
 10
107.4578988352606
 20
148.7942823116887
 30
0.0
 10
107.4574079446975
 20
148.7941802516751
 30
0.0
 10
107.4569035101328
 20
148.7941298253144
 30
0.0
 10
107.4564021304864
 20
148.794132701667
 30
0.0
  0
SPLINE
  5
24D
330
1F
100
AcDbEntity
  8
0
  6
Continuous
 62
     7
370
    25
100
AcDbSpline
210
0.0
220
0.0
230
1.0
 70
     8
 71
     3
 72
    12
 73
     8
 74
     0
 42
0.000000001
 43
0.00000001
 40
0.0
 40
0.0
 40
0.0
 40
0.0
 40
0.25
 40
0.25
 40
0.5
 40
0.5
 40
1.0
 40
1.0
 40
1.0
 40
1.0
 10
114.9581629110121
 20
155.8001952992454
 30
0.0
 10
114.9684050094612
 20
155.8002039066306
 30
0.0
 10
114.9830877239246
 20
155.7916127714458
 30
0.0
 10
115.0149101145824
 20
155.7553031719355
 30
0.0
 10
115.0320497907769
 20
155.72758470761
 30
0.0
 10
115.0775178565105
 20
155.6128465549218
 30
0.0
 10
115.0706850054463
 20
155.511235712291
 30
0.0
 10
115.0296604474311
 20
155.39147301856
 30
0.0
  0
SPLINE
  5
24E
330
1F
100
AcDbEntity
  8
0
  6
Continuous
 62
     7
370
    25
100
AcDbSpline
210
0.0
220
0.0
230
1.0
 70
     8
 71
     3
 72
    12
 73
     8
 74
     0
 42
0.000000001
 43
0.00000001
 40
0.0
 40
0.0
 40
0.0
 40
0.0
 40
0.25
 40
0.25
 40
0.5
 40
0.5
 40
1.0
 40
1.0
 40
1.0
 40
1.0
 10
114.9581629110121
 20
155.8001952992454
 30
0.0
 10
114.9479208125631
 20
155.8001866918602
 30
0.0
 10
114.9403816010097
 20
155.7915768815301
 30
0.0
 10
114.9260520853854
 20
155.7700957712598
 30
0.0
 10
114.9192617813144
 20
155.7572244713197
 30
0.0
 10
114.8930289308611
 20
155.7316297115045
 30
0.0
 10
114.8833462141728
 20
155.7279551683058
 30
0.0
 10
114.8832198486529
 20
155.7280815338256
 30
0.0
  0
SPLINE
  5
24F
330
1F
100
AcDbEntity
  8
0
  6
Continuous
 62
     7
370
    25
100
AcDbSpline
210
0.0
220
0.0
230
1.0
 70
     8
 71
     3
 72
    10
 73
     6
 74
     0
 42
0.000000001
 43
0.00000001
 40
0.0
 40
0.0
 40
0.0
 40
0.0
 40
0.5
 40
0.5
 40
1.0
 40
1.0
 40
1.0
 40
1.0
 10
114.9581629110121
 20
155.8001952992454
 30
0.0
 10
114.9171945172158
 20
155.8001608697046
 30
0.0
 10
114.8732300074713
 20
155.8004690800416
 30
0.0
 10
114.7821833677275
 20
155.805423813422
 30
0.0
 10
114.7492349271467
 20
155.8013048385275
 30
0.0
 10
114.7064431533578
 20
155.8013048385275
 30
0.0
  0
SPLINE
  5
250
330
1F
100
AcDbEntity
  8
0
  6
Continuous
 62
     7
370
    25
100
AcDbSpline
210
0.0
220
0.0
230
1.0
 70
     8
 71
     3
 72
    14
 73
    10
 74
     0
 42
0.000000001
 43
0.00000001
 40
0.0
 40
0.0
 40
0.0
 40
0.0
 40
0.25
 40
0.25
 40
0.5
 40
0.5
 40
0.75
 40
0.75
 40
1.0
 40
1.0
 40
1.0
 40
1.0
 10
114.9581629110121
 20
141.8024143778096
 30
0.0
 10
114.9684050094612
 20
141.8024057704243
 30
0.0
 10
114.9830877239246
 20
141.8109969056092
 30
0.0
 10
115.0149101145824
 20
141.8473065051195
 30
0.0
 10
115.0320497907769
 20
141.8750249694449
 30
0.0
 10
115.0623618345993
 20
141.951517071237
 30
0.0
 10
115.0682316327888
 20
141.9960428073428
 30
0.0
 10
115.0621370787085
 20
142.095911927539
 30
0.0
 10
115.0501727264387
 20
142.1512553116295
 30
0.0
 10
115.0296604474311
 20
142.211136658495
 30
0.0
  0
SPLINE
  5
251
330
1F
100
AcDbEntity
  8
0
  6
Continuous
 62
     7
370
    25
100
AcDbSpline
210
0.0
220
0.0
230
1.0
 70
     8
 71
     3
 72
    12
 73
     8
 74
     0
 42
0.000000001
 43
0.00000001
 40
0.0
 40
0.0
 40
0.0
 40
0.0
 40
0.25
 40
0.25
 40
0.5
 40
0.5
 40
1.0
 40
1.0
 40
1.0
 40
1.0
 10
114.9581629110121
 20
141.8024143778096
 30
0.0
 10
114.9479208125631
 20
141.8024229851947
 30
0.0
 10
114.9403816010097
 20
141.8110327955249
 30
0.0
 10
114.9260520853854
 20
141.8325139057952
 30
0.0
 10
114.9192617813144
 20
141.8453852057353
 30
0.0
 10
114.8930289308611
 20
141.8709799655505
 30
0.0
 10
114.8833462141728
 20
141.8746545087492
 30
0.0
 10
114.8832198486529
 20
141.8745281432294
 30
0.0
  0
SPLINE
  5
252
330
1F
100
AcDbEntity
  8
0
  6
Continuous
 62
     7
370
    25
100
AcDbSpline
210
0.0
220
0.0
230
1.0
 70
     8
 71
     3
 72
    10
 73
     6
 74
     0
 42
0.000000001
 43
0.00000001
 40
0.0
 40
0.0
 40
0.0
 40
0.0
 40
0.5
 40
0.5
 40
1.0
 40
1.0
 40
1.0
 40
1.0
 10
114.9581629110121
 20
141.8024143778096
 30
0.0
 10
114.9171945172158
 20
141.8024488073503
 30
0.0
 10
114.8732300074713
 20
141.8021405970134
 30
0.0
 10
114.7821833677275
 20
141.797185863633
 30
0.0
 10
114.7492349271467
 20
141.8013048385275
 30
0.0
 10
114.7064431533578
 20
141.8013048385275
 30
0.0
  0
SPLINE
  5
253
330
1F
100
AcDbEntity
  8
0
  6
Continuous
 62
     7
370
    25
100
AcDbSpline
210
0.0
220
0.0
230
1.0
 70
     8
 71
     3
 72
    10
 73
     6
 74
     0
 42
0.000000001
 43
0.00000001
 40
0.0
 40
0.0
 40
0.0
 40
0.0
 40
0.5
 40
0.5
 40
1.0
 40
1.0
 40
1.0
 40
1.0
 10
114.9581629110121
 20
155.8001952992454
 30
0.0
 10
114.9991313048084
 20
155.8002297287862
 30
0.0
 10
115.0425867518803
 20
155.8006114062204
 30
0.0
 10
115.1316725970976
 20
155.7969193920942
 30
0.0
 10
115.1640598257129
 20
155.8013048385275
 30
0.0
 10
115.2064431533578
 20
155.8013048385275
 30
0.0
  0
SPLINE
  5
254
330
1F
100
AcDbEntity
  8
0
  6
Continuous
 62
     7
370
    25
100
AcDbSpline
210
0.0
220
0.0
230
1.0
 70
     8
 71
     3
 72
    10
 73
     6
 74
     0
 42
0.000000001
 43
0.00000001
 40
0.0
 40
0.0
 40
0.0
 40
0.0
 40
0.5
 40
0.5
 40
1.0
 40
1.0
 40
1.0
 40
1.0
 10
114.9581629110121
 20
141.8024143778096
 30
0.0
 10
114.9991313048084
 20
141.8023799482687
 30
0.0
 10
115.0425867518803
 20
141.8019982708346
 30
0.0
 10
115.1316725970976
 20
141.8056902849608
 30
0.0
 10
115.1640598257129
 20
141.8013048385275
 30
0.0
 10
115.2064431533578
 20
141.8013048385275
 30
0.0
  0
SPLINE
  5
255
330
1F
100
AcDbEntity
  8
0
  6
Continuous
 62
     7
370
    25
100
AcDbSpline
210
0.0
220
0.0
230
1.0
 70
     8
 71
     3
 72
    18
 73
    14
 74
     0
 42
0.000000001
 43
0.00000001
 40
0.0
 40
0.0
 40
0.0
 40
0.0
 40
0.2499999999999999
 40
0.2499999999999999
 40
0.3749999999999999
 40
0.3749999999999999
 40
0.5
 40
0.5
 40
0.6250000000000001
 40
0.6250000000000001
 40
0.75
 40
0.75
 40
1.0
 40
1.0
 40
1.0
 40
1.0
 10
105.9564431533578
 20
152.4531641020633
 30
0.0
 10
105.7147027566755
 20
151.8996555021544
 30
0.0
 10
105.5016705557776
 20
151.32886035883
 30
0.0
 10
105.2731314581476
 20
150.4178244486126
 30
0.0
 10
105.2123787501054
 20
150.1013488495188
 30
0.0
 10
105.1328663393683
 20
149.4612765575365
 30
0.0
 10
105.1133557849807
 20
149.1381464218467
 30
0.0
 10
105.1125541910214
 20
148.4847226515057
 30
0.0
 10
105.1318822979568
 20
148.1538125114218
 30
0.0
 10
105.210174856215
 20
147.5146248760961
 30
0.0
 10
105.2693341850009
 20
147.2022097075779
 30
0.0
 10
105.4987174829033
 20
146.2811004281171
 30
0.0
 10
105.7137487977922
 20
145.705138437246
 30
0.0
 10
105.9564431533578
 20
145.1494455749918
 30
0.0
  0
LINE
  5
256
330
1F
100
AcDbEntity
  8
0
  6
Continuous
 62
     8
370
    25
100
AcDbLine
 10
132.9325337634
 20
139.4513048892
 30
0.0
 11
132.9325337634
 21
158.1513047879
 31
0.0
  0
LINE
  5
257
330
1F
100
AcDbEntity
  8
0
  6
Continuous
 62
     8
370
    25
100
AcDbLine
 10
119.5325341747
 20
158.1513047879
 30
0.0
 11
119.5325341747
 21
139.4513048892
 31
0.0
  0
LINE
  5
258
330
1F
100
AcDbEntity
  8
0
  6
Continuous
 62
     8
370
    25
100
AcDbLine
 10
118.4564430938
 20
141.8013046225
 30
0.0
 11
118.4564430938
 21
155.8013050546
 31
0.0
  0
LINE
  5
259
330
1F
100
AcDbEntity
  8
0
  6
Continuous
 62
     8
370
    25
100
AcDbLine
 10
113.2064431645
 20
155.5513050136
 30
0.0
 11
112.6781658009
 21
155.5513050136
 31
0.0
  0
LINE
  5
25A
330
1F
100
AcDbEntity
  8
0
  6
Continuous
 62
     8
370
    25
100
AcDbLine
 10
102.2347205058
 20
155.5513050136
 30
0.0
 11
101.7064431422
 21
155.5513050136
 31
0.0
  0
LINE
  5
25B
330
1F
100
AcDbEntity
  8
0
  6
Continuous
 62
     8
370
    25
100
AcDbLine
 10
113.2064431645
 20
155.1073644971
 30
0.0
 11
113.2064431645
 21
155.5513050136
 31
0.0
  0
LINE
  5
25C
330
1F
100
AcDbEntity
  8
0
  6
Continuous
 62
     8
370
    25
100
AcDbLine
 10
101.7064431422
 20
155.5513050136
 30
0.0
 11
101.7064431422
 21
155.1073644971
 31
0.0
  0
LINE
  5
25D
330
1F
100
AcDbEntity
  8
0
  6
Continuous
 62
     8
370
    25
100
AcDbLine
 10
113.2064431645
 20
142.0513046634
 30
0.0
 11
113.2064431645
 21
142.49524518
 31
0.0
  0
LINE
  5
25E
330
1F
100
AcDbEntity
  8
0
  6
Continuous
 62
     8
370
    25
100
AcDbLine
 10
112.6781658009
 20
142.0513046634
 30
0.0
 11
113.2064431645
 21
142.0513046634
 31
0.0
  0
LINE
  5
25F
330
1F
100
AcDbEntity
  8
0
  6
Continuous
 62
     8
370
    25
100
AcDbLine
 10
101.7064431422
 20
142.49524518
 30
0.0
 11
101.7064431422
 21
142.0513046634
 31
0.0
  0
LINE
  5
260
330
1F
100
AcDbEntity
  8
0
  6
Continuous
 62
     8
370
    25
100
AcDbLine
 10
101.7064431422
 20
142.0513046634
 30
0.0
 11
102.2347205058
 21
142.0513046634
 31
0.0
  0
LINE
  5
261
330
1F
100
AcDbEntity
  8
0
  6
Continuous
 62
     8
370
    25
100
AcDbLine
 10
114.4564433694
 20
153.6827888069
 30
0.0
 11
114.4564433694
 21
155.5513050136
 31
0.0
  0
SPLINE
  5
262
330
1F
100
AcDbEntity
  8
0
  6
Continuous
 62
     8
370
    25
100
AcDbSpline
210
0.0
220
0.0
230
1.0
 70
     8
 71
     3
 72
     9
 73
     5
 74
     0
 42
0.000000001
 43
0.00000001
 40
0.0
 40
0.0
 40
0.0
 40
0.0
 40
0.2992888654846123
 40
1.0
 40
1.0
 40
1.0
 40
1.0
 10
115.0785500854614
 20
144.9720696275128
 30
0.0
 10
115.1043570201672
 20
144.9308042262055
 30
0.0
 10
115.1905845337234
 20
144.7929260554273
 30
0.0
 10
115.1999091583776
 20
144.6428535780099
 30
0.0
 10
115.2064430266979
 20
144.5376961220992
 30
0.0
  0
SPLINE
  5
263
330
1F
100
AcDbEntity
  8
0
  6
Continuous
 62
     8
370
    25
100
AcDbSpline
210
0.0
220
0.0
230
1.0
 70
     8
 71
     3
 72
     9
 73
     5
 74
     0
 42
0.000000001
 43
0.00000001
 40
0.0
 40
0.0
 40
0.0
 40
0.0
 40
0.8079961190742975
 40
1.0
 40
1.0
 40
1.0
 40
1.0
 10
115.2064430266979
 20
153.0649135549558
 30
0.0
 10
115.197511502861
 20
152.9427473680342
 30
0.0
 10
115.1864575836328
 20
152.7915508659253
 30
0.0
 10
115.0988844086029
 20
152.6543034709318
 30
0.0
 10
115.0820700191322
 20
152.6279514384461
 30
0.0
  0
LINE
  5
264
330
1F
100
AcDbEntity
  8
0
  6
Continuous
 62
     8
370
    25
100
AcDbLine
 10
114.4564433694
 20
142.0513046634
 30
0.0
 11
114.4564433694
 21
143.9198208702
 31
0.0
  0
LINE
  5
265
330
1F
100
AcDbEntity
  8
0
  6
Continuous
 62
     8
370
    25
100
AcDbLine
 10
114.9564429857
 20
153.2171852616
 30
0.0
 11
114.9233530946
 21
152.8980107707
 31
0.0
  0
SPLINE
  5
266
330
1F
100
AcDbEntity
  8
0
  6
Continuous
 62
     8
370
    25
100
AcDbSpline
210
0.0
220
0.0
230
1.0
 70
     8
 71
     3
 72
     9
 73
     5
 74
     0
 42
0.000000001
 43
0.00000001
 40
0.0
 40
0.0
 40
0.0
 40
0.0
 40
0.02548548063493
 40
1.0
 40
1.0
 40
1.0
 40
1.0
 10
114.9255184196296
 20
144.7141943228436
 30
0.0
 10
114.9262729298798
 20
144.7114509763805
 30
0.0
 10
114.9558784241222
 20
144.6038074713455
 30
0.0
 10
114.9561643483796
 20
144.4932065850439
 30
0.0
 10
114.9564429857197
 20
144.3854244154883
 30
0.0
  0
LINE
  5
267
330
1F
100
AcDbEntity
  8
0
  6
Continuous
 62
     8
370
    25
100
AcDbLine
 10
114.7064429447
 20
153.3031253804
 30
0.0
 11
114.7064429447
 21
155.5513050136
 31
0.0
  0
LINE
  5
268
330
1F
100
AcDbEntity
  8
0
  6
Continuous
 62
     8
370
    25
100
AcDbLine
 10
114.7064429447
 20
142.0513046634
 30
0.0
 11
114.7064429447
 21
144.2994842966
 31
0.0
  0
INSERT
  5
274
330
1F
100
AcDbEntity
  8
0
  6
Continuous
 62
     7
370
    18
100
AcDbBlockReference
  2
SW_CENTERMARKSYMBOL_1
 10
107.4564431534
 20
148.8013048385
 30
0.0
  0
ENDSEC
  0
SECTION
  2
OBJECTS
  0
DICTIONARY
  5
C
330
0
100
AcDbDictionary
281
     1
  3
ACAD_GROUP
350
D
  3
ACAD_LAYOUT
350
1A
  3
ACAD_MLINESTYLE
350
17
  3
ACAD_PLOTSETTINGS
350
19
  3
ACAD_PLOTSTYLENAME
350
E
  3
ACAD_SCALELIST
350
47
  0
DICTIONARY
  5
D
102
{ACAD_REACTORS
330
C
102
}
330
C
100
AcDbDictionary
281
     1
  0
DICTIONARY
  5
1A
102
{ACAD_REACTORS
330
C
102
}
330
C
100
AcDbDictionary
281
     1
  3
Layout1
350
1E
  3
Layout2
350
26
  3
Model
350
22
  0
DICTIONARY
  5
17
102
{ACAD_REACTORS
330
C
102
}
330
C
100
AcDbDictionary
281
     1
  3
Standard
350
18
  0
DICTIONARY
  5
19
102
{ACAD_REACTORS
330
C
102
}
330
C
100
AcDbDictionary
281
     1
  0
ACDBDICTIONARYWDFLT
  5
E
102
{ACAD_REACTORS
330
C
102
}
330
C
100
AcDbDictionary
281
     1
  3
Normal
350
F
100
AcDbDictionaryWithDefault
340
F
  0
DICTIONARY
  5
47
102
{ACAD_REACTORS
330
C
102
}
330
C
100
AcDbDictionary
281
     1
  3
A0
350
48
  3
A1
350
49
  3
A2
350
4A
  3
A3
350
4B
  3
A4
350
4C
  3
A5
350
4D
  3
A6
350
4E
  3
A7
350
4F
  3
A8
350
50
  3
A9
350
51
  3
B0
350
52
  3
B1
350
53
  3
B2
350
54
  3
B3
350
55
  3
B4
350
56
  3
B5
350
57
  3
B6
350
58
  3
B7
350
59
  3
B8
350
5A
  3
B9
350
5B
  3
C0
350
5C
  3
C1
350
5D
  3
C2
350
5E
  3
C3
350
5F
  3
C4
350
60
  3
C5
350
61
  3
C6
350
62
  3
C7
350
63
  3
C8
350
64
  3
C9
350
65
  3
D0
350
66
  3
D1
350
67
  3
D2
350
68
  0
LAYOUT
  5
1E
102
{ACAD_REACTORS
330
1A
102
}
330
1A
100
AcDbPlotSettings
  1

  2
none_device
  4

  6

 40
0.0
 41
0.0
 42
0.0
 43
0.0
 44
0.0
 45
0.0
 46
0.0
 47
0.0
 48
0.0
 49
0.0
140
0.0
141
0.0
142
1.0
143
1.0
 70
   688
 72
     1
 73
     0
 74
     5
  7

 75
    16
147
1.0
148
0.0
149
0.0
100
AcDbLayout
  1
Layout1
 70
     1
 71
     1
 10
0.0
 20
0.0
 11
420.0
 21
297.0
 12
0.0
 22
0.0
 32
0.0
 14
1.0000000000E+20
 24
1.0000000000E+20
 34
1.0000000000E+20
 15
-1.0000000000E+20
 25
-1.0000000000E+20
 35
-1.0000000000E+20
146
0.0
 13
0.0
 23
0.0
 33
0.0
 16
1.0
 26
0.0
 36
0.0
 17
0.0
 27
1.0
 37
0.0
 76
     0
330
1B
  0
LAYOUT
  5
26
102
{ACAD_REACTORS
330
1A
102
}
330
1A
100
AcDbPlotSettings
  1

  2
none_device
  4

  6

 40
0.0
 41
0.0
 42
0.0
 43
0.0
 44
0.0
 45
0.0
 46
0.0
 47
0.0
 48
0.0
 49
0.0
140
0.0
141
0.0
142
1.0
143
1.0
 70
   688
 72
     1
 73
     0
 74
     5
  7

 75
    16
147
1.0
148
0.0
149
0.0
100
AcDbLayout
  1
Layout2
 70
     1
 71
     2
 10
0.0
 20
0.0
 11
0.0
 21
0.0
 12
0.0
 22
0.0
 32
0.0
 14
0.0
 24
0.0
 34
0.0
 15
0.0
 25
0.0
 35
0.0
146
0.0
 13
0.0
 23
0.0
 33
0.0
 16
1.0
 26
0.0
 36
0.0
 17
0.0
 27
1.0
 37
0.0
 76
     0
330
23
  0
LAYOUT
  5
22
102
{ACAD_REACTORS
330
1A
102
}
330
1A
100
AcDbPlotSettings
  1

  2
none_device
  4
Letter_(8.50_x_11.00_Inches)
  6

 40
6.35
 41
6.35
 42
6.35000508
 43
6.35000508
 44
215.9
 45
279.4
 46
0.0
 47
0.0
 48
0.0
 49
0.0
140
0.0
141
0.0
142
1.0
143
1.0
 70
  1712
 72
     1
 73
     0
 74
     0
  7

 75
     0
147
1.0
148
0.0
149
0.0
100
AcDbLayout
  1
Model
 70
     1
 71
     0
 10
0.0
 20
0.0
 11
431.8
 21
279.4
 12
0.0
 22
0.0
 32
0.0
 14
0.0
 24
0.0
 34
0.0
 15
431.8
 25
279.4
 35
0.0
146
0.0
 13
0.0
 23
0.0
 33
0.0
 16
1.0
 26
0.0
 36
0.0
 17
0.0
 27
1.0
 37
0.0
 76
     0
330
1F
331
29
  0
MLINESTYLE
  5
18
102
{ACAD_REACTORS
330
17
102
}
330
17
100
AcDbMlineStyle
  2
Standard
 70
     0
  3

 62
   256
 51
90.0
 52
90.0
 71
     2
 49
0.5
 62
   256
  6
BYLAYER
 49
-0.5
 62
   256
  6
BYLAYER
  0
ACDBPLACEHOLDER
  5
F
102
{ACAD_REACTORS
330
E
102
}
330
E
  0
SCALE
  5
48
102
{ACAD_REACTORS
330
47
102
}
330
47
100
AcDbScale
 70
     0
300
1:1
140
1.0
141
1.0
290
     1
  0
SCALE
  5
49
102
{ACAD_REACTORS
330
47
102
}
330
47
100
AcDbScale
 70
     0
300
1:2
140
1.0
141
2.0
290
     0
  0
SCALE
  5
4A
102
{ACAD_REACTORS
330
47
102
}
330
47
100
AcDbScale
 70
     0
300
1:4
140
1.0
141
4.0
290
     0
  0
SCALE
  5
4B
102
{ACAD_REACTORS
330
47
102
}
330
47
100
AcDbScale
 70
     0
300
1:5
140
1.0
141
5.0
290
     0
  0
SCALE
  5
4C
102
{ACAD_REACTORS
330
47
102
}
330
47
100
AcDbScale
 70
     0
300
1:8
140
1.0
141
8.0
290
     0
  0
SCALE
  5
4D
102
{ACAD_REACTORS
330
47
102
}
330
47
100
AcDbScale
 70
     0
300
1:10
140
1.0
141
10.0
290
     0
  0
SCALE
  5
4E
102
{ACAD_REACTORS
330
47
102
}
330
47
100
AcDbScale
 70
     0
300
1:16
140
1.0
141
16.0
290
     0
  0
SCALE
  5
4F
102
{ACAD_REACTORS
330
47
102
}
330
47
100
AcDbScale
 70
     0
300
1:20
140
1.0
141
20.0
290
     0
  0
SCALE
  5
50
102
{ACAD_REACTORS
330
47
102
}
330
47
100
AcDbScale
 70
     0
300
1:30
140
1.0
141
30.0
290
     0
  0
SCALE
  5
51
102
{ACAD_REACTORS
330
47
102
}
330
47
100
AcDbScale
 70
     0
300
1:40
140
1.0
141
40.0
290
     0
  0
SCALE
  5
52
102
{ACAD_REACTORS
330
47
102
}
330
47
100
AcDbScale
 70
     0
300
1:50
140
1.0
141
50.0
290
     0
  0
SCALE
  5
53
102
{ACAD_REACTORS
330
47
102
}
330
47
100
AcDbScale
 70
     0
300
1:100
140
1.0
141
100.0
290
     0
  0
SCALE
  5
54
102
{ACAD_REACTORS
330
47
102
}
330
47
100
AcDbScale
 70
     0
300
2:1
140
2.0
141
1.0
290
     0
  0
SCALE
  5
55
102
{ACAD_REACTORS
330
47
102
}
330
47
100
AcDbScale
 70
     0
300
4:1
140
4.0
141
1.0
290
     0
  0
SCALE
  5
56
102
{ACAD_REACTORS
330
47
102
}
330
47
100
AcDbScale
 70
     0
300
8:1
140
8.0
141
1.0
290
     0
  0
SCALE
  5
57
102
{ACAD_REACTORS
330
47
102
}
330
47
100
AcDbScale
 70
     0
300
10:1
140
10.0
141
1.0
290
     0
  0
SCALE
  5
58
102
{ACAD_REACTORS
330
47
102
}
330
47
100
AcDbScale
 70
     0
300
100:1
140
100.0
141
1.0
290
     0
  0
SCALE
  5
59
102
{ACAD_REACTORS
330
47
102
}
330
47
100
AcDbScale
 70
     0
300
1/128" = 1'-0"
140
0.0078125
141
12.0
290
     0
  0
SCALE
  5
5A
102
{ACAD_REACTORS
330
47
102
}
330
47
100
AcDbScale
 70
     0
300
1/64" = 1'-0"
140
0.015625
141
12.0
290
     0
  0
SCALE
  5
5B
102
{ACAD_REACTORS
330
47
102
}
330
47
100
AcDbScale
 70
     0
300
1/32" = 1'-0"
140
0.03125
141
12.0
290
     0
  0
SCALE
  5
5C
102
{ACAD_REACTORS
330
47
102
}
330
47
100
AcDbScale
 70
     0
300
1/16" = 1'-0"
140
0.0625
141
12.0
290
     0
  0
SCALE
  5
5D
102
{ACAD_REACTORS
330
47
102
}
330
47
100
AcDbScale
 70
     0
300
3/32" = 1'-0"
140
0.09375
141
12.0
290
     0
  0
SCALE
  5
5E
102
{ACAD_REACTORS
330
47
102
}
330
47
100
AcDbScale
 70
     0
300
1/8" = 1'-0"
140
0.125
141
12.0
290
     0
  0
SCALE
  5
5F
102
{ACAD_REACTORS
330
47
102
}
330
47
100
AcDbScale
 70
     0
300
3/16" = 1'-0"
140
0.1875
141
12.0
290
     0
  0
SCALE
  5
60
102
{ACAD_REACTORS
330
47
102
}
330
47
100
AcDbScale
 70
     0
300
1/4" = 1'-0"
140
0.25
141
12.0
290
     0
  0
SCALE
  5
61
102
{ACAD_REACTORS
330
47
102
}
330
47
100
AcDbScale
 70
     0
300
3/8" = 1'-0"
140
0.375
141
12.0
290
     0
  0
SCALE
  5
62
102
{ACAD_REACTORS
330
47
102
}
330
47
100
AcDbScale
 70
     0
300
1/2" = 1'-0"
140
0.5
141
12.0
290
     0
  0
SCALE
  5
63
102
{ACAD_REACTORS
330
47
102
}
330
47
100
AcDbScale
 70
     0
300
3/4" = 1'-0"
140
0.75
141
12.0
290
     0
  0
SCALE
  5
64
102
{ACAD_REACTORS
330
47
102
}
330
47
100
AcDbScale
 70
     0
300
1" = 1'-0"
140
1.0
141
12.0
290
     0
  0
SCALE
  5
65
102
{ACAD_REACTORS
330
47
102
}
330
47
100
AcDbScale
 70
     0
300
1-1/2" = 1'-0"
140
1.5
141
12.0
290
     0
  0
SCALE
  5
66
102
{ACAD_REACTORS
330
47
102
}
330
47
100
AcDbScale
 70
     0
300
3" = 1'-0"
140
3.0
141
12.0
290
     0
  0
SCALE
  5
67
102
{ACAD_REACTORS
330
47
102
}
330
47
100
AcDbScale
 70
     0
300
6" = 1'-0"
140
6.0
141
12.0
290
     0
  0
SCALE
  5
68
102
{ACAD_REACTORS
330
47
102
}
330
47
100
AcDbScale
 70
     0
300
1'-0" = 1'-0"
140
12.0
141
12.0
290
     0
  0
ENDSEC
  0
EOF
