  0
SECTION
  2
HEADER
  9
$ACADVER
  1
AC1015
  9
$ACADMAINTVER
 70
     6
  9
$DWGCODEPAGE
  3
DOS932
  9
$INSBASE
 10
0.0
 20
0.0
 30
0.0
  9
$EXTMIN
 10
0.0
 20
0.0
 30
0.0
  9
$EXTMAX
 10
431.8
 20
279.4
 30
0.0
  9
$LIMMIN
 10
0.0
 20
0.0
  9
$LIMMAX
 10
431.8
 20
279.4
  9
$ORTHOMODE
 70
     0
  9
$REGENMODE
 70
     1
  9
$FILLMODE
 70
     1
  9
$QTEXTMODE
 70
     0
  9
$MIRRTEXT
 70
     1
  9
$LTSCALE
 40
1.0
  9
$ATTMODE
 70
     1
  9
$TEXTSIZE
 40
3.5
  9
$TRACEWID
 40
1.0
  9
$TEXTSTYLE
  7
Standard
  9
$CLAYER
  8
0
  9
$CELTYPE
  6
ByLayer
  9
$CECOLOR
 62
   256
  9
$CELTSCALE
 40
1.0
  9
$DISPSILH
 70
     0
  9
$DIMSCALE
 40
1.0
  9
$DIMASZ
 40
3.302
  9
$DIMEXO
 40
1.0
  9
$DIMDLI
 40
3.75
  9
$DIMRND
 40
0.0
  9
$DIMDLE
 40
0.0
  9
$DIMEXE
 40
1.0
  9
$DIMTP
 40
0.0
  9
$DIMTM
 40
0.0
  9
$DIMTXT
 40
3.5
  9
$DIMCEN
 40
2.5
  9
$DIMTSZ
 40
0.0
  9
$DIMTOL
 70
     0
  9
$DIMLIM
 70
     0
  9
$DIMTIH
 70
     1
  9
$DIMTOH
 70
     1
  9
$DIMSE1
 70
     0
  9
$DIMSE2
 70
     0
  9
$DIMTAD
 70
     1
  9
$DIMZIN
 70
     1
  9
$DIMBLK
  1

  9
$DIMASO
 70
     1
  9
$DIMSHO
 70
     1
  9
$DIMPOST
  1

  9
$DIMAPOST
  1

  9
$DIMALT
 70
     0
  9
$DIMALTD
 70
     3
  9
$DIMALTF
 40
0.0393700787
  9
$DIMLFAC
 40
1.0
  9
$DIMTOFL
 70
     1
  9
$DIMTVP
 40
0.0
  9
$DIMTIX
 70
     0
  9
$DIMSOXD
 70
     0
  9
$DIMSAH
 70
     0
  9
$DIMBLK1
  1

  9
$DIMBLK2
  1

  9
$DIMSTYLE
  2
ISO-25
  9
$DIMCLRD
 70
     0
  9
$DIMCLRE
 70
     0
  9
$DIMCLRT
 70
     0
  9
$DIMTFAC
 40
1.0
  9
$DIMGAP
 40
1.524
  9
$DIMJUST
 70
     0
  9
$DIMSD1
 70
     0
  9
$DIMSD2
 70
     0
  9
$DIMTOLJ
 70
     0
  9
$DIMTZIN
 70
     1
  9
$DIMALTZ
 70
     0
  9
$DIMALTTZ
 70
     0
  9
$DIMUPT
 70
     0
  9
$DIMDEC
 70
     2
  9
$DIMTDEC
 70
     2
  9
$DIMALTU
 70
     2
  9
$DIMALTTD
 70
     3
  9
$DIMTXSTY
  7
Standard
  9
$DIMAUNIT
 70
     0
  9
$DIMADEC
 70
     2
  9
$DIMALTRND
 40
0.0
  9
$DIMAZIN
 70
     0
  9
$DIMDSEP
 70
    44
  9
$DIMATFIT
 70
     3
  9
$DIMFRAC
 70
     0
  9
$DIMLDRBLK
  1

  9
$DIMLUNIT
 70
     2
  9
$DIMLWD
 70
    -2
  9
$DIMLWE
 70
    -2
  9
$DIMTMOVE
 70
     0
  9
$LUNITS
 70
     2
  9
$LUPREC
 70
     2
  9
$SKETCHINC
 40
1.0
  9
$FILLETRAD
 40
10.0
  9
$AUNITS
 70
     0
  9
$AUPREC
 70
     2
  9
$MENU
  1
.
  9
$ELEVATION
 40
0.0
  9
$PELEVATION
 40
0.0
  9
$THICKNESS
 40
0.0
  9
$LIMCHECK
 70
     0
  9
$CHAMFERA
 40
0.0
  9
$CHAMFERB
 40
0.0
  9
$CHAMFERC
 40
0.0
  9
$CHAMFERD
 40
0.0
  9
$SKPOLY
 70
     0
  9
$TDCREATE
 40
2459296.612178368
  9
$TDUCREATE
 40
2459296.237178368
  9
$TDUPDATE
 40
2459296.61217941
  9
$TDUUPDATE
 40
2459296.23717941
  9
$TDINDWG
 40
0.0000000116
  9
$TDUSRTIMER
 40
0.0000000116
  9
$USRTIMER
 70
     1
  9
$ANGBASE
 50
0.0
  9
$ANGDIR
 70
     0
  9
$PDMODE
 70
     0
  9
$PDSIZE
 40
-1.0
  9
$PLINEWID
 40
0.0
  9
$SPLFRAME
 70
     0
  9
$SPLINETYPE
 70
     6
  9
$SPLINESEGS
 70
     8
  9
$HANDSEED
  5
2AC
  9
$SURFTAB1
 70
     6
  9
$SURFTAB2
 70
     6
  9
$SURFTYPE
 70
     6
  9
$SURFU
 70
     6
  9
$SURFV
 70
     6
  9
$UCSBASE
  2

  9
$UCSNAME
  2

  9
$UCSORG
 10
0.0
 20
0.0
 30
0.0
  9
$UCSXDIR
 10
1.0
 20
0.0
 30
0.0
  9
$UCSYDIR
 10
0.0
 20
1.0
 30
0.0
  9
$UCSORTHOREF
  2

  9
$UCSORTHOVIEW
 70
     0
  9
$UCSORGTOP
 10
0.0
 20
0.0
 30
0.0
  9
$UCSORGBOTTOM
 10
0.0
 20
0.0
 30
0.0
  9
$UCSORGLEFT
 10
0.0
 20
0.0
 30
0.0
  9
$UCSORGRIGHT
 10
0.0
 20
0.0
 30
0.0
  9
$UCSORGFRONT
 10
0.0
 20
0.0
 30
0.0
  9
$UCSORGBACK
 10
0.0
 20
0.0
 30
0.0
  9
$PUCSBASE
  2

  9
$PUCSNAME
  2

  9
$PUCSORG
 10
0.0
 20
0.0
 30
0.0
  9
$PUCSXDIR
 10
1.0
 20
0.0
 30
0.0
  9
$PUCSYDIR
 10
0.0
 20
1.0
 30
0.0
  9
$PUCSORTHOREF
  2

  9
$PUCSORTHOVIEW
 70
     0
  9
$PUCSORGTOP
 10
0.0
 20
0.0
 30
0.0
  9
$PUCSORGBOTTOM
 10
0.0
 20
0.0
 30
0.0
  9
$PUCSORGLEFT
 10
0.0
 20
0.0
 30
0.0
  9
$PUCSORGRIGHT
 10
0.0
 20
0.0
 30
0.0
  9
$PUCSORGFRONT
 10
0.0
 20
0.0
 30
0.0
  9
$PUCSORGBACK
 10
0.0
 20
0.0
 30
0.0
  9
$USERI1
 70
     0
  9
$USERI2
 70
     0
  9
$USERI3
 70
     0
  9
$USERI4
 70
     0
  9
$USERI5
 70
     0
  9
$USERR1
 40
0.0
  9
$USERR2
 40
0.0
  9
$USERR3
 40
0.0
  9
$USERR4
 40
0.0
  9
$USERR5
 40
0.0
  9
$WORLDVIEW
 70
     1
  9
$SHADEDGE
 70
     3
  9
$SHADEDIF
 70
    70
  9
$TILEMODE
 70
     1
  9
$MAXACTVP
 70
    64
  9
$PINSBASE
 10
0.0
 20
0.0
 30
0.0
  9
$PLIMCHECK
 70
     0
  9
$PEXTMIN
 10
1.0000000000E+20
 20
1.0000000000E+20
 30
1.0000000000E+20
  9
$PEXTMAX
 10
-1.0000000000E+20
 20
-1.0000000000E+20
 30
-1.0000000000E+20
  9
$PLIMMIN
 10
0.0
 20
0.0
  9
$PLIMMAX
 10
420.0
 20
297.0
  9
$UNITMODE
 70
     0
  9
$VISRETAIN
 70
     1
  9
$PLINEGEN
 70
     0
  9
$PSLTSCALE
 70
     1
  9
$TREEDEPTH
 70
  3020
  9
$CMLSTYLE
  2
Standard
  9
$CMLJUST
 70
     0
  9
$CMLSCALE
 40
20.0
  9
$PROXYGRAPHICS
 70
     1
  9
$MEASUREMENT
 70
     1
  9
$CELWEIGHT
370
    -1
  9
$ENDCAPS
280
     0
  9
$JOINSTYLE
280
     0
  9
$LWDISPLAY
290
     1
  9
$INSUNITS
 70
     4
  9
$HYPERLINKBASE
  1

  9
$STYLESHEET
  1

  9
$XEDIT
290
     1
  9
$CEPSNTYPE
380
     0
  9
$PSTYLEMODE
290
     1
  9
$FINGERPRINTGUID
  2
{46A24EA9-2774-4485-A2B8-4D84D8075014}
  9
$VERSIONGUID
  2
{FAEB1C32-E019-11D5-929B-00C0DF256EC4}
  9
$EXTNAMES
290
     1
  9
$PSVPSCALE
 40
0.0
  9
$OLESTARTUP
290
     0
  0
ENDSEC
  0
SECTION
  2
CLASSES
  0
CLASS
  1
ACDBDICTIONARYWDFLT
  2
AcDbDictionaryWithDefault
  3
ObjectDBX Classes
 90
        0
280
     0
281
     0
  0
CLASS
  1
VISUALSTYLE
  2
AcDbVisualStyle
  3
ObjectDBX Classes
 90
     4095
280
     0
281
     0
  0
CLASS
  1
MATERIAL
  2
AcDbMaterial
  3
ObjectDBX Classes
 90
     1153
280
     0
281
     0
  0
CLASS
  1
SCALE
  2
AcDbScale
  3
ObjectDBX Classes
 90
     1153
280
     0
281
     0
  0
CLASS
  1
TABLESTYLE
  2
AcDbTableStyle
  3
ObjectDBX Classes
 90
     4095
280
     0
281
     0
  0
CLASS
  1
MLEADERSTYLE
  2
AcDbMLeaderStyle
  3
ACDB_MLEADERSTYLE_CLASS
 90
     4095
280
     0
281
     0
  0
CLASS
  1
SUN
  2
AcDbSun
  3
SCENEOE
 90
     1153
280
     0
281
     0
  0
CLASS
  1
ACDBPLACEHOLDER
  2
AcDbPlaceHolder
  3
ObjectDBX Classes
 90
        0
280
     0
281
     0
  0
CLASS
  1
LAYOUT
  2
AcDbLayout
  3
ObjectDBX Classes
 90
        0
280
     0
281
     0
  0
ENDSEC
  0
SECTION
  2
TABLES
  0
TABLE
  2
VPORT
  5
8
330
0
100
AcDbSymbolTable
 70
     1
  0
VPORT
  5
29
330
8
100
AcDbSymbolTableRecord
100
AcDbViewportTableRecord
  2
*Active
 70
     0
 10
0.0
 20
0.0
 11
1.0
 21
1.0
 12
215.9
 22
139.7
 13
0.0
 23
0.0
 14
10.0
 24
10.0
 15
10.0
 25
10.0
 16
0.0
 26
0.0
 36
1.0
 17
0.0
 27
0.0
 37
0.0
 40
279.4
 41
1.5454545455
 42
50.0
 43
0.0
 44
0.0
 50
0.0
 51
0.0
 71
     0
 72
  2000
 73
     1
 74
     3
 75
     0
 76
     0
 77
     0
 78
     0
281
     0
 65
     1
110
0.0
120
0.0
130
0.0
111
1.0
121
0.0
131
0.0
112
0.0
122
1.0
132
0.0
 79
     0
146
0.0
  0
ENDTAB
  0
TABLE
  2
LTYPE
  5
5
330
0
100
AcDbSymbolTable
 70
     6
  0
LTYPE
  5
14
330
5
100
AcDbSymbolTableRecord
100
AcDbLinetypeTableRecord
  2
ByBlock
 70
     0
  3

 72
    65
 73
     0
 40
0.0
  0
LTYPE
  5
15
330
5
100
AcDbSymbolTableRecord
100
AcDbLinetypeTableRecord
  2
ByLayer
 70
     0
  3

 72
    65
 73
     0
 40
0.0
  0
LTYPE
  5
16
330
5
100
AcDbSymbolTableRecord
100
AcDbLinetypeTableRecord
  2
Continuous
 70
     0
  3
Solid line
 72
    65
 73
     0
 40
0.0
  0
LTYPE
  5
6E
330
5
100
AcDbSymbolTableRecord
100
AcDbLinetypeTableRecord
  2
HIDDEN
 70
     0
  3
Hidden __ __ __ __ __ __ __ __ __ __ __ __ __ __
 72
    65
 73
     2
 40
1.905
 49
1.27
 74
     0
 49
-0.635
 74
     0
  0
LTYPE
  5
6F
330
5
100
AcDbSymbolTableRecord
100
AcDbLinetypeTableRecord
  2
PHANTOM
 70
     0
  3
Phantom ______  __  __  ______  __  __  ______
 72
    65
 73
     6
 40
12.7
 49
6.35
 74
     0
 49
-1.27
 74
     0
 49
1.27
 74
     0
 49
-1.27
 74
     0
 49
1.27
 74
     0
 49
-1.27
 74
     0
  0
LTYPE
  5
70
330
5
100
AcDbSymbolTableRecord
100
AcDbLinetypeTableRecord
  2
CENTER
 70
     0
  3
Center ____ _ ____ _ ____ _ ____ _ ____ _ ____
 72
    65
 73
     4
 40
10.16
 49
6.35
 74
     0
 49
-1.27
 74
     0
 49
1.27
 74
     0
 49
-1.27
 74
     0
  0
LTYPE
  5
71
330
5
100
AcDbSymbolTableRecord
100
AcDbLinetypeTableRecord
  2
CENTERX2
 70
     0
  3
Center (2x) ________  __  ________  __  _____
 72
    65
 73
     4
 40
20.32
 49
12.7
 74
     0
 49
-2.54
 74
     0
 49
2.54
 74
     0
 49
-2.54
 74
     0
  0
LTYPE
  5
72
330
5
100
AcDbSymbolTableRecord
100
AcDbLinetypeTableRecord
  2
DOT2
 70
     0
  3
Dot (.5x) ........................................
 72
    65
 73
     2
 40
0.635
 49
0.0
 74
     0
 49
-0.635
 74
     0
  0
ENDTAB
  0
TABLE
  2
LAYER
  5
2
330
0
100
AcDbSymbolTable
 70
     1
  0
LAYER
  5
10
330
2
100
AcDbSymbolTableRecord
100
AcDbLayerTableRecord
  2
0
 70
     0
 62
     7
  6
Continuous
370
    -3
390
F
  0
ENDTAB
  0
TABLE
  2
STYLE
  5
3
330
0
100
AcDbSymbolTable
 70
     2
  0
STYLE
  5
11
330
3
100
AcDbSymbolTableRecord
100
AcDbTextStyleTableRecord
  2
Standard
 70
     0
 40
0.0
 41
1.0
 50
0.0
 71
     0
 42
3.5
  3
txt
  4
bigfont
  0
STYLE
  5
73
330
3
100
AcDbSymbolTableRecord
100
AcDbTextStyleTableRecord
  2
SLDTEXTSTYLE0
 70
     0
 40
0.0
 41
0.7
 50
0.0
 71
     0
 42
3.5
  3
TXT
  4
bigfont
  0
ENDTAB
  0
TABLE
  2
VIEW
  5
6
330
0
100
AcDbSymbolTable
 70
     0
  0
ENDTAB
  0
TABLE
  2
UCS
  5
7
330
0
100
AcDbSymbolTable
 70
     0
  0
ENDTAB
  0
TABLE
  2
APPID
  5
9
330
0
100
AcDbSymbolTable
 70
     1
  0
APPID
  5
12
330
9
100
AcDbSymbolTableRecord
100
AcDbRegAppTableRecord
  2
ACAD
 70
     0
  0
ENDTAB
  0
TABLE
  2
DIMSTYLE
  5
A
330
0
100
AcDbSymbolTable
 70
     1
100
AcDbDimStyleTable
  0
DIMSTYLE
105
27
330
A
100
AcDbSymbolTableRecord
100
AcDbDimStyleTableRecord
  2
ISO-25
 70
     0
 41
2.5
 42
0.625
 43
3.75
 44
1.25
 73
     0
 74
     0
 77
     1
 78
     8
140
2.5
141
2.5
143
0.0393700787
147
0.625
171
     3
172
     1
178
     0
271
     2
272
     2
274
     3
278
    44
283
     0
284
     8
340
11
  0
ENDTAB
  0
TABLE
  2
BLOCK_RECORD
  5
1
330
0
100
AcDbSymbolTable
 70
     3
  0
BLOCK_RECORD
  5
1F
330
1
100
AcDbSymbolTableRecord
100
AcDbBlockTableRecord
  2
*Model_Space
340
22
  0
BLOCK_RECORD
  5
1B
330
1
100
AcDbSymbolTableRecord
100
AcDbBlockTableRecord
  2
*Paper_Space
340
1E
  0
BLOCK_RECORD
  5
23
330
1
100
AcDbSymbolTableRecord
100
AcDbBlockTableRecord
  2
*Paper_Space0
340
26
  0
BLOCK_RECORD
  5
1B0
330
1
100
AcDbSymbolTableRecord
100
AcDbBlockTableRecord
  2
SW_CENTERMARKSYMBOL_0
340
0
102
{BLKREFS
331
1BB
102
}
  0
BLOCK_RECORD
  5
2A0
330
1
100
AcDbSymbolTableRecord
100
AcDbBlockTableRecord
  2
SW_CENTERMARKSYMBOL_1
340
0
102
{BLKREFS
331
2AB
102
}
  0
ENDTAB
  0
ENDSEC
  0
SECTION
  2
BLOCKS
  0
BLOCK
  5
20
330
1F
100
AcDbEntity
  8
0
100
AcDbBlockBegin
  2
*Model_Space
 70
     0
 10
0.0
 20
0.0
 30
0.0
  3
*Model_Space
  1

  0
ENDBLK
  5
21
330
1F
100
AcDbEntity
  8
0
100
AcDbBlockEnd
  0
BLOCK
  5
1C
330
1B
100
AcDbEntity
 67
     1
  8
0
100
AcDbBlockBegin
  2
*Paper_Space
 70
     0
 10
0.0
 20
0.0
 30
0.0
  3
*Paper_Space
  1

  0
ENDBLK
  5
1D
330
1B
100
AcDbEntity
 67
     1
  8
0
100
AcDbBlockEnd
  0
BLOCK
  5
24
330
23
100
AcDbEntity
  8
0
100
AcDbBlockBegin
  2
*Paper_Space0
 70
     0
 10
0.0
 20
0.0
 30
0.0
  3
*Paper_Space0
  1

  0
ENDBLK
  5
25
330
23
100
AcDbEntity
  8
0
100
AcDbBlockEnd
  0
BLOCK
  5
1B1
330
1B0
100
AcDbEntity
  8
0
100
AcDbBlockBegin
  2
SW_CENTERMARKSYMBOL_0
 70
     0
 10
0.0
 20
0.0
 30
0.0
  3
SW_CENTERMARKSYMBOL_0
  1

  0
LINE
  5
1B3
330
1B0
100
AcDbEntity
  8
0
  6
Continuous
 62
     0
370
    18
100
AcDbLine
 10
0.0
 20
0.0
 30
0.0
 11
0.0
 21
2.5
 31
0.0
  0
LINE
  5
1B4
330
1B0
100
AcDbEntity
  8
0
  6
Continuous
 62
     0
370
    18
100
AcDbLine
 10
0.0
 20
0.0
 30
0.0
 11
-2.5
 21
0.0
 31
0.0
  0
LINE
  5
1B5
330
1B0
100
AcDbEntity
  8
0
  6
Continuous
 62
     0
370
    18
100
AcDbLine
 10
0.0
 20
0.0
 30
0.0
 11
0.0
 21
-2.5
 31
0.0
  0
LINE
  5
1B6
330
1B0
100
AcDbEntity
  8
0
  6
Continuous
 62
     0
370
    18
100
AcDbLine
 10
0.0
 20
0.0
 30
0.0
 11
2.5
 21
0.0
 31
0.0
  0
LINE
  5
1B7
330
1B0
100
AcDbEntity
  8
0
  6
Continuous
 62
     0
370
    18
100
AcDbLine
 10
0.0
 20
5.0
 30
0.0
 11
0.0
 21
25.6382814936
 31
0.0
  0
LINE
  5
1B8
330
1B0
100
AcDbEntity
  8
0
  6
Continuous
 62
     0
370
    18
100
AcDbLine
 10
-5.0
 20
0.0
 30
0.0
 11
-11.85
 21
0.0
 31
0.0
  0
LINE
  5
1B9
330
1B0
100
AcDbEntity
  8
0
  6
Continuous
 62
     0
370
    18
100
AcDbLine
 10
0.0
 20
-5.0
 30
0.0
 11
0.0
 21
-11.85
 31
0.0
  0
LINE
  5
1BA
330
1B0
100
AcDbEntity
  8
0
  6
Continuous
 62
     0
370
    18
100
AcDbLine
 10
5.0
 20
0.0
 30
0.0
 11
11.85
 21
0.0
 31
0.0
  0
ENDBLK
  5
1B2
330
1B0
100
AcDbEntity
  8
0
100
AcDbBlockEnd
  0
BLOCK
  5
2A1
330
2A0
100
AcDbEntity
  8
0
100
AcDbBlockBegin
  2
SW_CENTERMARKSYMBOL_1
 70
     0
 10
0.0
 20
0.0
 30
0.0
  3
SW_CENTERMARKSYMBOL_1
  1

  0
LINE
  5
2A3
330
2A0
100
AcDbEntity
  8
0
  6
Continuous
 62
     0
370
    18
100
AcDbLine
 10
0.0
 20
0.0
 30
0.0
 11
0.0
 21
2.5
 31
0.0
  0
LINE
  5
2A4
330
2A0
100
AcDbEntity
  8
0
  6
Continuous
 62
     0
370
    18
100
AcDbLine
 10
0.0
 20
0.0
 30
0.0
 11
-2.5
 21
0.0
 31
0.0
  0
LINE
  5
2A5
330
2A0
100
AcDbEntity
  8
0
  6
Continuous
 62
     0
370
    18
100
AcDbLine
 10
0.0
 20
0.0
 30
0.0
 11
0.0
 21
-2.5
 31
0.0
  0
LINE
  5
2A6
330
2A0
100
AcDbEntity
  8
0
  6
Continuous
 62
     0
370
    18
100
AcDbLine
 10
0.0
 20
0.0
 30
0.0
 11
2.5
 21
0.0
 31
0.0
  0
LINE
  5
2A7
330
2A0
100
AcDbEntity
  8
0
  6
Continuous
 62
     0
370
    18
100
AcDbLine
 10
0.0
 20
5.0
 30
0.0
 11
0.0
 21
9.5
 31
0.0
  0
LINE
  5
2A8
330
2A0
100
AcDbEntity
  8
0
  6
Continuous
 62
     0
370
    18
100
AcDbLine
 10
-5.0
 20
0.0
 30
0.0
 11
-9.5
 21
0.0
 31
0.0
  0
LINE
  5
2A9
330
2A0
100
AcDbEntity
  8
0
  6
Continuous
 62
     0
370
    18
100
AcDbLine
 10
0.0
 20
-5.0
 30
0.0
 11
0.0
 21
-9.5
 31
0.0
  0
LINE
  5
2AA
330
2A0
100
AcDbEntity
  8
0
  6
Continuous
 62
     0
370
    18
100
AcDbLine
 10
5.0
 20
0.0
 30
0.0
 11
53.6106198161
 21
0.0
 31
0.0
  0
ENDBLK
  5
2A2
330
2A0
100
AcDbEntity
  8
0
100
AcDbBlockEnd
  0
ENDSEC
  0
SECTION
  2
ENTITIES
  0
MTEXT
  5
74
330
1F
100
AcDbEntity
  8
0
  6
Continuous
 62
     7
370
     0
100
AcDbMText
 10
169.3310833184
 20
131.1456622055
 30
0.0
 40
4.2333333333
 41
0.0
 71
     1
 72
     1
  1
HL-1210R
  7
SLDTEXTSTYLE0
 73
     1
 44
1.0
  0
LINE
  5
75
330
1F
100
AcDbEntity
  8
0
  6
Continuous
 62
     7
370
    25
100
AcDbLine
 10
132.7888971617
 20
83.7312214707
 30
0.0
 11
137.288896968
 21
83.7312214707
 31
0.0
  0
LINE
  5
76
330
1F
100
AcDbEntity
  8
0
  6
Continuous
 62
     7
370
    25
100
AcDbLine
 10
137.288896968
 20
94.2312213292
 30
0.0
 11
132.7888971617
 21
94.2312213292
 31
0.0
  0
LINE
  5
77
330
1F
100
AcDbEntity
  8
0
  6
Continuous
 62
     7
370
    25
100
AcDbLine
 10
137.288896968
 20
83.7312214707
 30
0.0
 11
141.2888976237
 21
84.4812215937
 31
0.0
  0
LINE
  5
78
330
1F
100
AcDbEntity
  8
0
  6
Continuous
 62
     7
370
    25
100
AcDbLine
 10
141.2888976237
 20
93.4812212062
 30
0.0
 11
137.288896968
 21
94.2312213292
 31
0.0
  0
LINE
  5
79
330
1F
100
AcDbEntity
  8
0
  6
Continuous
 62
     7
370
    25
100
AcDbLine
 10
141.2888976237
 20
83.7312214707
 30
0.0
 11
145.2888982793
 21
84.4812215937
 31
0.0
  0
LINE
  5
7A
330
1F
100
AcDbEntity
  8
0
  6
Continuous
 62
     7
370
    25
100
AcDbLine
 10
145.2888982793
 20
93.4812212062
 30
0.0
 11
141.2888976237
 21
94.2312213292
 31
0.0
  0
LINE
  5
7B
330
1F
100
AcDbEntity
  8
0
  6
Continuous
 62
     7
370
    25
100
AcDbLine
 10
145.2888982793
 20
83.7312214707
 30
0.0
 11
149.288898935
 21
84.4812215937
 31
0.0
  0
LINE
  5
7C
330
1F
100
AcDbEntity
  8
0
  6
Continuous
 62
     7
370
    25
100
AcDbLine
 10
149.288898935
 20
93.4812212062
 30
0.0
 11
145.2888982793
 21
94.2312213292
 31
0.0
  0
LINE
  5
7D
330
1F
100
AcDbEntity
  8
0
  6
Continuous
 62
     7
370
    25
100
AcDbLine
 10
149.288898935
 20
83.7312214707
 30
0.0
 11
153.2888995906
 21
84.4812215937
 31
0.0
  0
LINE
  5
7E
330
1F
100
AcDbEntity
  8
0
  6
Continuous
 62
     7
370
    25
100
AcDbLine
 10
153.2888995906
 20
93.4812212062
 30
0.0
 11
149.288898935
 21
94.2312213292
 31
0.0
  0
LINE
  5
7F
330
1F
100
AcDbEntity
  8
0
  6
Continuous
 62
     7
370
    25
100
AcDbLine
 10
153.2888995906
 20
83.7312214707
 30
0.0
 11
158.8317553004
 21
84.4240784344
 31
0.0
  0
LINE
  5
80
330
1F
100
AcDbEntity
  8
0
  6
Continuous
 62
     7
370
    25
100
AcDbLine
 10
158.8317553004
 20
93.5383643654
 30
0.0
 11
153.2888995906
 21
94.2312213292
 31
0.0
  0
LINE
  5
81
330
1F
100
AcDbEntity
  8
0
  6
Continuous
 62
     7
370
    25
100
AcDbLine
 10
158.8317553004
 20
84.4240784344
 30
0.0
 11
159.2888968488
 21
84.8812213798
 31
0.0
  0
LINE
  5
82
330
1F
100
AcDbEntity
  8
0
  6
Continuous
 62
     7
370
    25
100
AcDbLine
 10
159.2888968488
 20
93.0812214201
 30
0.0
 11
158.8317553004
 21
93.5383643654
 31
0.0
  0
LINE
  5
83
330
1F
100
AcDbEntity
  8
0
  6
Continuous
 62
     7
370
    25
100
AcDbLine
 10
121.7240063896
 20
99.9508760569
 30
0.0
 11
120.7888979887
 21
98.3312213493
 31
0.0
  0
LINE
  5
84
330
1F
100
AcDbEntity
  8
0
  6
Continuous
 62
     7
370
    25
100
AcDbLine
 10
120.7888979887
 20
79.6312214506
 30
0.0
 11
121.7240063896
 21
78.011566743
 31
0.0
  0
LINE
  5
85
330
1F
100
AcDbEntity
  8
0
  6
Continuous
 62
     7
370
    25
100
AcDbLine
 10
129.8537893643
 20
78.011566743
 30
0.0
 11
130.7888986965
 21
79.6312214506
 31
0.0
  0
LINE
  5
86
330
1F
100
AcDbEntity
  8
0
  6
Continuous
 62
     7
370
    25
100
AcDbLine
 10
130.7888986965
 20
98.3312213493
 30
0.0
 11
129.8537893643
 21
99.9508760569
 31
0.0
  0
ARC
  5
87
330
1F
100
AcDbEntity
  8
0
  6
Continuous
 62
     7
370
    25
100
AcDbCircle
 10
132.488897825
 20
98.0312213999
 30
0.0
 40
0.3000000000000114
100
AcDbArc
 50
0.0
 51
90.0
  0
ARC
  5
88
330
1F
100
AcDbEntity
  8
0
  6
Continuous
 62
     7
370
    25
100
AcDbCircle
 10
132.488897825
 20
79.9312213999
 30
0.0
 40
0.3000000000000114
100
AcDbArc
 50
270.0
 51
0.0
  0
LINE
  5
89
330
1F
100
AcDbEntity
  8
0
  6
Continuous
 62
     7
370
    25
100
AcDbLine
 10
130.7888986965
 20
79.6312214506
 30
0.0
 11
132.4888976713
 21
79.6312214506
 31
0.0
  0
LINE
  5
8A
330
1F
100
AcDbEntity
  8
0
  6
Continuous
 62
     7
370
    25
100
AcDbLine
 10
132.4888976713
 20
98.3312213493
 30
0.0
 11
130.7888986965
 21
98.3312213493
 31
0.0
  0
LINE
  5
8B
330
1F
100
AcDbEntity
  8
0
  6
Continuous
 62
     7
370
    25
100
AcDbLine
 10
120.7888979887
 20
98.3312213493
 30
0.0
 11
119.0888980826
 21
98.3312213493
 31
0.0
  0
LINE
  5
8C
330
1F
100
AcDbEntity
  8
0
  6
Continuous
 62
     7
370
    25
100
AcDbLine
 10
119.0888980826
 20
79.6312214506
 30
0.0
 11
120.7888979887
 21
79.6312214506
 31
0.0
  0
ARC
  5
8D
330
1F
100
AcDbEntity
  8
0
  6
Continuous
 62
     7
370
    25
100
AcDbCircle
 10
119.088897825
 20
79.9312213999
 30
0.0
 40
0.2999999999999972
100
AcDbArc
 50
180.0
 51
270.0
  0
ARC
  5
8E
330
1F
100
AcDbEntity
  8
0
  6
Continuous
 62
     7
370
    25
100
AcDbCircle
 10
119.088897825
 20
98.0312213999
 30
0.0
 40
0.2999999999999972
100
AcDbArc
 50
90.0
 51
180.0
  0
LINE
  5
8F
330
1F
100
AcDbEntity
  8
0
  6
Continuous
 62
     7
370
    25
100
AcDbLine
 10
125.788897877
 20
99.6508765665
 30
0.0
 11
125.6327281197
 21
99.9508760569
 31
0.0
  0
LINE
  5
90
330
1F
100
AcDbEntity
  8
0
  6
Continuous
 62
     7
370
    25
100
AcDbLine
 10
125.9450676342
 20
99.9508760569
 30
0.0
 11
125.788897877
 21
99.6508765665
 31
0.0
  0
LINE
  5
91
330
1F
100
AcDbEntity
  8
0
  6
Continuous
 62
     7
370
    25
100
AcDbLine
 10
125.788897877
 20
78.3115662334
 30
0.0
 11
125.9450676342
 21
78.011566743
 31
0.0
  0
LINE
  5
92
330
1F
100
AcDbEntity
  8
0
  6
Continuous
 62
     7
370
    25
100
AcDbLine
 10
125.6327281197
 20
78.011566743
 30
0.0
 11
125.788897877
 21
78.3115662334
 31
0.0
  0
ARC
  5
93
330
1F
100
AcDbEntity
  8
0
  6
Continuous
 62
     7
370
    25
100
AcDbCircle
 10
118.0128070613
 20
96.9812213999
 30
0.0
 40
1.0
100
AcDbArc
 50
270.0
 51
320.9040298984
  0
ARC
  5
94
330
1F
100
AcDbEntity
  8
0
  6
Continuous
 62
     7
370
    25
100
AcDbCircle
 10
118.0128070613
 20
80.9812213999
 30
0.0
 40
1.0
100
AcDbArc
 50
39.0959701016
 51
90.0
  0
LINE
  5
95
330
1F
100
AcDbEntity
  8
0
  6
Continuous
 62
     7
370
    25
100
AcDbLine
 10
114.0128072774
 20
95.981221616
 30
0.0
 11
114.0128072774
 21
98.9812211764
 31
0.0
  0
LINE
  5
96
330
1F
100
AcDbEntity
  8
0
  6
Continuous
 62
     7
370
    25
100
AcDbLine
 10
100.0128068453
 20
98.9812211764
 30
0.0
 11
100.0128068453
 21
83.9812215117
 31
0.0
  0
LINE
  5
97
330
1F
100
AcDbEntity
  8
0
  6
Continuous
 62
     7
370
    25
100
AcDbLine
 10
102.0128071731
 20
81.9812211839
 30
0.0
 11
118.0128070017
 21
81.9812211839
 31
0.0
  0
LINE
  5
98
330
1F
100
AcDbEntity
  8
0
  6
Continuous
 62
     7
370
    25
100
AcDbLine
 10
118.0128070017
 20
95.981221616
 30
0.0
 11
114.0128072774
 21
95.981221616
 31
0.0
  0
LINE
  5
99
330
1F
100
AcDbEntity
  8
0
  6
Continuous
 62
     7
370
    25
100
AcDbLine
 10
113.8409945605
 20
98.9812211764
 30
0.0
 11
113.4687691418
 21
110.8924345744
 31
0.0
  0
LINE
  5
9A
330
1F
100
AcDbEntity
  8
0
  6
Continuous
 62
     7
370
    25
100
AcDbLine
 10
100.5568449808
 20
110.8924345744
 30
0.0
 11
100.1846195621
 21
98.9812211764
 31
0.0
  0
LINE
  5
9B
330
1F
100
AcDbEntity
  8
0
  6
Continuous
 62
     7
370
    25
100
AcDbLine
 10
113.4687691418
 20
110.8924345744
 30
0.0
 11
112.2628069905
 21
112.9812216086
 31
0.0
  0
LINE
  5
9C
330
1F
100
AcDbEntity
  8
0
  6
Continuous
 62
     7
370
    25
100
AcDbLine
 10
101.7628071321
 20
112.9812216086
 30
0.0
 11
100.5568449808
 21
110.8924345744
 31
0.0
  0
ARC
  5
9D
330
1F
100
AcDbEntity
  8
0
  6
Continuous
 62
     7
370
    25
100
AcDbCircle
 10
102.0128070613
 20
83.9812213999
 30
0.0
 40
2.000000000000006
100
AcDbArc
 50
179.6036717624
 51
270.4018027294
  0
LINE
  5
9E
330
1F
100
AcDbEntity
  8
0
  6
Continuous
 62
     7
370
    25
100
AcDbLine
 10
137.288896968
 20
83.7312214707
 30
0.0
 11
137.288896968
 21
94.2312213292
 31
0.0
  0
LINE
  5
9F
330
1F
100
AcDbEntity
  8
0
  6
Continuous
 62
     7
370
    25
100
AcDbLine
 10
141.2888976237
 20
83.7312214707
 30
0.0
 11
141.2888976237
 21
94.2312213292
 31
0.0
  0
LINE
  5
A0
330
1F
100
AcDbEntity
  8
0
  6
Continuous
 62
     7
370
    25
100
AcDbLine
 10
145.2888982793
 20
83.7312214707
 30
0.0
 11
145.2888982793
 21
94.2312213292
 31
0.0
  0
LINE
  5
A1
330
1F
100
AcDbEntity
  8
0
  6
Continuous
 62
     7
370
    25
100
AcDbLine
 10
149.288898935
 20
83.7312214707
 30
0.0
 11
149.288898935
 21
94.2312213292
 31
0.0
  0
LINE
  5
A2
330
1F
100
AcDbEntity
  8
0
  6
Continuous
 62
     7
370
    25
100
AcDbLine
 10
158.8317553004
 20
88.9812213999
 30
0.0
 11
158.8317553004
 21
93.5383643654
 31
0.0
  0
LINE
  5
A3
330
1F
100
AcDbEntity
  8
0
  6
Continuous
 62
     7
370
    25
100
AcDbLine
 10
158.8317553004
 20
84.4240784344
 30
0.0
 11
158.8317553004
 21
88.9812213999
 31
0.0
  0
LINE
  5
A4
330
1F
100
AcDbEntity
  8
0
  6
Continuous
 62
     7
370
    25
100
AcDbLine
 10
153.2888995906
 20
83.7312214707
 30
0.0
 11
153.2888995906
 21
94.2312213292
 31
0.0
  0
LINE
  5
A5
330
1F
100
AcDbEntity
  8
0
  6
Continuous
 62
     7
370
    25
100
AcDbLine
 10
159.2888968488
 20
88.9812213999
 30
0.0
 11
159.2888968488
 21
84.8812213798
 31
0.0
  0
LINE
  5
A6
330
1F
100
AcDbEntity
  8
0
  6
Continuous
 62
     7
370
    25
100
AcDbLine
 10
159.2888968488
 20
93.0812214201
 30
0.0
 11
159.2888968488
 21
88.9812213999
 31
0.0
  0
LINE
  5
A7
330
1F
100
AcDbEntity
  8
0
  6
Continuous
 62
     7
370
    25
100
AcDbLine
 10
129.8537893643
 20
94.4660487284
 30
0.0
 11
125.9450676342
 21
94.4660487284
 31
0.0
  0
SPLINE
  5
A8
330
1F
100
AcDbEntity
  8
0
  6
Continuous
 62
     7
370
    25
100
AcDbSpline
210
0.0
220
0.0
230
1.0
 70
     8
 71
     3
 72
    16
 73
    12
 74
     0
 42
0.000000001
 43
0.00000001
 40
0.0
 40
0.0
 40
0.0
 40
0.0
 40
0.0929885394318734
 40
0.1859684549096651
 40
0.2798026913280258
 40
0.373627101459906
 40
0.4988494890998807
 40
0.6240716473127095
 40
0.7526321536928279
 40
0.8812279839704913
 40
0.9999999999999999
 40
0.9999999999999999
 40
0.9999999999999999
 40
0.9999999999999999
 10
129.8537893643459
 20
83.49639407146256
 30
0.0
 10
129.9460576278306
 20
83.82904078821562
 30
0.0
 10
130.130585597646
 20
84.49430337136074
 30
0.0
 10
130.3557024121926
 20
85.50871622488876
 30
0.0
 10
130.5332539306571
 20
86.53559552348706
 30
0.0
 10
130.6667134110583
 20
87.68995116205068
 30
0.0
 10
130.7211732402091
 20
88.9681954767333
 30
0.0
 10
130.663706276025
 20
90.37556457177767
 30
0.0
 10
130.4850199477692
 20
91.784994676334
 30
0.0
 10
130.2133628425877
 20
93.15509716163716
 30
0.0
 10
129.9704313127231
 20
94.04078948591957
 30
0.0
 10
129.8537893643459
 20
94.46604872840922
 30
0.0
  0
LINE
  5
A9
330
1F
100
AcDbEntity
  8
0
  6
Continuous
 62
     7
370
    25
100
AcDbLine
 10
129.8537893643
 20
83.4963940715
 30
0.0
 11
125.9450676342
 21
83.4963940715
 31
0.0
  0
LINE
  5
AA
330
1F
100
AcDbEntity
  8
0
  6
Continuous
 62
     7
370
    25
100
AcDbLine
 10
125.788897877
 20
84.124109212
 30
0.0
 11
125.9450676342
 21
83.4963940715
 31
0.0
  0
LINE
  5
AB
330
1F
100
AcDbEntity
  8
0
  6
Continuous
 62
     7
370
    25
100
AcDbLine
 10
125.6327281197
 20
83.4963940715
 30
0.0
 11
125.788897877
 21
84.124109212
 31
0.0
  0
LINE
  5
AC
330
1F
100
AcDbEntity
  8
0
  6
Continuous
 62
     7
370
    25
100
AcDbLine
 10
125.6327281197
 20
83.4963940715
 30
0.0
 11
121.7240063896
 21
83.4963940715
 31
0.0
  0
SPLINE
  5
AD
330
1F
100
AcDbEntity
  8
0
  6
Continuous
 62
     7
370
    25
100
AcDbSpline
210
0.0
220
0.0
230
1.0
 70
     8
 71
     3
 72
    16
 73
    12
 74
     0
 42
0.000000001
 43
0.00000001
 40
0.0
 40
0.0
 40
0.0
 40
0.0
 40
0.0929885178610358
 40
0.1859684334202355
 40
0.2798026981798666
 40
0.3736271083938942
 40
0.4988494961435066
 40
0.6240716578888065
 40
0.7526321746682786
 40
0.8812280050585334
 40
1.0
 40
1.0
 40
1.0
 40
1.0
 10
121.7240063896259
 20
83.49639407146256
 30
0.0
 10
121.631738460745
 20
83.8290407999855
 30
0.0
 10
121.4472111386239
 20
84.49430348411843
 30
0.0
 10
121.2220948430624
 20
85.50871642230511
 30
0.0
 10
121.0445402553155
 20
86.53559531185572
 30
0.0
 10
120.9110816973339
 20
87.68995120090307
 30
0.0
 10
120.8566212513717
 20
88.9681954820602
 30
0.0
 10
120.9140895415718
 20
90.37556462180045
 30
0.0
 10
121.092776896736
 20
91.78499461845482
 30
0.0
 10
121.3644340270021
 20
93.15509702679385
 30
0.0
 10
121.6073648104532
 20
94.04078946882747
 30
0.0
 10
121.7240063896259
 20
94.46604872840922
 30
0.0
  0
LINE
  5
AE
330
1F
100
AcDbEntity
  8
0
  6
Continuous
 62
     7
370
    25
100
AcDbLine
 10
125.6327281197
 20
94.4660487284
 30
0.0
 11
121.7240063896
 21
94.4660487284
 31
0.0
  0
LINE
  5
AF
330
1F
100
AcDbEntity
  8
0
  6
Continuous
 62
     7
370
    25
100
AcDbLine
 10
125.788897877
 20
93.8383335878
 30
0.0
 11
125.6327281197
 21
94.4660487284
 31
0.0
  0
LINE
  5
B0
330
1F
100
AcDbEntity
  8
0
  6
Continuous
 62
     7
370
    25
100
AcDbLine
 10
125.9450676342
 20
94.4660487284
 30
0.0
 11
125.788897877
 21
93.8383335878
 31
0.0
  0
LINE
  5
B1
330
1F
100
AcDbEntity
  8
0
  6
Continuous
 62
     7
370
    25
100
AcDbLine
 10
129.8537893643
 20
99.9508760569
 30
0.0
 11
125.9450676342
 21
99.9508760569
 31
0.0
  0
SPLINE
  5
B2
330
1F
100
AcDbEntity
  8
0
  6
Continuous
 62
     7
370
    25
100
AcDbSpline
210
0.0
220
0.0
230
1.0
 70
     8
 71
     3
 72
    15
 73
    11
 74
     0
 42
0.000000001
 43
0.00000001
 40
0.0
 40
0.0
 40
0.0
 40
0.0
 40
0.132305701945699
 40
0.2645739711615568
 40
0.3998012119107648
 40
0.5350039810752782
 40
0.6501944293983923
 40
0.7654027730894072
 40
0.8826900743328735
 40
1.0
 40
1.0
 40
1.0
 40
1.0
 10
129.8537893643459
 20
94.46604872840922
 30
0.0
 10
129.9829565602772
 20
94.7030160795262
 30
0.0
 10
130.241254407375
 20
95.17688373752313
 30
0.0
 10
130.5191706855065
 20
95.90659716652611
 30
0.0
 10
130.6862761892222
 20
96.65006700772423
 30
0.0
 10
130.7193652995582
 20
97.36660270530095
 30
0.0
 10
130.6335070990107
 20
98.04442758270949
 30
0.0
 10
130.4575766543691
 20
98.68412356567516
 30
0.0
 10
130.1995110300442
 20
99.32092943386643
 30
0.0
 10
129.9690373284964
 20
99.74088034926771
 30
0.0
 10
129.8537893643459
 20
99.95087605688255
 30
0.0
  0
LINE
  5
B3
330
1F
100
AcDbEntity
  8
0
  6
Continuous
 62
     7
370
    25
100
AcDbLine
 10
125.788897877
 20
94.7799067644
 30
0.0
 11
125.9450676342
 21
94.4660487284
 31
0.0
  0
LINE
  5
B4
330
1F
100
AcDbEntity
  8
0
  6
Continuous
 62
     7
370
    25
100
AcDbLine
 10
125.6327281197
 20
94.4660487284
 30
0.0
 11
125.788897877
 21
94.7799067644
 31
0.0
  0
SPLINE
  5
B5
330
1F
100
AcDbEntity
  8
0
  6
Continuous
 62
     7
370
    25
100
AcDbSpline
210
0.0
220
0.0
230
1.0
 70
     8
 71
     3
 72
    15
 73
    11
 74
     0
 42
0.000000001
 43
0.00000001
 40
0.0
 40
0.0
 40
0.0
 40
0.0
 40
0.1323057012602369
 40
0.2645739697908265
 40
0.3998012006614076
 40
0.5350039728637891
 40
0.6501944257921894
 40
0.7654027576403793
 40
0.8826900749406439
 40
0.9999999999999999
 40
0.9999999999999999
 40
0.9999999999999999
 40
0.9999999999999999
 10
121.7240063896259
 20
94.46604872840922
 30
0.0
 10
121.59483923909
 20
94.70301608105413
 30
0.0
 10
121.3365414827701
 20
95.17688374210654
 30
0.0
 10
121.058624525256
 20
95.90659713127604
 30
0.0
 10
120.891521681888
 20
96.65006705173867
 30
0.0
 10
120.8584283376801
 20
97.36660271988073
 30
0.0
 10
120.9442895574992
 20
98.04442751369761
 30
0.0
 10
121.1202173971417
 20
98.68412367385842
 30
0.0
 10
121.3782851328347
 20
99.3209293665924
 30
0.0
 10
121.608758567244
 20
99.74088033678588
 30
0.0
 10
121.7240063896259
 20
99.95087605688255
 30
0.0
  0
LINE
  5
B6
330
1F
100
AcDbEntity
  8
0
  6
Continuous
 62
     7
370
    25
100
AcDbLine
 10
125.6327281197
 20
99.9508760569
 30
0.0
 11
121.7240063896
 21
99.9508760569
 31
0.0
  0
LINE
  5
B7
330
1F
100
AcDbEntity
  8
0
  6
Continuous
 62
     7
370
    25
100
AcDbLine
 10
125.788897877
 20
99.6370184866
 30
0.0
 11
125.6327281197
 21
99.9508760569
 31
0.0
  0
LINE
  5
B8
330
1F
100
AcDbEntity
  8
0
  6
Continuous
 62
     7
370
    25
100
AcDbLine
 10
125.9450676342
 20
99.9508760569
 30
0.0
 11
125.788897877
 21
99.6370184866
 31
0.0
  0
LINE
  5
B9
330
1F
100
AcDbEntity
  8
0
  6
Continuous
 62
     7
370
    25
100
AcDbLine
 10
125.788897877
 20
94.7799067644
 30
0.0
 11
125.788897877
 21
93.8383335878
 31
0.0
  0
SPLINE
  5
BA
330
1F
100
AcDbEntity
  8
0
  6
Continuous
 62
     7
370
    25
100
AcDbSpline
210
0.0
220
0.0
230
1.0
 70
     8
 71
     3
 72
    15
 73
    11
 74
     0
 42
0.000000001
 43
0.00000001
 40
0.0
 40
0.0
 40
0.0
 40
0.0
 40
0.1323056877110737
 40
0.2645739479885554
 40
0.3998012094750219
 40
0.5350039966972207
 40
0.6501944060393672
 40
0.7654027883544242
 40
0.8826900601954766
 40
0.9999999999999999
 40
0.9999999999999999
 40
0.9999999999999999
 40
0.9999999999999999
 10
129.8537893643459
 20
78.01156674298923
 30
0.0
 10
129.9829565602261
 20
78.24853371213419
 30
0.0
 10
130.2412544123886
 20
78.72240061577389
 30
0.0
 10
130.5191707172503
 20
79.45211426160353
 30
0.0
 10
130.6862761746157
 20
80.19558465312065
 30
0.0
 10
130.7193653263846
 20
80.91212024522349
 30
0.0
 10
130.6335070324596
 20
81.58994459791386
 30
0.0
 10
130.4575767460929
 20
82.22964127190603
 30
0.0
 10
130.1995109538988
 20
82.86644623374747
 30
0.0
 10
129.9690373173711
 20
83.28639793294185
 30
0.0
 10
129.8537893643459
 20
83.49639407146256
 30
0.0
  0
LINE
  5
BB
330
1F
100
AcDbEntity
  8
0
  6
Continuous
 62
     7
370
    25
100
AcDbLine
 10
129.8537893643
 20
78.011566743
 30
0.0
 11
125.9450676342
 21
78.011566743
 31
0.0
  0
LINE
  5
BC
330
1F
100
AcDbEntity
  8
0
  6
Continuous
 62
     7
370
    25
100
AcDbLine
 10
125.788897877
 20
78.3254243133
 30
0.0
 11
125.9450676342
 21
78.011566743
 31
0.0
  0
LINE
  5
BD
330
1F
100
AcDbEntity
  8
0
  6
Continuous
 62
     7
370
    25
100
AcDbLine
 10
125.6327281197
 20
78.011566743
 30
0.0
 11
125.788897877
 21
78.3254243133
 31
0.0
  0
LINE
  5
BE
330
1F
100
AcDbEntity
  8
0
  6
Continuous
 62
     7
370
    25
100
AcDbLine
 10
125.6327281197
 20
78.011566743
 30
0.0
 11
121.7240063896
 21
78.011566743
 31
0.0
  0
SPLINE
  5
BF
330
1F
100
AcDbEntity
  8
0
  6
Continuous
 62
     7
370
    25
100
AcDbSpline
210
0.0
220
0.0
230
1.0
 70
     8
 71
     3
 72
    15
 73
    11
 74
     0
 42
0.000000001
 43
0.00000001
 40
0.0
 40
0.0
 40
0.0
 40
0.0
 40
0.1323056870256103
 40
0.2645739466178224
 40
0.399801198225662
 40
0.5350039884857266
 40
0.6501944024331603
 40
0.7654027729053949
 40
0.8826900608032485
 40
1.0
 40
1.0
 40
1.0
 40
1.0
 10
121.7240063896259
 20
78.01156674298923
 30
0.0
 10
121.594839239141
 20
78.24853371366214
 30
0.0
 10
121.3365414777566
 20
78.72240062035729
 30
0.0
 10
121.0586244935122
 20
79.45211422635346
 30
0.0
 10
120.8915216964946
 20
80.19558469713509
 30
0.0
 10
120.8584283108539
 20
80.91212025980327
 30
0.0
 10
120.9442896240503
 20
81.58994452890202
 30
0.0
 10
121.1202173054179
 20
82.2296413800893
 30
0.0
 10
121.3782852089803
 20
82.86644616647338
 30
0.0
 10
121.6087585783693
 20
83.28639792046002
 30
0.0
 10
121.7240063896259
 20
83.49639407146256
 30
0.0
  0
LINE
  5
C0
330
1F
100
AcDbEntity
  8
0
  6
Continuous
 62
     7
370
    25
100
AcDbLine
 10
125.788897877
 20
83.1825360355
 30
0.0
 11
125.6327281197
 21
83.4963940715
 31
0.0
  0
LINE
  5
C1
330
1F
100
AcDbEntity
  8
0
  6
Continuous
 62
     7
370
    25
100
AcDbLine
 10
125.9450676342
 20
83.4963940715
 30
0.0
 11
125.788897877
 21
83.1825360355
 31
0.0
  0
LINE
  5
C2
330
1F
100
AcDbEntity
  8
0
  6
Continuous
 62
     7
370
    25
100
AcDbLine
 10
125.788897877
 20
84.124109212
 30
0.0
 11
125.788897877
 21
83.1825360355
 31
0.0
  0
LINE
  5
C3
330
1F
100
AcDbEntity
  8
0
  6
Continuous
 62
     7
370
    25
100
AcDbLine
 10
120.7888979887
 20
88.9812213999
 30
0.0
 11
120.7888979887
 21
98.3312213493
 31
0.0
  0
LINE
  5
C4
330
1F
100
AcDbEntity
  8
0
  6
Continuous
 62
     7
370
    25
100
AcDbLine
 10
120.7888979887
 20
79.6312214506
 30
0.0
 11
120.7888979887
 21
88.9812213999
 31
0.0
  0
LINE
  5
C5
330
1F
100
AcDbEntity
  8
0
  6
Continuous
 62
     7
370
    25
100
AcDbLine
 10
130.7888986965
 20
88.9812213999
 30
0.0
 11
130.7888986965
 21
98.3312213493
 31
0.0
  0
LINE
  5
C6
330
1F
100
AcDbEntity
  8
0
  6
Continuous
 62
     7
370
    25
100
AcDbLine
 10
130.7888986965
 20
79.6312214506
 30
0.0
 11
130.7888986965
 21
88.9812213999
 31
0.0
  0
LINE
  5
C7
330
1F
100
AcDbEntity
  8
0
  6
Continuous
 62
     7
370
    25
100
AcDbLine
 10
132.7888971617
 20
88.9812213999
 30
0.0
 11
132.7888971617
 21
79.931220941
 31
0.0
  0
LINE
  5
C8
330
1F
100
AcDbEntity
  8
0
  6
Continuous
 62
     7
370
    25
100
AcDbLine
 10
132.7888971617
 20
98.0312218589
 30
0.0
 11
132.7888971617
 21
88.9812213999
 31
0.0
  0
LINE
  5
C9
330
1F
100
AcDbEntity
  8
0
  6
Continuous
 62
     7
370
    25
100
AcDbLine
 10
118.7888976609
 20
79.931220941
 30
0.0
 11
118.7888976609
 21
98.0312218589
 31
0.0
  0
LINE
  5
CA
330
1F
100
AcDbEntity
  8
0
  6
Continuous
 62
     7
370
    25
100
AcDbLine
 10
125.788897877
 20
99.6508765665
 30
0.0
 11
125.788897877
 21
99.6370184866
 31
0.0
  0
LINE
  5
CB
330
1F
100
AcDbEntity
  8
0
  6
Continuous
 62
     7
370
    25
100
AcDbLine
 10
125.788897877
 20
78.3254243133
 30
0.0
 11
125.788897877
 21
78.3115662334
 31
0.0
  0
LINE
  5
CC
330
1F
100
AcDbEntity
  8
0
  6
Continuous
 62
     7
370
    25
100
AcDbLine
 10
114.5128068937
 20
94.7312214111
 30
0.0
 11
114.5128068937
 21
91.6269726285
 31
0.0
  0
SPLINE
  5
CD
330
1F
100
AcDbEntity
  8
0
  6
Continuous
 62
     7
370
    25
100
AcDbSpline
210
0.0
220
0.0
230
1.0
 70
     8
 71
     3
 72
    12
 73
     8
 74
     0
 42
0.000000001
 43
0.00000001
 40
0.0
 40
0.0
 40
0.0
 40
0.0
 40
0.25
 40
0.25
 40
0.5
 40
0.5
 40
1.0
 40
1.0
 40
1.0
 40
1.0
 10
114.4395837566177
 20
91.61360676293287
 30
0.0
 10
114.4538610583724
 20
91.61191261810697
 30
0.0
 10
114.4655761657938
 20
91.60998640855087
 30
0.0
 10
114.4846595235839
 20
91.60707094726037
 30
0.0
 10
114.4920277739527
 20
91.60608169552597
 30
0.0
 10
114.508778536901
 20
91.60662100797859
 30
0.0
 10
114.5128070613225
 20
91.61165663982139
 30
0.0
 10
114.5128070613225
 20
91.62697271100048
 30
0.0
  0
SPLINE
  5
CE
330
1F
100
AcDbEntity
  8
0
  6
Continuous
 62
     7
370
    25
100
AcDbSpline
210
0.0
220
0.0
230
1.0
 70
     8
 71
     3
 72
    10
 73
     6
 74
     0
 42
0.000000001
 43
0.00000001
 40
0.0
 40
0.0
 40
0.0
 40
0.0
 40
0.5
 40
0.5
 40
1.0
 40
1.0
 40
1.0
 40
1.0
 10
114.4395837566177
 20
91.61360676293287
 30
0.0
 10
114.4110291531083
 20
91.61699505258466
 30
0.0
 10
114.3780076180314
 20
91.62033653960155
 30
0.0
 10
114.3150692108855
 20
91.62532536880947
 30
0.0
 10
114.2851523388164
 20
91.62697271100048
 30
0.0
 10
114.2628070613225
 20
91.62697271100048
 30
0.0
  0
LINE
  5
CF
330
1F
100
AcDbEntity
  8
0
  6
Continuous
 62
     7
370
    25
100
AcDbLine
 10
114.2628068527
 20
91.6269726285
 30
0.0
 11
114.2628068527
 21
94.7312214111
 31
0.0
  0
LINE
  5
D0
330
1F
100
AcDbEntity
  8
0
  6
Continuous
 62
     7
370
    25
100
AcDbLine
 10
114.2628068527
 20
94.7312214111
 30
0.0
 11
114.5128068937
 21
94.7312214111
 31
0.0
  0
LINE
  5
D1
330
1F
100
AcDbEntity
  8
0
  6
Continuous
 62
     7
370
    25
100
AcDbLine
 10
112.7628070725
 20
96.2312211913
 30
0.0
 11
109.6585582899
 21
96.2312211913
 31
0.0
  0
LINE
  5
D2
330
1F
100
AcDbEntity
  8
0
  6
Continuous
 62
     7
370
    25
100
AcDbLine
 10
112.7628070725
 20
95.981221616
 30
0.0
 11
112.7628070725
 21
96.2312211913
 31
0.0
  0
ARC
  5
D3
330
1F
100
AcDbEntity
  8
0
  6
Continuous
 62
     7
370
    25
100
AcDbCircle
 10
114.0128070613
 20
95.9812213999
 30
0.0
 40
1.25
100
AcDbArc
 50
180.0
 51
270.0
  0
LINE
  5
D4
330
1F
100
AcDbEntity
  8
0
  6
Continuous
 62
     7
370
    25
100
AcDbLine
 10
114.2628068527
 20
94.7312214111
 30
0.0
 11
114.0128072774
 21
94.7312214111
 31
0.0
  0
LINE
  5
D5
330
1F
100
AcDbEntity
  8
0
  6
Continuous
 62
     7
370
    25
100
AcDbLine
 10
114.2628068527
 20
91.6269726285
 30
0.0
 11
114.2628068527
 21
88.9812213999
 31
0.0
  0
LINE
  5
D6
330
1F
100
AcDbEntity
  8
0
  6
Continuous
 62
     7
370
    25
100
AcDbLine
 10
114.2628068527
 20
88.9812213999
 30
0.0
 11
114.2628068527
 21
86.3354701714
 31
0.0
  0
LINE
  5
D7
330
1F
100
AcDbEntity
  8
0
  6
Continuous
 62
     7
370
    25
100
AcDbLine
 10
114.2628068527
 20
83.2312213888
 30
0.0
 11
114.2628068527
 21
86.3354701714
 31
0.0
  0
LINE
  5
D8
330
1F
100
AcDbEntity
  8
0
  6
Continuous
 62
     7
370
    25
100
AcDbLine
 10
103.0128068713
 20
83.2312213888
 30
0.0
 11
114.2628068527
 21
83.2312213888
 31
0.0
  0
ARC
  5
D9
330
1F
100
AcDbEntity
  8
0
  6
Continuous
 62
     7
370
    25
100
AcDbCircle
 10
103.0128070613
 20
84.9812213999
 30
0.0
 40
1.75
100
AcDbArc
 50
180.0
 51
270.0
  0
LINE
  5
DA
330
1F
100
AcDbEntity
  8
0
  6
Continuous
 62
     7
370
    25
100
AcDbLine
 10
101.2628070501
 20
96.2312211913
 30
0.0
 11
101.2628070501
 21
84.9812212099
 31
0.0
  0
LINE
  5
DB
330
1F
100
AcDbEntity
  8
0
  6
Continuous
 62
     7
370
    25
100
AcDbLine
 10
104.3670558328
 20
96.2312211913
 30
0.0
 11
101.2628070501
 21
96.2312211913
 31
0.0
  0
LINE
  5
DC
330
1F
100
AcDbEntity
  8
0
  6
Continuous
 62
     7
370
    25
100
AcDbLine
 10
104.3670558328
 20
96.2312211913
 30
0.0
 11
107.0128070613
 21
96.2312211913
 31
0.0
  0
LINE
  5
DD
330
1F
100
AcDbEntity
  8
0
  6
Continuous
 62
     7
370
    25
100
AcDbLine
 10
107.0128070613
 20
96.2312211913
 30
0.0
 11
109.6585582899
 21
96.2312211913
 31
0.0
  0
LINE
  5
DE
330
1F
100
AcDbEntity
  8
0
  6
Continuous
 62
     7
370
    25
100
AcDbLine
 10
111.8647089651
 20
88.800266908
 30
0.0
 11
112.8399843773
 21
86.0734395382
 31
0.0
  0
SPLINE
  5
DF
330
1F
100
AcDbEntity
  8
0
  6
Continuous
 62
     7
370
    25
100
AcDbSpline
210
0.0
220
0.0
230
1.0
 70
     8
 71
     3
 72
    14
 73
    10
 74
     0
 42
0.000000001
 43
0.00000001
 40
0.0
 40
0.0
 40
0.0
 40
0.0
 40
0.25
 40
0.25
 40
0.5
 40
0.5
 40
0.75
 40
0.75
 40
1.0
 40
1.0
 40
1.0
 40
1.0
 10
110.4910612909688
 20
88.80026690457866
 30
0.0
 10
110.5514577141676
 20
88.93090428488351
 30
0.0
 10
110.650987275825
 20
89.04096865004902
 30
0.0
 10
110.8920729665714
 20
89.19074593352221
 30
0.0
 10
111.0333899998648
 20
89.23109187065663
 30
0.0
 10
111.3209832139774
 20
89.23135030158619
 30
0.0
 10
111.4624408698663
 20
89.19152926448844
 30
0.0
 10
111.7060608069647
 20
89.04017185033337
 30
0.0
 10
111.8043178059317
 20
88.9308926044337
 30
0.0
 10
111.8647088290114
 20
88.8002669045792
 30
0.0
  0
LINE
  5
E0
330
1F
100
AcDbEntity
  8
0
  6
Continuous
 62
     7
370
    25
100
AcDbLine
 10
109.5160121521
 20
86.0740721391
 30
0.0
 11
110.4910612529
 21
88.800266908
 31
0.0
  0
SPLINE
  5
E1
330
1F
100
AcDbEntity
  8
0
  6
Continuous
 62
     7
370
    25
100
AcDbSpline
210
0.0
220
0.0
230
1.0
 70
     8
 71
     3
 72
    10
 73
     6
 74
     0
 42
0.000000001
 43
0.00000001
 40
0.0
 40
0.0
 40
0.0
 40
0.0
 40
0.5
 40
0.5
 40
1.0
 40
1.0
 40
1.0
 40
1.0
 10
109.1154081155057
 20
85.93803853165096
 30
0.0
 10
109.1858600137627
 20
85.8992680695208
 30
0.0
 10
109.2711920088575
 20
85.89194572946724
 30
0.0
 10
109.4231779220192
 20
85.94091104450962
 30
0.0
 10
109.4888824872842
 20
85.99821912603431
 30
0.0
 10
109.5160120738333
 20
86.07407225468151
 30
0.0
  0
LINE
  5
E2
330
1F
100
AcDbEntity
  8
0
  6
Continuous
 62
     7
370
    25
100
AcDbLine
 10
108.3477986002
 20
86.3604626783
 30
0.0
 11
109.1154081704
 21
85.9380385072
 31
0.0
  0
LINE
  5
E3
330
1F
100
AcDbEntity
  8
0
  6
Continuous
 62
     7
370
    25
100
AcDbLine
 10
109.3475859569
 20
84.4545345453
 30
0.0
 11
108.3477986002
 21
86.3604626783
 31
0.0
  0
SPLINE
  5
E4
330
1F
100
AcDbEntity
  8
0
  6
Continuous
 62
     7
370
    25
100
AcDbSpline
210
0.0
220
0.0
230
1.0
 70
     8
 71
     3
 72
    10
 73
     6
 74
     0
 42
0.000000001
 43
0.00000001
 40
0.0
 40
0.0
 40
0.0
 40
0.0
 40
0.5
 40
0.5
 40
1.0
 40
1.0
 40
1.0
 40
1.0
 10
109.8379578057082
 20
84.36596031243069
 30
0.0
 10
109.7658468113861
 20
84.3019545426267
 30
0.0
 10
109.6647426845463
 20
84.27436920437312
 30
0.0
 10
109.4771848265064
 20
84.30816996433688
 30
0.0
 10
109.392381600914
 20
84.36913892250728
 30
0.0
 10
109.3475859621304
 20
84.45453435363335
 30
0.0
  0
SPLINE
  5
E5
330
1F
100
AcDbEntity
  8
0
  6
Continuous
 62
     7
370
    25
100
AcDbSpline
210
0.0
220
0.0
230
1.0
 70
     8
 71
     3
 72
    14
 73
    10
 74
     0
 42
0.000000001
 43
0.00000001
 40
0.0
 40
0.0
 40
0.0
 40
0.0
 40
0.4999999999999987
 40
0.4999999999999987
 40
0.6249999999999988
 40
0.6249999999999988
 40
0.7499999999999993
 40
0.7499999999999993
 40
1.0
 40
1.0
 40
1.0
 40
1.0
 10
112.5178123142721
 20
84.3659603124306
 30
0.0
 10
112.1497918257023
 20
84.69261555960877
 30
0.0
 10
111.6657440419809
 20
84.86773840300087
 30
0.0
 10
111.0560182559093
 20
84.86776150149004
 30
0.0
 10
110.9329113972686
 20
84.85679461910009
 30
0.0
 10
110.6938433048118
 20
84.81391413516992
 30
0.0
 10
110.5766563726996
 20
84.78206827844345
 30
0.0
 10
110.232419310377
 20
84.65406191851466
 30
0.0
 10
110.02198852381
 20
84.52930610859413
 30
0.0
 10
109.8379578057082
 20
84.36596031243069
 30
0.0
  0
SPLINE
  5
E6
330
1F
100
AcDbEntity
  8
0
  6
Continuous
 62
     7
370
    25
100
AcDbSpline
210
0.0
220
0.0
230
1.0
 70
     8
 71
     3
 72
    10
 73
     6
 74
     0
 42
0.000000001
 43
0.00000001
 40
0.0
 40
0.0
 40
0.0
 40
0.0
 40
0.5
 40
0.5
 40
1.0
 40
1.0
 40
1.0
 40
1.0
 10
113.00818415785
 20
84.45453435363368
 30
0.0
 10
112.9633851684628
 20
84.36913253513895
 30
0.0
 10
112.8781013228052
 20
84.30794408536322
 30
0.0
 10
112.6906114632044
 20
84.27443356729012
 30
0.0
 10
112.5899323978851
 20
84.30194647496548
 30
0.0
 10
112.5178123142721
 20
84.36596031243059
 30
0.0
  0
LINE
  5
E7
330
1F
100
AcDbEntity
  8
0
  6
Continuous
 62
     7
370
    25
100
AcDbLine
 10
114.0195309607
 20
86.3824989346
 30
0.0
 11
113.0081840282
 21
84.4545345453
 31
0.0
  0
LINE
  5
E8
330
1F
100
AcDbEntity
  8
0
  6
Continuous
 62
     7
370
    25
100
AcDbLine
 10
113.2445094598
 20
85.9396049918
 30
0.0
 11
114.0195309607
 21
86.3824989346
 31
0.0
  0
SPLINE
  5
E9
330
1F
100
AcDbEntity
  8
0
  6
Continuous
 62
     7
370
    25
100
AcDbSpline
210
0.0
220
0.0
230
1.0
 70
     8
 71
     3
 72
    10
 73
     6
 74
     0
 42
0.000000001
 43
0.00000001
 40
0.0
 40
0.0
 40
0.0
 40
0.0
 40
0.5
 40
0.5
 40
1.0
 40
1.0
 40
1.0
 40
1.0
 10
112.8399843478798
 20
86.07343952500564
 30
0.0
 10
112.86742652307
 20
85.99671241229137
 30
0.0
 10
112.9345091537424
 20
85.93910522692632
 30
0.0
 10
113.0873170082025
 20
85.89114947804285
 30
0.0
 10
113.1739094933674
 20
85.89925982628961
 30
0.0
 10
113.2445095522181
 20
85.93960495928646
 30
0.0
  0
SPLINE
  5
EA
330
1F
100
AcDbEntity
  8
0
  6
Continuous
 62
     7
370
    25
100
AcDbSpline
210
0.0
220
0.0
230
1.0
 70
     8
 71
     3
 72
    10
 73
     6
 74
     0
 42
0.000000001
 43
0.00000001
 40
0.0
 40
0.0
 40
0.0
 40
0.0
 40
0.5
 40
0.5
 40
1.0
 40
1.0
 40
1.0
 40
1.0
 10
114.4395837566177
 20
86.34883603693892
 30
0.0
 10
114.4110291531083
 20
86.34544774728712
 30
0.0
 10
114.3780076180314
 20
86.34210626027023
 30
0.0
 10
114.3150692108855
 20
86.33711743106231
 30
0.0
 10
114.2851523388164
 20
86.33547008887129
 30
0.0
 10
114.2628070613225
 20
86.33547008887129
 30
0.0
  0
SPLINE
  5
EB
330
1F
100
AcDbEntity
  8
0
  6
Continuous
 62
     7
370
    25
100
AcDbSpline
210
0.0
220
0.0
230
1.0
 70
     8
 71
     3
 72
    12
 73
     8
 74
     0
 42
0.000000001
 43
0.00000001
 40
0.0
 40
0.0
 40
0.0
 40
0.0
 40
0.25
 40
0.25
 40
0.5
 40
0.5
 40
1.0
 40
1.0
 40
1.0
 40
1.0
 10
114.4395837566177
 20
86.34883603693892
 30
0.0
 10
114.4538610583724
 20
86.35053018176481
 30
0.0
 10
114.4655761657938
 20
86.35245639132091
 30
0.0
 10
114.4846595235839
 20
86.35537185261143
 30
0.0
 10
114.4920277739527
 20
86.35636110434582
 30
0.0
 10
114.508778536901
 20
86.3558217918932
 30
0.0
 10
114.5128070613225
 20
86.3507861600504
 30
0.0
 10
114.5128070613225
 20
86.33547008887129
 30
0.0
  0
LINE
  5
EC
330
1F
100
AcDbEntity
  8
0
  6
Continuous
 62
     7
370
    25
100
AcDbLine
 10
114.5128068937
 20
86.3354701714
 30
0.0
 11
114.5128068937
 21
83.2312213888
 31
0.0
  0
LINE
  5
ED
330
1F
100
AcDbEntity
  8
0
  6
Continuous
 62
     7
370
    25
100
AcDbLine
 10
114.2628068527
 20
83.2312213888
 30
0.0
 11
114.5128068937
 21
83.2312213888
 31
0.0
  0
LINE
  5
EE
330
1F
100
AcDbEntity
  8
0
  6
Continuous
 62
     7
370
    25
100
AcDbLine
 10
101.2628070501
 20
96.4812212323
 30
0.0
 11
104.3670558328
 21
96.4812212323
 31
0.0
  0
SPLINE
  5
EF
330
1F
100
AcDbEntity
  8
0
  6
Continuous
 62
     7
370
    25
100
AcDbSpline
210
0.0
220
0.0
230
1.0
 70
     8
 71
     3
 72
    12
 73
     8
 74
     0
 42
0.000000001
 43
0.00000001
 40
0.0
 40
0.0
 40
0.0
 40
0.0
 40
0.25
 40
0.25
 40
0.5
 40
0.5
 40
1.0
 40
1.0
 40
1.0
 40
1.0
 10
104.3804216983256
 20
96.40799809523102
 30
0.0
 10
104.3821158431515
 20
96.42227539698573
 30
0.0
 10
104.3840420527076
 20
96.43399050440712
 30
0.0
 10
104.3869575139981
 20
96.4530738621973
 30
0.0
 10
104.3879467657325
 20
96.46044211256607
 30
0.0
 10
104.3874074532798
 20
96.47719287551438
 30
0.0
 10
104.382371821437
 20
96.48122139993589
 30
0.0
 10
104.3670557502579
 20
96.48122139993589
 30
0.0
  0
SPLINE
  5
F0
330
1F
100
AcDbEntity
  8
0
  6
Continuous
 62
     7
370
    25
100
AcDbSpline
210
0.0
220
0.0
230
1.0
 70
     8
 71
     3
 72
    10
 73
     6
 74
     0
 42
0.000000001
 43
0.00000001
 40
0.0
 40
0.0
 40
0.0
 40
0.0
 40
0.5
 40
0.5
 40
1.0
 40
1.0
 40
1.0
 40
1.0
 10
104.3804216983256
 20
96.40799809523102
 30
0.0
 10
104.3770334086738
 20
96.37944349172163
 30
0.0
 10
104.3736919216569
 20
96.34642195664478
 30
0.0
 10
104.3687030924489
 20
96.28348354949884
 30
0.0
 10
104.3670557502579
 20
96.25356667742976
 30
0.0
 10
104.3670557502579
 20
96.23122139993589
 30
0.0
  0
LINE
  5
F1
330
1F
100
AcDbEntity
  8
0
  6
Continuous
 62
     7
370
    25
100
AcDbLine
 10
101.2628070501
 20
96.4812212323
 30
0.0
 11
101.2628070501
 21
96.2312211913
 31
0.0
  0
LINE
  5
F2
330
1F
100
AcDbEntity
  8
0
  6
Continuous
 62
     7
370
    25
100
AcDbLine
 10
100.0128068453
 20
98.9812211764
 30
0.0
 11
114.0128072774
 21
98.9812211764
 31
0.0
  0
SPLINE
  5
F3
330
1F
100
AcDbEntity
  8
0
  6
Continuous
 62
     7
370
    25
100
AcDbSpline
210
0.0
220
0.0
230
1.0
 70
     8
 71
     3
 72
     8
 73
     4
 74
     0
 42
0.000000001
 43
0.00000001
 40
0.0
 40
0.0
 40
0.0
 40
0.0
 40
1.0
 40
1.0
 40
1.0
 40
1.0
 10
100.9973060878045
 20
84.68443499028015
 30
0.0
 10
100.9847902301199
 20
84.7818504093915
 30
0.0
 10
100.9783243027019
 20
84.88073114691878
 30
0.0
 10
100.9783243027019
 20
84.98122139993589
 30
0.0
  0
LINE
  5
F4
330
1F
100
AcDbEntity
  8
0
  6
Continuous
 62
     7
370
    25
100
AcDbLine
 10
113.3810935033
 20
95.3495078419
 30
0.0
 11
114.0128072774
 21
95.981221616
 31
0.0
  0
SPLINE
  5
F5
330
1F
100
AcDbEntity
  8
0
  6
Continuous
 62
     7
370
    25
100
AcDbSpline
210
0.0
220
0.0
230
1.0
 70
     8
 71
     3
 72
    12
 73
     8
 74
     0
 42
0.000000001
 43
0.00000001
 40
0.0
 40
0.0
 40
0.0
 40
0.0
 40
0.2500000000000002
 40
0.2500000000000002
 40
0.5000000000000004
 40
0.5000000000000004
 40
1.0
 40
1.0
 40
1.0
 40
1.0
 10
113.0472898199432
 20
95.98122139993589
 30
0.0
 10
113.0472898199432
 20
95.89441562281927
 30
0.0
 10
113.0623886728814
 20
95.81093042428239
 30
0.0
 10
113.1098405310679
 20
95.66695023554412
 30
0.0
 10
113.1407455429842
 20
95.60771410262087
 30
0.0
 10
113.2400792947333
 20
95.45740053446389
 30
0.0
 10
113.3124115664689
 20
95.39503176153514
 30
0.0
 10
113.3810935500198
 20
95.34950788863318
 30
0.0
  0
LINE
  5
F6
330
1F
100
AcDbEntity
  8
0
  6
Continuous
 62
     7
370
    25
100
AcDbLine
 10
113.0472897975
 20
96.2312211913
 30
0.0
 11
113.0472897975
 21
95.981221616
 31
0.0
  0
SPLINE
  5
F7
330
1F
100
AcDbEntity
  8
0
  6
Continuous
 62
     7
370
    25
100
AcDbSpline
210
0.0
220
0.0
230
1.0
 70
     8
 71
     3
 72
    14
 73
    10
 74
     0
 42
0.000000001
 43
0.00000001
 40
0.0
 40
0.0
 40
0.0
 40
0.0
 40
0.25
 40
0.25
 40
0.5
 40
0.5
 40
0.75
 40
0.75
 40
1.0
 40
1.0
 40
1.0
 40
1.0
 10
113.0472898199432
 20
96.23122139993589
 30
0.0
 10
113.0472898199432
 20
96.32302379454882
 30
0.0
 10
113.0217796260041
 20
96.40718773346426
 30
0.0
 10
112.9548132582146
 20
96.53428341403563
 30
0.0
 10
112.9129986256132
 20
96.58240588328677
 30
0.0
 10
112.8230381079316
 20
96.65772366306554
 30
0.0
 10
112.7740311158319
 20
96.68509987615886
 30
0.0
 10
112.6727172652927
 20
96.721661726781
 30
0.0
 10
112.619848648642
 20
96.73122139993589
 30
0.0
 10
112.5645311992536
 20
96.73122139993589
 30
0.0
  0
LINE
  5
F8
330
1F
100
AcDbEntity
  8
0
  6
Continuous
 62
     7
370
    25
100
AcDbLine
 10
109.5673254648
 20
96.7312212733
 30
0.0
 11
112.5645312903
 21
96.7312212733
 31
0.0
  0
SPLINE
  5
F9
330
1F
100
AcDbEntity
  8
0
  6
Continuous
 62
     7
370
    25
100
AcDbSpline
210
0.0
220
0.0
230
1.0
 70
    24
 71
     3
 72
    14
 73
    10
 74
     0
 42
0.000000001
 43
0.00000001
 40
0.0
 40
0.0
 40
0.0
 40
0.0
 40
0.25
 40
0.25
 40
0.5
 40
0.5
 40
0.75
 40
0.75
 40
1.0
 40
1.0
 40
1.0
 40
1.0
 10
107.0128070613225
 20
96.73122139993589
 30
0.0
 10
107.2281032918451
 20
96.73122139993589
 30
0.0
 10
107.4434006529884
 20
96.73122139993589
 30
0.0
 10
107.8731344175844
 20
96.73122139993589
 30
0.0
 10
108.0875730869808
 20
96.73122139993589
 30
0.0
 10
108.5146628906909
 20
96.73122139993589
 30
0.0
 10
108.7273163021255
 20
96.73122139993589
 30
0.0
 10
109.1497730046379
 20
96.73122139993589
 30
0.0
 10
109.3595785815232
 20
96.73122139993589
 30
0.0
 10
109.5673255685573
 20
96.73122139993589
 30
0.0
  0
SPLINE
  5
FA
330
1F
100
AcDbEntity
  8
0
  6
Continuous
 62
     7
370
    25
100
AcDbSpline
210
0.0
220
0.0
230
1.0
 70
    24
 71
     3
 72
    14
 73
    10
 74
     0
 42
0.000000001
 43
0.00000001
 40
0.0
 40
0.0
 40
0.0
 40
0.0
 40
0.25
 40
0.25
 40
0.5
 40
0.5
 40
0.75
 40
0.75
 40
1.0
 40
1.0
 40
1.0
 40
1.0
 10
107.0128070613225
 20
96.73122139993589
 30
0.0
 10
106.7975108307999
 20
96.73122139993589
 30
0.0
 10
106.5822134696567
 20
96.73122139993589
 30
0.0
 10
106.1524797050607
 20
96.73122139993589
 30
0.0
 10
105.9380410356642
 20
96.73122139993589
 30
0.0
 10
105.5109512319541
 20
96.73122139993589
 30
0.0
 10
105.2982978205196
 20
96.73122139993589
 30
0.0
 10
104.8758411180072
 20
96.73122139993589
 30
0.0
 10
104.6660355411219
 20
96.73122139993589
 30
0.0
 10
104.4582885540878
 20
96.73122139993589
 30
0.0
  0
LINE
  5
FB
330
1F
100
AcDbEntity
  8
0
  6
Continuous
 62
     7
370
    25
100
AcDbLine
 10
101.4610828323
 20
96.7312212733
 30
0.0
 11
104.4582886578
 21
96.7312212733
 31
0.0
  0
SPLINE
  5
FC
330
1F
100
AcDbEntity
  8
0
  6
Continuous
 62
     7
370
    25
100
AcDbSpline
210
0.0
220
0.0
230
1.0
 70
     8
 71
     3
 72
    14
 73
    10
 74
     0
 42
0.000000001
 43
0.00000001
 40
0.0
 40
0.0
 40
0.0
 40
0.0
 40
0.25
 40
0.25
 40
0.5
 40
0.5
 40
0.75
 40
0.75
 40
1.0
 40
1.0
 40
1.0
 40
1.0
 10
101.4610829233915
 20
96.73122139993589
 30
0.0
 10
101.4058041467659
 20
96.73122139993589
 30
0.0
 10
101.3528254685997
 20
96.72167283569975
 30
0.0
 10
101.2510840008735
 20
96.68488271757495
 30
0.0
 10
101.2020397271511
 20
96.65733167028675
 30
0.0
 10
101.1125916821829
 20
96.58232858271661
 30
0.0
 10
101.0707171138583
 20
96.53414820252462
 30
0.0
 10
101.0038454856546
 20
96.4071848247478
 30
0.0
 10
100.9783243027019
 20
96.32316234465901
 30
0.0
 10
100.9783243027019
 20
96.23122139993589
 30
0.0
  0
LINE
  5
FD
330
1F
100
AcDbEntity
  8
0
  6
Continuous
 62
     7
370
    25
100
AcDbLine
 10
100.9783243252
 20
84.9812212099
 30
0.0
 11
100.9783243252
 21
96.2312211913
 31
0.0
  0
SPLINE
  5
FE
330
1F
100
AcDbEntity
  8
0
  6
Continuous
 62
     7
370
    25
100
AcDbSpline
210
0.0
220
0.0
230
1.0
 70
     8
 71
     3
 72
    12
 73
     8
 74
     0
 42
0.000000001
 43
0.00000001
 40
0.0
 40
0.0
 40
0.0
 40
0.0
 40
0.25
 40
0.25
 40
0.5
 40
0.5
 40
1.0
 40
1.0
 40
1.0
 40
1.0
 10
109.6451924243195
 20
96.40799809523102
 30
0.0
 10
109.6434982794936
 20
96.42227539698573
 30
0.0
 10
109.6415720699375
 20
96.43399050440712
 30
0.0
 10
109.638656608647
 20
96.4530738621973
 30
0.0
 10
109.6376673569126
 20
96.46044211256607
 30
0.0
 10
109.6382066693652
 20
96.47719287551438
 30
0.0
 10
109.643242301208
 20
96.48122139993589
 30
0.0
 10
109.6585583723871
 20
96.48122139993589
 30
0.0
  0
LINE
  5
FF
330
1F
100
AcDbEntity
  8
0
  6
Continuous
 62
     7
370
    25
100
AcDbLine
 10
109.6585582899
 20
96.4812212323
 30
0.0
 11
112.7628070725
 21
96.4812212323
 31
0.0
  0
LINE
  5
100
330
1F
100
AcDbEntity
  8
0
  6
Continuous
 62
     7
370
    25
100
AcDbLine
 10
112.7628070725
 20
96.4812212323
 30
0.0
 11
112.7628070725
 21
96.2312211913
 31
0.0
  0
SPLINE
  5
101
330
1F
100
AcDbEntity
  8
0
  6
Continuous
 62
     7
370
    25
100
AcDbSpline
210
0.0
220
0.0
230
1.0
 70
     8
 71
     3
 72
    10
 73
     6
 74
     0
 42
0.000000001
 43
0.00000001
 40
0.0
 40
0.0
 40
0.0
 40
0.0
 40
0.5
 40
0.5
 40
1.0
 40
1.0
 40
1.0
 40
1.0
 10
109.6451924243195
 20
96.40799809523102
 30
0.0
 10
109.6485807139713
 20
96.37944349172163
 30
0.0
 10
109.6519222009882
 20
96.34642195664478
 30
0.0
 10
109.6569110301961
 20
96.28348354949884
 30
0.0
 10
109.6585583723871
 20
96.25356667742976
 30
0.0
 10
109.6585583723871
 20
96.23122139993589
 30
0.0
  0
SPLINE
  5
102
330
1F
100
AcDbEntity
  8
0
  6
Continuous
 62
     7
370
    25
100
AcDbSpline
210
0.0
220
0.0
230
1.0
 70
    24
 71
     3
 72
    14
 73
    10
 74
     0
 42
0.000000001
 43
0.00000001
 40
0.0
 40
0.0
 40
0.0
 40
0.0
 40
0.25
 40
0.25
 40
0.5
 40
0.5
 40
0.75
 40
0.75
 40
1.0
 40
1.0
 40
1.0
 40
1.0
 10
114.7628070613225
 20
88.98122139993589
 30
0.0
 10
114.7628070613225
 20
88.7659251694133
 30
0.0
 10
114.7628070613225
 20
88.55062780827008
 30
0.0
 10
114.7628070613225
 20
88.12089404367406
 30
0.0
 10
114.7628070613225
 20
87.90645537427758
 30
0.0
 10
114.7628070613225
 20
87.47936557056748
 30
0.0
 10
114.7628070613225
 20
87.26671215913291
 30
0.0
 10
114.7628070613225
 20
86.84425545662053
 30
0.0
 10
114.7628070613225
 20
86.63444987973527
 30
0.0
 10
114.7628070613225
 20
86.42670289270112
 30
0.0
  0
SPLINE
  5
103
330
1F
100
AcDbEntity
  8
0
  6
Continuous
 62
     7
370
    25
100
AcDbSpline
210
0.0
220
0.0
230
1.0
 70
    24
 71
     3
 72
    14
 73
    10
 74
     0
 42
0.000000001
 43
0.00000001
 40
0.0
 40
0.0
 40
0.0
 40
0.0
 40
0.25
 40
0.25
 40
0.5
 40
0.5
 40
0.75
 40
0.75
 40
1.0
 40
1.0
 40
1.0
 40
1.0
 10
114.7628070613225
 20
88.98122139993589
 30
0.0
 10
114.7628070613225
 20
89.19651763045849
 30
0.0
 10
114.7628070613225
 20
89.41181499160172
 30
0.0
 10
114.7628070613225
 20
89.84154875619774
 30
0.0
 10
114.7628070613225
 20
90.0559874255942
 30
0.0
 10
114.7628070613225
 20
90.4830772293043
 30
0.0
 10
114.7628070613225
 20
90.69573064073887
 30
0.0
 10
114.7628070613225
 20
91.11818734325126
 30
0.0
 10
114.7628070613225
 20
91.32799292013652
 30
0.0
 10
114.7628070613225
 20
91.53573990717068
 30
0.0
  0
LINE
  5
104
330
1F
100
AcDbEntity
  8
0
  6
Continuous
 62
     7
370
    25
100
AcDbLine
 10
114.7628069347
 20
94.5329456289
 30
0.0
 11
114.7628069347
 21
91.5357398034
 31
0.0
  0
SPLINE
  5
105
330
1F
100
AcDbEntity
  8
0
  6
Continuous
 62
     7
370
    25
100
AcDbSpline
210
0.0
220
0.0
230
1.0
 70
     8
 71
     3
 72
    14
 73
    10
 74
     0
 42
0.000000001
 43
0.00000001
 40
0.0
 40
0.0
 40
0.0
 40
0.0
 40
0.25
 40
0.25
 40
0.5
 40
0.5
 40
0.75
 40
0.75
 40
1.0
 40
1.0
 40
1.0
 40
1.0
 10
114.7628070613225
 20
94.53294553786692
 30
0.0
 10
114.7628070613225
 20
94.5882243144925
 30
0.0
 10
114.7532584970864
 20
94.64120299265875
 30
0.0
 10
114.7164683789616
 20
94.74294446038492
 30
0.0
 10
114.6889173316734
 20
94.79198873410733
 30
0.0
 10
114.6139142441032
 20
94.88143677907556
 30
0.0
 10
114.5657338639113
 20
94.92331134740013
 30
0.0
 10
114.4387704861344
 20
94.99018297560383
 30
0.0
 10
114.3547480060457
 20
95.01570415855657
 30
0.0
 10
114.2628070613225
 20
95.01570415855657
 30
0.0
  0
LINE
  5
106
330
1F
100
AcDbEntity
  8
0
  6
Continuous
 62
     7
370
    25
100
AcDbLine
 10
114.0128072774
 20
95.0157041361
 30
0.0
 11
114.2628068527
 21
95.0157041361
 31
0.0
  0
SPLINE
  5
107
330
1F
100
AcDbEntity
  8
0
  6
Continuous
 62
     7
370
    25
100
AcDbSpline
210
0.0
220
0.0
230
1.0
 70
     8
 71
     3
 72
    12
 73
     8
 74
     0
 42
0.000000001
 43
0.00000001
 40
0.0
 40
0.0
 40
0.0
 40
0.0
 40
0.4999999999999991
 40
0.4999999999999991
 40
0.7499999999999996
 40
0.7499999999999996
 40
1.0
 40
1.0
 40
1.0
 40
1.0
 10
113.3810935500198
 20
95.34950788863318
 30
0.0
 10
113.4266174229218
 20
95.28082590508221
 30
0.0
 10
113.4889861958505
 20
95.20849363334669
 30
0.0
 10
113.6392997640075
 20
95.10915988159753
 30
0.0
 10
113.6985358969308
 20
95.07825486968129
 30
0.0
 10
113.842516085669
 20
95.03080301149478
 30
0.0
 10
113.9260012842059
 20
95.01570415855657
 30
0.0
 10
114.0128070613225
 20
95.01570415855657
 30
0.0
  0
SPLINE
  5
108
330
1F
100
AcDbEntity
  8
0
  6
Continuous
 62
     7
370
    25
100
AcDbSpline
210
0.0
220
0.0
230
1.0
 70
     8
 71
     3
 72
     8
 73
     4
 74
     0
 42
0.000000001
 43
0.00000001
 40
0.0
 40
0.0
 40
0.0
 40
0.0
 40
1.0
 40
1.0
 40
1.0
 40
1.0
 10
103.0128070613225
 20
82.9467386413152
 30
0.0
 10
102.9123168083054
 20
82.9467386413152
 30
0.0
 10
102.8134360707782
 20
82.95320456873328
 30
0.0
 10
102.7160206516668
 20
82.96572042641786
 30
0.0
  0
LINE
  5
109
330
1F
100
AcDbEntity
  8
0
  6
Continuous
 62
     7
370
    25
100
AcDbLine
 10
114.2628068527
 20
82.9467386638
 30
0.0
 11
103.0128068713
 21
82.9467386638
 31
0.0
  0
SPLINE
  5
10A
330
1F
100
AcDbEntity
  8
0
  6
Continuous
 62
     7
370
    25
100
AcDbSpline
210
0.0
220
0.0
230
1.0
 70
     8
 71
     3
 72
    14
 73
    10
 74
     0
 42
0.000000001
 43
0.00000001
 40
0.0
 40
0.0
 40
0.0
 40
0.0
 40
0.25
 40
0.25
 40
0.5
 40
0.5
 40
0.75
 40
0.75
 40
1.0
 40
1.0
 40
1.0
 40
1.0
 10
114.2628070613225
 20
82.9467386413152
 30
0.0
 10
114.3546094559355
 20
82.9467386413152
 30
0.0
 10
114.4387733948509
 20
82.97224883525432
 30
0.0
 10
114.5658690754223
 20
83.03921520304381
 30
0.0
 10
114.6139915446734
 20
83.08102983564527
 30
0.0
 10
114.6893093244522
 20
83.1709903533268
 30
0.0
 10
114.7166855375455
 20
83.21999734542648
 30
0.0
 10
114.7532473881676
 20
83.32131119596578
 30
0.0
 10
114.7628070613225
 20
83.37417981261639
 30
0.0
 10
114.7628070613225
 20
83.42949726200486
 30
0.0
  0
LINE
  5
10B
330
1F
100
AcDbEntity
  8
0
  6
Continuous
 62
     7
370
    25
100
AcDbLine
 10
114.7628069347
 20
86.4267029965
 30
0.0
 11
114.7628069347
 21
83.4294971709
 31
0.0
  0
SPLINE
  5
10C
330
1F
100
AcDbEntity
  8
0
  6
Continuous
 62
     7
370
    25
100
AcDbSpline
210
0.0
220
0.0
230
1.0
 70
    24
 71
     3
 72
    10
 73
     6
 74
     0
 42
0.000000001
 43
0.00000001
 40
0.0
 40
0.0
 40
0.0
 40
0.0
 40
0.5
 40
0.5
 40
1.0
 40
1.0
 40
1.0
 40
1.0
 10
114.5145268189768
 20
88.98122139993589
 30
0.0
 10
114.4735584251806
 20
88.98122139993589
 30
0.0
 10
114.4295939154361
 20
88.98122139993589
 30
0.0
 10
114.3385472756923
 20
88.98122139993589
 30
0.0
 10
114.3055988351114
 20
88.98122139993589
 30
0.0
 10
114.2628070613225
 20
88.98122139993589
 30
0.0
  0
SPLINE
  5
10D
330
1F
100
AcDbEntity
  8
0
  6
Continuous
 62
     7
370
    25
100
AcDbSpline
210
0.0
220
0.0
230
1.0
 70
     8
 71
     3
 72
    12
 73
     8
 74
     0
 42
0.000000001
 43
0.00000001
 40
0.0
 40
0.0
 40
0.0
 40
0.0
 40
0.25
 40
0.25
 40
0.5
 40
0.5
 40
1.0
 40
1.0
 40
1.0
 40
1.0
 10
114.5145268189768
 20
88.98122139993589
 30
0.0
 10
114.5042847205278
 20
89.19991048614224
 30
0.0
 10
114.4967455089745
 20
89.4182932875556
 30
0.0
 10
114.4824159933501
 20
89.85656343958331
 30
0.0
 10
114.4756256892791
 20
90.0764507901977
 30
0.0
 10
114.4493928388258
 20
90.74154534402295
 30
0.0
 10
114.4397101221375
 20
91.174733049095
 30
0.0
 10
114.4395837566177
 20
91.61360676293287
 30
0.0
  0
SPLINE
  5
10E
330
1F
100
AcDbEntity
  8
0
  6
Continuous
 62
     7
370
    25
100
AcDbSpline
210
0.0
220
0.0
230
1.0
 70
     8
 71
     3
 72
    12
 73
     8
 74
     0
 42
0.000000001
 43
0.00000001
 40
0.0
 40
0.0
 40
0.0
 40
0.0
 40
0.25
 40
0.25
 40
0.5
 40
0.5
 40
1.0
 40
1.0
 40
1.0
 40
1.0
 10
114.5145268189768
 20
88.98122139993589
 30
0.0
 10
114.5042847205278
 20
88.76253231372955
 30
0.0
 10
114.4967455089744
 20
88.5441495123162
 30
0.0
 10
114.4824159933501
 20
88.10587936028847
 30
0.0
 10
114.4756256892791
 20
87.8859920096741
 30
0.0
 10
114.4493928388258
 20
87.22089745584883
 30
0.0
 10
114.4397101221375
 20
86.78770975077678
 30
0.0
 10
114.4395837566177
 20
86.34883603693892
 30
0.0
  0
SPLINE
  5
10F
330
1F
100
AcDbEntity
  8
0
  6
Continuous
 62
     7
370
    25
100
AcDbSpline
210
0.0
220
0.0
230
1.0
 70
    24
 71
     3
 72
    10
 73
     6
 74
     0
 42
0.000000001
 43
0.00000001
 40
0.0
 40
0.0
 40
0.0
 40
0.0
 40
0.5
 40
0.5
 40
1.0
 40
1.0
 40
1.0
 40
1.0
 10
107.0128070613225
 20
96.4829411575902
 30
0.0
 10
107.0128070613225
 20
96.44197276379394
 30
0.0
 10
107.0128070613225
 20
96.39800825404943
 30
0.0
 10
107.0128070613225
 20
96.30696161430562
 30
0.0
 10
107.0128070613225
 20
96.27401317372475
 30
0.0
 10
107.0128070613225
 20
96.23122139993589
 30
0.0
  0
SPLINE
  5
110
330
1F
100
AcDbEntity
  8
0
  6
Continuous
 62
     7
370
    25
100
AcDbSpline
210
0.0
220
0.0
230
1.0
 70
     8
 71
     3
 72
    12
 73
     8
 74
     0
 42
0.000000001
 43
0.00000001
 40
0.0
 40
0.0
 40
0.0
 40
0.0
 40
0.25
 40
0.25
 40
0.5
 40
0.5
 40
1.0
 40
1.0
 40
1.0
 40
1.0
 10
107.0128070613225
 20
96.4829411575902
 30
0.0
 10
106.7941179751162
 20
96.47269905914115
 30
0.0
 10
106.5757351737028
 20
96.46515984758781
 30
0.0
 10
106.1374650216751
 20
96.45083033196346
 30
0.0
 10
105.9175776710607
 20
96.44404002789244
 30
0.0
 10
105.2524831172355
 20
96.41780717743917
 30
0.0
 10
104.8192954121634
 20
96.40812446075087
 30
0.0
 10
104.3804216983256
 20
96.40799809523102
 30
0.0
  0
SPLINE
  5
111
330
1F
100
AcDbEntity
  8
0
  6
Continuous
 62
     7
370
    25
100
AcDbSpline
210
0.0
220
0.0
230
1.0
 70
     8
 71
     3
 72
    12
 73
     8
 74
     0
 42
0.000000001
 43
0.00000001
 40
0.0
 40
0.0
 40
0.0
 40
0.0
 40
0.25
 40
0.25
 40
0.5
 40
0.5
 40
1.0
 40
1.0
 40
1.0
 40
1.0
 10
107.0128070613225
 20
96.4829411575902
 30
0.0
 10
107.2314961475289
 20
96.47269905914115
 30
0.0
 10
107.4498789489422
 20
96.4651598475878
 30
0.0
 10
107.88814910097
 20
96.45083033196346
 30
0.0
 10
108.1080364515843
 20
96.44404002789244
 30
0.0
 10
108.7731310054096
 20
96.41780717743917
 30
0.0
 10
109.2063187104816
 20
96.40812446075087
 30
0.0
 10
109.6451924243195
 20
96.40799809523102
 30
0.0
  0
SPLINE
  5
112
330
1F
100
AcDbEntity
  8
0
  6
Continuous
 62
     7
370
    25
100
AcDbSpline
210
0.0
220
0.0
230
1.0
 70
     8
 71
     3
 72
    10
 73
     6
 74
     0
 42
0.000000001
 43
0.00000001
 40
0.0
 40
0.0
 40
0.0
 40
0.0
 40
0.5
 40
0.5
 40
1.0
 40
1.0
 40
1.0
 40
1.0
 10
110.7222820993522
 20
88.7043986971856
 30
0.0
 10
110.7222820993522
 20
88.7043986971856
 30
0.0
 10
110.6972645919181
 20
88.71497962771565
 30
0.0
 10
110.6120477174072
 20
88.75051441878
 30
0.0
 10
110.5513581309213
 20
88.77559193697371
 30
0.0
 10
110.4910612909688
 20
88.80026690457866
 30
0.0
  0
LINE
  5
113
330
1F
100
AcDbEntity
  8
0
  6
Continuous
 62
     7
370
    25
100
AcDbLine
 10
110.7222821055
 20
88.7043986867
 30
0.0
 11
109.7514090551
 21
85.9898803455
 31
0.0
  0
LWPOLYLINE
  5
114
330
1F
100
AcDbEntity
  8
0
  6
Continuous
 62
     7
370
    25
100
AcDbPolyline
 90
        9
 70
   128
 43
0.0
 10
109.5160121521
 20
86.0740721391
 10
109.5619356682
 20
86.0576473341
 10
109.6060945609
 20
86.0418535003
 10
109.6467914948
 20
86.0272976269
 10
109.6824627792
 20
86.0145396718
 10
109.7117375074
 20
86.0040692778
 10
109.7334904088
 20
85.996289009
 10
109.7468858542
 20
85.9914980528
 10
109.7514090551
 20
85.9898803455
  0
LWPOLYLINE
  5
115
330
1F
100
AcDbEntity
  8
0
  6
Continuous
 62
     7
370
    25
100
AcDbPolyline
 90
        9
 70
   128
 43
0.0
 10
112.8399843773
 20
86.0734395382
 10
112.7940608611
 20
86.0570145005
 10
112.7499017356
 20
86.0412206666
 10
112.7092048017
 20
86.0266650261
 10
112.6735337501
 20
86.0139068381
 10
112.644259022
 20
86.0034364441
 10
112.6225061206
 20
85.9956564081
 10
112.6091104423
 20
85.9908652191
 10
112.6045874743
 20
85.9892475118
  0
LINE
  5
116
330
1F
100
AcDbEntity
  8
0
  6
Continuous
 62
     7
370
    25
100
AcDbLine
 10
112.6045874743
 20
85.9892475118
 30
0.0
 11
111.6334881125
 21
88.7043986867
 31
0.0
  0
SPLINE
  5
117
330
1F
100
AcDbEntity
  8
0
  6
Continuous
 62
     7
370
    25
100
AcDbSpline
210
0.0
220
0.0
230
1.0
 70
     8
 71
     3
 72
    10
 73
     6
 74
     0
 42
0.000000001
 43
0.00000001
 40
0.0
 40
0.0
 40
0.0
 40
0.0
 40
0.5
 40
0.5
 40
1.0
 40
1.0
 40
1.0
 40
1.0
 10
111.6334880206282
 20
88.7043986971857
 30
0.0
 10
111.6334880206282
 20
88.7043986971857
 30
0.0
 10
111.658505528062
 20
88.71497962771612
 30
0.0
 10
111.7437224025726
 20
88.75051441878036
 30
0.0
 10
111.8044119890593
 20
88.77559193697468
 30
0.0
 10
111.8647088290115
 20
88.80026690457922
 30
0.0
  0
SPLINE
  5
118
330
1F
100
AcDbEntity
  8
0
  6
Continuous
 62
     7
370
    25
100
AcDbSpline
210
0.0
220
0.0
230
1.0
 70
     8
 71
     3
 72
    14
 73
    10
 74
     0
 42
0.000000001
 43
0.00000001
 40
0.0
 40
0.0
 40
0.0
 40
0.0
 40
0.25
 40
0.25
 40
0.5
 40
0.5
 40
0.75
 40
0.75
 40
1.0
 40
1.0
 40
1.0
 40
1.0
 10
111.6334880206282
 20
88.70439869718571
 30
0.0
 10
111.5920400013263
 20
88.78924114166676
 30
0.0
 10
111.5261139460991
 20
88.85939853096284
 30
0.0
 10
111.3642716066395
 20
88.95628847078552
 30
0.0
 10
111.2716673409236
 20
88.98131787097041
 30
0.0
 10
111.0830211259691
 20
88.98112437416894
 30
0.0
 10
110.9901842678915
 20
88.95555122787466
 30
0.0
 10
110.8305724591045
 20
88.85989740385924
 30
0.0
 10
110.7637372989361
 20
88.78925583941785
 30
0.0
 10
110.7222820993522
 20
88.7043986971856
 30
0.0
  0
SPLINE
  5
119
330
1F
100
AcDbEntity
  8
0
  6
Continuous
 62
     7
370
    25
100
AcDbSpline
210
0.0
220
0.0
230
1.0
 70
     8
 71
     3
 72
     8
 73
     4
 74
     0
 42
0.000000001
 43
0.00000001
 40
0.0
 40
0.0
 40
0.0
 40
0.0
 40
1.0
 40
1.0
 40
1.0
 40
1.0
 10
109.5673255685573
 20
96.73122139993589
 30
0.0
 10
109.5633203383003
 20
96.66576871949974
 30
0.0
 10
109.5691426512258
 20
96.6007191544915
 30
0.0
 10
109.5819034606563
 20
96.55443869400918
 30
0.0
  0
SPLINE
  5
11A
330
1F
100
AcDbEntity
  8
0
  6
Continuous
 62
     7
370
    25
100
AcDbSpline
210
0.0
220
0.0
230
1.0
 70
     8
 71
     3
 72
    12
 73
     8
 74
     0
 42
0.000000001
 43
0.00000001
 40
0.0
 40
0.0
 40
0.0
 40
0.0
 40
0.25
 40
0.25
 40
0.5
 40
0.5
 40
1.0
 40
1.0
 40
1.0
 40
1.0
 10
107.0128070613225
 20
96.4829411575902
 30
0.0
 10
107.2314961475289
 20
96.49318325603927
 30
0.0
 10
107.4486750525374
 20
96.50786597050268
 30
0.0
 10
107.8800240871178
 20
96.53968836116054
 30
0.0
 10
108.0941942166897
 20
96.556828037355
 30
0.0
 10
108.7322088226896
 20
96.60229610308855
 30
0.0
 10
109.1617354460257
 20
96.5954632520244
 30
0.0
 10
109.5819034606563
 20
96.55443869400918
 30
0.0
  0
SPLINE
  5
11B
330
1F
100
AcDbEntity
  8
0
  6
Continuous
 62
     7
370
    25
100
AcDbSpline
210
0.0
220
0.0
230
1.0
 70
    24
 71
     3
 72
    10
 73
     6
 74
     0
 42
0.000000001
 43
0.00000001
 40
0.0
 40
0.0
 40
0.0
 40
0.0
 40
0.5
 40
0.5
 40
1.0
 40
1.0
 40
1.0
 40
1.0
 10
107.0128070613225
 20
96.4829411575902
 30
0.0
 10
107.0128070613225
 20
96.52390955138647
 30
0.0
 10
107.0128070613225
 20
96.5673649984584
 30
0.0
 10
107.0128070613225
 20
96.65645084367563
 30
0.0
 10
107.0128070613225
 20
96.68883807229096
 30
0.0
 10
107.0128070613225
 20
96.73122139993589
 30
0.0
  0
SPLINE
  5
11C
330
1F
100
AcDbEntity
  8
0
  6
Continuous
 62
     7
370
    25
100
AcDbSpline
210
0.0
220
0.0
230
1.0
 70
     8
 71
     3
 72
    12
 73
     8
 74
     0
 42
0.000000001
 43
0.00000001
 40
0.0
 40
0.0
 40
0.0
 40
0.0
 40
0.25
 40
0.25
 40
0.5
 40
0.5
 40
1.0
 40
1.0
 40
1.0
 40
1.0
 10
107.0128070613225
 20
96.4829411575902
 30
0.0
 10
106.7941179751162
 20
96.49318325603929
 30
0.0
 10
106.5769390701077
 20
96.50786597050268
 30
0.0
 10
106.1455900355273
 20
96.53968836116054
 30
0.0
 10
105.9314199059553
 20
96.556828037355
 30
0.0
 10
105.2934052999555
 20
96.60229610308856
 30
0.0
 10
104.8638786766193
 20
96.5954632520244
 30
0.0
 10
104.4437106619887
 20
96.55443869400918
 30
0.0
  0
SPLINE
  5
11D
330
1F
100
AcDbEntity
  8
0
  6
Continuous
 62
     7
370
    25
100
AcDbSpline
210
0.0
220
0.0
230
1.0
 70
     8
 71
     3
 72
    10
 73
     6
 74
     0
 42
0.000000001
 43
0.00000001
 40
0.0
 40
0.0
 40
0.0
 40
0.0
 40
0.5
 40
0.5
 40
1.0
 40
1.0
 40
1.0
 40
1.0
 10
104.4437106619887
 20
96.55443869400918
 30
0.0
 10
104.4510026424463
 20
96.58299251597276
 30
0.0
 10
104.4548998050712
 20
96.6173525477052
 30
0.0
 10
104.4584360090529
 20
96.68039537223432
 30
0.0
 10
104.4582885540878
 20
96.70887428221256
 30
0.0
 10
104.4582885540878
 20
96.73122139993589
 30
0.0
  0
SPLINE
  5
11E
330
1F
100
AcDbEntity
  8
0
  6
Continuous
 62
     7
370
    25
100
AcDbSpline
210
0.0
220
0.0
230
1.0
 70
    24
 71
     3
 72
    10
 73
     6
 74
     0
 42
0.000000001
 43
0.00000001
 40
0.0
 40
0.0
 40
0.0
 40
0.0
 40
0.5
 40
0.5
 40
1.0
 40
1.0
 40
1.0
 40
1.0
 10
114.5145268189768
 20
88.98122139993589
 30
0.0
 10
114.5554952127731
 20
88.98122139993589
 30
0.0
 10
114.598950659845
 20
88.98122139993589
 30
0.0
 10
114.6880365050623
 20
88.98122139993589
 30
0.0
 10
114.7204237336776
 20
88.98122139993589
 30
0.0
 10
114.7628070613225
 20
88.98122139993589
 30
0.0
  0
SPLINE
  5
11F
330
1F
100
AcDbEntity
  8
0
  6
Continuous
 62
     7
370
    25
100
AcDbSpline
210
0.0
220
0.0
230
1.0
 70
     8
 71
     3
 72
    10
 73
     6
 74
     0
 42
0.000000001
 43
0.00000001
 40
0.0
 40
0.0
 40
0.0
 40
0.0
 40
0.5
 40
0.5
 40
1.0
 40
1.0
 40
1.0
 40
1.0
 10
114.5860243553958
 20
86.41212500060206
 30
0.0
 10
114.6145781773594
 20
86.41941698105971
 30
0.0
 10
114.6489382090918
 20
86.42331414368452
 30
0.0
 10
114.711981033621
 20
86.42685034766626
 30
0.0
 10
114.7404599435992
 20
86.42670289270112
 30
0.0
 10
114.7628070613225
 20
86.42670289270112
 30
0.0
  0
SPLINE
  5
120
330
1F
100
AcDbEntity
  8
0
  6
Continuous
 62
     7
370
    25
100
AcDbSpline
210
0.0
220
0.0
230
1.0
 70
     8
 71
     3
 72
    14
 73
    10
 74
     0
 42
0.000000001
 43
0.00000001
 40
0.0
 40
0.0
 40
0.0
 40
0.0
 40
0.25
 40
0.25
 40
0.5
 40
0.5
 40
0.75
 40
0.75
 40
1.0
 40
1.0
 40
1.0
 40
1.0
 10
114.5145268189768
 20
88.98122139993589
 30
0.0
 10
114.5247689174259
 20
88.76253231372955
 30
0.0
 10
114.5394516318893
 20
88.54535340872107
 30
0.0
 10
114.5712740225472
 20
88.11400437414063
 30
0.0
 10
114.5884136987416
 20
87.8998342445687
 30
0.0
 10
114.618725742564
 20
87.47449117390214
 30
0.0
 10
114.6245955407536
 20
87.26077375040147
 30
0.0
 10
114.6185009866733
 20
86.83463266740908
 30
0.0
 10
114.6065366344034
 20
86.62220900791739
 30
0.0
 10
114.5860243553958
 20
86.41212500060206
 30
0.0
  0
SPLINE
  5
121
330
1F
100
AcDbEntity
  8
0
  6
Continuous
 62
     7
370
    25
100
AcDbSpline
210
0.0
220
0.0
230
1.0
 70
     8
 71
     3
 72
    14
 73
    10
 74
     0
 42
0.000000001
 43
0.00000001
 40
0.0
 40
0.0
 40
0.0
 40
0.0
 40
0.25
 40
0.25
 40
0.5
 40
0.5
 40
0.75
 40
0.75
 40
1.0
 40
1.0
 40
1.0
 40
1.0
 10
114.5145268189768
 20
88.98122139993589
 30
0.0
 10
114.5247689174259
 20
89.19991048614224
 30
0.0
 10
114.5394516318893
 20
89.41708939115072
 30
0.0
 10
114.5712740225472
 20
89.84843842573115
 30
0.0
 10
114.5884136987416
 20
90.0626085553031
 30
0.0
 10
114.618725742564
 20
90.48795162596963
 30
0.0
 10
114.6245955407536
 20
90.70166904947031
 30
0.0
 10
114.6185009866733
 20
91.1278101324627
 30
0.0
 10
114.6065366344034
 20
91.3402337919544
 30
0.0
 10
114.5860243553958
 20
91.5503177992697
 30
0.0
  0
SPLINE
  5
122
330
1F
100
AcDbEntity
  8
0
  6
Continuous
 62
     7
370
    25
100
AcDbSpline
210
0.0
220
0.0
230
1.0
 70
     8
 71
     3
 72
     8
 73
     4
 74
     0
 42
0.000000001
 43
0.00000001
 40
0.0
 40
0.0
 40
0.0
 40
0.0
 40
1.0
 40
1.0
 40
1.0
 40
1.0
 10
114.5860243553958
 20
91.5503177992697
 30
0.0
 10
114.6323048158781
 20
91.53755698983917
 30
0.0
 10
114.6973543808864
 20
91.5317346769137
 30
0.0
 10
114.7628070613225
 20
91.53573990717068
 30
0.0
  0
SPLINE
  5
123
330
1F
100
AcDbEntity
  8
0
  6
Continuous
 62
     7
370
    25
100
AcDbSpline
210
0.0
220
0.0
230
1.0
 70
     8
 71
     3
 72
    12
 73
     8
 74
     0
 42
0.000000001
 43
0.00000001
 40
0.0
 40
0.0
 40
0.0
 40
0.0
 40
0.25
 40
0.25
 40
0.5
 40
0.5
 40
1.0
 40
1.0
 40
1.0
 40
1.0
 10
104.4437106619887
 20
96.55443869400918
 30
0.0
 10
104.4400646717599
 20
96.54016178302737
 30
0.0
 10
104.4355081388275
 20
96.52739924677785
 30
0.0
 10
104.4248895248435
 20
96.50625249389898
 30
0.0
 10
104.418827443792
 20
96.49786827726963
 30
0.0
 10
104.398856184391
 20
96.48130746204541
 30
0.0
 10
104.3835053914218
 20
96.48122139993589
 30
0.0
 10
104.3670557502579
 20
96.48122139993589
 30
0.0
  0
SPLINE
  5
124
330
1F
100
AcDbEntity
  8
0
  6
Continuous
 62
     7
370
    25
100
AcDbSpline
210
0.0
220
0.0
230
1.0
 70
     8
 71
     3
 72
    15
 73
    11
 74
     0
 42
0.000000001
 43
0.00000001
 40
0.0
 40
0.0
 40
0.0
 40
0.0
 40
0.0425877399909041
 40
0.1028282325346875
 40
0.1864706729280299
 40
0.2956205441869006
 40
0.4311891005861807
 40
0.5936297641565581
 40
0.7831876993469636
 40
1.0
 40
1.0
 40
1.0
 40
1.0
 10
114.5128070613225
 20
91.62697271100048
 30
0.0
 10
114.5128128544247
 20
91.62415338751997
 30
0.0
 10
114.5128268418881
 20
91.61734612208383
 30
0.0
 10
114.5133185427198
 20
91.60880592574294
 30
0.0
 10
114.5149458966784
 20
91.59950824321255
 30
0.0
 10
114.5187710450625
 20
91.58970050758553
 30
0.0
 10
114.5261433551033
 20
91.57937486153645
 30
0.0
 10
114.5387613440801
 20
91.56890815008448
 30
0.0
 10
114.5580055462843
 20
91.55857491484382
 30
0.0
 10
114.5762762926546
 20
91.55319054380206
 30
0.0
 10
114.5860243553958
 20
91.5503177992697
 30
0.0
  0
SPLINE
  5
125
330
1F
100
AcDbEntity
  8
0
  6
Continuous
 62
     7
370
    25
100
AcDbSpline
210
0.0
220
0.0
230
1.0
 70
     8
 71
     3
 72
    12
 73
     8
 74
     0
 42
0.000000001
 43
0.00000001
 40
0.0
 40
0.0
 40
0.0
 40
0.0
 40
0.25
 40
0.25
 40
0.5
 40
0.5
 40
1.0
 40
1.0
 40
1.0
 40
1.0
 10
114.5860243553958
 20
86.41212500060206
 30
0.0
 10
114.571747444414
 20
86.40847901037326
 30
0.0
 10
114.5589849081645
 20
86.40392247744082
 30
0.0
 10
114.5378381552856
 20
86.39330386345686
 30
0.0
 10
114.5294539386563
 20
86.38724178240534
 30
0.0
 10
114.5128931234321
 20
86.36727052300438
 30
0.0
 10
114.5128070613225
 20
86.35191973003516
 30
0.0
 10
114.5128070613225
 20
86.33547008887129
 30
0.0
  0
SPLINE
  5
126
330
1F
100
AcDbEntity
  8
0
  6
Continuous
 62
     7
370
    25
100
AcDbSpline
210
0.0
220
0.0
230
1.0
 70
     8
 71
     3
 72
    14
 73
    10
 74
     0
 42
0.000000001
 43
0.00000001
 40
0.0
 40
0.0
 40
0.0
 40
0.0
 40
0.2455893235675696
 40
0.4556181963142487
 40
0.6303106213393677
 40
0.7701164303669036
 40
0.8759901151610805
 40
0.9502659312389182
 40
1.0
 40
1.0
 40
1.0
 40
1.0
 10
109.5819034606563
 20
96.55443869400918
 30
0.0
 10
109.5851950381296
 20
96.54347365469387
 30
0.0
 10
109.5913015844957
 20
96.52313127432173
 30
0.0
 10
109.6032245747549
 20
96.50297926184525
 30
0.0
 10
109.6151536572694
 20
96.4908597023744
 30
0.0
 10
109.6266008646335
 20
96.484653879142
 30
0.0
 10
109.6374863896804
 20
96.48203418016816
 30
0.0
 10
109.6471736514714
 20
96.48125398582312
 30
0.0
 10
109.6552995050647
 20
96.48123072762024
 30
0.0
 10
109.6585583723871
 20
96.48122139993589
 30
0.0
  0
LWPOLYLINE
  5
127
330
1F
100
AcDbEntity
  8
0
  6
Continuous
 62
     7
370
    25
100
AcDbPolyline
 90
       10
 70
   128
 43
0.0
 10
113.400658728
 20
85.7408963774
 10
113.410060895
 20
85.7506435995
 10
113.4379814802
 20
85.7795898036
 10
113.4835720485
 20
85.8268548899
 10
113.5454472577
 20
85.8910027591
 10
113.6217276988
 20
85.9700848513
 10
113.7100948443
 20
86.061697656
 10
113.8078641569
 20
86.1630579156
 10
113.9120651832
 20
86.2710859792
 10
114.0195309607
 20
86.3824989346
  0
LINE
  5
128
330
1F
100
AcDbEntity
  8
0
  6
Continuous
 62
     7
370
    25
100
AcDbLine
 10
113.400658728
 20
85.7408963774
 30
0.0
 11
113.3685495196
 21
85.7225472273
 31
0.0
  0
LWPOLYLINE
  5
129
330
1F
100
AcDbEntity
  8
0
  6
Continuous
 62
     7
370
    25
100
AcDbPolyline
 90
        9
 70
   128
 43
0.0
 10
113.2445094598
 20
85.9396049918
 10
113.2687084799
 20
85.8972591513
 10
113.2919775745
 20
85.8565405642
 10
113.3134226737
 20
85.8190140852
 10
113.3322190916
 20
85.7861218673
 10
113.3476450531
 20
85.7591279482
 10
113.3591073057
 20
85.7390695882
 10
113.3661662651
 20
85.7267179226
 10
113.3685495196
 20
85.7225472273
  0
ARC
  5
12A
330
1F
100
AcDbEntity
  8
0
  6
Continuous
 62
     7
370
    25
100
AcDbCircle
 10
112.7628070613
 20
96.2312213999
 30
0.0
 40
0.25
100
AcDbArc
 50
0.0
 51
90.0
  0
LINE
  5
12B
330
1F
100
AcDbEntity
  8
0
  6
Continuous
 62
     7
370
    25
100
AcDbLine
 10
112.7628070725
 20
96.2312211913
 30
0.0
 11
113.0128071135
 21
96.2312211913
 31
0.0
  0
ARC
  5
12C
330
1F
100
AcDbEntity
  8
0
  6
Continuous
 62
     7
370
    25
100
AcDbCircle
 10
114.0128070613
 20
95.9812213999
 30
0.0
 40
1.0
100
AcDbArc
 50
180.0
 51
270.0
  0
LINE
  5
12D
330
1F
100
AcDbEntity
  8
0
  6
Continuous
 62
     7
370
    25
100
AcDbLine
 10
114.0128072774
 20
94.9812214521
 30
0.0
 11
114.0128072774
 21
94.7312214111
 31
0.0
  0
LINE
  5
12E
330
1F
100
AcDbEntity
  8
0
  6
Continuous
 62
     7
370
    25
100
AcDbLine
 10
113.0128071135
 20
95.981221616
 30
0.0
 11
112.7628070725
 21
95.981221616
 31
0.0
  0
LINE
  5
12F
330
1F
100
AcDbEntity
  8
0
  6
Continuous
 62
     7
370
    25
100
AcDbLine
 10
112.7867951481
 20
84.5706676764
 30
0.0
 11
113.400658728
 21
85.7408963774
 31
0.0
  0
LWPOLYLINE
  5
130
330
1F
100
AcDbEntity
  8
0
  6
Continuous
 62
     7
370
    25
100
AcDbPolyline
 90
        9
 70
   128
 43
0.0
 10
112.7867951481
 20
84.5706676764
 10
112.7910489639
 20
84.5684362275
 10
112.80364743
 20
84.5618275625
 10
112.824105793
 20
84.5510959325
 10
112.8516384823
 20
84.536652982
 10
112.8851870498
 20
84.5190547106
 10
112.9234620793
 20
84.4989767929
 10
112.9649934782
 20
84.4771908295
 10
113.0081840282
 20
84.4545345453
  0
LINE
  5
131
330
1F
100
AcDbEntity
  8
0
  6
Continuous
 62
     7
370
    25
100
AcDbLine
 10
108.9551113736
 20
85.7408963774
 30
0.0
 11
109.5689748371
 21
84.5706676764
 31
0.0
  0
LWPOLYLINE
  5
132
330
1F
100
AcDbEntity
  8
0
  6
Continuous
 62
     7
370
    25
100
AcDbPolyline
 90
        9
 70
   128
 43
0.0
 10
109.5689748371
 20
84.5706676764
 10
109.5647210212
 20
84.5684362275
 10
109.5521225551
 20
84.5618275625
 10
109.5316641921
 20
84.5510959325
 10
109.5041315028
 20
84.536652982
 10
109.4705829354
 20
84.5190547106
 10
109.4323079059
 20
84.4989767929
 10
109.3907767398
 20
84.4771908295
 10
109.3475859569
 20
84.4545345453
  0
LWPOLYLINE
  5
133
330
1F
100
AcDbEntity
  8
0
  6
Continuous
 62
     7
370
    25
100
AcDbPolyline
 90
       10
 70
   128
 43
0.0
 10
108.9551113736
 20
85.7408963774
 10
108.9458848772
 20
85.7503090219
 10
108.9184859492
 20
85.7782608063
 10
108.8737468425
 20
85.8239023646
 10
108.8130271718
 20
85.8858471901
 10
108.7381717706
 20
85.9622130801
 10
108.6514549287
 20
86.0506794115
 10
108.5555118233
 20
86.1485583873
 10
108.4532573776
 20
86.2528760617
 10
108.3477986002
 20
86.3604626783
  0
LINE
  5
134
330
1F
100
AcDbEntity
  8
0
  6
Continuous
 62
     7
370
    25
100
AcDbLine
 10
101.2628070501
 20
84.9812212099
 30
0.0
 11
101.0128070092
 21
84.9812212099
 31
0.0
  0
LINE
  5
135
330
1F
100
AcDbEntity
  8
0
  6
Continuous
 62
     7
370
    25
100
AcDbLine
 10
101.0128070092
 20
84.9812212099
 30
0.0
 11
101.0128070092
 21
96.2312211913
 31
0.0
  0
LINE
  5
136
330
1F
100
AcDbEntity
  8
0
  6
Continuous
 62
     7
370
    25
100
AcDbLine
 10
101.0128070092
 20
96.2312211913
 30
0.0
 11
101.2628070501
 21
96.2312211913
 31
0.0
  0
LINE
  5
137
330
1F
100
AcDbEntity
  8
0
  6
Continuous
 62
     7
370
    25
100
AcDbLine
 10
103.0128068713
 20
83.2312213888
 30
0.0
 11
103.0128068713
 21
82.9812213478
 31
0.0
  0
ARC
  5
138
330
1F
100
AcDbEntity
  8
0
  6
Continuous
 62
     7
370
    25
100
AcDbCircle
 10
103.0128070613
 20
84.9812213999
 30
0.0
 40
2.0
100
AcDbArc
 50
180.0
 51
270.0
  0
LINE
  5
139
330
1F
100
AcDbEntity
  8
0
  6
Continuous
 62
     7
370
    25
100
AcDbLine
 10
113.0128071135
 20
96.2312211913
 30
0.0
 11
113.0128071135
 21
95.981221616
 31
0.0
  0
SPLINE
  5
13A
330
1F
100
AcDbEntity
  8
0
  6
Continuous
 62
     7
370
    25
100
AcDbSpline
210
0.0
220
0.0
230
1.0
 70
     8
 71
     3
 72
    23
 73
    19
 74
     0
 42
0.000000001
 43
0.00000001
 40
0.0
 40
0.0
 40
0.0
 40
0.0
 40
0.0000221251499261
 40
0.0000221251499261
 40
0.0000221251499261
 40
0.0000448428854419
 40
0.0000448428854419
 40
0.0000448428854419
 40
0.000067774629955
 40
0.000067774629955
 40
0.000067774629955
 40
0.0000902663208602
 40
0.0000902663208602
 40
0.0000902663208602
 40
0.000111841557339
 40
0.000111841557339
 40
0.000111841557339
 40
0.0001193253350659
 40
0.0001193253350659
 40
0.0001193253350659
 40
0.0001193253350659
 10
112.6837686853915
 20
84.55293218968727
 30
0.0
 10
112.6892843931466
 20
84.5480364435643
 30
0.0
 10
112.6957380274418
 20
84.54405056937327
 30
0.0
 10
112.7025652397002
 20
84.54126120835005
 30
0.0
 10
112.7095746086607
 20
84.5383974244459
 30
0.0
 10
112.7171742408447
 20
84.53671110781633
 30
0.0
 10
112.7247357069402
 20
84.5363152013117
 30
0.0
 10
112.7323671380278
 20
84.53591563154981
 30
0.0
 10
112.7401733412326
 20
84.5368191611327
 30
0.0
 10
112.7475076741011
 20
84.53896531066488
 30
0.0
 10
112.7547015879129
 20
84.54107037121209
 30
0.0
 10
112.7616411127683
 20
84.54443192249471
 30
0.0
 10
112.7677241929261
 20
84.5488113986771
 30
0.0
 10
112.7735612244093
 20
84.55301373362806
 30
0.0
 10
112.7787685009948
 20
84.55827235723031
 30
0.0
 10
112.7828660683776
 20
84.56418340596295
 30
0.0
 10
112.7843058845053
 20
84.56626044887697
 30
0.0
 10
112.7856212474409
 20
84.56842964804032
 30
0.0
 10
112.7867952564677
 20
84.570667700889
 30
0.0
  0
LWPOLYLINE
  5
13B
330
1F
100
AcDbEntity
  8
0
  6
Continuous
 62
     7
370
    25
100
AcDbPolyline
 90
        9
 70
   128
 43
0.0
 10
112.6837685196
 20
84.5529320349
 10
112.6805796711
 20
84.5493394581
 10
112.6711360602
 20
84.538700029
 10
112.6557999713
 20
84.5214216669
 10
112.6351613974
 20
84.4981693362
 10
112.6100128939
 20
84.4698361752
 10
112.5813211737
 20
84.4375113656
 10
112.5501889227
 20
84.4024368261
 10
112.5178124247
 20
84.3659601805
  0
ARC
  5
13C
330
1F
100
AcDbEntity
  8
0
  6
Continuous
 62
     7
370
    25
100
AcDbCircle
 10
114.2628070613
 20
83.2312213999
 30
0.0
 40
0.25
100
AcDbArc
 50
270.0
 51
0.0
  0
LINE
  5
13D
330
1F
100
AcDbEntity
  8
0
  6
Continuous
 62
     7
370
    25
100
AcDbLine
 10
114.2628068527
 20
83.2312213888
 30
0.0
 11
114.2628068527
 21
82.9812213478
 31
0.0
  0
LWPOLYLINE
  5
13E
330
1F
100
AcDbEntity
  8
0
  6
Continuous
 62
     7
370
    25
100
AcDbPolyline
 90
        9
 70
   128
 43
0.0
 10
109.1154081704
 20
85.9380385072
 10
109.0918934395
 20
85.895308729
 10
109.0692825572
 20
85.8542211053
 10
109.0484442146
 20
85.8163546936
 10
109.0301791163
 20
85.7831642197
 10
109.0151894795
 20
85.7559258283
 10
109.0040510943
 20
85.7356856276
 10
108.9971921364
 20
85.7232217376
 10
108.99487617
 20
85.7190133237
  0
LINE
  5
13F
330
1F
100
AcDbEntity
  8
0
  6
Continuous
 62
     7
370
    25
100
AcDbLine
 10
108.99487617
 20
85.7190133237
 30
0.0
 11
108.9551113736
 21
85.7408963774
 31
0.0
  0
LINE
  5
140
330
1F
100
AcDbEntity
  8
0
  6
Continuous
 62
     7
370
    25
100
AcDbLine
 10
114.0128072774
 20
94.9812214521
 30
0.0
 11
114.2628068527
 21
94.9812214521
 31
0.0
  0
LINE
  5
141
330
1F
100
AcDbEntity
  8
0
  6
Continuous
 62
     7
370
    25
100
AcDbLine
 10
114.2628068527
 20
94.9812214521
 30
0.0
 11
114.2628068527
 21
94.7312214111
 31
0.0
  0
ELLIPSE
  5
142
330
1F
100
AcDbEntity
  8
0
  6
Continuous
 62
     7
370
    25
100
AcDbEllipse
 10
111.1778850615
 20
86.6772746356
 30
0.0
 11
0.06537569707428759
 21
0.0
 31
0.0
210
0.0
220
0.0
230
1.0
 40
0.9531667975
 41
0.3430239404204254
 42
2.798568713169441
  0
ELLIPSE
  5
143
330
1F
100
AcDbEntity
  8
0
  6
Continuous
 62
     7
370
    25
100
AcDbEllipse
 10
111.4119951104
 20
86.0524660405
 30
0.0
 11
0.0653756970743018
 21
0.0
 31
0.0
210
0.0
220
0.0
230
1.0
 40
0.9531667975
 41
4.712388980384703
 42
6.626209245739544
  0
LINE
  5
144
330
1F
100
AcDbEntity
  8
0
  6
Continuous
 62
     7
370
    25
100
AcDbLine
 10
111.4119949242
 20
85.9901520589
 30
0.0
 11
110.9437748281
 21
85.9901520589
 31
0.0
  0
ELLIPSE
  5
145
330
1F
100
AcDbEntity
  8
0
  6
Continuous
 62
     7
370
    25
100
AcDbEllipse
 10
110.94377501
 20
86.0524660405
 30
0.0
 11
-0.0653756970743018
 21
0.0
 31
0.0
210
0.0
220
0.0
230
1.0
 40
0.9531667975
 41
5.94016136489604
 42
7.853981633974483
  0
LINE
  5
146
330
1F
100
AcDbEntity
  8
0
  6
Continuous
 62
     7
370
    25
100
AcDbLine
 10
110.8822078867
 20
86.0734244042
 30
0.0
 11
111.1163181675
 21
86.6982331199
 31
0.0
  0
LINE
  5
147
330
1F
100
AcDbEntity
  8
0
  6
Continuous
 62
     7
370
    25
100
AcDbLine
 10
111.2394520504
 20
86.6982331199
 30
0.0
 11
111.4735623313
 21
86.0734244042
 31
0.0
  0
ARC
  5
148
330
1F
100
AcDbEntity
  8
0
  6
Continuous
 62
     7
370
    25
100
AcDbCircle
 10
101.2628070613
 20
96.2312213999
 30
0.0
 40
0.25
100
AcDbArc
 50
90.0
 51
180.0
  0
SPLINE
  5
149
330
1F
100
AcDbEntity
  8
0
  6
Continuous
 62
     7
370
    25
100
AcDbSpline
210
0.0
220
0.0
230
1.0
 70
     8
 71
     3
 72
    10
 73
     6
 74
     0
 42
0.000000001
 43
0.00000001
 40
0.0
 40
0.0
 40
0.0
 40
0.0
 40
0.5
 40
0.5
 40
1.0
 40
1.0
 40
1.0
 40
1.0
 10
113.3685494835275
 20
85.72254714339229
 30
0.0
 10
113.2341149359356
 20
85.64572313233238
 30
0.0
 10
113.0684495687741
 20
85.63147364184692
 30
0.0
 10
112.7796701270641
 20
85.72955969689119
 30
0.0
 10
112.6567873386233
 20
85.84329889120882
 30
0.0
 10
112.6045874102098
 20
85.9892475910953
 30
0.0
  0
SPLINE
  5
14A
330
1F
100
AcDbEntity
  8
0
  6
Continuous
 62
     7
370
    25
100
AcDbSpline
210
0.0
220
0.0
230
1.0
 70
     8
 71
     3
 72
    10
 73
     6
 74
     0
 42
0.000000001
 43
0.00000001
 40
0.0
 40
0.0
 40
0.0
 40
0.0
 40
0.5
 40
0.5
 40
1.0
 40
1.0
 40
1.0
 40
1.0
 10
109.7514090115033
 20
85.98988032077104
 30
0.0
 10
109.6997920935029
 20
85.84556169231158
 30
0.0
 10
109.579211869433
 20
85.73244243063984
 30
0.0
 10
109.2926442459578
 20
85.63260268042191
 30
0.0
 10
109.1290366211637
 20
85.64518331812158
 30
0.0
 10
108.9948761164862
 20
85.71901333398556
 30
0.0
  0
LINE
  5
14B
330
1F
100
AcDbEntity
  8
0
  6
Continuous
 62
     7
370
    25
100
AcDbLine
 10
114.2628068527
 20
82.9812213478
 30
0.0
 11
103.0128068713
 21
82.9812213478
 31
0.0
  0
SPLINE
  5
14C
330
1F
100
AcDbEntity
  8
0
  6
Continuous
 62
     7
370
    25
100
AcDbSpline
210
0.0
220
0.0
230
1.0
 70
     8
 71
     3
 72
    23
 73
    19
 74
     0
 42
0.000000001
 43
0.00000001
 40
0.0
 40
0.0
 40
0.0
 40
0.0
 40
0.0000210594021204
 40
0.0000210594021204
 40
0.0000210594021204
 40
0.0000429122282046
 40
0.0000429122282046
 40
0.0000429122282046
 40
0.0000655452306719
 40
0.0000655452306719
 40
0.0000655452306719
 40
0.000088492665435
 40
0.000088492665435
 40
0.000088492665435
 40
0.0001110534468608
 40
0.0001110534468608
 40
0.0001110534468608
 40
0.000119364715226
 40
0.000119364715226
 40
0.000119364715226
 40
0.000119364715226
 10
109.5689748635125
 20
84.570667700889
 30
0.0
 10
109.5722357953251
 20
84.5644512770234
 30
0.0
 10
109.5766397266148
 20
84.55872977308859
 30
0.0
 10
109.5817786418889
 20
84.55394760289411
 30
0.0
 10
109.5871103747798
 20
84.54898600054112
 30
0.0
 10
109.5933796334837
 20
84.5448931845065
 30
0.0
 10
109.6000459246277
 20
84.54195968217759
 30
0.0
 10
109.6069480725296
 20
84.53892239105006
 30
0.0
 10
109.6144678054201
 20
84.53704034748655
 30
0.0
 10
109.6219846977832
 20
84.53643942132189
 30
0.0
 10
109.629604198675
 20
84.5358302922794
 30
0.0
 10
109.6374339050787
 20
84.5365202530181
 30
0.0
 10
109.6448266470557
 20
84.53846323991796
 30
0.0
 10
109.6520949815478
 20
84.5403735295975
 30
0.0
 10
109.659142819608
 20
84.54355048297738
 30
0.0
 10
109.665361615555
 20
84.54777001730233
 30
0.0
 10
109.6676814856425
 20
84.54934407947557
 30
0.0
 10
109.6699047510715
 20
84.55107117190748
 30
0.0
 10
109.6720014345887
 20
84.55293218968728
 30
0.0
  0
LWPOLYLINE
  5
14D
330
1F
100
AcDbEntity
  8
0
  6
Continuous
 62
     7
370
    25
100
AcDbPolyline
 90
        9
 70
   128
 43
0.0
 10
109.6720014656
 20
84.5529320349
 10
109.6751903141
 20
84.5493394581
 10
109.6846341578
 20
84.538700029
 10
109.6999700138
 20
84.5214216669
 10
109.7206088206
 20
84.4981693362
 10
109.745757324
 20
84.4698361752
 10
109.7744490443
 20
84.4375113656
 10
109.8055812953
 20
84.4024368261
 10
109.8379577933
 20
84.3659601805
  0
ARC
  5
14E
330
1F
100
AcDbEntity
  8
0
  6
Continuous
 62
     7
370
    25
100
AcDbCircle
 10
114.2628070613
 20
94.7312213999
 30
0.0
 40
0.25
100
AcDbArc
 50
0.0
 51
90.0
  0
SPLINE
  5
14F
330
1F
100
AcDbEntity
  8
0
  6
Continuous
 62
     7
370
    25
100
AcDbSpline
210
0.0
220
0.0
230
1.0
 70
     8
 71
     3
 72
    20
 73
    16
 74
     0
 42
0.000000001
 43
0.00000001
 40
0.0
 40
0.0
 40
0.0
 40
0.0
 40
0.2500000000000003
 40
0.2500000000000003
 40
0.3750000000000002
 40
0.3750000000000002
 40
0.5000000000000002
 40
0.5000000000000002
 40
0.6250000000000002
 40
0.6250000000000002
 40
0.7500000000000001
 40
0.7500000000000001
 40
0.8750000000000001
 40
0.8750000000000001
 40
1.0
 40
1.0
 40
1.0
 40
1.0
 10
109.6720014345887
 20
84.5529321896873
 30
0.0
 10
109.8788566509666
 20
84.7365370267402
 30
0.0
 10
110.1152063776146
 20
84.87697312656474
 30
0.0
 10
110.5020887008743
 20
85.0211777105731
 30
0.0
 10
110.6337974894078
 20
85.05706689849316
 30
0.0
 10
110.9025058719324
 20
85.10539679382346
 30
0.0
 10
111.0408875729245
 20
85.1177617504065
 30
0.0
 10
111.315047220661
 20
85.11775201322186
 30
0.0
 10
111.4508168881766
 20
85.10569308296937
 30
0.0
 10
111.7197512097571
 20
85.05760785956143
 30
0.0
 10
111.8540840128354
 20
85.02099932094099
 30
0.0
 10
112.1103736227587
 20
84.92552777883247
 30
0.0
 10
112.2331951903117
 20
84.86674019964238
 30
0.0
 10
112.4679765051108
 20
84.72661433671455
 30
0.0
 10
112.5803512547424
 20
84.64472557462211
 30
0.0
 10
112.6837686853915
 20
84.55293218968727
 30
0.0
  0
LINE
  5
150
330
1F
100
AcDbEntity
  8
0
  6
Continuous
 62
     7
370
    25
100
AcDbLine
 10
113.4687691418
 20
110.8924345744
 30
0.0
 11
100.5568449808
 21
110.8924345744
 31
0.0
  0
ARC
  5
151
330
1F
100
AcDbEntity
  8
0
  6
Continuous
 62
     7
370
    25
100
AcDbCircle
 10
112.7920424134
 20
96.708034448
 30
0.0
 40
0.228689614909265
100
AcDbArc
 50
174.1807852453
 51
262.6552938174
  0
ARC
  5
152
330
1F
100
AcDbEntity
  8
0
  6
Continuous
 62
     7
370
    25
100
AcDbCircle
 10
114.7396201094
 20
83.2019860479
 30
0.0
 40
0.2286896149092581
100
AcDbArc
 50
84.1807852453
 51
172.6552938174
  0
ARC
  5
153
330
1F
100
AcDbEntity
  8
0
  6
Continuous
 62
     7
370
    25
100
AcDbCircle
 10
101.2335717093
 20
96.708034448
 30
0.0
 40
0.228689614909265
100
AcDbArc
 50
277.3447061826
 51
5.8192147547
  0
ARC
  5
154
330
1F
100
AcDbEntity
  8
0
  6
Continuous
 62
     7
370
    25
100
AcDbCircle
 10
114.7396201094
 20
94.760456752
 30
0.0
 40
0.2286896149092723
100
AcDbArc
 50
187.3447061826
 51
275.8192147547
  0
LINE
  5
155
330
1F
100
AcDbEntity
  8
0
  6
Continuous
 62
     7
370
    25
100
AcDbLine
 10
101.7628071321
 20
112.9812216086
 30
0.0
 11
112.2628069905
 21
112.9812216086
 31
0.0
  0
LINE
  5
156
330
1F
100
AcDbEntity
  8
0
  6
Continuous
 62
     7
370
    25
100
AcDbLine
 10
113.0472897975
 20
96.2312211913
 30
0.0
 11
113.0128071135
 21
96.2312211913
 31
0.0
  0
LINE
  5
157
330
1F
100
AcDbEntity
  8
0
  6
Continuous
 62
     7
370
    25
100
AcDbLine
 10
114.2628068527
 20
82.9812213478
 30
0.0
 11
114.2628068527
 21
82.9467386638
 31
0.0
  0
LINE
  5
158
330
1F
100
AcDbEntity
  8
0
  6
Continuous
 62
     7
370
    25
100
AcDbLine
 10
100.9783243252
 20
96.2312211913
 30
0.0
 11
101.0128070092
 21
96.2312211913
 31
0.0
  0
LINE
  5
159
330
1F
100
AcDbEntity
  8
0
  6
Continuous
 62
     7
370
    25
100
AcDbLine
 10
114.2628068527
 20
94.9812214521
 30
0.0
 11
114.2628068527
 21
95.0157041361
 31
0.0
  0
LWPOLYLINE
  5
15A
330
1F
100
AcDbEntity
  8
0
  6
Continuous
 62
     7
370
    25
100
AcDbPolyline
 90
        9
 70
   128
 43
0.0
 10
102.7489967136
 20
82.9986966846
 10
102.7452257885
 20
82.998599827
 10
102.7413160963
 20
82.9973271747
 10
102.7372862635
 20
82.9948847813
 10
102.7331558479
 20
82.9912838225
 10
102.7289434759
 20
82.9865419937
 10
102.7246701022
 20
82.9806811807
 10
102.7203557504
 20
82.973729789
 10
102.7160204438
 20
82.9657204148
  0
SPLINE
  5
15B
330
1F
100
AcDbEntity
  8
0
  6
Continuous
 62
     7
370
    25
100
AcDbSpline
210
0.0
220
0.0
230
1.0
 70
     8
 71
     3
 72
    14
 73
    10
 74
     0
 42
0.000000001
 43
0.00000001
 40
0.0
 40
0.0
 40
0.0
 40
0.0
 40
0.25
 40
0.25
 40
0.5
 40
0.5
 40
0.75
 40
0.75
 40
1.0
 40
1.0
 40
1.0
 40
1.0
 10
102.7160206516668
 20
82.96572042641786
 30
0.0
 10
102.5001613795691
 20
82.99217136333425
 30
0.0
 10
102.2923298851769
 20
83.05255720918963
 30
0.0
 10
101.8949264942662
 20
83.24483777447023
 30
0.0
 10
101.7164436863858
 20
83.3714055663807
 30
0.0
 10
101.4026278735506
 20
83.6853140108523
 30
0.0
 10
101.275696449459
 20
83.86459632161726
 30
0.0
 10
101.0840295869482
 20
84.26122648089878
 30
0.0
 10
101.0237558370426
 20
84.46858541051871
 30
0.0
 10
100.9973060878045
 20
84.68443499028015
 30
0.0
  0
LWPOLYLINE
  5
15C
330
1F
100
AcDbEntity
  8
0
  6
Continuous
 62
     7
370
    25
100
AcDbPolyline
 90
        9
 70
   128
 43
0.0
 10
101.030282346
 20
84.7174110522
 10
101.0301854884
 20
84.7136401271
 10
101.0289128361
 20
84.7097304349
 10
101.0264704427
 20
84.7057006021
 10
101.0228694839
 20
84.7015701865
 10
101.018127655
 20
84.6973578145
 10
101.0122668421
 20
84.6930844409
 10
101.0053154504
 20
84.688770089
 10
100.9973060762
 20
84.6844347824
  0
LINE
  5
15D
330
1F
100
AcDbEntity
  8
0
  6
Continuous
 62
     7
370
    25
100
AcDbLine
 10
103.0128068713
 20
82.9812213478
 30
0.0
 11
103.0128068713
 21
82.9467386638
 31
0.0
  0
LINE
  5
15E
330
1F
100
AcDbEntity
  8
0
  6
Continuous
 62
     7
370
    25
100
AcDbLine
 10
100.9783243252
 20
84.9812212099
 30
0.0
 11
101.0128070092
 21
84.9812212099
 31
0.0
  0
SPLINE
  5
15F
330
1F
100
AcDbEntity
  8
0
  6
Continuous
 62
     7
370
    25
100
AcDbSpline
210
0.0
220
0.0
230
1.0
 70
    24
 71
     3
 72
    10
 73
     6
 74
     0
 42
0.000000001
 43
0.00000001
 40
0.0
 40
0.0
 40
0.0
 40
0.0
 40
0.5
 40
0.5
 40
1.0
 40
1.0
 40
1.0
 40
1.0
 10
113.3810935500198
 20
95.34950788863318
 30
0.0
 10
113.356202179508
 20
95.32461651812136
 30
0.0
 10
113.3382554823371
 20
95.30666982095048
 30
0.0
 10
113.3127385442706
 20
95.28115288288399
 30
0.0
 10
113.3057002801363
 20
95.27411461875003
 30
0.0
 10
113.3057002801357
 20
95.274114618749
 30
0.0
  0
LINE
  5
160
330
1F
100
AcDbEntity
  8
0
  6
Continuous
 62
     7
370
    25
100
AcDbLine
 10
113.0472897975
 20
95.981221616
 30
0.0
 11
113.0128071135
 21
95.981221616
 31
0.0
  0
LINE
  5
161
330
1F
100
AcDbEntity
  8
0
  6
Continuous
 62
     7
370
    25
100
AcDbLine
 10
114.0128072774
 20
94.9812214521
 30
0.0
 11
114.0128072774
 21
95.0157041361
 31
0.0
  0
LINE
  5
162
330
1F
100
AcDbEntity
  8
0
  6
Continuous
 62
     8
370
    25
100
AcDbLine
 10
132.4888976713
 20
88.9812213999
 30
0.0
 11
132.4888976713
 21
98.3312213493
 31
0.0
  0
LINE
  5
163
330
1F
100
AcDbEntity
  8
0
  6
Continuous
 62
     8
370
    25
100
AcDbLine
 10
132.4888976713
 20
79.6312214506
 30
0.0
 11
132.4888976713
 21
88.9812213999
 31
0.0
  0
LINE
  5
164
330
1F
100
AcDbEntity
  8
0
  6
Continuous
 62
     8
370
    25
100
AcDbLine
 10
119.0888980826
 20
98.3312213493
 30
0.0
 11
119.0888980826
 21
79.6312214506
 31
0.0
  0
LINE
  5
165
330
1F
100
AcDbEntity
  8
0
  6
Continuous
 62
     8
370
    25
100
AcDbLine
 10
118.0128070017
 20
81.9812211839
 30
0.0
 11
118.0128070017
 21
95.981221616
 31
0.0
  0
LWPOLYLINE
  5
166
330
1F
100
AcDbEntity
  8
0
  6
Continuous
 62
     8
370
    25
100
AcDbPolyline
 90
        8
 70
   128
 43
0.0
 10
100.0128068453
 20
83.9812215117
 10
100.0333783639
 20
83.995914988
 10
100.0949709168
 20
84.0399097351
 10
100.1972231505
 20
84.112947311
 10
100.3395338965
 20
84.2145974447
 10
100.5210663615
 20
84.3442640898
 10
100.7407541809
 20
84.5011835617
 10
100.9973060762
 20
84.6844347824
  0
LWPOLYLINE
  5
167
330
1F
100
AcDbEntity
  8
0
  6
Continuous
 62
     8
370
    25
100
AcDbPolyline
 90
        8
 70
   128
 43
0.0
 10
102.7160204438
 20
82.9657204148
 10
102.5327692231
 20
82.7091685196
 10
102.3758497512
 20
82.4894807001
 10
102.2461831061
 20
82.3079482352
 10
102.1445329724
 20
82.1656374891
 10
102.0714953964
 20
82.0633852554
 10
102.0275006493
 20
82.0017927026
 10
102.0128071731
 20
81.9812211839
  0
LINE
  5
168
330
1F
100
AcDbEntity
  8
0
  6
Continuous
 62
     7
370
     0
100
AcDbLine
 10
112.7623453652
 20
112.1159956774
 30
0.0
 11
113.1103070613
 21
100.9812213999
 31
0.0
  0
LINE
  5
169
330
1F
100
AcDbEntity
  8
0
  6
Continuous
 62
     7
370
     0
100
AcDbLine
 10
101.2632687575
 20
112.1159956774
 30
0.0
 11
100.9153070613
 21
100.9812213999
 31
0.0
  0
LINE
  5
16A
330
1F
100
AcDbEntity
  8
0
  6
Continuous
 62
     7
370
     0
100
AcDbLine
 10
100.2471195613
 20
100.9812213999
 30
0.0
 11
113.7784945613
 21
100.9812213999
 31
0.0
  0
LINE
  5
16B
330
1F
100
AcDbEntity
  8
0
  6
CENTERX2
 62
     7
370
    18
100
AcDbLine
 10
161.188897825
 20
88.9812213999
 30
0.0
 11
97.8245399645
 21
88.9812213999
 31
0.0
  0
LINE
  5
16C
330
1F
100
AcDbEntity
  8
0
  6
CENTERX2
 62
     7
370
    18
100
AcDbLine
 10
107.0128070613
 20
110.8924337462
 30
0.0
 11
107.0128070613
 21
79.6133666076
 31
0.0
  0
LINE
  5
16D
330
1F
100
AcDbEntity
  8
0
  6
CENTERX2
 62
     7
370
    18
100
AcDbLine
 10
107.0128070613
 20
110.8924337462
 30
0.0
 11
107.0128070613
 21
114.9812213999
 31
0.0
  0
LINE
  5
16E
330
1F
100
AcDbEntity
  8
0
  6
Continuous
 62
     7
370
    25
100
AcDbLine
 10
201.1478427649
 20
96.7312212733
 30
0.0
 11
201.1478427649
 21
98.9812211764
 31
0.0
  0
LINE
  5
16F
330
1F
100
AcDbEntity
  8
0
  6
Continuous
 62
     7
370
    25
100
AcDbLine
 10
187.1478423327
 20
98.9812211764
 30
0.0
 11
187.1478423327
 21
96.7312212733
 31
0.0
  0
LINE
  5
170
330
1F
100
AcDbEntity
  8
0
  6
Continuous
 62
     7
370
    25
100
AcDbLine
 10
200.976030048
 20
98.9812211764
 30
0.0
 11
200.6038046293
 21
110.8924345744
 31
0.0
  0
LINE
  5
171
330
1F
100
AcDbEntity
  8
0
  6
Continuous
 62
     7
370
    25
100
AcDbLine
 10
187.6918804683
 20
110.8924345744
 30
0.0
 11
187.3196550496
 21
98.9812211764
 31
0.0
  0
LINE
  5
172
330
1F
100
AcDbEntity
  8
0
  6
Continuous
 62
     7
370
    25
100
AcDbLine
 10
200.6038046293
 20
110.8924345744
 30
0.0
 11
199.397842478
 21
112.9812216086
 31
0.0
  0
LINE
  5
173
330
1F
100
AcDbEntity
  8
0
  6
Continuous
 62
     7
370
    25
100
AcDbLine
 10
188.8978426196
 20
112.9812216086
 30
0.0
 11
187.6918804683
 21
110.8924345744
 31
0.0
  0
SPLINE
  5
174
330
1F
100
AcDbEntity
  8
0
  6
Continuous
 62
     7
370
    25
100
AcDbSpline
210
0.0
220
0.0
230
1.0
 70
     8
 71
     3
 72
    16
 73
    12
 74
     0
 42
0.000000001
 43
0.00000001
 40
0.0
 40
0.0
 40
0.0
 40
0.0
 40
0.7221229069155195
 40
0.9390266461983071
 40
0.9870920850039897
 40
0.9916400445717392
 40
0.9930292243381138
 40
0.9935063600177917
 40
0.994757573876845
 40
0.9994756227886644
 40
1.0
 40
1.0
 40
1.0
 40
1.0
 10
187.1501492187419
 20
96.60598818931263
 30
0.0
 10
187.149920097307
 20
96.5992103653264
 30
0.0
 10
187.1496221547677
 20
96.59039668933669
 30
0.0
 10
187.1494489320525
 20
96.5819817743173
 30
0.0
 10
187.1493793571679
 20
96.57911680529915
 30
0.0
 10
187.1493765207798
 20
96.57878057297391
 30
0.0
 10
187.1493733653421
 20
96.57867045843206
 30
0.0
 10
187.149374774369
 20
96.5787082010493
 30
0.0
 10
187.1493744505646
 20
96.5787510060448
 30
0.0
 10
187.1493790594069
 20
96.57890759197433
 30
0.0
 10
187.1493773257389
 20
96.57885346644689
 30
0.0
 10
187.1493771523275
 20
96.57884805250447
 30
0.0
  0
CIRCLE
  5
175
330
1F
100
AcDbEntity
  8
0
  6
Continuous
 62
     7
370
    25
100
AcDbCircle
 10
194.1478425488
 20
88.9812213999
 30
0.0
 40
4.55714285714285
  0
CIRCLE
  5
176
330
1F
100
AcDbEntity
  8
0
  6
Continuous
 62
     7
370
    25
100
AcDbCircle
 10
194.1478425488
 20
88.9812213999
 30
0.0
 40
4.099999999999994
  0
CIRCLE
  5
177
330
1F
100
AcDbEntity
  8
0
  6
Continuous
 62
     7
370
    25
100
AcDbCircle
 10
194.1478425488
 20
88.9812213999
 30
0.0
 40
3.599999999999994
  0
CIRCLE
  5
178
330
1F
100
AcDbEntity
  8
0
  6
Continuous
 62
     7
370
    25
100
AcDbCircle
 10
194.1478425488
 20
88.9812213999
 30
0.0
 40
3.499999999999972
  0
CIRCLE
  5
179
330
1F
100
AcDbEntity
  8
0
  6
Continuous
 62
     7
370
    25
100
AcDbCircle
 10
194.1478425488
 20
88.9812213999
 30
0.0
 40
5.25
  0
CIRCLE
  5
17A
330
1F
100
AcDbEntity
  8
0
  6
Continuous
 62
     7
370
    25
100
AcDbCircle
 10
194.1478425488
 20
88.9812213999
 30
0.0
 40
9.049999999999983
  0
CIRCLE
  5
17B
330
1F
100
AcDbEntity
  8
0
  6
Continuous
 62
     7
370
    25
100
AcDbCircle
 10
194.1478425488
 20
88.9812213999
 30
0.0
 40
5.599999999999966
  0
CIRCLE
  5
17C
330
1F
100
AcDbEntity
  8
0
  6
Continuous
 62
     7
370
    25
100
AcDbCircle
 10
194.1478425488
 20
88.9812213999
 30
0.0
 40
9.349999999999994
  0
CIRCLE
  5
17D
330
1F
100
AcDbEntity
  8
0
  6
Continuous
 62
     7
370
    25
100
AcDbCircle
 10
194.1478425488
 20
88.9812213999
 30
0.0
 40
5.5
  0
SPLINE
  5
17E
330
1F
100
AcDbEntity
  8
0
  6
Continuous
 62
     7
370
    25
100
AcDbSpline
210
0.0
220
0.0
230
1.0
 70
     8
 71
     3
 72
    15
 73
    11
 74
     0
 42
0.000000001
 43
0.00000001
 40
0.0
 40
0.0
 40
0.0
 40
0.0
 40
0.1323057019456991
 40
0.264573971161557
 40
0.399801211910765
 40
0.5350039810752786
 40
0.6501944293983927
 40
0.7654027730894075
 40
0.8826900743328739
 40
1.0
 40
1.0
 40
1.0
 40
1.0
 10
203.6478422433176
 20
83.49639407146256
 30
0.0
 10
203.2374031834804
 20
83.2594267203456
 30
0.0
 10
202.4166411877086
 20
82.78555906234865
 30
0.0
 10
201.1527390253922
 20
82.05584563334568
 30
0.0
 10
199.865013254186
 20
81.31237579214755
 30
0.0
 10
198.6239351219138
 20
80.59584009457085
 30
0.0
 10
197.4499102631886
 20
79.9180152171623
 30
0.0
 10
196.3419218286999
 20
79.27831923419662
 30
0.0
 10
195.238944048638
 20
78.64151336600536
 30
0.0
 10
194.5115664313687
 20
78.22156245060407
 30
0.0
 10
194.1478425487914
 20
78.01156674298923
 30
0.0
  0
SPLINE
  5
17F
330
1F
100
AcDbEntity
  8
0
  6
Continuous
 62
     7
370
    25
100
AcDbSpline
210
0.0
220
0.0
230
1.0
 70
     8
 71
     3
 72
    15
 73
    11
 74
     0
 42
0.000000001
 43
0.00000001
 40
0.0
 40
0.0
 40
0.0
 40
0.0
 40
0.1323056877110737
 40
0.2645739479885554
 40
0.3998012094750219
 40
0.5350039966972207
 40
0.6501944060393672
 40
0.7654027883544242
 40
0.8826900601954766
 40
0.9999999999999999
 40
0.9999999999999999
 40
0.9999999999999999
 40
0.9999999999999999
 10
194.1478425487914
 20
78.01156674298923
 30
0.0
 10
193.7374033315672
 20
78.24853371213419
 30
0.0
 10
192.9166410046483
 20
78.72240061577389
 30
0.0
 10
191.6527389807297
 20
79.45211426160353
 30
0.0
 10
190.3650133936628
 20
80.19558465312065
 30
0.0
 10
189.1239351986746
 20
80.91212024522349
 30
0.0
 10
187.9499099713143
 20
81.58994459791386
 30
0.0
 10
186.8419220369524
 20
82.22964127190603
 30
0.0
 10
185.7389436691697
 20
82.86644623374747
 30
0.0
 10
185.0115665535128
 20
83.28639793294185
 30
0.0
 10
184.6478428542652
 20
83.49639407146256
 30
0.0
  0
SPLINE
  5
180
330
1F
100
AcDbEntity
  8
0
  6
Continuous
 62
     7
370
    25
100
AcDbSpline
210
0.0
220
0.0
230
1.0
 70
    24
 71
     3
 72
    16
 73
    12
 74
     0
 42
0.000000001
 43
0.00000001
 40
0.0
 40
0.0
 40
0.0
 40
0.0
 40
0.0929885394318734
 40
0.1859684549096651
 40
0.2798026913280258
 40
0.373627101459906
 40
0.4988494890998807
 40
0.6240716473127095
 40
0.7526321536928279
 40
0.8812279839704913
 40
0.9999999999999999
 40
0.9999999999999999
 40
0.9999999999999999
 40
0.9999999999999999
 10
184.6478428542652
 20
83.49639407146256
 30
0.0
 10
184.6478428542652
 20
83.82904078821562
 30
0.0
 10
184.6478428542652
 20
84.49430337136074
 30
0.0
 10
184.6478428542652
 20
85.50871622488876
 30
0.0
 10
184.6478428542652
 20
86.53559552348706
 30
0.0
 10
184.6478428542652
 20
87.68995116205068
 30
0.0
 10
184.6478428542652
 20
88.9681954767333
 30
0.0
 10
184.6478428542652
 20
90.37556457177767
 30
0.0
 10
184.6478428542652
 20
91.784994676334
 30
0.0
 10
184.6478428542652
 20
93.15509716163716
 30
0.0
 10
184.6478428542652
 20
94.04078948591957
 30
0.0
 10
184.6478428542652
 20
94.46604872840922
 30
0.0
  0
SPLINE
  5
181
330
1F
100
AcDbEntity
  8
0
  6
Continuous
 62
     7
370
    25
100
AcDbSpline
210
0.0
220
0.0
230
1.0
 70
     8
 71
     3
 72
    15
 73
    11
 74
     0
 42
0.000000001
 43
0.00000001
 40
0.0
 40
0.0
 40
0.0
 40
0.0
 40
0.132305701945699
 40
0.2645739711615568
 40
0.3998012119107648
 40
0.5350039810752782
 40
0.6501944293983923
 40
0.7654027730894072
 40
0.8826900743328735
 40
1.0
 40
1.0
 40
1.0
 40
1.0
 10
184.6478428542652
 20
94.46604872840922
 30
0.0
 10
185.0582819141024
 20
94.7030160795262
 30
0.0
 10
185.8790439098742
 20
95.17688373752313
 30
0.0
 10
187.1429460721907
 20
95.90659716652611
 30
0.0
 10
188.4306718433969
 20
96.65006700772423
 30
0.0
 10
189.671749975669
 20
97.36660270530095
 30
0.0
 10
190.8457748343942
 20
98.04442758270949
 30
0.0
 10
191.953763268883
 20
98.68412356567516
 30
0.0
 10
193.0567410489449
 20
99.32092943386643
 30
0.0
 10
193.7841186662141
 20
99.74088034926771
 30
0.0
 10
194.1478425487914
 20
99.95087605688255
 30
0.0
  0
SPLINE
  5
182
330
1F
100
AcDbEntity
  8
0
  6
Continuous
 62
     7
370
    25
100
AcDbSpline
210
0.0
220
0.0
230
1.0
 70
     8
 71
     3
 72
    15
 73
    11
 74
     0
 42
0.000000001
 43
0.00000001
 40
0.0
 40
0.0
 40
0.0
 40
0.0
 40
0.1323056877110733
 40
0.264573947988555
 40
0.3998012094750216
 40
0.5350039966972203
 40
0.6501944060393671
 40
0.7654027883544241
 40
0.8826900601954766
 40
1.0
 40
1.0
 40
1.0
 40
1.0
 10
194.1478425487914
 20
99.95087605688255
 30
0.0
 10
194.5582817660156
 20
99.71390908773759
 30
0.0
 10
195.3790440929345
 20
99.2400421840979
 30
0.0
 10
196.6429461168532
 20
98.51032853826825
 30
0.0
 10
197.93067170392
 20
97.76685814675113
 30
0.0
 10
199.1717498989083
 20
97.05032255464829
 30
0.0
 10
200.3457751262685
 20
96.37249820195792
 30
0.0
 10
201.4537630606304
 20
95.73280152796576
 30
0.0
 10
202.5567414284131
 20
95.09599656612431
 30
0.0
 10
203.28411854407
 20
94.67604486692994
 30
0.0
 10
203.6478422433176
 20
94.46604872840922
 30
0.0
  0
SPLINE
  5
183
330
1F
100
AcDbEntity
  8
0
  6
Continuous
 62
     7
370
    25
100
AcDbSpline
210
0.0
220
0.0
230
1.0
 70
    24
 71
     3
 72
    16
 73
    12
 74
     0
 42
0.000000001
 43
0.00000001
 40
0.0
 40
0.0
 40
0.0
 40
0.0
 40
0.1187721483798171
 40
0.244149170340446
 40
0.3694941481667921
 40
0.4979334298056077
 40
0.6263722792741918
 40
0.7192884558148467
 40
0.8122141225033145
 40
0.9061025952644427
 40
1.0
 40
1.0
 40
1.0
 40
1.0
 10
203.6478422433176
 20
94.46604872840922
 30
0.0
 10
203.6478422433176
 20
94.04079099104418
 30
0.0
 10
203.6478422433176
 20
93.16662709677406
 30
0.0
 10
203.6478422433176
 20
91.82026020439311
 30
0.0
 10
203.6478422433176
 20
90.4233029135228
 30
0.0
 10
203.6478422433176
 20
89.00409236977971
 30
0.0
 10
203.6478422433176
 20
87.70518533704345
 30
0.0
 10
203.6478422433176
 20
86.5456447701021
 30
0.0
 10
203.6478422433176
 20
85.52195986856086
 30
0.0
 10
203.6478422433176
 20
84.50408576253523
 30
0.0
 10
203.6478422433176
 20
83.83230195287989
 30
0.0
 10
203.6478422433176
 20
83.49639407146256
 30
0.0
  0
LINE
  5
184
330
1F
100
AcDbEntity
  8
0
  6
Continuous
 62
     7
370
    25
100
AcDbLine
 10
187.1478423327
 20
95.90766995
 30
0.0
 11
187.1478423327
 21
95.981221616
 31
0.0
  0
LINE
  5
185
330
1F
100
AcDbEntity
  8
0
  6
Continuous
 62
     7
370
    25
100
AcDbLine
 10
201.1478427649
 20
95.981221616
 30
0.0
 11
201.1478427649
 21
95.9075605196
 31
0.0
  0
SPLINE
  5
186
330
1F
100
AcDbEntity
  8
0
  6
Continuous
 62
     7
370
    25
100
AcDbSpline
210
0.0
220
0.0
230
1.0
 70
    24
 71
     3
 72
    14
 73
    10
 74
     0
 42
0.000000001
 43
0.00000001
 40
0.0
 40
0.0
 40
0.0
 40
0.0
 40
0.25
 40
0.25
 40
0.5
 40
0.5
 40
0.75
 40
0.75
 40
1.0
 40
1.0
 40
1.0
 40
1.0
 10
201.1478425487914
 20
96.73122139993589
 30
0.0
 10
201.1478425487914
 20
96.73122139993589
 30
0.0
 10
201.137917858866
 20
96.73122139993589
 30
0.0
 10
201.0981231562033
 20
96.73122139993589
 30
0.0
 10
201.0682528109817
 20
96.73122139993589
 30
0.0
 10
200.9882832710497
 20
96.73122139993589
 30
0.0
 10
200.9381833906138
 20
96.73122139993589
 30
0.0
 10
200.817298841626
 20
96.73122139993589
 30
0.0
 10
200.7465130930374
 20
96.73122139993589
 30
0.0
 10
200.6650839281018
 20
96.73122139993589
 30
0.0
  0
SPLINE
  5
187
330
1F
100
AcDbEntity
  8
0
  6
Continuous
 62
     7
370
    25
100
AcDbSpline
210
0.0
220
0.0
230
1.0
 70
    24
 71
     3
 72
    14
 73
    10
 74
     0
 42
0.000000001
 43
0.00000001
 40
0.0
 40
0.0
 40
0.0
 40
0.0
 40
0.25
 40
0.25
 40
0.5
 40
0.5
 40
0.75
 40
0.75
 40
1.0
 40
1.0
 40
1.0
 40
1.0
 10
187.1478425487914
 20
96.73122139993589
 30
0.0
 10
187.1478425487914
 20
96.73122139993589
 30
0.0
 10
187.1577672387168
 20
96.73122139993589
 30
0.0
 10
187.1975619413795
 20
96.73122139993589
 30
0.0
 10
187.2274322866012
 20
96.73122139993589
 30
0.0
 10
187.3074018265331
 20
96.73122139993589
 30
0.0
 10
187.357501706969
 20
96.73122139993589
 30
0.0
 10
187.4783862559568
 20
96.73122139993589
 30
0.0
 10
187.5491720045455
 20
96.73122139993589
 30
0.0
 10
187.6306011694811
 20
96.73122139993589
 30
0.0
  0
LINE
  5
188
330
1F
100
AcDbEntity
  8
0
  6
Continuous
 62
     7
370
    25
100
AcDbLine
 10
195.8332697013
 20
98.9812211764
 30
0.0
 11
201.1478427649
 21
98.9812211764
 31
0.0
  0
LINE
  5
189
330
1F
100
AcDbEntity
  8
0
  6
Continuous
 62
     7
370
    25
100
AcDbLine
 10
187.1478423327
 20
98.9812211764
 30
0.0
 11
192.4652714133
 21
98.9812211764
 31
0.0
  0
LINE
  5
18A
330
1F
100
AcDbEntity
  8
0
  6
Continuous
 62
     7
370
    25
100
AcDbLine
 10
200.6038046293
 20
110.8924345744
 30
0.0
 11
187.6918804683
 21
110.8924345744
 31
0.0
  0
LINE
  5
18B
330
1F
100
AcDbEntity
  8
0
  6
Continuous
 62
     7
370
    25
100
AcDbLine
 10
194.1478425488
 20
112.9812216086
 30
0.0
 11
199.397842478
 21
112.9812216086
 31
0.0
  0
LINE
  5
18C
330
1F
100
AcDbEntity
  8
0
  6
Continuous
 62
     7
370
    25
100
AcDbLine
 10
188.8978426196
 20
112.9812216086
 30
0.0
 11
194.1478425488
 21
112.9812216086
 31
0.0
  0
LINE
  5
18D
330
1F
100
AcDbEntity
  8
0
  6
Continuous
 62
     7
370
    25
100
AcDbLine
 10
200.1574613005
 20
96.4812212323
 30
0.0
 11
200.8978427239
 21
96.4812212323
 31
0.0
  0
LINE
  5
18E
330
1F
100
AcDbEntity
  8
0
  6
Continuous
 62
     7
370
    25
100
AcDbLine
 10
200.8978427239
 20
96.2312211913
 30
0.0
 11
200.8978427239
 21
96.4812212323
 31
0.0
  0
LINE
  5
18F
330
1F
100
AcDbEntity
  8
0
  6
Continuous
 62
     7
370
    25
100
AcDbLine
 10
187.3978423737
 20
96.4812212323
 30
0.0
 11
188.1382237971
 21
96.4812212323
 31
0.0
  0
LINE
  5
190
330
1F
100
AcDbEntity
  8
0
  6
Continuous
 62
     7
370
    25
100
AcDbLine
 10
187.3978423737
 20
96.4812212323
 30
0.0
 11
187.3978423737
 21
96.2312211913
 31
0.0
  0
LINE
  5
191
330
1F
100
AcDbEntity
  8
0
  6
Continuous
 62
     7
370
    25
100
AcDbLine
 10
200.8978427239
 20
96.2312211913
 30
0.0
 11
201.1478427649
 21
96.2312211913
 31
0.0
  0
LINE
  5
192
330
1F
100
AcDbEntity
  8
0
  6
Continuous
 62
     7
370
    25
100
AcDbLine
 10
201.1478427649
 20
96.2312211913
 30
0.0
 11
201.1478427649
 21
95.981221616
 31
0.0
  0
LINE
  5
193
330
1F
100
AcDbEntity
  8
0
  6
Continuous
 62
     7
370
    25
100
AcDbLine
 10
187.1478423327
 20
96.2312211913
 30
0.0
 11
187.3978423737
 21
96.2312211913
 31
0.0
  0
LINE
  5
194
330
1F
100
AcDbEntity
  8
0
  6
Continuous
 62
     7
370
    25
100
AcDbLine
 10
187.1478423327
 20
95.981221616
 30
0.0
 11
187.1478423327
 21
96.2312211913
 31
0.0
  0
ARC
  5
195
330
1F
100
AcDbEntity
  8
0
  6
Continuous
 62
     7
370
    25
100
AcDbCircle
 10
187.3978425488
 20
96.2312213999
 30
0.0
 40
0.25
100
AcDbArc
 50
90.0
 51
180.0
  0
ARC
  5
196
330
1F
100
AcDbEntity
  8
0
  6
Continuous
 62
     7
370
    25
100
AcDbCircle
 10
200.8978425488
 20
96.2312213999
 30
0.0
 40
0.25
100
AcDbArc
 50
0.0
 51
90.0
  0
SPLINE
  5
197
330
1F
100
AcDbEntity
  8
0
  6
Continuous
 62
     7
370
    25
100
AcDbSpline
210
0.0
220
0.0
230
1.0
 70
     8
 71
     3
 72
    15
 73
    11
 74
     0
 42
0.000000001
 43
0.00000001
 40
0.0
 40
0.0
 40
0.0
 40
0.0
 40
0.0425877399909108
 40
0.1028282325346858
 40
0.1864706729280343
 40
0.2956205441869044
 40
0.4311891005861843
 40
0.5936297641565587
 40
0.7831876993469675
 40
1.0
 40
1.0
 40
1.0
 40
1.0
 10
200.8978425487914
 20
96.48122139993589
 30
0.0
 10
200.8971270471946
 20
96.48122719303804
 30
0.0
 10
200.8953994663323
 20
96.48124118050144
 30
0.0
 10
200.8855252872374
 20
96.48173288133317
 30
0.0
 10
200.8716316074151
 20
96.48336023529177
 30
0.0
 10
200.8521343495934
 20
96.48718538367585
 30
0.0
 10
200.8279294967442
 20
96.49455769371666
 30
0.0
 10
200.79956084008
 20
96.50717568269347
 30
0.0
 10
200.7680216693364
 20
96.52641988489765
 30
0.0
 10
200.7484518767641
 20
96.5446906312679
 30
0.0
 10
200.738010728824
 20
96.55443869400918
 30
0.0
  0
SPLINE
  5
198
330
1F
100
AcDbEntity
  8
0
  6
Continuous
 62
     7
370
    25
100
AcDbSpline
210
0.0
220
0.0
230
1.0
 70
     8
 71
     3
 72
     8
 73
     4
 74
     0
 42
0.000000001
 43
0.00000001
 40
0.0
 40
0.0
 40
0.0
 40
0.0
 40
1.0
 40
1.0
 40
1.0
 40
1.0
 10
200.738010728824
 20
96.55443869400918
 30
0.0
 10
200.6933091652025
 20
96.6007191544915
 30
0.0
 10
200.6666538307986
 20
96.66576871949974
 30
0.0
 10
200.6650839281018
 20
96.73122139993589
 30
0.0
  0
SPLINE
  5
199
330
1F
100
AcDbEntity
  8
0
  6
Continuous
 62
     7
370
    25
100
AcDbSpline
210
0.0
220
0.0
230
1.0
 70
     8
 71
     3
 72
     8
 73
     4
 74
     0
 42
0.000000001
 43
0.00000001
 40
0.0
 40
0.0
 40
0.0
 40
0.0
 40
1.0
 40
1.0
 40
1.0
 40
1.0
 10
187.6306011694811
 20
96.73122139993589
 30
0.0
 10
187.6290312667843
 20
96.66576871949974
 30
0.0
 10
187.6023759323803
 20
96.6007191544915
 30
0.0
 10
187.5576743687589
 20
96.55443869400918
 30
0.0
  0
SPLINE
  5
19A
330
1F
100
AcDbEntity
  8
0
  6
Continuous
 62
     7
370
    25
100
AcDbSpline
210
0.0
220
0.0
230
1.0
 70
     8
 71
     3
 72
    14
 73
    10
 74
     0
 42
0.000000001
 43
0.00000001
 40
0.0
 40
0.0
 40
0.0
 40
0.0
 40
0.2455893235675696
 40
0.4556181963142487
 40
0.6303106213393677
 40
0.7701164303669036
 40
0.8759901151610805
 40
0.9502659312389182
 40
1.0
 40
1.0
 40
1.0
 40
1.0
 10
187.5576743687589
 20
96.55443869400918
 30
0.0
 10
187.5457834282197
 20
96.54347365469387
 30
0.0
 10
187.5237233125671
 20
96.52313127432173
 30
0.0
 10
187.4881596142469
 20
96.50297926184525
 30
0.0
 10
187.4573673056437
 20
96.4908597023744
 30
0.0
 10
187.4321277230709
 20
96.484653879142
 30
0.0
 10
187.414145430136
 20
96.48203418016816
 30
0.0
 10
187.4012232667201
 20
96.48125398582312
 30
0.0
 10
187.3988102766141
 20
96.48123072762024
 30
0.0
 10
187.3978425487914
 20
96.48122139993589
 30
0.0
  0
LINE
  5
19B
330
1F
100
AcDbEntity
  8
0
  6
Continuous
 62
     7
370
    25
100
AcDbLine
 10
197.5019444563
 20
87.9812213524
 30
0.0
 11
190.7937406413
 21
87.9812213524
 31
0.0
  0
SPLINE
  5
19C
330
1F
100
AcDbEntity
  8
0
  6
Continuous
 62
     7
370
    25
100
AcDbSpline
210
0.0
220
0.0
230
1.0
 70
     8
 71
     3
 72
    12
 73
     8
 74
     0
 42
0.000000001
 43
0.00000001
 40
0.0
 40
0.0
 40
0.0
 40
0.0
 40
0.25
 40
0.25
 40
0.5
 40
0.5
 40
1.0
 40
1.0
 40
1.0
 40
1.0
 10
187.1489520880735
 20
96.4829411575902
 30
0.0
 10
187.1489606954587
 20
96.47269905914115
 30
0.0
 10
187.1575705057888
 20
96.4651598475878
 30
0.0
 10
187.1790516160591
 20
96.45083033196346
 30
0.0
 10
187.1919229159992
 20
96.44404002789244
 30
0.0
 10
187.2175176758144
 20
96.41780717743917
 30
0.0
 10
187.2211922190131
 20
96.40812446075087
 30
0.0
 10
187.2210658534933
 20
96.40799809523102
 30
0.0
  0
LINE
  5
19D
330
1F
100
AcDbEntity
  8
0
  6
Continuous
 62
     7
370
    25
100
AcDbLine
 10
187.1474874988
 20
96.2893552777
 30
0.0
 11
187.1471019313
 21
96.3524905664
 31
0.0
  0
LINE
  5
19E
330
1F
100
AcDbEntity
  8
0
  6
Continuous
 62
     7
370
    25
100
AcDbLine
 10
201.1481975988
 20
96.2893552777
 30
0.0
 11
201.1485831663
 21
96.3524905664
 31
0.0
  0
SPLINE
  5
19F
330
1F
100
AcDbEntity
  8
0
  6
Continuous
 62
     7
370
    25
100
AcDbSpline
210
0.0
220
0.0
230
1.0
 70
     8
 71
     3
 72
    12
 73
     8
 74
     0
 42
0.000000001
 43
0.00000001
 40
0.0
 40
0.0
 40
0.0
 40
0.0
 40
0.25
 40
0.25
 40
0.5
 40
0.5
 40
1.0
 40
1.0
 40
1.0
 40
1.0
 10
201.1467330095093
 20
96.4829411575902
 30
0.0
 10
201.1467244021242
 20
96.47269905914115
 30
0.0
 10
201.138114591794
 20
96.46515984758781
 30
0.0
 10
201.1166334815238
 20
96.45083033196346
 30
0.0
 10
201.1037621815836
 20
96.44404002789244
 30
0.0
 10
201.0781674217684
 20
96.41780717743917
 30
0.0
 10
201.0744928785697
 20
96.40812446075087
 30
0.0
 10
201.0746192440896
 20
96.40799809523102
 30
0.0
  0
SPLINE
  5
1A0
330
1F
100
AcDbEntity
  8
0
  6
Continuous
 62
     7
370
    25
100
AcDbSpline
210
0.0
220
0.0
230
1.0
 70
     8
 71
     3
 72
    14
 73
    10
 74
     0
 42
0.000000001
 43
0.00000001
 40
0.0
 40
0.0
 40
0.0
 40
0.0
 40
0.25
 40
0.25
 40
0.5
 40
0.5
 40
0.75
 40
0.75
 40
1.0
 40
1.0
 40
1.0
 40
1.0
 10
201.1467330095093
 20
96.4829411575902
 30
0.0
 10
201.1467416168946
 20
96.49318325603927
 30
0.0
 10
201.1381504817097
 20
96.50786597050268
 30
0.0
 10
201.1018408821995
 20
96.53968836116054
 30
0.0
 10
201.074122417874
 20
96.556828037355
 30
0.0
 10
200.9976303160819
 20
96.58714008117737
 30
0.0
 10
200.9531045799761
 20
96.59300987936692
 30
0.0
 10
200.8532354597799
 20
96.58691532528664
 30
0.0
 10
200.7978920756894
 20
96.5749509730168
 30
0.0
 10
200.738010728824
 20
96.55443869400918
 30
0.0
  0
SPLINE
  5
1A1
330
1F
100
AcDbEntity
  8
0
  6
Continuous
 62
     7
370
    25
100
AcDbSpline
210
0.0
220
0.0
230
1.0
 70
     8
 71
     3
 72
    12
 73
     8
 74
     0
 42
0.000000001
 43
0.00000001
 40
0.0
 40
0.0
 40
0.0
 40
0.0
 40
0.25
 40
0.25
 40
0.5
 40
0.5
 40
1.0
 40
1.0
 40
1.0
 40
1.0
 10
187.1489520880735
 20
96.4829411575902
 30
0.0
 10
187.1489434806883
 20
96.49318325603927
 30
0.0
 10
187.1575346158731
 20
96.50786597050268
 30
0.0
 10
187.1938442153834
 20
96.53968836116054
 30
0.0
 10
187.2215626797088
 20
96.556828037355
 30
0.0
 10
187.336300832397
 20
96.60229610308855
 30
0.0
 10
187.4379116750279
 20
96.5954632520244
 30
0.0
 10
187.5576743687589
 20
96.55443869400918
 30
0.0
  0
SPLINE
  5
1A2
330
1F
100
AcDbEntity
  8
0
  6
Continuous
 62
     7
370
    25
100
AcDbSpline
210
0.0
220
0.0
230
1.0
 70
     8
 71
     3
 72
    10
 73
     6
 74
     0
 42
0.000000001
 43
0.00000001
 40
0.0
 40
0.0
 40
0.0
 40
0.0
 40
0.5
 40
0.5
 40
1.0
 40
1.0
 40
1.0
 40
1.0
 10
187.1489520880735
 20
96.4829411575902
 30
0.0
 10
187.1489176585327
 20
96.52390955138647
 30
0.0
 10
187.1485359810985
 20
96.5673649984584
 30
0.0
 10
187.1522279952247
 20
96.65645084367563
 30
0.0
 10
187.1478425487914
 20
96.68883807229096
 30
0.0
 10
187.1478425487914
 20
96.73122139993589
 30
0.0
  0
SPLINE
  5
1A3
330
1F
100
AcDbEntity
  8
0
  6
Continuous
 62
     7
370
    25
100
AcDbSpline
210
0.0
220
0.0
230
1.0
 70
     8
 71
     3
 72
     9
 73
     5
 74
     0
 42
0.000000001
 43
0.00000001
 40
0.0
 40
0.0
 40
0.0
 40
0.0
 40
0.1238817103976022
 40
1.0
 40
1.0
 40
1.0
 40
1.0
 10
201.146108176563
 20
96.6118960340647
 30
0.0
 10
201.1460234211509
 20
96.60657137786177
 30
0.0
 10
201.1453392571056
 20
96.56358959963279
 30
0.0
 10
201.1460821936852
 20
96.52060285674638
 30
0.0
 10
201.1467330940106
 20
96.48294138509314
 30
0.0
  0
SPLINE
  5
1A4
330
1F
100
AcDbEntity
  8
0
  6
Continuous
 62
     7
370
    25
100
AcDbSpline
210
0.0
220
0.0
230
1.0
 70
     8
 71
     3
 72
    17
 73
    13
 74
     0
 42
0.000000001
 43
0.00000001
 40
0.0
 40
0.0
 40
0.0
 40
0.0
 40
0.064877219191572
 40
0.1881732610574054
 40
0.3108723065422243
 40
0.4074275286016196
 40
0.5035034235458327
 40
0.6005139011134978
 40
0.6979995356379606
 40
0.8187988992996763
 40
0.9401587459050412
 40
0.9999999999999999
 40
0.9999999999999999
 40
0.9999999999999999
 40
0.9999999999999999
 10
197.4500101842024
 20
87.8471049645124
 30
0.0
 10
197.3202542378507
 20
87.7957521501447
 30
0.0
 10
196.9439033419456
 20
87.64680577629485
 30
0.0
 10
196.2878788725944
 20
87.46718112438737
 30
0.0
 10
195.5357097123503
 20
87.34353397446083
 30
0.0
 10
194.8189746435587
 20
87.32124056105319
 30
0.0
 10
194.1314924140129
 20
87.3274489519411
 30
0.0
 10
193.442879266218
 20
87.32130439278542
 30
0.0
 10
192.7276999216166
 20
87.34673119167826
 30
0.0
 10
191.9832438278694
 20
87.4730728973762
 30
0.0
 10
191.3464454443484
 20
87.64881004394167
 30
0.0
 10
190.9840150648847
 20
87.79227276754517
 30
0.0
 10
190.8643232509532
 20
87.83965100787114
 30
0.0
  0
LINE
  5
1A5
330
1F
100
AcDbEntity
  8
0
  6
Continuous
 62
     8
370
    25
100
AcDbLine
 10
187.2697291747
 20
95.981221616
 30
0.0
 11
187.1478423327
 21
95.981221616
 31
0.0
  0
LINE
  5
1A6
330
1F
100
AcDbEntity
  8
0
  6
Continuous
 62
     8
370
    25
100
AcDbLine
 10
201.0259559229
 20
95.981221616
 30
0.0
 11
201.1478427649
 21
95.981221616
 31
0.0
  0
LINE
  5
1A7
330
1F
100
AcDbEntity
  8
0
  6
Continuous
 62
     8
370
    25
100
AcDbLine
 10
199.7425263599
 20
96.7312212733
 30
0.0
 11
200.6650837921
 21
96.7312212733
 31
0.0
  0
LINE
  5
1A8
330
1F
100
AcDbEntity
  8
0
  6
Continuous
 62
     8
370
    25
100
AcDbLine
 10
187.6306013055
 20
96.7312212733
 30
0.0
 11
188.5527768955
 21
96.7312212733
 31
0.0
  0
LINE
  5
1A9
330
1F
100
AcDbEntity
  8
0
  6
Continuous
 62
     8
370
    25
100
AcDbLine
 10
200.8978427239
 20
96.2312211913
 30
0.0
 11
200.5904741436
 21
96.2312211913
 31
0.0
  0
LINE
  5
1AA
330
1F
100
AcDbEntity
  8
0
  6
Continuous
 62
     8
370
    25
100
AcDbLine
 10
200.8978427239
 20
96.0537623313
 30
0.0
 11
200.8978427239
 21
96.2312211913
 31
0.0
  0
LINE
  5
1AB
330
1F
100
AcDbEntity
  8
0
  6
Continuous
 62
     8
370
    25
100
AcDbLine
 10
187.705210954
 20
96.2312211913
 30
0.0
 11
187.3978423737
 21
96.2312211913
 31
0.0
  0
LINE
  5
1AC
330
1F
100
AcDbEntity
  8
0
  6
Continuous
 62
     8
370
    25
100
AcDbLine
 10
187.3978423737
 20
96.2312211913
 30
0.0
 11
187.3978423737
 21
96.0537623313
 31
0.0
  0
SPLINE
  5
1AD
330
1F
100
AcDbEntity
  8
0
  6
Continuous
 62
     8
370
    25
100
AcDbSpline
210
0.0
220
0.0
230
1.0
 70
     8
 71
     3
 72
     9
 73
     5
 74
     0
 42
0.000000001
 43
0.00000001
 40
0.0
 40
0.0
 40
0.0
 40
0.0
 40
0.1250373943442832
 40
1.0
 40
1.0
 40
1.0
 40
1.0
 10
187.1471019312777
 20
96.35249056640546
 30
0.0
 10
187.1470608309417
 20
96.3579282917249
 30
0.0
 10
187.1467321265866
 20
96.40141708440133
 30
0.0
 10
187.1479160845914
 20
96.44489757859674
 30
0.0
 10
187.1489520035722
 20
96.48294138509314
 30
0.0
  0
SPLINE
  5
1AE
330
1F
100
AcDbEntity
  8
0
  6
Continuous
 62
     8
370
    25
100
AcDbSpline
210
0.0
220
0.0
230
1.0
 70
     8
 71
     3
 72
     9
 73
     5
 74
     0
 42
0.000000001
 43
0.00000001
 40
0.0
 40
0.0
 40
0.0
 40
0.0
 40
0.1250373943442832
 40
1.0
 40
1.0
 40
1.0
 40
1.0
 10
201.1485831663051
 20
96.35249056640546
 30
0.0
 10
201.1486242666411
 20
96.3579282917249
 30
0.0
 10
201.1489529709963
 20
96.40141708440133
 30
0.0
 10
201.1477690129915
 20
96.44489757859674
 30
0.0
 10
201.1467330940106
 20
96.48294138509314
 30
0.0
  0
LINE
  5
1AF
330
1F
100
AcDbEntity
  8
0
  6
Continuous
 62
     8
370
    25
100
AcDbLine
 10
201.1478427649
 20
96.7312212733
 30
0.0
 11
201.1461081766
 21
96.6118960341
 31
0.0
  0
INSERT
  5
1BB
330
1F
100
AcDbEntity
  8
0
  6
Continuous
 62
     7
370
    18
100
AcDbBlockReference
  2
SW_CENTERMARKSYMBOL_0
 10
194.1478425488
 20
88.9812213999
 30
0.0
  0
LINE
  5
1BC
330
1F
100
AcDbEntity
  8
0
  6
Continuous
 62
     7
370
     0
100
AcDbLine
 10
199.8973808526
 20
112.1159956774
 30
0.0
 11
200.2453425488
 21
100.9812213999
 31
0.0
  0
LINE
  5
1BD
330
1F
100
AcDbEntity
  8
0
  6
Continuous
 62
     7
370
     0
100
AcDbLine
 10
188.398304245
 20
112.1159956774
 30
0.0
 11
188.0503425488
 21
100.9812213999
 31
0.0
  0
LINE
  5
1BE
330
1F
100
AcDbEntity
  8
0
  6
Continuous
 62
     7
370
     0
100
AcDbLine
 10
187.3821550488
 20
100.9812213999
 30
0.0
 11
200.9135300488
 21
100.9812213999
 31
0.0
  0
ARC
  5
1BF
330
1F
100
AcDbEntity
  8
0
  6
Continuous
 62
     7
370
     0
100
AcDbCircle
 10
194.1478425488
 20
88.9812213999
 30
0.0
 40
8.331000000000019
100
AcDbArc
 50
75.0
 51
345.0
  0
LINE
  5
1C0
330
1F
100
AcDbEntity
  8
0
  6
Continuous
 62
     7
370
    25
100
AcDbLine
 10
153.2888995906
 20
143.5265161746
 30
0.0
 11
158.8317553004
 21
144.2193731383
 31
0.0
  0
LINE
  5
1C1
330
1F
100
AcDbEntity
  8
0
  6
Continuous
 62
     7
370
    25
100
AcDbLine
 10
158.8317553004
 20
153.3336590693
 30
0.0
 11
153.2888995906
 21
154.026516033
 31
0.0
  0
LINE
  5
1C2
330
1F
100
AcDbEntity
  8
0
  6
Continuous
 62
     7
370
    25
100
AcDbLine
 10
149.288898935
 20
143.5265161746
 30
0.0
 11
153.2888995906
 21
144.2765162975
 31
0.0
  0
LINE
  5
1C3
330
1F
100
AcDbEntity
  8
0
  6
Continuous
 62
     7
370
    25
100
AcDbLine
 10
153.2888995906
 20
153.2765159101
 30
0.0
 11
149.288898935
 21
154.026516033
 31
0.0
  0
LINE
  5
1C4
330
1F
100
AcDbEntity
  8
0
  6
Continuous
 62
     7
370
    25
100
AcDbLine
 10
145.2888982793
 20
143.5265161746
 30
0.0
 11
149.288898935
 21
144.2765162975
 31
0.0
  0
LINE
  5
1C5
330
1F
100
AcDbEntity
  8
0
  6
Continuous
 62
     7
370
    25
100
AcDbLine
 10
149.288898935
 20
153.2765159101
 30
0.0
 11
145.2888982793
 21
154.026516033
 31
0.0
  0
LINE
  5
1C6
330
1F
100
AcDbEntity
  8
0
  6
Continuous
 62
     7
370
    25
100
AcDbLine
 10
141.2888976237
 20
143.5265161746
 30
0.0
 11
145.2888982793
 21
144.2765162975
 31
0.0
  0
LINE
  5
1C7
330
1F
100
AcDbEntity
  8
0
  6
Continuous
 62
     7
370
    25
100
AcDbLine
 10
145.2888982793
 20
153.2765159101
 30
0.0
 11
141.2888976237
 21
154.026516033
 31
0.0
  0
LINE
  5
1C8
330
1F
100
AcDbEntity
  8
0
  6
Continuous
 62
     7
370
    25
100
AcDbLine
 10
137.288896968
 20
143.5265161746
 30
0.0
 11
141.2888976237
 21
144.2765162975
 31
0.0
  0
LINE
  5
1C9
330
1F
100
AcDbEntity
  8
0
  6
Continuous
 62
     7
370
    25
100
AcDbLine
 10
141.2888976237
 20
153.2765159101
 30
0.0
 11
137.288896968
 21
154.026516033
 31
0.0
  0
LINE
  5
1CA
330
1F
100
AcDbEntity
  8
0
  6
Continuous
 62
     7
370
    25
100
AcDbLine
 10
132.7888971617
 20
143.5265161746
 30
0.0
 11
137.288896968
 21
143.5265161746
 31
0.0
  0
LINE
  5
1CB
330
1F
100
AcDbEntity
  8
0
  6
Continuous
 62
     7
370
    25
100
AcDbLine
 10
137.288896968
 20
154.026516033
 30
0.0
 11
132.7888971617
 21
154.026516033
 31
0.0
  0
LINE
  5
1CC
330
1F
100
AcDbEntity
  8
0
  6
Continuous
 62
     7
370
    25
100
AcDbLine
 10
158.8317553004
 20
144.2193731383
 30
0.0
 11
159.2888968488
 21
144.6765160837
 31
0.0
  0
LINE
  5
1CD
330
1F
100
AcDbEntity
  8
0
  6
Continuous
 62
     7
370
    25
100
AcDbLine
 10
159.2888968488
 20
152.8765161239
 30
0.0
 11
158.8317553004
 21
153.3336590693
 31
0.0
  0
LINE
  5
1CE
330
1F
100
AcDbEntity
  8
0
  6
Continuous
 62
     7
370
    25
100
AcDbLine
 10
120.8755007436
 20
158.2765157983
 30
0.0
 11
120.7888979887
 21
158.1265160531
 31
0.0
  0
LINE
  5
1CF
330
1F
100
AcDbEntity
  8
0
  6
Continuous
 62
     7
370
    25
100
AcDbLine
 10
120.7888979887
 20
139.4265161545
 30
0.0
 11
120.8755007436
 21
139.2765164093
 31
0.0
  0
LINE
  5
1D0
330
1F
100
AcDbEntity
  8
0
  6
Continuous
 62
     7
370
    25
100
AcDbLine
 10
130.7022950103
 20
139.2765164093
 30
0.0
 11
130.7888986965
 21
139.4265161545
 31
0.0
  0
LINE
  5
1D1
330
1F
100
AcDbEntity
  8
0
  6
Continuous
 62
     7
370
    25
100
AcDbLine
 10
130.7888986965
 20
158.1265160531
 30
0.0
 11
130.7022950103
 21
158.2765157983
 31
0.0
  0
LINE
  5
1D2
330
1F
100
AcDbEntity
  8
0
  6
Continuous
 62
     7
370
    25
100
AcDbLine
 10
130.7888986965
 20
139.4265161545
 30
0.0
 11
132.4888976713
 21
139.4265161545
 31
0.0
  0
LINE
  5
1D3
330
1F
100
AcDbEntity
  8
0
  6
Continuous
 62
     7
370
    25
100
AcDbLine
 10
132.4888976713
 20
158.1265160531
 30
0.0
 11
130.7888986965
 21
158.1265160531
 31
0.0
  0
ARC
  5
1D4
330
1F
100
AcDbEntity
  8
0
  6
Continuous
 62
     7
370
    25
100
AcDbCircle
 10
119.088897825
 20
139.7265161038
 30
0.0
 40
0.3000000000000114
100
AcDbArc
 50
180.0
 51
270.0
  0
ARC
  5
1D5
330
1F
100
AcDbEntity
  8
0
  6
Continuous
 62
     7
370
    25
100
AcDbCircle
 10
119.088897825
 20
157.8265161038
 30
0.0
 40
0.2999999999999972
100
AcDbArc
 50
90.0
 51
180.0
  0
LINE
  5
1D6
330
1F
100
AcDbEntity
  8
0
  6
Continuous
 62
     7
370
    25
100
AcDbLine
 10
120.7888979887
 20
158.1265160531
 30
0.0
 11
119.0888980826
 21
158.1265160531
 31
0.0
  0
LINE
  5
1D7
330
1F
100
AcDbEntity
  8
0
  6
Continuous
 62
     7
370
    25
100
AcDbLine
 10
119.0888980826
 20
139.4265161545
 30
0.0
 11
120.7888979887
 21
139.4265161545
 31
0.0
  0
ARC
  5
1D8
330
1F
100
AcDbEntity
  8
0
  6
Continuous
 62
     7
370
    25
100
AcDbCircle
 10
132.488897825
 20
157.8265161038
 30
0.0
 40
0.3000000000000114
100
AcDbArc
 50
0.0
 51
90.0
  0
ARC
  5
1D9
330
1F
100
AcDbEntity
  8
0
  6
Continuous
 62
     7
370
    25
100
AcDbCircle
 10
132.488897825
 20
139.7265161038
 30
0.0
 40
0.3000000000000114
100
AcDbArc
 50
270.0
 51
0.0
  0
ARC
  5
1DA
330
1F
100
AcDbEntity
  8
0
  6
Continuous
 62
     7
370
    25
100
AcDbCircle
 10
118.0128070613
 20
156.7765161038
 30
0.0
 40
1.000000000000017
100
AcDbArc
 50
270.0
 51
320.9040298984
  0
ARC
  5
1DB
330
1F
100
AcDbEntity
  8
0
  6
Continuous
 62
     7
370
    25
100
AcDbCircle
 10
118.0128070613
 20
140.7765161038
 30
0.0
 40
1.0
100
AcDbArc
 50
39.0959701016
 51
90.0
  0
ARC
  5
1DC
330
1F
100
AcDbEntity
  8
0
  6
Continuous
 62
     7
370
    25
100
AcDbCircle
 10
113.2627496624
 20
145.102286025
 30
0.0
 40
0.2499425650761921
100
AcDbArc
 50
172.5138461878
 51
179.9793965812
  0
LINE
  5
1DD
330
1F
100
AcDbEntity
  8
0
  6
Continuous
 62
     7
370
    25
100
AcDbLine
 10
109.6585582899
 20
155.7765163199
 30
0.0
 11
107.0128070613
 21
155.7789507971
 31
0.0
  0
LINE
  5
1DE
330
1F
100
AcDbEntity
  8
0
  6
Continuous
 62
     7
370
    25
100
AcDbLine
 10
107.0128070613
 20
155.7789507971
 30
0.0
 11
104.3670558328
 21
155.7765163199
 31
0.0
  0
SPLINE
  5
1DF
330
1F
100
AcDbEntity
  8
0
  6
Continuous
 62
     7
370
    25
100
AcDbSpline
210
0.0
220
0.0
230
1.0
 70
     8
 71
     3
 72
    10
 73
     6
 74
     0
 42
0.000000001
 43
0.00000001
 40
0.0
 40
0.0
 40
0.0
 40
0.0
 40
0.4032840312581802
 40
0.7899775737409451
 40
1.0
 40
1.0
 40
1.0
 40
1.0
 10
107.0128070613225
 20
141.7740814105098
 30
0.0
 10
107.1586217187618
 20
141.7739825695304
 30
0.0
 10
107.4442524414571
 20
141.7737889537385
 30
0.0
 10
107.8054524049555
 20
141.7758368725924
 30
0.0
 10
108.0200312485163
 20
141.7761421003417
 30
0.0
 10
108.0955552359899
 20
141.7762495294635
 30
0.0
  0
SPLINE
  5
1E0
330
1F
100
AcDbEntity
  8
0
  6
Continuous
 62
     7
370
    25
100
AcDbSpline
210
0.0
220
0.0
230
1.0
 70
     8
 71
     3
 72
     9
 73
     5
 74
     0
 42
0.000000001
 43
0.00000001
 40
0.0
 40
0.0
 40
0.0
 40
0.0
 40
0.4155338885727641
 40
1.0
 40
1.0
 40
1.0
 40
1.0
 10
105.920007704184
 20
141.776146618319
 30
0.0
 10
106.0711205825201
 20
141.7757002175458
 30
0.0
 10
106.434780159974
 20
141.7746259350733
 30
0.0
 10
106.7995887836358
 20
141.7742822706935
 30
0.0
 10
107.0128070613225
 20
141.7740814105098
 30
0.0
  0
LINE
  5
1E1
330
1F
100
AcDbEntity
  8
0
  6
Continuous
 62
     7
370
    25
100
AcDbLine
 10
114.7628069347
 20
141.7765158877
 30
0.0
 11
118.0128070017
 21
141.7765158877
 31
0.0
  0
LINE
  5
1E2
330
1F
100
AcDbEntity
  8
0
  6
Continuous
 62
     7
370
    25
100
AcDbLine
 10
118.0128070017
 20
155.7765163199
 30
0.0
 11
114.7628069347
 21
155.7765163199
 31
0.0
  0
LINE
  5
1E3
330
1F
100
AcDbEntity
  8
0
  6
Continuous
 62
     7
370
    25
100
AcDbLine
 10
153.2888995906
 20
143.5265161746
 30
0.0
 11
153.2888995906
 21
154.026516033
 31
0.0
  0
LINE
  5
1E4
330
1F
100
AcDbEntity
  8
0
  6
Continuous
 62
     7
370
    25
100
AcDbLine
 10
158.8317553004
 20
144.2193731383
 30
0.0
 11
158.8317553004
 21
153.3336590693
 31
0.0
  0
LINE
  5
1E5
330
1F
100
AcDbEntity
  8
0
  6
Continuous
 62
     7
370
    25
100
AcDbLine
 10
149.288898935
 20
143.5265161746
 30
0.0
 11
149.288898935
 21
154.026516033
 31
0.0
  0
LINE
  5
1E6
330
1F
100
AcDbEntity
  8
0
  6
Continuous
 62
     7
370
    25
100
AcDbLine
 10
145.2888982793
 20
143.5265161746
 30
0.0
 11
145.2888982793
 21
154.026516033
 31
0.0
  0
LINE
  5
1E7
330
1F
100
AcDbEntity
  8
0
  6
Continuous
 62
     7
370
    25
100
AcDbLine
 10
141.2888976237
 20
143.5265161746
 30
0.0
 11
141.2888976237
 21
154.026516033
 31
0.0
  0
LINE
  5
1E8
330
1F
100
AcDbEntity
  8
0
  6
Continuous
 62
     7
370
    25
100
AcDbLine
 10
137.288896968
 20
143.5265161746
 30
0.0
 11
137.288896968
 21
154.026516033
 31
0.0
  0
LINE
  5
1E9
330
1F
100
AcDbEntity
  8
0
  6
Continuous
 62
     7
370
    25
100
AcDbLine
 10
159.2888968488
 20
152.8765161239
 30
0.0
 11
159.2888968488
 21
144.6765160837
 31
0.0
  0
LINE
  5
1EA
330
1F
100
AcDbEntity
  8
0
  6
Continuous
 62
     7
370
    25
100
AcDbLine
 10
129.8537893643
 20
158.2765157983
 30
0.0
 11
125.9450676342
 21
158.2765157983
 31
0.0
  0
SPLINE
  5
1EB
330
1F
100
AcDbEntity
  8
0
  6
Continuous
 62
     7
370
    25
100
AcDbSpline
210
0.0
220
0.0
230
1.0
 70
     8
 71
     3
 72
    15
 73
    11
 74
     0
 42
0.000000001
 43
0.00000001
 40
0.0
 40
0.0
 40
0.0
 40
0.0
 40
0.1323056877110733
 40
0.264573947988555
 40
0.3998012094750216
 40
0.5350039966972203
 40
0.6501944060393671
 40
0.7654027883544241
 40
0.8826900601954766
 40
1.0
 40
1.0
 40
1.0
 40
1.0
 10
129.8537893643459
 20
148.7765161037867
 30
0.0
 10
129.9829565602261
 20
149.1869553210109
 30
0.0
 10
130.2412544123886
 20
150.0077176479298
 30
0.0
 10
130.5191707172503
 20
151.2716196718484
 30
0.0
 10
130.6862761746157
 20
152.5593452589153
 30
0.0
 10
130.7193653263846
 20
153.8004234539035
 30
0.0
 10
130.6335070324596
 20
154.9744486812638
 30
0.0
 10
130.4575767460929
 20
156.0824366156257
 30
0.0
 10
130.1995109538988
 20
157.1854149834084
 30
0.0
 10
129.9690373173711
 20
157.9127920990653
 30
0.0
 10
129.8537893643459
 20
158.2765157983129
 30
0.0
  0
LINE
  5
1EC
330
1F
100
AcDbEntity
  8
0
  6
Continuous
 62
     7
370
    25
100
AcDbLine
 10
129.8537893643
 20
148.7765161038
 30
0.0
 11
125.9450676342
 21
148.7765161038
 31
0.0
  0
LINE
  5
1ED
330
1F
100
AcDbEntity
  8
0
  6
Continuous
 62
     7
370
    25
100
AcDbLine
 10
125.788897877
 20
149.3201334562
 30
0.0
 11
125.9450676342
 21
148.7765161038
 31
0.0
  0
LINE
  5
1EE
330
1F
100
AcDbEntity
  8
0
  6
Continuous
 62
     7
370
    25
100
AcDbLine
 10
125.6327281197
 20
148.7765161038
 30
0.0
 11
125.788897877
 21
149.3201334562
 31
0.0
  0
LINE
  5
1EF
330
1F
100
AcDbEntity
  8
0
  6
Continuous
 62
     7
370
    25
100
AcDbLine
 10
125.6327281197
 20
148.7765161038
 30
0.0
 11
121.7240063896
 21
148.7765161038
 31
0.0
  0
SPLINE
  5
1F0
330
1F
100
AcDbEntity
  8
0
  6
Continuous
 62
     7
370
    25
100
AcDbSpline
210
0.0
220
0.0
230
1.0
 70
     8
 71
     3
 72
    15
 73
    11
 74
     0
 42
0.000000001
 43
0.00000001
 40
0.0
 40
0.0
 40
0.0
 40
0.0
 40
0.1323056870256098
 40
0.2645739466178221
 40
0.3998011982256617
 40
0.5350039884857264
 40
0.6501944024331601
 40
0.7654027729053947
 40
0.8826900608032485
 40
1.0
 40
1.0
 40
1.0
 40
1.0
 10
121.7240063896259
 20
148.7765161037867
 30
0.0
 10
121.594839239141
 20
149.1869553236574
 30
0.0
 10
121.3365414777566
 20
150.0077176558684
 30
0.0
 10
121.0586244935122
 20
151.2716196107936
 30
0.0
 10
120.8915216964946
 20
152.5593453351505
 30
0.0
 10
120.8584283108539
 20
153.8004234791565
 30
0.0
 10
120.9442896240503
 20
154.9744485617317
 30
0.0
 10
121.1202173054179
 20
156.0824368030046
 30
0.0
 10
121.3782852089803
 20
157.1854148668863
 30
0.0
 10
121.6087585783693
 20
157.9127920774461
 30
0.0
 10
121.7240063896259
 20
158.2765157983129
 30
0.0
  0
LINE
  5
1F1
330
1F
100
AcDbEntity
  8
0
  6
Continuous
 62
     7
370
    25
100
AcDbLine
 10
125.6327281197
 20
158.2765157983
 30
0.0
 11
121.7240063896
 21
158.2765157983
 31
0.0
  0
LINE
  5
1F2
330
1F
100
AcDbEntity
  8
0
  6
Continuous
 62
     7
370
    25
100
AcDbLine
 10
125.788897877
 20
157.7328990862
 30
0.0
 11
125.6327281197
 21
158.2765157983
 31
0.0
  0
LINE
  5
1F3
330
1F
100
AcDbEntity
  8
0
  6
Continuous
 62
     7
370
    25
100
AcDbLine
 10
125.9450676342
 20
158.2765157983
 30
0.0
 11
125.788897877
 21
157.7328990862
 31
0.0
  0
SPLINE
  5
1F4
330
1F
100
AcDbEntity
  8
0
  6
Continuous
 62
     7
370
    25
100
AcDbSpline
210
0.0
220
0.0
230
1.0
 70
    24
 71
     3
 72
    12
 73
     8
 74
     0
 42
0.000000001
 43
0.00000001
 40
0.0
 40
0.0
 40
0.0
 40
0.0
 40
0.2375634672868704
 40
0.4883378253663135
 40
0.7390480571730482
 40
0.995947389769418
 40
1.0
 40
1.0
 40
1.0
 40
1.0
 10
121.7240063896259
 20
158.2765157983129
 30
0.0
 10
121.6075382150764
 20
158.2765157983129
 30
0.0
 10
121.3681250774699
 20
158.2765157983129
 30
0.0
 10
121.0970831423013
 20
158.2765157983129
 30
0.0
 10
120.9271730251381
 20
158.2765157983128
 30
0.0
 10
120.8563805663173
 20
158.2765157983129
 30
0.0
 10
120.8767022699834
 20
158.2765157983129
 30
0.0
 10
120.8770178681095
 20
158.2765157983129
 30
0.0
  0
SPLINE
  5
1F5
330
1F
100
AcDbEntity
  8
0
  6
Continuous
 62
     7
370
    25
100
AcDbSpline
210
0.0
220
0.0
230
1.0
 70
     8
 71
     3
 72
    15
 73
    11
 74
     0
 42
0.000000001
 43
0.00000001
 40
0.0
 40
0.0
 40
0.0
 40
0.0
 40
0.1323057012602369
 40
0.2645739697908265
 40
0.3998012006614076
 40
0.5350039728637891
 40
0.6501944257921894
 40
0.7654027576403793
 40
0.8826900749406439
 40
0.9999999999999999
 40
0.9999999999999999
 40
0.9999999999999999
 40
0.9999999999999999
 10
121.7240063896259
 20
139.2765164092605
 30
0.0
 10
121.59483923909
 20
139.6869554717441
 30
0.0
 10
121.3365414827701
 20
140.5077174728082
 30
0.0
 10
121.058624525256
 20
141.771619566131
 30
0.0
 10
120.891521681888
 20
143.0593454746273
 30
0.0
 10
120.8584283376801
 20
144.3004235559172
 30
0.0
 10
120.9442895574992
 20
145.4744482698574
 30
0.0
 10
121.1202173971417
 20
146.5824370112572
 30
0.0
 10
121.3782851328347
 20
147.6854144874181
 30
0.0
 10
121.608758567244
 20
148.4127921995902
 30
0.0
 10
121.7240063896259
 20
148.7765161037867
 30
0.0
  0
SPLINE
  5
1F6
330
1F
100
AcDbEntity
  8
0
  6
Continuous
 62
     7
370
    25
100
AcDbSpline
210
0.0
220
0.0
230
1.0
 70
    24
 71
     3
 72
    11
 73
     7
 74
     0
 42
0.000000001
 43
0.00000001
 40
0.0
 40
0.0
 40
0.0
 40
0.0
 40
0.2481551557704784
 40
0.5052721402715813
 40
0.7624597508820349
 40
0.9999999999999999
 40
0.9999999999999999
 40
0.9999999999999999
 40
0.9999999999999999
 10
120.8765400996288
 20
139.2765164092605
 30
0.0
 10
120.8872868052744
 20
139.2765164092605
 30
0.0
 10
120.9091683210768
 20
139.2765164092605
 30
0.0
 10
121.0942577232262
 20
139.2765164092605
 30
0.0
 10
121.3640965890466
 20
139.2765164092605
 30
0.0
 10
121.6072553490483
 20
139.2765164092605
 30
0.0
 10
121.7240063896259
 20
139.2765164092605
 30
0.0
  0
LINE
  5
1F7
330
1F
100
AcDbEntity
  8
0
  6
Continuous
 62
     7
370
    25
100
AcDbLine
 10
120.7888979887
 20
139.4265161545
 30
0.0
 11
120.7888979887
 21
158.1265160531
 31
0.0
  0
SPLINE
  5
1F8
330
1F
100
AcDbEntity
  8
0
  6
Continuous
 62
     7
370
    25
100
AcDbSpline
210
0.0
220
0.0
230
1.0
 70
    24
 71
     3
 72
    11
 73
     7
 74
     0
 42
0.000000001
 43
0.00000001
 40
0.0
 40
0.0
 40
0.0
 40
0.0
 40
0.2481551503581815
 40
0.5052721086782662
 40
0.7624597136794239
 40
1.0
 40
1.0
 40
1.0
 40
1.0
 10
130.701255654343
 20
139.2765164092605
 30
0.0
 10
130.690508856035
 20
139.2765164092605
 30
0.0
 10
130.6686271524526
 20
139.2765164092605
 30
0.0
 10
130.4835392158652
 20
139.2765164092605
 30
0.0
 10
130.2137002590714
 20
139.2765164092605
 30
0.0
 10
129.9705407671697
 20
139.2765164092605
 30
0.0
 10
129.8537893643459
 20
139.2765164092605
 30
0.0
  0
SPLINE
  5
1F9
330
1F
100
AcDbEntity
  8
0
  6
Continuous
 62
     7
370
    25
100
AcDbSpline
210
0.0
220
0.0
230
1.0
 70
     8
 71
     3
 72
    15
 73
    11
 74
     0
 42
0.000000001
 43
0.00000001
 40
0.0
 40
0.0
 40
0.0
 40
0.0
 40
0.132305701945699
 40
0.2645739711615568
 40
0.3998012119107648
 40
0.5350039810752782
 40
0.6501944293983923
 40
0.7654027730894072
 40
0.8826900743328735
 40
1.0
 40
1.0
 40
1.0
 40
1.0
 10
129.8537893643459
 20
139.2765164092605
 30
0.0
 10
129.9829565602772
 20
139.6869554690977
 30
0.0
 10
130.241254407375
 20
140.5077174648695
 30
0.0
 10
130.5191706855065
 20
141.7716196271859
 30
0.0
 10
130.6862761892222
 20
143.0593453983921
 30
0.0
 10
130.7193652995582
 20
144.3004235306642
 30
0.0
 10
130.6335070990107
 20
145.4744483893895
 30
0.0
 10
130.4575766543691
 20
146.5824368238782
 30
0.0
 10
130.1995110300442
 20
147.6854146039401
 30
0.0
 10
129.9690373284964
 20
148.4127922212094
 30
0.0
 10
129.8537893643459
 20
148.7765161037867
 30
0.0
  0
SPLINE
  5
1FA
330
1F
100
AcDbEntity
  8
0
  6
Continuous
 62
     7
370
    25
100
AcDbSpline
210
0.0
220
0.0
230
1.0
 70
    24
 71
     3
 72
    12
 73
     8
 74
     0
 42
0.000000001
 43
0.00000001
 40
0.0
 40
0.0
 40
0.0
 40
0.0
 40
0.237563502358149
 40
0.4883378198938831
 40
0.7390480439794767
 40
0.9959473760426384
 40
1.0
 40
1.0
 40
1.0
 40
1.0
 10
129.8537893643459
 20
158.2765157983129
 30
0.0
 10
129.9702576575835
 20
158.2765157983129
 30
0.0
 10
130.2096710011396
 20
158.2765157983129
 30
0.0
 10
130.4807169539032
 20
158.2765157983129
 30
0.0
 10
130.6506049739833
 20
158.2765157983128
 30
0.0
 10
130.721455157
 20
158.2765157983129
 30
0.0
 10
130.7010931791826
 20
158.2765157983129
 30
0.0
 10
130.7007769545396
 20
158.2765157983129
 30
0.0
  0
LINE
  5
1FB
330
1F
100
AcDbEntity
  8
0
  6
Continuous
 62
     7
370
    25
100
AcDbLine
 10
130.7888986965
 20
139.4265161545
 30
0.0
 11
130.7888986965
 21
158.1265160531
 31
0.0
  0
LINE
  5
1FC
330
1F
100
AcDbEntity
  8
0
  6
Continuous
 62
     7
370
    25
100
AcDbLine
 10
125.788897877
 20
148.2328987514
 30
0.0
 11
125.6327281197
 21
148.7765161038
 31
0.0
  0
LINE
  5
1FD
330
1F
100
AcDbEntity
  8
0
  6
Continuous
 62
     7
370
    25
100
AcDbLine
 10
125.788897877
 20
149.3201334562
 30
0.0
 11
125.788897877
 21
148.2328987514
 31
0.0
  0
LINE
  5
1FE
330
1F
100
AcDbEntity
  8
0
  6
Continuous
 62
     7
370
    25
100
AcDbLine
 10
125.9450676342
 20
148.7765161038
 30
0.0
 11
125.788897877
 21
148.2328987514
 31
0.0
  0
LINE
  5
1FF
330
1F
100
AcDbEntity
  8
0
  6
Continuous
 62
     7
370
    25
100
AcDbLine
 10
129.8537893643
 20
139.2765164093
 30
0.0
 11
125.9450676342
 21
139.2765164093
 31
0.0
  0
LINE
  5
200
330
1F
100
AcDbEntity
  8
0
  6
Continuous
 62
     7
370
    25
100
AcDbLine
 10
125.788897877
 20
139.8201331214
 30
0.0
 11
125.9450676342
 21
139.2765164093
 31
0.0
  0
LINE
  5
201
330
1F
100
AcDbEntity
  8
0
  6
Continuous
 62
     7
370
    25
100
AcDbLine
 10
125.6327281197
 20
139.2765164093
 30
0.0
 11
125.788897877
 21
139.8201331214
 31
0.0
  0
LINE
  5
202
330
1F
100
AcDbEntity
  8
0
  6
Continuous
 62
     7
370
    25
100
AcDbLine
 10
125.6327281197
 20
139.2765164093
 30
0.0
 11
121.7240063896
 21
139.2765164093
 31
0.0
  0
LINE
  5
203
330
1F
100
AcDbEntity
  8
0
  6
Continuous
 62
     7
370
    25
100
AcDbLine
 10
118.7888976609
 20
139.7265156448
 30
0.0
 11
118.7888976609
 21
157.8265165627
 31
0.0
  0
LINE
  5
204
330
1F
100
AcDbEntity
  8
0
  6
Continuous
 62
     7
370
    25
100
AcDbLine
 10
132.7888971617
 20
157.8265165627
 30
0.0
 11
132.7888971617
 21
139.7265156448
 31
0.0
  0
LINE
  5
205
330
1F
100
AcDbEntity
  8
0
  6
Continuous
 62
     7
370
    25
100
AcDbLine
 10
125.6327281197
 20
158.2765157983
 30
0.0
 11
125.788897877
 21
158.2765157983
 31
0.0
  0
LINE
  5
206
330
1F
100
AcDbEntity
  8
0
  6
Continuous
 62
     7
370
    25
100
AcDbLine
 10
125.788897877
 20
158.2765157983
 30
0.0
 11
125.788897877
 21
157.7328990862
 31
0.0
  0
LINE
  5
207
330
1F
100
AcDbEntity
  8
0
  6
Continuous
 62
     7
370
    25
100
AcDbLine
 10
125.788897877
 20
158.2765157983
 30
0.0
 11
125.9450676342
 21
158.2765157983
 31
0.0
  0
LINE
  5
208
330
1F
100
AcDbEntity
  8
0
  6
Continuous
 62
     7
370
    25
100
AcDbLine
 10
125.788897877
 20
139.2765164093
 30
0.0
 11
125.6327281197
 21
139.2765164093
 31
0.0
  0
LINE
  5
209
330
1F
100
AcDbEntity
  8
0
  6
Continuous
 62
     7
370
    25
100
AcDbLine
 10
125.788897877
 20
139.8201331214
 30
0.0
 11
125.788897877
 21
139.2765164093
 31
0.0
  0
LINE
  5
20A
330
1F
100
AcDbEntity
  8
0
  6
Continuous
 62
     7
370
    25
100
AcDbLine
 10
125.9450676342
 20
139.2765164093
 30
0.0
 11
125.788897877
 21
139.2765164093
 31
0.0
  0
CIRCLE
  5
20B
330
1F
100
AcDbEntity
  8
0
  6
Continuous
 62
     7
370
    25
100
AcDbCircle
 10
107.0128070613
 20
148.7765161038
 30
0.0
 40
5.25
  0
CIRCLE
  5
20C
330
1F
100
AcDbEntity
  8
0
  6
Continuous
 62
     7
370
    25
100
AcDbCircle
 10
107.0128070613
 20
148.7765161038
 30
0.0
 40
6.455962114180096
  0
CIRCLE
  5
20D
330
1F
100
AcDbEntity
  8
0
  6
Continuous
 62
     7
370
    25
100
AcDbCircle
 10
107.0128070613
 20
148.7765161038
 30
0.0
 40
4.199999999999974
  0
CIRCLE
  5
20E
330
1F
100
AcDbEntity
  8
0
  6
Continuous
 62
     7
370
    25
100
AcDbCircle
 10
107.0128070613
 20
148.7765161038
 30
0.0
 40
3.999999999999986
  0
CIRCLE
  5
20F
330
1F
100
AcDbEntity
  8
0
  6
Continuous
 62
     7
370
    25
100
AcDbCircle
 10
107.0128070613
 20
148.7765161038
 30
0.0
 40
6.828187499999999
  0
CIRCLE
  5
210
330
1F
100
AcDbEntity
  8
0
  6
Continuous
 62
     7
370
    25
100
AcDbCircle
 10
107.0128070613
 20
148.7765161038
 30
0.0
 40
7.0
  0
SPLINE
  5
211
330
1F
100
AcDbEntity
  8
0
  6
Continuous
 62
     7
370
    25
100
AcDbSpline
210
0.0
220
0.0
230
1.0
 70
     8
 71
     3
 72
    16
 73
    12
 74
     0
 42
0.000000001
 43
0.00000001
 40
0.0
 40
0.0
 40
0.0
 40
0.0
 40
0.5000000000000019
 40
0.5000000000000019
 40
0.7500000000000013
 40
0.7500000000000013
 40
0.8750000000000006
 40
0.8750000000000006
 40
0.9375000000000003
 40
0.9375000000000003
 40
1.0
 40
1.0
 40
1.0
 40
1.0
 10
101.2628070613225
 20
153.1923965369506
 30
0.0
 10
101.2112456444003
 20
153.0581183780239
 30
0.0
 10
101.1633211167366
 20
152.9235381967176
 30
0.0
 10
101.0969378547469
 20
152.7238376726931
 30
0.0
 10
101.0757300439582
 20
152.6575868431384
 30
0.0
 10
101.0465099345358
 20
152.5632556613664
 30
0.0
 10
101.037102315648
 20
152.5323168285732
 30
0.0
 10
101.0247915346417
 20
152.4912559349877
 30
0.0
 10
101.0209952699216
 20
152.4784857492841
 30
0.0
 10
101.0149225676934
 20
152.4579576673662
 30
0.0
 10
101.0128070613225
 20
152.4507507179614
 30
0.0
 10
101.0128070613225
 20
152.4507507179614
 30
0.0
  0
LWPOLYLINE
  5
212
330
1F
100
AcDbEntity
  8
0
  6
Continuous
 62
     7
370
    25
100
AcDbPolyline
 90
        9
 70
   128
 43
0.0
 10
101.2628070501
 20
153.1923965268
 10
101.301488602
 20
153.162689665
 10
101.3386837629
 20
153.1341246047
 10
101.3729634186
 20
153.1077989094
 10
101.4030092819
 20
153.0847239957
 10
101.427667444
 20
153.0657874138
 10
101.4459902843
 20
153.0517155953
 10
101.4572732573
 20
153.0430505701
 10
101.4610828323
 20
153.0401248202
  0
ARC
  5
213
330
1F
100
AcDbEntity
  8
0
  6
Continuous
 62
     7
370
    25
100
AcDbCircle
 10
100.7628070613
 20
152.450750718
 30
0.0
 40
0.2500000000000142
100
AcDbArc
 50
329.5496859786
 51
0.0
  0
ARC
  5
214
330
1F
100
AcDbEntity
  8
0
  6
Continuous
 62
     7
370
    25
100
AcDbCircle
 10
113.2628070613
 20
145.1022814896
 30
0.0
 40
0.2500000000000159
100
AcDbArc
 50
149.5496859786
 51
172.5145187188
  0
SPLINE
  5
215
330
1F
100
AcDbEntity
  8
0
  6
Continuous
 62
     7
370
    25
100
AcDbSpline
210
0.0
220
0.0
230
1.0
 70
     8
 71
     3
 72
    16
 73
    12
 74
     0
 42
0.000000001
 43
0.00000001
 40
0.0
 40
0.0
 40
0.0
 40
0.0
 40
0.5000000000000004
 40
0.5000000000000004
 40
0.7499999999999992
 40
0.7499999999999992
 40
0.8749999999999993
 40
0.8749999999999993
 40
0.9374999999999997
 40
0.9374999999999997
 40
1.0
 40
1.0
 40
1.0
 40
1.0
 10
112.7628070613225
 20
144.3606356706227
 30
0.0
 10
112.8143684782448
 20
144.4949138295494
 30
0.0
 10
112.8622930059085
 20
144.6294940108557
 30
0.0
 10
112.9286762678982
 20
144.8291945348803
 30
0.0
 10
112.9498840786869
 20
144.8954453644349
 30
0.0
 10
112.9791041881092
 20
144.9897765462069
 30
0.0
 10
112.9885118069971
 20
145.0207153790001
 30
0.0
 10
113.0008225880034
 20
145.0617762725856
 30
0.0
 10
113.0046188527235
 20
145.0745464582892
 30
0.0
 10
113.0106915549517
 20
145.0950745402072
 30
0.0
 10
113.0128070613225
 20
145.1022814896119
 30
0.0
 10
113.0128070613225
 20
145.1022814896119
 30
0.0
  0
LWPOLYLINE
  5
216
330
1F
100
AcDbEntity
  8
0
  6
Continuous
 62
     7
370
    25
100
AcDbPolyline
 90
        9
 70
   128
 43
0.0
 10
112.5645312903
 20
144.5129073874
 10
112.5683408653
 20
144.5099816375
 10
112.5796238383
 20
144.5013166123
 10
112.5979466786
 20
144.4872447938
 10
112.6226048408
 20
144.4683082119
 10
112.652650704
 20
144.4452332981
 10
112.6869303597
 20
144.4189076029
 10
112.7241255207
 20
144.3903425426
 10
112.7628070725
 20
144.3606356807
  0
SPLINE
  5
217
330
1F
100
AcDbEntity
  8
0
  6
Continuous
 62
     7
370
    25
100
AcDbSpline
210
0.0
220
0.0
230
1.0
 70
     8
 71
     3
 72
    16
 73
    12
 74
     0
 42
0.000000001
 43
0.00000001
 40
0.0
 40
0.0
 40
0.0
 40
0.0
 40
0.0624999999999998
 40
0.0624999999999998
 40
0.1249999999999995
 40
0.1249999999999995
 40
0.249999999999999
 40
0.249999999999999
 40
0.4999999999999984
 40
0.4999999999999984
 40
1.0
 40
1.0
 40
1.0
 40
1.0
 10
113.0128070613225
 20
152.4507507179614
 30
0.0
 10
113.0128070613225
 20
152.4507507179614
 30
0.0
 10
113.0106726356801
 20
152.458021764611
 30
0.0
 10
113.0046151656437
 20
152.4784980697156
 30
0.0
 10
113.0008480939662
 20
152.4911706779342
 30
0.0
 10
112.9884940575994
 20
152.5323763994028
 30
0.0
 10
112.9791192305379
 20
152.5632067523026
 30
0.0
 10
112.949882311531
 20
152.6575932428122
 30
0.0
 10
112.9286944592612
 20
152.7237778154018
 30
0.0
 10
112.8624707944981
 20
152.9230135955994
 30
0.0
 10
112.8143571266325
 20
153.0581479403146
 30
0.0
 10
112.7628070613225
 20
153.1923965369506
 30
0.0
  0
ARC
  5
218
330
1F
100
AcDbEntity
  8
0
  6
Continuous
 62
     7
370
    25
100
AcDbCircle
 10
113.2628070613
 20
152.450750718
 30
0.0
 40
0.2500000000000014
100
AcDbArc
 50
180.0
 51
210.4503140214
  0
LWPOLYLINE
  5
219
330
1F
100
AcDbEntity
  8
0
  6
Continuous
 62
     7
370
    25
100
AcDbPolyline
 90
        9
 70
   128
 43
0.0
 10
112.7628070725
 20
153.1923965268
 10
112.7241255207
 20
153.162689665
 10
112.6869303597
 20
153.1341246047
 10
112.652650704
 20
153.1077989094
 10
112.6226048408
 20
153.0847239957
 10
112.5979466786
 20
153.0657874138
 10
112.5796238383
 20
153.0517155953
 10
112.5683408653
 20
153.0430505701
 10
112.5645312903
 20
153.0401248202
  0
LWPOLYLINE
  5
21A
330
1F
100
AcDbEntity
  8
0
  6
Continuous
 62
     7
370
    25
100
AcDbPolyline
 90
        9
 70
   128
 43
0.0
 10
101.4610828323
 20
144.5129073874
 10
101.4572732573
 20
144.5099816375
 10
101.4459902843
 20
144.5013166123
 10
101.427667444
 20
144.4872447938
 10
101.4030092819
 20
144.4683082119
 10
101.3729634186
 20
144.4452332981
 10
101.3386837629
 20
144.4189076029
 10
101.301488602
 20
144.3903425426
 10
101.2628070501
 20
144.3606356807
  0
SPLINE
  5
21B
330
1F
100
AcDbEntity
  8
0
  6
Continuous
 62
     7
370
    25
100
AcDbSpline
210
0.0
220
0.0
230
1.0
 70
     8
 71
     3
 72
    16
 73
    12
 74
     0
 42
0.000000001
 43
0.00000001
 40
0.0
 40
0.0
 40
0.0
 40
0.0
 40
0.0625000000000002
 40
0.0625000000000002
 40
0.1250000000000005
 40
0.1250000000000005
 40
0.2500000000000009
 40
0.2500000000000009
 40
0.4999999999999998
 40
0.4999999999999998
 40
1.0
 40
1.0
 40
1.0
 40
1.0
 10
101.0128070613225
 20
145.1022814896119
 30
0.0
 10
101.0128070613225
 20
145.1022814896119
 30
0.0
 10
101.014941486965
 20
145.0950104429623
 30
0.0
 10
101.0209989570014
 20
145.0745341378577
 30
0.0
 10
101.0247660286789
 20
145.0618615296391
 30
0.0
 10
101.0371200650457
 20
145.0206558081705
 30
0.0
 10
101.0464948921071
 20
144.9898254552707
 30
0.0
 10
101.0757318111141
 20
144.8954389647611
 30
0.0
 10
101.0969196633838
 20
144.8292543921715
 30
0.0
 10
101.163143328147
 20
144.6300186119739
 30
0.0
 10
101.2112569960126
 20
144.4948842672587
 30
0.0
 10
101.2628070613225
 20
144.3606356706227
 30
0.0
  0
ARC
  5
21C
330
1F
100
AcDbEntity
  8
0
  6
Continuous
 62
     7
370
    25
100
AcDbCircle
 10
100.7628070613
 20
145.1022814896
 30
0.0
 40
0.2500000000000159
100
AcDbArc
 50
0.0
 51
30.4503140214
  0
ARC
  5
21D
330
1F
100
AcDbEntity
  8
0
  6
Continuous
 62
     7
370
    25
100
AcDbCircle
 10
107.0128070613
 20
148.7765161038
 30
0.0
 40
7.25000000000003
100
AcDbArc
 50
111.4033496394
 51
142.4764867979
  0
SPLINE
  5
21E
330
1F
100
AcDbEntity
  8
0
  6
Continuous
 62
     7
370
    25
100
AcDbSpline
210
0.0
220
0.0
230
1.0
 70
     8
 71
     3
 72
    12
 73
     8
 74
     0
 42
0.000000001
 43
0.00000001
 40
0.0
 40
0.0
 40
0.0
 40
0.0
 40
0.25
 40
0.25
 40
0.5
 40
0.5
 40
1.0
 40
1.0
 40
1.0
 40
1.0
 10
104.4437106619887
 20
155.3666842838192
 30
0.0
 10
104.4400646717599
 20
155.3805873937137
 30
0.0
 10
104.4355081388275
 20
155.3968576004279
 30
0.0
 10
104.4248895248435
 20
155.4307438418565
 30
0.0
 10
104.418827443792
 20
155.448359876571
 30
0.0
 10
104.398856184391
 20
155.4981441742564
 30
0.0
 10
104.3835053914218
 20
155.5265161037867
 30
0.0
 10
104.3670557502579
 20
155.5265161037867
 30
0.0
  0
SPLINE
  5
21F
330
1F
100
AcDbEntity
  8
0
  6
Continuous
 62
     7
370
    25
100
AcDbSpline
210
0.0
220
0.0
230
1.0
 70
     8
 71
     3
 72
    10
 73
     6
 74
     0
 42
0.000000001
 43
0.00000001
 40
0.0
 40
0.0
 40
0.0
 40
0.0
 40
0.5
 40
0.5
 40
1.0
 40
1.0
 40
1.0
 40
1.0
 10
104.4437106619887
 20
155.3666842838192
 30
0.0
 10
104.4510026424464
 20
155.3388780640303
 30
0.0
 10
104.4548998050712
 20
155.3192227701188
 30
0.0
 10
104.4584360090529
 20
155.2969894678166
 30
0.0
 10
104.4582885540878
 20
155.293757483097
 30
0.0
 10
104.4582885540878
 20
155.293757483097
 30
0.0
  0
SPLINE
  5
220
330
1F
100
AcDbEntity
  8
0
  6
Continuous
 62
     7
370
    25
100
AcDbSpline
210
0.0
220
0.0
230
1.0
 70
     8
 71
     3
 72
    15
 73
    11
 74
     0
 42
0.000000001
 43
0.00000001
 40
0.0
 40
0.0
 40
0.0
 40
0.0
 40
0.0425877399909108
 40
0.1028282325346858
 40
0.1864706729280343
 40
0.2956205441869044
 40
0.4311891005861843
 40
0.5936297641565587
 40
0.7831876993469675
 40
1.0
 40
1.0
 40
1.0
 40
1.0
 10
109.6585583723871
 20
155.5265161037867
 30
0.0
 10
109.6557390489066
 20
155.5258006021898
 30
0.0
 10
109.6489317834705
 20
155.5240730213275
 30
0.0
 10
109.6403915871296
 20
155.5141988422327
 30
0.0
 10
109.6310939045992
 20
155.5003051624103
 30
0.0
 10
109.6212861689722
 20
155.4808079045887
 30
0.0
 10
109.6109605229231
 20
155.4566030517394
 30
0.0
 10
109.6004938114711
 20
155.4282343950753
 30
0.0
 10
109.5901605762305
 20
155.3966952243317
 30
0.0
 10
109.5847762051887
 20
155.3771254317594
 30
0.0
 10
109.5819034606563
 20
155.3666842838192
 30
0.0
  0
ARC
  5
221
330
1F
100
AcDbEntity
  8
0
  6
Continuous
 62
     7
370
    25
100
AcDbCircle
 10
107.0128070613
 20
148.7765161038
 30
0.0
 40
7.25000000000003
100
AcDbArc
 50
37.5235132021
 51
68.5966503606
  0
SPLINE
  5
222
330
1F
100
AcDbEntity
  8
0
  6
Continuous
 62
     7
370
    25
100
AcDbSpline
210
0.0
220
0.0
230
1.0
 70
     8
 71
     3
 72
     8
 73
     4
 74
     0
 42
0.000000001
 43
0.00000001
 40
0.0
 40
0.0
 40
0.0
 40
0.0
 40
1.0
 40
1.0
 40
1.0
 40
1.0
 10
109.5819034606563
 20
155.3666842838192
 30
0.0
 10
109.5691426512258
 20
155.3219827201978
 30
0.0
 10
109.5633203383004
 20
155.2953273857938
 30
0.0
 10
109.5673255685573
 20
155.293757483097
 30
0.0
  0
SPLINE
  5
223
330
1F
100
AcDbEntity
  8
0
  6
Continuous
 62
     7
370
    25
100
AcDbSpline
210
0.0
220
0.0
230
1.0
 70
     8
 71
     3
 72
    10
 73
     6
 74
     0
 42
0.000000001
 43
0.00000001
 40
0.0
 40
0.0
 40
0.0
 40
0.0
 40
0.5
 40
0.5
 40
1.0
 40
1.0
 40
1.0
 40
1.0
 10
104.4437106619887
 20
142.1863479237541
 30
0.0
 10
104.4510026424463
 20
142.2141541435431
 30
0.0
 10
104.4548998050712
 20
142.2338094374546
 30
0.0
 10
104.4584360090529
 20
142.2560427397568
 30
0.0
 10
104.4582885540878
 20
142.2592747244763
 30
0.0
 10
104.4582885540878
 20
142.2592747244763
 30
0.0
  0
SPLINE
  5
224
330
1F
100
AcDbEntity
  8
0
  6
Continuous
 62
     7
370
    25
100
AcDbSpline
210
0.0
220
0.0
230
1.0
 70
     8
 71
     3
 72
    12
 73
     8
 74
     0
 42
0.000000001
 43
0.00000001
 40
0.0
 40
0.0
 40
0.0
 40
0.0
 40
0.25
 40
0.25
 40
0.5
 40
0.5
 40
1.0
 40
1.0
 40
1.0
 40
1.0
 10
104.4437106619887
 20
142.1863479237541
 30
0.0
 10
104.4400646717599
 20
142.1724448138596
 30
0.0
 10
104.4355081388275
 20
142.1561746071455
 30
0.0
 10
104.4248895248435
 20
142.1222883657168
 30
0.0
 10
104.418827443792
 20
142.1046723310023
 30
0.0
 10
104.398856184391
 20
142.054888033317
 30
0.0
 10
104.3835053914218
 20
142.0265161037867
 30
0.0
 10
104.3670557502579
 20
142.0265161037867
 30
0.0
  0
ARC
  5
225
330
1F
100
AcDbEntity
  8
0
  6
Continuous
 62
     7
370
    25
100
AcDbCircle
 10
107.0128070613
 20
148.7765161038
 30
0.0
 40
7.250000000000004
100
AcDbArc
 50
217.5235132021
 51
248.5966503606
  0
SPLINE
  5
226
330
1F
100
AcDbEntity
  8
0
  6
Continuous
 62
     7
370
    25
100
AcDbSpline
210
0.0
220
0.0
230
1.0
 70
     8
 71
     3
 72
     8
 73
     4
 74
     0
 42
0.000000001
 43
0.00000001
 40
0.0
 40
0.0
 40
0.0
 40
0.0
 40
1.0
 40
1.0
 40
1.0
 40
1.0
 10
109.5673255685573
 20
142.2592747244763
 30
0.0
 10
109.5633203383003
 20
142.2577048217795
 30
0.0
 10
109.5691426512258
 20
142.2310494873756
 30
0.0
 10
109.5819034606563
 20
142.1863479237541
 30
0.0
  0
ARC
  5
227
330
1F
100
AcDbEntity
  8
0
  6
Continuous
 62
     7
370
    25
100
AcDbCircle
 10
107.0128070613
 20
148.7765161038
 30
0.0
 40
7.250000000000004
100
AcDbArc
 50
291.4033496394
 51
322.4764867979
  0
SPLINE
  5
228
330
1F
100
AcDbEntity
  8
0
  6
Continuous
 62
     7
370
    25
100
AcDbSpline
210
0.0
220
0.0
230
1.0
 70
     8
 71
     3
 72
    14
 73
    10
 74
     0
 42
0.000000001
 43
0.00000001
 40
0.0
 40
0.0
 40
0.0
 40
0.0
 40
0.2455893235675696
 40
0.4556181963142487
 40
0.6303106213393677
 40
0.7701164303669036
 40
0.8759901151610805
 40
0.9502659312389182
 40
1.0
 40
1.0
 40
1.0
 40
1.0
 10
109.5819034606563
 20
142.1863479237541
 30
0.0
 10
109.5851950381296
 20
142.1744569832149
 30
0.0
 10
109.5913015844957
 20
142.1523968675623
 30
0.0
 10
109.6032245747549
 20
142.1168331692422
 30
0.0
 10
109.6151536572694
 20
142.086040860639
 30
0.0
 10
109.6266008646335
 20
142.0608012780661
 30
0.0
 10
109.6374863896804
 20
142.0428189851313
 30
0.0
 10
109.6471736514714
 20
142.0298968217154
 30
0.0
 10
109.6552995050647
 20
142.0274838316094
 30
0.0
 10
109.6585583723871
 20
142.0265161037867
 30
0.0
  0
SPLINE
  5
229
330
1F
100
AcDbEntity
  8
0
  6
Continuous
 62
     7
370
    25
100
AcDbSpline
210
0.0
220
0.0
230
1.0
 70
     8
 71
     3
 72
    10
 73
     6
 74
     0
 42
0.000000001
 43
0.00000001
 40
0.0
 40
0.0
 40
0.0
 40
0.0
 40
0.3124607360329113
 40
0.6224206375518186
 40
1.0
 40
1.0
 40
1.0
 40
1.0
 10
109.5819034570684
 20
155.3666840956037
 30
0.0
 10
109.3451030917249
 20
155.4295497967147
 30
0.0
 10
108.8733976344539
 20
155.5547780422296
 30
0.0
 10
108.1033807561999
 20
155.7196571365157
 30
0.0
 10
107.5642926717299
 20
155.7433389042148
 30
0.0
 10
107.2682389830095
 20
155.7563443385486
 30
0.0
  0
SPLINE
  5
22A
330
1F
100
AcDbEntity
  8
0
  6
Continuous
 62
     7
370
    25
100
AcDbSpline
210
0.0
220
0.0
230
1.0
 70
     8
 71
     3
 72
    10
 73
     6
 74
     0
 42
0.000000001
 43
0.00000001
 40
0.0
 40
0.0
 40
0.0
 40
0.0
 40
0.3124607360329113
 40
0.6224206375518186
 40
1.0
 40
1.0
 40
1.0
 40
1.0
 10
104.4437106655767
 20
142.1863481119697
 30
0.0
 10
104.6805110309202
 20
142.1234824108586
 30
0.0
 10
105.1522164881912
 20
141.9982541653438
 30
0.0
 10
105.9222333664452
 20
141.8333750710576
 30
0.0
 10
106.4613214509151
 20
141.8096933033586
 30
0.0
 10
106.7573751396356
 20
141.7966878690247
 30
0.0
  0
SPLINE
  5
22B
330
1F
100
AcDbEntity
  8
0
  6
Continuous
 62
     7
370
    25
100
AcDbSpline
210
0.0
220
0.0
230
1.0
 70
     8
 71
     3
 72
    10
 73
     6
 74
     0
 42
0.000000001
 43
0.00000001
 40
0.0
 40
0.0
 40
0.0
 40
0.0
 40
0.449274644036756
 40
0.8949534393587615
 40
1.0
 40
1.0
 40
1.0
 40
1.0
 10
109.5819034570684
 20
142.1863481119697
 30
0.0
 10
109.3449565157696
 20
142.1248416017611
 30
0.0
 10
108.8729590797344
 20
142.0023208595276
 30
0.0
 10
108.339052518606
 20
141.8725971752019
 30
0.0
 10
108.0393616118076
 20
141.8535932232723
 30
0.0
 10
107.9821979118367
 20
141.8499683678572
 30
0.0
  0
LINE
  5
22C
330
1F
100
AcDbEntity
  8
0
  6
Continuous
 62
     7
370
    25
100
AcDbLine
 10
107.5574992182
 20
141.8182745293
 30
0.0
 11
107.268238983
 21
141.796687869
 31
0.0
  0
SPLINE
  5
22D
330
1F
100
AcDbEntity
  8
0
  6
Continuous
 62
     7
370
    25
100
AcDbSpline
210
0.0
220
0.0
230
1.0
 70
     8
 71
     3
 72
    12
 73
     8
 74
     0
 42
0.000000001
 43
0.00000001
 40
0.0
 40
0.0
 40
0.0
 40
0.0
 40
0.25
 40
0.25
 40
0.5
 40
0.5
 40
1.0
 40
1.0
 40
1.0
 40
1.0
 10
104.3804216983256
 20
155.7032927990848
 30
0.0
 10
104.3821158431515
 20
155.6890154973304
 30
0.0
 10
104.3840420527076
 20
155.6715787199489
 30
0.0
 10
104.3869575139981
 20
155.6349551438023
 30
0.0
 10
104.3879467657325
 20
155.6157683450372
 30
0.0
 10
104.3874074532798
 20
155.5624363114719
 30
0.0
 10
104.382371821437
 20
155.5325194394019
 30
0.0
 10
104.3670557502579
 20
155.5265161037867
 30
0.0
  0
SPLINE
  5
22E
330
1F
100
AcDbEntity
  8
0
  6
Continuous
 62
     7
370
    25
100
AcDbSpline
210
0.0
220
0.0
230
1.0
 70
     8
 71
     3
 72
    12
 73
     8
 74
     0
 42
0.000000001
 43
0.00000001
 40
0.0
 40
0.0
 40
0.0
 40
0.0
 40
0.25
 40
0.25
 40
0.5
 40
0.5
 40
1.0
 40
1.0
 40
1.0
 40
1.0
 10
109.6451924243195
 20
155.7032927990848
 30
0.0
 10
109.6434982794936
 20
155.6890154973304
 30
0.0
 10
109.6415720699375
 20
155.6715787199489
 30
0.0
 10
109.638656608647
 20
155.6349551438023
 30
0.0
 10
109.6376673569126
 20
155.6157683450372
 30
0.0
 10
109.6382066693652
 20
155.5624363114719
 30
0.0
 10
109.643242301208
 20
155.5325194394019
 30
0.0
 10
109.6585583723871
 20
155.5265161037867
 30
0.0
  0
SPLINE
  5
22F
330
1F
100
AcDbEntity
  8
0
  6
Continuous
 62
     7
370
    25
100
AcDbSpline
210
0.0
220
0.0
230
1.0
 70
     8
 71
     3
 72
    12
 73
     8
 74
     0
 42
0.000000001
 43
0.00000001
 40
0.0
 40
0.0
 40
0.0
 40
0.0
 40
0.25
 40
0.25
 40
0.5
 40
0.5
 40
1.0
 40
1.0
 40
1.0
 40
1.0
 10
104.3804216983256
 20
141.8497394084885
 30
0.0
 10
104.3821158431515
 20
141.864016710243
 30
0.0
 10
104.3840420527076
 20
141.8814534876244
 30
0.0
 10
104.3869575139981
 20
141.918077063771
 30
0.0
 10
104.3879467657325
 20
141.9372638625361
 30
0.0
 10
104.3874074532798
 20
141.9905958961014
 30
0.0
 10
104.382371821437
 20
142.0205127681715
 30
0.0
 10
104.3670557502579
 20
142.0265161037867
 30
0.0
  0
SPLINE
  5
230
330
1F
100
AcDbEntity
  8
0
  6
Continuous
 62
     7
370
    25
100
AcDbSpline
210
0.0
220
0.0
230
1.0
 70
     8
 71
     3
 72
    12
 73
     8
 74
     0
 42
0.000000001
 43
0.00000001
 40
0.0
 40
0.0
 40
0.0
 40
0.0
 40
0.25
 40
0.25
 40
0.5
 40
0.5
 40
1.0
 40
1.0
 40
1.0
 40
1.0
 10
109.6451924243195
 20
141.8497394084885
 30
0.0
 10
109.6434982794936
 20
141.864016710243
 30
0.0
 10
109.6415720699375
 20
141.8814534876244
 30
0.0
 10
109.638656608647
 20
141.918077063771
 30
0.0
 10
109.6376673569126
 20
141.9372638625361
 30
0.0
 10
109.6382066693652
 20
141.9905958961014
 30
0.0
 10
109.643242301208
 20
142.0205127681715
 30
0.0
 10
109.6585583723871
 20
142.0265161037867
 30
0.0
  0
LINE
  5
231
330
1F
100
AcDbEntity
  8
0
  6
Continuous
 62
     7
370
    25
100
AcDbLine
 10
101.2628070501
 20
155.7765163199
 30
0.0
 11
104.3670558328
 21
155.7765163199
 31
0.0
  0
SPLINE
  5
232
330
1F
100
AcDbEntity
  8
0
  6
Continuous
 62
     7
370
    25
100
AcDbSpline
210
0.0
220
0.0
230
1.0
 70
     8
 71
     3
 72
    10
 73
     6
 74
     0
 42
0.000000001
 43
0.00000001
 40
0.0
 40
0.0
 40
0.0
 40
0.0
 40
0.5
 40
0.5
 40
1.0
 40
1.0
 40
1.0
 40
1.0
 10
104.3804216983256
 20
155.7032927990848
 30
0.0
 10
104.3770334086738
 20
155.7318474025937
 30
0.0
 10
104.3736919216569
 20
155.7501532287692
 30
0.0
 10
104.3687030924489
 20
155.7724875793656
 30
0.0
 10
104.3670557502579
 20
155.7765161037867
 30
0.0
 10
104.3670557502579
 20
155.7765161037867
 30
0.0
  0
LINE
  5
233
330
1F
100
AcDbEntity
  8
0
  6
Continuous
 62
     7
370
    25
100
AcDbLine
 10
104.3670558328
 20
155.5265162789
 30
0.0
 11
101.2628070501
 21
155.5265162789
 31
0.0
  0
LINE
  5
234
330
1F
100
AcDbEntity
  8
0
  6
Continuous
 62
     7
370
    25
100
AcDbLine
 10
101.2628070501
 20
155.7765163199
 30
0.0
 11
101.2628070501
 21
155.5265162789
 31
0.0
  0
LINE
  5
235
330
1F
100
AcDbEntity
  8
0
  6
Continuous
 62
     7
370
    25
100
AcDbLine
 10
112.7628070725
 20
155.5265162789
 30
0.0
 11
109.6585582899
 21
155.5265162789
 31
0.0
  0
SPLINE
  5
236
330
1F
100
AcDbEntity
  8
0
  6
Continuous
 62
     7
370
    25
100
AcDbSpline
210
0.0
220
0.0
230
1.0
 70
     8
 71
     3
 72
    10
 73
     6
 74
     0
 42
0.000000001
 43
0.00000001
 40
0.0
 40
0.0
 40
0.0
 40
0.0
 40
0.5
 40
0.5
 40
1.0
 40
1.0
 40
1.0
 40
1.0
 10
109.6451924243195
 20
155.7032927990848
 30
0.0
 10
109.6485807139713
 20
155.7318474025937
 30
0.0
 10
109.6519222009882
 20
155.7501532287692
 30
0.0
 10
109.6569110301961
 20
155.7724875793656
 30
0.0
 10
109.6585583723871
 20
155.7765161037867
 30
0.0
 10
109.6585583723871
 20
155.7765161037867
 30
0.0
  0
LINE
  5
237
330
1F
100
AcDbEntity
  8
0
  6
Continuous
 62
     7
370
    25
100
AcDbLine
 10
109.6585582899
 20
155.7765163199
 30
0.0
 11
112.7628070725
 21
155.7765163199
 31
0.0
  0
LINE
  5
238
330
1F
100
AcDbEntity
  8
0
  6
Continuous
 62
     7
370
    25
100
AcDbLine
 10
112.7628070725
 20
155.7765163199
 30
0.0
 11
112.7628070725
 21
155.5265162789
 31
0.0
  0
LINE
  5
239
330
1F
100
AcDbEntity
  8
0
  6
Continuous
 62
     7
370
    25
100
AcDbLine
 10
101.2628070501
 20
155.5265162789
 30
0.0
 11
101.2628070501
 21
153.1923965268
 31
0.0
  0
LINE
  5
23A
330
1F
100
AcDbEntity
  8
0
  6
Continuous
 62
     7
370
    25
100
AcDbLine
 10
112.7628070725
 20
153.1923965268
 30
0.0
 11
112.7628070725
 21
155.5265162789
 31
0.0
  0
LINE
  5
23B
330
1F
100
AcDbEntity
  8
0
  6
Continuous
 62
     7
370
    25
100
AcDbLine
 10
101.2628070501
 20
144.3606356807
 30
0.0
 11
101.2628070501
 21
142.0265159287
 31
0.0
  0
LINE
  5
23C
330
1F
100
AcDbEntity
  8
0
  6
Continuous
 62
     7
370
    25
100
AcDbLine
 10
101.2628070501
 20
142.0265159287
 30
0.0
 11
104.3670558328
 21
142.0265159287
 31
0.0
  0
LINE
  5
23D
330
1F
100
AcDbEntity
  8
0
  6
Continuous
 62
     7
370
    25
100
AcDbLine
 10
112.7628070725
 20
142.0265159287
 30
0.0
 11
112.7628070725
 21
144.3606356807
 31
0.0
  0
LINE
  5
23E
330
1F
100
AcDbEntity
  8
0
  6
Continuous
 62
     7
370
    25
100
AcDbLine
 10
109.6585582899
 20
142.0265159287
 30
0.0
 11
112.7628070725
 21
142.0265159287
 31
0.0
  0
SPLINE
  5
23F
330
1F
100
AcDbEntity
  8
0
  6
Continuous
 62
     7
370
    25
100
AcDbSpline
210
0.0
220
0.0
230
1.0
 70
     8
 71
     3
 72
    10
 73
     6
 74
     0
 42
0.000000001
 43
0.00000001
 40
0.0
 40
0.0
 40
0.0
 40
0.0
 40
0.5
 40
0.5
 40
1.0
 40
1.0
 40
1.0
 40
1.0
 10
104.3804216983256
 20
141.8497394084885
 30
0.0
 10
104.3770334086738
 20
141.8211848049796
 30
0.0
 10
104.3736919216569
 20
141.8028789788041
 30
0.0
 10
104.3687030924489
 20
141.7805446282077
 30
0.0
 10
104.3670557502579
 20
141.7765161037867
 30
0.0
 10
104.3670557502579
 20
141.7765161037867
 30
0.0
  0
LINE
  5
240
330
1F
100
AcDbEntity
  8
0
  6
Continuous
 62
     7
370
    25
100
AcDbLine
 10
104.3670558328
 20
141.7765158877
 30
0.0
 11
101.2628070501
 21
141.7765158877
 31
0.0
  0
LINE
  5
241
330
1F
100
AcDbEntity
  8
0
  6
Continuous
 62
     7
370
    25
100
AcDbLine
 10
101.2628070501
 20
142.0265159287
 30
0.0
 11
101.2628070501
 21
141.7765158877
 31
0.0
  0
LINE
  5
242
330
1F
100
AcDbEntity
  8
0
  6
Continuous
 62
     7
370
    25
100
AcDbLine
 10
112.7628070725
 20
142.0265159287
 30
0.0
 11
112.7628070725
 21
141.7765158877
 31
0.0
  0
LINE
  5
243
330
1F
100
AcDbEntity
  8
0
  6
Continuous
 62
     7
370
    25
100
AcDbLine
 10
112.7628070725
 20
141.7765158877
 30
0.0
 11
109.6585582899
 21
141.7765158877
 31
0.0
  0
SPLINE
  5
244
330
1F
100
AcDbEntity
  8
0
  6
Continuous
 62
     7
370
    25
100
AcDbSpline
210
0.0
220
0.0
230
1.0
 70
     8
 71
     3
 72
    10
 73
     6
 74
     0
 42
0.000000001
 43
0.00000001
 40
0.0
 40
0.0
 40
0.0
 40
0.0
 40
0.5
 40
0.5
 40
1.0
 40
1.0
 40
1.0
 40
1.0
 10
109.6451924243195
 20
141.8497394084885
 30
0.0
 10
109.6485807139713
 20
141.8211848049796
 30
0.0
 10
109.6519222009882
 20
141.8028789788041
 30
0.0
 10
109.6569110301961
 20
141.7805446282077
 30
0.0
 10
109.6585583723871
 20
141.7765161037867
 30
0.0
 10
109.6585583723871
 20
141.7765161037867
 30
0.0
  0
LINE
  5
245
330
1F
100
AcDbEntity
  8
0
  6
Continuous
 62
     7
370
    25
100
AcDbLine
 10
109.6585582899
 20
155.7765163199
 30
0.0
 11
107.2735552924
 21
155.7765163199
 31
0.0
  0
LINE
  5
246
330
1F
100
AcDbEntity
  8
0
  6
Continuous
 62
     7
370
    25
100
AcDbLine
 10
106.7520588302
 20
155.7765163199
 30
0.0
 11
104.3670558328
 21
155.7765163199
 31
0.0
  0
LINE
  5
247
330
1F
100
AcDbEntity
  8
0
  6
Continuous
 62
     7
370
    25
100
AcDbLine
 10
108.095555236
 20
141.7765158877
 30
0.0
 11
109.6585582899
 21
141.7765158877
 31
0.0
  0
LINE
  5
248
330
1F
100
AcDbEntity
  8
0
  6
Continuous
 62
     7
370
    25
100
AcDbLine
 10
104.3670558328
 20
141.7765158877
 30
0.0
 11
105.9200077042
 21
141.7765158877
 31
0.0
  0
LINE
  5
249
330
1F
100
AcDbEntity
  8
0
  6
Continuous
 62
     7
370
    25
100
AcDbLine
 10
101.0128070092
 20
155.5265162789
 30
0.0
 11
101.2628070501
 21
155.5265162789
 31
0.0
  0
ARC
  5
24A
330
1F
100
AcDbEntity
  8
0
  6
Continuous
 62
     7
370
    25
100
AcDbCircle
 10
101.2628070613
 20
155.5265161038
 30
0.0
 40
0.25
100
AcDbArc
 50
90.0
 51
180.0
  0
LINE
  5
24B
330
1F
100
AcDbEntity
  8
0
  6
Continuous
 62
     7
370
    25
100
AcDbLine
 10
113.0128071135
 20
155.5265162789
 30
0.0
 11
112.7628070725
 21
155.5265162789
 31
0.0
  0
ARC
  5
24C
330
1F
100
AcDbEntity
  8
0
  6
Continuous
 62
     7
370
    25
100
AcDbCircle
 10
112.7628070613
 20
155.5265161038
 30
0.0
 40
0.25
100
AcDbArc
 50
0.0
 51
90.0
  0
LINE
  5
24D
330
1F
100
AcDbEntity
  8
0
  6
Continuous
 62
     7
370
    25
100
AcDbLine
 10
113.0128071135
 20
155.5265162789
 30
0.0
 11
113.0128071135
 21
152.450750833
 31
0.0
  0
LINE
  5
24E
330
1F
100
AcDbEntity
  8
0
  6
Continuous
 62
     7
370
    25
100
AcDbLine
 10
101.0128070092
 20
152.450750833
 30
0.0
 11
101.0128070092
 21
155.5265162789
 31
0.0
  0
LINE
  5
24F
330
1F
100
AcDbEntity
  8
0
  6
Continuous
 62
     7
370
    25
100
AcDbLine
 10
113.0128071135
 20
145.1022813745
 30
0.0
 11
113.0128071135
 21
142.0265159287
 31
0.0
  0
LINE
  5
250
330
1F
100
AcDbEntity
  8
0
  6
Continuous
 62
     7
370
    25
100
AcDbLine
 10
112.7628070725
 20
142.0265159287
 30
0.0
 11
113.0128071135
 21
142.0265159287
 31
0.0
  0
LINE
  5
251
330
1F
100
AcDbEntity
  8
0
  6
Continuous
 62
     7
370
    25
100
AcDbLine
 10
101.2628070501
 20
142.0265159287
 30
0.0
 11
101.0128070092
 21
142.0265159287
 31
0.0
  0
LINE
  5
252
330
1F
100
AcDbEntity
  8
0
  6
Continuous
 62
     7
370
    25
100
AcDbLine
 10
101.0128070092
 20
142.0265159287
 30
0.0
 11
101.0128070092
 21
145.1022813745
 31
0.0
  0
ARC
  5
253
330
1F
100
AcDbEntity
  8
0
  6
Continuous
 62
     7
370
    25
100
AcDbCircle
 10
112.7628070613
 20
142.0265161038
 30
0.0
 40
0.25
100
AcDbArc
 50
270.0
 51
0.0
  0
ARC
  5
254
330
1F
100
AcDbEntity
  8
0
  6
Continuous
 62
     7
370
    25
100
AcDbCircle
 10
101.2628070613
 20
142.0265161038
 30
0.0
 40
0.25
100
AcDbArc
 50
180.0
 51
270.0
  0
SPLINE
  5
255
330
1F
100
AcDbEntity
  8
0
  6
Continuous
 62
     7
370
    25
100
AcDbSpline
210
0.0
220
0.0
230
1.0
 70
     8
 71
     3
 72
    10
 73
     6
 74
     0
 42
0.000000001
 43
0.00000001
 40
0.0
 40
0.0
 40
0.0
 40
0.0
 40
0.5
 40
0.5
 40
1.0
 40
1.0
 40
1.0
 40
1.0
 10
113.0128070613225
 20
152.4507507179614
 30
0.0
 10
113.0128070613225
 20
152.4507507179614
 30
0.0
 10
113.049976611731
 20
152.4038923650592
 30
0.0
 10
113.1601243254991
 20
152.2570036089778
 30
0.0
 10
113.231667571949
 20
152.1582871557721
 30
0.0
 10
113.305700280136
 20
152.0484988669532
 30
0.0
  0
SPLINE
  5
256
330
1F
100
AcDbEntity
  8
0
  6
Continuous
 62
     7
370
    25
100
AcDbSpline
210
0.0
220
0.0
230
1.0
 70
     8
 71
     3
 72
    10
 73
     6
 74
     0
 42
0.000000001
 43
0.00000001
 40
0.0
 40
0.0
 40
0.0
 40
0.0
 40
0.5
 40
0.5
 40
1.0
 40
1.0
 40
1.0
 40
1.0
 10
113.3810935500198
 20
151.6825317950511
 30
0.0
 10
113.3562021795079
 20
151.737079118726
 30
0.0
 10
113.338255482337
 20
151.7958410491901
 30
0.0
 10
113.3127385442705
 20
151.9196622089133
 30
0.0
 10
113.3057002801368
 20
151.9844899515084
 30
0.0
 10
113.305700280136
 20
152.0484988669522
 30
0.0
  0
SPLINE
  5
257
330
1F
100
AcDbEntity
  8
0
  6
Continuous
 62
     7
370
    25
100
AcDbSpline
210
0.0
220
0.0
230
1.0
 70
     8
 71
     3
 72
    10
 73
     6
 74
     0
 42
0.000000001
 43
0.00000001
 40
0.0
 40
0.0
 40
0.0
 40
0.0
 40
0.5
 40
0.5
 40
1.0
 40
1.0
 40
1.0
 40
1.0
 10
113.3810935500198
 20
145.8705004125221
 30
0.0
 10
113.356202179508
 20
145.8159530888473
 30
0.0
 10
113.3382554823371
 20
145.7571911583835
 30
0.0
 10
113.3127385442706
 20
145.6333699986606
 30
0.0
 10
113.3057002801363
 20
145.5685422560658
 30
0.0
 10
113.3057002801357
 20
145.504533340622
 30
0.0
  0
SPLINE
  5
258
330
1F
100
AcDbEntity
  8
0
  6
Continuous
 62
     7
370
    25
100
AcDbSpline
210
0.0
220
0.0
230
1.0
 70
     8
 71
     3
 72
    10
 73
     6
 74
     0
 42
0.000000001
 43
0.00000001
 40
0.0
 40
0.0
 40
0.0
 40
0.0
 40
0.5
 40
0.5
 40
1.0
 40
1.0
 40
1.0
 40
1.0
 10
113.305700280136
 20
145.5045333406202
 30
0.0
 10
113.231667571949
 20
145.3947450518013
 30
0.0
 10
113.1601243254991
 20
145.2960285985956
 30
0.0
 10
113.049976611731
 20
145.1491398425142
 30
0.0
 10
113.0128070613225
 20
145.1022814896119
 30
0.0
 10
113.0128070613225
 20
145.1022814896119
 30
0.0
  0
LINE
  5
259
330
1F
100
AcDbEntity
  8
0
  6
Continuous
 62
     7
370
    25
100
AcDbLine
 10
114.0128072774
 20
155.5265162789
 30
0.0
 11
113.0128071135
 21
155.5265162789
 31
0.0
  0
LINE
  5
25A
330
1F
100
AcDbEntity
  8
0
  6
Continuous
 62
     7
370
    25
100
AcDbLine
 10
114.0128072774
 20
155.7765163199
 30
0.0
 11
114.0128072774
 21
155.5265162789
 31
0.0
  0
LINE
  5
25B
330
1F
100
AcDbEntity
  8
0
  6
Continuous
 62
     7
370
    25
100
AcDbLine
 10
112.7628070725
 20
155.7765163199
 30
0.0
 11
114.0128072774
 21
155.7765163199
 31
0.0
  0
LINE
  5
25C
330
1F
100
AcDbEntity
  8
0
  6
Continuous
 62
     7
370
    25
100
AcDbLine
 10
114.0128072774
 20
152.450750833
 30
0.0
 11
114.0128072774
 21
155.5265162789
 31
0.0
  0
SPLINE
  5
25D
330
1F
100
AcDbEntity
  8
0
  6
Continuous
 62
     7
370
    25
100
AcDbSpline
210
0.0
220
0.0
230
1.0
 70
     8
 71
     3
 72
    10
 73
     6
 74
     0
 42
0.000000001
 43
0.00000001
 40
0.0
 40
0.0
 40
0.0
 40
0.0
 40
0.5
 40
0.5
 40
1.0
 40
1.0
 40
1.0
 40
1.0
 10
113.305700280136
 20
152.0484988669532
 30
0.0
 10
113.3797329883229
 20
152.1582871557721
 30
0.0
 10
113.4741346180412
 20
152.2570036089778
 30
0.0
 10
113.7124849434866
 20
152.4038923650592
 30
0.0
 10
113.8603121796477
 20
152.4507507179614
 30
0.0
 10
114.0128070613225
 20
152.4507507179614
 30
0.0
  0
SPLINE
  5
25E
330
1F
100
AcDbEntity
  8
0
  6
Continuous
 62
     7
370
    25
100
AcDbSpline
210
0.0
220
0.0
230
1.0
 70
    24
 71
     3
 72
    14
 73
    10
 74
     0
 42
0.000000001
 43
0.00000001
 40
0.0
 40
0.0
 40
0.0
 40
0.0
 40
0.25
 40
0.25
 40
0.5
 40
0.5
 40
0.75
 40
0.75
 40
1.0
 40
1.0
 40
1.0
 40
1.0
 10
114.7628070613225
 20
141.7765161037867
 30
0.0
 10
114.7628070613225
 20
141.7765161037867
 30
0.0
 10
114.7628070613225
 20
141.786440793712
 30
0.0
 10
114.7628070613225
 20
141.8262354963748
 30
0.0
 10
114.7628070613225
 20
141.8561058415964
 30
0.0
 10
114.7628070613225
 20
141.9360753815284
 30
0.0
 10
114.7628070613225
 20
141.9861752619642
 30
0.0
 10
114.7628070613225
 20
142.1070598109521
 30
0.0
 10
114.7628070613225
 20
142.1778455595407
 30
0.0
 10
114.7628070613225
 20
142.2592747244763
 30
0.0
  0
LINE
  5
25F
330
1F
100
AcDbEntity
  8
0
  6
Continuous
 62
     7
370
    25
100
AcDbLine
 10
114.7628069347
 20
144.5129073874
 30
0.0
 11
114.7628069347
 21
142.2592748605
 31
0.0
  0
SPLINE
  5
260
330
1F
100
AcDbEntity
  8
0
  6
Continuous
 62
     7
370
    25
100
AcDbSpline
210
0.0
220
0.0
230
1.0
 70
     8
 71
     3
 72
    14
 73
    10
 74
     0
 42
0.000000001
 43
0.00000001
 40
0.0
 40
0.0
 40
0.0
 40
0.0
 40
0.25
 40
0.25
 40
0.5
 40
0.5
 40
0.75
 40
0.75
 40
1.0
 40
1.0
 40
1.0
 40
1.0
 10
114.7628070613225
 20
144.5129074096974
 30
0.0
 10
114.7628070613225
 20
144.5848869323334
 30
0.0
 10
114.7532584970864
 20
144.6567652819984
 30
0.0
 10
114.7164683789616
 20
144.8003010896964
 30
0.0
 10
114.6889173316734
 20
144.8724612300024
 30
0.0
 10
114.6139142441032
 20
145.0090076500262
 30
0.0
 10
114.5657338639113
 20
145.0757475385638
 30
0.0
 10
114.4387704861344
 20
145.185346141331
 30
0.0
 10
114.3547480060457
 20
145.2289792349283
 30
0.0
 10
114.2628070613225
 20
145.2289792349283
 30
0.0
  0
LINE
  5
261
330
1F
100
AcDbEntity
  8
0
  6
Continuous
 62
     7
370
    25
100
AcDbLine
 10
114.0128072774
 20
145.2289791961
 30
0.0
 11
114.2628068527
 21
145.2289791961
 31
0.0
  0
SPLINE
  5
262
330
1F
100
AcDbEntity
  8
0
  6
Continuous
 62
     7
370
    25
100
AcDbSpline
210
0.0
220
0.0
230
1.0
 70
     8
 71
     3
 72
    12
 73
     8
 74
     0
 42
0.000000001
 43
0.00000001
 40
0.0
 40
0.0
 40
0.0
 40
0.0
 40
0.4999999999999991
 40
0.4999999999999991
 40
0.7499999999999996
 40
0.7499999999999996
 40
1.0
 40
1.0
 40
1.0
 40
1.0
 10
113.3810935500198
 20
145.8705004125222
 30
0.0
 10
113.4266174229218
 20
145.719989680877
 30
0.0
 10
113.4889861958505
 20
145.5764313832872
 30
0.0
 10
113.6392997640075
 20
145.3922532022354
 30
0.0
 10
113.6985358969308
 20
145.337263328735
 30
0.0
 10
113.842516085669
 20
145.254465691458
 30
0.0
 10
113.9260012842059
 20
145.2289792349283
 30
0.0
 10
114.0128070613225
 20
145.2289792349283
 30
0.0
  0
SPLINE
  5
263
330
1F
100
AcDbEntity
  8
0
  6
Continuous
 62
     7
370
    25
100
AcDbSpline
210
0.0
220
0.0
230
1.0
 70
     8
 71
     3
 72
    12
 73
     8
 74
     0
 42
0.000000001
 43
0.00000001
 40
0.0
 40
0.0
 40
0.0
 40
0.0
 40
0.2500000000000002
 40
0.2500000000000002
 40
0.5000000000000004
 40
0.5000000000000004
 40
1.0
 40
1.0
 40
1.0
 40
1.0
 10
114.0128070613225
 20
152.3240529726451
 30
0.0
 10
113.9260012842059
 20
152.3240529726451
 30
0.0
 10
113.842516085669
 20
152.2985665161153
 30
0.0
 10
113.6985358969308
 20
152.2157688788383
 30
0.0
 10
113.6392997640075
 20
152.160779005338
 30
0.0
 10
113.4889861958505
 20
151.9766008242861
 30
0.0
 10
113.4266174229217
 20
151.8330425266961
 30
0.0
 10
113.3810935500198
 20
151.6825317950509
 30
0.0
  0
LINE
  5
264
330
1F
100
AcDbEntity
  8
0
  6
Continuous
 62
     7
370
    25
100
AcDbLine
 10
114.2628068527
 20
152.3240530115
 30
0.0
 11
114.0128072774
 21
152.3240530115
 31
0.0
  0
SPLINE
  5
265
330
1F
100
AcDbEntity
  8
0
  6
Continuous
 62
     7
370
    25
100
AcDbSpline
210
0.0
220
0.0
230
1.0
 70
     8
 71
     3
 72
    14
 73
    10
 74
     0
 42
0.000000001
 43
0.00000001
 40
0.0
 40
0.0
 40
0.0
 40
0.0
 40
0.25
 40
0.25
 40
0.5
 40
0.5
 40
0.75
 40
0.75
 40
1.0
 40
1.0
 40
1.0
 40
1.0
 10
114.2628070613225
 20
152.3240529726451
 30
0.0
 10
114.3546094559355
 20
152.3240529726451
 30
0.0
 10
114.4387733948509
 20
152.367669286767
 30
0.0
 10
114.5658690754223
 20
152.4774206989933
 30
0.0
 10
114.6139915446734
 20
152.5440718129926
 30
0.0
 10
114.6893093244522
 20
152.6813786752885
 30
0.0
 10
114.7166855375455
 20
152.7534457511075
 30
0.0
 10
114.7532473881676
 20
152.8963569391821
 30
0.0
 10
114.7628070613225
 20
152.9680949187164
 30
0.0
 10
114.7628070613225
 20
153.040124797876
 30
0.0
  0
LINE
  5
266
330
1F
100
AcDbEntity
  8
0
  6
Continuous
 62
     7
370
    25
100
AcDbLine
 10
114.7628069347
 20
155.2937573471
 30
0.0
 11
114.7628069347
 21
153.0401248202
 31
0.0
  0
SPLINE
  5
267
330
1F
100
AcDbEntity
  8
0
  6
Continuous
 62
     7
370
    25
100
AcDbSpline
210
0.0
220
0.0
230
1.0
 70
    24
 71
     3
 72
    14
 73
    10
 74
     0
 42
0.000000001
 43
0.00000001
 40
0.0
 40
0.0
 40
0.0
 40
0.0
 40
0.25
 40
0.25
 40
0.5
 40
0.5
 40
0.75
 40
0.75
 40
1.0
 40
1.0
 40
1.0
 40
1.0
 10
114.7628070613225
 20
155.7765161037867
 30
0.0
 10
114.7628070613225
 20
155.7765161037867
 30
0.0
 10
114.7628070613225
 20
155.7665914138613
 30
0.0
 10
114.7628070613225
 20
155.7267967111986
 30
0.0
 10
114.7628070613225
 20
155.6969263659769
 30
0.0
 10
114.7628070613225
 20
155.616956826045
 30
0.0
 10
114.7628070613225
 20
155.5668569456091
 30
0.0
 10
114.7628070613225
 20
155.4459723966212
 30
0.0
 10
114.7628070613225
 20
155.3751866480326
 30
0.0
 10
114.7628070613225
 20
155.293757483097
 30
0.0
  0
LINE
  5
268
330
1F
100
AcDbEntity
  8
0
  6
Continuous
 62
     7
370
    25
100
AcDbLine
 10
113.0128071135
 20
142.0265159287
 30
0.0
 11
114.0128072774
 21
142.0265159287
 31
0.0
  0
SPLINE
  5
269
330
1F
100
AcDbEntity
  8
0
  6
Continuous
 62
     7
370
    25
100
AcDbSpline
210
0.0
220
0.0
230
1.0
 70
     8
 71
     3
 72
    10
 73
     6
 74
     0
 42
0.000000001
 43
0.00000001
 40
0.0
 40
0.0
 40
0.0
 40
0.0
 40
0.5
 40
0.5
 40
1.0
 40
1.0
 40
1.0
 40
1.0
 10
114.0128070613225
 20
145.1022814896119
 30
0.0
 10
113.8603121796477
 20
145.1022814896119
 30
0.0
 10
113.7124849434866
 20
145.1491398425142
 30
0.0
 10
113.4741346180412
 20
145.2960285985956
 30
0.0
 10
113.3797329883229
 20
145.3947450518013
 30
0.0
 10
113.305700280136
 20
145.5045333406202
 30
0.0
  0
LINE
  5
26A
330
1F
100
AcDbEntity
  8
0
  6
Continuous
 62
     7
370
    25
100
AcDbLine
 10
114.0128072774
 20
142.0265159287
 30
0.0
 11
114.0128072774
 21
145.1022813745
 31
0.0
  0
LINE
  5
26B
330
1F
100
AcDbEntity
  8
0
  6
Continuous
 62
     7
370
    25
100
AcDbLine
 10
114.0128072774
 20
142.0265159287
 30
0.0
 11
114.0128072774
 21
141.7765158877
 31
0.0
  0
LINE
  5
26C
330
1F
100
AcDbEntity
  8
0
  6
Continuous
 62
     7
370
    25
100
AcDbLine
 10
114.0128072774
 20
141.7765158877
 30
0.0
 11
112.7628070725
 21
141.7765158877
 31
0.0
  0
LINE
  5
26D
330
1F
100
AcDbEntity
  8
0
  6
Continuous
 62
     7
370
    25
100
AcDbLine
 10
114.0128072774
 20
152.3240530115
 30
0.0
 11
114.0128072774
 21
152.450750833
 31
0.0
  0
LINE
  5
26E
330
1F
100
AcDbEntity
  8
0
  6
Continuous
 62
     7
370
    25
100
AcDbLine
 10
114.0128072774
 20
145.1022813745
 30
0.0
 11
114.0128072774
 21
145.2289791961
 31
0.0
  0
LINE
  5
26F
330
1F
100
AcDbEntity
  8
0
  6
Continuous
 62
     7
370
    25
100
AcDbLine
 10
114.2628068527
 20
152.3240530115
 30
0.0
 11
114.2628068527
 21
152.450750833
 31
0.0
  0
SPLINE
  5
270
330
1F
100
AcDbEntity
  8
0
  6
Continuous
 62
     7
370
    25
100
AcDbSpline
210
0.0
220
0.0
230
1.0
 70
     8
 71
     3
 72
    16
 73
    12
 74
     0
 42
0.000000001
 43
0.00000001
 40
0.0
 40
0.0
 40
0.0
 40
0.0
 40
0.499999999999999
 40
0.499999999999999
 40
0.7499999999999998
 40
0.7499999999999998
 40
0.8749999999999996
 40
0.8749999999999996
 40
0.9374999999999998
 40
0.9374999999999998
 40
1.0
 40
1.0
 40
1.0
 40
1.0
 10
114.5128070613225
 20
153.1923965369506
 30
0.0
 10
114.5128070613225
 20
153.0581183780239
 30
0.0
 10
114.4984515251586
 20
152.9235381967176
 30
0.0
 10
114.4518013679475
 20
152.7238376726931
 30
0.0
 10
114.4322117786869
 20
152.6575868431384
 30
0.0
 10
114.3893554517391
 20
152.5632556613664
 30
0.0
 10
114.3727985166841
 20
152.5323168285732
 30
0.0
 10
114.3401620687729
 20
152.4912559349877
 30
0.0
 10
114.3280226901111
 20
152.4784857492841
 30
0.0
 10
114.2985743440966
 20
152.4579576673662
 30
0.0
 10
114.2811290104322
 20
152.4507507179614
 30
0.0
 10
114.2628070613225
 20
152.4507507179614
 30
0.0
  0
LWPOLYLINE
  5
271
330
1F
100
AcDbEntity
  8
0
  6
Continuous
 62
     7
370
    25
100
AcDbPolyline
 90
        9
 70
   128
 43
0.0
 10
114.7628069347
 20
153.0401248202
 10
114.7140345028
 20
153.0430505701
 10
114.6671363575
 20
153.0517155953
 10
114.6239146082
 20
153.0657874138
 10
114.5860302685
 20
153.0847239957
 10
114.5549394613
 20
153.1077989094
 10
114.5318370735
 20
153.1341246047
 10
114.5176106555
 20
153.162689665
 10
114.5128068937
 20
153.1923965268
  0
SPLINE
  5
272
330
1F
100
AcDbEntity
  8
0
  6
Continuous
 62
     7
370
    25
100
AcDbSpline
210
0.0
220
0.0
230
1.0
 70
     8
 71
     3
 72
    16
 73
    12
 74
     0
 42
0.000000001
 43
0.00000001
 40
0.0
 40
0.0
 40
0.0
 40
0.0
 40
0.0625000000000002
 40
0.0625000000000002
 40
0.1250000000000003
 40
0.1250000000000003
 40
0.2500000000000007
 40
0.2500000000000007
 40
0.5000000000000006
 40
0.5000000000000006
 40
1.0
 40
1.0
 40
1.0
 40
1.0
 10
114.2628070613225
 20
145.1022814896119
 30
0.0
 10
114.2812122068684
 20
145.1022814896119
 30
0.0
 10
114.2986826534766
 20
145.0950104429623
 30
0.0
 10
114.328023943712
 20
145.0745341378577
 30
0.0
 10
114.3400902893274
 20
145.0618615296391
 30
0.0
 10
114.3728538782825
 20
145.0206558081705
 30
0.0
 10
114.3893313298351
 20
144.9898254552707
 30
0.0
 10
114.4322184867108
 20
144.8954389647611
 30
0.0
 10
114.4517770519979
 20
144.8292543921715
 30
0.0
 10
114.4983495945481
 20
144.6300186119739
 30
0.0
 10
114.5128070613225
 20
144.4948842672587
 30
0.0
 10
114.5128070613225
 20
144.3606356706227
 30
0.0
  0
LINE
  5
273
330
1F
100
AcDbEntity
  8
0
  6
Continuous
 62
     7
370
    25
100
AcDbLine
 10
114.2628068527
 20
145.1022813745
 30
0.0
 11
114.2628068527
 21
145.2289791961
 31
0.0
  0
LWPOLYLINE
  5
274
330
1F
100
AcDbEntity
  8
0
  6
Continuous
 62
     7
370
    25
100
AcDbPolyline
 90
        9
 70
   128
 43
0.0
 10
114.5128068937
 20
144.3606356807
 10
114.5176106555
 20
144.3903425426
 10
114.5318370735
 20
144.4189076029
 10
114.5549394613
 20
144.4452332981
 10
114.5860302685
 20
144.4683082119
 10
114.6239146082
 20
144.4872447938
 10
114.6671363575
 20
144.5013166123
 10
114.7140345028
 20
144.5099816375
 10
114.7628069347
 20
144.5129073874
  0
LINE
  5
275
330
1F
100
AcDbEntity
  8
0
  6
Continuous
 62
     7
370
    25
100
AcDbLine
 10
114.0128072774
 20
152.450750833
 30
0.0
 11
114.2628068527
 21
152.450750833
 31
0.0
  0
LINE
  5
276
330
1F
100
AcDbEntity
  8
0
  6
Continuous
 62
     7
370
    25
100
AcDbLine
 10
114.2628068527
 20
145.1022813745
 30
0.0
 11
114.0128072774
 21
145.1022813745
 31
0.0
  0
LINE
  5
277
330
1F
100
AcDbEntity
  8
0
  6
Continuous
 62
     7
370
    25
100
AcDbLine
 10
114.5128068937
 20
155.5265162789
 30
0.0
 11
114.2628068527
 21
155.5265162789
 31
0.0
  0
LINE
  5
278
330
1F
100
AcDbEntity
  8
0
  6
Continuous
 62
     7
370
    25
100
AcDbLine
 10
114.2628068527
 20
155.7765163199
 30
0.0
 11
114.2628068527
 21
155.5265162789
 31
0.0
  0
ARC
  5
279
330
1F
100
AcDbEntity
  8
0
  6
Continuous
 62
     7
370
    25
100
AcDbCircle
 10
114.2628070613
 20
155.5265161038
 30
0.0
 40
0.25
100
AcDbArc
 50
0.0
 51
90.0
  0
LINE
  5
27A
330
1F
100
AcDbEntity
  8
0
  6
Continuous
 62
     7
370
    25
100
AcDbLine
 10
114.2628068527
 20
155.5265162789
 30
0.0
 11
114.0128072774
 21
155.5265162789
 31
0.0
  0
LINE
  5
27B
330
1F
100
AcDbEntity
  8
0
  6
Continuous
 62
     7
370
    25
100
AcDbLine
 10
114.0128072774
 20
155.7765163199
 30
0.0
 11
114.2628068527
 21
155.7765163199
 31
0.0
  0
LINE
  5
27C
330
1F
100
AcDbEntity
  8
0
  6
Continuous
 62
     7
370
    25
100
AcDbLine
 10
114.5128068937
 20
155.5265162789
 30
0.0
 11
114.5128068937
 21
153.1923965268
 31
0.0
  0
LINE
  5
27D
330
1F
100
AcDbEntity
  8
0
  6
Continuous
 62
     7
370
    25
100
AcDbLine
 10
114.2628068527
 20
152.450750833
 30
0.0
 11
114.2628068527
 21
155.5265162789
 31
0.0
  0
LINE
  5
27E
330
1F
100
AcDbEntity
  8
0
  6
Continuous
 62
     7
370
    25
100
AcDbLine
 10
114.0128072774
 20
142.0265159287
 30
0.0
 11
114.2628068527
 21
142.0265159287
 31
0.0
  0
LINE
  5
27F
330
1F
100
AcDbEntity
  8
0
  6
Continuous
 62
     7
370
    25
100
AcDbLine
 10
114.2628068527
 20
142.0265159287
 30
0.0
 11
114.2628068527
 21
145.1022813745
 31
0.0
  0
LINE
  5
280
330
1F
100
AcDbEntity
  8
0
  6
Continuous
 62
     7
370
    25
100
AcDbLine
 10
114.5128068937
 20
144.3606356807
 30
0.0
 11
114.5128068937
 21
142.0265159287
 31
0.0
  0
LINE
  5
281
330
1F
100
AcDbEntity
  8
0
  6
Continuous
 62
     7
370
    25
100
AcDbLine
 10
114.2628068527
 20
142.0265159287
 30
0.0
 11
114.5128068937
 21
142.0265159287
 31
0.0
  0
ARC
  5
282
330
1F
100
AcDbEntity
  8
0
  6
Continuous
 62
     7
370
    25
100
AcDbCircle
 10
114.2628070613
 20
142.0265161038
 30
0.0
 40
0.25
100
AcDbArc
 50
270.0
 51
0.0
  0
LINE
  5
283
330
1F
100
AcDbEntity
  8
0
  6
Continuous
 62
     7
370
    25
100
AcDbLine
 10
114.2628068527
 20
142.0265159287
 30
0.0
 11
114.2628068527
 21
141.7765158877
 31
0.0
  0
LINE
  5
284
330
1F
100
AcDbEntity
  8
0
  6
Continuous
 62
     7
370
    25
100
AcDbLine
 10
114.2628068527
 20
141.7765158877
 30
0.0
 11
114.0128072774
 21
141.7765158877
 31
0.0
  0
SPLINE
  5
285
330
1F
100
AcDbEntity
  8
0
  6
Continuous
 62
     7
370
    25
100
AcDbSpline
210
0.0
220
0.0
230
1.0
 70
     8
 71
     3
 72
     8
 73
     4
 74
     0
 42
0.000000001
 43
0.00000001
 40
0.0
 40
0.0
 40
0.0
 40
0.0
 40
1.0
 40
1.0
 40
1.0
 40
1.0
 10
114.7628070613225
 20
155.293757483097
 30
0.0
 10
114.6973543808864
 20
155.2953273857938
 30
0.0
 10
114.6323048158781
 20
155.3219827201978
 30
0.0
 10
114.5860243553958
 20
155.3666842838192
 30
0.0
  0
SPLINE
  5
286
330
1F
100
AcDbEntity
  8
0
  6
Continuous
 62
     7
370
    25
100
AcDbSpline
210
0.0
220
0.0
230
1.0
 70
     8
 71
     3
 72
    14
 73
    10
 74
     0
 42
0.000000001
 43
0.00000001
 40
0.0
 40
0.0
 40
0.0
 40
0.0
 40
0.245589323567575
 40
0.455618196314265
 40
0.6303106213393797
 40
0.77011643036692
 40
0.8759901151610914
 40
0.9502659312389357
 40
1.0
 40
1.0
 40
1.0
 40
1.0
 10
114.5860243553958
 20
155.3666842838192
 30
0.0
 10
114.5750593160805
 20
155.3785752243584
 30
0.0
 10
114.5547169357084
 20
155.400635340011
 30
0.0
 10
114.5345649232319
 20
155.4361990383312
 30
0.0
 10
114.522445363761
 20
155.4669913469344
 30
0.0
 10
114.5162395405286
 20
155.4922309295072
 30
0.0
 10
114.5136198415548
 20
155.510213222442
 30
0.0
 10
114.5128396472098
 20
155.523135385858
 30
0.0
 10
114.5128163890069
 20
155.525548375964
 30
0.0
 10
114.5128070613225
 20
155.5265161037867
 30
0.0
  0
SPLINE
  5
287
330
1F
100
AcDbEntity
  8
0
  6
Continuous
 62
     7
370
    25
100
AcDbSpline
210
0.0
220
0.0
230
1.0
 70
     8
 71
     3
 72
    15
 73
    11
 74
     0
 42
0.000000001
 43
0.00000001
 40
0.0
 40
0.0
 40
0.0
 40
0.0
 40
0.0425877399909041
 40
0.1028282325346875
 40
0.1864706729280299
 40
0.2956205441869006
 40
0.4311891005861807
 40
0.5936297641565581
 40
0.7831876993469636
 40
1.0
 40
1.0
 40
1.0
 40
1.0
 10
114.5128070613225
 20
142.0265161037867
 30
0.0
 10
114.5128128544247
 20
142.0272316053835
 30
0.0
 10
114.5128268418881
 20
142.0289591862458
 30
0.0
 10
114.5133185427198
 20
142.0388333653407
 30
0.0
 10
114.5149458966784
 20
142.052727045163
 30
0.0
 10
114.5187710450625
 20
142.0722243029847
 30
0.0
 10
114.5261433551033
 20
142.0964291558339
 30
0.0
 10
114.5387613440801
 20
142.1247978124981
 30
0.0
 10
114.5580055462843
 20
142.1563369832417
 30
0.0
 10
114.5762762926546
 20
142.175906775814
 30
0.0
 10
114.5860243553958
 20
142.1863479237541
 30
0.0
  0
SPLINE
  5
288
330
1F
100
AcDbEntity
  8
0
  6
Continuous
 62
     7
370
    25
100
AcDbSpline
210
0.0
220
0.0
230
1.0
 70
     8
 71
     3
 72
     8
 73
     4
 74
     0
 42
0.000000001
 43
0.00000001
 40
0.0
 40
0.0
 40
0.0
 40
0.0
 40
1.0
 40
1.0
 40
1.0
 40
1.0
 10
114.5860243553958
 20
142.1863479237541
 30
0.0
 10
114.6323048158781
 20
142.2310494873756
 30
0.0
 10
114.6973543808864
 20
142.2577048217795
 30
0.0
 10
114.7628070613225
 20
142.2592747244763
 30
0.0
  0
SPLINE
  5
289
330
1F
100
AcDbEntity
  8
0
  6
Continuous
 62
     7
370
    25
100
AcDbSpline
210
0.0
220
0.0
230
1.0
 70
     8
 71
     3
 72
    10
 73
     6
 74
     0
 42
0.000000001
 43
0.00000001
 40
0.0
 40
0.0
 40
0.0
 40
0.0
 40
0.5
 40
0.5
 40
1.0
 40
1.0
 40
1.0
 40
1.0
 10
108.0128070613225
 20
152.6494994499941
 30
0.0
 10
107.6857903723147
 20
152.6345739442712
 30
0.0
 10
107.3552835473802
 20
152.6249454621556
 30
0.0
 10
106.6850292796373
 20
152.6246826035695
 30
0.0
 10
106.3444189032465
 20
152.6343642149715
 30
0.0
 10
106.0128070613225
 20
152.6494994499941
 30
0.0
  0
SPLINE
  5
28A
330
1F
100
AcDbEntity
  8
0
  6
Continuous
 62
     7
370
    25
100
AcDbSpline
210
0.0
220
0.0
230
1.0
 70
     8
 71
     3
 72
    10
 73
     6
 74
     0
 42
0.000000001
 43
0.00000001
 40
0.0
 40
0.0
 40
0.0
 40
0.0
 40
0.5
 40
0.5
 40
1.0
 40
1.0
 40
1.0
 40
1.0
 10
106.0128070613225
 20
144.9035327575793
 30
0.0
 10
106.3398237503304
 20
144.9184582633022
 30
0.0
 10
106.6703305752649
 20
144.9280867454178
 30
0.0
 10
107.3405848430078
 20
144.9283496040039
 30
0.0
 10
107.6811952193986
 20
144.9186679926018
 30
0.0
 10
108.0128070613225
 20
144.9035327575793
 30
0.0
  0
LINE
  5
28B
330
1F
100
AcDbEntity
  8
0
  6
Continuous
 62
     7
370
    25
100
AcDbLine
 10
105.5128070483
 20
145.0684168559
 30
0.0
 11
105.5128070483
 21
152.4846153517
 31
0.0
  0
SPLINE
  5
28C
330
1F
100
AcDbEntity
  8
0
  6
Continuous
 62
     7
370
    25
100
AcDbSpline
210
0.0
220
0.0
230
1.0
 70
     8
 71
     3
 72
    12
 73
     8
 74
     0
 42
0.000000001
 43
0.00000001
 40
0.0
 40
0.0
 40
0.0
 40
0.0
 40
0.25
 40
0.25
 40
0.5
 40
0.5
 40
1.0
 40
1.0
 40
1.0
 40
1.0
 10
114.5145268189768
 20
155.7754065645046
 30
0.0
 10
114.5247689174259
 20
155.7754151718898
 30
0.0
 10
114.5394516318893
 20
155.766824036705
 30
0.0
 10
114.5712740225472
 20
155.7305144371947
 30
0.0
 10
114.5884136987416
 20
155.7027959728692
 30
0.0
 10
114.6338817644752
 20
155.588057820181
 30
0.0
 10
114.627048913411
 20
155.4864469775501
 30
0.0
 10
114.5860243553958
 20
155.3666842838192
 30
0.0
  0
SPLINE
  5
28D
330
1F
100
AcDbEntity
  8
0
  6
Continuous
 62
     7
370
    25
100
AcDbSpline
210
0.0
220
0.0
230
1.0
 70
     8
 71
     3
 72
    12
 73
     8
 74
     0
 42
0.000000001
 43
0.00000001
 40
0.0
 40
0.0
 40
0.0
 40
0.0
 40
0.25
 40
0.25
 40
0.5
 40
0.5
 40
1.0
 40
1.0
 40
1.0
 40
1.0
 10
114.5145268189768
 20
155.7754065645046
 30
0.0
 10
114.5042847205278
 20
155.7753979571194
 30
0.0
 10
114.4967455089745
 20
155.7667881467892
 30
0.0
 10
114.4824159933501
 20
155.745307036519
 30
0.0
 10
114.4756256892791
 20
155.7324357365789
 30
0.0
 10
114.4493928388258
 20
155.7068409767637
 30
0.0
 10
114.4397101221375
 20
155.703166433565
 30
0.0
 10
114.4395837566177
 20
155.7032927990848
 30
0.0
  0
SPLINE
  5
28E
330
1F
100
AcDbEntity
  8
0
  6
Continuous
 62
     7
370
    25
100
AcDbSpline
210
0.0
220
0.0
230
1.0
 70
     8
 71
     3
 72
    10
 73
     6
 74
     0
 42
0.000000001
 43
0.00000001
 40
0.0
 40
0.0
 40
0.0
 40
0.0
 40
0.5
 40
0.5
 40
1.0
 40
1.0
 40
1.0
 40
1.0
 10
114.5145268189768
 20
155.7754065645046
 30
0.0
 10
114.4735584251806
 20
155.7753721349638
 30
0.0
 10
114.4295939154361
 20
155.7756803453008
 30
0.0
 10
114.3385472756923
 20
155.7806350786812
 30
0.0
 10
114.3055988351114
 20
155.7765161037867
 30
0.0
 10
114.2628070613225
 20
155.7765161037867
 30
0.0
  0
SPLINE
  5
28F
330
1F
100
AcDbEntity
  8
0
  6
Continuous
 62
     7
370
    25
100
AcDbSpline
210
0.0
220
0.0
230
1.0
 70
     8
 71
     3
 72
    14
 73
    10
 74
     0
 42
0.000000001
 43
0.00000001
 40
0.0
 40
0.0
 40
0.0
 40
0.0
 40
0.25
 40
0.25
 40
0.5
 40
0.5
 40
0.75
 40
0.75
 40
1.0
 40
1.0
 40
1.0
 40
1.0
 10
114.5145268189768
 20
141.7776256430687
 30
0.0
 10
114.5247689174259
 20
141.7776170356835
 30
0.0
 10
114.5394516318893
 20
141.7862081708683
 30
0.0
 10
114.5712740225472
 20
141.8225177703786
 30
0.0
 10
114.5884136987416
 20
141.8502362347041
 30
0.0
 10
114.618725742564
 20
141.9267283364962
 30
0.0
 10
114.6245955407536
 20
141.971254072602
 30
0.0
 10
114.6185009866733
 20
142.0711231927982
 30
0.0
 10
114.6065366344034
 20
142.1264665768886
 30
0.0
 10
114.5860243553958
 20
142.1863479237541
 30
0.0
  0
SPLINE
  5
290
330
1F
100
AcDbEntity
  8
0
  6
Continuous
 62
     7
370
    25
100
AcDbSpline
210
0.0
220
0.0
230
1.0
 70
     8
 71
     3
 72
    12
 73
     8
 74
     0
 42
0.000000001
 43
0.00000001
 40
0.0
 40
0.0
 40
0.0
 40
0.0
 40
0.25
 40
0.25
 40
0.5
 40
0.5
 40
1.0
 40
1.0
 40
1.0
 40
1.0
 10
114.5145268189768
 20
141.7776256430687
 30
0.0
 10
114.5042847205278
 20
141.7776342504539
 30
0.0
 10
114.4967455089745
 20
141.7862440607841
 30
0.0
 10
114.4824159933501
 20
141.8077251710543
 30
0.0
 10
114.4756256892791
 20
141.8205964709944
 30
0.0
 10
114.4493928388258
 20
141.8461912308097
 30
0.0
 10
114.4397101221375
 20
141.8498657740084
 30
0.0
 10
114.4395837566177
 20
141.8497394084885
 30
0.0
  0
SPLINE
  5
291
330
1F
100
AcDbEntity
  8
0
  6
Continuous
 62
     7
370
    25
100
AcDbSpline
210
0.0
220
0.0
230
1.0
 70
     8
 71
     3
 72
    10
 73
     6
 74
     0
 42
0.000000001
 43
0.00000001
 40
0.0
 40
0.0
 40
0.0
 40
0.0
 40
0.5
 40
0.5
 40
1.0
 40
1.0
 40
1.0
 40
1.0
 10
114.5145268189768
 20
141.7776256430687
 30
0.0
 10
114.4735584251806
 20
141.7776600726095
 30
0.0
 10
114.4295939154361
 20
141.7773518622726
 30
0.0
 10
114.3385472756923
 20
141.7723971288922
 30
0.0
 10
114.3055988351114
 20
141.7765161037867
 30
0.0
 10
114.2628070613225
 20
141.7765161037867
 30
0.0
  0
SPLINE
  5
292
330
1F
100
AcDbEntity
  8
0
  6
Continuous
 62
     7
370
    25
100
AcDbSpline
210
0.0
220
0.0
230
1.0
 70
     8
 71
     3
 72
    10
 73
     6
 74
     0
 42
0.000000001
 43
0.00000001
 40
0.0
 40
0.0
 40
0.0
 40
0.0
 40
0.5
 40
0.5
 40
1.0
 40
1.0
 40
1.0
 40
1.0
 10
114.5145268189768
 20
155.7754065645046
 30
0.0
 10
114.5554952127731
 20
155.7754409940454
 30
0.0
 10
114.598950659845
 20
155.7758226714796
 30
0.0
 10
114.6880365050623
 20
155.7721306573534
 30
0.0
 10
114.7204237336776
 20
155.7765161037867
 30
0.0
 10
114.7628070613225
 20
155.7765161037867
 30
0.0
  0
SPLINE
  5
293
330
1F
100
AcDbEntity
  8
0
  6
Continuous
 62
     7
370
    25
100
AcDbSpline
210
0.0
220
0.0
230
1.0
 70
     8
 71
     3
 72
    10
 73
     6
 74
     0
 42
0.000000001
 43
0.00000001
 40
0.0
 40
0.0
 40
0.0
 40
0.0
 40
0.5
 40
0.5
 40
1.0
 40
1.0
 40
1.0
 40
1.0
 10
114.5145268189768
 20
141.7776256430687
 30
0.0
 10
114.5554952127731
 20
141.7775912135279
 30
0.0
 10
114.598950659845
 20
141.7772095360937
 30
0.0
 10
114.6880365050623
 20
141.7809015502199
 30
0.0
 10
114.7204237336776
 20
141.7765161037867
 30
0.0
 10
114.7628070613225
 20
141.7765161037867
 30
0.0
  0
SPLINE
  5
294
330
1F
100
AcDbEntity
  8
0
  6
Continuous
 62
     7
370
    25
100
AcDbSpline
210
0.0
220
0.0
230
1.0
 70
     8
 71
     3
 72
    18
 73
    14
 74
     0
 42
0.000000001
 43
0.00000001
 40
0.0
 40
0.0
 40
0.0
 40
0.0
 40
0.2499999999999999
 40
0.2499999999999999
 40
0.3749999999999998
 40
0.3749999999999998
 40
0.4999999999999998
 40
0.4999999999999998
 40
0.6249999999999998
 40
0.6249999999999998
 40
0.7499999999999999
 40
0.7499999999999999
 40
1.0
 40
1.0
 40
1.0
 40
1.0
 10
105.3857113430484
 20
152.4306315266454
 30
0.0
 10
105.1016562416078
 20
151.8762202953693
 30
0.0
 10
104.8329517613295
 20
151.3051704539843
 30
0.0
 10
104.4710848719453
 20
150.3962731415027
 30
0.0
 10
104.3552942590732
 20
150.0815678202719
 30
0.0
 10
104.1712857645622
 20
149.4417660806211
 30
0.0
 10
104.1044811858382
 20
149.1164695585628
 30
0.0
 10
104.1040906025424
 20
148.4396516087988
 30
0.0
 10
104.1708013452137
 20
148.1133843260862
 30
0.0
 10
104.3545365527689
 20
147.473668007506
 30
0.0
 10
104.4703807240002
 20
147.158620437588
 30
0.0
 10
104.8325883972609
 20
146.2485895493035
 30
0.0
 10
105.1014978239425
 20
145.6771211076116
 30
0.0
 10
105.3857113430484
 20
145.122400680928
 30
0.0
  0
LINE
  5
295
330
1F
100
AcDbEntity
  8
0
  6
Continuous
 62
     8
370
    25
100
AcDbLine
 10
132.4888976713
 20
139.4265161545
 30
0.0
 11
132.4888976713
 21
158.1265160531
 31
0.0
  0
LINE
  5
296
330
1F
100
AcDbEntity
  8
0
  6
Continuous
 62
     8
370
    25
100
AcDbLine
 10
119.0888980826
 20
158.1265160531
 30
0.0
 11
119.0888980826
 21
139.4265161545
 31
0.0
  0
LINE
  5
297
330
1F
100
AcDbEntity
  8
0
  6
Continuous
 62
     8
370
    25
100
AcDbLine
 10
118.0128070017
 20
141.7765158877
 30
0.0
 11
118.0128070017
 21
155.7765163199
 31
0.0
  0
SPLINE
  5
298
330
1F
100
AcDbEntity
  8
0
  6
Continuous
 62
     8
370
    25
100
AcDbSpline
210
0.0
220
0.0
230
1.0
 70
     8
 71
     3
 72
    10
 73
     6
 74
     0
 42
0.000000001
 43
0.00000001
 40
0.0
 40
0.0
 40
0.0
 40
0.0
 40
0.420423730889455
 40
0.8374825264271483
 40
1.0
 40
1.0
 40
1.0
 40
1.0
 10
104.4437106655767
 20
155.3666840956037
 30
0.0
 10
104.6806195930891
 20
155.4285431081946
 30
0.0
 10
105.1525413058015
 20
155.5517660338782
 30
0.0
 10
105.7235362776456
 20
155.686219705205
 30
0.0
 10
106.0607531393473
 20
155.7058965461497
 30
0.0
 10
106.1553112421041
 20
155.7114140779202
 30
0.0
  0
SPLINE
  5
299
330
1F
100
AcDbEntity
  8
0
  6
Continuous
 62
     8
370
    25
100
AcDbSpline
210
0.0
220
0.0
230
1.0
 70
     8
 71
     3
 72
     9
 73
     5
 74
     0
 42
0.000000001
 43
0.00000001
 40
0.0
 40
0.0
 40
0.0
 40
0.0
 40
0.620303061253704
 40
1.0
 40
1.0
 40
1.0
 40
1.0
 10
104.3804217086961
 20
155.7032929450695
 30
0.0
 10
104.8721626498128
 20
155.7093835722359
 30
0.0
 10
105.6649057004803
 20
155.7192023649307
 30
0.0
 10
106.4565037186125
 20
155.7527818196033
 30
0.0
 10
106.7570710628149
 20
155.7655318357472
 30
0.0
  0
SPLINE
  5
29A
330
1F
100
AcDbEntity
  8
0
  6
Continuous
 62
     8
370
    25
100
AcDbSpline
210
0.0
220
0.0
230
1.0
 70
     8
 71
     3
 72
     9
 73
     5
 74
     0
 42
0.000000001
 43
0.00000001
 40
0.0
 40
0.0
 40
0.0
 40
0.0
 40
0.6937705548183163
 40
1.0
 40
1.0
 40
1.0
 40
1.0
 10
109.645192413949
 20
155.7032929450695
 30
0.0
 10
109.1534340786632
 20
155.7090226022292
 30
0.0
 10
108.4446142363241
 20
155.7172813228103
 30
0.0
 10
107.7368181741988
 20
155.7467847271392
 30
0.0
 10
107.5200701787924
 20
155.7558195382778
 30
0.0
  0
LINE
  5
29B
330
1F
100
AcDbEntity
  8
0
  6
Continuous
 62
     8
370
    25
100
AcDbLine
 10
107.4328152362
 20
155.7591885977
 30
0.0
 11
107.2685430598
 21
155.7655318357
 31
0.0
  0
SPLINE
  5
29C
330
1F
100
AcDbEntity
  8
0
  6
Continuous
 62
     8
370
    25
100
AcDbSpline
210
0.0
220
0.0
230
1.0
 70
     8
 71
     3
 72
     9
 73
     5
 74
     0
 42
0.000000001
 43
0.00000001
 40
0.0
 40
0.0
 40
0.0
 40
0.0
 40
0.620303061253704
 40
1.0
 40
1.0
 40
1.0
 40
1.0
 10
104.3804217086961
 20
141.8497392625038
 30
0.0
 10
104.8721626498128
 20
141.8436486353374
 30
0.0
 10
105.6649057004803
 20
141.8338298426427
 30
0.0
 10
106.4565037186125
 20
141.8002503879701
 30
0.0
 10
106.7570710628149
 20
141.7875003718261
 30
0.0
  0
SPLINE
  5
29D
330
1F
100
AcDbEntity
  8
0
  6
Continuous
 62
     8
370
    25
100
AcDbSpline
210
0.0
220
0.0
230
1.0
 70
     8
 71
     3
 72
     9
 73
     5
 74
     0
 42
0.000000001
 43
0.00000001
 40
0.0
 40
0.0
 40
0.0
 40
0.0
 40
0.620303061253704
 40
1.0
 40
1.0
 40
1.0
 40
1.0
 10
109.645192413949
 20
141.8497392625038
 30
0.0
 10
109.1534514728323
 20
141.8436486353374
 30
0.0
 10
108.3607084221647
 20
141.8338298426427
 30
0.0
 10
107.5691104040326
 20
141.8002503879701
 30
0.0
 10
107.2685430598301
 20
141.7875003718261
 30
0.0
  0
LINE
  5
29E
330
1F
100
AcDbEntity
  8
0
  6
Continuous
 62
     8
370
    25
100
AcDbLine
 10
107.0128070613
 20
155.7765163199
 30
0.0
 11
107.0128070613
 21
155.7770737164
 31
0.0
  0
LINE
  5
29F
330
1F
100
AcDbEntity
  8
0
  6
Continuous
 62
     8
370
    25
100
AcDbLine
 10
107.0128070613
 20
141.7765158877
 30
0.0
 11
107.0128070613
 21
141.7759584912
 31
0.0
  0
INSERT
  5
2AB
330
1F
100
AcDbEntity
  8
0
  6
Continuous
 62
     7
370
    18
100
AcDbBlockReference
  2
SW_CENTERMARKSYMBOL_1
 10
107.0128070613
 20
148.7765161038
 30
0.0
  0
ENDSEC
  0
SECTION
  2
OBJECTS
  0
DICTIONARY
  5
C
330
0
100
AcDbDictionary
281
     1
  3
ACAD_GROUP
350
D
  3
ACAD_LAYOUT
350
1A
  3
ACAD_MLINESTYLE
350
17
  3
ACAD_PLOTSETTINGS
350
19
  3
ACAD_PLOTSTYLENAME
350
E
  3
ACAD_SCALELIST
350
47
  0
DICTIONARY
  5
D
102
{ACAD_REACTORS
330
C
102
}
330
C
100
AcDbDictionary
281
     1
  0
DICTIONARY
  5
1A
102
{ACAD_REACTORS
330
C
102
}
330
C
100
AcDbDictionary
281
     1
  3
Layout1
350
1E
  3
Layout2
350
26
  3
Model
350
22
  0
DICTIONARY
  5
17
102
{ACAD_REACTORS
330
C
102
}
330
C
100
AcDbDictionary
281
     1
  3
Standard
350
18
  0
DICTIONARY
  5
19
102
{ACAD_REACTORS
330
C
102
}
330
C
100
AcDbDictionary
281
     1
  0
ACDBDICTIONARYWDFLT
  5
E
102
{ACAD_REACTORS
330
C
102
}
330
C
100
AcDbDictionary
281
     1
  3
Normal
350
F
100
AcDbDictionaryWithDefault
340
F
  0
DICTIONARY
  5
47
102
{ACAD_REACTORS
330
C
102
}
330
C
100
AcDbDictionary
281
     1
  3
A0
350
48
  3
A1
350
49
  3
A2
350
4A
  3
A3
350
4B
  3
A4
350
4C
  3
A5
350
4D
  3
A6
350
4E
  3
A7
350
4F
  3
A8
350
50
  3
A9
350
51
  3
B0
350
52
  3
B1
350
53
  3
B2
350
54
  3
B3
350
55
  3
B4
350
56
  3
B5
350
57
  3
B6
350
58
  3
B7
350
59
  3
B8
350
5A
  3
B9
350
5B
  3
C0
350
5C
  3
C1
350
5D
  3
C2
350
5E
  3
C3
350
5F
  3
C4
350
60
  3
C5
350
61
  3
C6
350
62
  3
C7
350
63
  3
C8
350
64
  3
C9
350
65
  3
D0
350
66
  3
D1
350
67
  3
D2
350
68
  0
LAYOUT
  5
1E
102
{ACAD_REACTORS
330
1A
102
}
330
1A
100
AcDbPlotSettings
  1

  2
none_device
  4

  6

 40
0.0
 41
0.0
 42
0.0
 43
0.0
 44
0.0
 45
0.0
 46
0.0
 47
0.0
 48
0.0
 49
0.0
140
0.0
141
0.0
142
1.0
143
1.0
 70
   688
 72
     1
 73
     0
 74
     5
  7

 75
    16
147
1.0
148
0.0
149
0.0
100
AcDbLayout
  1
Layout1
 70
     1
 71
     1
 10
0.0
 20
0.0
 11
420.0
 21
297.0
 12
0.0
 22
0.0
 32
0.0
 14
1.0000000000E+20
 24
1.0000000000E+20
 34
1.0000000000E+20
 15
-1.0000000000E+20
 25
-1.0000000000E+20
 35
-1.0000000000E+20
146
0.0
 13
0.0
 23
0.0
 33
0.0
 16
1.0
 26
0.0
 36
0.0
 17
0.0
 27
1.0
 37
0.0
 76
     0
330
1B
  0
LAYOUT
  5
26
102
{ACAD_REACTORS
330
1A
102
}
330
1A
100
AcDbPlotSettings
  1

  2
none_device
  4

  6

 40
0.0
 41
0.0
 42
0.0
 43
0.0
 44
0.0
 45
0.0
 46
0.0
 47
0.0
 48
0.0
 49
0.0
140
0.0
141
0.0
142
1.0
143
1.0
 70
   688
 72
     1
 73
     0
 74
     5
  7

 75
    16
147
1.0
148
0.0
149
0.0
100
AcDbLayout
  1
Layout2
 70
     1
 71
     2
 10
0.0
 20
0.0
 11
0.0
 21
0.0
 12
0.0
 22
0.0
 32
0.0
 14
0.0
 24
0.0
 34
0.0
 15
0.0
 25
0.0
 35
0.0
146
0.0
 13
0.0
 23
0.0
 33
0.0
 16
1.0
 26
0.0
 36
0.0
 17
0.0
 27
1.0
 37
0.0
 76
     0
330
23
  0
LAYOUT
  5
22
102
{ACAD_REACTORS
330
1A
102
}
330
1A
100
AcDbPlotSettings
  1

  2
none_device
  4
Letter_(8.50_x_11.00_Inches)
  6

 40
6.35
 41
6.35
 42
6.35000508
 43
6.35000508
 44
215.9
 45
279.4
 46
0.0
 47
0.0
 48
0.0
 49
0.0
140
0.0
141
0.0
142
1.0
143
1.0
 70
  1712
 72
     1
 73
     0
 74
     0
  7

 75
     0
147
1.0
148
0.0
149
0.0
100
AcDbLayout
  1
Model
 70
     1
 71
     0
 10
0.0
 20
0.0
 11
431.8
 21
279.4
 12
0.0
 22
0.0
 32
0.0
 14
0.0
 24
0.0
 34
0.0
 15
431.8
 25
279.4
 35
0.0
146
0.0
 13
0.0
 23
0.0
 33
0.0
 16
1.0
 26
0.0
 36
0.0
 17
0.0
 27
1.0
 37
0.0
 76
     0
330
1F
331
29
  0
MLINESTYLE
  5
18
102
{ACAD_REACTORS
330
17
102
}
330
17
100
AcDbMlineStyle
  2
Standard
 70
     0
  3

 62
   256
 51
90.0
 52
90.0
 71
     2
 49
0.5
 62
   256
  6
BYLAYER
 49
-0.5
 62
   256
  6
BYLAYER
  0
ACDBPLACEHOLDER
  5
F
102
{ACAD_REACTORS
330
E
102
}
330
E
  0
SCALE
  5
48
102
{ACAD_REACTORS
330
47
102
}
330
47
100
AcDbScale
 70
     0
300
1:1
140
1.0
141
1.0
290
     1
  0
SCALE
  5
49
102
{ACAD_REACTORS
330
47
102
}
330
47
100
AcDbScale
 70
     0
300
1:2
140
1.0
141
2.0
290
     0
  0
SCALE
  5
4A
102
{ACAD_REACTORS
330
47
102
}
330
47
100
AcDbScale
 70
     0
300
1:4
140
1.0
141
4.0
290
     0
  0
SCALE
  5
4B
102
{ACAD_REACTORS
330
47
102
}
330
47
100
AcDbScale
 70
     0
300
1:5
140
1.0
141
5.0
290
     0
  0
SCALE
  5
4C
102
{ACAD_REACTORS
330
47
102
}
330
47
100
AcDbScale
 70
     0
300
1:8
140
1.0
141
8.0
290
     0
  0
SCALE
  5
4D
102
{ACAD_REACTORS
330
47
102
}
330
47
100
AcDbScale
 70
     0
300
1:10
140
1.0
141
10.0
290
     0
  0
SCALE
  5
4E
102
{ACAD_REACTORS
330
47
102
}
330
47
100
AcDbScale
 70
     0
300
1:16
140
1.0
141
16.0
290
     0
  0
SCALE
  5
4F
102
{ACAD_REACTORS
330
47
102
}
330
47
100
AcDbScale
 70
     0
300
1:20
140
1.0
141
20.0
290
     0
  0
SCALE
  5
50
102
{ACAD_REACTORS
330
47
102
}
330
47
100
AcDbScale
 70
     0
300
1:30
140
1.0
141
30.0
290
     0
  0
SCALE
  5
51
102
{ACAD_REACTORS
330
47
102
}
330
47
100
AcDbScale
 70
     0
300
1:40
140
1.0
141
40.0
290
     0
  0
SCALE
  5
52
102
{ACAD_REACTORS
330
47
102
}
330
47
100
AcDbScale
 70
     0
300
1:50
140
1.0
141
50.0
290
     0
  0
SCALE
  5
53
102
{ACAD_REACTORS
330
47
102
}
330
47
100
AcDbScale
 70
     0
300
1:100
140
1.0
141
100.0
290
     0
  0
SCALE
  5
54
102
{ACAD_REACTORS
330
47
102
}
330
47
100
AcDbScale
 70
     0
300
2:1
140
2.0
141
1.0
290
     0
  0
SCALE
  5
55
102
{ACAD_REACTORS
330
47
102
}
330
47
100
AcDbScale
 70
     0
300
4:1
140
4.0
141
1.0
290
     0
  0
SCALE
  5
56
102
{ACAD_REACTORS
330
47
102
}
330
47
100
AcDbScale
 70
     0
300
8:1
140
8.0
141
1.0
290
     0
  0
SCALE
  5
57
102
{ACAD_REACTORS
330
47
102
}
330
47
100
AcDbScale
 70
     0
300
10:1
140
10.0
141
1.0
290
     0
  0
SCALE
  5
58
102
{ACAD_REACTORS
330
47
102
}
330
47
100
AcDbScale
 70
     0
300
100:1
140
100.0
141
1.0
290
     0
  0
SCALE
  5
59
102
{ACAD_REACTORS
330
47
102
}
330
47
100
AcDbScale
 70
     0
300
1/128" = 1'-0"
140
0.0078125
141
12.0
290
     0
  0
SCALE
  5
5A
102
{ACAD_REACTORS
330
47
102
}
330
47
100
AcDbScale
 70
     0
300
1/64" = 1'-0"
140
0.015625
141
12.0
290
     0
  0
SCALE
  5
5B
102
{ACAD_REACTORS
330
47
102
}
330
47
100
AcDbScale
 70
     0
300
1/32" = 1'-0"
140
0.03125
141
12.0
290
     0
  0
SCALE
  5
5C
102
{ACAD_REACTORS
330
47
102
}
330
47
100
AcDbScale
 70
     0
300
1/16" = 1'-0"
140
0.0625
141
12.0
290
     0
  0
SCALE
  5
5D
102
{ACAD_REACTORS
330
47
102
}
330
47
100
AcDbScale
 70
     0
300
3/32" = 1'-0"
140
0.09375
141
12.0
290
     0
  0
SCALE
  5
5E
102
{ACAD_REACTORS
330
47
102
}
330
47
100
AcDbScale
 70
     0
300
1/8" = 1'-0"
140
0.125
141
12.0
290
     0
  0
SCALE
  5
5F
102
{ACAD_REACTORS
330
47
102
}
330
47
100
AcDbScale
 70
     0
300
3/16" = 1'-0"
140
0.1875
141
12.0
290
     0
  0
SCALE
  5
60
102
{ACAD_REACTORS
330
47
102
}
330
47
100
AcDbScale
 70
     0
300
1/4" = 1'-0"
140
0.25
141
12.0
290
     0
  0
SCALE
  5
61
102
{ACAD_REACTORS
330
47
102
}
330
47
100
AcDbScale
 70
     0
300
3/8" = 1'-0"
140
0.375
141
12.0
290
     0
  0
SCALE
  5
62
102
{ACAD_REACTORS
330
47
102
}
330
47
100
AcDbScale
 70
     0
300
1/2" = 1'-0"
140
0.5
141
12.0
290
     0
  0
SCALE
  5
63
102
{ACAD_REACTORS
330
47
102
}
330
47
100
AcDbScale
 70
     0
300
3/4" = 1'-0"
140
0.75
141
12.0
290
     0
  0
SCALE
  5
64
102
{ACAD_REACTORS
330
47
102
}
330
47
100
AcDbScale
 70
     0
300
1" = 1'-0"
140
1.0
141
12.0
290
     0
  0
SCALE
  5
65
102
{ACAD_REACTORS
330
47
102
}
330
47
100
AcDbScale
 70
     0
300
1-1/2" = 1'-0"
140
1.5
141
12.0
290
     0
  0
SCALE
  5
66
102
{ACAD_REACTORS
330
47
102
}
330
47
100
AcDbScale
 70
     0
300
3" = 1'-0"
140
3.0
141
12.0
290
     0
  0
SCALE
  5
67
102
{ACAD_REACTORS
330
47
102
}
330
47
100
AcDbScale
 70
     0
300
6" = 1'-0"
140
6.0
141
12.0
290
     0
  0
SCALE
  5
68
102
{ACAD_REACTORS
330
47
102
}
330
47
100
AcDbScale
 70
     0
300
1'-0" = 1'-0"
140
12.0
141
12.0
290
     0
  0
ENDSEC
  0
EOF
