  0
SECTION
  2
HEADER
  9
$ACADVER
  1
AC1015
  9
$ACADMAINTVER
 70
     6
  9
$DWGCODEPAGE
  3
DOS932
  9
$INSBASE
 10
0.0
 20
0.0
 30
0.0
  9
$EXTMIN
 10
0.0
 20
0.0
 30
0.0
  9
$EXTMAX
 10
431.8
 20
279.4
 30
0.0
  9
$LIMMIN
 10
0.0
 20
0.0
  9
$LIMMAX
 10
431.8
 20
279.4
  9
$ORTHOMODE
 70
     0
  9
$REGENMODE
 70
     1
  9
$FILLMODE
 70
     1
  9
$QTEXTMODE
 70
     0
  9
$MIRRTEXT
 70
     1
  9
$LTSCALE
 40
1.0
  9
$ATTMODE
 70
     1
  9
$TEXTSIZE
 40
3.5
  9
$TRACEWID
 40
1.0
  9
$TEXTSTYLE
  7
Standard
  9
$CLAYER
  8
0
  9
$CELTYPE
  6
ByLayer
  9
$CECOLOR
 62
   256
  9
$CELTSCALE
 40
1.0
  9
$DISPSILH
 70
     0
  9
$DIMSCALE
 40
1.0
  9
$DIMASZ
 40
3.556
  9
$DIMEXO
 40
1.0
  9
$DIMDLI
 40
3.75
  9
$DIMRND
 40
0.0
  9
$DIMDLE
 40
0.0
  9
$DIMEXE
 40
1.0
  9
$DIMTP
 40
0.0
  9
$DIMTM
 40
0.0
  9
$DIMTXT
 40
3.5
  9
$DIMCEN
 40
2.5
  9
$DIMTSZ
 40
0.0
  9
$DIMTOL
 70
     0
  9
$DIMLIM
 70
     0
  9
$DIMTIH
 70
     1
  9
$DIMTOH
 70
     1
  9
$DIMSE1
 70
     0
  9
$DIMSE2
 70
     0
  9
$DIMTAD
 70
     1
  9
$DIMZIN
 70
     0
  9
$DIMBLK
  1

  9
$DIMASO
 70
     1
  9
$DIMSHO
 70
     1
  9
$DIMPOST
  1

  9
$DIMAPOST
  1

  9
$DIMALT
 70
     0
  9
$DIMALTD
 70
     3
  9
$DIMALTF
 40
0.0393700787
  9
$DIMLFAC
 40
1.0
  9
$DIMTOFL
 70
     1
  9
$DIMTVP
 40
0.0
  9
$DIMTIX
 70
     0
  9
$DIMSOXD
 70
     0
  9
$DIMSAH
 70
     0
  9
$DIMBLK1
  1

  9
$DIMBLK2
  1

  9
$DIMSTYLE
  2
ISO-25
  9
$DIMCLRD
 70
     0
  9
$DIMCLRE
 70
     0
  9
$DIMCLRT
 70
     0
  9
$DIMTFAC
 40
1.0
  9
$DIMGAP
 40
1.524
  9
$DIMJUST
 70
     0
  9
$DIMSD1
 70
     0
  9
$DIMSD2
 70
     0
  9
$DIMTOLJ
 70
     0
  9
$DIMTZIN
 70
     0
  9
$DIMALTZ
 70
     0
  9
$DIMALTTZ
 70
     0
  9
$DIMUPT
 70
     0
  9
$DIMDEC
 70
     3
  9
$DIMTDEC
 70
     3
  9
$DIMALTU
 70
     2
  9
$DIMALTTD
 70
     3
  9
$DIMTXSTY
  7
Standard
  9
$DIMAUNIT
 70
     0
  9
$DIMADEC
 70
     2
  9
$DIMALTRND
 40
0.0
  9
$DIMAZIN
 70
     0
  9
$DIMDSEP
 70
    44
  9
$DIMATFIT
 70
     3
  9
$DIMFRAC
 70
     0
  9
$DIMLDRBLK
  1

  9
$DIMLUNIT
 70
     2
  9
$DIMLWD
 70
    -2
  9
$DIMLWE
 70
    -2
  9
$DIMTMOVE
 70
     0
  9
$LUNITS
 70
     2
  9
$LUPREC
 70
     3
  9
$SKETCHINC
 40
1.0
  9
$FILLETRAD
 40
0.0
  9
$AUNITS
 70
     0
  9
$AUPREC
 70
     2
  9
$MENU
  1
.
  9
$ELEVATION
 40
0.0
  9
$PELEVATION
 40
0.0
  9
$THICKNESS
 40
0.0
  9
$LIMCHECK
 70
     0
  9
$CHAMFERA
 40
0.0
  9
$CHAMFERB
 40
0.0
  9
$CHAMFERC
 40
0.0
  9
$CHAMFERD
 40
0.0
  9
$SKPOLY
 70
     0
  9
$TDCREATE
 40
2460137.432716331
  9
$TDUCREATE
 40
2460137.057716331
  9
$TDUPDATE
 40
2460137.432717083
  9
$TDUUPDATE
 40
2460137.057717083
  9
$TDINDWG
 40
0.0000000116
  9
$TDUSRTIMER
 40
0.0000000116
  9
$USRTIMER
 70
     1
  9
$ANGBASE
 50
0.0
  9
$ANGDIR
 70
     0
  9
$PDMODE
 70
     0
  9
$PDSIZE
 40
-1.0
  9
$PLINEWID
 40
0.0
  9
$SPLFRAME
 70
     0
  9
$SPLINETYPE
 70
     6
  9
$SPLINESEGS
 70
     8
  9
$HANDSEED
  5
2EE
  9
$SURFTAB1
 70
     6
  9
$SURFTAB2
 70
     6
  9
$SURFTYPE
 70
     6
  9
$SURFU
 70
     6
  9
$SURFV
 70
     6
  9
$UCSBASE
  2

  9
$UCSNAME
  2

  9
$UCSORG
 10
0.0
 20
0.0
 30
0.0
  9
$UCSXDIR
 10
1.0
 20
0.0
 30
0.0
  9
$UCSYDIR
 10
0.0
 20
1.0
 30
0.0
  9
$UCSORTHOREF
  2

  9
$UCSORTHOVIEW
 70
     0
  9
$UCSORGTOP
 10
0.0
 20
0.0
 30
0.0
  9
$UCSORGBOTTOM
 10
0.0
 20
0.0
 30
0.0
  9
$UCSORGLEFT
 10
0.0
 20
0.0
 30
0.0
  9
$UCSORGRIGHT
 10
0.0
 20
0.0
 30
0.0
  9
$UCSORGFRONT
 10
0.0
 20
0.0
 30
0.0
  9
$UCSORGBACK
 10
0.0
 20
0.0
 30
0.0
  9
$PUCSBASE
  2

  9
$PUCSNAME
  2

  9
$PUCSORG
 10
0.0
 20
0.0
 30
0.0
  9
$PUCSXDIR
 10
1.0
 20
0.0
 30
0.0
  9
$PUCSYDIR
 10
0.0
 20
1.0
 30
0.0
  9
$PUCSORTHOREF
  2

  9
$PUCSORTHOVIEW
 70
     0
  9
$PUCSORGTOP
 10
0.0
 20
0.0
 30
0.0
  9
$PUCSORGBOTTOM
 10
0.0
 20
0.0
 30
0.0
  9
$PUCSORGLEFT
 10
0.0
 20
0.0
 30
0.0
  9
$PUCSORGRIGHT
 10
0.0
 20
0.0
 30
0.0
  9
$PUCSORGFRONT
 10
0.0
 20
0.0
 30
0.0
  9
$PUCSORGBACK
 10
0.0
 20
0.0
 30
0.0
  9
$USERI1
 70
     0
  9
$USERI2
 70
     0
  9
$USERI3
 70
     0
  9
$USERI4
 70
     0
  9
$USERI5
 70
     0
  9
$USERR1
 40
0.0
  9
$USERR2
 40
0.0
  9
$USERR3
 40
0.0
  9
$USERR4
 40
0.0
  9
$USERR5
 40
0.0
  9
$WORLDVIEW
 70
     1
  9
$SHADEDGE
 70
     3
  9
$SHADEDIF
 70
    70
  9
$TILEMODE
 70
     1
  9
$MAXACTVP
 70
    64
  9
$PINSBASE
 10
0.0
 20
0.0
 30
0.0
  9
$PLIMCHECK
 70
     0
  9
$PEXTMIN
 10
1.0000000000E+20
 20
1.0000000000E+20
 30
1.0000000000E+20
  9
$PEXTMAX
 10
-1.0000000000E+20
 20
-1.0000000000E+20
 30
-1.0000000000E+20
  9
$PLIMMIN
 10
0.0
 20
0.0
  9
$PLIMMAX
 10
420.0
 20
297.0
  9
$UNITMODE
 70
     0
  9
$VISRETAIN
 70
     1
  9
$PLINEGEN
 70
     0
  9
$PSLTSCALE
 70
     1
  9
$TREEDEPTH
 70
  3020
  9
$CMLSTYLE
  2
Standard
  9
$CMLJUST
 70
     0
  9
$CMLSCALE
 40
20.0
  9
$PROXYGRAPHICS
 70
     1
  9
$MEASUREMENT
 70
     1
  9
$CELWEIGHT
370
    -1
  9
$ENDCAPS
280
     0
  9
$JOINSTYLE
280
     0
  9
$LWDISPLAY
290
     1
  9
$INSUNITS
 70
     4
  9
$HYPERLINKBASE
  1

  9
$STYLESHEET
  1

  9
$XEDIT
290
     1
  9
$CEPSNTYPE
380
     0
  9
$PSTYLEMODE
290
     1
  9
$FINGERPRINTGUID
  2
{589a3f12-1fb5-422c-83d9-a949749b0ac4}
  9
$VERSIONGUID
  2
{FAEB1C32-E019-11D5-929B-00C0DF256EC4}
  9
$EXTNAMES
290
     1
  9
$PSVPSCALE
 40
0.0
  9
$OLESTARTUP
290
     0
  0
ENDSEC
  0
SECTION
  2
CLASSES
  0
CLASS
  1
ACDBDICTIONARYWDFLT
  2
AcDbDictionaryWithDefault
  3
ObjectDBX Classes
 90
        0
280
     0
281
     0
  0
CLASS
  1
VISUALSTYLE
  2
AcDbVisualStyle
  3
ObjectDBX Classes
 90
     4095
280
     0
281
     0
  0
CLASS
  1
MATERIAL
  2
AcDbMaterial
  3
ObjectDBX Classes
 90
     1153
280
     0
281
     0
  0
CLASS
  1
SCALE
  2
AcDbScale
  3
ObjectDBX Classes
 90
     1153
280
     0
281
     0
  0
CLASS
  1
TABLESTYLE
  2
AcDbTableStyle
  3
ObjectDBX Classes
 90
     4095
280
     0
281
     0
  0
CLASS
  1
MLEADERSTYLE
  2
AcDbMLeaderStyle
  3
ACDB_MLEADERSTYLE_CLASS
 90
     4095
280
     0
281
     0
  0
CLASS
  1
SUN
  2
AcDbSun
  3
SCENEOE
 90
     1153
280
     0
281
     0
  0
CLASS
  1
ACDBPLACEHOLDER
  2
AcDbPlaceHolder
  3
ObjectDBX Classes
 90
        0
280
     0
281
     0
  0
CLASS
  1
LAYOUT
  2
AcDbLayout
  3
ObjectDBX Classes
 90
        0
280
     0
281
     0
  0
ENDSEC
  0
SECTION
  2
TABLES
  0
TABLE
  2
VPORT
  5
8
330
0
100
AcDbSymbolTable
 70
     1
  0
VPORT
  5
29
330
8
100
AcDbSymbolTableRecord
100
AcDbViewportTableRecord
  2
*Active
 70
     0
 10
0.0
 20
0.0
 11
1.0
 21
1.0
 12
215.9
 22
139.7
 13
0.0
 23
0.0
 14
10.0
 24
10.0
 15
10.0
 25
10.0
 16
0.0
 26
0.0
 36
1.0
 17
0.0
 27
0.0
 37
0.0
 40
279.4
 41
1.5454545455
 42
50.0
 43
0.0
 44
0.0
 50
0.0
 51
0.0
 71
     0
 72
  2000
 73
     1
 74
     3
 75
     0
 76
     0
 77
     0
 78
     0
281
     0
 65
     1
110
0.0
120
0.0
130
0.0
111
1.0
121
0.0
131
0.0
112
0.0
122
1.0
132
0.0
 79
     0
146
0.0
  0
ENDTAB
  0
TABLE
  2
LTYPE
  5
5
330
0
100
AcDbSymbolTable
 70
     6
  0
LTYPE
  5
14
330
5
100
AcDbSymbolTableRecord
100
AcDbLinetypeTableRecord
  2
ByBlock
 70
     0
  3

 72
    65
 73
     0
 40
0.0
  0
LTYPE
  5
15
330
5
100
AcDbSymbolTableRecord
100
AcDbLinetypeTableRecord
  2
ByLayer
 70
     0
  3

 72
    65
 73
     0
 40
0.0
  0
LTYPE
  5
16
330
5
100
AcDbSymbolTableRecord
100
AcDbLinetypeTableRecord
  2
Continuous
 70
     0
  3
Solid line
 72
    65
 73
     0
 40
0.0
  0
LTYPE
  5
5E
330
5
100
AcDbSymbolTableRecord
100
AcDbLinetypeTableRecord
  2
HIDDEN
 70
     0
  3
Hidden __ __ __ __ __ __ __ __ __ __ __ __ __ __
 72
    65
 73
     2
 40
1.905
 49
1.27
 74
     0
 49
-0.635
 74
     0
  0
LTYPE
  5
5F
330
5
100
AcDbSymbolTableRecord
100
AcDbLinetypeTableRecord
  2
PHANTOM
 70
     0
  3
Phantom ______  __  __  ______  __  __  ______
 72
    65
 73
     6
 40
12.7
 49
6.35
 74
     0
 49
-1.27
 74
     0
 49
1.27
 74
     0
 49
-1.27
 74
     0
 49
1.27
 74
     0
 49
-1.27
 74
     0
  0
LTYPE
  5
60
330
5
100
AcDbSymbolTableRecord
100
AcDbLinetypeTableRecord
  2
CENTER
 70
     0
  3
Center ____ _ ____ _ ____ _ ____ _ ____ _ ____
 72
    65
 73
     4
 40
10.16
 49
6.35
 74
     0
 49
-1.27
 74
     0
 49
1.27
 74
     0
 49
-1.27
 74
     0
  0
LTYPE
  5
61
330
5
100
AcDbSymbolTableRecord
100
AcDbLinetypeTableRecord
  2
CENTERX2
 70
     0
  3
Center (2x) ________  __  ________  __  _____
 72
    65
 73
     4
 40
20.32
 49
12.7
 74
     0
 49
-2.54
 74
     0
 49
2.54
 74
     0
 49
-2.54
 74
     0
  0
LTYPE
  5
62
330
5
100
AcDbSymbolTableRecord
100
AcDbLinetypeTableRecord
  2
DOT2
 70
     0
  3
Dot (.5x) ........................................
 72
    65
 73
     2
 40
0.635
 49
0.0
 74
     0
 49
-0.635
 74
     0
  0
ENDTAB
  0
TABLE
  2
LAYER
  5
2
330
0
100
AcDbSymbolTable
 70
     1
  0
LAYER
  5
10
330
2
100
AcDbSymbolTableRecord
100
AcDbLayerTableRecord
  2
0
 70
     0
 62
     7
  6
Continuous
370
    -3
390
F
  0
ENDTAB
  0
TABLE
  2
STYLE
  5
3
330
0
100
AcDbSymbolTable
 70
     2
  0
STYLE
  5
11
330
3
100
AcDbSymbolTableRecord
100
AcDbTextStyleTableRecord
  2
Standard
 70
     0
 40
0.0
 41
1.0
 50
0.0
 71
     0
 42
3.5
  3
txt
  4
bigfont
  0
STYLE
  5
63
330
3
100
AcDbSymbolTableRecord
100
AcDbTextStyleTableRecord
  2
SLDTEXTSTYLE0
 70
     0
 40
0.0
 41
0.7
 50
0.0
 71
     0
 42
3.5
  3
TXT
  4
bigfont
  0
ENDTAB
  0
TABLE
  2
VIEW
  5
6
330
0
100
AcDbSymbolTable
 70
     0
  0
ENDTAB
  0
TABLE
  2
UCS
  5
7
330
0
100
AcDbSymbolTable
 70
     0
  0
ENDTAB
  0
TABLE
  2
APPID
  5
9
330
0
100
AcDbSymbolTable
 70
     1
  0
APPID
  5
12
330
9
100
AcDbSymbolTableRecord
100
AcDbRegAppTableRecord
  2
ACAD
 70
     0
  0
ENDTAB
  0
TABLE
  2
DIMSTYLE
  5
A
330
0
100
AcDbSymbolTable
 70
     1
100
AcDbDimStyleTable
  0
DIMSTYLE
105
27
330
A
100
AcDbSymbolTableRecord
100
AcDbDimStyleTableRecord
  2
ISO-25
 70
     0
 41
2.5
 42
0.625
 43
3.75
 44
1.25
 73
     0
 74
     0
 77
     1
 78
     8
140
2.5
141
2.5
143
0.0393700787
147
0.625
171
     3
172
     1
178
     0
271
     2
272
     2
274
     3
278
    44
283
     0
284
     8
340
11
  0
ENDTAB
  0
TABLE
  2
BLOCK_RECORD
  5
1
330
0
100
AcDbSymbolTable
 70
     3
  0
BLOCK_RECORD
  5
1F
330
1
100
AcDbSymbolTableRecord
100
AcDbBlockTableRecord
  2
*Model_Space
340
22
  0
BLOCK_RECORD
  5
1B
330
1
100
AcDbSymbolTableRecord
100
AcDbBlockTableRecord
  2
*Paper_Space
340
1E
  0
BLOCK_RECORD
  5
23
330
1
100
AcDbSymbolTableRecord
100
AcDbBlockTableRecord
  2
*Paper_Space0
340
26
  0
BLOCK_RECORD
  5
211
330
1
100
AcDbSymbolTableRecord
100
AcDbBlockTableRecord
  2
SW_CENTERMARKSYMBOL_0
340
0
102
{BLKREFS
331
21C
102
}
  0
BLOCK_RECORD
  5
2E1
330
1
100
AcDbSymbolTableRecord
100
AcDbBlockTableRecord
  2
SW_CENTERMARKSYMBOL_1
340
0
102
{BLKREFS
331
2EC
102
}
  0
ENDTAB
  0
ENDSEC
  0
SECTION
  2
BLOCKS
  0
BLOCK
  5
20
330
1F
100
AcDbEntity
  8
0
100
AcDbBlockBegin
  2
*Model_Space
 70
     0
 10
0.0
 20
0.0
 30
0.0
  3
*Model_Space
  1

  0
ENDBLK
  5
21
330
1F
100
AcDbEntity
  8
0
100
AcDbBlockEnd
  0
BLOCK
  5
1C
330
1B
100
AcDbEntity
 67
     1
  8
0
100
AcDbBlockBegin
  2
*Paper_Space
 70
     0
 10
0.0
 20
0.0
 30
0.0
  3
*Paper_Space
  1

  0
ENDBLK
  5
1D
330
1B
100
AcDbEntity
 67
     1
  8
0
100
AcDbBlockEnd
  0
BLOCK
  5
24
330
23
100
AcDbEntity
  8
0
100
AcDbBlockBegin
  2
*Paper_Space0
 70
     0
 10
0.0
 20
0.0
 30
0.0
  3
*Paper_Space0
  1

  0
ENDBLK
  5
25
330
23
100
AcDbEntity
  8
0
100
AcDbBlockEnd
  0
BLOCK
  5
212
330
211
100
AcDbEntity
  8
0
100
AcDbBlockBegin
  2
SW_CENTERMARKSYMBOL_0
 70
     0
 10
0.0
 20
0.0
 30
0.0
  3
SW_CENTERMARKSYMBOL_0
  1

  0
LINE
  5
214
330
211
100
AcDbEntity
  8
0
  6
Continuous
 62
     0
370
    18
100
AcDbLine
 10
0.0
 20
0.0
 30
0.0
 11
0.0
 21
2.5
 31
0.0
  0
LINE
  5
215
330
211
100
AcDbEntity
  8
0
  6
Continuous
 62
     0
370
    18
100
AcDbLine
 10
0.0
 20
0.0
 30
0.0
 11
-2.5
 21
0.0
 31
0.0
  0
LINE
  5
216
330
211
100
AcDbEntity
  8
0
  6
Continuous
 62
     0
370
    18
100
AcDbLine
 10
0.0
 20
0.0
 30
0.0
 11
0.0
 21
-2.5
 31
0.0
  0
LINE
  5
217
330
211
100
AcDbEntity
  8
0
  6
Continuous
 62
     0
370
    18
100
AcDbLine
 10
0.0
 20
0.0
 30
0.0
 11
2.5
 21
0.0
 31
0.0
  0
LINE
  5
218
330
211
100
AcDbEntity
  8
0
  6
Continuous
 62
     0
370
    18
100
AcDbLine
 10
0.0
 20
5.0
 30
0.0
 11
0.0
 21
29.3149975729
 31
0.0
  0
LINE
  5
219
330
211
100
AcDbEntity
  8
0
  6
Continuous
 62
     0
370
    18
100
AcDbLine
 10
-5.0
 20
0.0
 30
0.0
 11
-11.85
 21
0.0
 31
0.0
  0
LINE
  5
21A
330
211
100
AcDbEntity
  8
0
  6
Continuous
 62
     0
370
    18
100
AcDbLine
 10
0.0
 20
-5.0
 30
0.0
 11
0.0
 21
-23.8592707347
 31
0.0
  0
LINE
  5
21B
330
211
100
AcDbEntity
  8
0
  6
Continuous
 62
     0
370
    18
100
AcDbLine
 10
5.0
 20
0.0
 30
0.0
 11
11.85
 21
0.0
 31
0.0
  0
ENDBLK
  5
213
330
211
100
AcDbEntity
  8
0
100
AcDbBlockEnd
  0
BLOCK
  5
2E2
330
2E1
100
AcDbEntity
  8
0
100
AcDbBlockBegin
  2
SW_CENTERMARKSYMBOL_1
 70
     0
 10
0.0
 20
0.0
 30
0.0
  3
SW_CENTERMARKSYMBOL_1
  1

  0
LINE
  5
2E4
330
2E1
100
AcDbEntity
  8
0
  6
Continuous
 62
     0
370
    18
100
AcDbLine
 10
0.0
 20
0.0
 30
0.0
 11
0.0
 21
2.5
 31
0.0
  0
LINE
  5
2E5
330
2E1
100
AcDbEntity
  8
0
  6
Continuous
 62
     0
370
    18
100
AcDbLine
 10
0.0
 20
0.0
 30
0.0
 11
-2.5
 21
0.0
 31
0.0
  0
LINE
  5
2E6
330
2E1
100
AcDbEntity
  8
0
  6
Continuous
 62
     0
370
    18
100
AcDbLine
 10
0.0
 20
0.0
 30
0.0
 11
0.0
 21
-2.5
 31
0.0
  0
LINE
  5
2E7
330
2E1
100
AcDbEntity
  8
0
  6
Continuous
 62
     0
370
    18
100
AcDbLine
 10
0.0
 20
0.0
 30
0.0
 11
2.5
 21
0.0
 31
0.0
  0
LINE
  5
2E8
330
2E1
100
AcDbEntity
  8
0
  6
Continuous
 62
     0
370
    18
100
AcDbLine
 10
0.0
 20
5.0
 30
0.0
 11
0.0
 21
9.95
 31
0.0
  0
LINE
  5
2E9
330
2E1
100
AcDbEntity
  8
0
  6
Continuous
 62
     0
370
    18
100
AcDbLine
 10
-5.0
 20
0.0
 30
0.0
 11
-58.8613666315
 21
0.0
 31
0.0
  0
LINE
  5
2EA
330
2E1
100
AcDbEntity
  8
0
  6
Continuous
 62
     0
370
    18
100
AcDbLine
 10
0.0
 20
-5.0
 30
0.0
 11
0.0
 21
-9.95
 31
0.0
  0
LINE
  5
2EB
330
2E1
100
AcDbEntity
  8
0
  6
Continuous
 62
     0
370
    18
100
AcDbLine
 10
5.0
 20
0.0
 30
0.0
 11
13.0602398615
 21
0.0
 31
0.0
  0
ENDBLK
  5
2E3
330
2E1
100
AcDbEntity
  8
0
100
AcDbBlockEnd
  0
ENDSEC
  0
SECTION
  2
ENTITIES
  0
MTEXT
  5
64
330
1F
100
AcDbEntity
  8
0
  6
Continuous
 62
     7
370
     0
100
AcDbMText
 10
195.8299041319
 20
120.3111100958
 30
0.0
 40
3.5
 41
0.0
 71
     1
 72
     1
  1
エースボール　アングル型　BY-3310R
  7
SLDTEXTSTYLE0
 73
     1
 44
1.0
  0
LINE
  5
65
330
1F
100
AcDbEntity
  8
0
  6
Continuous
 62
     7
370
    25
100
AcDbLine
 10
165.9749353365
 20
90.9878722047
 30
0.0
 11
165.0398270201
 21
89.3682170901
 31
0.0
  0
LINE
  5
66
330
1F
100
AcDbEntity
  8
0
  6
Continuous
 62
     7
370
    25
100
AcDbLine
 10
165.0398270201
 20
70.6682170901
 30
0.0
 11
165.9749353365
 21
69.0485619755
 31
0.0
  0
LINE
  5
67
330
1F
100
AcDbEntity
  8
0
  6
Continuous
 62
     7
370
    25
100
AcDbLine
 10
174.1047187037
 20
69.0485619755
 30
0.0
 11
175.0398270201
 21
70.6682170901
 31
0.0
  0
LINE
  5
68
330
1F
100
AcDbEntity
  8
0
  6
Continuous
 62
     7
370
    25
100
AcDbLine
 10
175.0398270201
 20
89.3682170901
 30
0.0
 11
174.1047187037
 21
90.9878722047
 31
0.0
  0
ARC
  5
69
330
1F
100
AcDbEntity
  8
0
  6
Continuous
 62
     7
370
    25
100
AcDbCircle
 10
176.7398270201
 20
89.0682170901
 30
0.0
 40
0.3000000000000398
100
AcDbArc
 50
0.0
 51
90.0
  0
ARC
  5
6A
330
1F
100
AcDbEntity
  8
0
  6
Continuous
 62
     7
370
    25
100
AcDbCircle
 10
176.7398270201
 20
70.9682170901
 30
0.0
 40
0.3000000000000398
100
AcDbArc
 50
270.0
 51
360.0
  0
LINE
  5
6B
330
1F
100
AcDbEntity
  8
0
  6
Continuous
 62
     7
370
    25
100
AcDbLine
 10
165.0398270201
 20
89.3682170901
 30
0.0
 11
163.3398270201
 21
89.3682170901
 31
0.0
  0
LINE
  5
6C
330
1F
100
AcDbEntity
  8
0
  6
Continuous
 62
     7
370
    25
100
AcDbLine
 10
163.3398270201
 20
70.6682170901
 30
0.0
 11
165.0398270201
 21
70.6682170901
 31
0.0
  0
LINE
  5
6D
330
1F
100
AcDbEntity
  8
0
  6
Continuous
 62
     7
370
    25
100
AcDbLine
 10
175.0398270201
 20
70.6682170901
 30
0.0
 11
176.7398270201
 21
70.6682170901
 31
0.0
  0
LINE
  5
6E
330
1F
100
AcDbEntity
  8
0
  6
Continuous
 62
     7
370
    25
100
AcDbLine
 10
176.7398270201
 20
89.3682170901
 30
0.0
 11
175.0398270201
 21
89.3682170901
 31
0.0
  0
ARC
  5
6F
330
1F
100
AcDbEntity
  8
0
  6
Continuous
 62
     7
370
    25
100
AcDbCircle
 10
163.3398270201
 20
70.9682170901
 30
0.0
 40
0.3000000000000114
100
AcDbArc
 50
180.0
 51
270.0
  0
ARC
  5
70
330
1F
100
AcDbEntity
  8
0
  6
Continuous
 62
     7
370
    25
100
AcDbCircle
 10
163.3398270201
 20
89.0682170901
 30
0.0
 40
0.3000000000000114
100
AcDbArc
 50
90.0
 51
180.0
  0
LINE
  5
71
330
1F
100
AcDbEntity
  8
0
  6
Continuous
 62
     7
370
    25
100
AcDbLine
 10
170.1202117778
 20
90.9878722047
 30
0.0
 11
170.0398270201
 21
90.6878722047
 31
0.0
  0
LINE
  5
72
330
1F
100
AcDbEntity
  8
0
  6
Continuous
 62
     7
370
    25
100
AcDbLine
 10
170.0398270201
 20
90.6878722047
 30
0.0
 11
169.9594422623
 21
90.9878722047
 31
0.0
  0
LINE
  5
73
330
1F
100
AcDbEntity
  8
0
  6
Continuous
 62
     7
370
    25
100
AcDbLine
 10
169.9594422623
 20
69.0485619755
 30
0.0
 11
170.0398270201
 21
69.3485619755
 31
0.0
  0
LINE
  5
74
330
1F
100
AcDbEntity
  8
0
  6
Continuous
 62
     7
370
    25
100
AcDbLine
 10
170.0398270201
 20
69.3485619755
 30
0.0
 11
170.1202117778
 21
69.0485619755
 31
0.0
  0
LINE
  5
75
330
1F
100
AcDbEntity
  8
0
  6
Continuous
 62
     7
370
    25
100
AcDbLine
 10
163.0398270201
 20
85.2682170901
 30
0.0
 11
158.5398270201
 21
85.2682170901
 31
0.0
  0
LINE
  5
76
330
1F
100
AcDbEntity
  8
0
  6
Continuous
 62
     7
370
    25
100
AcDbLine
 10
158.5398270201
 20
74.7682170901
 30
0.0
 11
163.0398270201
 21
74.7682170901
 31
0.0
  0
LINE
  5
77
330
1F
100
AcDbEntity
  8
0
  6
Continuous
 62
     7
370
    25
100
AcDbLine
 10
158.5398270201
 20
85.2682170901
 30
0.0
 11
154.5398270201
 21
84.5182170901
 31
0.0
  0
LINE
  5
78
330
1F
100
AcDbEntity
  8
0
  6
Continuous
 62
     7
370
    25
100
AcDbLine
 10
154.5398270201
 20
75.5182170901
 30
0.0
 11
158.5398270201
 21
74.7682170901
 31
0.0
  0
LINE
  5
79
330
1F
100
AcDbEntity
  8
0
  6
Continuous
 62
     7
370
    25
100
AcDbLine
 10
154.5398270201
 20
85.2682170901
 30
0.0
 11
150.5398270201
 21
84.5182170901
 31
0.0
  0
LINE
  5
7A
330
1F
100
AcDbEntity
  8
0
  6
Continuous
 62
     7
370
    25
100
AcDbLine
 10
150.5398270201
 20
75.5182170901
 30
0.0
 11
154.5398270201
 21
74.7682170901
 31
0.0
  0
LINE
  5
7B
330
1F
100
AcDbEntity
  8
0
  6
Continuous
 62
     7
370
    25
100
AcDbLine
 10
150.5398270201
 20
85.2682170901
 30
0.0
 11
146.5398270201
 21
84.5182170901
 31
0.0
  0
LINE
  5
7C
330
1F
100
AcDbEntity
  8
0
  6
Continuous
 62
     7
370
    25
100
AcDbLine
 10
146.5398270201
 20
75.5182170901
 30
0.0
 11
150.5398270201
 21
74.7682170901
 31
0.0
  0
LINE
  5
7D
330
1F
100
AcDbEntity
  8
0
  6
Continuous
 62
     7
370
    25
100
AcDbLine
 10
146.5398270201
 20
85.2682170901
 30
0.0
 11
142.5398270201
 21
84.5182170901
 31
0.0
  0
LINE
  5
7E
330
1F
100
AcDbEntity
  8
0
  6
Continuous
 62
     7
370
    25
100
AcDbLine
 10
142.5398270201
 20
75.5182170901
 30
0.0
 11
146.5398270201
 21
74.7682170901
 31
0.0
  0
LINE
  5
7F
330
1F
100
AcDbEntity
  8
0
  6
Continuous
 62
     7
370
    25
100
AcDbLine
 10
142.5398270201
 20
85.2682170901
 30
0.0
 11
136.9969698772
 21
84.5753599472
 31
0.0
  0
LINE
  5
80
330
1F
100
AcDbEntity
  8
0
  6
Continuous
 62
     7
370
    25
100
AcDbLine
 10
136.9969698772
 20
75.4610742329
 30
0.0
 11
142.5398270201
 21
74.7682170901
 31
0.0
  0
LINE
  5
81
330
1F
100
AcDbEntity
  8
0
  6
Continuous
 62
     7
370
    25
100
AcDbLine
 10
136.9969698772
 20
84.5753599472
 30
0.0
 11
136.5398270201
 21
84.1182170901
 31
0.0
  0
LINE
  5
82
330
1F
100
AcDbEntity
  8
0
  6
Continuous
 62
     7
370
    25
100
AcDbLine
 10
136.5398270201
 20
75.9182170901
 30
0.0
 11
136.9969698772
 21
75.4610742329
 31
0.0
  0
LINE
  5
83
330
1F
100
AcDbEntity
  8
0
  6
Continuous
 62
     7
370
    25
100
AcDbLine
 10
182.2489304857
 20
88.5182170901
 30
0.0
 11
179.2489304857
 21
88.5182170901
 31
0.0
  0
LINE
  5
84
330
1F
100
AcDbEntity
  8
0
  6
Continuous
 62
     7
370
    25
100
AcDbLine
 10
179.2489304857
 20
71.5182170901
 30
0.0
 11
182.2489304857
 21
71.5182170901
 31
0.0
  0
LINE
  5
85
330
1F
100
AcDbEntity
  8
0
  6
Continuous
 62
     7
370
    25
100
AcDbLine
 10
179.2489304857
 20
88.3492170901
 30
0.0
 11
177.0398270201
 21
88.3492170901
 31
0.0
  0
LINE
  5
86
330
1F
100
AcDbEntity
  8
0
  6
Continuous
 62
     7
370
    25
100
AcDbLine
 10
177.0398270201
 20
71.6872170901
 30
0.0
 11
179.2489304857
 21
71.6872170901
 31
0.0
  0
LINE
  5
87
330
1F
100
AcDbEntity
  8
0
  6
Continuous
 62
     7
370
    25
100
AcDbLine
 10
204.8900617386
 20
70.280612783
 30
0.0
 11
205.7489304857
 21
71.7682170901
 31
0.0
  0
LINE
  5
88
330
1F
100
AcDbEntity
  8
0
  6
Continuous
 62
     7
370
    25
100
AcDbLine
 10
205.7489304857
 20
88.2682170901
 30
0.0
 11
204.8900617386
 21
89.7558213971
 31
0.0
  0
LINE
  5
89
330
1F
100
AcDbEntity
  8
0
  6
Continuous
 62
     7
370
    25
100
AcDbLine
 10
185.2226179857
 20
69.5182170901
 30
0.0
 11
185.5482544911
 21
59.0978489161
 31
0.0
  0
LINE
  5
8A
330
1F
100
AcDbEntity
  8
0
  6
Continuous
 62
     7
370
    25
100
AcDbLine
 10
201.9496064803
 20
59.0978489161
 30
0.0
 11
202.2752429857
 21
69.5182170901
 31
0.0
  0
LINE
  5
8B
330
1F
100
AcDbEntity
  8
0
  6
Continuous
 62
     7
370
    25
100
AcDbLine
 10
185.5482544911
 20
59.0978489161
 30
0.0
 11
186.7489304857
 21
57.0182170901
 31
0.0
  0
LINE
  5
8C
330
1F
100
AcDbEntity
  8
0
  6
Continuous
 62
     7
370
    25
100
AcDbLine
 10
200.7489304857
 20
57.0182170901
 30
0.0
 11
201.9496064803
 21
59.0978489161
 31
0.0
  0
SPLINE
  5
8D
330
1F
100
AcDbEntity
  8
0
  6
Continuous
 62
     7
370
    25
100
AcDbSpline
210
0.0
220
0.0
230
1.0
 70
     8
 71
     3
 72
    11
 73
     7
 74
     0
 42
0.00000001
 43
0.00000001
 40
0.0
 40
0.0
 40
0.0
 40
0.0
 40
0.160579737921115
 40
0.5469602369621814
 40
0.8743537380038188
 40
1.0
 40
1.0
 40
1.0
 40
1.0
 10
199.9200707477319
 20
88.80798833787243
 30
0.0
 10
199.8890087218346
 20
88.83673903685565
 30
0.0
 10
199.7832065000521
 20
88.93466850997761
 30
0.0
 10
199.6844581093514
 20
89.1482886308319
 30
0.0
 10
199.6273191521166
 20
89.36423393430071
 30
0.0
 10
199.6347316236242
 20
89.48323092880477
 30
0.0
 10
199.6367874019754
 20
89.51623361150078
 30
0.0
  0
SPLINE
  5
8E
330
1F
100
AcDbEntity
  8
0
  6
Continuous
 62
     7
370
    25
100
AcDbSpline
210
0.0
220
0.0
230
1.0
 70
     8
 71
     3
 72
    10
 73
     6
 74
     0
 42
0.00000001
 43
0.00000001
 40
0.0
 40
0.0
 40
0.0
 40
0.0
 40
0.2874112292931918
 40
0.6452498605959146
 40
1.0
 40
1.0
 40
1.0
 40
1.0
 10
187.8592222414558
 20
89.51589568416111
 30
0.0
 10
187.8566654313337
 20
89.44089945967762
 30
0.0
 10
187.8509252889637
 20
89.27252989557883
 30
0.0
 10
187.7584367178231
 20
89.02164146669757
 30
0.0
 10
187.6398206827299
 20
88.87799597328453
 30
0.0
 10
187.5807697171314
 20
88.80648451968344
 30
0.0
  0
LINE
  5
8F
330
1F
100
AcDbEntity
  8
0
  6
Continuous
 62
     7
370
    25
100
AcDbLine
 10
199.6489304857
 20
89.51368627
 30
0.0
 11
199.6489304857
 21
90.5182170901
 31
0.0
  0
LINE
  5
90
330
1F
100
AcDbEntity
  8
0
  6
Continuous
 62
     7
370
    25
100
AcDbLine
 10
187.8489304857
 20
90.5182170901
 30
0.0
 11
187.8489304857
 21
89.5182170901
 31
0.0
  0
LINE
  5
91
330
1F
100
AcDbEntity
  8
0
  6
Continuous
 62
     7
370
    25
100
AcDbLine
 10
187.5787635784
 20
88.8129548194
 30
0.0
 11
187.0343993059
 21
89.7558213971
 31
0.0
  0
LINE
  5
92
330
1F
100
AcDbEntity
  8
0
  6
Continuous
 62
     7
370
    25
100
AcDbLine
 10
200.4634616655
 20
89.7558213971
 30
0.0
 11
199.919097393
 21
88.8129548194
 31
0.0
  0
LINE
  5
93
330
1F
100
AcDbEntity
  8
0
  6
Continuous
 62
     7
370
    25
100
AcDbLine
 10
182.9634616655
 20
89.7558213971
 30
0.0
 11
182.2489304857
 21
88.5182170901
 31
0.0
  0
LINE
  5
94
330
1F
100
AcDbEntity
  8
0
  6
Continuous
 62
     7
370
    25
100
AcDbLine
 10
182.2489304857
 20
71.5182170901
 30
0.0
 11
182.9634616655
 21
70.280612783
 31
0.0
  0
LINE
  5
95
330
1F
100
AcDbEntity
  8
0
  6
Continuous
 62
     7
370
    25
100
AcDbLine
 10
203.4865347927
 20
70.280612783
 30
0.0
 11
204.892629794
 21
70.280612783
 31
0.0
  0
LINE
  5
96
330
1F
100
AcDbEntity
  8
0
  6
Continuous
 62
     7
370
    25
100
AcDbLine
 10
203.4865347927
 20
69.5182170901
 30
0.0
 11
203.4865347927
 21
70.280612783
 31
0.0
  0
LINE
  5
97
330
1F
100
AcDbEntity
  8
0
  6
Continuous
 62
     7
370
    25
100
AcDbLine
 10
187.0369673613
 20
89.7558213971
 30
0.0
 11
182.9609012842
 21
89.7558213971
 31
0.0
  0
LINE
  5
98
330
1F
100
AcDbEntity
  8
0
  6
Continuous
 62
     7
370
    25
100
AcDbLine
 10
204.892629794
 20
89.7558213971
 30
0.0
 11
200.46089361
 21
89.7558213971
 31
0.0
  0
LINE
  5
99
330
1F
100
AcDbEntity
  8
0
  6
Continuous
 62
     7
370
    25
100
AcDbLine
 10
184.0113261787
 20
70.280612783
 30
0.0
 11
184.0113261787
 21
69.5182170901
 31
0.0
  0
LINE
  5
9A
330
1F
100
AcDbEntity
  8
0
  6
Continuous
 62
     7
370
    25
100
AcDbLine
 10
182.9609012842
 20
70.280612783
 30
0.0
 11
184.0113261787
 21
70.280612783
 31
0.0
  0
LINE
  5
9B
330
1F
100
AcDbEntity
  8
0
  6
Continuous
 62
     7
370
    25
100
AcDbLine
 10
201.1989304857
 20
98.5182170901
 30
0.0
 11
199.2489304857
 21
106.5182170901
 31
0.0
  0
LINE
  5
9C
330
1F
100
AcDbEntity
  8
0
  6
Continuous
 62
     7
370
    25
100
AcDbLine
 10
200.7489304857
 20
90.5182170901
 30
0.0
 11
201.1989304857
 21
98.5182170901
 31
0.0
  0
LINE
  5
9D
330
1F
100
AcDbEntity
  8
0
  6
Continuous
 62
     7
370
    25
100
AcDbLine
 10
186.6801850681
 20
91.7403578473
 30
0.0
 11
186.7489304857
 21
90.5182170901
 31
0.0
  0
LINE
  5
9E
330
1F
100
AcDbEntity
  8
0
  6
Continuous
 62
     7
370
    25
100
AcDbLine
 10
188.2489304857
 20
106.5182170901
 30
0.0
 11
187.9956989512
 21
105.4793184869
 31
0.0
  0
LINE
  5
9F
330
1F
100
AcDbEntity
  8
0
  6
Continuous
 62
     7
370
    25
100
AcDbLine
 10
170.0398270201
 20
74.2195319231
 30
0.0
 11
169.9594422623
 21
74.5333895328
 31
0.0
  0
LINE
  5
A0
330
1F
100
AcDbEntity
  8
0
  6
Continuous
 62
     7
370
    25
100
AcDbLine
 10
169.9594422623
 20
74.5333895328
 30
0.0
 11
170.0398270201
 21
75.161104752
 31
0.0
  0
LINE
  5
A1
330
1F
100
AcDbEntity
  8
0
  6
Continuous
 62
     7
370
    25
100
AcDbLine
 10
170.0398270201
 20
75.161104752
 30
0.0
 11
170.0398270201
 21
74.2195319231
 31
0.0
  0
LINE
  5
A2
330
1F
100
AcDbEntity
  8
0
  6
Continuous
 62
     7
370
    25
100
AcDbLine
 10
170.1202117778
 20
90.9878722047
 30
0.0
 11
174.1047187037
 21
90.9878722047
 31
0.0
  0
SPLINE
  5
A3
330
1F
100
AcDbEntity
  8
0
  6
Continuous
 62
     7
370
    25
100
AcDbSpline
210
0.0
220
0.0
230
1.0
 70
     8
 71
     3
 72
    14
 73
    10
 74
     0
 42
0.00000001
 43
0.00000001
 40
0.0
 40
0.0
 40
0.0
 40
0.0
 40
0.132317821819266
 40
0.2645982322802888
 40
0.3998378333746943
 40
0.5350530300363148
 40
0.6502539940279587
 40
0.765472928195101
 40
0.9999999999999999
 40
0.9999999999999999
 40
0.9999999999999999
 40
0.9999999999999999
 10
174.1047187036669
 20
90.98787220467224
 30
0.0
 10
174.2338835571997
 20
90.7509053089988
 30
0.0
 10
174.492176744373
 20
90.27703851734479
 30
0.0
 10
174.7701245706161
 20
89.54732007215522
 30
0.0
 10
174.937110216647
 20
88.80386840196043
 30
0.0
 10
174.9706224213993
 20
88.08726937552373
 30
0.0
 10
174.8834155738285
 20
87.40964616131552
 30
0.0
 10
174.6546941461644
 20
86.5533108212755
 30
0.0
 10
174.3254787129836
 20
85.92462123501505
 30
0.0
 10
174.1047187036669
 20
85.5030446473708
 30
0.0
  0
LINE
  5
A4
330
1F
100
AcDbEntity
  8
0
  6
Continuous
 62
     7
370
    25
100
AcDbLine
 10
170.1202117778
 20
85.5030446474
 30
0.0
 11
174.1047187037
 21
85.5030446474
 31
0.0
  0
LINE
  5
A5
330
1F
100
AcDbEntity
  8
0
  6
Continuous
 62
     7
370
    25
100
AcDbLine
 10
170.0398270201
 20
85.816902257
 30
0.0
 11
170.1202117778
 21
85.5030446474
 31
0.0
  0
LINE
  5
A6
330
1F
100
AcDbEntity
  8
0
  6
Continuous
 62
     7
370
    25
100
AcDbLine
 10
169.9594422623
 20
85.5030446474
 30
0.0
 11
170.0398270201
 21
85.816902257
 31
0.0
  0
LINE
  5
A7
330
1F
100
AcDbEntity
  8
0
  6
Continuous
 62
     7
370
    25
100
AcDbLine
 10
165.9749353365
 20
85.5030446474
 30
0.0
 11
169.9594422623
 21
85.5030446474
 31
0.0
  0
SPLINE
  5
A8
330
1F
100
AcDbEntity
  8
0
  6
Continuous
 62
     7
370
    25
100
AcDbSpline
210
0.0
220
0.0
230
1.0
 70
     8
 71
     3
 72
    14
 73
    10
 74
     0
 42
0.00000001
 43
0.00000001
 40
0.0
 40
0.0
 40
0.0
 40
0.0
 40
0.132317821819266
 40
0.2645982322802884
 40
0.3998378333746939
 40
0.5350530300363143
 40
0.6502539940279584
 40
0.7654729281951007
 40
0.9999999999999999
 40
0.9999999999999999
 40
0.9999999999999999
 40
0.9999999999999999
 10
165.9749353364876
 20
85.5030446473708
 30
0.0
 10
165.8457704829548
 20
85.74001154304423
 30
0.0
 10
165.5874772957816
 20
86.21387833469825
 30
0.0
 10
165.3095294695384
 20
86.94359677988781
 30
0.0
 10
165.1425438235075
 20
87.6870484500826
 30
0.0
 10
165.1090316187552
 20
88.40364747651931
 30
0.0
 10
165.196238466326
 20
89.08127069072751
 30
0.0
 10
165.4249598939901
 20
89.93760603076753
 30
0.0
 10
165.7541753271709
 20
90.56629561702799
 30
0.0
 10
165.9749353364876
 20
90.98787220467224
 30
0.0
  0
LINE
  5
A9
330
1F
100
AcDbEntity
  8
0
  6
Continuous
 62
     7
370
    25
100
AcDbLine
 10
165.9749353365
 20
90.9878722047
 30
0.0
 11
169.9594422623
 21
90.9878722047
 31
0.0
  0
LINE
  5
AA
330
1F
100
AcDbEntity
  8
0
  6
Continuous
 62
     7
370
    25
100
AcDbLine
 10
170.0398270201
 20
90.6740145951
 30
0.0
 11
169.9594422623
 21
90.9878722047
 31
0.0
  0
LINE
  5
AB
330
1F
100
AcDbEntity
  8
0
  6
Continuous
 62
     7
370
    25
100
AcDbLine
 10
170.1202117778
 20
90.9878722047
 30
0.0
 11
170.0398270201
 21
90.6740145951
 31
0.0
  0
SPLINE
  5
AC
330
1F
100
AcDbEntity
  8
0
  6
Continuous
 62
     7
370
    25
100
AcDbSpline
210
0.0
220
0.0
230
1.0
 70
     8
 71
     3
 72
    14
 73
    10
 74
     0
 42
0.00000001
 43
0.00000001
 40
0.0
 40
0.0
 40
0.0
 40
0.0
 40
0.1866151452866858
 40
0.3749110662891219
 40
0.5002361356890618
 40
0.6255612592069744
 40
0.7542273933745189
 40
0.8829289977247436
 40
1.0
 40
1.0
 40
1.0
 40
1.0
 10
174.1047187036669
 20
85.5030446473708
 30
0.0
 10
174.2829845899045
 20
84.8333497419965
 30
0.0
 10
174.6411219393121
 20
83.4879282293076
 30
0.0
 10
174.90312493978
 20
81.6443357055379
 30
0.0
 10
174.9723832476502
 20
80.0152252207632
 30
0.0
 10
174.9131360678476
 20
78.60679761422753
 30
0.0
 10
174.7330377307147
 20
77.19658271109749
 30
0.0
 10
174.4612356380362
 20
75.83231215342956
 30
0.0
 10
174.2197484129159
 20
74.95248516887283
 30
0.0
 10
174.1047187036669
 20
74.5333895327679
 30
0.0
  0
LINE
  5
AD
330
1F
100
AcDbEntity
  8
0
  6
Continuous
 62
     7
370
    25
100
AcDbLine
 10
170.1202117778
 20
74.5333895328
 30
0.0
 11
174.1047187037
 21
74.5333895328
 31
0.0
  0
LINE
  5
AE
330
1F
100
AcDbEntity
  8
0
  6
Continuous
 62
     7
370
    25
100
AcDbLine
 10
170.0398270201
 20
75.161104752
 30
0.0
 11
170.1202117778
 21
74.5333895328
 31
0.0
  0
LINE
  5
AF
330
1F
100
AcDbEntity
  8
0
  6
Continuous
 62
     7
370
    25
100
AcDbLine
 10
165.9749353365
 20
74.5333895328
 30
0.0
 11
169.9594422623
 21
74.5333895328
 31
0.0
  0
SPLINE
  5
B0
330
1F
100
AcDbEntity
  8
0
  6
Continuous
 62
     7
370
    25
100
AcDbSpline
210
0.0
220
0.0
230
1.0
 70
     8
 71
     3
 72
    14
 73
    10
 74
     0
 42
0.00000001
 43
0.00000001
 40
0.0
 40
0.0
 40
0.0
 40
0.0
 40
0.1187857262003507
 40
0.2441770919383205
 40
0.3695364010689739
 40
0.497990368099822
 40
0.6264438955669189
 40
0.8122362427248249
 40
1.0
 40
1.0
 40
1.0
 40
1.0
 10
165.9749353364876
 20
74.53338953276788
 30
0.0
 10
165.858286884357
 20
74.95864682582778
 30
0.0
 10
165.618503193745
 20
75.8328098458003
 30
0.0
 10
165.3503587727309
 20
77.17918530958994
 30
0.0
 10
165.1692310880814
 20
78.57610867726952
 30
0.0
 10
165.106351503739
 20
79.99544907147569
 30
0.0
 10
165.1759495866254
 20
81.63859909855077
 30
0.0
 10
165.4389436843207
 20
83.48857275702048
 30
0.0
 10
165.7956439674405
 20
84.82919567664973
 30
0.0
 10
165.9749353364876
 20
85.5030446473708
 30
0.0
  0
LINE
  5
B1
330
1F
100
AcDbEntity
  8
0
  6
Continuous
 62
     7
370
    25
100
AcDbLine
 10
170.0398270201
 20
84.8753294281
 30
0.0
 11
169.9594422623
 21
85.5030446474
 31
0.0
  0
LINE
  5
B2
330
1F
100
AcDbEntity
  8
0
  6
Continuous
 62
     7
370
    25
100
AcDbLine
 10
170.1202117778
 20
85.5030446474
 30
0.0
 11
170.0398270201
 21
84.8753294281
 31
0.0
  0
LINE
  5
B3
330
1F
100
AcDbEntity
  8
0
  6
Continuous
 62
     7
370
    25
100
AcDbLine
 10
170.0398270201
 20
85.816902257
 30
0.0
 11
170.0398270201
 21
84.8753294281
 31
0.0
  0
SPLINE
  5
B4
330
1F
100
AcDbEntity
  8
0
  6
Continuous
 62
     7
370
    25
100
AcDbSpline
210
0.0
220
0.0
230
1.0
 70
     8
 71
     3
 72
    14
 73
    10
 74
     0
 42
0.00000001
 43
0.00000001
 40
0.0
 40
0.0
 40
0.0
 40
0.0
 40
0.132317821819266
 40
0.2645982322802884
 40
0.3998378333746939
 40
0.5350530300363142
 40
0.6502539940279582
 40
0.7654729281951006
 40
0.9999999999999999
 40
0.9999999999999999
 40
0.9999999999999999
 40
0.9999999999999999
 10
174.1047187036669
 20
74.5333895327679
 30
0.0
 10
174.2338835571997
 20
74.29642263709447
 30
0.0
 10
174.492176744373
 20
73.82255584544045
 30
0.0
 10
174.7701245706161
 20
73.09283740025089
 30
0.0
 10
174.937110216647
 20
72.34938573005608
 30
0.0
 10
174.9706224213993
 20
71.63278670361939
 30
0.0
 10
174.8834155738285
 20
70.95516348941119
 30
0.0
 10
174.6546941461644
 20
70.09882814937116
 30
0.0
 10
174.3254787129836
 20
69.47013856311071
 30
0.0
 10
174.1047187036669
 20
69.04856197546647
 30
0.0
  0
LINE
  5
B5
330
1F
100
AcDbEntity
  8
0
  6
Continuous
 62
     7
370
    25
100
AcDbLine
 10
170.1202117778
 20
69.0485619755
 30
0.0
 11
174.1047187037
 21
69.0485619755
 31
0.0
  0
LINE
  5
B6
330
1F
100
AcDbEntity
  8
0
  6
Continuous
 62
     7
370
    25
100
AcDbLine
 10
170.0398270201
 20
69.3624195851
 30
0.0
 11
170.1202117778
 21
69.0485619755
 31
0.0
  0
LINE
  5
B7
330
1F
100
AcDbEntity
  8
0
  6
Continuous
 62
     7
370
    25
100
AcDbLine
 10
169.9594422623
 20
69.0485619755
 30
0.0
 11
170.0398270201
 21
69.3624195851
 31
0.0
  0
LINE
  5
B8
330
1F
100
AcDbEntity
  8
0
  6
Continuous
 62
     7
370
    25
100
AcDbLine
 10
165.9749353365
 20
69.0485619755
 30
0.0
 11
169.9594422623
 21
69.0485619755
 31
0.0
  0
SPLINE
  5
B9
330
1F
100
AcDbEntity
  8
0
  6
Continuous
 62
     7
370
    25
100
AcDbSpline
210
0.0
220
0.0
230
1.0
 70
     8
 71
     3
 72
    14
 73
    10
 74
     0
 42
0.00000001
 43
0.00000001
 40
0.0
 40
0.0
 40
0.0
 40
0.0
 40
0.1323178218192658
 40
0.2645982322802884
 40
0.3998378333746938
 40
0.5350530300363142
 40
0.6502539940279582
 40
0.7654729281951006
 40
0.9999999999999999
 40
0.9999999999999999
 40
0.9999999999999999
 40
0.9999999999999999
 10
165.9749353364876
 20
69.04856197546647
 30
0.0
 10
165.8457704829548
 20
69.2855288711399
 30
0.0
 10
165.5874772957816
 20
69.7593956627939
 30
0.0
 10
165.3095294695384
 20
70.48911410798347
 30
0.0
 10
165.1425438235075
 20
71.23256577817827
 30
0.0
 10
165.1090316187552
 20
71.94916480461497
 30
0.0
 10
165.196238466326
 20
72.62678801882316
 30
0.0
 10
165.4249598939901
 20
73.48312335886318
 30
0.0
 10
165.7541753271709
 20
74.11181294512365
 30
0.0
 10
165.9749353364876
 20
74.5333895327679
 30
0.0
  0
LINE
  5
BA
330
1F
100
AcDbEntity
  8
0
  6
Continuous
 62
     7
370
    25
100
AcDbLine
 10
170.1202117778
 20
74.5333895328
 30
0.0
 11
170.0398270201
 21
74.2195319231
 31
0.0
  0
LINE
  5
BB
330
1F
100
AcDbEntity
  8
0
  6
Continuous
 62
     7
370
    25
100
AcDbLine
 10
165.0398270201
 20
80.0182170901
 30
0.0
 11
165.0398270201
 21
89.3682170901
 31
0.0
  0
LINE
  5
BC
330
1F
100
AcDbEntity
  8
0
  6
Continuous
 62
     7
370
    25
100
AcDbLine
 10
165.0398270201
 20
70.6682170901
 30
0.0
 11
165.0398270201
 21
80.0182170901
 31
0.0
  0
LINE
  5
BD
330
1F
100
AcDbEntity
  8
0
  6
Continuous
 62
     7
370
    25
100
AcDbLine
 10
175.0398270201
 20
89.3682170901
 30
0.0
 11
175.0398270201
 21
70.6682170901
 31
0.0
  0
LINE
  5
BE
330
1F
100
AcDbEntity
  8
0
  6
Continuous
 62
     7
370
    25
100
AcDbLine
 10
177.0398270201
 20
89.0682170901
 30
0.0
 11
177.0398270201
 21
70.9682170901
 31
0.0
  0
LINE
  5
BF
330
1F
100
AcDbEntity
  8
0
  6
Continuous
 62
     7
370
    25
100
AcDbLine
 10
163.0398270201
 20
80.0182170901
 30
0.0
 11
163.0398270201
 21
89.0682170901
 31
0.0
  0
LINE
  5
C0
330
1F
100
AcDbEntity
  8
0
  6
Continuous
 62
     7
370
    25
100
AcDbLine
 10
163.0398270201
 20
70.9682170901
 30
0.0
 11
163.0398270201
 21
80.0182170901
 31
0.0
  0
LINE
  5
C1
330
1F
100
AcDbEntity
  8
0
  6
Continuous
 62
     7
370
    25
100
AcDbLine
 10
170.0398270201
 20
90.6878722047
 30
0.0
 11
170.0398270201
 21
90.6740145951
 31
0.0
  0
LINE
  5
C2
330
1F
100
AcDbEntity
  8
0
  6
Continuous
 62
     7
370
    25
100
AcDbLine
 10
170.0398270201
 20
69.3624195851
 30
0.0
 11
170.0398270201
 21
69.3485619755
 31
0.0
  0
LINE
  5
C3
330
1F
100
AcDbEntity
  8
0
  6
Continuous
 62
     7
370
    25
100
AcDbLine
 10
158.5398270201
 20
85.2682170901
 30
0.0
 11
158.5398270201
 21
74.7682170901
 31
0.0
  0
LINE
  5
C4
330
1F
100
AcDbEntity
  8
0
  6
Continuous
 62
     7
370
    25
100
AcDbLine
 10
154.5398270201
 20
85.2682170901
 30
0.0
 11
154.5398270201
 21
74.7682170901
 31
0.0
  0
LINE
  5
C5
330
1F
100
AcDbEntity
  8
0
  6
Continuous
 62
     7
370
    25
100
AcDbLine
 10
150.5398270201
 20
85.2682170901
 30
0.0
 11
150.5398270201
 21
74.7682170901
 31
0.0
  0
LINE
  5
C6
330
1F
100
AcDbEntity
  8
0
  6
Continuous
 62
     7
370
    25
100
AcDbLine
 10
146.5398270201
 20
85.2682170901
 30
0.0
 11
146.5398270201
 21
74.7682170901
 31
0.0
  0
LINE
  5
C7
330
1F
100
AcDbEntity
  8
0
  6
Continuous
 62
     7
370
    25
100
AcDbLine
 10
142.5398270201
 20
85.2682170901
 30
0.0
 11
142.5398270201
 21
74.7682170901
 31
0.0
  0
LINE
  5
C8
330
1F
100
AcDbEntity
  8
0
  6
Continuous
 62
     7
370
    25
100
AcDbLine
 10
136.9969698772
 20
80.0182170901
 30
0.0
 11
136.9969698772
 21
75.4610742329
 31
0.0
  0
LINE
  5
C9
330
1F
100
AcDbEntity
  8
0
  6
Continuous
 62
     7
370
    25
100
AcDbLine
 10
136.9969698772
 20
84.5753599472
 30
0.0
 11
136.9969698772
 21
80.0182170901
 31
0.0
  0
LINE
  5
CA
330
1F
100
AcDbEntity
  8
0
  6
Continuous
 62
     7
370
    25
100
AcDbLine
 10
136.5398270201
 20
80.0182170901
 30
0.0
 11
136.5398270201
 21
84.1182170901
 31
0.0
  0
LINE
  5
CB
330
1F
100
AcDbEntity
  8
0
  6
Continuous
 62
     7
370
    25
100
AcDbLine
 10
136.5398270201
 20
75.9182170901
 30
0.0
 11
136.5398270201
 21
80.0182170901
 31
0.0
  0
LINE
  5
CC
330
1F
100
AcDbEntity
  8
0
  6
Continuous
 62
     7
370
    25
100
AcDbLine
 10
179.2489304857
 20
81.1477826558
 30
0.0
 11
179.2489304857
 21
88.5182170901
 31
0.0
  0
LINE
  5
CD
330
1F
100
AcDbEntity
  8
0
  6
Continuous
 62
     7
370
    25
100
AcDbLine
 10
179.2489304857
 20
71.5182170901
 30
0.0
 11
179.2489304857
 21
81.1477826558
 31
0.0
  0
LINE
  5
CE
330
1F
100
AcDbEntity
  8
0
  6
Continuous
 62
     7
370
    25
100
AcDbLine
 10
182.2489304857
 20
81.1477826558
 30
0.0
 11
182.2489304857
 21
88.5182170901
 31
0.0
  0
LINE
  5
CF
330
1F
100
AcDbEntity
  8
0
  6
Continuous
 62
     7
370
    25
100
AcDbLine
 10
182.2489304857
 20
71.5182170901
 30
0.0
 11
182.2489304857
 21
81.1477826558
 31
0.0
  0
SPLINE
  5
D0
330
1F
100
AcDbEntity
  8
0
  6
Continuous
 62
     7
370
    25
100
AcDbSpline
210
0.0
220
0.0
230
1.0
 70
     8
 71
     3
 72
    22
 73
    18
 74
     0
 42
0.00000001
 43
0.00000001
 40
0.0
 40
0.0
 40
0.0
 40
0.0
 40
0.2499999999999979
 40
0.2499999999999979
 40
0.3749999999999969
 40
0.3749999999999969
 40
0.4374999999999972
 40
0.4374999999999972
 40
0.4999999999999974
 40
0.4999999999999974
 40
0.5624999999999978
 40
0.5624999999999978
 40
0.6249999999999982
 40
0.6249999999999982
 40
0.7499999999999988
 40
0.7499999999999988
 40
1.0
 40
1.0
 40
1.0
 40
1.0
 10
193.079598843193
 20
69.51821709006934
 30
0.0
 10
193.1490439347801
 20
69.34376682086986
 30
0.0
 10
193.2261160344694
 20
69.17163011064176
 30
0.0
 10
193.3756025675063
 20
68.93378353430208
 30
0.0
 10
193.4317461310516
 20
68.85663214109424
 30
0.0
 10
193.5349377396285
 20
68.7601772843405
 30
0.0
 10
193.5730378647273
 20
68.7311514801485
 30
0.0
 10
193.6567470716885
 20
68.6889159173888
 30
0.0
 10
193.7036156663993
 20
68.67587320690092
 30
0.0
 10
193.79819094406
 20
68.67657562553663
 30
0.0
 10
193.8449036902683
 20
68.69022904822697
 30
0.0
 10
193.9289816844929
 20
68.7339081440838
 30
0.0
 10
193.9663481856956
 20
68.76296447250967
 30
0.0
 10
194.0693838641056
 20
68.86058025645139
 30
0.0
 10
194.1240059337702
 20
68.93626584993702
 30
0.0
 10
194.2731274511274
 20
69.17444101215166
 30
0.0
 10
194.3495940616781
 20
69.34571875481848
 30
0.0
 10
194.4182621281998
 20
69.51821709006933
 30
0.0
  0
LINE
  5
D1
330
1F
100
AcDbEntity
  8
0
  6
Continuous
 62
     7
370
    25
100
AcDbLine
 10
193.0795988432
 20
69.5182170901
 30
0.0
 11
189.1301283322
 21
69.5182170901
 31
0.0
  0
LINE
  5
D2
330
1F
100
AcDbEntity
  8
0
  6
Continuous
 62
     7
370
    25
100
AcDbLine
 10
189.1301283322
 20
72.0518205502
 30
0.0
 11
189.1301283322
 21
69.5182170901
 31
0.0
  0
SPLINE
  5
D3
330
1F
100
AcDbEntity
  8
0
  6
Continuous
 62
     7
370
    25
100
AcDbSpline
210
0.0
220
0.0
230
1.0
 70
     8
 71
     3
 72
     8
 73
     4
 74
     0
 42
0.00000001
 43
0.00000001
 40
0.0
 40
0.0
 40
0.0
 40
0.0
 40
1.0
 40
1.0
 40
1.0
 40
1.0
 10
189.1301283321793
 20
72.05182055021434
 30
0.0
 10
189.3353141547227
 20
72.10838151733857
 30
0.0
 10
189.5415373554299
 20
72.1623215887524
 30
0.0
 10
189.7489304856964
 20
72.21330587849536
 30
0.0
  0
LINE
  5
D4
330
1F
100
AcDbEntity
  8
0
  6
Continuous
 62
     7
370
    25
100
AcDbLine
 10
189.7489304857
 20
76.0182170901
 30
0.0
 11
187.2326944087
 21
76.0182170901
 31
0.0
  0
SPLINE
  5
D5
330
1F
100
AcDbEntity
  8
0
  6
Continuous
 62
     7
370
    25
100
AcDbSpline
210
0.0
220
0.0
230
1.0
 70
     8
 71
     3
 72
     8
 73
     4
 74
     0
 42
0.00000001
 43
0.00000001
 40
0.0
 40
0.0
 40
0.0
 40
0.0
 40
1.0
 40
1.0
 40
1.0
 40
1.0
 10
187.0712090804362
 20
75.3994149365523
 30
0.0
 10
187.1277724499044
 20
75.60460947406207
 30
0.0
 10
187.1817123727257
 20
75.81083312757923
 30
0.0
 10
187.2326944087172
 20
76.01821709006934
 30
0.0
  0
LINE
  5
D6
330
1F
100
AcDbEntity
  8
0
  6
Continuous
 62
     7
370
    25
100
AcDbLine
 10
182.926651891
 20
75.3994149366
 30
0.0
 11
187.0712090804
 21
75.3994149366
 31
0.0
  0
SPLINE
  5
D7
330
1F
100
AcDbEntity
  8
0
  6
Continuous
 62
     7
370
    25
100
AcDbSpline
210
0.0
220
0.0
230
1.0
 70
     8
 71
     3
 72
    10
 73
     6
 74
     0
 42
0.00000001
 43
0.00000001
 40
0.0
 40
0.0
 40
0.0
 40
0.0
 40
0.5
 40
0.5
 40
1.0
 40
1.0
 40
1.0
 40
1.0
 10
182.9266518909566
 20
75.39941493655233
 30
0.0
 10
182.7185832147254
 20
76.15422420960162
 30
0.0
 10
182.5481842087008
 20
76.91497059683353
 30
0.0
 10
182.313024229002
 20
78.45311297445679
 30
0.0
 10
182.2489304856964
 20
79.23061412698159
 30
0.0
 10
182.2489304856964
 20
80.01821709006934
 30
0.0
  0
SPLINE
  5
D8
330
1F
100
AcDbEntity
  8
0
  6
Continuous
 62
     7
370
    25
100
AcDbSpline
210
0.0
220
0.0
230
1.0
 70
     8
 71
     3
 72
    12
 73
     8
 74
     0
 42
0.00000001
 43
0.00000001
 40
0.0
 40
0.0
 40
0.0
 40
0.0
 40
0.2500000000000001
 40
0.2500000000000001
 40
0.5000000000000001
 40
0.5000000000000001
 40
1.0
 40
1.0
 40
1.0
 40
1.0
 10
182.2489304856964
 20
80.01821709006934
 30
0.0
 10
182.2489304856964
 20
80.4125351707412
 30
0.0
 10
182.2649292906775
 20
80.80619421469163
 30
0.0
 10
182.3266994289918
 20
81.58573021423696
 30
0.0
 10
182.3724415532934
 20
81.97268340236238
 30
0.0
 10
182.5491117006403
 20
83.12606996521639
 30
0.0
 10
182.7193667661206
 20
83.88505245442141
 30
0.0
 10
182.9266518909566
 20
84.63701924358635
 30
0.0
  0
LINE
  5
D9
330
1F
100
AcDbEntity
  8
0
  6
Continuous
 62
     7
370
    25
100
AcDbLine
 10
187.0712090804
 20
84.6370192436
 30
0.0
 11
182.926651891
 21
84.6370192436
 31
0.0
  0
SPLINE
  5
DA
330
1F
100
AcDbEntity
  8
0
  6
Continuous
 62
     7
370
    25
100
AcDbSpline
210
0.0
220
0.0
230
1.0
 70
     8
 71
     3
 72
     8
 73
     4
 74
     0
 42
0.00000001
 43
0.00000001
 40
0.0
 40
0.0
 40
0.0
 40
0.0
 40
1.0
 40
1.0
 40
1.0
 40
1.0
 10
187.2326944087172
 20
84.01821709006934
 30
0.0
 10
187.1817956917947
 20
84.22526212849834
 30
0.0
 10
187.1278615555439
 20
84.43150145817498
 30
0.0
 10
187.0712090804362
 20
84.63701924358635
 30
0.0
  0
LINE
  5
DB
330
1F
100
AcDbEntity
  8
0
  6
Continuous
 62
     7
370
    25
100
AcDbLine
 10
200.2651665627
 20
84.0182170901
 30
0.0
 11
187.2326944087
 21
84.0182170901
 31
0.0
  0
SPLINE
  5
DC
330
1F
100
AcDbEntity
  8
0
  6
Continuous
 62
     7
370
    25
100
AcDbSpline
210
0.0
220
0.0
230
1.0
 70
     8
 71
     3
 72
     8
 73
     4
 74
     0
 42
0.00000001
 43
0.00000001
 40
0.0
 40
0.0
 40
0.0
 40
0.0
 40
1.0
 40
1.0
 40
1.0
 40
1.0
 10
200.2651665626756
 20
84.01821709006941
 30
0.0
 10
200.3160627959306
 20
84.22525202547318
 30
0.0
 10
200.3699967508943
 20
84.43149179053817
 30
0.0
 10
200.4266518909566
 20
84.63701924358637
 30
0.0
  0
LINE
  5
DD
330
1F
100
AcDbEntity
  8
0
  6
Continuous
 62
     7
370
    25
100
AcDbLine
 10
204.9268715131
 20
84.6370192436
 30
0.0
 11
200.426651891
 21
84.6370192436
 31
0.0
  0
SPLINE
  5
DE
330
1F
100
AcDbEntity
  8
0
  6
Continuous
 62
     7
370
    25
100
AcDbSpline
210
0.0
220
0.0
230
1.0
 70
     8
 71
     3
 72
    14
 73
    10
 74
     0
 42
0.00000001
 43
0.00000001
 40
0.0
 40
0.0
 40
0.0
 40
0.0
 40
0.25
 40
0.25
 40
0.5
 40
0.5
 40
0.75
 40
0.75
 40
1.0
 40
1.0
 40
1.0
 40
1.0
 10
204.9268715131388
 20
75.39941493655229
 30
0.0
 10
205.1348218738446
 20
76.15379499720228
 30
0.0
 10
205.3070436825334
 20
76.92323616466777
 30
0.0
 10
205.5416788052843
 20
78.46374752560894
 30
0.0
 10
205.604622863912
 20
79.23860190561597
 30
0.0
 10
205.6045629511806
 20
80.79896286050152
 30
0.0
 10
205.5399482848884
 20
81.58941905328653
 30
0.0
 10
205.3033889454872
 20
83.131698716095
 30
0.0
 10
205.1330438054078
 20
83.8890894692962
 30
0.0
 10
204.9268715131388
 20
84.63701924358635
 30
0.0
  0
LINE
  5
DF
330
1F
100
AcDbEntity
  8
0
  6
Continuous
 62
     7
370
    25
100
AcDbLine
 10
200.426651891
 20
75.3994149366
 30
0.0
 11
204.9268715131
 21
75.3994149366
 31
0.0
  0
SPLINE
  5
E0
330
1F
100
AcDbEntity
  8
0
  6
Continuous
 62
     7
370
    25
100
AcDbSpline
210
0.0
220
0.0
230
1.0
 70
     8
 71
     3
 72
     8
 73
     4
 74
     0
 42
0.00000001
 43
0.00000001
 40
0.0
 40
0.0
 40
0.0
 40
0.0
 40
1.0
 40
1.0
 40
1.0
 40
1.0
 10
200.4266518909566
 20
75.39941493655232
 30
0.0
 10
200.3700900475196
 20
75.60460393808913
 30
0.0
 10
200.3161500302632
 20
75.81082730415382
 30
0.0
 10
200.2651665626756
 20
76.01821709006929
 30
0.0
  0
LINE
  5
E1
330
1F
100
AcDbEntity
  8
0
  6
Continuous
 62
     7
370
    25
100
AcDbLine
 10
200.2651665627
 20
76.0182170901
 30
0.0
 11
197.7489304857
 21
76.0182170901
 31
0.0
  0
LINE
  5
E2
330
1F
100
AcDbEntity
  8
0
  6
Continuous
 62
     7
370
    25
100
AcDbLine
 10
197.7489304857
 20
72.2133058785
 30
0.0
 11
197.7489304857
 21
76.0182170901
 31
0.0
  0
SPLINE
  5
E3
330
1F
100
AcDbEntity
  8
0
  6
Continuous
 62
     7
370
    25
100
AcDbSpline
210
0.0
220
0.0
230
1.0
 70
     8
 71
     3
 72
     8
 73
     4
 74
     0
 42
0.00000001
 43
0.00000001
 40
0.0
 40
0.0
 40
0.0
 40
0.0
 40
1.0
 40
1.0
 40
1.0
 40
1.0
 10
197.7489304856964
 20
72.21330587849536
 30
0.0
 10
197.9559595490318
 20
72.16241108879454
 30
0.0
 10
198.1621995663011
 20
72.1084772394331
 30
0.0
 10
198.3677326392134
 20
72.05182055021434
 30
0.0
  0
LINE
  5
E4
330
1F
100
AcDbEntity
  8
0
  6
Continuous
 62
     7
370
    25
100
AcDbLine
 10
198.3677326392
 20
69.5182170901
 30
0.0
 11
198.3677326392
 21
72.0518205502
 31
0.0
  0
LINE
  5
E5
330
1F
100
AcDbEntity
  8
0
  6
Continuous
 62
     7
370
    25
100
AcDbLine
 10
198.3677326392
 20
69.5182170901
 30
0.0
 11
194.4182621282
 21
69.5182170901
 31
0.0
  0
LINE
  5
E6
330
1F
100
AcDbEntity
  8
0
  6
Continuous
 62
     7
370
    25
100
AcDbLine
 10
192.8471715717
 20
78.5958440725
 30
0.0
 11
192.8055212524
 21
78.5720391426
 31
0.0
  0
ELLIPSE
  5
E7
330
1F
100
AcDbEntity
  8
0
  6
Continuous
 62
     7
370
    25
100
AcDbEllipse
 10
192.4566780729
 20
79.1267216138
 30
0.0
 11
0.678412947925267
 21
6.110667527536863E-13
 31
0.0
210
0.0
220
0.0
230
1.0
 40
0.9533039403
 41
3.470145824140285
 42
5.252469180536262
  0
LINE
  5
E8
330
1F
100
AcDbEntity
  8
0
  6
Continuous
 62
     7
370
    25
100
AcDbLine
 10
191.8145533059
 20
78.9180374989
 30
0.0
 11
190.554899101
 21
82.4404818955
 31
0.0
  0
ELLIPSE
  5
E9
330
1F
100
AcDbEntity
  8
0
  6
Continuous
 62
     7
370
    25
100
AcDbEllipse
 10
189.963916543
 20
82.1781426595
 30
0.0
 11
0.6519124952381219
 21
6.110667527536862E-13
 31
0.0
210
0.0
220
0.0
230
1.0
 40
0.9533023292
 41
0.4357905044354886
 42
2.705800116361559
  0
LINE
  5
EA
330
1F
100
AcDbEntity
  8
0
  6
Continuous
 62
     7
370
    25
100
AcDbLine
 10
189.3729345445
 20
82.4404830408
 30
0.0
 11
188.1135697429
 21
78.9188596391
 31
0.0
  0
ELLIPSE
  5
EB
330
1F
100
AcDbEntity
  8
0
  6
Continuous
 62
     7
370
    25
100
AcDbEllipse
 10
187.4714485589
 20
79.1275424727
 30
0.0
 11
-0.6784085062757867
 21
3.126388037344441E-13
 31
0.0
210
0.0
220
0.0
230
1.0
 40
0.9533122623
 41
1.047193771187909
 42
2.813042320199902
  0
LINE
  5
EC
330
1F
100
AcDbEntity
  8
0
  6
Continuous
 62
     7
370
    25
100
AcDbLine
 10
187.1322420849
 20
78.5674546275
 30
0.0
 11
187.0806615144
 21
78.5958440725
 31
0.0
  0
LINE
  5
ED
330
1F
100
AcDbEntity
  8
0
  6
Continuous
 62
     7
370
    25
100
AcDbLine
 10
187.0806615144
 20
78.5958440725
 30
0.0
 11
187.8769301739
 21
77.0776719711
 31
0.0
  0
ELLIPSE
  5
EE
330
1F
100
AcDbEntity
  8
0
  6
Continuous
 62
     7
370
    25
100
AcDbEllipse
 10
187.9527790473
 20
77.113825486
 30
0.0
 11
0.08480161849067258
 21
-2.842170943040401E-14
 31
0.0
210
0.0
220
0.0
230
1.0
 40
0.9533039403
 41
3.605240262591132
 42
5.462183310215191
  0
ELLIPSE
  5
EF
330
1F
100
AcDbEntity
  8
0
  6
Continuous
 62
     7
370
    25
100
AcDbEllipse
 10
189.963916543
 20
75.0549768655
 30
0.0
 11
2.866293551216188
 21
-1.492139745096211E-12
 31
0.0
210
0.0
220
0.0
230
1.0
 40
0.9533046568
 41
0.8210016221243813
 42
2.320591031466455
  0
ELLIPSE
  5
F0
330
1F
100
AcDbEntity
  8
0
  6
Continuous
 62
     7
370
    25
100
AcDbEllipse
 10
191.9750540388
 20
77.113825486
 30
0.0
 11
0.08480161849061574
 21
0.0
 31
0.0
210
0.0
220
0.0
230
1.0
 40
0.9533039403
 41
3.962594650556491
 42
5.819537698177178
  0
LINE
  5
F1
330
1F
100
AcDbEntity
  8
0
  6
Continuous
 62
     7
370
    25
100
AcDbLine
 10
192.0509029122
 20
77.0776719711
 30
0.0
 11
192.8471715717
 21
78.5958440725
 31
0.0
  0
ARC
  5
F2
330
1F
100
AcDbEntity
  8
0
  6
Continuous
 62
     7
370
    25
100
AcDbCircle
 10
198.6418064378
 20
79.4412980968
 30
0.0
 40
0.8889999999999969
100
AcDbArc
 50
45.0
 51
159.0751675724
  0
LINE
  5
F3
330
1F
100
AcDbEntity
  8
0
  6
Continuous
 62
     7
370
    25
100
AcDbLine
 10
199.2704243662
 20
80.0699160252
 30
0.0
 11
199.7370347519
 21
80.5365264109
 31
0.0
  0
ARC
  5
F4
330
1F
100
AcDbEntity
  8
0
  6
Continuous
 62
     7
370
    25
100
AcDbCircle
 10
198.6418064378
 20
79.4412980968
 30
0.0
 40
1.548886735692373
100
AcDbArc
 50
45.0
 51
315.0
  0
LINE
  5
F5
330
1F
100
AcDbEntity
  8
0
  6
Continuous
 62
     7
370
    25
100
AcDbLine
 10
199.7370347519
 20
78.3460697827
 30
0.0
 11
199.2704243662
 21
78.8126801683
 31
0.0
  0
ARC
  5
F6
330
1F
100
AcDbEntity
  8
0
  6
Continuous
 62
     7
370
    25
100
AcDbCircle
 10
198.6418064378
 20
79.4412980968
 30
0.0
 40
0.889000000000017
100
AcDbArc
 50
200.9248324276
 51
315.0
  0
LINE
  5
F7
330
1F
100
AcDbEntity
  8
0
  6
Continuous
 62
     7
370
    25
100
AcDbLine
 10
197.811436189
 20
79.1237980968
 30
0.0
 11
199.7370347519
 21
79.1237980968
 31
0.0
  0
LINE
  5
F8
330
1F
100
AcDbEntity
  8
0
  6
Continuous
 62
     7
370
    25
100
AcDbLine
 10
199.7370347519
 20
79.1237980968
 30
0.0
 11
199.7370347519
 21
79.7587980968
 31
0.0
  0
LINE
  5
F9
330
1F
100
AcDbEntity
  8
0
  6
Continuous
 62
     7
370
    25
100
AcDbLine
 10
199.7370347519
 20
79.7587980968
 30
0.0
 11
197.811436189
 21
79.7587980968
 31
0.0
  0
ARC
  5
FA
330
1F
100
AcDbEntity
  8
0
  6
Continuous
 62
     7
370
    25
100
AcDbCircle
 10
195.2996618414
 20
79.4412980968
 30
0.0
 40
0.889000000000007
100
AcDbArc
 50
45.0
 51
315.0
  0
LINE
  5
FB
330
1F
100
AcDbEntity
  8
0
  6
Continuous
 62
     7
370
    25
100
AcDbLine
 10
195.9282797699
 20
80.0699160252
 30
0.0
 11
196.3948901555
 21
80.5365264109
 31
0.0
  0
ARC
  5
FC
330
1F
100
AcDbEntity
  8
0
  6
Continuous
 62
     7
370
    25
100
AcDbCircle
 10
195.2996618414
 20
79.4412980968
 30
0.0
 40
1.548886735692404
100
AcDbArc
 50
45.0
 51
315.0
  0
LINE
  5
FD
330
1F
100
AcDbEntity
  8
0
  6
Continuous
 62
     7
370
    25
100
AcDbLine
 10
196.3948901555
 20
78.3460697827
 30
0.0
 11
195.9282797699
 21
78.8126801683
 31
0.0
  0
LINE
  5
FE
330
1F
100
AcDbEntity
  8
0
  6
Continuous
 62
     7
370
    25
100
AcDbLine
 10
189.7489304857
 20
72.2133058785
 30
0.0
 11
189.7489304857
 21
76.0182170901
 31
0.0
  0
LINE
  5
FF
330
1F
100
AcDbEntity
  8
0
  6
Continuous
 62
     7
370
    25
100
AcDbLine
 10
187.7489304857
 20
87.3794330222
 30
0.0
 11
187.7489304857
 21
84.0182170901
 31
0.0
  0
SPLINE
  5
100
330
1F
100
AcDbEntity
  8
0
  6
Continuous
 62
     7
370
    25
100
AcDbSpline
210
0.0
220
0.0
230
1.0
 70
     8
 71
     3
 72
    10
 73
     6
 74
     0
 42
0.00000001
 43
0.00000001
 40
0.0
 40
0.0
 40
0.0
 40
0.0
 40
0.5
 40
0.5
 40
1.0
 40
1.0
 40
1.0
 40
1.0
 10
187.0712090804362
 20
85.07003194547858
 30
0.0
 10
187.0475336860118
 20
85.02708841457735
 30
0.0
 10
187.0344425761272
 20
84.96364596995322
 30
0.0
 10
187.0343562548389
 20
84.81116713283426
 30
0.0
 10
187.0475251887827
 20
84.72293713072699
 30
0.0
 10
187.0712090804362
 20
84.63701924358635
 30
0.0
  0
SPLINE
  5
101
330
1F
100
AcDbEntity
  8
0
  6
Continuous
 62
     7
370
    25
100
AcDbSpline
210
0.0
220
0.0
230
1.0
 70
     8
 71
     3
 72
    12
 73
     8
 74
     0
 42
0.00000001
 43
0.00000001
 40
0.0
 40
0.0
 40
0.0
 40
0.0
 40
0.2500000000000001
 40
0.2500000000000001
 40
0.5000000000000002
 40
0.5000000000000002
 40
1.0
 40
1.0
 40
1.0
 40
1.0
 10
187.7489304856964
 20
87.37943302223708
 30
0.0
 10
187.7489304856964
 20
87.18369075935757
 30
0.0
 10
187.7330875496074
 20
86.987024150167
 30
0.0
 10
187.6715846893698
 20
86.59775592283872
 30
0.0
 10
187.6259810483261
 20
86.4043518898858
 30
0.0
 10
187.4495300308369
 20
85.82742283862905
 30
0.0
 10
187.279132663585
 20
85.44717340542604
 30
0.0
 10
187.0712090804362
 20
85.07003194547858
 30
0.0
  0
SPLINE
  5
102
330
1F
100
AcDbEntity
  8
0
  6
Continuous
 62
     7
370
    25
100
AcDbSpline
210
0.0
220
0.0
230
1.0
 70
     8
 71
     3
 72
     8
 73
     4
 74
     0
 42
0.00000001
 43
0.00000001
 40
0.0
 40
0.0
 40
0.0
 40
0.0
 40
1.0
 40
1.0
 40
1.0
 40
1.0
 10
199.8703139771926
 20
73.6080955567441
 30
0.0
 10
199.8291987015513
 20
73.74412595123366
 30
0.0
 10
199.7887097186834
 20
73.88083001587108
 30
0.0
 10
199.7489304856964
 20
74.01821709006934
 30
0.0
  0
LINE
  5
103
330
1F
100
AcDbEntity
  8
0
  6
Continuous
 62
     7
370
    25
100
AcDbLine
 10
199.7489304857
 20
76.0182170901
 30
0.0
 11
199.7489304857
 21
74.0182170901
 31
0.0
  0
SPLINE
  5
104
330
1F
100
AcDbEntity
  8
0
  6
Continuous
 62
     7
370
    25
100
AcDbSpline
210
0.0
220
0.0
230
1.0
 70
     8
 71
     3
 72
    10
 73
     6
 74
     0
 42
0.00000001
 43
0.00000001
 40
0.0
 40
0.0
 40
0.0
 40
0.0
 40
0.5
 40
0.5
 40
1.0
 40
1.0
 40
1.0
 40
1.0
 10
200.4266518909533
 20
74.96640223466012
 30
0.0
 10
200.4503272853777
 20
75.00934576556128
 30
0.0
 10
200.4634183952656
 20
75.07278821018507
 30
0.0
 10
200.4635047165539
 20
75.22526704730416
 30
0.0
 10
200.4503357826101
 20
75.31349704941158
 30
0.0
 10
200.4266518909566
 20
75.39941493655233
 30
0.0
  0
SPLINE
  5
105
330
1F
100
AcDbEntity
  8
0
  6
Continuous
 62
     7
370
    25
100
AcDbSpline
210
0.0
220
0.0
230
1.0
 70
     8
 71
     3
 72
     8
 73
     4
 74
     0
 42
0.00000001
 43
0.00000001
 40
0.0
 40
0.0
 40
0.0
 40
0.0
 40
1.0
 40
1.0
 40
1.0
 40
1.0
 10
199.8703139771926
 20
73.6080955567441
 30
0.0
 10
199.9859465872216
 20
74.06664648880187
 30
0.0
 10
200.179835992042
 20
74.51871608456013
 30
0.0
 10
200.4266518909564
 20
74.96640223465987
 30
0.0
  0
LINE
  5
106
330
1F
100
AcDbEntity
  8
0
  6
Continuous
 62
     7
370
    25
100
AcDbLine
 10
204.9268715131
 20
74.9664022347
 30
0.0
 11
200.426651891
 21
74.9664022347
 31
0.0
  0
SPLINE
  5
107
330
1F
100
AcDbEntity
  8
0
  6
Continuous
 62
     7
370
    25
100
AcDbSpline
210
0.0
220
0.0
230
1.0
 70
     8
 71
     3
 72
    10
 73
     6
 74
     0
 42
0.00000001
 43
0.00000001
 40
0.0
 40
0.0
 40
0.0
 40
0.0
 40
0.5
 40
0.5
 40
1.0
 40
1.0
 40
1.0
 40
1.0
 10
204.9268715131387
 20
75.39941493655233
 30
0.0
 10
204.9031961187143
 20
75.31352787474988
 30
0.0
 10
204.8901050088297
 20
75.22612066576974
 30
0.0
 10
204.8900186875415
 20
75.07348422317601
 30
0.0
 10
204.9031876214853
 20
75.00936117823042
 30
0.0
 10
204.9268715131388
 20
74.96640223466012
 30
0.0
  0
LINE
  5
108
330
1F
100
AcDbEntity
  8
0
  6
Continuous
 62
     7
370
    25
100
AcDbLine
 10
182.2489304857
 20
80.0182170901
 30
0.0
 11
182.2489304857
 21
72.6570011579
 31
0.0
  0
SPLINE
  5
109
330
1F
100
AcDbEntity
  8
0
  6
Continuous
 62
     7
370
    25
100
AcDbSpline
210
0.0
220
0.0
230
1.0
 70
     8
 71
     3
 72
    10
 73
     6
 74
     0
 42
0.00000001
 43
0.00000001
 40
0.0
 40
0.0
 40
0.0
 40
0.0
 40
0.5
 40
0.5
 40
1.0
 40
1.0
 40
1.0
 40
1.0
 10
182.9266518909566
 20
75.39941493655233
 30
0.0
 10
182.9503257915125
 20
75.31353329404587
 30
0.0
 10
182.9634183486917
 20
75.22612408808045
 30
0.0
 10
182.9635047626739
 20
75.07348160300552
 30
0.0
 10
182.9503343710753
 20
75.00935861792316
 30
0.0
 10
182.9266518909566
 20
74.96640223466012
 30
0.0
  0
SPLINE
  5
10A
330
1F
100
AcDbEntity
  8
0
  6
Continuous
 62
     7
370
    25
100
AcDbSpline
210
0.0
220
0.0
230
1.0
 70
     8
 71
     3
 72
    12
 73
     8
 74
     0
 42
0.00000001
 43
0.00000001
 40
0.0
 40
0.0
 40
0.0
 40
0.0
 40
0.2499999999999999
 40
0.2499999999999999
 40
0.4999999999999998
 40
0.4999999999999998
 40
1.0
 40
1.0
 40
1.0
 40
1.0
 10
182.2489304856964
 20
72.6570011579016
 30
0.0
 10
182.2489304856964
 20
72.8520046379074
 30
0.0
 10
182.2646768157183
 20
73.04853929693182
 30
0.0
 10
182.3261218403038
 20
73.43795898453736
 30
0.0
 10
182.3717105995575
 20
73.63144367759763
 30
0.0
 10
182.5481616018141
 20
74.20862727635323
 30
0.0
 10
182.7186193037776
 20
74.5890630581362
 30
0.0
 10
182.9266518909564
 20
74.96640223466014
 30
0.0
  0
SPLINE
  5
10B
330
1F
100
AcDbEntity
  8
0
  6
Continuous
 62
     7
370
    25
100
AcDbSpline
210
0.0
220
0.0
230
1.0
 70
     8
 71
     3
 72
    10
 73
     6
 74
     0
 42
0.00000001
 43
0.00000001
 40
0.0
 40
0.0
 40
0.0
 40
0.0
 40
0.5
 40
0.5
 40
1.0
 40
1.0
 40
1.0
 40
1.0
 10
200.4266518909566
 20
84.63701924358635
 30
0.0
 10
200.450327285381
 20
84.72290630538882
 30
0.0
 10
200.4634183952656
 20
84.81031351436891
 30
0.0
 10
200.4635047165539
 20
84.96294995696265
 30
0.0
 10
200.4503357826101
 20
85.02707300190824
 30
0.0
 10
200.4266518909566
 20
85.07003194547855
 30
0.0
  0
LINE
  5
10C
330
1F
100
AcDbEntity
  8
0
  6
Continuous
 62
     7
370
    25
100
AcDbLine
 10
200.426651891
 20
85.0700319455
 30
0.0
 11
204.9268715131
 21
85.0700319455
 31
0.0
  0
SPLINE
  5
10D
330
1F
100
AcDbEntity
  8
0
  6
Continuous
 62
     7
370
    25
100
AcDbSpline
210
0.0
220
0.0
230
1.0
 70
     8
 71
     3
 72
    10
 73
     6
 74
     0
 42
0.00000001
 43
0.00000001
 40
0.0
 40
0.0
 40
0.0
 40
0.0
 40
0.5
 40
0.5
 40
1.0
 40
1.0
 40
1.0
 40
1.0
 10
204.9268715131388
 20
85.07003194547858
 30
0.0
 10
204.9031961187144
 20
85.02708841457735
 30
0.0
 10
204.8901050088297
 20
84.96364596995322
 30
0.0
 10
204.8900186875415
 20
84.81116713283426
 30
0.0
 10
204.9031876214853
 20
84.72293713072699
 30
0.0
 10
204.9268715131388
 20
84.63701924358635
 30
0.0
  0
LINE
  5
10E
330
1F
100
AcDbEntity
  8
0
  6
Continuous
 62
     7
370
    25
100
AcDbLine
 10
182.2489304857
 20
80.0182170901
 30
0.0
 11
182.2489304857
 21
87.3794330222
 31
0.0
  0
SPLINE
  5
10F
330
1F
100
AcDbEntity
  8
0
  6
Continuous
 62
     7
370
    25
100
AcDbSpline
210
0.0
220
0.0
230
1.0
 70
     8
 71
     3
 72
    10
 73
     6
 74
     0
 42
0.00000001
 43
0.00000001
 40
0.0
 40
0.0
 40
0.0
 40
0.0
 40
0.5
 40
0.5
 40
1.0
 40
1.0
 40
1.0
 40
1.0
 10
182.9266518909561
 20
85.07003194547855
 30
0.0
 10
182.7178419662899
 20
85.44878109286984
 30
0.0
 10
182.5473078265426
 20
85.82998636928113
 30
0.0
 10
182.3125220215237
 20
86.59921699046892
 30
0.0
 10
182.2489304856964
 20
86.98728469526725
 30
0.0
 10
182.2489304856964
 20
87.37943302223708
 30
0.0
  0
SPLINE
  5
110
330
1F
100
AcDbEntity
  8
0
  6
Continuous
 62
     7
370
    25
100
AcDbSpline
210
0.0
220
0.0
230
1.0
 70
     8
 71
     3
 72
    10
 73
     6
 74
     0
 42
0.00000001
 43
0.00000001
 40
0.0
 40
0.0
 40
0.0
 40
0.0
 40
0.5
 40
0.5
 40
1.0
 40
1.0
 40
1.0
 40
1.0
 10
182.9266518909566
 20
85.07003194547858
 30
0.0
 10
182.9503241308682
 20
85.02709413637933
 30
0.0
 10
182.9634181208034
 20
84.96365354648714
 30
0.0
 10
182.9635049882648
 20
84.8111644009783
 30
0.0
 10
182.9503351985055
 20
84.72293501177498
 30
0.0
 10
182.9266518909566
 20
84.63701924358635
 30
0.0
  0
SPLINE
  5
111
330
1F
100
AcDbEntity
  8
0
  6
Continuous
 62
     7
370
    25
100
AcDbSpline
210
0.0
220
0.0
230
1.0
 70
     8
 71
     3
 72
    10
 73
     6
 74
     0
 42
0.00000001
 43
0.00000001
 40
0.0
 40
0.0
 40
0.0
 40
0.0
 40
0.5
 40
0.5
 40
1.0
 40
1.0
 40
1.0
 40
1.0
 10
187.0712090804361
 20
75.39941493655233
 30
0.0
 10
187.0475336860117
 20
75.3135278747499
 30
0.0
 10
187.0344425761272
 20
75.22612066576976
 30
0.0
 10
187.0343562548389
 20
75.07348422317601
 30
0.0
 10
187.0475251887827
 20
75.00936117823042
 30
0.0
 10
187.0712090804362
 20
74.96640223466012
 30
0.0
  0
LINE
  5
112
330
1F
100
AcDbEntity
  8
0
  6
Continuous
 62
     7
370
    25
100
AcDbLine
 10
187.0712090804
 20
74.9664022347
 30
0.0
 11
182.926651891
 21
74.9664022347
 31
0.0
  0
LINE
  5
113
330
1F
100
AcDbEntity
  8
0
  6
Continuous
 62
     7
370
    25
100
AcDbLine
 10
182.926651891
 20
85.0700319455
 30
0.0
 11
187.0712090804
 21
85.0700319455
 31
0.0
  0
SPLINE
  5
114
330
1F
100
AcDbEntity
  8
0
  6
Continuous
 62
     7
370
    25
100
AcDbSpline
210
0.0
220
0.0
230
1.0
 70
     8
 71
     3
 72
    10
 73
     6
 74
     0
 42
0.00000001
 43
0.00000001
 40
0.0
 40
0.0
 40
0.0
 40
0.0
 40
0.5
 40
0.5
 40
1.0
 40
1.0
 40
1.0
 40
1.0
 10
188.6971156302872
 20
72.05182055021434
 30
0.0
 10
188.7400591611884
 20
72.02814515578996
 30
0.0
 10
188.8035016058125
 20
72.01505404590532
 30
0.0
 10
188.9559804429315
 20
72.01496772461704
 30
0.0
 10
189.0442104450387
 20
72.02813665856088
 30
0.0
 10
189.1301283321794
 20
72.05182055021433
 30
0.0
  0
LINE
  5
115
330
1F
100
AcDbEntity
  8
0
  6
Continuous
 62
     7
370
    25
100
AcDbLine
 10
188.6971156303
 20
69.5182170901
 30
0.0
 11
189.1301283322
 21
69.5182170901
 31
0.0
  0
LINE
  5
116
330
1F
100
AcDbEntity
  8
0
  6
Continuous
 62
     7
370
    25
100
AcDbLine
 10
188.6971156303
 20
69.5182170901
 30
0.0
 11
188.6971156303
 21
72.0518205502
 31
0.0
  0
LINE
  5
117
330
1F
100
AcDbEntity
  8
0
  6
Continuous
 62
     7
370
    25
100
AcDbLine
 10
187.7489304857
 20
76.0182170901
 30
0.0
 11
187.7489304857
 21
74.0182170901
 31
0.0
  0
SPLINE
  5
118
330
1F
100
AcDbEntity
  8
0
  6
Continuous
 62
     7
370
    25
100
AcDbSpline
210
0.0
220
0.0
230
1.0
 70
     8
 71
     3
 72
     8
 73
     4
 74
     0
 42
0.00000001
 43
0.00000001
 40
0.0
 40
0.0
 40
0.0
 40
0.0
 40
1.0
 40
1.0
 40
1.0
 40
1.0
 10
187.7489304856964
 20
74.01821709006934
 30
0.0
 10
187.7091518275062
 20
73.88083200106924
 30
0.0
 10
187.668662864678
 20
73.74412791925747
 30
0.0
 10
187.6275469942002
 20
73.6080955567441
 30
0.0
  0
SPLINE
  5
119
330
1F
100
AcDbEntity
  8
0
  6
Continuous
 62
     7
370
    25
100
AcDbSpline
210
0.0
220
0.0
230
1.0
 70
     8
 71
     3
 72
     8
 73
     4
 74
     0
 42
0.00000001
 43
0.00000001
 40
0.0
 40
0.0
 40
0.0
 40
0.0
 40
1.0
 40
1.0
 40
1.0
 40
1.0
 10
187.0712090804362
 20
74.96640223466012
 30
0.0
 10
187.3183828613201
 20
74.5180669416088
 30
0.0
 10
187.5121045296241
 20
74.0658924508652
 30
0.0
 10
187.6275469942002
 20
73.6080955567441
 30
0.0
  0
LINE
  5
11A
330
1F
100
AcDbEntity
  8
0
  6
Continuous
 62
     7
370
    25
100
AcDbLine
 10
199.7489304857
 20
87.3794330222
 30
0.0
 11
199.7489304857
 21
84.0182170901
 31
0.0
  0
SPLINE
  5
11B
330
1F
100
AcDbEntity
  8
0
  6
Continuous
 62
     7
370
    25
100
AcDbSpline
210
0.0
220
0.0
230
1.0
 70
     8
 71
     3
 72
    10
 73
     6
 74
     0
 42
0.00000001
 43
0.00000001
 40
0.0
 40
0.0
 40
0.0
 40
0.0
 40
0.5
 40
0.5
 40
1.0
 40
1.0
 40
1.0
 40
1.0
 10
200.4266518909566
 20
85.07003194547855
 30
0.0
 10
200.2182311381392
 20
85.4480751948807
 30
0.0
 10
200.0477673028617
 20
85.82884469967657
 30
0.0
 10
199.8127848679233
 20
86.5979932252341
 30
0.0
 10
199.7489304856964
 20
86.98641995340935
 30
0.0
 10
199.7489304856964
 20
87.37943302223708
 30
0.0
  0
SPLINE
  5
11C
330
1F
100
AcDbEntity
  8
0
  6
Continuous
 62
     7
370
    25
100
AcDbSpline
210
0.0
220
0.0
230
1.0
 70
     8
 71
     3
 72
    16
 73
    12
 74
     0
 42
0.00000001
 43
0.00000001
 40
0.0
 40
0.0
 40
0.0
 40
0.0
 40
0.2500000000000001
 40
0.2500000000000001
 40
0.5000000000000001
 40
0.5000000000000001
 40
0.6250000000000001
 40
0.6250000000000001
 40
0.7500000000000002
 40
0.7500000000000002
 40
1.0
 40
1.0
 40
1.0
 40
1.0
 10
204.9268715131388
 20
89.68883409899559
 30
0.0
 10
205.1348869612445
 20
89.31152601011908
 30
0.0
 10
205.3050932662175
 20
88.93150227974489
 30
0.0
 10
205.5400292977851
 20
88.16387896433419
 30
0.0
 10
205.6041014294488
 20
87.77623214754539
 30
0.0
 10
205.6048343783698
 20
87.18791159565754
 30
0.0
 10
205.5891748982868
 20
86.9908384031019
 30
0.0
 10
205.5278997716498
 20
86.6007814255478
 30
0.0
 10
205.4823434991507
 20
86.40698852495976
 30
0.0
 10
205.3058574663944
 20
85.82890754019634
 30
0.0
 10
205.1352010129087
 20
85.44790967586151
 30
0.0
 10
204.9268715131388
 20
85.07003194547858
 30
0.0
  0
SPLINE
  5
11D
330
1F
100
AcDbEntity
  8
0
  6
Continuous
 62
     7
370
    25
100
AcDbSpline
210
0.0
220
0.0
230
1.0
 70
     8
 71
     3
 72
    10
 73
     6
 74
     0
 42
0.00000001
 43
0.00000001
 40
0.0
 40
0.0
 40
0.0
 40
0.0
 40
0.1601790552921226
 40
0.7197651707803578
 40
1.0
 40
1.0
 40
1.0
 40
1.0
 10
204.8926420800219
 20
89.75111237774533
 30
0.0
 10
204.8918792899286
 20
89.75250460577169
 30
0.0
 10
204.8884516898549
 20
89.75876058750002
 30
0.0
 10
204.9029591546532
 20
89.73225332277211
 30
0.0
 10
204.920888707771
 20
89.69969746762695
 30
0.0
 10
204.9268715131388
 20
89.68883409899559
 30
0.0
  0
SPLINE
  5
11E
330
1F
100
AcDbEntity
  8
0
  6
Continuous
 62
     7
370
    25
100
AcDbSpline
210
0.0
220
0.0
230
1.0
 70
     8
 71
     3
 72
     9
 73
     5
 74
     0
 42
0.00000001
 43
0.00000001
 40
0.0
 40
0.0
 40
0.0
 40
0.0
 40
0.5797912171256352
 40
1.0
 40
1.0
 40
1.0
 40
1.0
 10
204.9268715131388
 20
70.34760008114311
 30
0.0
 10
204.9145129097923
 20
70.32512643290198
 30
0.0
 10
204.8931972999979
 20
70.28636481048116
 30
0.0
 10
204.8928063574951
 20
70.28563040572296
 30
0.0
 10
204.8926420800219
 20
70.28532180239337
 30
0.0
  0
SPLINE
  5
11F
330
1F
100
AcDbEntity
  8
0
  6
Continuous
 62
     7
370
    25
100
AcDbSpline
210
0.0
220
0.0
230
1.0
 70
     8
 71
     3
 72
    16
 73
    12
 74
     0
 42
0.00000001
 43
0.00000001
 40
0.0
 40
0.0
 40
0.0
 40
0.0
 40
0.2500000000000001
 40
0.2500000000000001
 40
0.5000000000000002
 40
0.5000000000000002
 40
0.6250000000000001
 40
0.6250000000000001
 40
0.7500000000000001
 40
0.7500000000000001
 40
1.0
 40
1.0
 40
1.0
 40
1.0
 10
204.9268715131388
 20
74.96640223466012
 30
0.0
 10
205.1348869612445
 20
74.58909414578363
 30
0.0
 10
205.3050932662175
 20
74.20907041540941
 30
0.0
 10
205.5400292977851
 20
73.44144709999873
 30
0.0
 10
205.6041014294488
 20
73.05380028320992
 30
0.0
 10
205.6048343783698
 20
72.46547973132209
 30
0.0
 10
205.5891748982868
 20
72.26840653876643
 30
0.0
 10
205.5278997716498
 20
71.87834956121233
 30
0.0
 10
205.4823434991507
 20
71.6845566606243
 30
0.0
 10
205.3058574663944
 20
71.10647567586086
 30
0.0
 10
205.1352010129087
 20
70.72547781152605
 30
0.0
 10
204.9268715131388
 20
70.34760008114311
 30
0.0
  0
LINE
  5
120
330
1F
100
AcDbEntity
  8
0
  6
Continuous
 62
     7
370
    25
100
AcDbLine
 10
205.7489304857
 20
88.2682170901
 30
0.0
 11
205.7489304857
 21
71.7682170901
 31
0.0
  0
LINE
  5
121
330
1F
100
AcDbEntity
  8
0
  6
Continuous
 62
     7
370
    25
100
AcDbLine
 10
185.5482544911
 20
59.0978489161
 30
0.0
 11
201.9496064803
 21
59.0978489161
 31
0.0
  0
SPLINE
  5
122
330
1F
100
AcDbEntity
  8
0
  6
Continuous
 62
     7
370
    25
100
AcDbSpline
210
0.0
220
0.0
230
1.0
 70
     8
 71
     3
 72
    22
 73
    18
 74
     0
 42
0.00000001
 43
0.00000001
 40
0.0
 40
0.0
 40
0.0
 40
0.0
 40
0.249999999999999
 40
0.249999999999999
 40
0.3749999999999976
 40
0.3749999999999976
 40
0.4374999999999975
 40
0.4374999999999975
 40
0.4999999999999973
 40
0.4999999999999973
 40
0.5624999999999972
 40
0.5624999999999972
 40
0.6249999999999971
 40
0.6249999999999971
 40
0.7499999999999972
 40
0.7499999999999972
 40
1.0
 40
1.0
 40
1.0
 40
1.0
 10
186.7223803747803
 20
69.51821709006934
 30
0.0
 10
186.6876461994029
 20
69.34370839243378
 30
0.0
 10
186.6490537478841
 20
69.17136993553392
 30
0.0
 10
186.5743248028384
 20
68.93363450222685
 30
0.0
 10
186.5463818815448
 20
68.85685193284482
 30
0.0
 10
186.4949033048783
 20
68.76049753633525
 30
0.0
 10
186.4760475787714
 20
68.73172393587313
 30
0.0
 10
186.4345709851666
 20
68.68951037084418
 30
0.0
 10
186.4111923735414
 20
68.67613727288168
 30
0.0
 10
186.3637873631392
 20
68.67629766747821
 30
0.0
 10
186.340368567776
 20
68.6898023595976
 30
0.0
 10
186.2985395583077
 20
68.73279380233505
 30
0.0
 10
186.2796223431371
 20
68.76197843850579
 30
0.0
 10
186.2283403719575
 20
68.85861108897245
 30
0.0
 10
186.2005240296841
 20
68.9352723344686
 30
0.0
 10
186.1258443534653
 20
69.17348277450249
 30
0.0
 10
186.0877072753338
 20
69.34408837835807
 30
0.0
 10
186.0530487322768
 20
69.51821709006921
 30
0.0
  0
SPLINE
  5
123
330
1F
100
AcDbEntity
  8
0
  6
Continuous
 62
     7
370
    25
100
AcDbSpline
210
0.0
220
0.0
230
1.0
 70
     8
 71
     3
 72
    22
 73
    18
 74
     0
 42
0.00000001
 43
0.00000001
 40
0.0
 40
0.0
 40
0.0
 40
0.0
 40
0.2499999999999977
 40
0.2499999999999977
 40
0.3749999999999955
 40
0.3749999999999955
 40
0.4374999999999958
 40
0.4374999999999958
 40
0.4999999999999961
 40
0.4999999999999961
 40
0.5624999999999964
 40
0.5624999999999964
 40
0.6249999999999967
 40
0.6249999999999967
 40
0.7499999999999978
 40
0.7499999999999978
 40
1.0
 40
1.0
 40
1.0
 40
1.0
 10
201.4448122391158
 20
69.51821709006934
 30
0.0
 10
201.4100780637384
 20
69.34370839243373
 30
0.0
 10
201.3714856122195
 20
69.1713699355338
 30
0.0
 10
201.2967566671738
 20
68.9336345022267
 30
0.0
 10
201.2688137458802
 20
68.85685193284465
 30
0.0
 10
201.2173351692137
 20
68.76049753633508
 30
0.0
 10
201.1984794431067
 20
68.73172393587296
 30
0.0
 10
201.1570028495018
 20
68.689510370844
 30
0.0
 10
201.1336242378767
 20
68.67613727288162
 30
0.0
 10
201.0862192274744
 20
68.6762976674783
 30
0.0
 10
201.0628004321113
 20
68.68980235959773
 30
0.0
 10
201.020971422643
 20
68.73279380233524
 30
0.0
 10
201.0020542074724
 20
68.76197843850603
 30
0.0
 10
200.9507722362929
 20
68.85861108897272
 30
0.0
 10
200.9229558940195
 20
68.93527233446896
 30
0.0
 10
200.8482762178008
 20
69.17348277450266
 30
0.0
 10
200.8101391396693
 20
69.34408837835817
 30
0.0
 10
200.7754805966123
 20
69.51821709006923
 30
0.0
  0
LINE
  5
124
330
1F
100
AcDbEntity
  8
0
  6
Continuous
 62
     7
370
    25
100
AcDbLine
 10
189.6951694792
 20
79.4437852336
 30
0.0
 11
190.302517838
 21
79.4437852336
 31
0.0
  0
ELLIPSE
  5
125
330
1F
100
AcDbEntity
  8
0
  6
Continuous
 62
     7
370
    25
100
AcDbEllipse
 10
189.6951694792
 20
79.5246269506
 30
0.0
 11
0.08480161849064416
 21
-1.421085471520200E-14
 31
0.0
210
0.0
220
0.0
230
1.0
 40
0.9533039403
 41
2.798568711308604
 42
4.712388980384862
  0
LINE
  5
126
330
1F
100
AcDbEntity
  8
0
  6
Continuous
 62
     7
370
    25
100
AcDbLine
 10
189.9189824221
 20
80.3623995795
 30
0.0
 11
189.6153082409
 21
79.5518169626
 31
0.0
  0
ELLIPSE
  5
127
330
1F
100
AcDbEntity
  8
0
  6
Continuous
 62
     7
370
    25
100
AcDbEllipse
 10
190.302517838
 20
79.5246269506
 30
0.0
 11
-0.08480161849067258
 21
-4.263256414560601E-14
 31
0.0
210
0.0
220
0.0
230
1.0
 40
0.9533039403
 41
1.570796326794417
 42
3.484616592149473
  0
ELLIPSE
  5
128
330
1F
100
AcDbEntity
  8
0
  6
Continuous
 62
     7
370
    25
100
AcDbEllipse
 10
189.9988436604
 20
80.3352095677
 30
0.0
 11
0.08480161849064416
 21
0.0
 31
0.0
210
0.0
220
0.0
230
1.0
 40
0.9533039403
 41
0.3430239404205295
 42
2.798568713169376
  0
LINE
  5
129
330
1F
100
AcDbEntity
  8
0
  6
Continuous
 62
     7
370
    25
100
AcDbLine
 10
190.3823790763
 20
79.5518169623
 30
0.0
 11
190.0787048987
 21
80.3623995795
 31
0.0
  0
SPLINE
  5
12A
330
1F
100
AcDbEntity
  8
0
  6
Continuous
 62
     7
370
    25
100
AcDbSpline
210
0.0
220
0.0
230
1.0
 70
     8
 71
     3
 72
     8
 73
     4
 74
     0
 42
0.00000001
 43
0.00000001
 40
0.0
 40
0.0
 40
0.0
 40
0.0
 40
1.0
 40
1.0
 40
1.0
 40
1.0
 10
186.4595543010797
 20
72.72884090544062
 30
0.0
 10
186.7685714437215
 20
72.82984601327074
 30
0.0
 10
187.0838892000395
 20
72.92650280233667
 30
0.0
 10
187.4063685268825
 20
73.01821709006936
 30
0.0
  0
SPLINE
  5
12B
330
1F
100
AcDbEntity
  8
0
  6
Continuous
 62
     7
370
    25
100
AcDbSpline
210
0.0
220
0.0
230
1.0
 70
     8
 71
     3
 72
    12
 73
     8
 74
     0
 42
0.00000001
 43
0.00000001
 40
0.0
 40
0.0
 40
0.0
 40
0.0
 40
0.2500000000000002
 40
0.2500000000000002
 40
0.5000000000000004
 40
0.5000000000000004
 40
1.0
 40
1.0
 40
1.0
 40
1.0
 10
186.4595543010745
 20
72.72884090543448
 30
0.0
 10
186.6495804763777
 20
72.72513241957805
 30
0.0
 10
186.8397955390635
 20
72.70654991674037
 30
0.0
 10
187.216732298196
 20
72.64168287977422
 30
0.0
 10
187.4040550894555
 20
72.59541732652397
 30
0.0
 10
187.9629650457696
 20
72.419692796217
 30
0.0
 10
188.3315007038799
 20
72.25338938744025
 30
0.0
 10
188.6971156302872
 20
72.05182055021434
 30
0.0
  0
SPLINE
  5
12C
330
1F
100
AcDbEntity
  8
0
  6
Continuous
 62
     7
370
    25
100
AcDbSpline
210
0.0
220
0.0
230
1.0
 70
     8
 71
     3
 72
     8
 73
     4
 74
     0
 42
0.00000001
 43
0.00000001
 40
0.0
 40
0.0
 40
0.0
 40
0.0
 40
1.0
 40
1.0
 40
1.0
 40
1.0
 10
200.0914924445102
 20
73.01821709006936
 30
0.0
 10
200.4139717713595
 20
72.9265028023349
 30
0.0
 10
200.7292895276835
 20
72.82984601326699
 30
0.0
 10
201.038306670331
 20
72.72884090543474
 30
0.0
  0
SPLINE
  5
12D
330
1F
100
AcDbEntity
  8
0
  6
Continuous
 62
     7
370
    25
100
AcDbSpline
210
0.0
220
0.0
230
1.0
 70
     8
 71
     3
 72
    10
 73
     6
 74
     0
 42
0.00000001
 43
0.00000001
 40
0.0
 40
0.0
 40
0.0
 40
0.0
 40
0.5
 40
0.5
 40
1.0
 40
1.0
 40
1.0
 40
1.0
 10
198.8007453411059
 20
72.0518205502145
 30
0.0
 10
199.1672632879464
 20
72.25388723576542
 30
0.0
 10
199.5363435134122
 20
72.42028000803607
 30
0.0
 10
200.2815958616397
 20
72.65432698190612
 30
0.0
 10
200.6578086335874
 20
72.72141523586495
 30
0.0
 10
201.038306670331
 20
72.72884090543474
 30
0.0
  0
SPLINE
  5
12E
330
1F
100
AcDbEntity
  8
0
  6
Continuous
 62
     7
370
    25
100
AcDbSpline
210
0.0
220
0.0
230
1.0
 70
     8
 71
     3
 72
    10
 73
     6
 74
     0
 42
0.00000001
 43
0.00000001
 40
0.0
 40
0.0
 40
0.0
 40
0.0
 40
0.5
 40
0.5
 40
1.0
 40
1.0
 40
1.0
 40
1.0
 10
198.3677326392134
 20
72.05182055021432
 30
0.0
 10
198.4536197010159
 20
72.02814515578991
 30
0.0
 10
198.5410269099961
 20
72.01505404590529
 30
0.0
 10
198.69366335259
 20
72.01496772461707
 30
0.0
 10
198.7577863975358
 20
72.02813665856101
 30
0.0
 10
198.800745341106
 20
72.05182055021456
 30
0.0
  0
LINE
  5
12F
330
1F
100
AcDbEntity
  8
0
  6
Continuous
 62
     7
370
    25
100
AcDbLine
 10
198.8007453411
 20
72.0518205502
 30
0.0
 11
198.8007453411
 21
69.5182170901
 31
0.0
  0
LINE
  5
130
330
1F
100
AcDbEntity
  8
0
  6
Continuous
 62
     7
370
    25
100
AcDbLine
 10
198.3677326392
 20
69.5182170901
 30
0.0
 11
198.8007453411
 21
69.5182170901
 31
0.0
  0
SPLINE
  5
131
330
1F
100
AcDbEntity
  8
0
  6
Continuous
 62
     7
370
    25
100
AcDbSpline
210
0.0
220
0.0
230
1.0
 70
     8
 71
     3
 72
    12
 73
     8
 74
     0
 42
0.00000001
 43
0.00000001
 40
0.0
 40
0.0
 40
0.0
 40
0.0
 40
0.2499999999999999
 40
0.2499999999999999
 40
0.4999999999999998
 40
0.4999999999999998
 40
1.0
 40
1.0
 40
1.0
 40
1.0
 10
199.7489304856964
 20
87.37943302223708
 30
0.0
 10
199.7489304856964
 20
87.5751752851166
 30
0.0
 10
199.7647734217853
 20
87.77184189430714
 30
0.0
 10
199.826276282023
 20
88.16111012163545
 30
0.0
 10
199.8718799230667
 20
88.35451415458836
 30
0.0
 10
200.0483309405559
 20
88.93144320584511
 30
0.0
 10
200.2187283078078
 20
89.31169263904812
 30
0.0
 10
200.4266518909566
 20
89.68883409899559
 30
0.0
  0
LINE
  5
132
330
1F
100
AcDbEntity
  8
0
  6
Continuous
 62
     7
370
    25
100
AcDbLine
 10
204.9268715131
 20
89.688834099
 30
0.0
 11
200.426651891
 21
89.688834099
 31
0.0
  0
ELLIPSE
  5
133
330
1F
100
AcDbEntity
  8
0
  6
Continuous
 62
     7
370
    25
100
AcDbEllipse
 10
193.7489304857
 20
70.2032625138
 30
0.0
 11
8.500000000000028
 21
0.0
 31
0.0
210
0.0
220
0.0
230
1.0
 40
0.5773502692
 41
2.374833212873081
 42
2.530692279913056
  0
LINE
  5
134
330
1F
100
AcDbEntity
  8
0
  6
Continuous
 62
     7
370
    25
100
AcDbLine
 10
186.4595543011
 20
72.7288409054
 30
0.0
 11
184.0783134768
 21
70.3476000811
 31
0.0
  0
LINE
  5
135
330
1F
100
AcDbEntity
  8
0
  6
Continuous
 62
     7
370
    25
100
AcDbLine
 10
182.926651891
 20
70.3476000811
 30
0.0
 11
184.0783134768
 21
70.3476000811
 31
0.0
  0
SPLINE
  5
136
330
1F
100
AcDbEntity
  8
0
  6
Continuous
 62
     7
370
    25
100
AcDbSpline
210
0.0
220
0.0
230
1.0
 70
     8
 71
     3
 72
    10
 73
     6
 74
     0
 42
0.00000001
 43
0.00000001
 40
0.0
 40
0.0
 40
0.0
 40
0.0
 40
0.5
 40
0.5
 40
1.0
 40
1.0
 40
1.0
 40
1.0
 10
182.9266518909561
 20
70.34760008114307
 30
0.0
 10
182.7178419662899
 20
70.72634922853437
 30
0.0
 10
182.5473078265426
 20
71.10755450494567
 30
0.0
 10
182.3125220215237
 20
71.87678512613346
 30
0.0
 10
182.2489304856964
 20
72.26485283093177
 30
0.0
 10
182.2489304856964
 20
72.6570011579016
 30
0.0
  0
ELLIPSE
  5
137
330
1F
100
AcDbEntity
  8
0
  6
Continuous
 62
     7
370
    25
100
AcDbEllipse
 10
193.7489304857
 20
70.2032625138
 30
0.0
 11
8.500000000000028
 21
0.0
 31
0.0
210
0.0
220
0.0
230
1.0
 40
0.5773502692
 41
0.6109003736767376
 42
0.7667594407167099
  0
LINE
  5
138
330
1F
100
AcDbEntity
  8
0
  6
Continuous
 62
     7
370
    25
100
AcDbLine
 10
203.4195474946
 20
70.3476000811
 30
0.0
 11
204.9268715131
 21
70.3476000811
 31
0.0
  0
LINE
  5
139
330
1F
100
AcDbEntity
  8
0
  6
Continuous
 62
     7
370
    25
100
AcDbLine
 10
203.4195474946
 20
70.3476000811
 30
0.0
 11
201.0383066703
 21
72.7288409054
 31
0.0
  0
SPLINE
  5
13A
330
1F
100
AcDbEntity
  8
0
  6
Continuous
 62
     7
370
    25
100
AcDbSpline
210
0.0
220
0.0
230
1.0
 70
     8
 71
     3
 72
    12
 73
     8
 74
     0
 42
0.00000001
 43
0.00000001
 40
0.0
 40
0.0
 40
0.0
 40
0.0
 40
0.2499999999999999
 40
0.2499999999999999
 40
0.5
 40
0.5
 40
1.0
 40
1.0
 40
1.0
 40
1.0
 10
182.2489304856964
 20
87.37943302223708
 30
0.0
 10
182.2489304856964
 20
87.57443650224288
 30
0.0
 10
182.2646768157183
 20
87.77097116126728
 30
0.0
 10
182.3261218403038
 20
88.16039084887284
 30
0.0
 10
182.3717105995575
 20
88.35387554193309
 30
0.0
 10
182.5481616018141
 20
88.93105914068869
 30
0.0
 10
182.7186193037776
 20
89.31149492247167
 30
0.0
 10
182.9266518909564
 20
89.6888340989956
 30
0.0
  0
LINE
  5
13B
330
1F
100
AcDbEntity
  8
0
  6
Continuous
 62
     7
370
    25
100
AcDbLine
 10
187.0712090804
 20
89.688834099
 30
0.0
 11
182.926651891
 21
89.688834099
 31
0.0
  0
SPLINE
  5
13C
330
1F
100
AcDbEntity
  8
0
  6
Continuous
 62
     7
370
    25
100
AcDbSpline
210
0.0
220
0.0
230
1.0
 70
     8
 71
     3
 72
    10
 73
     6
 74
     0
 42
0.00000001
 43
0.00000001
 40
0.0
 40
0.0
 40
0.0
 40
0.0
 40
0.5
 40
0.5
 40
1.0
 40
1.0
 40
1.0
 40
1.0
 10
187.0712090804362
 20
89.68883409899561
 30
0.0
 10
187.2796298332536
 20
89.31079084959345
 30
0.0
 10
187.4500936685311
 20
88.9300213447976
 30
0.0
 10
187.6850761034694
 20
88.16087281924005
 30
0.0
 10
187.7489304856964
 20
87.77244609106481
 30
0.0
 10
187.7489304856964
 20
87.37943302223708
 30
0.0
  0
LINE
  5
13D
330
1F
100
AcDbEntity
  8
0
  6
Continuous
 62
     7
370
    25
100
AcDbLine
 10
186.0530487323
 20
69.5182170901
 30
0.0
 11
184.0783134768
 21
69.5182170901
 31
0.0
  0
LINE
  5
13E
330
1F
100
AcDbEntity
  8
0
  6
Continuous
 62
     7
370
    25
100
AcDbLine
 10
184.0783134768
 20
70.3476000811
 30
0.0
 11
184.0783134768
 21
69.5182170901
 31
0.0
  0
LINE
  5
13F
330
1F
100
AcDbEntity
  8
0
  6
Continuous
 62
     7
370
    25
100
AcDbLine
 10
188.6971156303
 20
69.5182170901
 30
0.0
 11
186.7223803748
 21
69.5182170901
 31
0.0
  0
LINE
  5
140
330
1F
100
AcDbEntity
  8
0
  6
Continuous
 62
     7
370
    25
100
AcDbLine
 10
203.4195474946
 20
69.5182170901
 30
0.0
 11
203.4195474946
 21
70.3476000811
 31
0.0
  0
LINE
  5
141
330
1F
100
AcDbEntity
  8
0
  6
Continuous
 62
     7
370
    25
100
AcDbLine
 10
203.4195474946
 20
69.5182170901
 30
0.0
 11
201.4448122391
 21
69.5182170901
 31
0.0
  0
LINE
  5
142
330
1F
100
AcDbEntity
  8
0
  6
Continuous
 62
     7
370
    25
100
AcDbLine
 10
200.7754805966
 20
69.5182170901
 30
0.0
 11
198.8007453411
 21
69.5182170901
 31
0.0
  0
LINE
  5
143
330
1F
100
AcDbEntity
  8
0
  6
Continuous
 62
     7
370
    25
100
AcDbLine
 10
200.7489304857
 20
57.0182170901
 30
0.0
 11
186.7489304857
 21
57.0182170901
 31
0.0
  0
LINE
  5
144
330
1F
100
AcDbEntity
  8
0
  6
Continuous
 62
     7
370
    25
100
AcDbLine
 10
189.7489304857
 20
76.0182170901
 30
0.0
 11
187.7489304857
 21
74.0182170901
 31
0.0
  0
LINE
  5
145
330
1F
100
AcDbEntity
  8
0
  6
Continuous
 62
     7
370
    25
100
AcDbLine
 10
186.786309413
 20
73.0182170901
 30
0.0
 11
189.7489304857
 21
73.0182170901
 31
0.0
  0
LINE
  5
146
330
1F
100
AcDbEntity
  8
0
  6
Continuous
 62
     7
370
    25
100
AcDbLine
 10
199.7489304857
 20
74.0182170901
 30
0.0
 11
197.7489304857
 21
76.0182170901
 31
0.0
  0
LINE
  5
147
330
1F
100
AcDbEntity
  8
0
  6
Continuous
 62
     7
370
    25
100
AcDbLine
 10
197.7489304857
 20
73.0182170901
 30
0.0
 11
200.7115515584
 21
73.0182170901
 31
0.0
  0
LINE
  5
148
330
1F
100
AcDbEntity
  8
0
  6
Continuous
 62
     7
370
    25
100
AcDbLine
 10
187.7489304857
 20
87.9526715683
 30
0.0
 11
187.7489304857
 21
87.3794330222
 31
0.0
  0
SPLINE
  5
149
330
1F
100
AcDbEntity
  8
0
  6
Continuous
 62
     7
370
    25
100
AcDbSpline
210
0.0
220
0.0
230
1.0
 70
     8
 71
     3
 72
    32
 73
    28
 74
     0
 42
0.00000001
 43
0.00000001
 40
0.0
 40
0.0
 40
0.0
 40
0.0
 40
0.0625000000000001
 40
0.0625000000000001
 40
0.1250000000000001
 40
0.1250000000000001
 40
0.1875000000000002
 40
0.1875000000000002
 40
0.2500000000000003
 40
0.2500000000000003
 40
0.3750000000000003
 40
0.3750000000000003
 40
0.4375000000000003
 40
0.4375000000000003
 40
0.5000000000000002
 40
0.5000000000000002
 40
0.5625000000000002
 40
0.5625000000000002
 40
0.6250000000000001
 40
0.6250000000000001
 40
0.7500000000000001
 40
0.7500000000000001
 40
0.8750000000000002
 40
0.8750000000000002
 40
0.9375000000000001
 40
0.9375000000000001
 40
1.0
 40
1.0
 40
1.0
 40
1.0
 10
199.7489304856879
 20
87.95267156829
 30
0.0
 10
199.592074149771
 20
87.85771459039431
 30
0.0
 10
199.4190757156154
 20
87.75496141576912
 30
0.0
 10
199.0423711289896
 20
87.53825021412086
 30
0.0
 10
198.8395183485329
 20
87.42483150363084
 30
0.0
 10
198.4135370857303
 20
87.19674136693267
 30
0.0
 10
198.1893591254423
 20
87.08143448448081
 30
0.0
 10
197.7180080318659
 20
86.85311138210604
 30
0.0
 10
197.4693225165008
 20
86.73946136597229
 30
0.0
 10
196.6987500318091
 20
86.41639733473825
 30
0.0
 10
196.153112621727
 20
86.22349881057475
 30
0.0
 10
195.2703328732306
 20
86.01190488530104
 30
0.0
 10
194.9716937733578
 20
85.9562624991833
 30
0.0
 10
194.365192172642
 20
85.88059442981947
 30
0.0
 10
194.0550449339761
 20
85.86062118404314
 30
0.0
 10
193.4349594452923
 20
85.8609549502964
 30
0.0
 10
193.1283884078243
 20
85.88095391561917
 30
0.0
 10
192.5217336605161
 20
85.95699270181564
 30
0.0
 10
192.2193605958908
 20
86.0136458019472
 30
0.0
 10
191.3427242931378
 20
86.22442435199304
 30
0.0
 10
190.7946701611609
 20
86.41797018256479
 30
0.0
 10
189.7641728939176
 20
86.8505894758406
 30
0.0
 10
189.2966128586382
 20
87.08306612053102
 30
0.0
 10
188.6583992550102
 20
87.42480412145005
 30
0.0
 10
188.4551895168204
 20
87.53842163687844
 30
0.0
 10
188.078852590426
 20
87.75492402923469
 30
0.0
 10
187.9058739819345
 20
87.85766182567909
 30
0.0
 10
187.7489304856964
 20
87.95267156829516
 30
0.0
  0
LINE
  5
14A
330
1F
100
AcDbEntity
  8
0
  6
Continuous
 62
     7
370
    25
100
AcDbLine
 10
199.7489304857
 20
87.9526715683
 30
0.0
 11
199.7489304857
 21
87.3794330222
 31
0.0
  0
SPLINE
  5
14B
330
1F
100
AcDbEntity
  8
0
  6
Continuous
 62
     7
370
    25
100
AcDbSpline
210
0.0
220
0.0
230
1.0
 70
     8
 71
     3
 72
    11
 73
     7
 74
     0
 42
0.00000001
 43
0.00000001
 40
0.0
 40
0.0
 40
0.0
 40
0.0
 40
0.0860363962994498
 40
0.3126240132839471
 40
0.544481681962628
 40
1.0
 40
1.0
 40
1.0
 40
1.0
 10
199.9222776731634
 20
88.81111868377046
 30
0.0
 10
199.9234664901835
 20
88.81513230930882
 30
0.0
 10
199.9277862056048
 20
88.82971632000182
 30
0.0
 10
199.8966066972851
 20
88.72316009589954
 30
0.0
 10
199.8141790883772
 20
88.4426121640406
 30
0.0
 10
199.7749363321022
 20
88.14794502024873
 30
0.0
 10
199.7489304856964
 20
87.95267156828803
 30
0.0
  0
SPLINE
  5
14C
330
1F
100
AcDbEntity
  8
0
  6
Continuous
 62
     7
370
    25
100
AcDbSpline
210
0.0
220
0.0
230
1.0
 70
     8
 71
     3
 72
    11
 73
     7
 74
     0
 42
0.00000001
 43
0.00000001
 40
0.0
 40
0.0
 40
0.0
 40
0.0
 40
0.3176409649270327
 40
0.6359690734019475
 40
0.8657019334528036
 40
0.9999999999999999
 40
0.9999999999999999
 40
0.9999999999999999
 40
0.9999999999999999
 10
187.7489304856964
 20
87.95267156829506
 30
0.0
 10
187.7352917142788
 20
88.08393624941526
 30
0.0
 10
187.7079846670824
 20
88.34674957275845
 30
0.0
 10
187.6199802124597
 20
88.65839340948342
 30
0.0
 10
187.5754203236879
 20
88.8121382391494
 30
0.0
 10
187.5757688453684
 20
88.8106255635242
 30
0.0
 10
187.5758974217733
 20
88.81006750815874
 30
0.0
  0
SPLINE
  5
14D
330
1F
100
AcDbEntity
  8
0
  6
Continuous
 62
     7
370
    25
100
AcDbSpline
210
0.0
220
0.0
230
1.0
 70
     8
 71
     3
 72
    10
 73
     6
 74
     0
 42
0.00000001
 43
0.00000001
 40
0.0
 40
0.0
 40
0.0
 40
0.0
 40
0.1601790552921523
 40
0.7197651707804853
 40
1.0
 40
1.0
 40
1.0
 40
1.0
 10
187.0369796473193
 20
89.75111237774533
 30
0.0
 10
187.036216857226
 20
89.75250460577169
 30
0.0
 10
187.0327892571523
 20
89.75876058750002
 30
0.0
 10
187.0472967219506
 20
89.73225332277211
 30
0.0
 10
187.0652262750684
 20
89.69969746762696
 30
0.0
 10
187.0712090804362
 20
89.68883409899561
 30
0.0
  0
SPLINE
  5
14E
330
1F
100
AcDbEntity
  8
0
  6
Continuous
 62
     7
370
    25
100
AcDbSpline
210
0.0
220
0.0
230
1.0
 70
     8
 71
     3
 72
     9
 73
     5
 74
     0
 42
0.00000001
 43
0.00000001
 40
0.0
 40
0.0
 40
0.0
 40
0.0
 40
0.5797912171256431
 40
1.0
 40
1.0
 40
1.0
 40
1.0
 10
200.4266518909566
 20
89.68883409899559
 30
0.0
 10
200.439010494303
 20
89.71130774723672
 30
0.0
 10
200.4603261040974
 20
89.75006936965754
 30
0.0
 10
200.4607170466002
 20
89.75080377441574
 30
0.0
 10
200.4608813240735
 20
89.75111237774533
 30
0.0
  0
SPLINE
  5
14F
330
1F
100
AcDbEntity
  8
0
  6
Continuous
 62
     7
370
    25
100
AcDbSpline
210
0.0
220
0.0
230
1.0
 70
     8
 71
     3
 72
    10
 73
     6
 74
     0
 42
0.00000001
 43
0.00000001
 40
0.0
 40
0.0
 40
0.0
 40
0.0
 40
0.1593935212994522
 40
0.7189934545690309
 40
1.0
 40
1.0
 40
1.0
 40
1.0
 10
182.960888880534
 20
89.75112617846204
 30
0.0
 10
182.9616504075315
 20
89.75251609728865
 30
0.0
 10
182.9650855090474
 20
89.7587857532356
 30
0.0
 10
182.9505908865809
 20
89.7323018114118
 30
0.0
 10
182.9326495160882
 20
89.69972440736493
 30
0.0
 10
182.9266518909566
 20
89.68883409899559
 30
0.0
  0
LINE
  5
150
330
1F
100
AcDbEntity
  8
0
  6
Continuous
 62
     7
370
    25
100
AcDbLine
 10
182.2489304857
 20
88.5182170901
 30
0.0
 11
182.2489304857
 21
87.3794330222
 31
0.0
  0
SPLINE
  5
151
330
1F
100
AcDbEntity
  8
0
  6
Continuous
 62
     7
370
    25
100
AcDbSpline
210
0.0
220
0.0
230
1.0
 70
     8
 71
     3
 72
     9
 73
     5
 74
     0
 42
0.00000001
 43
0.00000001
 40
0.0
 40
0.0
 40
0.0
 40
0.0
 40
0.5789479223839474
 40
0.9999999999999999
 40
0.9999999999999999
 40
0.9999999999999999
 40
0.9999999999999999
 10
182.9266518909566
 20
70.3476000811431
 30
0.0
 10
182.9389927812708
 20
70.32515871395074
 30
0.0
 10
182.9603088441447
 20
70.28639638952619
 30
0.0
 10
182.9607170180593
 20
70.28563048666683
 30
0.0
 10
182.960888880534
 20
70.28530800167665
 30
0.0
  0
LINE
  5
152
330
1F
100
AcDbEntity
  8
0
  6
Continuous
 62
     7
370
    25
100
AcDbLine
 10
182.2489304857
 20
72.6570011579
 30
0.0
 11
182.2489304857
 21
71.5182170901
 31
0.0
  0
LINE
  5
153
330
1F
100
AcDbEntity
  8
0
  6
Continuous
 62
     7
370
    25
100
AcDbLine
 10
203.4865347927
 20
70.280612783
 30
0.0
 11
203.4195474946
 21
70.3476000811
 31
0.0
  0
LINE
  5
154
330
1F
100
AcDbEntity
  8
0
  6
Continuous
 62
     7
370
    25
100
AcDbLine
 10
203.4195474946
 20
69.5182170901
 30
0.0
 11
203.4865347927
 21
69.5182170901
 31
0.0
  0
LINE
  5
155
330
1F
100
AcDbEntity
  8
0
  6
Continuous
 62
     7
370
    25
100
AcDbLine
 10
184.0783134768
 20
70.3476000811
 30
0.0
 11
184.0113261787
 21
70.280612783
 31
0.0
  0
LINE
  5
156
330
1F
100
AcDbEntity
  8
0
  6
Continuous
 62
     7
370
    25
100
AcDbLine
 10
184.0113261787
 20
69.5182170901
 30
0.0
 11
184.0783134768
 21
69.5182170901
 31
0.0
  0
LINE
  5
157
330
1F
100
AcDbEntity
  8
0
  6
Continuous
 62
     7
370
    25
100
AcDbLine
 10
198.9880158184
 20
106.5182170901
 30
0.0
 11
198.9880158184
 21
107.1182170901
 31
0.0
  0
LINE
  5
158
330
1F
100
AcDbEntity
  8
0
  6
Continuous
 62
     7
370
    25
100
AcDbLine
 10
188.509845153
 20
106.5182170901
 30
0.0
 11
198.9880158184
 21
106.5182170901
 31
0.0
  0
LINE
  5
159
330
1F
100
AcDbEntity
  8
0
  6
Continuous
 62
     7
370
    25
100
AcDbLine
 10
188.509845153
 20
107.1182170901
 30
0.0
 11
188.509845153
 21
106.5182170901
 31
0.0
  0
LINE
  5
15A
330
1F
100
AcDbEntity
  8
0
  6
Continuous
 62
     7
370
    25
100
AcDbLine
 10
198.9880158184
 20
107.1182170901
 30
0.0
 11
188.509845153
 21
107.1182170901
 31
0.0
  0
SPLINE
  5
15B
330
1F
100
AcDbEntity
  8
0
  6
Continuous
 62
     7
370
    25
100
AcDbSpline
210
0.0
220
0.0
230
1.0
 70
     8
 71
     3
 72
    15
 73
    11
 74
     0
 42
0.00000001
 43
0.00000001
 40
0.0
 40
0.0
 40
0.0
 40
0.0
 40
0.0090459071881971
 40
0.1032433785236816
 40
0.1542564497735189
 40
0.31331690267151
 40
0.5243720399414428
 40
0.6678060008509183
 40
0.9918332554187028
 40
1.0
 40
1.0
 40
1.0
 40
1.0
 10
198.9880158183545
 20
107.1182170900693
 30
0.0
 10
198.9880101263878
 20
107.1198981886537
 30
0.0
 10
198.987945162437
 20
107.1390850202092
 30
0.0
 10
198.9859494760011
 20
107.1677792997292
 30
0.0
 10
198.9781324797847
 20
107.2184553397012
 30
0.0
 10
198.9609626560297
 20
107.276331639278
 30
0.0
 10
198.9343787594622
 20
107.3211971540127
 30
0.0
 10
198.8965494609735
 20
107.3585595372673
 30
0.0
 10
198.8682686809633
 20
107.3681055495367
 30
0.0
 10
198.848437533432
 20
107.3682144137235
 30
0.0
 10
198.8479499992892
 20
107.3682170900693
 30
0.0
  0
SPLINE
  5
15C
330
1F
100
AcDbEntity
  8
0
  6
Continuous
 62
     7
370
    25
100
AcDbSpline
210
0.0
220
0.0
230
1.0
 70
     8
 71
     3
 72
    15
 73
    11
 74
     0
 42
0.00000001
 43
0.00000001
 40
0.0
 40
0.0
 40
0.0
 40
0.0
 40
0.0081667445812973
 40
0.3321939991490804
 40
0.475627960058556
 40
0.6866830973284891
 40
0.8457435502264751
 40
0.8967566214763124
 40
0.9909540928118028
 40
1.0
 40
1.0
 40
1.0
 40
1.0
 10
188.6499109721036
 20
107.3682170900693
 30
0.0
 10
188.6494234379607
 20
107.3682144137235
 30
0.0
 10
188.6295922904295
 20
107.3681055495367
 30
0.0
 10
188.6013115104192
 20
107.3585595372673
 30
0.0
 10
188.5634822119306
 20
107.3211971540127
 30
0.0
 10
188.5368983153631
 20
107.2763316392781
 30
0.0
 10
188.5197284916081
 20
107.2184553397012
 30
0.0
 10
188.5119114953916
 20
107.1677792997292
 30
0.0
 10
188.5099158089557
 20
107.1390850202092
 30
0.0
 10
188.5098508450049
 20
107.1198981886537
 30
0.0
 10
188.5098451530383
 20
107.1182170900693
 30
0.0
  0
LINE
  5
15D
330
1F
100
AcDbEntity
  8
0
  6
Continuous
 62
     7
370
    25
100
AcDbLine
 10
188.6499109721
 20
107.3682170901
 30
0.0
 11
198.8479499993
 21
107.3682170901
 31
0.0
  0
SPLINE
  5
15E
330
1F
100
AcDbEntity
  8
0
  6
Continuous
 62
     7
370
    25
100
AcDbSpline
210
0.0
220
0.0
230
1.0
 70
     8
 71
     3
 72
    15
 73
    11
 74
     0
 42
0.00000001
 43
0.00000001
 40
0.0
 40
0.0
 40
0.0
 40
0.0
 40
0.0089557228015919
 40
0.0999003359608209
 40
0.1531632460581751
 40
0.3125636920784904
 40
0.5249666935695061
 40
0.6689893599351777
 40
0.991915253381045
 40
1.0
 40
1.0
 40
1.0
 40
1.0
 10
188.2717049106447
 20
107.1182170900693
 30
0.0
 10
188.2717206662233
 20
107.1198982156422
 30
0.0
 10
188.2718964183799
 20
107.1386510302666
 30
0.0
 10
188.2773254343994
 20
107.1674132593741
 30
0.0
 10
188.2988609181067
 20
107.2183003328424
 30
0.0
 10
188.3465663463715
 20
107.2764359829751
 30
0.0
 10
188.4189572913635
 20
107.3211438561585
 30
0.0
 10
188.5208764033812
 20
107.3584256796203
 30
0.0
 10
188.5962314948362
 20
107.3681048344579
 30
0.0
 10
188.6486311405595
 20
107.3682144136596
 30
0.0
 10
188.6499109721036
 20
107.3682170900693
 30
0.0
  0
LINE
  5
15F
330
1F
100
AcDbEntity
  8
0
  6
Continuous
 62
     7
370
    25
100
AcDbLine
 10
188.2717049106
 20
107.1182170901
 30
0.0
 11
188.509845153
 21
107.1182170901
 31
0.0
  0
SPLINE
  5
160
330
1F
100
AcDbEntity
  8
0
  6
Continuous
 62
     7
370
    25
100
AcDbSpline
210
0.0
220
0.0
230
1.0
 70
     8
 71
     3
 72
    15
 73
    11
 74
     0
 42
0.00000001
 43
0.00000001
 40
0.0
 40
0.0
 40
0.0
 40
0.0
 40
0.0080847466189582
 40
0.3310106400648243
 40
0.4750333064304948
 40
0.6874363079215142
 40
0.8468367539418303
 40
0.9000996640391847
 40
0.9910442771984082
 40
1.0
 40
1.0
 40
1.0
 40
1.0
 10
198.8479499992892
 20
107.3682170900693
 30
0.0
 10
198.8492298308333
 20
107.3682144136596
 30
0.0
 10
198.9016294765565
 20
107.3681048344579
 30
0.0
 10
198.9769845680116
 20
107.3584256796202
 30
0.0
 10
199.0789036800293
 20
107.3211438561585
 30
0.0
 10
199.1512946250212
 20
107.2764359829751
 30
0.0
 10
199.199000053286
 20
107.2183003328424
 30
0.0
 10
199.2205355369933
 20
107.1674132593741
 30
0.0
 10
199.2259645530129
 20
107.1386510302666
 30
0.0
 10
199.2261403051695
 20
107.1198982156422
 30
0.0
 10
199.226156060748
 20
107.1182170900693
 30
0.0
  0
LINE
  5
161
330
1F
100
AcDbEntity
  8
0
  6
Continuous
 62
     7
370
    25
100
AcDbLine
 10
198.9880158184
 20
107.1182170901
 30
0.0
 11
199.2261560607
 21
107.1182170901
 31
0.0
  0
LINE
  5
162
330
1F
100
AcDbEntity
  8
0
  6
Continuous
 62
     7
370
    25
100
AcDbLine
 10
199.2261560607
 20
107.1182170901
 30
0.0
 11
199.2261560607
 21
106.5182170901
 31
0.0
  0
LINE
  5
163
330
1F
100
AcDbEntity
  8
0
  6
Continuous
 62
     7
370
    25
100
AcDbLine
 10
199.2261560607
 20
106.5182170901
 30
0.0
 11
198.9880158184
 21
106.5182170901
 31
0.0
  0
LINE
  5
164
330
1F
100
AcDbEntity
  8
0
  6
Continuous
 62
     7
370
    25
100
AcDbLine
 10
188.2717049106
 20
106.5182170901
 30
0.0
 11
188.2717049106
 21
107.1182170901
 31
0.0
  0
LINE
  5
165
330
1F
100
AcDbEntity
  8
0
  6
Continuous
 62
     7
370
    25
100
AcDbLine
 10
188.509845153
 20
106.5182170901
 30
0.0
 11
188.2717049106
 21
106.5182170901
 31
0.0
  0
LINE
  5
166
330
1F
100
AcDbEntity
  8
0
  6
Continuous
 62
     7
370
    25
100
AcDbLine
 10
199.4989304857
 20
106.5182170901
 30
0.0
 11
199.4989304857
 21
107.1182170901
 31
0.0
  0
LINE
  5
167
330
1F
100
AcDbEntity
  8
0
  6
Continuous
 62
     7
370
    25
100
AcDbLine
 10
199.4989304857
 20
107.1182170901
 30
0.0
 11
199.7489304857
 21
107.1182170901
 31
0.0
  0
LINE
  5
168
330
1F
100
AcDbEntity
  8
0
  6
Continuous
 62
     7
370
    25
100
AcDbLine
 10
199.7489304857
 20
107.1182170901
 30
0.0
 11
199.7489304857
 21
106.5182170901
 31
0.0
  0
LINE
  5
169
330
1F
100
AcDbEntity
  8
0
  6
Continuous
 62
     7
370
    25
100
AcDbLine
 10
199.7489304857
 20
106.5182170901
 30
0.0
 11
199.4989304857
 21
106.5182170901
 31
0.0
  0
LINE
  5
16A
330
1F
100
AcDbEntity
  8
0
  6
Continuous
 62
     7
370
    25
100
AcDbLine
 10
187.9989304857
 20
107.1182170901
 30
0.0
 11
187.9989304857
 21
106.5182170901
 31
0.0
  0
LINE
  5
16B
330
1F
100
AcDbEntity
  8
0
  6
Continuous
 62
     7
370
    25
100
AcDbLine
 10
188.2717049106
 20
107.1182170901
 30
0.0
 11
187.9989304857
 21
107.1182170901
 31
0.0
  0
LINE
  5
16C
330
1F
100
AcDbEntity
  8
0
  6
Continuous
 62
     7
370
    25
100
AcDbLine
 10
187.9989304857
 20
106.5182170901
 30
0.0
 11
188.2717049106
 21
106.5182170901
 31
0.0
  0
ARC
  5
16D
330
1F
100
AcDbEntity
  8
0
  6
Continuous
 62
     7
370
    25
100
AcDbCircle
 10
187.9989304857
 20
107.1182170901
 30
0.0
 40
0.25
100
AcDbArc
 50
90.0
 51
180.0
  0
LINE
  5
16E
330
1F
100
AcDbEntity
  8
0
  6
Continuous
 62
     7
370
    25
100
AcDbLine
 10
187.9989304857
 20
107.3682170901
 30
0.0
 11
187.9989304857
 21
107.1182170901
 31
0.0
  0
LINE
  5
16F
330
1F
100
AcDbEntity
  8
0
  6
Continuous
 62
     7
370
    25
100
AcDbLine
 10
187.7489304857
 20
107.1182170901
 30
0.0
 11
187.9989304857
 21
107.1182170901
 31
0.0
  0
LINE
  5
170
330
1F
100
AcDbEntity
  8
0
  6
Continuous
 62
     7
370
    25
100
AcDbLine
 10
187.9989304857
 20
107.3682170901
 30
0.0
 11
188.6499109721
 21
107.3682170901
 31
0.0
  0
LINE
  5
171
330
1F
100
AcDbEntity
  8
0
  6
Continuous
 62
     7
370
    25
100
AcDbLine
 10
199.4989304857
 20
107.1182170901
 30
0.0
 11
199.4989304857
 21
107.3682170901
 31
0.0
  0
LINE
  5
172
330
1F
100
AcDbEntity
  8
0
  6
Continuous
 62
     7
370
    25
100
AcDbLine
 10
199.4989304857
 20
107.1182170901
 30
0.0
 11
199.2261560607
 21
107.1182170901
 31
0.0
  0
LINE
  5
173
330
1F
100
AcDbEntity
  8
0
  6
Continuous
 62
     7
370
    25
100
AcDbLine
 10
198.8479499993
 20
107.3682170901
 30
0.0
 11
199.4989304857
 21
107.3682170901
 31
0.0
  0
LINE
  5
174
330
1F
100
AcDbEntity
  8
0
  6
Continuous
 62
     7
370
    25
100
AcDbLine
 10
187.7489304857
 20
106.5182170901
 30
0.0
 11
187.7489304857
 21
107.1182170901
 31
0.0
  0
LINE
  5
175
330
1F
100
AcDbEntity
  8
0
  6
Continuous
 62
     7
370
    25
100
AcDbLine
 10
187.9989304857
 20
106.5182170901
 30
0.0
 11
187.7489304857
 21
106.5182170901
 31
0.0
  0
ARC
  5
176
330
1F
100
AcDbEntity
  8
0
  6
Continuous
 62
     7
370
    25
100
AcDbCircle
 10
199.4989304857
 20
107.1182170901
 30
0.0
 40
0.25
100
AcDbArc
 50
0.0
 51
90.0
  0
LINE
  5
177
330
1F
100
AcDbEntity
  8
0
  6
Continuous
 62
     7
370
    25
100
AcDbLine
 10
199.2261560607
 20
106.5182170901
 30
0.0
 11
199.4989304857
 21
106.5182170901
 31
0.0
  0
LINE
  5
178
330
1F
100
AcDbEntity
  8
0
  6
Continuous
 62
     7
370
    25
100
AcDbLine
 10
188.7489304857
 20
107.3782170901
 30
0.0
 11
198.7489304857
 21
107.3782170901
 31
0.0
  0
LINE
  5
179
330
1F
100
AcDbEntity
  8
0
  6
Continuous
 62
     7
370
    25
100
AcDbLine
 10
198.7489304857
 20
107.3682170901
 30
0.0
 11
198.7489304857
 21
107.3782170901
 31
0.0
  0
LINE
  5
17A
330
1F
100
AcDbEntity
  8
0
  6
Continuous
 62
     7
370
    25
100
AcDbLine
 10
188.7489304857
 20
107.3682170901
 30
0.0
 11
188.7489304857
 21
107.3782170901
 31
0.0
  0
LINE
  5
17B
330
1F
100
AcDbEntity
  8
0
  6
Continuous
 62
     7
370
    25
100
AcDbLine
 10
189.2743836016
 20
98.5182170901
 30
0.0
 11
201.1989304857
 21
98.51821709
 31
0.0
  0
LINE
  5
17C
330
1F
100
AcDbEntity
  8
0
  6
Continuous
 62
     7
370
    25
100
AcDbLine
 10
190.0345943574
 20
99.512960668
 30
0.0
 11
189.2743836016
 21
98.5182170901
 31
0.0
  0
LINE
  5
17D
330
1F
100
AcDbEntity
  8
0
  6
Continuous
 62
     7
370
    25
100
AcDbLine
 10
188.5251283113
 20
106.5182170901
 30
0.0
 11
186.7969896474
 21
99.512960668
 31
0.0
  0
LINE
  5
17E
330
1F
100
AcDbEntity
  8
0
  6
Continuous
 62
     7
370
    25
100
AcDbLine
 10
198.9880158184
 20
106.51821709
 30
0.0
 11
188.5251283113
 21
106.5182170901
 31
0.0
  0
LINE
  5
17F
330
1F
100
AcDbEntity
  8
0
  6
Continuous
 62
     7
370
    25
100
AcDbLine
 10
191.7489304857
 20
90.5182170901
 30
0.0
 11
200.7489304857
 21
90.5182170901
 31
0.0
  0
LINE
  5
180
330
1F
100
AcDbEntity
  8
0
  6
Continuous
 62
     7
370
    25
100
AcDbLine
 10
191.7489304857
 20
90.5560340139
 30
0.0
 11
191.7489304857
 21
90.5182170901
 31
0.0
  0
SPLINE
  5
181
330
1F
100
AcDbEntity
  8
0
  6
Continuous
 62
     7
370
    25
100
AcDbSpline
210
0.0
220
0.0
230
1.0
 70
     8
 71
     3
 72
     9
 73
     5
 74
     0
 42
0.00000001
 43
0.00000001
 40
0.0
 40
0.0
 40
0.0
 40
0.0
 40
0.4875141023677128
 40
0.9999999999999999
 40
0.9999999999999999
 40
0.9999999999999999
 40
0.9999999999999999
 10
191.5929852352692
 20
90.51821709006936
 30
0.0
 10
191.6192918091918
 20
90.51994443604106
 30
0.0
 10
191.67325245114
 20
90.52348760733253
 30
0.0
 10
191.7232879818348
 20
90.54500609328184
 30
0.0
 10
191.7489304856964
 20
90.55603401386927
 30
0.0
  0
SPLINE
  5
182
330
1F
100
AcDbEntity
  8
0
  6
Continuous
 62
     7
370
    25
100
AcDbSpline
210
0.0
220
0.0
230
1.0
 70
     8
 71
     3
 72
    17
 73
    13
 74
     0
 42
0.00000001
 43
0.00000001
 40
0.0
 40
0.0
 40
0.0
 40
0.0
 40
0.3241697628029873
 40
0.5422758463620719
 40
0.689509052693928
 40
0.7894036290694505
 40
0.8577090008137825
 40
0.9049823971474137
 40
0.9551712229700868
 40
0.9753097783197817
 40
0.9919572060138848
 40
1.0
 40
1.0
 40
1.0
 40
1.0
 10
189.2743836016142
 20
98.51821709006691
 30
0.0
 10
189.4170989616314
 20
97.60560358746123
 30
0.0
 10
189.6558352705734
 20
96.0789705811999
 30
0.0
 10
190.035422465025
 20
94.15219767891892
 30
0.0
 10
190.3445566733721
 20
92.86456220798617
 30
0.0
 10
190.6006702015722
 20
92.0054102412644
 30
0.0
 10
190.8149812044672
 20
91.43194235288702
 30
0.0
 10
191.0182154254951
 20
91.01041019885706
 30
0.0
 10
191.2027606900377
 20
90.72991765606162
 30
0.0
 10
191.3888317764059
 20
90.57436898748097
 30
0.0
 10
191.5040423756618
 20
90.52375838828345
 30
0.0
 10
191.5711311811346
 20
90.51957863647881
 30
0.0
 10
191.5929852352692
 20
90.51821709006936
 30
0.0
  0
SPLINE
  5
183
330
1F
100
AcDbEntity
  8
0
  6
Continuous
 62
     7
370
    25
100
AcDbSpline
210
0.0
220
0.0
230
1.0
 70
     8
 71
     3
 72
    14
 73
    10
 74
     0
 42
0.00000001
 43
0.00000001
 40
0.0
 40
0.0
 40
0.0
 40
0.0
 40
0.1576095309202822
 40
0.3152382602707094
 40
0.4726926441579498
 40
0.6301650083177254
 40
0.7907313191165901
 40
0.9513050385928076
 40
1.0
 40
1.0
 40
1.0
 40
1.0
 10
187.2489304856964
 20
90.51821709006929
 30
0.0
 10
187.1823594709143
 20
90.73171887854669
 30
0.0
 10
187.0492093323294
 20
91.1587484621722
 30
0.0
 10
186.7206423705787
 20
91.74399554102851
 30
0.0
 10
186.3072527298467
 20
92.26615008185094
 30
0.0
 10
185.811577810902
 20
92.7151282092708
 30
0.0
 10
185.2452881056176
 20
93.07440994107718
 30
0.0
 10
184.7690374492245
 20
93.27897612017837
 30
0.0
 10
184.4888428810318
 20
93.35977066852966
 30
0.0
 10
184.4236440962587
 20
93.37857084157645
 30
0.0
  0
LINE
  5
184
330
1F
100
AcDbEntity
  8
0
  6
Continuous
 62
     7
370
    25
100
AcDbLine
 10
184.4236440963
 20
93.3785708416
 30
0.0
 11
178.6438872464
 21
94.9471922821
 31
0.0
  0
SPLINE
  5
185
330
1F
100
AcDbEntity
  8
0
  6
Continuous
 62
     7
370
    25
100
AcDbSpline
210
0.0
220
0.0
230
1.0
 70
     8
 71
     3
 72
     9
 73
     5
 74
     0
 42
0.00000001
 43
0.00000001
 40
0.0
 40
0.0
 40
0.0
 40
0.0
 40
0.4976931370791441
 40
0.9999999999999999
 40
0.9999999999999999
 40
0.9999999999999999
 40
0.9999999999999999
 10
171.5734936241597
 20
96.27039278304483
 30
0.0
 10
172.762130587941
 20
96.12094590204438
 30
0.0
 10
175.1504234439709
 20
95.82066673428749
 30
0.0
 10
177.4758230601587
 20
95.23924460690006
 30
0.0
 10
178.6438872464035
 20
94.9471922820593
 30
0.0
  0
LINE
  5
186
330
1F
100
AcDbEntity
  8
0
  6
Continuous
 62
     7
370
    25
100
AcDbLine
 10
171.5734936242
 20
96.270392783
 30
0.0
 11
171.5734936242
 21
99.5129606681
 31
0.0
  0
LINE
  5
187
330
1F
100
AcDbEntity
  8
0
  6
Continuous
 62
     7
370
    25
100
AcDbLine
 10
171.5734936242
 20
99.5129606681
 30
0.0
 11
190.0345943574
 21
99.512960668
 31
0.0
  0
LINE
  5
188
330
1F
100
AcDbEntity
  8
0
  6
Continuous
 62
     7
370
    25
100
AcDbLine
 10
191.5929852353
 20
90.5182170901
 30
0.0
 11
187.2489304857
 21
90.5182170901
 31
0.0
  0
LINE
  5
189
330
1F
100
AcDbEntity
  8
0
  6
Continuous
 62
     7
370
    25
100
AcDbLine
 10
191.7489304857
 20
90.5560340139
 30
0.0
 11
191.7421311278
 21
90.5182170901
 31
0.0
  0
LINE
  5
18A
330
1F
100
AcDbEntity
  8
0
  6
Continuous
 62
     7
370
    25
100
AcDbLine
 10
191.7421311278
 20
90.5182170901
 30
0.0
 11
191.5929852353
 21
90.5182170901
 31
0.0
  0
LINE
  5
18B
330
1F
100
AcDbEntity
  8
0
  6
Continuous
 62
     7
370
    25
100
AcDbLine
 10
191.7489304857
 20
90.5182170901
 30
0.0
 11
191.7421311278
 21
90.5182170901
 31
0.0
  0
LINE
  5
18C
330
1F
100
AcDbEntity
  8
0
  6
Continuous
 62
     7
370
    25
100
AcDbLine
 10
153.7489304857
 20
108.5182170901
 30
0.0
 11
171.5734936242
 21
108.5182170901
 31
0.0
  0
LINE
  5
18D
330
1F
100
AcDbEntity
  8
0
  6
Continuous
 62
     7
370
    25
100
AcDbLine
 10
171.5734936242
 20
108.5182170901
 30
0.0
 11
171.5734936242
 21
99.5129606681
 31
0.0
  0
LINE
  5
18E
330
1F
100
AcDbEntity
  8
0
  6
Continuous
 62
     7
370
    25
100
AcDbLine
 10
166.8572626279
 20
96.5182170901
 30
0.0
 11
158.7489304857
 21
96.5182170901
 31
0.0
  0
ARC
  5
18F
330
1F
100
AcDbEntity
  8
0
  6
Continuous
 62
     7
370
    25
100
AcDbCircle
 10
158.7489304857
 20
101.5182170901
 30
0.0
 40
5.0
100
AcDbArc
 50
180.0
 51
270.0
  0
LINE
  5
190
330
1F
100
AcDbEntity
  8
0
  6
Continuous
 62
     7
370
    25
100
AcDbLine
 10
153.7489304857
 20
101.5182170901
 30
0.0
 11
153.7489304857
 21
108.5182170901
 31
0.0
  0
ARC
  5
191
330
1F
100
AcDbEntity
  8
0
  6
Continuous
 62
     7
370
    25
100
AcDbCircle
 10
166.8572626279
 20
51.5180878359
 30
0.0
 40
45.00012925418374
100
AcDbArc
 50
83.9840777705
 51
90.0
  0
LINE
  5
192
330
1F
100
AcDbEntity
  8
0
  6
Continuous
 62
     7
370
    25
100
AcDbLine
 10
171.5734936242
 20
108.5182170901
 30
0.0
 11
173.7489304857
 21
108.5182170901
 31
0.0
  0
LINE
  5
193
330
1F
100
AcDbEntity
  8
0
  6
Continuous
 62
     7
370
    25
100
AcDbLine
 10
173.7489304857
 20
108.5182170901
 30
0.0
 11
173.7489304857
 21
106.5371726134
 31
0.0
  0
ARC
  5
194
330
1F
100
AcDbEntity
  8
0
  6
Continuous
 62
     7
370
    25
100
AcDbCircle
 10
179.7489304857
 20
106.5371726134
 30
0.0
 40
6.000000000000003
100
AcDbArc
 50
180.0
 51
275.5801667845
  0
ARC
  5
195
330
1F
100
AcDbEntity
  8
0
  6
Continuous
 62
     7
370
    25
100
AcDbCircle
 10
179.3599769214
 20
110.5182170901
 30
0.0
 40
10.00000000000843
100
AcDbArc
 50
275.5801667845
 51
336.4218215217
  0
LINE
  5
196
330
1F
100
AcDbEntity
  8
0
  6
Continuous
 62
     7
370
    25
100
AcDbLine
 10
187.2489304857
 20
90.5182170901
 30
0.0
 11
186.7489304857
 21
90.5182170901
 31
0.0
  0
LINE
  5
197
330
1F
100
AcDbEntity
  8
0
  6
Continuous
 62
     7
370
    25
100
AcDbLine
 10
176.7398270201
 20
70.6682170901
 30
0.0
 11
176.7398270201
 21
89.3682170901
 31
0.0
  0
LINE
  5
198
330
1F
100
AcDbEntity
  8
0
  6
Continuous
 62
     7
370
    25
100
AcDbLine
 10
163.3398270201
 20
80.0182170901
 30
0.0
 11
163.3398270201
 21
70.6682170901
 31
0.0
  0
LINE
  5
199
330
1F
100
AcDbEntity
  8
0
  6
Continuous
 62
     7
370
    25
100
AcDbLine
 10
163.3398270201
 20
89.3682170901
 30
0.0
 11
163.3398270201
 21
80.0182170901
 31
0.0
  0
SPLINE
  5
19A
330
1F
100
AcDbEntity
  8
0
  6
Continuous
 62
     7
370
    25
100
AcDbSpline
210
0.0
220
0.0
230
1.0
 70
     8
 71
     3
 72
    30
 73
    26
 74
     0
 42
0.00000001
 43
0.00000001
 40
0.0
 40
0.0
 40
0.0
 40
0.0
 40
0.01103126394827
 40
0.053277586577749
 40
0.0955510478017354
 40
0.1522052612840588
 40
0.2089591454663519
 40
0.2161886405196115
 40
0.2769246478162155
 40
0.3376598813551334
 40
0.3847633153844353
 40
0.4317719933387038
 40
0.4687707103306626
 40
0.5057306877234723
 40
0.5426485865937511
 40
0.5796155627188098
 40
0.6291506000309135
 40
0.6787773889210995
 40
0.7318129480395204
 40
0.7848398237677545
 40
0.8294786862794191
 40
0.8740827487274743
 40
0.9165630499265991
 40
0.9590083426981875
 40
0.9999999999999999
 40
0.9999999999999999
 40
0.9999999999999999
 40
0.9999999999999999
 10
187.8489304856964
 20
89.51821709006936
 30
0.0
 10
187.8497545330426
 20
89.51751925817165
 30
0.0
 10
187.8537344263748
 20
89.51414894634505
 30
0.0
 10
187.924516135304
 20
89.45379930273971
 30
0.0
 10
188.1458048654033
 20
89.26826920708179
 30
0.0
 10
188.5363678807998
 20
88.94772326214014
 30
0.0
 10
188.939609966886
 20
88.6340463585998
 30
0.0
 10
189.4064242059749
 20
88.2876570707099
 30
0.0
 10
189.942052040053
 20
87.90723212370646
 30
0.0
 10
190.7578024180555
 20
87.4092085734458
 30
0.0
 10
191.5993622238199
 20
86.997090700372
 30
0.0
 10
192.3827691424466
 20
86.72009158415692
 30
0.0
 10
193.1557540195514
 20
86.56867443169504
 30
0.0
 10
193.8863443238268
 20
86.53052496115939
 30
0.0
 10
194.6110667862841
 20
86.60985685759927
 30
0.0
 10
195.3844363759947
 20
86.8023600408527
 30
0.0
 10
196.1748313447318
 20
87.1195196337612
 30
0.0
 10
196.9716353014605
 20
87.54479767243141
 30
0.0
 10
197.6990047521703
 20
88.00726036600722
 30
0.0
 10
198.3132021911584
 20
88.44766663712487
 30
0.0
 10
198.8066870226153
 20
88.8261483277813
 30
0.0
 10
199.181661443109
 20
89.1278397906463
 30
0.0
 10
199.4521851528368
 20
89.35171255329304
 30
0.0
 10
199.6233609392968
 20
89.49650138557288
 30
0.0
 10
199.6387726366999
 20
89.50951711948133
 30
0.0
 10
199.6463442343893
 20
89.51591160661727
 30
0.0
  0
LINE
  5
19B
330
1F
100
AcDbEntity
  8
0
  6
Continuous
 62
     7
370
    18
100
AcDbLine
 10
185.8989304857
 20
69.0182170901
 30
0.0
 11
186.2467491221
 21
57.8880207265
 31
0.0
  0
LINE
  5
19C
330
1F
100
AcDbEntity
  8
0
  6
Continuous
 62
     7
370
    18
100
AcDbLine
 10
201.2511118493
 20
57.8880207265
 30
0.0
 11
201.5989304857
 21
69.0182170901
 31
0.0
  0
LINE
  5
19D
330
1F
100
AcDbEntity
  8
0
  6
Continuous
 62
     7
370
    25
100
AcDbLine
 10
201.323337484
 20
69.0182170901
 30
0.0
 11
200.8969553518
 21
69.0182170901
 31
0.0
  0
LINE
  5
19E
330
1F
100
AcDbEntity
  8
0
  6
Continuous
 62
     7
370
    25
100
AcDbLine
 10
194.1753126179
 20
69.0182170901
 30
0.0
 11
193.3225483535
 21
69.0182170901
 31
0.0
  0
LINE
  5
19F
330
1F
100
AcDbEntity
  8
0
  6
Continuous
 62
     7
370
    25
100
AcDbLine
 10
186.6009056196
 20
69.0182170901
 30
0.0
 11
186.1745234874
 21
69.0182170901
 31
0.0
  0
LINE
  5
1A0
330
1F
100
AcDbEntity
  8
0
  6
Continuous
 62
     7
370
    18
100
AcDbLine
 10
179.2489304857
 20
87.4932170901
 30
0.0
 11
177.0398270201
 21
87.4932170901
 31
0.0
  0
LINE
  5
1A1
330
1F
100
AcDbEntity
  8
0
  6
Continuous
 62
     7
370
    18
100
AcDbLine
 10
177.0398270201
 20
72.5432170901
 30
0.0
 11
179.2489304857
 21
72.5432170901
 31
0.0
  0
LINE
  5
1A2
330
1F
100
AcDbEntity
  8
0
  6
Continuous
 62
     7
370
    25
100
AcDbLine
 10
179.2489304857
 20
88.3492170901
 30
0.0
 11
179.2489304857
 21
88.3035790004
 31
0.0
  0
LWPOLYLINE
  5
1A3
330
1F
100
AcDbEntity
  8
0
  6
Continuous
 62
     7
370
     0
100
AcDbPolyline
 90
       31
 70
   128
 43
0.0
 10
179.2489290237
 20
88.3035790004
 10
179.2489304857
 20
88.1671647518
 10
179.2489304857
 20
87.9414689273
 10
179.2489304857
 20
87.6289642977
 10
179.2489304857
 20
87.233074729
 10
179.2489304857
 20
86.7581376702
 10
179.2489304857
 20
86.2093566311
 10
179.2489304857
 20
85.5927441716
 10
179.2489304857
 20
84.9150560269
 10
179.2489304857
 20
84.1837170901
 10
179.2489304857
 20
83.4067400635
 10
179.2489304857
 20
82.5926376702
 10
179.2489304857
 20
81.7503293863
 10
179.2489304857
 20
80.8890437176
 10
179.2489304857
 20
80.0182170901
 10
179.2489304857
 20
79.1473904626
 10
179.2489304857
 20
78.2861047939
 10
179.2489304857
 20
77.4437965099
 10
179.2489304857
 20
76.6296941166
 10
179.2489304857
 20
75.8527170901
 10
179.2489304857
 20
75.1213781532
 10
179.2489304857
 20
74.4436900085
 10
179.2489304857
 20
73.827077549
 10
179.2489304857
 20
73.2782965099
 10
179.2489304857
 20
72.8033594511
 10
179.2489304857
 20
72.4074698824
 10
179.2489304857
 20
72.0949652528
 10
179.2489304857
 20
71.8692694284
 10
179.2489304857
 20
71.7328551798
 10
179.2489304857
 20
71.6872170901
 10
179.2489304857
 20
71.6872170901
  0
LINE
  5
1A4
330
1F
100
AcDbEntity
  8
0
  6
CENTERX2
 62
     7
370
    18
100
AcDbLine
 10
207.6208354071
 20
80.0182170901
 30
0.0
 11
134.5398270201
 21
80.0182170901
 31
0.0
  0
LINE
  5
1A5
330
1F
100
AcDbEntity
  8
0
  6
CENTERX2
 62
     7
370
    18
100
AcDbLine
 10
193.7489304857
 20
55.909352164
 30
0.0
 11
193.7489304857
 21
108.7730059038
 31
0.0
  0
LINE
  5
1A6
330
1F
100
AcDbEntity
  8
0
  6
Continuous
 62
     7
370
    25
100
AcDbLine
 10
244.9157413395
 20
68.6762170901
 30
0.0
 11
245.2150653449
 21
59.0978489161
 31
0.0
  0
LINE
  5
1A7
330
1F
100
AcDbEntity
  8
0
  6
Continuous
 62
     7
370
    25
100
AcDbLine
 10
261.6164173341
 20
59.0978489161
 30
0.0
 11
261.9157413395
 21
68.6762170901
 31
0.0
  0
LINE
  5
1A8
330
1F
100
AcDbEntity
  8
0
  6
Continuous
 62
     7
370
    25
100
AcDbLine
 10
245.2150653449
 20
59.0978489161
 30
0.0
 11
246.4157413395
 21
57.0182170901
 31
0.0
  0
LINE
  5
1A9
330
1F
100
AcDbEntity
  8
0
  6
Continuous
 62
     7
370
    25
100
AcDbLine
 10
260.4157413395
 20
57.0182170901
 30
0.0
 11
261.6164173341
 21
59.0978489161
 31
0.0
  0
LINE
  5
1AA
330
1F
100
AcDbEntity
  8
0
  6
Continuous
 62
     7
370
    25
100
AcDbLine
 10
259.3157413395
 20
87.5815056165
 30
0.0
 11
259.3157413395
 21
90.5182170901
 31
0.0
  0
LINE
  5
1AB
330
1F
100
AcDbEntity
  8
0
  6
Continuous
 62
     7
370
    25
100
AcDbLine
 10
247.5157413395
 20
90.5182170901
 30
0.0
 11
247.5157413395
 21
87.5815056165
 31
0.0
  0
ARC
  5
1AC
330
1F
100
AcDbEntity
  8
0
  6
Continuous
 62
     7
370
    25
100
AcDbCircle
 10
248.1657413395
 20
107.1182170901
 30
0.0
 40
0.25
100
AcDbArc
 50
90.0
 51
180.0
  0
ARC
  5
1AD
330
1F
100
AcDbEntity
  8
0
  6
Continuous
 62
     7
370
    25
100
AcDbCircle
 10
258.6657413395
 20
107.1182170901
 30
0.0
 40
0.25
100
AcDbArc
 50
0.0
 51
90.0
  0
LINE
  5
1AE
330
1F
100
AcDbEntity
  8
0
  6
Continuous
 62
     7
370
    25
100
AcDbLine
 10
247.9157413395
 20
107.1182170901
 30
0.0
 11
247.9157413395
 21
106.5182170901
 31
0.0
  0
LINE
  5
1AF
330
1F
100
AcDbEntity
  8
0
  6
Continuous
 62
     7
370
    25
100
AcDbLine
 10
258.9157413395
 20
106.5182170901
 30
0.0
 11
258.9157413395
 21
107.1182170901
 31
0.0
  0
LINE
  5
1B0
330
1F
100
AcDbEntity
  8
0
  6
Continuous
 62
     7
370
    25
100
AcDbLine
 10
260.8657413395
 20
98.5182170901
 30
0.0
 11
258.9157413395
 21
106.5182170901
 31
0.0
  0
LINE
  5
1B1
330
1F
100
AcDbEntity
  8
0
  6
Continuous
 62
     7
370
    25
100
AcDbLine
 10
247.9157413395
 20
106.5182170901
 30
0.0
 11
245.9657413395
 21
98.5182170901
 31
0.0
  0
LINE
  5
1B2
330
1F
100
AcDbEntity
  8
0
  6
Continuous
 62
     7
370
    25
100
AcDbLine
 10
245.9657413395
 20
98.5182170901
 30
0.0
 11
246.4157413395
 21
90.5182170901
 31
0.0
  0
LINE
  5
1B3
330
1F
100
AcDbEntity
  8
0
  6
Continuous
 62
     7
370
    25
100
AcDbLine
 10
260.4157413395
 20
90.5182170901
 30
0.0
 11
260.8657413395
 21
98.5182170901
 31
0.0
  0
CIRCLE
  5
1B4
330
1F
100
AcDbEntity
  8
0
  6
Continuous
 62
     7
370
    25
100
AcDbCircle
 10
253.4157413395
 20
80.0182170901
 30
0.0
 40
9.049999999999926
  0
CIRCLE
  5
1B5
330
1F
100
AcDbEntity
  8
0
  6
Continuous
 62
     7
370
    25
100
AcDbCircle
 10
253.4157413395
 20
80.0182170901
 30
0.0
 40
5.599999999999994
  0
CIRCLE
  5
1B6
330
1F
100
AcDbEntity
  8
0
  6
Continuous
 62
     7
370
    25
100
AcDbCircle
 10
253.4157413395
 20
80.0182170901
 30
0.0
 40
9.349999999999937
  0
CIRCLE
  5
1B7
330
1F
100
AcDbEntity
  8
0
  6
Continuous
 62
     7
370
    25
100
AcDbCircle
 10
253.4157413395
 20
80.0182170901
 30
0.0
 40
5.499999999999915
  0
SPLINE
  5
1B8
330
1F
100
AcDbEntity
  8
0
  6
Continuous
 62
     7
370
    25
100
AcDbSpline
210
0.0
220
0.0
230
1.0
 70
    24
 71
     3
 72
    14
 73
    10
 74
     0
 42
0.00000001
 43
0.00000001
 40
0.0
 40
0.0
 40
0.0
 40
0.0
 40
0.1187857262003507
 40
0.2441770919383205
 40
0.3695364010689739
 40
0.497990368099822
 40
0.6264438955669189
 40
0.8122362427248249
 40
1.0
 40
1.0
 40
1.0
 40
1.0
 10
262.9157413394919
 20
74.53338953276788
 30
0.0
 10
262.9157413394919
 20
74.95864682582778
 30
0.0
 10
262.9157413394919
 20
75.8328098458003
 30
0.0
 10
262.9157413394919
 20
77.17918530958994
 30
0.0
 10
262.9157413394919
 20
78.57610867726952
 30
0.0
 10
262.9157413394919
 20
79.99544907147569
 30
0.0
 10
262.9157413394919
 20
81.63859909855077
 30
0.0
 10
262.9157413394919
 20
83.48857275702048
 30
0.0
 10
262.9157413394919
 20
84.82919567664973
 30
0.0
 10
262.9157413394919
 20
85.5030446473708
 30
0.0
  0
SPLINE
  5
1B9
330
1F
100
AcDbEntity
  8
0
  6
Continuous
 62
     7
370
    25
100
AcDbSpline
210
0.0
220
0.0
230
1.0
 70
    24
 71
     3
 72
    14
 73
    10
 74
     0
 42
0.00000001
 43
0.00000001
 40
0.0
 40
0.0
 40
0.0
 40
0.0
 40
0.1323178218192658
 40
0.2645982322802884
 40
0.3998378333746938
 40
0.5350530300363142
 40
0.6502539940279582
 40
0.7654729281951006
 40
0.9999999999999999
 40
0.9999999999999999
 40
0.9999999999999999
 40
0.9999999999999999
 10
253.4157413394919
 20
69.04856197546647
 30
0.0
 10
253.8261800425102
 20
69.2855288711399
 30
0.0
 10
254.6469414016746
 20
69.7593956627939
 30
0.0
 10
255.910850823963
 20
70.48911410798347
 30
0.0
 10
257.1985468897124
 20
71.23256577817827
 30
0.0
 10
258.4397328121552
 20
71.94916480461497
 30
0.0
 10
259.6134106475519
 20
72.62678801882316
 30
0.0
 10
261.096626964818
 20
73.48312335886318
 30
0.0
 10
262.1855492704105
 20
74.11181294512365
 30
0.0
 10
262.9157413394919
 20
74.5333895327679
 30
0.0
  0
SPLINE
  5
1BA
330
1F
100
AcDbEntity
  8
0
  6
Continuous
 62
     7
370
    25
100
AcDbSpline
210
0.0
220
0.0
230
1.0
 70
    24
 71
     3
 72
    14
 73
    10
 74
     0
 42
0.00000001
 43
0.00000001
 40
0.0
 40
0.0
 40
0.0
 40
0.0
 40
0.1323178218192658
 40
0.2645982322802882
 40
0.3998378333746936
 40
0.5350530300363139
 40
0.650253994027958
 40
0.7654729281951005
 40
0.9999999999999999
 40
0.9999999999999999
 40
0.9999999999999999
 40
0.9999999999999999
 10
243.9157413394919
 20
74.5333895327679
 30
0.0
 10
244.3261800425102
 20
74.29642263709447
 30
0.0
 10
245.1469414016745
 20
73.82255584544046
 30
0.0
 10
246.410850823963
 20
73.09283740025089
 30
0.0
 10
247.6985468897124
 20
72.34938573005608
 30
0.0
 10
248.9397328121551
 20
71.63278670361939
 30
0.0
 10
250.1134106475519
 20
70.95516348941119
 30
0.0
 10
251.5966269648179
 20
70.09882814937117
 30
0.0
 10
252.6855492704105
 20
69.47013856311071
 30
0.0
 10
253.4157413394919
 20
69.04856197546646
 30
0.0
  0
SPLINE
  5
1BB
330
1F
100
AcDbEntity
  8
0
  6
Continuous
 62
     7
370
    25
100
AcDbSpline
210
0.0
220
0.0
230
1.0
 70
    24
 71
     3
 72
    14
 73
    10
 74
     0
 42
0.00000001
 43
0.00000001
 40
0.0
 40
0.0
 40
0.0
 40
0.0
 40
0.1859475788974204
 40
0.3735551319467096
 40
0.4987919046993188
 40
0.6240284507926855
 40
0.7526037297566681
 40
0.8812143399979505
 40
1.0
 40
1.0
 40
1.0
 40
1.0
 10
243.9157413394919
 20
85.5030446473708
 30
0.0
 10
243.9157413394919
 20
84.83576068595052
 30
0.0
 10
243.9157413394919
 20
83.49523584700228
 30
0.0
 10
243.9157413394919
 20
81.65717414261681
 30
0.0
 10
243.9157413394919
 20
80.03134092964682
 30
0.0
 10
243.9157413394919
 20
78.62384690168982
 30
0.0
 10
243.9157413394919
 20
77.21445120526215
 30
0.0
 10
243.9157413394919
 20
75.8443397302434
 30
0.0
 10
243.9157413394919
 20
74.95864832238811
 30
0.0
 10
243.9157413394919
 20
74.5333895327679
 30
0.0
  0
SPLINE
  5
1BC
330
1F
100
AcDbEntity
  8
0
  6
Continuous
 62
     7
370
    25
100
AcDbSpline
210
0.0
220
0.0
230
1.0
 70
    24
 71
     3
 72
    14
 73
    10
 74
     0
 42
0.00000001
 43
0.00000001
 40
0.0
 40
0.0
 40
0.0
 40
0.0
 40
0.1323178218192659
 40
0.2645982322802885
 40
0.3998378333746939
 40
0.5350530300363142
 40
0.6502539940279582
 40
0.7654729281951006
 40
0.9999999999999999
 40
0.9999999999999999
 40
0.9999999999999999
 40
0.9999999999999999
 10
253.4157413394919
 20
90.98787220467224
 30
0.0
 10
253.0053026364736
 20
90.7509053089988
 30
0.0
 10
252.1845412773092
 20
90.27703851734479
 30
0.0
 10
250.9206318550207
 20
89.54732007215522
 30
0.0
 10
249.6329357892714
 20
88.80386840196043
 30
0.0
 10
248.3917498668286
 20
88.08726937552373
 30
0.0
 10
247.2180720314319
 20
87.40964616131552
 30
0.0
 10
245.7348557141658
 20
86.55331082127552
 30
0.0
 10
244.6459334085732
 20
85.92462123501504
 30
0.0
 10
243.9157413394919
 20
85.5030446473708
 30
0.0
  0
SPLINE
  5
1BD
330
1F
100
AcDbEntity
  8
0
  6
Continuous
 62
     7
370
    25
100
AcDbSpline
210
0.0
220
0.0
230
1.0
 70
    24
 71
     3
 72
    14
 73
    10
 74
     0
 42
0.00000001
 43
0.00000001
 40
0.0
 40
0.0
 40
0.0
 40
0.0
 40
0.132317821819266
 40
0.2645982322802884
 40
0.3998378333746939
 40
0.5350530300363143
 40
0.6502539940279584
 40
0.7654729281951007
 40
0.9999999999999999
 40
0.9999999999999999
 40
0.9999999999999999
 40
0.9999999999999999
 10
262.9157413394919
 20
85.5030446473708
 30
0.0
 10
262.5053026364736
 20
85.74001154304423
 30
0.0
 10
261.6845412773092
 20
86.21387833469825
 30
0.0
 10
260.4206318550207
 20
86.94359677988781
 30
0.0
 10
259.1329357892714
 20
87.6870484500826
 30
0.0
 10
257.8917498668286
 20
88.40364747651931
 30
0.0
 10
256.7180720314319
 20
89.08127069072751
 30
0.0
 10
255.2348557141658
 20
89.93760603076753
 30
0.0
 10
254.1459334085732
 20
90.56629561702799
 30
0.0
 10
253.4157413394919
 20
90.98787220467224
 30
0.0
  0
CIRCLE
  5
1BE
330
1F
100
AcDbEntity
  8
0
  6
Continuous
 62
     7
370
    25
100
AcDbCircle
 10
253.4157413395
 20
80.0182170901
 30
0.0
 40
4.557142857142793
  0
CIRCLE
  5
1BF
330
1F
100
AcDbEntity
  8
0
  6
Continuous
 62
     7
370
    25
100
AcDbCircle
 10
253.4157413395
 20
80.0182170901
 30
0.0
 40
4.099999999999994
  0
CIRCLE
  5
1C0
330
1F
100
AcDbEntity
  8
0
  6
Continuous
 62
     7
370
    25
100
AcDbCircle
 10
253.4157413395
 20
80.0182170901
 30
0.0
 40
3.599999999999994
  0
CIRCLE
  5
1C1
330
1F
100
AcDbEntity
  8
0
  6
Continuous
 62
     7
370
    25
100
AcDbCircle
 10
253.4157413395
 20
80.0182170901
 30
0.0
 40
3.499999999999915
  0
CIRCLE
  5
1C2
330
1F
100
AcDbEntity
  8
0
  6
Continuous
 62
     7
370
    25
100
AcDbCircle
 10
253.4157413395
 20
80.0182170901
 30
0.0
 40
5.250000000000028
  0
CIRCLE
  5
1C3
330
1F
100
AcDbEntity
  8
0
  6
Continuous
 62
     7
370
    25
100
AcDbCircle
 10
253.4157413395
 20
80.0182170901
 30
0.0
 40
2.900000000000028
  0
SPLINE
  5
1C4
330
1F
100
AcDbEntity
  8
0
  6
Continuous
 62
     7
370
    25
100
AcDbSpline
210
0.0
220
0.0
230
1.0
 70
     8
 71
     3
 72
    22
 73
    18
 74
     0
 42
0.00000001
 43
0.00000001
 40
0.0
 40
0.0
 40
0.0
 40
0.0
 40
0.2499999999999999
 40
0.2499999999999999
 40
0.3749999999999999
 40
0.3749999999999999
 40
0.4374999999999999
 40
0.4374999999999999
 40
0.5
 40
0.5
 40
0.5625000000000001
 40
0.5625000000000001
 40
0.6250000000000001
 40
0.6250000000000001
 40
0.750000000000001
 40
0.750000000000001
 40
1.0
 40
1.0
 40
1.0
 40
1.0
 10
249.7453995454565
 20
69.51821709006933
 30
0.0
 10
249.6852381889438
 20
69.34370839243377
 30
0.0
 10
249.6183941021246
 20
69.1713699355339
 30
0.0
 10
249.4889597725095
 20
68.93363450222685
 30
0.0
 10
249.440561213117
 20
68.85685193284482
 30
0.0
 10
249.3513977028294
 20
68.76049753633525
 30
0.0
 10
249.3187386271985
 20
68.73172393587316
 30
0.0
 10
249.2468990597501
 20
68.6895103708442
 30
0.0
 10
249.2064061166049
 20
68.67613727288169
 30
0.0
 10
249.1242982300549
 20
68.67629766747824
 30
0.0
 10
249.0837356866339
 20
68.68980235959765
 30
0.0
 10
249.0112857170045
 20
68.7327938023351
 30
0.0
 10
248.9785201391912
 20
68.76197843850589
 30
0.0
 10
248.889697159596
 20
68.85861108897255
 30
0.0
 10
248.8415178414977
 20
68.93527233446869
 30
0.0
 10
248.712168847994
 20
69.17348277450253
 30
0.0
 10
248.646113491018
 20
69.3440883783581
 30
0.0
 10
248.586083133527
 20
69.51821709006921
 30
0.0
  0
LINE
  5
1C5
330
1F
100
AcDbEntity
  8
0
  6
Continuous
 62
     7
370
    25
100
AcDbLine
 10
248.5860831335
 20
69.5182170901
 30
0.0
 11
245.1657413395
 21
69.5182170901
 31
0.0
  0
LINE
  5
1C6
330
1F
100
AcDbEntity
  8
0
  6
Continuous
 62
     7
370
    25
100
AcDbLine
 10
245.1657413395
 20
72.0518205502
 30
0.0
 11
245.1657413395
 21
69.5182170901
 31
0.0
  0
SPLINE
  5
1C7
330
1F
100
AcDbEntity
  8
0
  6
Continuous
 62
     7
370
    25
100
AcDbSpline
210
0.0
220
0.0
230
1.0
 70
     8
 71
     3
 72
     9
 73
     5
 74
     0
 42
0.00000001
 43
0.00000001
 40
0.0
 40
0.0
 40
0.0
 40
0.0
 40
0.8803387934108249
 40
1.0
 40
1.0
 40
1.0
 40
1.0
 10
245.1657413394924
 20
72.0518205502145
 30
0.0
 10
245.7945923289867
 20
72.2553815692828
 30
0.0
 10
246.5089207150595
 20
72.48661188719215
 30
0.0
 10
247.2449849910603
 20
72.5525120664179
 30
0.0
 10
247.3330633304537
 20
72.56039776137848
 30
0.0
  0
LINE
  5
1C8
330
1F
100
AcDbEntity
  8
0
  6
Continuous
 62
     7
370
    25
100
AcDbLine
 10
252.602274819
 20
69.5182170901
 30
0.0
 11
249.7453995455
 21
69.5182170901
 31
0.0
  0
SPLINE
  5
1C9
330
1F
100
AcDbEntity
  8
0
  6
Continuous
 62
     7
370
    25
100
AcDbSpline
210
0.0
220
0.0
230
1.0
 70
     8
 71
     3
 72
    22
 73
    18
 74
     0
 42
0.00000001
 43
0.00000001
 40
0.0
 40
0.0
 40
0.0
 40
0.0
 40
0.249999999999999
 40
0.249999999999999
 40
0.3749999999999976
 40
0.3749999999999976
 40
0.4374999999999975
 40
0.4374999999999975
 40
0.4999999999999973
 40
0.4999999999999973
 40
0.5624999999999972
 40
0.5624999999999972
 40
0.6249999999999971
 40
0.6249999999999971
 40
0.7499999999999972
 40
0.7499999999999972
 40
1.0
 40
1.0
 40
1.0
 40
1.0
 10
258.2453995454566
 20
69.51821709006934
 30
0.0
 10
258.1852381889438
 20
69.34370839243378
 30
0.0
 10
258.1183941021246
 20
69.17136993553392
 30
0.0
 10
257.9889597725095
 20
68.93363450222685
 30
0.0
 10
257.940561213117
 20
68.85685193284482
 30
0.0
 10
257.8513977028294
 20
68.76049753633525
 30
0.0
 10
257.8187386271985
 20
68.73172393587313
 30
0.0
 10
257.7468990597501
 20
68.68951037084418
 30
0.0
 10
257.706406116605
 20
68.67613727288168
 30
0.0
 10
257.6242982300549
 20
68.67629766747821
 30
0.0
 10
257.5837356866339
 20
68.6898023595976
 30
0.0
 10
257.5112857170046
 20
68.73279380233505
 30
0.0
 10
257.4785201391912
 20
68.76197843850579
 30
0.0
 10
257.389697159596
 20
68.85861108897245
 30
0.0
 10
257.3415178414976
 20
68.9352723344686
 30
0.0
 10
257.212168847994
 20
69.17348277450249
 30
0.0
 10
257.146113491018
 20
69.34408837835807
 30
0.0
 10
257.086083133527
 20
69.51821709006921
 30
0.0
  0
SPLINE
  5
1CA
330
1F
100
AcDbEntity
  8
0
  6
Continuous
 62
     7
370
    25
100
AcDbSpline
210
0.0
220
0.0
230
1.0
 70
     8
 71
     3
 72
     9
 73
     5
 74
     0
 42
0.00000001
 43
0.00000001
 40
0.0
 40
0.0
 40
0.0
 40
0.0
 40
0.1466837806780397
 40
1.0
 40
1.0
 40
1.0
 40
1.0
 10
259.4960283338252
 20
72.55901730839493
 30
0.0
 10
259.6040458319055
 20
72.54839395636934
 30
0.0
 10
260.3404428458159
 20
72.47597046158016
 30
0.0
 10
261.0555385644304
 20
72.24711048240133
 30
0.0
 10
261.6657413394919
 20
72.05182055021434
 30
0.0
  0
LINE
  5
1CB
330
1F
100
AcDbEntity
  8
0
  6
Continuous
 62
     7
370
    25
100
AcDbLine
 10
261.6657413395
 20
69.5182170901
 30
0.0
 11
261.6657413395
 21
72.0518205502
 31
0.0
  0
LINE
  5
1CC
330
1F
100
AcDbEntity
  8
0
  6
Continuous
 62
     7
370
    25
100
AcDbLine
 10
261.6657413395
 20
69.5182170901
 30
0.0
 11
258.2453995455
 21
69.5182170901
 31
0.0
  0
LINE
  5
1CD
330
1F
100
AcDbEntity
  8
0
  6
Continuous
 62
     7
370
    25
100
AcDbLine
 10
257.0860831335
 20
69.5182170901
 30
0.0
 11
254.22920786
 21
69.5182170901
 31
0.0
  0
LINE
  5
1CE
330
1F
100
AcDbEntity
  8
0
  6
Continuous
 62
     7
370
    25
100
AcDbLine
 10
245.2150653449
 20
59.0978489161
 30
0.0
 11
261.6164173341
 21
59.0978489161
 31
0.0
  0
SPLINE
  5
1CF
330
1F
100
AcDbEntity
  8
0
  6
Continuous
 62
     7
370
    25
100
AcDbSpline
210
0.0
220
0.0
230
1.0
 70
    24
 71
     3
 72
    12
 73
     8
 74
     0
 42
0.00000001
 43
0.00000001
 40
0.0
 40
0.0
 40
0.0
 40
0.0
 40
0.0774300012771015
 40
0.2019650432969748
 40
0.366731340222763
 40
0.8248784675045595
 40
1.0
 40
1.0
 40
1.0
 40
1.0
 10
261.9157413394918
 20
68.6791709349552
 30
0.0
 10
261.9157413394918
 20
68.68067877126202
 30
0.0
 10
261.9157413394919
 20
68.68461174581928
 30
0.0
 10
261.9157413394918
 20
68.76143204146452
 30
0.0
 10
261.9157413394919
 20
68.96679070950348
 30
0.0
 10
261.9157413394918
 20
69.2382903466787
 30
0.0
 10
261.9157413394919
 20
69.45757657171865
 30
0.0
 10
261.9157413394918
 20
69.51821709006934
 30
0.0
  0
SPLINE
  5
1D0
330
1F
100
AcDbEntity
  8
0
  6
Continuous
 62
     7
370
    25
100
AcDbSpline
210
0.0
220
0.0
230
1.0
 70
    24
 71
     3
 72
    12
 73
     8
 74
     0
 42
0.00000001
 43
0.00000001
 40
0.0
 40
0.0
 40
0.0
 40
0.0
 40
0.1751215324954311
 40
0.6332686597772034
 40
0.7980349567029829
 40
0.9225699987228496
 40
1.0
 40
1.0
 40
1.0
 40
1.0
 10
244.9157413394919
 20
69.51821709006934
 30
0.0
 10
244.9157413394919
 20
69.45757657171866
 30
0.0
 10
244.9157413394919
 20
69.2382903466787
 30
0.0
 10
244.9157413394919
 20
68.9667907095035
 30
0.0
 10
244.9157413394919
 20
68.76143204146452
 30
0.0
 10
244.9157413394919
 20
68.68461174581928
 30
0.0
 10
244.9157413394919
 20
68.68067877126201
 30
0.0
 10
244.9157413394919
 20
68.67917093495518
 30
0.0
  0
LINE
  5
1D1
330
1F
100
AcDbEntity
  8
0
  6
Continuous
 62
     7
370
    25
100
AcDbLine
 10
253.4157413395
 20
57.0182170901
 30
0.0
 11
246.4157413395
 21
57.0182170901
 31
0.0
  0
LINE
  5
1D2
330
1F
100
AcDbEntity
  8
0
  6
Continuous
 62
     7
370
    25
100
AcDbLine
 10
260.4157413395
 20
57.0182170901
 30
0.0
 11
253.4157413395
 21
57.0182170901
 31
0.0
  0
SPLINE
  5
1D3
330
1F
100
AcDbEntity
  8
0
  6
Continuous
 62
     7
370
    25
100
AcDbSpline
210
0.0
220
0.0
230
1.0
 70
     8
 71
     3
 72
     8
 73
     4
 74
     0
 42
0.00000001
 43
0.00000001
 40
0.0
 40
0.0
 40
0.0
 40
0.0
 40
1.0
 40
1.0
 40
1.0
 40
1.0
 10
246.4875381092164
 20
73.01821709006936
 30
0.0
 10
245.9611172480072
 20
72.75500665946474
 30
0.0
 10
245.4375727912935
 20
72.48590923107804
 30
0.0
 10
244.9157413394919
 20
72.21330587849538
 30
0.0
  0
SPLINE
  5
1D4
330
1F
100
AcDbEntity
  8
0
  6
Continuous
 62
     7
370
    25
100
AcDbSpline
210
0.0
220
0.0
230
1.0
 70
     8
 71
     3
 72
    10
 73
     6
 74
     0
 42
0.00000001
 43
0.00000001
 40
0.0
 40
0.0
 40
0.0
 40
0.0
 40
0.5
 40
0.5
 40
1.0
 40
1.0
 40
1.0
 40
1.0
 10
244.9157413394919
 20
72.05182055021427
 30
0.0
 10
244.9157413394919
 20
72.02814515578987
 30
0.0
 10
244.9385337888218
 20
72.01505404590529
 30
0.0
 10
245.026476492915
 20
72.01496772461707
 30
0.0
 10
245.0913342665892
 20
72.02813665856101
 30
0.0
 10
245.1657413394926
 20
72.05182055021456
 30
0.0
  0
SPLINE
  5
1D5
330
1F
100
AcDbEntity
  8
0
  6
Continuous
 62
     7
370
    25
100
AcDbSpline
210
0.0
220
0.0
230
1.0
 70
    24
 71
     3
 72
     8
 73
     4
 74
     0
 42
0.00000001
 43
0.00000001
 40
0.0
 40
0.0
 40
0.0
 40
0.0
 40
1.0
 40
1.0
 40
1.0
 40
1.0
 10
244.9157413394919
 20
72.05182055021434
 30
0.0
 10
244.9157413394919
 20
72.10838151733856
 30
0.0
 10
244.9157413394919
 20
72.1623215887524
 30
0.0
 10
244.9157413394919
 20
72.21330587849536
 30
0.0
  0
SPLINE
  5
1D6
330
1F
100
AcDbEntity
  8
0
  6
Continuous
 62
     7
370
    25
100
AcDbSpline
210
0.0
220
0.0
230
1.0
 70
     8
 71
     3
 72
     8
 73
     4
 74
     0
 42
0.00000001
 43
0.00000001
 40
0.0
 40
0.0
 40
0.0
 40
0.0
 40
1.0
 40
1.0
 40
1.0
 40
1.0
 10
261.9157413394919
 20
72.21330587849536
 30
0.0
 10
261.39393518819
 20
72.48589601416472
 30
0.0
 10
260.8702817193338
 20
72.7550485152861
 30
0.0
 10
260.3439445697674
 20
73.01821709006936
 30
0.0
  0
SPLINE
  5
1D7
330
1F
100
AcDbEntity
  8
0
  6
Continuous
 62
     7
370
    25
100
AcDbSpline
210
0.0
220
0.0
230
1.0
 70
     8
 71
     3
 72
    10
 73
     6
 74
     0
 42
0.00000001
 43
0.00000001
 40
0.0
 40
0.0
 40
0.0
 40
0.0
 40
0.5
 40
0.5
 40
1.0
 40
1.0
 40
1.0
 40
1.0
 10
261.6657413394919
 20
72.05182055021434
 30
0.0
 10
261.7401217168692
 20
72.02814515578996
 30
0.0
 10
261.804422355655
 20
72.01505404590532
 30
0.0
 10
261.8926380404379
 20
72.01496772461704
 30
0.0
 10
261.9157413394918
 20
72.02813665856088
 30
0.0
 10
261.9157413394918
 20
72.05182055021433
 30
0.0
  0
SPLINE
  5
1D8
330
1F
100
AcDbEntity
  8
0
  6
Continuous
 62
     7
370
    25
100
AcDbSpline
210
0.0
220
0.0
230
1.0
 70
    24
 71
     3
 72
     8
 73
     4
 74
     0
 42
0.00000001
 43
0.00000001
 40
0.0
 40
0.0
 40
0.0
 40
0.0
 40
1.0
 40
1.0
 40
1.0
 40
1.0
 10
261.9157413394918
 20
72.05182055021434
 30
0.0
 10
261.9157413394918
 20
72.10838151733857
 30
0.0
 10
261.9157413394918
 20
72.1623215887524
 30
0.0
 10
261.9157413394918
 20
72.21330587849536
 30
0.0
  0
LINE
  5
1D9
330
1F
100
AcDbEntity
  8
0
  6
Continuous
 62
     7
370
    25
100
AcDbLine
 10
245.9157413395
 20
73.3786889944
 30
0.0
 11
245.9157413395
 21
73.0182170901
 31
0.0
  0
LINE
  5
1DA
330
1F
100
AcDbEntity
  8
0
  6
Continuous
 62
     7
370
    25
100
AcDbLine
 10
245.9157413395
 20
73.0182170901
 30
0.0
 11
246.50091471
 21
73.0182170901
 31
0.0
  0
LINE
  5
1DB
330
1F
100
AcDbEntity
  8
0
  6
Continuous
 62
     7
370
    25
100
AcDbLine
 10
260.9157413395
 20
73.0182170901
 30
0.0
 11
260.9157413395
 21
73.3786889944
 31
0.0
  0
LINE
  5
1DC
330
1F
100
AcDbEntity
  8
0
  6
Continuous
 62
     7
370
    25
100
AcDbLine
 10
260.3308945071
 20
73.0182170901
 30
0.0
 11
260.9157413395
 21
73.0182170901
 31
0.0
  0
LINE
  5
1DD
330
1F
100
AcDbEntity
  8
0
  6
Continuous
 62
     7
370
    25
100
AcDbLine
 10
244.9157413395
 20
69.5182170901
 30
0.0
 11
245.1657413395
 21
69.5182170901
 31
0.0
  0
LINE
  5
1DE
330
1F
100
AcDbEntity
  8
0
  6
Continuous
 62
     7
370
    25
100
AcDbLine
 10
244.9157413395
 20
69.5182170901
 30
0.0
 11
244.9157413395
 21
72.0518205502
 31
0.0
  0
LINE
  5
1DF
330
1F
100
AcDbEntity
  8
0
  6
Continuous
 62
     7
370
    25
100
AcDbLine
 10
261.6657413395
 20
69.5182170901
 30
0.0
 11
261.9157413395
 21
69.5182170901
 31
0.0
  0
LINE
  5
1E0
330
1F
100
AcDbEntity
  8
0
  6
Continuous
 62
     7
370
    25
100
AcDbLine
 10
261.9157413395
 20
72.0518205502
 30
0.0
 11
261.9157413395
 21
69.5182170901
 31
0.0
  0
LINE
  5
1E1
330
1F
100
AcDbEntity
  8
0
  6
Continuous
 62
     7
370
    25
100
AcDbLine
 10
244.9157413395
 20
72.2133058785
 30
0.0
 11
244.9157413395
 21
73.9560392636
 31
0.0
  0
LINE
  5
1E2
330
1F
100
AcDbEntity
  8
0
  6
Continuous
 62
     7
370
    25
100
AcDbLine
 10
261.9157413395
 20
72.2133058785
 30
0.0
 11
261.9157413395
 21
73.9560392636
 31
0.0
  0
LINE
  5
1E3
330
1F
100
AcDbEntity
  8
0
  6
Continuous
 62
     7
370
    25
100
AcDbLine
 10
248.1657413395
 20
107.3682170901
 30
0.0
 11
249.9157413395
 21
107.3682170901
 31
0.0
  0
LINE
  5
1E4
330
1F
100
AcDbEntity
  8
0
  6
Continuous
 62
     7
370
    25
100
AcDbLine
 10
256.9157413395
 20
107.3682170901
 30
0.0
 11
258.6657413395
 21
107.3682170901
 31
0.0
  0
LINE
  5
1E5
330
1F
100
AcDbEntity
  8
0
  6
Continuous
 62
     7
370
    25
100
AcDbLine
 10
247.9157413395
 20
106.5182170901
 30
0.0
 11
249.9157413395
 21
106.5182170901
 31
0.0
  0
LINE
  5
1E6
330
1F
100
AcDbEntity
  8
0
  6
Continuous
 62
     7
370
    25
100
AcDbLine
 10
256.9157413395
 20
106.5182170901
 30
0.0
 11
258.9157413395
 21
106.5182170901
 31
0.0
  0
LINE
  5
1E7
330
1F
100
AcDbEntity
  8
0
  6
Continuous
 62
     7
370
    25
100
AcDbLine
 10
256.9157413395
 20
96.5182170901
 30
0.0
 11
249.9157413395
 21
96.5182170901
 31
0.0
  0
LINE
  5
1E8
330
1F
100
AcDbEntity
  8
0
  6
Continuous
 62
     7
370
    25
100
AcDbLine
 10
249.9157413395
 20
96.5182170901
 30
0.0
 11
249.9157413395
 21
101.5182170901
 31
0.0
  0
LINE
  5
1E9
330
1F
100
AcDbEntity
  8
0
  6
Continuous
 62
     7
370
    25
100
AcDbLine
 10
249.9157413395
 20
101.5182170901
 30
0.0
 11
256.9157413395
 21
101.5182170901
 31
0.0
  0
LINE
  5
1EA
330
1F
100
AcDbEntity
  8
0
  6
Continuous
 62
     7
370
    25
100
AcDbLine
 10
256.9157413395
 20
101.5182170901
 30
0.0
 11
256.9157413395
 21
96.5182170901
 31
0.0
  0
LINE
  5
1EB
330
1F
100
AcDbEntity
  8
0
  6
Continuous
 62
     7
370
    25
100
AcDbLine
 10
249.9157413395
 20
108.5182170901
 30
0.0
 11
256.9157413395
 21
108.5182170901
 31
0.0
  0
LINE
  5
1EC
330
1F
100
AcDbEntity
  8
0
  6
Continuous
 62
     7
370
    25
100
AcDbLine
 10
256.9157413395
 20
101.5182170901
 30
0.0
 11
256.9157413395
 21
108.5182170901
 31
0.0
  0
LINE
  5
1ED
330
1F
100
AcDbEntity
  8
0
  6
Continuous
 62
     7
370
    25
100
AcDbLine
 10
249.9157413395
 20
108.5182170901
 30
0.0
 11
249.9157413395
 21
101.5182170901
 31
0.0
  0
SPLINE
  5
1EE
330
1F
100
AcDbEntity
  8
0
  6
Continuous
 62
     7
370
    25
100
AcDbSpline
210
0.0
220
0.0
230
1.0
 70
     8
 71
     3
 72
     9
 73
     5
 74
     0
 42
0.00000001
 43
0.00000001
 40
0.0
 40
0.0
 40
0.0
 40
0.0
 40
0.4976931370791441
 40
0.9999999999999999
 40
0.9999999999999999
 40
0.9999999999999999
 40
0.9999999999999999
 10
256.9157413394919
 20
96.27039278304483
 30
0.0
 10
256.9324108527091
 20
96.12094590204438
 30
0.0
 10
256.9659044092307
 20
95.82066673428749
 30
0.0
 10
257.1892430928723
 20
95.23924460690006
 30
0.0
 10
257.3014276464213
 20
94.9471922820593
 30
0.0
  0
LINE
  5
1EF
330
1F
100
AcDbEntity
  8
0
  6
Continuous
 62
     7
370
    25
100
AcDbLine
 10
257.3014276464
 20
94.9471922821
 30
0.0
 11
249.5300550326
 21
94.9471922821
 31
0.0
  0
SPLINE
  5
1F0
330
1F
100
AcDbEntity
  8
0
  6
Continuous
 62
     7
370
    25
100
AcDbSpline
210
0.0
220
0.0
230
1.0
 70
     8
 71
     3
 72
     9
 73
     5
 74
     0
 42
0.00000001
 43
0.00000001
 40
0.0
 40
0.0
 40
0.0
 40
0.0
 40
0.4977232396629077
 40
1.0
 40
1.0
 40
1.0
 40
1.0
 10
249.5300550325625
 20
94.94719228205932
 30
0.0
 10
249.6413517086764
 20
95.23678468268346
 30
0.0
 10
249.864963280821
 20
95.81861887796894
 30
0.0
 10
249.8987640158197
 20
96.11934502710709
 30
0.0
 10
249.9157413394919
 20
96.27039278304483
 30
0.0
  0
LINE
  5
1F1
330
1F
100
AcDbEntity
  8
0
  6
Continuous
 62
     7
370
    25
100
AcDbLine
 10
256.9157413395
 20
96.5182170901
 30
0.0
 11
256.9157413395
 21
96.270392783
 31
0.0
  0
LINE
  5
1F2
330
1F
100
AcDbEntity
  8
0
  6
Continuous
 62
     7
370
    25
100
AcDbLine
 10
249.9157413395
 20
96.270392783
 30
0.0
 11
249.9157413395
 21
96.5182170901
 31
0.0
  0
SPLINE
  5
1F3
330
1F
100
AcDbEntity
  8
0
  6
Continuous
 62
     7
370
    25
100
AcDbSpline
210
0.0
220
0.0
230
1.0
 70
     8
 71
     3
 72
    16
 73
    12
 74
     0
 42
0.00000001
 43
0.00000001
 40
0.0
 40
0.0
 40
0.0
 40
0.0
 40
0.0155634360124117
 40
0.0359329243097674
 40
0.0739120889290614
 40
0.1570057548437684
 40
0.2406581385754913
 40
0.4592958294318596
 40
0.6783839187935417
 40
0.8974954344294845
 40
1.0
 40
1.0
 40
1.0
 40
1.0
 10
246.7560191172696
 20
90.51821709006938
 30
0.0
 10
246.769712784283
 20
90.52341046184854
 30
0.0
 10
246.8013287783296
 20
90.53540093971633
 30
0.0
 10
246.8568084686397
 20
90.65372686371329
 30
0.0
 10
246.9354092791302
 20
90.96497817116224
 30
0.0
 10
247.0147494657593
 20
91.49062567252729
 30
0.0
 10
247.1199771738625
 20
92.52917183679745
 30
0.0
 10
247.2349705750817
 20
93.96424587914356
 30
0.0
 10
247.3373705754966
 20
95.802497980583
 30
0.0
 10
247.407119455377
 20
97.32368082940245
 30
0.0
 10
247.4465780748058
 20
98.22951287019895
 30
0.0
 10
247.4591542141188
 20
98.5182170900669
 30
0.0
  0
LINE
  5
1F4
330
1F
100
AcDbEntity
  8
0
  6
Continuous
 62
     7
370
    25
100
AcDbLine
 10
247.4591542141
 20
98.5182170901
 30
0.0
 11
247.2389934988
 21
99.512960668
 31
0.0
  0
LINE
  5
1F5
330
1F
100
AcDbEntity
  8
0
  6
Continuous
 62
     7
370
    25
100
AcDbLine
 10
247.2389934988
 20
99.512960668
 30
0.0
 11
249.9157413395
 21
99.5129606681
 31
0.0
  0
ELLIPSE
  5
1F6
330
1F
100
AcDbEntity
  8
0
  6
Continuous
 62
     7
370
    25
100
AcDbEllipse
 10
184.9157413395
 20
96.8660915224
 30
0.0
 11
65.0
 21
0.0
 31
0.0
210
0.0
220
0.0
230
1.0
 40
0.2713992096
 41
6.084179739699224
 42
6.174194364446292
  0
SPLINE
  5
1F7
330
1F
100
AcDbEntity
  8
0
  6
Continuous
 62
     7
370
    25
100
AcDbSpline
210
0.0
220
0.0
230
1.0
 70
     8
 71
     3
 72
    13
 73
     9
 74
     0
 42
0.00000001
 43
0.00000001
 40
0.0
 40
0.0
 40
0.0
 40
0.0
 40
0.1610294006389558
 40
0.3266880383557516
 40
0.4877296220820637
 40
0.6535536198224136
 40
0.8237602734841889
 40
1.0
 40
1.0
 40
1.0
 40
1.0
 10
248.6328790093873
 20
93.37857084157645
 30
0.0
 10
248.589075241955
 20
93.3091739469992
 30
0.0
 10
248.5002084462127
 20
93.16838515149064
 30
0.0
 10
248.3711884275407
 20
92.822260333783
 30
0.0
 10
248.2501783317734
 20
92.38305369073096
 30
0.0
 10
248.1434973486487
 20
91.84945185379136
 30
0.0
 10
248.0528300612929
 20
91.22562554709167
 30
0.0
 10
248.0160112523961
 20
90.75674164888969
 30
0.0
 10
247.9972812636248
 20
90.51821709006929
 30
0.0
  0
LINE
  5
1F8
330
1F
100
AcDbEntity
  8
0
  6
Continuous
 62
     7
370
    25
100
AcDbLine
 10
247.9972812636
 20
90.5182170901
 30
0.0
 11
246.7560191173
 21
90.5182170901
 31
0.0
  0
SPLINE
  5
1F9
330
1F
100
AcDbEntity
  8
0
  6
Continuous
 62
     7
370
    25
100
AcDbSpline
210
0.0
220
0.0
230
1.0
 70
     8
 71
     3
 72
    17
 73
    13
 74
     0
 42
0.00000001
 43
0.00000001
 40
0.0
 40
0.0
 40
0.0
 40
0.0
 40
0.3241697628029873
 40
0.5422758463620719
 40
0.689509052693928
 40
0.7894036290694505
 40
0.8577090008137825
 40
0.9049823971474137
 40
0.9551712229700868
 40
0.9753097783197817
 40
0.9919572060138848
 40
1.0
 40
1.0
 40
1.0
 40
1.0
 10
259.3723284648649
 20
98.51821709006691
 30
0.0
 10
259.4129789035917
 20
97.60560358746123
 30
0.0
 10
259.4809795427474
 20
96.0789705811999
 30
0.0
 10
259.5924124420638
 20
94.15219767891892
 30
0.0
 10
259.6849171021223
 20
92.86456220798617
 30
0.0
 10
259.7628185584397
 20
92.0054102412644
 30
0.0
 10
259.828871057862
 20
91.43194235288702
 30
0.0
 10
259.8922276652245
 20
91.01041019885706
 30
0.0
 10
259.9503541329183
 20
90.72991765606162
 30
0.0
 10
260.0096959612411
 20
90.57436898748097
 30
0.0
 10
260.0467020298639
 20
90.52375838828345
 30
0.0
 10
260.0683965967343
 20
90.51957863647881
 30
0.0
 10
260.0754635617141
 20
90.51821709006936
 30
0.0
  0
LINE
  5
1FA
330
1F
100
AcDbEntity
  8
0
  6
Continuous
 62
     7
370
    25
100
AcDbLine
 10
260.0754635617
 20
90.5182170901
 30
0.0
 11
258.8342014154
 21
90.5182170901
 31
0.0
  0
SPLINE
  5
1FB
330
1F
100
AcDbEntity
  8
0
  6
Continuous
 62
     7
370
    25
100
AcDbSpline
210
0.0
220
0.0
230
1.0
 70
     8
 71
     3
 72
    14
 73
    10
 74
     0
 42
0.00000001
 43
0.00000001
 40
0.0
 40
0.0
 40
0.0
 40
0.0
 40
0.1576095309202822
 40
0.3152382602707094
 40
0.4726926441579498
 40
0.6301650083177254
 40
0.7907313191165901
 40
0.9513050385928076
 40
1.0
 40
1.0
 40
1.0
 40
1.0
 10
258.834201415359
 20
90.51821709006929
 30
0.0
 10
258.8176960785165
 20
90.73171887854669
 30
0.0
 10
258.7846833943152
 20
91.1587484621722
 30
0.0
 10
258.7048797044032
 20
91.74399554102851
 30
0.0
 10
258.607092296917
 20
92.26615008185094
 30
0.0
 10
258.493502457235
 20
92.7151282092708
 30
0.0
 10
258.3689603582033
 20
93.07440994107718
 30
0.0
 10
258.2686030174268
 20
93.27897612017837
 30
0.0
 10
258.2118172198117
 20
93.35977066852966
 30
0.0
 10
258.1986036695964
 20
93.37857084157645
 30
0.0
  0
ELLIPSE
  5
1FC
330
1F
100
AcDbEntity
  8
0
  6
Continuous
 62
     7
370
    25
100
AcDbEllipse
 10
321.9157413395
 20
96.8660915224
 30
0.0
 11
65.0
 21
0.0
 31
0.0
210
0.0
220
0.0
230
1.0
 40
0.2713992096
 41
3.25058359632319
 42
3.340598221070255
  0
LINE
  5
1FD
330
1F
100
AcDbEntity
  8
0
  6
Continuous
 62
     7
370
    25
100
AcDbLine
 10
259.5924891801
 20
99.512960668
 30
0.0
 11
259.3723284649
 21
98.5182170901
 31
0.0
  0
LINE
  5
1FE
330
1F
100
AcDbEntity
  8
0
  6
Continuous
 62
     7
370
    25
100
AcDbLine
 10
256.9157413395
 20
99.5129606681
 30
0.0
 11
259.5924891801
 21
99.512960668
 31
0.0
  0
LINE
  5
1FF
330
1F
100
AcDbEntity
  8
0
  6
Continuous
 62
     7
370
    25
100
AcDbLine
 10
248.6328790094
 20
93.3785708416
 30
0.0
 11
258.1986036696
 21
93.3785708416
 31
0.0
  0
SPLINE
  5
200
330
1F
100
AcDbEntity
  8
0
  6
Continuous
 62
     7
370
    25
100
AcDbSpline
210
0.0
220
0.0
230
1.0
 70
     8
 71
     3
 72
    16
 73
    12
 74
     0
 42
0.00000001
 43
0.00000001
 40
0.0
 40
0.0
 40
0.0
 40
0.0
 40
0.1082397394540288
 40
0.2409347985297594
 40
0.3278143823752722
 40
0.4147786007912546
 40
0.5911316736061375
 40
0.6905102391473411
 40
0.7897210831517909
 40
0.9112972329116562
 40
1.0
 40
1.0
 40
1.0
 40
1.0
 10
256.0138175508452
 20
90.51821709006929
 30
0.0
 10
255.8957636676178
 20
90.70127428476013
 30
0.0
 10
255.6329832071834
 20
91.10874799584566
 30
0.0
 10
255.056305446106
 20
91.4529776643196
 30
0.0
 10
254.4707478537119
 20
91.65696020843735
 30
0.0
 10
253.7637258406799
 20
91.78837423879945
 30
0.0
 10
253.0039029060645
 20
91.78535399474391
 30
0.0
 10
252.2499343998139
 20
91.63059426003558
 30
0.0
 10
251.6495581972474
 20
91.39004792869237
 30
0.0
 10
251.1329040861097
 20
91.02960609026272
 30
0.0
 10
250.9111911511976
 20
90.66993748570839
 30
0.0
 10
250.8176651281386
 20
90.51821709006929
 30
0.0
  0
LINE
  5
201
330
1F
100
AcDbEntity
  8
0
  6
Continuous
 62
     7
370
    25
100
AcDbLine
 10
250.8176651281
 20
90.5182170901
 30
0.0
 11
247.9972812636
 21
90.5182170901
 31
0.0
  0
LINE
  5
202
330
1F
100
AcDbEntity
  8
0
  6
Continuous
 62
     7
370
    25
100
AcDbLine
 10
258.8342014154
 20
90.5182170901
 30
0.0
 11
256.0138175508
 21
90.5182170901
 31
0.0
  0
LINE
  5
203
330
1F
100
AcDbEntity
  8
0
  6
Continuous
 62
     7
370
    25
100
AcDbLine
 10
256.0138175508
 20
90.5182170901
 30
0.0
 11
254.2302082306
 21
90.5182170901
 31
0.0
  0
LINE
  5
204
330
1F
100
AcDbEntity
  8
0
  6
Continuous
 62
     7
370
    25
100
AcDbLine
 10
252.5995211379
 20
90.5182170901
 30
0.0
 11
250.8176651281
 21
90.5182170901
 31
0.0
  0
LINE
  5
205
330
1F
100
AcDbEntity
  8
0
  6
Continuous
 62
     7
370
    25
100
AcDbLine
 10
259.3723284649
 20
98.5182170901
 30
0.0
 11
260.8657413395
 21
98.5182170901
 31
0.0
  0
LINE
  5
206
330
1F
100
AcDbEntity
  8
0
  6
Continuous
 62
     7
370
    25
100
AcDbLine
 10
245.9657413395
 20
98.5182170901
 30
0.0
 11
247.4591542141
 21
98.5182170901
 31
0.0
  0
SPLINE
  5
207
330
1F
100
AcDbEntity
  8
0
  6
Continuous
 62
     7
370
    25
100
AcDbSpline
210
0.0
220
0.0
230
1.0
 70
     8
 71
     3
 72
     9
 73
     5
 74
     0
 42
0.00000001
 43
0.00000001
 40
0.0
 40
0.0
 40
0.0
 40
0.0
 40
0.4875141023677128
 40
0.9999999999999999
 40
0.9999999999999999
 40
0.9999999999999999
 40
0.9999999999999999
 10
260.0754635617141
 20
90.51821709006936
 30
0.0
 10
260.0839896732498
 20
90.51994443604106
 30
0.0
 10
260.1014786268912
 20
90.52348760733253
 30
0.0
 10
260.1178003307776
 20
90.54500609328184
 30
0.0
 10
260.1261649738447
 20
90.55603401386927
 30
0.0
  0
SPLINE
  5
208
330
1F
100
AcDbEntity
  8
0
  6
Continuous
 62
     7
370
    25
100
AcDbSpline
210
0.0
220
0.0
230
1.0
 70
     8
 71
     3
 72
     9
 73
     5
 74
     0
 42
0.00000001
 43
0.00000001
 40
0.0
 40
0.0
 40
0.0
 40
0.0
 40
0.5124861829376838
 40
0.9999999999999999
 40
0.9999999999999999
 40
0.9999999999999999
 40
0.9999999999999999
 10
246.7053177360053
 20
90.5560339680095
 30
0.0
 10
246.713682379129
 20
90.54500605505834
 30
0.0
 10
246.7300040740392
 20
90.52348759598891
 30
0.0
 10
246.747493016281
 20
90.51994443164376
 30
0.0
 10
246.7560191172696
 20
90.51821709006938
 30
0.0
  0
LINE
  5
209
330
1F
100
AcDbEntity
  8
0
  6
Continuous
 62
     7
370
    25
100
AcDbLine
 10
260.123945272
 20
90.5182170901
 30
0.0
 11
260.4157413395
 21
90.5182170901
 31
0.0
  0
LINE
  5
20A
330
1F
100
AcDbEntity
  8
0
  6
Continuous
 62
     7
370
    25
100
AcDbLine
 10
246.4157413395
 20
90.5182170901
 30
0.0
 11
246.707537407
 21
90.5182170901
 31
0.0
  0
LINE
  5
20B
330
1F
100
AcDbEntity
  8
0
  6
Continuous
 62
     7
370
    25
100
AcDbLine
 10
260.1261649738
 20
90.5560340139
 30
0.0
 11
260.123945272
 21
90.5182170901
 31
0.0
  0
LINE
  5
20C
330
1F
100
AcDbEntity
  8
0
  6
Continuous
 62
     7
370
    25
100
AcDbLine
 10
260.123945272
 20
90.5182170901
 30
0.0
 11
260.0754635617
 21
90.5182170901
 31
0.0
  0
LINE
  5
20D
330
1F
100
AcDbEntity
  8
0
  6
Continuous
 62
     7
370
    25
100
AcDbLine
 10
246.707537407
 20
90.5182170901
 30
0.0
 11
246.705317736
 21
90.556033968
 31
0.0
  0
LINE
  5
20E
330
1F
100
AcDbEntity
  8
0
  6
Continuous
 62
     7
370
    25
100
AcDbLine
 10
246.7560191173
 20
90.5182170901
 30
0.0
 11
246.707537407
 21
90.5182170901
 31
0.0
  0
LINE
  5
20F
330
1F
100
AcDbEntity
  8
0
  6
Continuous
 62
     7
370
    25
100
AcDbLine
 10
249.9157413395
 20
107.1182170901
 30
0.0
 11
247.9157413395
 21
107.1182170901
 31
0.0
  0
LINE
  5
210
330
1F
100
AcDbEntity
  8
0
  6
Continuous
 62
     7
370
    25
100
AcDbLine
 10
258.9157413395
 20
107.1182170901
 30
0.0
 11
256.9157413395
 21
107.1182170901
 31
0.0
  0
INSERT
  5
21C
330
1F
100
AcDbEntity
  8
0
  6
Continuous
 62
     7
370
    18
100
AcDbBlockReference
  2
SW_CENTERMARKSYMBOL_0
 10
253.4157413395
 20
80.0182170901
 30
0.0
  0
LINE
  5
21D
330
1F
100
AcDbEntity
  8
0
  6
Continuous
 62
     7
370
    18
100
AcDbLine
 10
245.5657413395
 20
69.0182170901
 30
0.0
 11
245.9135599759
 21
57.8880207265
 31
0.0
  0
LINE
  5
21E
330
1F
100
AcDbEntity
  8
0
  6
Continuous
 62
     7
370
    18
100
AcDbLine
 10
260.9179227031
 20
57.8880207265
 30
0.0
 11
261.2657413395
 21
69.0182170901
 31
0.0
  0
LINE
  5
21F
330
1F
100
AcDbEntity
  8
0
  6
Continuous
 62
     7
370
    25
100
AcDbLine
 10
249.5349990977
 20
69.0182170901
 30
0.0
 11
248.7964835813
 21
69.0182170901
 31
0.0
  0
LINE
  5
220
330
1F
100
AcDbEntity
  8
0
  6
Continuous
 62
     7
370
    25
100
AcDbLine
 10
258.0349990977
 20
69.0182170901
 30
0.0
 11
257.2964835813
 21
69.0182170901
 31
0.0
  0
LINE
  5
221
330
1F
100
AcDbEntity
  8
0
  6
Continuous
 62
     7
370
    25
100
AcDbLine
 10
165.1264295605
 20
149.5678525319
 30
0.0
 11
165.0398270201
 21
149.4178525319
 31
0.0
  0
LINE
  5
222
330
1F
100
AcDbEntity
  8
0
  6
Continuous
 62
     7
370
    25
100
AcDbLine
 10
165.0398270201
 20
130.7178525319
 30
0.0
 11
165.1264295605
 21
130.5678525319
 31
0.0
  0
LINE
  5
223
330
1F
100
AcDbEntity
  8
0
  6
Continuous
 62
     7
370
    25
100
AcDbLine
 10
174.9532244797
 20
130.5678525319
 30
0.0
 11
175.0398270201
 21
130.7178525319
 31
0.0
  0
LINE
  5
224
330
1F
100
AcDbEntity
  8
0
  6
Continuous
 62
     7
370
    25
100
AcDbLine
 10
175.0398270201
 20
149.4178525319
 30
0.0
 11
174.9532244797
 21
149.5678525319
 31
0.0
  0
ARC
  5
225
330
1F
100
AcDbEntity
  8
0
  6
Continuous
 62
     7
370
    25
100
AcDbCircle
 10
176.7398270201
 20
149.1178525319
 30
0.0
 40
0.3000000000000398
100
AcDbArc
 50
0.0
 51
90.0
  0
ARC
  5
226
330
1F
100
AcDbEntity
  8
0
  6
Continuous
 62
     7
370
    25
100
AcDbCircle
 10
176.7398270201
 20
131.0178525319
 30
0.0
 40
0.3000000000000398
100
AcDbArc
 50
270.0
 51
0.0
  0
LINE
  5
227
330
1F
100
AcDbEntity
  8
0
  6
Continuous
 62
     7
370
    25
100
AcDbLine
 10
175.0398270201
 20
130.7178525319
 30
0.0
 11
176.7398270201
 21
130.7178525319
 31
0.0
  0
LINE
  5
228
330
1F
100
AcDbEntity
  8
0
  6
Continuous
 62
     7
370
    25
100
AcDbLine
 10
176.7398270201
 20
149.4178525319
 30
0.0
 11
175.0398270201
 21
149.4178525319
 31
0.0
  0
LINE
  5
229
330
1F
100
AcDbEntity
  8
0
  6
Continuous
 62
     7
370
    25
100
AcDbLine
 10
165.0398270201
 20
149.4178525319
 30
0.0
 11
163.3398270201
 21
149.4178525319
 31
0.0
  0
LINE
  5
22A
330
1F
100
AcDbEntity
  8
0
  6
Continuous
 62
     7
370
    25
100
AcDbLine
 10
163.3398270201
 20
130.7178525319
 30
0.0
 11
165.0398270201
 21
130.7178525319
 31
0.0
  0
ARC
  5
22B
330
1F
100
AcDbEntity
  8
0
  6
Continuous
 62
     7
370
    25
100
AcDbCircle
 10
163.3398270201
 20
131.0178525319
 30
0.0
 40
0.3000000000000398
100
AcDbArc
 50
180.0
 51
270.0
  0
ARC
  5
22C
330
1F
100
AcDbEntity
  8
0
  6
Continuous
 62
     7
370
    25
100
AcDbCircle
 10
163.3398270201
 20
149.1178525319
 30
0.0
 40
0.3000000000000114
100
AcDbArc
 50
90.0
 51
180.0
  0
LINE
  5
22D
330
1F
100
AcDbEntity
  8
0
  6
Continuous
 62
     7
370
    25
100
AcDbLine
 10
163.0398270201
 20
145.3178525319
 30
0.0
 11
158.5398270201
 21
145.3178525319
 31
0.0
  0
LINE
  5
22E
330
1F
100
AcDbEntity
  8
0
  6
Continuous
 62
     7
370
    25
100
AcDbLine
 10
158.5398270201
 20
134.8178525319
 30
0.0
 11
163.0398270201
 21
134.8178525319
 31
0.0
  0
LINE
  5
22F
330
1F
100
AcDbEntity
  8
0
  6
Continuous
 62
     7
370
    25
100
AcDbLine
 10
158.5398270201
 20
145.3178525319
 30
0.0
 11
154.5398270201
 21
144.5678525319
 31
0.0
  0
LINE
  5
230
330
1F
100
AcDbEntity
  8
0
  6
Continuous
 62
     7
370
    25
100
AcDbLine
 10
154.5398270201
 20
135.5678525319
 30
0.0
 11
158.5398270201
 21
134.8178525319
 31
0.0
  0
LINE
  5
231
330
1F
100
AcDbEntity
  8
0
  6
Continuous
 62
     7
370
    25
100
AcDbLine
 10
150.5398270201
 20
145.3178525319
 30
0.0
 11
146.5398270201
 21
144.5678525319
 31
0.0
  0
LINE
  5
232
330
1F
100
AcDbEntity
  8
0
  6
Continuous
 62
     7
370
    25
100
AcDbLine
 10
146.5398270201
 20
135.5678525319
 30
0.0
 11
150.5398270201
 21
134.8178525319
 31
0.0
  0
LINE
  5
233
330
1F
100
AcDbEntity
  8
0
  6
Continuous
 62
     7
370
    25
100
AcDbLine
 10
154.5398270201
 20
145.3178525319
 30
0.0
 11
150.5398270201
 21
144.5678525319
 31
0.0
  0
LINE
  5
234
330
1F
100
AcDbEntity
  8
0
  6
Continuous
 62
     7
370
    25
100
AcDbLine
 10
150.5398270201
 20
135.5678525319
 30
0.0
 11
154.5398270201
 21
134.8178525319
 31
0.0
  0
LINE
  5
235
330
1F
100
AcDbEntity
  8
0
  6
Continuous
 62
     7
370
    25
100
AcDbLine
 10
146.5398270201
 20
145.3178525319
 30
0.0
 11
142.5398270201
 21
144.5678525319
 31
0.0
  0
LINE
  5
236
330
1F
100
AcDbEntity
  8
0
  6
Continuous
 62
     7
370
    25
100
AcDbLine
 10
142.5398270201
 20
135.5678525319
 30
0.0
 11
146.5398270201
 21
134.8178525319
 31
0.0
  0
LINE
  5
237
330
1F
100
AcDbEntity
  8
0
  6
Continuous
 62
     7
370
    25
100
AcDbLine
 10
142.5398270201
 20
145.3178525319
 30
0.0
 11
136.9969698772
 21
144.6249953891
 31
0.0
  0
LINE
  5
238
330
1F
100
AcDbEntity
  8
0
  6
Continuous
 62
     7
370
    25
100
AcDbLine
 10
136.9969698772
 20
135.5107096748
 30
0.0
 11
142.5398270201
 21
134.8178525319
 31
0.0
  0
LINE
  5
239
330
1F
100
AcDbEntity
  8
0
  6
Continuous
 62
     7
370
    25
100
AcDbLine
 10
136.9969698772
 20
144.6249953891
 30
0.0
 11
136.5398270201
 21
144.1678525319
 31
0.0
  0
LINE
  5
23A
330
1F
100
AcDbEntity
  8
0
  6
Continuous
 62
     7
370
    25
100
AcDbLine
 10
136.5398270201
 20
135.9678525319
 30
0.0
 11
136.9969698772
 21
135.5107096748
 31
0.0
  0
LINE
  5
23B
330
1F
100
AcDbEntity
  8
0
  6
Continuous
 62
     7
370
    25
100
AcDbLine
 10
182.2489304857
 20
148.5678525319
 30
0.0
 11
179.2489304857
 21
148.5678525319
 31
0.0
  0
LINE
  5
23C
330
1F
100
AcDbEntity
  8
0
  6
Continuous
 62
     7
370
    25
100
AcDbLine
 10
179.2489304857
 20
131.5678525319
 30
0.0
 11
182.2489304857
 21
131.5678525319
 31
0.0
  0
LINE
  5
23D
330
1F
100
AcDbEntity
  8
0
  6
Continuous
 62
     7
370
    25
100
AcDbLine
 10
179.2489304857
 20
148.3988525319
 30
0.0
 11
177.0398270201
 21
148.3988525319
 31
0.0
  0
LINE
  5
23E
330
1F
100
AcDbEntity
  8
0
  6
Continuous
 62
     7
370
    25
100
AcDbLine
 10
177.0398270201
 20
131.7368525319
 30
0.0
 11
179.2489304857
 21
131.7368525319
 31
0.0
  0
LINE
  5
23F
330
1F
100
AcDbEntity
  8
0
  6
Continuous
 62
     7
370
    25
100
AcDbLine
 10
205.6045929184
 20
131.5678525319
 30
0.0
 11
205.7489304857
 21
131.8178525319
 31
0.0
  0
LINE
  5
240
330
1F
100
AcDbEntity
  8
0
  6
Continuous
 62
     7
370
    25
100
AcDbLine
 10
205.7489304857
 20
148.3178525319
 30
0.0
 11
205.6045929184
 21
148.5678525319
 31
0.0
  0
SPLINE
  5
241
330
1F
100
AcDbEntity
  8
0
  6
Continuous
 62
     7
370
    25
100
AcDbSpline
210
0.0
220
0.0
230
1.0
 70
    24
 71
     3
 72
    10
 73
     6
 74
     0
 42
0.00000001
 43
0.00000001
 40
0.0
 40
0.0
 40
0.0
 40
0.0
 40
0.2528981011717497
 40
0.6244776676737736
 40
1.0
 40
1.0
 40
1.0
 40
1.0
 10
165.1279361515334
 20
130.5678525319154
 30
0.0
 10
165.1396087687426
 20
130.5678525319154
 30
0.0
 10
165.1684317956323
 20
130.5678525319154
 30
0.0
 10
165.4414444159528
 20
130.5678525319154
 30
0.0
 10
165.7964804722557
 20
130.5678525319154
 30
0.0
 10
165.9749353364876
 20
130.5678525319154
 30
0.0
  0
SPLINE
  5
242
330
1F
100
AcDbEntity
  8
0
  6
Continuous
 62
     7
370
    25
100
AcDbSpline
210
0.0
220
0.0
230
1.0
 70
    24
 71
     3
 72
    11
 73
     7
 74
     0
 42
0.00000001
 43
0.00000001
 40
0.0
 40
0.0
 40
0.0
 40
0.0
 40
0.3719611518853373
 40
0.7472428412107973
 40
0.9977608341186845
 40
1.0
 40
1.0
 40
1.0
 40
1.0
 10
165.9749353364876
 20
149.5678525319154
 30
0.0
 10
165.7959645756368
 20
149.5678525319154
 30
0.0
 10
165.4364253625927
 20
149.5678525319154
 30
0.0
 10
165.1915253498155
 20
149.5678525319155
 30
0.0
 10
165.1079381270442
 20
149.5678525319153
 30
0.0
 10
165.1272875220276
 20
149.5678525319154
 30
0.0
 10
165.1274589375684
 20
149.5678525319154
 30
0.0
  0
SPLINE
  5
243
330
1F
100
AcDbEntity
  8
0
  6
Continuous
 62
     7
370
    25
100
AcDbSpline
210
0.0
220
0.0
230
1.0
 70
     8
 71
     3
 72
    12
 73
     8
 74
     0
 42
0.00000001
 43
0.00000001
 40
0.0
 40
0.0
 40
0.0
 40
0.0
 40
0.0470980859569724
 40
0.2617847604454099
 40
0.4446940226278335
 40
0.6276318167897458
 40
0.9999999999999999
 40
0.9999999999999999
 40
0.9999999999999999
 40
0.9999999999999999
 10
165.2009404103335
 20
143.5678525319153
 30
0.0
 10
165.188102864865
 20
143.6625626505451
 30
0.0
 10
165.1167480805487
 20
144.1889888356746
 30
0.0
 10
165.1146223155779
 20
145.0923326372036
 30
0.0
 10
165.1948797091866
 20
146.2654030832106
 30
0.0
 10
165.4257299975415
 20
147.7488054650802
 30
0.0
 10
165.7544844465498
 20
148.8376874801842
 30
0.0
 10
165.9749353364876
 20
149.5678525319154
 30
0.0
  0
SPLINE
  5
244
330
1F
100
AcDbEntity
  8
0
  6
Continuous
 62
     7
370
    25
100
AcDbSpline
210
0.0
220
0.0
230
1.0
 70
     8
 71
     3
 72
    12
 73
     8
 74
     0
 42
0.00000001
 43
0.00000001
 40
0.0
 40
0.0
 40
0.0
 40
0.0
 40
0.2100818139499525
 40
0.4201042296578991
 40
0.6348249704103278
 40
0.8495069640957524
 40
1.0
 40
1.0
 40
1.0
 40
1.0
 10
165.9749353364876
 20
130.5678525319154
 30
0.0
 10
165.845815168468
 20
130.9782884216433
 30
0.0
 10
165.5876113396869
 20
131.7990441550222
 30
0.0
 10
165.3089884748307
 20
133.0629960760878
 30
0.0
 10
165.1446231619213
 20
134.3505271720841
 30
0.0
 10
165.104030122318
 20
135.5265689734499
 30
0.0
 10
165.1696499704412
 20
136.2639633938502
 30
0.0
 10
165.1966927016233
 20
136.5678525319153
 30
0.0
  0
LINE
  5
245
330
1F
100
AcDbEntity
  8
0
  6
Continuous
 62
     7
370
    25
100
AcDbLine
 10
165.0398270201
 20
130.7178525319
 30
0.0
 11
165.0398270201
 21
136.5678525319
 31
0.0
  0
LINE
  5
246
330
1F
100
AcDbEntity
  8
0
  6
Continuous
 62
     7
370
    25
100
AcDbLine
 10
165.0398270201
 20
143.5678525319
 30
0.0
 11
165.0398270201
 21
149.4178525319
 31
0.0
  0
LINE
  5
247
330
1F
100
AcDbEntity
  8
0
  6
Continuous
 62
     7
370
    25
100
AcDbLine
 10
170.1202117778
 20
149.5678525319
 30
0.0
 11
174.1047187037
 21
149.5678525319
 31
0.0
  0
SPLINE
  5
248
330
1F
100
AcDbEntity
  8
0
  6
Continuous
 62
     7
370
    25
100
AcDbSpline
210
0.0
220
0.0
230
1.0
 70
     8
 71
     3
 72
    12
 73
     8
 74
     0
 42
0.00000001
 43
0.00000001
 40
0.0
 40
0.0
 40
0.0
 40
0.0
 40
0.2131799124769856
 40
0.4262995507598656
 40
0.644186800779046
 40
0.8620347323241643
 40
1.0
 40
1.0
 40
1.0
 40
1.0
 10
174.1047187036669
 20
149.5678525319154
 30
0.0
 10
174.2338306734938
 20
149.1574169288957
 30
0.0
 10
174.4920181082075
 20
148.3366617688521
 30
0.0
 10
174.7707648184939
 20
147.0727055166491
 30
0.0
 10
174.9346493940403
 20
145.785191233058
 30
0.0
 10
174.9758089541791
 20
144.6385668668551
 30
0.0
 10
174.9134714112855
 20
143.930494904867
 30
0.0
 10
174.8893002568415
 20
143.6559425892606
 30
0.0
  0
LINE
  5
249
330
1F
100
AcDbEntity
  8
0
  6
Continuous
 62
     7
370
    25
100
AcDbLine
 10
165.9749353365
 20
149.5678525319
 30
0.0
 11
169.9594422623
 21
149.5678525319
 31
0.0
  0
LINE
  5
24A
330
1F
100
AcDbEntity
  8
0
  6
Continuous
 62
     7
370
    25
100
AcDbLine
 10
170.0398270201
 20
149.0242352057
 30
0.0
 11
169.9594422623
 21
149.5678525319
 31
0.0
  0
LINE
  5
24B
330
1F
100
AcDbEntity
  8
0
  6
Continuous
 62
     7
370
    25
100
AcDbLine
 10
170.1202117778
 20
149.5678525319
 30
0.0
 11
170.0398270201
 21
149.0242352057
 31
0.0
  0
SPLINE
  5
24C
330
1F
100
AcDbEntity
  8
0
  6
Continuous
 62
     7
370
    25
100
AcDbSpline
210
0.0
220
0.0
230
1.0
 70
    24
 71
     3
 72
    10
 73
     6
 74
     0
 42
0.00000001
 43
0.00000001
 40
0.0
 40
0.0
 40
0.0
 40
0.0
 40
0.2501840037311236
 40
0.6230952514381785
 40
1.0
 40
1.0
 40
1.0
 40
1.0
 10
174.9510557248573
 20
149.5678525319154
 30
0.0
 10
174.9399026995192
 20
149.5678525319154
 30
0.0
 10
174.9121255554025
 20
149.5678525319154
 30
0.0
 10
174.6399353153782
 20
149.5678525319154
 30
0.0
 10
174.2837565738656
 20
149.5678525319154
 30
0.0
 10
174.1047187036669
 20
149.5678525319154
 30
0.0
  0
SPLINE
  5
24D
330
1F
100
AcDbEntity
  8
0
  6
Continuous
 62
     7
370
    25
100
AcDbSpline
210
0.0
220
0.0
230
1.0
 70
    24
 71
     3
 72
    10
 73
     6
 74
     0
 42
0.00000001
 43
0.00000001
 40
0.0
 40
0.0
 40
0.0
 40
0.0
 40
0.3732254687458729
 40
0.7498124454947745
 40
0.9999999999999999
 40
0.9999999999999999
 40
0.9999999999999999
 40
0.9999999999999999
 10
174.1047187036669
 20
130.5678525319154
 30
0.0
 10
174.282192174773
 20
130.5678525319154
 30
0.0
 10
174.6387375569187
 20
130.5678525319154
 30
0.0
 10
174.9112933998401
 20
130.5678525319154
 30
0.0
 10
174.9408173633515
 20
130.5678525319154
 30
0.0
 10
174.9526023480022
 20
130.5678525319154
 30
0.0
  0
SPLINE
  5
24E
330
1F
100
AcDbEntity
  8
0
  6
Continuous
 62
     7
370
    25
100
AcDbSpline
210
0.0
220
0.0
230
1.0
 70
     8
 71
     3
 72
    12
 73
     8
 74
     0
 42
0.00000001
 43
0.00000001
 40
0.0
 40
0.0
 40
0.0
 40
0.0
 40
0.0261094303132992
 40
0.245524802074476
 40
0.4324628309761278
 40
0.6194300203037886
 40
0.9999999999999999
 40
0.9999999999999999
 40
0.9999999999999999
 40
0.9999999999999999
 10
174.8952980990187
 20
136.4377595441363
 30
0.0
 10
174.9020965546397
 20
136.3863746977031
 30
0.0
 10
174.9660270751729
 20
135.9031678985218
 30
0.0
 10
174.9639462833586
 20
135.0432894527167
 30
0.0
 10
174.8850381354722
 20
133.8703221465131
 30
0.0
 10
174.653774525985
 20
132.3868881693162
 30
0.0
 10
174.3251095776665
 20
131.2980129958744
 30
0.0
 10
174.1047187036669
 20
130.5678525319154
 30
0.0
  0
LINE
  5
24F
330
1F
100
AcDbEntity
  8
0
  6
Continuous
 62
     7
370
    25
100
AcDbLine
 10
175.0398270201
 20
149.4178525319
 30
0.0
 11
175.0398270201
 21
143.6603450094
 31
0.0
  0
LINE
  5
250
330
1F
100
AcDbEntity
  8
0
  6
Continuous
 62
     7
370
    25
100
AcDbLine
 10
175.0398270201
 20
136.4753600545
 30
0.0
 11
175.0398270201
 21
130.7178525319
 31
0.0
  0
LINE
  5
251
330
1F
100
AcDbEntity
  8
0
  6
Continuous
 62
     7
370
    25
100
AcDbLine
 10
170.1202117778
 20
130.5678525319
 30
0.0
 11
174.1047187037
 21
130.5678525319
 31
0.0
  0
LINE
  5
252
330
1F
100
AcDbEntity
  8
0
  6
Continuous
 62
     7
370
    25
100
AcDbLine
 10
170.0398270201
 20
131.1114698581
 30
0.0
 11
170.1202117778
 21
130.5678525319
 31
0.0
  0
LINE
  5
253
330
1F
100
AcDbEntity
  8
0
  6
Continuous
 62
     7
370
    25
100
AcDbLine
 10
169.9594422623
 20
130.5678525319
 30
0.0
 11
170.0398270201
 21
131.1114698581
 31
0.0
  0
LINE
  5
254
330
1F
100
AcDbEntity
  8
0
  6
Continuous
 62
     7
370
    25
100
AcDbLine
 10
165.9749353365
 20
130.5678525319
 30
0.0
 11
169.9594422623
 21
130.5678525319
 31
0.0
  0
LINE
  5
255
330
1F
100
AcDbEntity
  8
0
  6
Continuous
 62
     7
370
    25
100
AcDbLine
 10
177.0398270201
 20
149.1178525319
 30
0.0
 11
177.0398270201
 21
143.7981126899
 31
0.0
  0
LINE
  5
256
330
1F
100
AcDbEntity
  8
0
  6
Continuous
 62
     7
370
    25
100
AcDbLine
 10
177.0398270201
 20
136.3375923739
 30
0.0
 11
177.0398270201
 21
131.0178525342
 31
0.0
  0
LINE
  5
257
330
1F
100
AcDbEntity
  8
0
  6
Continuous
 62
     7
370
    25
100
AcDbLine
 10
163.0398270201
 20
131.0178525319
 30
0.0
 11
163.0398270201
 21
136.5678525319
 31
0.0
  0
LINE
  5
258
330
1F
100
AcDbEntity
  8
0
  6
Continuous
 62
     7
370
    25
100
AcDbLine
 10
163.0398270201
 20
143.5678525319
 30
0.0
 11
163.0398270201
 21
149.1178525296
 31
0.0
  0
LINE
  5
259
330
1F
100
AcDbEntity
  8
0
  6
Continuous
 62
     7
370
    25
100
AcDbLine
 10
169.9594422623
 20
149.5678525319
 30
0.0
 11
170.0398270201
 21
149.5678525319
 31
0.0
  0
LINE
  5
25A
330
1F
100
AcDbEntity
  8
0
  6
Continuous
 62
     7
370
    25
100
AcDbLine
 10
170.0398270201
 20
149.5678525319
 30
0.0
 11
170.0398270201
 21
149.0242352057
 31
0.0
  0
LINE
  5
25B
330
1F
100
AcDbEntity
  8
0
  6
Continuous
 62
     7
370
    25
100
AcDbLine
 10
170.0398270201
 20
149.5678525319
 30
0.0
 11
170.1202117778
 21
149.5678525319
 31
0.0
  0
LINE
  5
25C
330
1F
100
AcDbEntity
  8
0
  6
Continuous
 62
     7
370
    25
100
AcDbLine
 10
170.1202117778
 20
130.5678525319
 30
0.0
 11
170.0398270201
 21
130.5678525319
 31
0.0
  0
LINE
  5
25D
330
1F
100
AcDbEntity
  8
0
  6
Continuous
 62
     7
370
    25
100
AcDbLine
 10
170.0398270201
 20
131.1114698581
 30
0.0
 11
170.0398270201
 21
130.5678525319
 31
0.0
  0
LINE
  5
25E
330
1F
100
AcDbEntity
  8
0
  6
Continuous
 62
     7
370
    25
100
AcDbLine
 10
170.0398270201
 20
130.5678525319
 30
0.0
 11
169.9594422623
 21
130.5678525319
 31
0.0
  0
LINE
  5
25F
330
1F
100
AcDbEntity
  8
0
  6
Continuous
 62
     7
370
    25
100
AcDbLine
 10
158.5398270201
 20
145.3178525319
 30
0.0
 11
158.5398270201
 21
143.5678525319
 31
0.0
  0
LINE
  5
260
330
1F
100
AcDbEntity
  8
0
  6
Continuous
 62
     7
370
    25
100
AcDbLine
 10
158.5398270201
 20
136.5678525319
 30
0.0
 11
158.5398270201
 21
134.8178525319
 31
0.0
  0
LINE
  5
261
330
1F
100
AcDbEntity
  8
0
  6
Continuous
 62
     7
370
    25
100
AcDbLine
 10
150.5398270201
 20
145.3178525319
 30
0.0
 11
150.5398270201
 21
134.8178525319
 31
0.0
  0
LINE
  5
262
330
1F
100
AcDbEntity
  8
0
  6
Continuous
 62
     7
370
    25
100
AcDbLine
 10
154.5398270201
 20
145.3178525319
 30
0.0
 11
154.5398270201
 21
143.5678525319
 31
0.0
  0
LINE
  5
263
330
1F
100
AcDbEntity
  8
0
  6
Continuous
 62
     7
370
    25
100
AcDbLine
 10
154.5398270201
 20
136.5678525319
 30
0.0
 11
154.5398270201
 21
134.8178525319
 31
0.0
  0
LINE
  5
264
330
1F
100
AcDbEntity
  8
0
  6
Continuous
 62
     7
370
    25
100
AcDbLine
 10
146.5398270201
 20
145.3178525319
 30
0.0
 11
146.5398270201
 21
134.8178525319
 31
0.0
  0
LINE
  5
265
330
1F
100
AcDbEntity
  8
0
  6
Continuous
 62
     7
370
    25
100
AcDbLine
 10
136.9969698772
 20
144.6249953891
 30
0.0
 11
136.9969698772
 21
135.5107096748
 31
0.0
  0
LINE
  5
266
330
1F
100
AcDbEntity
  8
0
  6
Continuous
 62
     7
370
    25
100
AcDbLine
 10
142.5398270201
 20
145.3178525319
 30
0.0
 11
142.5398270201
 21
134.8178525319
 31
0.0
  0
LINE
  5
267
330
1F
100
AcDbEntity
  8
0
  6
Continuous
 62
     7
370
    25
100
AcDbLine
 10
136.5398270201
 20
135.9678525319
 30
0.0
 11
136.5398270201
 21
144.1678525319
 31
0.0
  0
LINE
  5
268
330
1F
100
AcDbEntity
  8
0
  6
Continuous
 62
     7
370
    25
100
AcDbLine
 10
179.2489304857
 20
131.6432408713
 30
0.0
 11
179.2489304857
 21
136.1130899161
 31
0.0
  0
LINE
  5
269
330
1F
100
AcDbEntity
  8
0
  6
Continuous
 62
     7
370
    25
100
AcDbLine
 10
179.2489304857
 20
144.0226151477
 30
0.0
 11
179.2489304857
 21
148.5678525319
 31
0.0
  0
LINE
  5
26A
330
1F
100
AcDbEntity
  8
0
  6
Continuous
 62
     7
370
    25
100
AcDbLine
 10
179.2489304857
 20
131.5678525319
 30
0.0
 11
179.2489304857
 21
131.6432408713
 31
0.0
  0
LINE
  5
26B
330
1F
100
AcDbEntity
  8
0
  6
Continuous
 62
     7
370
    25
100
AcDbLine
 10
182.2489304857
 20
131.6432408713
 30
0.0
 11
182.2489304857
 21
135.68520625
 31
0.0
  0
LINE
  5
26C
330
1F
100
AcDbEntity
  8
0
  6
Continuous
 62
     7
370
    25
100
AcDbLine
 10
182.2489304857
 20
144.4504988138
 30
0.0
 11
182.2489304857
 21
148.5678525319
 31
0.0
  0
LINE
  5
26D
330
1F
100
AcDbEntity
  8
0
  6
Continuous
 62
     7
370
    25
100
AcDbLine
 10
182.2489304857
 20
131.5678525319
 30
0.0
 11
182.2489304857
 21
131.6432408713
 31
0.0
  0
SPLINE
  5
26E
330
1F
100
AcDbEntity
  8
0
  6
Continuous
 62
     7
370
    25
100
AcDbSpline
210
0.0
220
0.0
230
1.0
 70
    24
 71
     3
 72
    10
 73
     6
 74
     0
 42
0.00000001
 43
0.00000001
 40
0.0
 40
0.0
 40
0.0
 40
0.0
 40
0.3696156978418249
 40
0.7422769284264077
 40
1.0
 40
1.0
 40
1.0
 40
1.0
 10
204.9268715131388
 20
131.5678525319154
 30
0.0
 10
205.0680743474686
 20
131.5678525319154
 30
0.0
 10
205.3516434890483
 20
131.5678525319154
 30
0.0
 10
205.5707838730837
 20
131.5678525319154
 30
0.0
 10
205.5931748585336
 20
131.5678525319154
 30
0.0
 10
205.6023290737098
 20
131.5678525319154
 30
0.0
  0
SPLINE
  5
26F
330
1F
100
AcDbEntity
  8
0
  6
Continuous
 62
     7
370
    25
100
AcDbSpline
210
0.0
220
0.0
230
1.0
 70
     8
 71
     3
 72
    10
 73
     6
 74
     0
 42
0.00000001
 43
0.00000001
 40
0.0
 40
0.0
 40
0.0
 40
0.0
 40
0.5
 40
0.5
 40
1.0
 40
1.0
 40
1.0
 40
1.0
 10
204.9268715131388
 20
131.8178525319154
 30
0.0
 10
204.9031961187144
 20
131.7434721545381
 30
0.0
 10
204.8901050088297
 20
131.6791715157523
 30
0.0
 10
204.8900186875415
 20
131.5909558309694
 30
0.0
 10
204.9031876214853
 20
131.5678525319154
 30
0.0
 10
204.9268715131388
 20
131.5678525319154
 30
0.0
  0
SPLINE
  5
270
330
1F
100
AcDbEntity
  8
0
  6
Continuous
 62
     7
370
    25
100
AcDbSpline
210
0.0
220
0.0
230
1.0
 70
     8
 71
     3
 72
    16
 73
    12
 74
     0
 42
0.00000001
 43
0.00000001
 40
0.0
 40
0.0
 40
0.0
 40
0.0
 40
0.2500000000000001
 40
0.2500000000000001
 40
0.5000000000000001
 40
0.5000000000000001
 40
0.6250000000000001
 40
0.6250000000000001
 40
0.7500000000000002
 40
0.7500000000000002
 40
1.0
 40
1.0
 40
1.0
 40
1.0
 10
204.9268715131388
 20
139.8178525319154
 30
0.0
 10
205.1348869612445
 20
139.1643357518746
 30
0.0
 10
205.3050932662175
 20
138.5061153427846
 30
0.0
 10
205.5400292977851
 20
137.1765527594189
 30
0.0
 10
205.6041014294488
 20
136.5051287773483
 30
0.0
 10
205.6048343783698
 20
135.4861276903416
 30
0.0
 10
205.5891748982868
 20
135.1447869080254
 30
0.0
 10
205.5278997716498
 20
134.4691884050549
 30
0.0
 10
205.4823434991507
 20
134.1335292550903
 30
0.0
 10
205.3058574663944
 20
133.1322636185906
 30
0.0
 10
205.1352010129087
 20
132.4723559599875
 30
0.0
 10
204.9268715131388
 20
131.8178525319154
 30
0.0
  0
SPLINE
  5
271
330
1F
100
AcDbEntity
  8
0
  6
Continuous
 62
     7
370
    25
100
AcDbSpline
210
0.0
220
0.0
230
1.0
 70
     8
 71
     3
 72
    10
 73
     6
 74
     0
 42
0.00000001
 43
0.00000001
 40
0.0
 40
0.0
 40
0.0
 40
0.0
 40
0.5
 40
0.5
 40
1.0
 40
1.0
 40
1.0
 40
1.0
 10
204.9268715131388
 20
140.3178525319154
 30
0.0
 10
204.9031961187144
 20
140.2434721545381
 30
0.0
 10
204.8901050088297
 20
140.1563790664225
 30
0.0
 10
204.8900186875415
 20
139.9802206775465
 30
0.0
 10
204.9031876214853
 20
139.8922596048187
 30
0.0
 10
204.9268715131388
 20
139.8178525319154
 30
0.0
  0
SPLINE
  5
272
330
1F
100
AcDbEntity
  8
0
  6
Continuous
 62
     7
370
    25
100
AcDbSpline
210
0.0
220
0.0
230
1.0
 70
     8
 71
     3
 72
    16
 73
    12
 74
     0
 42
0.00000001
 43
0.00000001
 40
0.0
 40
0.0
 40
0.0
 40
0.0
 40
0.2499999999999997
 40
0.2499999999999997
 40
0.4999999999999993
 40
0.4999999999999993
 40
0.6249999999999993
 40
0.6249999999999993
 40
0.7499999999999996
 40
0.7499999999999996
 40
1.0
 40
1.0
 40
1.0
 40
1.0
 10
204.9268715131388
 20
148.3178525319154
 30
0.0
 10
205.1348869612445
 20
147.6643357518746
 30
0.0
 10
205.3050932662175
 20
147.0061153427846
 30
0.0
 10
205.5400292977851
 20
145.6765527594188
 30
0.0
 10
205.6041014294488
 20
145.0051287773483
 30
0.0
 10
205.6048343783698
 20
143.9861276903416
 30
0.0
 10
205.5891748982868
 20
143.6447869080254
 30
0.0
 10
205.5278997716498
 20
142.9691884050549
 30
0.0
 10
205.4823434991507
 20
142.6335292550903
 30
0.0
 10
205.3058574663944
 20
141.6322636185906
 30
0.0
 10
205.1352010129087
 20
140.9723559599875
 30
0.0
 10
204.9268715131388
 20
140.3178525319154
 30
0.0
  0
SPLINE
  5
273
330
1F
100
AcDbEntity
  8
0
  6
Continuous
 62
     7
370
    25
100
AcDbSpline
210
0.0
220
0.0
230
1.0
 70
     8
 71
     3
 72
    10
 73
     6
 74
     0
 42
0.00000001
 43
0.00000001
 40
0.0
 40
0.0
 40
0.0
 40
0.0
 40
0.5
 40
0.5
 40
1.0
 40
1.0
 40
1.0
 40
1.0
 10
204.9268715131388
 20
148.5678525319154
 30
0.0
 10
204.9031961187144
 20
148.5678525319154
 30
0.0
 10
204.8901050088297
 20
148.5450600825856
 30
0.0
 10
204.8900186875415
 20
148.4571173784925
 30
0.0
 10
204.9031876214853
 20
148.3922596048187
 30
0.0
 10
204.9268715131388
 20
148.3178525319154
 30
0.0
  0
SPLINE
  5
274
330
1F
100
AcDbEntity
  8
0
  6
Continuous
 62
     7
370
    25
100
AcDbSpline
210
0.0
220
0.0
230
1.0
 70
    24
 71
     3
 72
    10
 73
     6
 74
     0
 42
0.00000001
 43
0.00000001
 40
0.0
 40
0.0
 40
0.0
 40
0.0
 40
0.2577190214912948
 40
0.6270817883529736
 40
1.0
 40
1.0
 40
1.0
 40
1.0
 10
205.6009871953684
 20
148.5678525319154
 30
0.0
 10
205.5923834432995
 20
148.5678525319154
 30
0.0
 10
205.5714487982634
 20
148.5678525319154
 30
0.0
 10
205.3524778059153
 20
148.5678525319154
 30
0.0
 10
205.0691925791591
 20
148.5678525319154
 30
0.0
 10
204.9268715131388
 20
148.5678525319154
 30
0.0
  0
LINE
  5
275
330
1F
100
AcDbEntity
  8
0
  6
Continuous
 62
     7
370
    25
100
AcDbLine
 10
205.7489304857
 20
148.3178525319
 30
0.0
 11
205.7489304857
 21
131.8178525319
 31
0.0
  0
SPLINE
  5
276
330
1F
100
AcDbEntity
  8
0
  6
Continuous
 62
     7
370
    25
100
AcDbSpline
210
0.0
220
0.0
230
1.0
 70
     8
 71
     3
 72
    12
 73
     8
 74
     0
 42
0.00000001
 43
0.00000001
 40
0.0
 40
0.0
 40
0.0
 40
0.0
 40
0.2500000000000001
 40
0.2500000000000001
 40
0.5000000000000002
 40
0.5000000000000002
 40
1.0
 40
1.0
 40
1.0
 40
1.0
 10
199.7489304856964
 20
144.3178525319154
 30
0.0
 10
199.7489304856964
 20
144.6568880764112
 30
0.0
 10
199.7647734217853
 20
144.9975246356816
 30
0.0
 10
199.826276282023
 20
145.6717569831864
 30
0.0
 10
199.8718799230667
 20
146.0067425946496
 30
0.0
 10
200.0483309405559
 20
147.0060130237888
 30
0.0
 10
200.2187283078078
 20
147.6646243616457
 30
0.0
 10
200.4266518909566
 20
148.3178525319154
 30
0.0
  0
LINE
  5
277
330
1F
100
AcDbEntity
  8
0
  6
Continuous
 62
     7
370
    25
100
AcDbLine
 10
204.9268715131
 20
148.3178525319
 30
0.0
 11
200.426651891
 21
148.3178525319
 31
0.0
  0
SPLINE
  5
278
330
1F
100
AcDbEntity
  8
0
  6
Continuous
 62
     7
370
    25
100
AcDbSpline
210
0.0
220
0.0
230
1.0
 70
     8
 71
     3
 72
    10
 73
     6
 74
     0
 42
0.00000001
 43
0.00000001
 40
0.0
 40
0.0
 40
0.0
 40
0.0
 40
0.0813958625244586
 40
0.537375629779564
 40
1.0
 40
1.0
 40
1.0
 40
1.0
 10
182.2530479427822
 20
144.5007094684976
 30
0.0
 10
182.2548282056416
 20
144.6057074383083
 30
0.0
 10
182.2665815042198
 20
145.2989042225508
 30
0.0
 10
182.4305296862865
 20
146.5874708696534
 30
0.0
 10
182.7604822664455
 20
147.7382838926319
 30
0.0
 10
182.9266518909566
 20
148.3178525319154
 30
0.0
  0
LINE
  5
279
330
1F
100
AcDbEntity
  8
0
  6
Continuous
 62
     7
370
    25
100
AcDbLine
 10
187.0712090804
 20
148.3178525319
 30
0.0
 11
182.926651891
 21
148.3178525319
 31
0.0
  0
SPLINE
  5
27A
330
1F
100
AcDbEntity
  8
0
  6
Continuous
 62
     7
370
    25
100
AcDbSpline
210
0.0
220
0.0
230
1.0
 70
     8
 71
     3
 72
     9
 73
     5
 74
     0
 42
0.00000001
 43
0.00000001
 40
0.0
 40
0.0
 40
0.0
 40
0.0
 40
0.7352580030678872
 40
1.0
 40
1.0
 40
1.0
 40
1.0
 10
187.0712090804362
 20
148.3178525319155
 30
0.0
 10
187.2738792990286
 20
147.6683542678404
 30
0.0
 10
187.5495243348483
 20
146.7849932416904
 30
0.0
 10
187.6130097883741
 20
145.8745650704348
 30
0.0
 10
187.6298170541167
 20
145.6335364983133
 30
0.0
  0
SPLINE
  5
27B
330
1F
100
AcDbEntity
  8
0
  6
Continuous
 62
     7
370
    25
100
AcDbSpline
210
0.0
220
0.0
230
1.0
 70
     8
 71
     3
 72
     9
 73
     5
 74
     0
 42
0.00000001
 43
0.00000001
 40
0.0
 40
0.0
 40
0.0
 40
0.0
 40
0.3156812422091645
 40
1.0
 40
1.0
 40
1.0
 40
1.0
 10
187.6377292066545
 20
134.5323695957229
 30
0.0
 10
187.6126892934636
 20
134.2420211830192
 30
0.0
 10
187.53336904936
 20
133.3222693134692
 30
0.0
 10
187.2589792007722
 20
132.4290792479931
 30
0.0
 10
187.0712090804362
 20
131.8178525319154
 30
0.0
  0
LINE
  5
27C
330
1F
100
AcDbEntity
  8
0
  6
Continuous
 62
     7
370
    25
100
AcDbLine
 10
182.926651891
 20
131.8178525319
 30
0.0
 11
187.0712090804
 21
131.8178525319
 31
0.0
  0
SPLINE
  5
27D
330
1F
100
AcDbEntity
  8
0
  6
Continuous
 62
     7
370
    25
100
AcDbSpline
210
0.0
220
0.0
230
1.0
 70
     8
 71
     3
 72
     9
 73
     5
 74
     0
 42
0.00000001
 43
0.00000001
 40
0.0
 40
0.0
 40
0.0
 40
0.0
 40
0.5155671601342876
 40
1.0
 40
1.0
 40
1.0
 40
1.0
 10
182.9266518909566
 20
131.8178525319154
 30
0.0
 10
182.7354050126106
 20
132.4688081763487
 30
0.0
 10
182.3644603653679
 20
133.7314092393483
 30
0.0
 10
182.2960796571638
 20
135.0326111609711
 30
0.0
 10
182.2629537964964
 20
135.6629561031016
 30
0.0
  0
LINE
  5
27E
330
1F
100
AcDbEntity
  8
0
  6
Continuous
 62
     7
370
    25
100
AcDbLine
 10
200.426651891
 20
131.8178525319
 30
0.0
 11
204.9268715131
 21
131.8178525319
 31
0.0
  0
SPLINE
  5
27F
330
1F
100
AcDbEntity
  8
0
  6
Continuous
 62
     7
370
    25
100
AcDbSpline
210
0.0
220
0.0
230
1.0
 70
     8
 71
     3
 72
     9
 73
     5
 74
     0
 42
0.00000001
 43
0.00000001
 40
0.0
 40
0.0
 40
0.0
 40
0.0
 40
0.5099033163017879
 40
1.0
 40
1.0
 40
1.0
 40
1.0
 10
200.4266518909566
 20
131.8178525319153
 30
0.0
 10
200.2356995174445
 20
132.4688457490332
 30
0.0
 10
199.8612121050131
 20
133.7455450688952
 30
0.0
 10
199.7926494156067
 20
135.0612740134387
 30
0.0
 10
199.7590470689031
 20
135.7061084058053
 30
0.0
  0
LINE
  5
280
330
1F
100
AcDbEntity
  8
0
  6
Continuous
 62
     7
370
    25
100
AcDbLine
 10
199.7489304857
 20
135.6516890386
 30
0.0
 11
199.7489304857
 21
132.5678525319
 31
0.0
  0
LINE
  5
281
330
1F
100
AcDbEntity
  8
0
  6
Continuous
 62
     7
370
    25
100
AcDbLine
 10
199.7489304857
 20
132.5678525319
 30
0.0
 11
187.7489304857
 21
132.5678525319
 31
0.0
  0
LINE
  5
282
330
1F
100
AcDbEntity
  8
0
  6
Continuous
 62
     7
370
    25
100
AcDbLine
 10
187.7489304857
 20
134.5230369279
 30
0.0
 11
187.7489304857
 21
132.5678525319
 31
0.0
  0
LINE
  5
283
330
1F
100
AcDbEntity
  8
0
  6
Continuous
 62
     7
370
    25
100
AcDbLine
 10
187.7489304857
 20
147.5678525319
 30
0.0
 11
187.7489304857
 21
145.6126681359
 31
0.0
  0
LINE
  5
284
330
1F
100
AcDbEntity
  8
0
  6
Continuous
 62
     7
370
    25
100
AcDbLine
 10
187.7489304857
 20
147.5678525319
 30
0.0
 11
199.7489304857
 21
147.5678525319
 31
0.0
  0
LINE
  5
285
330
1F
100
AcDbEntity
  8
0
  6
Continuous
 62
     7
370
    25
100
AcDbLine
 10
199.7489304857
 20
147.5678525319
 30
0.0
 11
199.7489304857
 21
144.4840160253
 31
0.0
  0
SPLINE
  5
286
330
1F
100
AcDbEntity
  8
0
  6
Continuous
 62
     7
370
    25
100
AcDbSpline
210
0.0
220
0.0
230
1.0
 70
     8
 71
     3
 72
     8
 73
     4
 74
     0
 42
0.00000001
 43
0.00000001
 40
0.0
 40
0.0
 40
0.0
 40
0.0
 40
1.0
 40
1.0
 40
1.0
 40
1.0
 10
187.2326944087172
 20
148.5678525319154
 30
0.0
 10
187.406397484937
 20
148.2353411097799
 30
0.0
 10
187.5786997039997
 20
147.902014009881
 30
0.0
 10
187.7489304856964
 20
147.5678525319154
 30
0.0
  0
SPLINE
  5
287
330
1F
100
AcDbEntity
  8
0
  6
Continuous
 62
     7
370
    25
100
AcDbSpline
210
0.0
220
0.0
230
1.0
 70
     8
 71
     3
 72
    10
 73
     6
 74
     0
 42
0.00000001
 43
0.00000001
 40
0.0
 40
0.0
 40
0.0
 40
0.0
 40
0.5
 40
0.5
 40
1.0
 40
1.0
 40
1.0
 40
1.0
 10
187.0712090804418
 20
148.5678525319154
 30
0.0
 10
187.0475336860175
 20
148.5678525319154
 30
0.0
 10
187.0344425761272
 20
148.5450600825859
 30
0.0
 10
187.0343562548388
 20
148.4571173784929
 30
0.0
 10
187.0475251887827
 20
148.3922596048189
 30
0.0
 10
187.0712090804362
 20
148.3178525319155
 30
0.0
  0
SPLINE
  5
288
330
1F
100
AcDbEntity
  8
0
  6
Continuous
 62
     7
370
    25
100
AcDbSpline
210
0.0
220
0.0
230
1.0
 70
    24
 71
     3
 72
     8
 73
     4
 74
     0
 42
0.00000001
 43
0.00000001
 40
0.0
 40
0.0
 40
0.0
 40
0.0
 40
1.0
 40
1.0
 40
1.0
 40
1.0
 10
187.2326944087172
 20
148.5678525319154
 30
0.0
 10
187.1817956917948
 20
148.5678525319154
 30
0.0
 10
187.1278615555442
 20
148.5678525319154
 30
0.0
 10
187.0712090804366
 20
148.5678525319154
 30
0.0
  0
SPLINE
  5
289
330
1F
100
AcDbEntity
  8
0
  6
Continuous
 62
     7
370
    25
100
AcDbSpline
210
0.0
220
0.0
230
1.0
 70
     8
 71
     3
 72
     8
 73
     4
 74
     0
 42
0.00000001
 43
0.00000001
 40
0.0
 40
0.0
 40
0.0
 40
0.0
 40
1.0
 40
1.0
 40
1.0
 40
1.0
 10
199.7489304856964
 20
147.5678525319154
 30
0.0
 10
199.9192080930401
 20
147.9021059282007
 30
0.0
 10
200.0914798416658
 20
148.2353724177697
 30
0.0
 10
200.2651665626754
 20
148.5678525319152
 30
0.0
  0
SPLINE
  5
28A
330
1F
100
AcDbEntity
  8
0
  6
Continuous
 62
     7
370
    25
100
AcDbSpline
210
0.0
220
0.0
230
1.0
 70
    24
 71
     3
 72
     8
 73
     4
 74
     0
 42
0.00000001
 43
0.00000001
 40
0.0
 40
0.0
 40
0.0
 40
0.0
 40
1.0
 40
1.0
 40
1.0
 40
1.0
 10
200.265166562675
 20
148.5678525319154
 30
0.0
 10
200.3160627959303
 20
148.5678525319154
 30
0.0
 10
200.3699967508941
 20
148.5678525319154
 30
0.0
 10
200.4266518909566
 20
148.5678525319154
 30
0.0
  0
SPLINE
  5
28B
330
1F
100
AcDbEntity
  8
0
  6
Continuous
 62
     7
370
    25
100
AcDbSpline
210
0.0
220
0.0
230
1.0
 70
     8
 71
     3
 72
    10
 73
     6
 74
     0
 42
0.00000001
 43
0.00000001
 40
0.0
 40
0.0
 40
0.0
 40
0.0
 40
0.5
 40
0.5
 40
1.0
 40
1.0
 40
1.0
 40
1.0
 10
200.4266518909566
 20
148.3178525319154
 30
0.0
 10
200.450327285381
 20
148.3922329092927
 30
0.0
 10
200.4634183952656
 20
148.4565335480785
 30
0.0
 10
200.4635047165539
 20
148.5447492328614
 30
0.0
 10
200.45033578261
 20
148.5678525319154
 30
0.0
 10
200.4266518909566
 20
148.5678525319154
 30
0.0
  0
SPLINE
  5
28C
330
1F
100
AcDbEntity
  8
0
  6
Continuous
 62
     7
370
    25
100
AcDbSpline
210
0.0
220
0.0
230
1.0
 70
     8
 71
     3
 72
    10
 73
     6
 74
     0
 42
0.00000001
 43
0.00000001
 40
0.0
 40
0.0
 40
0.0
 40
0.0
 40
0.5
 40
0.5
 40
1.0
 40
1.0
 40
1.0
 40
1.0
 10
182.9266518909566
 20
148.5678525319154
 30
0.0
 10
182.9503257915125
 20
148.5678525319154
 30
0.0
 10
182.9634183486917
 20
148.545061960268
 30
0.0
 10
182.9635047626739
 20
148.4571159629691
 30
0.0
 10
182.9503343710753
 20
148.3922551702364
 30
0.0
 10
182.9266518909566
 20
148.3178525319154
 30
0.0
  0
SPLINE
  5
28D
330
1F
100
AcDbEntity
  8
0
  6
Continuous
 62
     7
370
    25
100
AcDbSpline
210
0.0
220
0.0
230
1.0
 70
    24
 71
     3
 72
    12
 73
     8
 74
     0
 42
0.00000001
 43
0.00000001
 40
0.0
 40
0.0
 40
0.0
 40
0.0
 40
0.2499999999999999
 40
0.2499999999999999
 40
0.4999999999999998
 40
0.4999999999999998
 40
1.0
 40
1.0
 40
1.0
 40
1.0
 10
182.2489304856964
 20
148.5678525319154
 30
0.0
 10
182.2489304856964
 20
148.5678525319154
 30
0.0
 10
182.2649292906775
 20
148.5678525319154
 30
0.0
 10
182.3266994289918
 20
148.5678525319154
 30
0.0
 10
182.3724415532934
 20
148.5678525319154
 30
0.0
 10
182.5491117006403
 20
148.5678525319154
 30
0.0
 10
182.7193667661206
 20
148.5678525319154
 30
0.0
 10
182.9266518909566
 20
148.5678525319154
 30
0.0
  0
SPLINE
  5
28E
330
1F
100
AcDbEntity
  8
0
  6
Continuous
 62
     7
370
    25
100
AcDbSpline
210
0.0
220
0.0
230
1.0
 70
     8
 71
     3
 72
     8
 73
     4
 74
     0
 42
0.00000001
 43
0.00000001
 40
0.0
 40
0.0
 40
0.0
 40
0.0
 40
1.0
 40
1.0
 40
1.0
 40
1.0
 10
200.2651665626756
 20
131.5678525319154
 30
0.0
 10
200.0914634864558
 20
131.9003639540509
 30
0.0
 10
199.9191612673931
 20
132.2336910539498
 30
0.0
 10
199.7489304856964
 20
132.5678525319154
 30
0.0
  0
SPLINE
  5
28F
330
1F
100
AcDbEntity
  8
0
  6
Continuous
 62
     7
370
    25
100
AcDbSpline
210
0.0
220
0.0
230
1.0
 70
     8
 71
     3
 72
    10
 73
     6
 74
     0
 42
0.00000001
 43
0.00000001
 40
0.0
 40
0.0
 40
0.0
 40
0.0
 40
0.5
 40
0.5
 40
1.0
 40
1.0
 40
1.0
 40
1.0
 10
200.4266518909566
 20
131.5678525319154
 30
0.0
 10
200.450327285381
 20
131.5678525319154
 30
0.0
 10
200.4634183952656
 20
131.5906449812452
 30
0.0
 10
200.4635047165539
 20
131.6785876853382
 30
0.0
 10
200.4503357826101
 20
131.7434454590121
 30
0.0
 10
200.4266518909566
 20
131.8178525319153
 30
0.0
  0
SPLINE
  5
290
330
1F
100
AcDbEntity
  8
0
  6
Continuous
 62
     7
370
    25
100
AcDbSpline
210
0.0
220
0.0
230
1.0
 70
    24
 71
     3
 72
     8
 73
     4
 74
     0
 42
0.00000001
 43
0.00000001
 40
0.0
 40
0.0
 40
0.0
 40
0.0
 40
1.0
 40
1.0
 40
1.0
 40
1.0
 10
200.2651665626756
 20
131.5678525319154
 30
0.0
 10
200.3160627959306
 20
131.5678525319154
 30
0.0
 10
200.3699967508943
 20
131.5678525319154
 30
0.0
 10
200.4266518909566
 20
131.5678525319154
 30
0.0
  0
SPLINE
  5
291
330
1F
100
AcDbEntity
  8
0
  6
Continuous
 62
     7
370
    25
100
AcDbSpline
210
0.0
220
0.0
230
1.0
 70
     8
 71
     3
 72
     8
 73
     4
 74
     0
 42
0.00000001
 43
0.00000001
 40
0.0
 40
0.0
 40
0.0
 40
0.0
 40
1.0
 40
1.0
 40
1.0
 40
1.0
 10
187.7489304856964
 20
132.5678525319154
 30
0.0
 10
187.5786528783526
 20
132.23359913563
 30
0.0
 10
187.4063811297269
 20
131.900332646061
 30
0.0
 10
187.2326944087172
 20
131.5678525319154
 30
0.0
  0
SPLINE
  5
292
330
1F
100
AcDbEntity
  8
0
  6
Continuous
 62
     7
370
    25
100
AcDbSpline
210
0.0
220
0.0
230
1.0
 70
    24
 71
     3
 72
     8
 73
     4
 74
     0
 42
0.00000001
 43
0.00000001
 40
0.0
 40
0.0
 40
0.0
 40
0.0
 40
1.0
 40
1.0
 40
1.0
 40
1.0
 10
187.2326944087172
 20
131.5678525319154
 30
0.0
 10
187.1817956917947
 20
131.5678525319154
 30
0.0
 10
187.1278615555439
 20
131.5678525319154
 30
0.0
 10
187.0712090804362
 20
131.5678525319154
 30
0.0
  0
SPLINE
  5
293
330
1F
100
AcDbEntity
  8
0
  6
Continuous
 62
     7
370
    25
100
AcDbSpline
210
0.0
220
0.0
230
1.0
 70
     8
 71
     3
 72
    10
 73
     6
 74
     0
 42
0.00000001
 43
0.00000001
 40
0.0
 40
0.0
 40
0.0
 40
0.0
 40
0.5
 40
0.5
 40
1.0
 40
1.0
 40
1.0
 40
1.0
 10
187.0712090804362
 20
131.8178525319154
 30
0.0
 10
187.0475336860118
 20
131.7434721545381
 30
0.0
 10
187.0344425761272
 20
131.6791715157523
 30
0.0
 10
187.0343562548389
 20
131.5909558309694
 30
0.0
 10
187.0475251887827
 20
131.5678525319154
 30
0.0
 10
187.0712090804362
 20
131.5678525319154
 30
0.0
  0
SPLINE
  5
294
330
1F
100
AcDbEntity
  8
0
  6
Continuous
 62
     7
370
    25
100
AcDbSpline
210
0.0
220
0.0
230
1.0
 70
     8
 71
     3
 72
    10
 73
     6
 74
     0
 42
0.00000001
 43
0.00000001
 40
0.0
 40
0.0
 40
0.0
 40
0.0
 40
0.5
 40
0.5
 40
1.0
 40
1.0
 40
1.0
 40
1.0
 10
182.9266518909566
 20
131.8178525319154
 30
0.0
 10
182.9503241308682
 20
131.7434820649898
 30
0.0
 10
182.9634181208034
 20
131.679176468702
 30
0.0
 10
182.9635049882648
 20
131.5909536808961
 30
0.0
 10
182.9503351985055
 20
131.5678525319154
 30
0.0
 10
182.9266518909566
 20
131.5678525319154
 30
0.0
  0
SPLINE
  5
295
330
1F
100
AcDbEntity
  8
0
  6
Continuous
 62
     7
370
    25
100
AcDbSpline
210
0.0
220
0.0
230
1.0
 70
    24
 71
     3
 72
    12
 73
     8
 74
     0
 42
0.00000001
 43
0.00000001
 40
0.0
 40
0.0
 40
0.0
 40
0.0
 40
0.2500000000000001
 40
0.2500000000000001
 40
0.5000000000000001
 40
0.5000000000000001
 40
1.0
 40
1.0
 40
1.0
 40
1.0
 10
182.2489304856964
 20
131.5678525319154
 30
0.0
 10
182.2489304856964
 20
131.5678525319154
 30
0.0
 10
182.2649292906775
 20
131.5678525319154
 30
0.0
 10
182.3266994289918
 20
131.5678525319154
 30
0.0
 10
182.3724415532934
 20
131.5678525319154
 30
0.0
 10
182.5491117006403
 20
131.5678525319154
 30
0.0
 10
182.7193667661206
 20
131.5678525319154
 30
0.0
 10
182.9266518909566
 20
131.5678525319154
 30
0.0
  0
LINE
  5
296
330
1F
100
AcDbEntity
  8
0
  6
Continuous
 62
     7
370
    25
100
AcDbLine
 10
182.2489304857
 20
131.5678525319
 30
0.0
 11
182.2489304857
 21
135.68520625
 31
0.0
  0
LINE
  5
297
330
1F
100
AcDbEntity
  8
0
  6
Continuous
 62
     7
370
    25
100
AcDbLine
 10
200.426651891
 20
148.5678525319
 30
0.0
 11
204.9268715131
 21
148.5678525319
 31
0.0
  0
LINE
  5
298
330
1F
100
AcDbEntity
  8
0
  6
Continuous
 62
     7
370
    25
100
AcDbLine
 10
182.926651891
 20
148.5678525319
 30
0.0
 11
187.0712090804
 21
148.5678525319
 31
0.0
  0
LINE
  5
299
330
1F
100
AcDbEntity
  8
0
  6
Continuous
 62
     7
370
    25
100
AcDbLine
 10
204.9268715131
 20
131.5678525319
 30
0.0
 11
200.426651891
 21
131.5678525319
 31
0.0
  0
LINE
  5
29A
330
1F
100
AcDbEntity
  8
0
  6
Continuous
 62
     7
370
    25
100
AcDbLine
 10
187.0712090804
 20
131.5678525319
 30
0.0
 11
182.926651891
 21
131.5678525319
 31
0.0
  0
LINE
  5
29B
330
1F
100
AcDbEntity
  8
0
  6
Continuous
 62
     7
370
    25
100
AcDbLine
 10
200.2651665627
 20
148.5678525319
 30
0.0
 11
187.2326944087
 21
148.5678525319
 31
0.0
  0
LINE
  5
29C
330
1F
100
AcDbEntity
  8
0
  6
Continuous
 62
     7
370
    25
100
AcDbLine
 10
200.2651665627
 20
131.5678525319
 30
0.0
 11
187.2326944087
 21
131.5678525319
 31
0.0
  0
SPLINE
  5
29D
330
1F
100
AcDbEntity
  8
0
  6
Continuous
 62
     7
370
    25
100
AcDbSpline
210
0.0
220
0.0
230
1.0
 70
     8
 71
     3
 72
    15
 73
    11
 74
     0
 42
0.00000001
 43
0.00000001
 40
0.0
 40
0.0
 40
0.0
 40
0.0
 40
0.0081667445812695
 40
0.3321939991490083
 40
0.4756279600585602
 40
0.6866830973284899
 40
0.8457435502264811
 40
0.8967566214763185
 40
0.9909540928118029
 40
1.0
 40
1.0
 40
1.0
 40
1.0
 10
198.8479499992892
 20
141.3178525319154
 30
0.0
 10
198.8484375334321
 20
141.3192899948544
 30
0.0
 10
198.8682686809641
 20
141.3777608528061
 30
0.0
 10
198.8965494609734
 20
141.4621860305256
 30
0.0
 10
198.9343787594622
 20
141.5767651025481
 30
0.0
 10
198.9609626560297
 20
141.6581359897446
 30
0.0
 10
198.9781324797847
 20
141.7111549817463
 30
0.0
 10
198.9859494760011
 20
141.7353569135905
 30
0.0
 10
198.987945162437
 20
141.7415465342566
 30
0.0
 10
198.9880101263878
 20
141.7417479296692
 30
0.0
 10
198.9880158183545
 20
141.7417655753937
 30
0.0
  0
ARC
  5
29E
330
1F
100
AcDbEntity
  8
0
  6
Continuous
 62
     7
370
    25
100
AcDbCircle
 10
193.7489304857
 20
140.0678525319
 30
0.0
 40
5.250000000000009
100
AcDbArc
 50
13.774146998
 51
166.225853002
  0
SPLINE
  5
29F
330
1F
100
AcDbEntity
  8
0
  6
Continuous
 62
     7
370
    25
100
AcDbSpline
210
0.0
220
0.0
230
1.0
 70
     8
 71
     3
 72
    15
 73
    11
 74
     0
 42
0.00000001
 43
0.00000001
 40
0.0
 40
0.0
 40
0.0
 40
0.0
 40
0.0090459071881971
 40
0.1032433785236874
 40
0.1542564497735246
 40
0.313316902671511
 40
0.5243720399414428
 40
0.6678060008509903
 40
0.9918332554187292
 40
1.0
 40
1.0
 40
1.0
 40
1.0
 10
188.5098451530383
 20
141.7417655753937
 30
0.0
 10
188.5098508450049
 20
141.7417479296692
 30
0.0
 10
188.5099158089557
 20
141.7415465342567
 30
0.0
 10
188.5119114953916
 20
141.7353569135905
 30
0.0
 10
188.5197284916081
 20
141.7111549817463
 30
0.0
 10
188.5368983153631
 20
141.6581359897446
 30
0.0
 10
188.5634822119305
 20
141.5767651025481
 30
0.0
 10
188.6013115104194
 20
141.4621860305256
 30
0.0
 10
188.6295922904286
 20
141.3777608528061
 30
0.0
 10
188.6494234379607
 20
141.3192899948544
 30
0.0
 10
188.6499109721036
 20
141.3178525319154
 30
0.0
  0
ARC
  5
2A0
330
1F
100
AcDbEntity
  8
0
  6
Continuous
 62
     7
370
    25
100
AcDbCircle
 10
193.7489304857
 20
140.0678525319
 30
0.0
 40
5.499999999999993
100
AcDbArc
 50
17.7189318734
 51
162.2810681266
  0
ARC
  5
2A1
330
1F
100
AcDbEntity
  8
0
  6
Continuous
 62
     7
370
    25
100
AcDbCircle
 10
188.2717049106
 20
141.8178525319
 30
0.0
 40
0.2500000000000213
100
AcDbArc
 50
270.0
 51
342.2810681266
  0
SPLINE
  5
2A2
330
1F
100
AcDbEntity
  8
0
  6
Continuous
 62
     7
370
    25
100
AcDbSpline
210
0.0
220
0.0
230
1.0
 70
     8
 71
     3
 72
    15
 73
    11
 74
     0
 42
0.00000001
 43
0.00000001
 40
0.0
 40
0.0
 40
0.0
 40
0.0
 40
0.0080847466189818
 40
0.3310106400647567
 40
0.4750333064304972
 40
0.6874363079215137
 40
0.8468367539418253
 40
0.9000996640391794
 40
0.9910442771984082
 40
1.0
 40
1.0
 40
1.0
 40
1.0
 10
188.6499109721036
 20
141.3178525319154
 30
0.0
 10
188.6486311405595
 20
141.3186684679037
 30
0.0
 10
188.5962314948357
 20
141.3520750180973
 30
0.0
 10
188.5208764033812
 20
141.4008885828322
 30
0.0
 10
188.4189572913635
 20
141.4682590551003
 30
0.0
 10
188.3465663463716
 20
141.5168430954438
 30
0.0
 10
188.2988609181067
 20
141.5492919569024
 30
0.0
 10
188.2773254343994
 20
141.5640029979686
 30
0.0
 10
188.2718964183799
 20
141.5677214488867
 30
0.0
 10
188.2717206662233
 20
141.5678417475523
 30
0.0
 10
188.2717049106447
 20
141.5678525319154
 30
0.0
  0
SPLINE
  5
2A3
330
1F
100
AcDbEntity
  8
0
  6
Continuous
 62
     7
370
    25
100
AcDbSpline
210
0.0
220
0.0
230
1.0
 70
     8
 71
     3
 72
    15
 73
    11
 74
     0
 42
0.00000001
 43
0.00000001
 40
0.0
 40
0.0
 40
0.0
 40
0.0
 40
0.0090459071881971
 40
0.1032433785236816
 40
0.1542564497735189
 40
0.31331690267151
 40
0.5243720399414428
 40
0.6678060008509183
 40
0.9918332554187028
 40
1.0
 40
1.0
 40
1.0
 40
1.0
 10
198.9880158183545
 20
138.3939394884372
 30
0.0
 10
198.9880101263878
 20
138.3939571341616
 30
0.0
 10
198.987945162437
 20
138.3941585295742
 30
0.0
 10
198.9859494760011
 20
138.4003481502403
 30
0.0
 10
198.9781324797847
 20
138.4245500820845
 30
0.0
 10
198.9609626560297
 20
138.4775690740861
 30
0.0
 10
198.9343787594622
 20
138.5589399612827
 30
0.0
 10
198.8965494609735
 20
138.6735190333052
 30
0.0
 10
198.8682686809633
 20
138.7579442110244
 30
0.0
 10
198.848437533432
 20
138.8164150689764
 30
0.0
 10
198.8479499992892
 20
138.8178525319154
 30
0.0
  0
ARC
  5
2A4
330
1F
100
AcDbEntity
  8
0
  6
Continuous
 62
     7
370
    25
100
AcDbCircle
 10
193.7489304857
 20
140.0678525319
 30
0.0
 40
5.499999999999993
100
AcDbArc
 50
197.7189318734
 51
342.2810681266
  0
SPLINE
  5
2A5
330
1F
100
AcDbEntity
  8
0
  6
Continuous
 62
     7
370
    25
100
AcDbSpline
210
0.0
220
0.0
230
1.0
 70
     8
 71
     3
 72
    15
 73
    11
 74
     0
 42
0.00000001
 43
0.00000001
 40
0.0
 40
0.0
 40
0.0
 40
0.0
 40
0.0081667445812973
 40
0.3321939991490804
 40
0.475627960058556
 40
0.6866830973284891
 40
0.8457435502264751
 40
0.8967566214763124
 40
0.9909540928118028
 40
1.0
 40
1.0
 40
1.0
 40
1.0
 10
188.6499109721036
 20
138.8178525319154
 30
0.0
 10
188.6494234379607
 20
138.8164150689764
 30
0.0
 10
188.6295922904295
 20
138.7579442110244
 30
0.0
 10
188.6013115104192
 20
138.6735190333052
 30
0.0
 10
188.5634822119306
 20
138.5589399612827
 30
0.0
 10
188.5368983153631
 20
138.4775690740861
 30
0.0
 10
188.5197284916081
 20
138.4245500820845
 30
0.0
 10
188.5119114953916
 20
138.4003481502403
 30
0.0
 10
188.5099158089557
 20
138.3941585295742
 30
0.0
 10
188.5098508450049
 20
138.3939571341616
 30
0.0
 10
188.5098451530383
 20
138.3939394884372
 30
0.0
  0
ARC
  5
2A6
330
1F
100
AcDbEntity
  8
0
  6
Continuous
 62
     7
370
    25
100
AcDbCircle
 10
193.7489304857
 20
140.0678525319
 30
0.0
 40
5.250000000000009
100
AcDbArc
 50
193.774146998
 51
346.225853002
  0
ARC
  5
2A7
330
1F
100
AcDbEntity
  8
0
  6
Continuous
 62
     7
370
    25
100
AcDbCircle
 10
199.2261560607
 20
141.8178525319
 30
0.0
 40
0.25
100
AcDbArc
 50
197.7189318734
 51
270.0
  0
SPLINE
  5
2A8
330
1F
100
AcDbEntity
  8
0
  6
Continuous
 62
     7
370
    25
100
AcDbSpline
210
0.0
220
0.0
230
1.0
 70
     8
 71
     3
 72
    15
 73
    11
 74
     0
 42
0.00000001
 43
0.00000001
 40
0.0
 40
0.0
 40
0.0
 40
0.0
 40
0.0089557228015919
 40
0.0999003359608148
 40
0.153163246058169
 40
0.3125636920784848
 40
0.5249666935694999
 40
0.6689893599352451
 40
0.9919152533810159
 40
1.0
 40
1.0
 40
1.0
 40
1.0
 10
199.226156060748
 20
141.5678525319154
 30
0.0
 10
199.2261403051695
 20
141.5678417475523
 30
0.0
 10
199.2259645530129
 20
141.5677214488867
 30
0.0
 10
199.2205355369933
 20
141.5640029979686
 30
0.0
 10
199.1990000532861
 20
141.5492919569024
 30
0.0
 10
199.1512946250212
 20
141.5168430954438
 30
0.0
 10
199.0789036800293
 20
141.4682590551003
 30
0.0
 10
198.9769845680115
 20
141.4008885828322
 30
0.0
 10
198.9016294765571
 20
141.3520750180974
 30
0.0
 10
198.8492298308333
 20
141.3186684679037
 30
0.0
 10
198.8479499992892
 20
141.3178525319154
 30
0.0
  0
SPLINE
  5
2A9
330
1F
100
AcDbEntity
  8
0
  6
Continuous
 62
     7
370
    25
100
AcDbSpline
210
0.0
220
0.0
230
1.0
 70
     8
 71
     3
 72
    15
 73
    11
 74
     0
 42
0.00000001
 43
0.00000001
 40
0.0
 40
0.0
 40
0.0
 40
0.0
 40
0.0080847466189582
 40
0.3310106400648243
 40
0.4750333064304948
 40
0.6874363079215142
 40
0.8468367539418303
 40
0.9000996640391847
 40
0.9910442771984082
 40
1.0
 40
1.0
 40
1.0
 40
1.0
 10
198.8479499992892
 20
138.8178525319154
 30
0.0
 10
198.8492298308333
 20
138.8170365959271
 30
0.0
 10
198.9016294765565
 20
138.7836300457326
 30
0.0
 10
198.9769845680116
 20
138.7348164809988
 30
0.0
 10
199.0789036800293
 20
138.6674460087304
 30
0.0
 10
199.1512946250212
 20
138.618861968387
 30
0.0
 10
199.199000053286
 20
138.5864131069285
 30
0.0
 10
199.2205355369933
 20
138.5717020658622
 30
0.0
 10
199.2259645530129
 20
138.5679836149441
 30
0.0
 10
199.2261403051695
 20
138.5678633162785
 30
0.0
 10
199.226156060748
 20
138.5678525319154
 30
0.0
  0
ARC
  5
2AA
330
1F
100
AcDbEntity
  8
0
  6
Continuous
 62
     7
370
    25
100
AcDbCircle
 10
199.2261560607
 20
138.3178525319
 30
0.0
 40
0.2500000000000029
100
AcDbArc
 50
90.0
 51
162.2810681266
  0
SPLINE
  5
2AB
330
1F
100
AcDbEntity
  8
0
  6
Continuous
 62
     7
370
    25
100
AcDbSpline
210
0.0
220
0.0
230
1.0
 70
     8
 71
     3
 72
    15
 73
    11
 74
     0
 42
0.00000001
 43
0.00000001
 40
0.0
 40
0.0
 40
0.0
 40
0.0
 40
0.0089557228015919
 40
0.0999003359608209
 40
0.1531632460581751
 40
0.3125636920784904
 40
0.5249666935695061
 40
0.6689893599351777
 40
0.991915253381045
 40
1.0
 40
1.0
 40
1.0
 40
1.0
 10
188.2717049106447
 20
138.5678525319154
 30
0.0
 10
188.2717206662233
 20
138.5678633162785
 30
0.0
 10
188.2718964183799
 20
138.5679836149441
 30
0.0
 10
188.2773254343994
 20
138.5717020658622
 30
0.0
 10
188.2988609181067
 20
138.5864131069285
 30
0.0
 10
188.3465663463715
 20
138.618861968387
 30
0.0
 10
188.4189572913635
 20
138.6674460087304
 30
0.0
 10
188.5208764033812
 20
138.7348164809988
 30
0.0
 10
188.5962314948362
 20
138.7836300457327
 30
0.0
 10
188.6486311405595
 20
138.8170365959271
 30
0.0
 10
188.6499109721036
 20
138.8178525319154
 30
0.0
  0
ARC
  5
2AC
330
1F
100
AcDbEntity
  8
0
  6
Continuous
 62
     7
370
    25
100
AcDbCircle
 10
188.2717049106
 20
138.3178525319
 30
0.0
 40
0.2500000000000299
100
AcDbArc
 50
17.7189318734
 51
90.0
  0
LINE
  5
2AD
330
1F
100
AcDbEntity
  8
0
  6
Continuous
 62
     7
370
    25
100
AcDbLine
 10
198.7489304857
 20
140.6678525319
 30
0.0
 11
188.7489304857
 21
140.6678525319
 31
0.0
  0
LINE
  5
2AE
330
1F
100
AcDbEntity
  8
0
  6
Continuous
 62
     7
370
    25
100
AcDbLine
 10
198.7489304857
 20
139.4678525319
 30
0.0
 11
198.7489304857
 21
140.6678525319
 31
0.0
  0
LINE
  5
2AF
330
1F
100
AcDbEntity
  8
0
  6
Continuous
 62
     7
370
    25
100
AcDbLine
 10
188.7489304857
 20
139.4678525319
 30
0.0
 11
198.7489304857
 21
139.4678525319
 31
0.0
  0
LINE
  5
2B0
330
1F
100
AcDbEntity
  8
0
  6
Continuous
 62
     7
370
    25
100
AcDbLine
 10
188.7489304857
 20
140.6678525319
 30
0.0
 11
188.7489304857
 21
139.4678525319
 31
0.0
  0
LINE
  5
2B1
330
1F
100
AcDbEntity
  8
0
  6
Continuous
 62
     7
370
    25
100
AcDbLine
 10
199.4989304857
 20
141.3178525319
 30
0.0
 11
198.8479499993
 21
141.3178525319
 31
0.0
  0
LINE
  5
2B2
330
1F
100
AcDbEntity
  8
0
  6
Continuous
 62
     7
370
    25
100
AcDbLine
 10
199.4989304857
 20
138.8178525319
 30
0.0
 11
199.4989304857
 21
141.3178525319
 31
0.0
  0
LINE
  5
2B3
330
1F
100
AcDbEntity
  8
0
  6
Continuous
 62
     7
370
    25
100
AcDbLine
 10
198.8479499993
 20
138.8178525319
 30
0.0
 11
199.4989304857
 21
138.8178525319
 31
0.0
  0
LINE
  5
2B4
330
1F
100
AcDbEntity
  8
0
  6
Continuous
 62
     7
370
    25
100
AcDbLine
 10
187.9989304857
 20
138.8178525319
 30
0.0
 11
188.6499109721
 21
138.8178525319
 31
0.0
  0
LINE
  5
2B5
330
1F
100
AcDbEntity
  8
0
  6
Continuous
 62
     7
370
    25
100
AcDbLine
 10
187.9989304857
 20
141.3178525319
 30
0.0
 11
187.9989304857
 21
138.8178525319
 31
0.0
  0
LINE
  5
2B6
330
1F
100
AcDbEntity
  8
0
  6
Continuous
 62
     7
370
    25
100
AcDbLine
 10
188.6499109721
 20
141.3178525319
 30
0.0
 11
187.9989304857
 21
141.3178525319
 31
0.0
  0
LINE
  5
2B7
330
1F
100
AcDbEntity
  8
0
  6
Continuous
 62
     7
370
    25
100
AcDbLine
 10
187.9989304857
 20
141.5678525319
 30
0.0
 11
187.9989304857
 21
141.3178525319
 31
0.0
  0
LINE
  5
2B8
330
1F
100
AcDbEntity
  8
0
  6
Continuous
 62
     7
370
    25
100
AcDbLine
 10
187.9989304857
 20
141.3178525319
 30
0.0
 11
187.7489304857
 21
141.3178525319
 31
0.0
  0
ARC
  5
2B9
330
1F
100
AcDbEntity
  8
0
  6
Continuous
 62
     7
370
    25
100
AcDbCircle
 10
187.9989304857
 20
141.3178525319
 30
0.0
 40
0.25
100
AcDbArc
 50
90.0
 51
180.0
  0
ARC
  5
2BA
330
1F
100
AcDbEntity
  8
0
  6
Continuous
 62
     7
370
    25
100
AcDbCircle
 10
199.4989304857
 20
141.3178525319
 30
0.0
 40
0.25
100
AcDbArc
 50
0.0
 51
90.0
  0
LINE
  5
2BB
330
1F
100
AcDbEntity
  8
0
  6
Continuous
 62
     7
370
    25
100
AcDbLine
 10
199.7489304857
 20
141.3178525319
 30
0.0
 11
199.4989304857
 21
141.3178525319
 31
0.0
  0
LINE
  5
2BC
330
1F
100
AcDbEntity
  8
0
  6
Continuous
 62
     7
370
    25
100
AcDbLine
 10
199.4989304857
 20
141.3178525319
 30
0.0
 11
199.4989304857
 21
141.5678525319
 31
0.0
  0
LINE
  5
2BD
330
1F
100
AcDbEntity
  8
0
  6
Continuous
 62
     7
370
    25
100
AcDbLine
 10
187.9989304857
 20
141.5678525319
 30
0.0
 11
188.2717049106
 21
141.5678525319
 31
0.0
  0
LINE
  5
2BE
330
1F
100
AcDbEntity
  8
0
  6
Continuous
 62
     7
370
    25
100
AcDbLine
 10
199.2261560607
 20
141.5678525319
 30
0.0
 11
199.4989304857
 21
141.5678525319
 31
0.0
  0
LINE
  5
2BF
330
1F
100
AcDbEntity
  8
0
  6
Continuous
 62
     7
370
    25
100
AcDbLine
 10
187.7489304857
 20
138.8178525319
 30
0.0
 11
187.9989304857
 21
138.8178525319
 31
0.0
  0
LINE
  5
2C0
330
1F
100
AcDbEntity
  8
0
  6
Continuous
 62
     7
370
    25
100
AcDbLine
 10
187.7489304857
 20
138.8178525319
 30
0.0
 11
187.7489304857
 21
141.3178525319
 31
0.0
  0
LINE
  5
2C1
330
1F
100
AcDbEntity
  8
0
  6
Continuous
 62
     7
370
    25
100
AcDbLine
 10
199.7489304857
 20
141.3178525319
 30
0.0
 11
199.7489304857
 21
138.8178525319
 31
0.0
  0
LINE
  5
2C2
330
1F
100
AcDbEntity
  8
0
  6
Continuous
 62
     7
370
    25
100
AcDbLine
 10
199.4989304857
 20
138.8178525319
 30
0.0
 11
199.7489304857
 21
138.8178525319
 31
0.0
  0
ARC
  5
2C3
330
1F
100
AcDbEntity
  8
0
  6
Continuous
 62
     7
370
    25
100
AcDbCircle
 10
199.4989304857
 20
138.8178525319
 30
0.0
 40
0.2500000000000284
100
AcDbArc
 50
270.0
 51
0.0
  0
LINE
  5
2C4
330
1F
100
AcDbEntity
  8
0
  6
Continuous
 62
     7
370
    25
100
AcDbLine
 10
199.4989304857
 20
138.5678525319
 30
0.0
 11
199.4989304857
 21
138.8178525319
 31
0.0
  0
LINE
  5
2C5
330
1F
100
AcDbEntity
  8
0
  6
Continuous
 62
     7
370
    25
100
AcDbLine
 10
188.2717049106
 20
138.5678525319
 30
0.0
 11
187.9989304857
 21
138.5678525319
 31
0.0
  0
LINE
  5
2C6
330
1F
100
AcDbEntity
  8
0
  6
Continuous
 62
     7
370
    25
100
AcDbLine
 10
187.9989304857
 20
138.8178525319
 30
0.0
 11
187.9989304857
 21
138.5678525319
 31
0.0
  0
ARC
  5
2C7
330
1F
100
AcDbEntity
  8
0
  6
Continuous
 62
     7
370
    25
100
AcDbCircle
 10
187.9989304857
 20
138.8178525319
 30
0.0
 40
0.2500000000000284
100
AcDbArc
 50
180.0
 51
270.0
  0
LINE
  5
2C8
330
1F
100
AcDbEntity
  8
0
  6
Continuous
 62
     7
370
    25
100
AcDbLine
 10
199.4989304857
 20
138.5678525319
 30
0.0
 11
199.2261560607
 21
138.5678525319
 31
0.0
  0
LINE
  5
2C9
330
1F
100
AcDbEntity
  8
0
  6
Continuous
 62
     7
370
    25
100
AcDbLine
 10
173.7489304857
 20
136.7961532679
 30
0.0
 11
173.7489304857
 21
143.339551796
 31
0.0
  0
LINE
  5
2CA
330
1F
100
AcDbEntity
  8
0
  6
Continuous
 62
     7
370
    25
100
AcDbLine
 10
171.5734936242
 20
136.5678525319
 30
0.0
 11
173.7489304857
 21
136.7961532679
 31
0.0
  0
LINE
  5
2CB
330
1F
100
AcDbEntity
  8
0
  6
Continuous
 62
     7
370
    25
100
AcDbLine
 10
153.7489304857
 20
136.5678525319
 30
0.0
 11
171.5734936242
 21
136.5678525319
 31
0.0
  0
LINE
  5
2CC
330
1F
100
AcDbEntity
  8
0
  6
Continuous
 62
     7
370
    25
100
AcDbLine
 10
153.7489304857
 20
143.5678525319
 30
0.0
 11
153.7489304857
 21
136.5678525319
 31
0.0
  0
LINE
  5
2CD
330
1F
100
AcDbEntity
  8
0
  6
Continuous
 62
     7
370
    25
100
AcDbLine
 10
171.5734936242
 20
143.5678525319
 30
0.0
 11
153.7489304857
 21
143.5678525319
 31
0.0
  0
LINE
  5
2CE
330
1F
100
AcDbEntity
  8
0
  6
Continuous
 62
     7
370
    25
100
AcDbLine
 10
173.7489304857
 20
143.339551796
 30
0.0
 11
171.5734936242
 21
143.5678525319
 31
0.0
  0
LINE
  5
2CF
330
1F
100
AcDbEntity
  8
0
  6
Continuous
 62
     7
370
    25
100
AcDbLine
 10
188.5251283113
 20
141.7888670127
 30
0.0
 11
188.428563994
 21
141.6294676925
 31
0.0
  0
LINE
  5
2D0
330
1F
100
AcDbEntity
  8
0
  6
Continuous
 62
     7
370
    25
100
AcDbLine
 10
188.4062866134
 20
138.5226348646
 30
0.0
 11
188.5251283113
 21
138.3468380511
 31
0.0
  0
LINE
  5
2D1
330
1F
100
AcDbEntity
  8
0
  6
Continuous
 62
     7
370
    25
100
AcDbLine
 10
180.3323608321
 20
142.6486551675
 30
0.0
 11
180.3323608321
 21
137.4870498963
 31
0.0
  0
LINE
  5
2D2
330
1F
100
AcDbEntity
  8
0
  6
Continuous
 62
     7
370
    25
100
AcDbLine
 10
188.5251283113
 20
138.3468380511
 30
0.0
 11
180.3323608321
 21
137.4870498963
 31
0.0
  0
LINE
  5
2D3
330
1F
100
AcDbEntity
  8
0
  6
Continuous
 62
     7
370
    25
100
AcDbLine
 10
180.3323608321
 20
142.6486551675
 30
0.0
 11
188.5251283113
 21
141.7888670127
 31
0.0
  0
LINE
  5
2D4
330
1F
100
AcDbEntity
  8
0
  6
Continuous
 62
     7
370
    25
100
AcDbLine
 10
180.3323608321
 20
137.4870498963
 30
0.0
 11
173.7489304857
 21
136.7961532679
 31
0.0
  0
LINE
  5
2D5
330
1F
100
AcDbEntity
  8
0
  6
Continuous
 62
     7
370
    25
100
AcDbLine
 10
173.7489304857
 20
143.339551796
 30
0.0
 11
180.3323608321
 21
142.6486551675
 31
0.0
  0
ARC
  5
2D6
330
1F
100
AcDbEntity
  8
0
  6
Continuous
 62
     7
370
    25
100
AcDbCircle
 10
193.7489304857
 20
140.0678525319
 30
0.0
 40
7.450000000000633
100
AcDbArc
 50
233.0863788866
 51
126.9136211134
  0
ARC
  5
2D7
330
1F
100
AcDbEntity
  8
0
  6
Continuous
 62
     7
370
    25
100
AcDbCircle
 10
193.7489304857
 20
140.0678525319
 30
0.0
 40
7.207531252870791
100
AcDbArc
 50
195.3041237151
 51
238.9797515565
  0
ARC
  5
2D8
330
1F
100
AcDbEntity
  8
0
  6
Continuous
 62
     7
370
    25
100
AcDbCircle
 10
193.7489304857
 20
140.0678525319
 30
0.0
 40
7.207531252872426
100
AcDbArc
 50
121.0202484435
 51
164.6958762849
  0
ARC
  5
2D9
330
1F
100
AcDbEntity
  8
0
  6
Continuous
 62
     7
370
    25
100
AcDbCircle
 10
171.5734936242
 20
208.5678525319
 30
0.0
 40
65.0
100
AcDbArc
 50
270.0
 51
286.5000949923
  0
ARC
  5
2DA
330
1F
100
AcDbEntity
  8
0
  6
Continuous
 62
     7
370
    25
100
AcDbCircle
 10
171.5734936242
 20
71.5678525319
 30
0.0
 40
64.99999999999999
100
AcDbArc
 50
73.4999050077
 51
90.0
  0
LINE
  5
2DB
330
1F
100
AcDbEntity
  8
0
  6
Continuous
 62
     7
370
    25
100
AcDbLine
 10
176.7398270201
 20
130.7178525319
 30
0.0
 11
176.7398270201
 21
136.3622118485
 31
0.0
  0
LINE
  5
2DC
330
1F
100
AcDbEntity
  8
0
  6
Continuous
 62
     7
370
    25
100
AcDbLine
 10
176.7398270201
 20
143.7734932154
 30
0.0
 11
176.7398270201
 21
149.4178525319
 31
0.0
  0
LINE
  5
2DD
330
1F
100
AcDbEntity
  8
0
  6
Continuous
 62
     7
370
    25
100
AcDbLine
 10
163.3398270201
 20
149.4178525319
 30
0.0
 11
163.3398270201
 21
143.5678525319
 31
0.0
  0
LINE
  5
2DE
330
1F
100
AcDbEntity
  8
0
  6
Continuous
 62
     7
370
    25
100
AcDbLine
 10
163.3398270201
 20
136.5678525319
 30
0.0
 11
163.3398270201
 21
130.7178525319
 31
0.0
  0
LINE
  5
2DF
330
1F
100
AcDbEntity
  8
0
  6
Continuous
 62
     7
370
    25
100
AcDbLine
 10
204.9268715131
 20
139.8178525319
 30
0.0
 11
201.1947346733
 21
139.8178525319
 31
0.0
  0
LINE
  5
2E0
330
1F
100
AcDbEntity
  8
0
  6
Continuous
 62
     7
370
    25
100
AcDbLine
 10
201.1947346733
 20
140.3178525319
 30
0.0
 11
204.9268715131
 21
140.3178525319
 31
0.0
  0
INSERT
  5
2EC
330
1F
100
AcDbEntity
  8
0
  6
Continuous
 62
     7
370
    18
100
AcDbBlockReference
  2
SW_CENTERMARKSYMBOL_1
 10
193.7489304857
 20
140.0678525319
 30
0.0
  0
ENDSEC
  0
SECTION
  2
OBJECTS
  0
DICTIONARY
  5
C
330
0
100
AcDbDictionary
281
     1
  3
ACAD_GROUP
350
D
  3
ACAD_LAYOUT
350
1A
  3
ACAD_MLINESTYLE
350
17
  3
ACAD_PLOTSETTINGS
350
19
  3
ACAD_PLOTSTYLENAME
350
E
  3
ACAD_SCALELIST
350
47
  3
DWGPROPS
350
2ED
  0
DICTIONARY
  5
D
102
{ACAD_REACTORS
330
C
102
}
330
C
100
AcDbDictionary
281
     1
  0
DICTIONARY
  5
1A
102
{ACAD_REACTORS
330
C
102
}
330
C
100
AcDbDictionary
281
     1
  3
Layout1
350
1E
  3
Layout2
350
26
  3
Model
350
22
  0
DICTIONARY
  5
17
102
{ACAD_REACTORS
330
C
102
}
330
C
100
AcDbDictionary
281
     1
  3
Standard
350
18
  0
DICTIONARY
  5
19
102
{ACAD_REACTORS
330
C
102
}
330
C
100
AcDbDictionary
281
     1
  0
ACDBDICTIONARYWDFLT
  5
E
102
{ACAD_REACTORS
330
C
102
}
330
C
100
AcDbDictionary
281
     1
  3
Normal
350
F
100
AcDbDictionaryWithDefault
340
F
  0
DICTIONARY
  5
47
102
{ACAD_REACTORS
330
C
102
}
330
C
100
AcDbDictionary
281
     1
  3
A0
350
48
  3
A1
350
49
  3
A2
350
4A
  3
A3
350
4B
  3
A4
350
4C
  3
A5
350
4D
  3
A6
350
4E
  3
A7
350
4F
  3
A8
350
50
  3
A9
350
51
  3
B0
350
52
  3
B1
350
53
  3
B2
350
54
  3
B3
350
55
  3
B4
350
56
  3
B5
350
57
  3
B6
350
58
  0
XRECORD
  5
2ED
102
{ACAD_REACTORS
330
C
102
}
330
C
100
AcDbXrecord
280
     1
  1
DWGPROPS COOKIE
  2

  3

  4

  6

  7

  8
user28
  9

300
=
301
=
302
=
303
=
304
=
305
=
306
=
307
=
308
=
309
=
 40
0.0
 41
2460137.057716331
 42
2460137.057717083
  1

 90
        0
  0
LAYOUT
  5
1E
102
{ACAD_REACTORS
330
1A
102
}
330
1A
100
AcDbPlotSettings
  1

  2
none_device
  4

  6

 40
0.0
 41
0.0
 42
0.0
 43
0.0
 44
0.0
 45
0.0
 46
0.0
 47
0.0
 48
0.0
 49
0.0
140
0.0
141
0.0
142
1.0
143
1.0
 70
   688
 72
     1
 73
     0
 74
     5
  7

 75
    16
147
1.0
148
0.0
149
0.0
100
AcDbLayout
  1
Layout1
 70
     1
 71
     1
 10
0.0
 20
0.0
 11
420.0
 21
297.0
 12
0.0
 22
0.0
 32
0.0
 14
1.0000000000E+20
 24
1.0000000000E+20
 34
1.0000000000E+20
 15
-1.0000000000E+20
 25
-1.0000000000E+20
 35
-1.0000000000E+20
146
0.0
 13
0.0
 23
0.0
 33
0.0
 16
1.0
 26
0.0
 36
0.0
 17
0.0
 27
1.0
 37
0.0
 76
     0
330
1B
  0
LAYOUT
  5
26
102
{ACAD_REACTORS
330
1A
102
}
330
1A
100
AcDbPlotSettings
  1

  2
none_device
  4

  6

 40
0.0
 41
0.0
 42
0.0
 43
0.0
 44
0.0
 45
0.0
 46
0.0
 47
0.0
 48
0.0
 49
0.0
140
0.0
141
0.0
142
1.0
143
1.0
 70
   688
 72
     1
 73
     0
 74
     5
  7

 75
    16
147
1.0
148
0.0
149
0.0
100
AcDbLayout
  1
Layout2
 70
     1
 71
     2
 10
0.0
 20
0.0
 11
0.0
 21
0.0
 12
0.0
 22
0.0
 32
0.0
 14
0.0
 24
0.0
 34
0.0
 15
0.0
 25
0.0
 35
0.0
146
0.0
 13
0.0
 23
0.0
 33
0.0
 16
1.0
 26
0.0
 36
0.0
 17
0.0
 27
1.0
 37
0.0
 76
     0
330
23
  0
LAYOUT
  5
22
102
{ACAD_REACTORS
330
1A
102
}
330
1A
100
AcDbPlotSettings
  1

  2
none_device
  4
Letter_(8.50_x_11.00_Inches)
  6

 40
6.35
 41
6.35
 42
6.35000508
 43
6.35000508
 44
215.9
 45
279.4
 46
0.0
 47
0.0
 48
0.0
 49
0.0
140
0.0
141
0.0
142
1.0
143
1.0
 70
  1712
 72
     1
 73
     0
 74
     0
  7

 75
     0
147
1.0
148
0.0
149
0.0
100
AcDbLayout
  1
Model
 70
     1
 71
     0
 10
0.0
 20
0.0
 11
431.8
 21
279.4
 12
0.0
 22
0.0
 32
0.0
 14
0.0
 24
0.0
 34
0.0
 15
431.8
 25
279.4
 35
0.0
146
0.0
 13
0.0
 23
0.0
 33
0.0
 16
1.0
 26
0.0
 36
0.0
 17
0.0
 27
1.0
 37
0.0
 76
     0
330
1F
331
29
  0
MLINESTYLE
  5
18
102
{ACAD_REACTORS
330
17
102
}
330
17
100
AcDbMlineStyle
  2
Standard
 70
     0
  3

 62
   256
 51
90.0
 52
90.0
 71
     2
 49
0.5
 62
   256
  6
BYLAYER
 49
-0.5
 62
   256
  6
BYLAYER
  0
ACDBPLACEHOLDER
  5
F
102
{ACAD_REACTORS
330
E
102
}
330
E
  0
SCALE
  5
48
102
{ACAD_REACTORS
330
47
102
}
330
47
100
AcDbScale
 70
     0
300
1:1
140
1.0
141
1.0
290
     1
  0
SCALE
  5
49
102
{ACAD_REACTORS
330
47
102
}
330
47
100
AcDbScale
 70
     0
300
1:2
140
1.0
141
2.0
290
     0
  0
SCALE
  5
4A
102
{ACAD_REACTORS
330
47
102
}
330
47
100
AcDbScale
 70
     0
300
1:4
140
1.0
141
4.0
290
     0
  0
SCALE
  5
4B
102
{ACAD_REACTORS
330
47
102
}
330
47
100
AcDbScale
 70
     0
300
1:5
140
1.0
141
5.0
290
     0
  0
SCALE
  5
4C
102
{ACAD_REACTORS
330
47
102
}
330
47
100
AcDbScale
 70
     0
300
1:8
140
1.0
141
8.0
290
     0
  0
SCALE
  5
4D
102
{ACAD_REACTORS
330
47
102
}
330
47
100
AcDbScale
 70
     0
300
1:10
140
1.0
141
10.0
290
     0
  0
SCALE
  5
4E
102
{ACAD_REACTORS
330
47
102
}
330
47
100
AcDbScale
 70
     0
300
1:16
140
1.0
141
16.0
290
     0
  0
SCALE
  5
4F
102
{ACAD_REACTORS
330
47
102
}
330
47
100
AcDbScale
 70
     0
300
1:20
140
1.0
141
20.0
290
     0
  0
SCALE
  5
50
102
{ACAD_REACTORS
330
47
102
}
330
47
100
AcDbScale
 70
     0
300
1:30
140
1.0
141
30.0
290
     0
  0
SCALE
  5
51
102
{ACAD_REACTORS
330
47
102
}
330
47
100
AcDbScale
 70
     0
300
1:40
140
1.0
141
40.0
290
     0
  0
SCALE
  5
52
102
{ACAD_REACTORS
330
47
102
}
330
47
100
AcDbScale
 70
     0
300
1:50
140
1.0
141
50.0
290
     0
  0
SCALE
  5
53
102
{ACAD_REACTORS
330
47
102
}
330
47
100
AcDbScale
 70
     0
300
1:100
140
1.0
141
100.0
290
     0
  0
SCALE
  5
54
102
{ACAD_REACTORS
330
47
102
}
330
47
100
AcDbScale
 70
     0
300
2:1
140
2.0
141
1.0
290
     0
  0
SCALE
  5
55
102
{ACAD_REACTORS
330
47
102
}
330
47
100
AcDbScale
 70
     0
300
4:1
140
4.0
141
1.0
290
     0
  0
SCALE
  5
56
102
{ACAD_REACTORS
330
47
102
}
330
47
100
AcDbScale
 70
     0
300
8:1
140
8.0
141
1.0
290
     0
  0
SCALE
  5
57
102
{ACAD_REACTORS
330
47
102
}
330
47
100
AcDbScale
 70
     0
300
10:1
140
10.0
141
1.0
290
     0
  0
SCALE
  5
58
102
{ACAD_REACTORS
330
47
102
}
330
47
100
AcDbScale
 70
     0
300
100:1
140
100.0
141
1.0
290
     0
  0
ENDSEC
  0
EOF
