  0
SECTION
  2
HEADER
  9
$ACADVER
  1
AC1015
  9
$ACADMAINTVER
 70
     6
  9
$DWGCODEPAGE
  3
DOS932
  9
$INSBASE
 10
0.0
 20
0.0
 30
0.0
  9
$EXTMIN
 10
0.0
 20
0.0
 30
0.0
  9
$EXTMAX
 10
431.8
 20
279.4
 30
0.0
  9
$LIMMIN
 10
0.0
 20
0.0
  9
$LIMMAX
 10
431.8
 20
279.4
  9
$ORTHOMODE
 70
     0
  9
$REGENMODE
 70
     1
  9
$FILLMODE
 70
     1
  9
$QTEXTMODE
 70
     0
  9
$MIRRTEXT
 70
     1
  9
$LTSCALE
 40
1.0
  9
$ATTMODE
 70
     1
  9
$TEXTSIZE
 40
3.5
  9
$TRACEWID
 40
1.0
  9
$TEXTSTYLE
  7
Standard
  9
$CLAYER
  8
0
  9
$CELTYPE
  6
ByLayer
  9
$CECOLOR
 62
   256
  9
$CELTSCALE
 40
1.0
  9
$DISPSILH
 70
     0
  9
$DIMSCALE
 40
1.0
  9
$DIMASZ
 40
3.556
  9
$DIMEXO
 40
1.0
  9
$DIMDLI
 40
3.75
  9
$DIMRND
 40
0.0
  9
$DIMDLE
 40
0.0
  9
$DIMEXE
 40
1.0
  9
$DIMTP
 40
0.0
  9
$DIMTM
 40
0.0
  9
$DIMTXT
 40
3.5
  9
$DIMCEN
 40
2.5
  9
$DIMTSZ
 40
0.0
  9
$DIMTOL
 70
     0
  9
$DIMLIM
 70
     0
  9
$DIMTIH
 70
     1
  9
$DIMTOH
 70
     1
  9
$DIMSE1
 70
     0
  9
$DIMSE2
 70
     0
  9
$DIMTAD
 70
     1
  9
$DIMZIN
 70
     0
  9
$DIMBLK
  1

  9
$DIMASO
 70
     1
  9
$DIMSHO
 70
     1
  9
$DIMPOST
  1

  9
$DIMAPOST
  1

  9
$DIMALT
 70
     0
  9
$DIMALTD
 70
     3
  9
$DIMALTF
 40
0.0393700787
  9
$DIMLFAC
 40
1.0
  9
$DIMTOFL
 70
     1
  9
$DIMTVP
 40
0.0
  9
$DIMTIX
 70
     0
  9
$DIMSOXD
 70
     0
  9
$DIMSAH
 70
     0
  9
$DIMBLK1
  1

  9
$DIMBLK2
  1

  9
$DIMSTYLE
  2
ISO-25
  9
$DIMCLRD
 70
     0
  9
$DIMCLRE
 70
     0
  9
$DIMCLRT
 70
     0
  9
$DIMTFAC
 40
1.0
  9
$DIMGAP
 40
1.524
  9
$DIMJUST
 70
     0
  9
$DIMSD1
 70
     0
  9
$DIMSD2
 70
     0
  9
$DIMTOLJ
 70
     0
  9
$DIMTZIN
 70
     0
  9
$DIMALTZ
 70
     0
  9
$DIMALTTZ
 70
     0
  9
$DIMUPT
 70
     0
  9
$DIMDEC
 70
     3
  9
$DIMTDEC
 70
     3
  9
$DIMALTU
 70
     2
  9
$DIMALTTD
 70
     3
  9
$DIMTXSTY
  7
Standard
  9
$DIMAUNIT
 70
     0
  9
$DIMADEC
 70
     2
  9
$DIMALTRND
 40
0.0
  9
$DIMAZIN
 70
     0
  9
$DIMDSEP
 70
    44
  9
$DIMATFIT
 70
     3
  9
$DIMFRAC
 70
     0
  9
$DIMLDRBLK
  1

  9
$DIMLUNIT
 70
     2
  9
$DIMLWD
 70
    -2
  9
$DIMLWE
 70
    -2
  9
$DIMTMOVE
 70
     0
  9
$LUNITS
 70
     2
  9
$LUPREC
 70
     3
  9
$SKETCHINC
 40
1.0
  9
$FILLETRAD
 40
0.0
  9
$AUNITS
 70
     0
  9
$AUPREC
 70
     2
  9
$MENU
  1
.
  9
$ELEVATION
 40
0.0
  9
$PELEVATION
 40
0.0
  9
$THICKNESS
 40
0.0
  9
$LIMCHECK
 70
     0
  9
$CHAMFERA
 40
0.0
  9
$CHAMFERB
 40
0.0
  9
$CHAMFERC
 40
0.0
  9
$CHAMFERD
 40
0.0
  9
$SKPOLY
 70
     0
  9
$TDCREATE
 40
2460137.418228148
  9
$TDUCREATE
 40
2460137.043228148
  9
$TDUPDATE
 40
2460137.418229051
  9
$TDUUPDATE
 40
2460137.043229051
  9
$TDINDWG
 40
0.0000000116
  9
$TDUSRTIMER
 40
0.0000000116
  9
$USRTIMER
 70
     1
  9
$ANGBASE
 50
0.0
  9
$ANGDIR
 70
     0
  9
$PDMODE
 70
     0
  9
$PDSIZE
 40
-1.0
  9
$PLINEWID
 40
0.0
  9
$SPLFRAME
 70
     0
  9
$SPLINETYPE
 70
     6
  9
$SPLINESEGS
 70
     8
  9
$HANDSEED
  5
31E
  9
$SURFTAB1
 70
     6
  9
$SURFTAB2
 70
     6
  9
$SURFTYPE
 70
     6
  9
$SURFU
 70
     6
  9
$SURFV
 70
     6
  9
$UCSBASE
  2

  9
$UCSNAME
  2

  9
$UCSORG
 10
0.0
 20
0.0
 30
0.0
  9
$UCSXDIR
 10
1.0
 20
0.0
 30
0.0
  9
$UCSYDIR
 10
0.0
 20
1.0
 30
0.0
  9
$UCSORTHOREF
  2

  9
$UCSORTHOVIEW
 70
     0
  9
$UCSORGTOP
 10
0.0
 20
0.0
 30
0.0
  9
$UCSORGBOTTOM
 10
0.0
 20
0.0
 30
0.0
  9
$UCSORGLEFT
 10
0.0
 20
0.0
 30
0.0
  9
$UCSORGRIGHT
 10
0.0
 20
0.0
 30
0.0
  9
$UCSORGFRONT
 10
0.0
 20
0.0
 30
0.0
  9
$UCSORGBACK
 10
0.0
 20
0.0
 30
0.0
  9
$PUCSBASE
  2

  9
$PUCSNAME
  2

  9
$PUCSORG
 10
0.0
 20
0.0
 30
0.0
  9
$PUCSXDIR
 10
1.0
 20
0.0
 30
0.0
  9
$PUCSYDIR
 10
0.0
 20
1.0
 30
0.0
  9
$PUCSORTHOREF
  2

  9
$PUCSORTHOVIEW
 70
     0
  9
$PUCSORGTOP
 10
0.0
 20
0.0
 30
0.0
  9
$PUCSORGBOTTOM
 10
0.0
 20
0.0
 30
0.0
  9
$PUCSORGLEFT
 10
0.0
 20
0.0
 30
0.0
  9
$PUCSORGRIGHT
 10
0.0
 20
0.0
 30
0.0
  9
$PUCSORGFRONT
 10
0.0
 20
0.0
 30
0.0
  9
$PUCSORGBACK
 10
0.0
 20
0.0
 30
0.0
  9
$USERI1
 70
     0
  9
$USERI2
 70
     0
  9
$USERI3
 70
     0
  9
$USERI4
 70
     0
  9
$USERI5
 70
     0
  9
$USERR1
 40
0.0
  9
$USERR2
 40
0.0
  9
$USERR3
 40
0.0
  9
$USERR4
 40
0.0
  9
$USERR5
 40
0.0
  9
$WORLDVIEW
 70
     1
  9
$SHADEDGE
 70
     3
  9
$SHADEDIF
 70
    70
  9
$TILEMODE
 70
     1
  9
$MAXACTVP
 70
    64
  9
$PINSBASE
 10
0.0
 20
0.0
 30
0.0
  9
$PLIMCHECK
 70
     0
  9
$PEXTMIN
 10
1.0000000000E+20
 20
1.0000000000E+20
 30
1.0000000000E+20
  9
$PEXTMAX
 10
-1.0000000000E+20
 20
-1.0000000000E+20
 30
-1.0000000000E+20
  9
$PLIMMIN
 10
0.0
 20
0.0
  9
$PLIMMAX
 10
420.0
 20
297.0
  9
$UNITMODE
 70
     0
  9
$VISRETAIN
 70
     1
  9
$PLINEGEN
 70
     0
  9
$PSLTSCALE
 70
     1
  9
$TREEDEPTH
 70
  3020
  9
$CMLSTYLE
  2
Standard
  9
$CMLJUST
 70
     0
  9
$CMLSCALE
 40
20.0
  9
$PROXYGRAPHICS
 70
     1
  9
$MEASUREMENT
 70
     1
  9
$CELWEIGHT
370
    -1
  9
$ENDCAPS
280
     0
  9
$JOINSTYLE
280
     0
  9
$LWDISPLAY
290
     1
  9
$INSUNITS
 70
     4
  9
$HYPERLINKBASE
  1

  9
$STYLESHEET
  1

  9
$XEDIT
290
     1
  9
$CEPSNTYPE
380
     0
  9
$PSTYLEMODE
290
     1
  9
$FINGERPRINTGUID
  2
{846c12db-3a02-4379-86b1-a706b8964617}
  9
$VERSIONGUID
  2
{FAEB1C32-E019-11D5-929B-00C0DF256EC4}
  9
$EXTNAMES
290
     1
  9
$PSVPSCALE
 40
0.0
  9
$OLESTARTUP
290
     0
  0
ENDSEC
  0
SECTION
  2
CLASSES
  0
CLASS
  1
ACDBDICTIONARYWDFLT
  2
AcDbDictionaryWithDefault
  3
ObjectDBX Classes
 90
        0
280
     0
281
     0
  0
CLASS
  1
VISUALSTYLE
  2
AcDbVisualStyle
  3
ObjectDBX Classes
 90
     4095
280
     0
281
     0
  0
CLASS
  1
MATERIAL
  2
AcDbMaterial
  3
ObjectDBX Classes
 90
     1153
280
     0
281
     0
  0
CLASS
  1
SCALE
  2
AcDbScale
  3
ObjectDBX Classes
 90
     1153
280
     0
281
     0
  0
CLASS
  1
TABLESTYLE
  2
AcDbTableStyle
  3
ObjectDBX Classes
 90
     4095
280
     0
281
     0
  0
CLASS
  1
MLEADERSTYLE
  2
AcDbMLeaderStyle
  3
ACDB_MLEADERSTYLE_CLASS
 90
     4095
280
     0
281
     0
  0
CLASS
  1
SUN
  2
AcDbSun
  3
SCENEOE
 90
     1153
280
     0
281
     0
  0
CLASS
  1
ACDBPLACEHOLDER
  2
AcDbPlaceHolder
  3
ObjectDBX Classes
 90
        0
280
     0
281
     0
  0
CLASS
  1
LAYOUT
  2
AcDbLayout
  3
ObjectDBX Classes
 90
        0
280
     0
281
     0
  0
ENDSEC
  0
SECTION
  2
TABLES
  0
TABLE
  2
VPORT
  5
8
330
0
100
AcDbSymbolTable
 70
     1
  0
VPORT
  5
29
330
8
100
AcDbSymbolTableRecord
100
AcDbViewportTableRecord
  2
*Active
 70
     0
 10
0.0
 20
0.0
 11
1.0
 21
1.0
 12
215.9
 22
139.7
 13
0.0
 23
0.0
 14
10.0
 24
10.0
 15
10.0
 25
10.0
 16
0.0
 26
0.0
 36
1.0
 17
0.0
 27
0.0
 37
0.0
 40
279.4
 41
1.5454545455
 42
50.0
 43
0.0
 44
0.0
 50
0.0
 51
0.0
 71
     0
 72
  2000
 73
     1
 74
     3
 75
     0
 76
     0
 77
     0
 78
     0
281
     0
 65
     1
110
0.0
120
0.0
130
0.0
111
1.0
121
0.0
131
0.0
112
0.0
122
1.0
132
0.0
 79
     0
146
0.0
  0
ENDTAB
  0
TABLE
  2
LTYPE
  5
5
330
0
100
AcDbSymbolTable
 70
     6
  0
LTYPE
  5
14
330
5
100
AcDbSymbolTableRecord
100
AcDbLinetypeTableRecord
  2
ByBlock
 70
     0
  3

 72
    65
 73
     0
 40
0.0
  0
LTYPE
  5
15
330
5
100
AcDbSymbolTableRecord
100
AcDbLinetypeTableRecord
  2
ByLayer
 70
     0
  3

 72
    65
 73
     0
 40
0.0
  0
LTYPE
  5
16
330
5
100
AcDbSymbolTableRecord
100
AcDbLinetypeTableRecord
  2
Continuous
 70
     0
  3
Solid line
 72
    65
 73
     0
 40
0.0
  0
LTYPE
  5
5E
330
5
100
AcDbSymbolTableRecord
100
AcDbLinetypeTableRecord
  2
HIDDEN
 70
     0
  3
Hidden __ __ __ __ __ __ __ __ __ __ __ __ __ __
 72
    65
 73
     2
 40
1.905
 49
1.27
 74
     0
 49
-0.635
 74
     0
  0
LTYPE
  5
5F
330
5
100
AcDbSymbolTableRecord
100
AcDbLinetypeTableRecord
  2
PHANTOM
 70
     0
  3
Phantom ______  __  __  ______  __  __  ______
 72
    65
 73
     6
 40
12.7
 49
6.35
 74
     0
 49
-1.27
 74
     0
 49
1.27
 74
     0
 49
-1.27
 74
     0
 49
1.27
 74
     0
 49
-1.27
 74
     0
  0
LTYPE
  5
60
330
5
100
AcDbSymbolTableRecord
100
AcDbLinetypeTableRecord
  2
CENTER
 70
     0
  3
Center ____ _ ____ _ ____ _ ____ _ ____ _ ____
 72
    65
 73
     4
 40
10.16
 49
6.35
 74
     0
 49
-1.27
 74
     0
 49
1.27
 74
     0
 49
-1.27
 74
     0
  0
LTYPE
  5
61
330
5
100
AcDbSymbolTableRecord
100
AcDbLinetypeTableRecord
  2
CENTERX2
 70
     0
  3
Center (2x) ________  __  ________  __  _____
 72
    65
 73
     4
 40
20.32
 49
12.7
 74
     0
 49
-2.54
 74
     0
 49
2.54
 74
     0
 49
-2.54
 74
     0
  0
LTYPE
  5
62
330
5
100
AcDbSymbolTableRecord
100
AcDbLinetypeTableRecord
  2
DOT2
 70
     0
  3
Dot (.5x) ........................................
 72
    65
 73
     2
 40
0.635
 49
0.0
 74
     0
 49
-0.635
 74
     0
  0
ENDTAB
  0
TABLE
  2
LAYER
  5
2
330
0
100
AcDbSymbolTable
 70
     1
  0
LAYER
  5
10
330
2
100
AcDbSymbolTableRecord
100
AcDbLayerTableRecord
  2
0
 70
     0
 62
     7
  6
Continuous
370
    -3
390
F
  0
ENDTAB
  0
TABLE
  2
STYLE
  5
3
330
0
100
AcDbSymbolTable
 70
     2
  0
STYLE
  5
11
330
3
100
AcDbSymbolTableRecord
100
AcDbTextStyleTableRecord
  2
Standard
 70
     0
 40
0.0
 41
1.0
 50
0.0
 71
     0
 42
3.5
  3
txt
  4
bigfont
  0
STYLE
  5
63
330
3
100
AcDbSymbolTableRecord
100
AcDbTextStyleTableRecord
  2
SLDTEXTSTYLE0
 70
     0
 40
0.0
 41
0.7
 50
0.0
 71
     0
 42
3.5
  3
TXT
  4
bigfont
  0
ENDTAB
  0
TABLE
  2
VIEW
  5
6
330
0
100
AcDbSymbolTable
 70
     0
  0
ENDTAB
  0
TABLE
  2
UCS
  5
7
330
0
100
AcDbSymbolTable
 70
     0
  0
ENDTAB
  0
TABLE
  2
APPID
  5
9
330
0
100
AcDbSymbolTable
 70
     1
  0
APPID
  5
12
330
9
100
AcDbSymbolTableRecord
100
AcDbRegAppTableRecord
  2
ACAD
 70
     0
  0
ENDTAB
  0
TABLE
  2
DIMSTYLE
  5
A
330
0
100
AcDbSymbolTable
 70
     1
100
AcDbDimStyleTable
  0
DIMSTYLE
105
27
330
A
100
AcDbSymbolTableRecord
100
AcDbDimStyleTableRecord
  2
ISO-25
 70
     0
 41
2.5
 42
0.625
 43
3.75
 44
1.25
 73
     0
 74
     0
 77
     1
 78
     8
140
2.5
141
2.5
143
0.0393700787
147
0.625
171
     3
172
     1
178
     0
271
     2
272
     2
274
     3
278
    44
283
     0
284
     8
340
11
  0
ENDTAB
  0
TABLE
  2
BLOCK_RECORD
  5
1
330
0
100
AcDbSymbolTable
 70
     3
  0
BLOCK_RECORD
  5
1F
330
1
100
AcDbSymbolTableRecord
100
AcDbBlockTableRecord
  2
*Model_Space
340
22
  0
BLOCK_RECORD
  5
1B
330
1
100
AcDbSymbolTableRecord
100
AcDbBlockTableRecord
  2
*Paper_Space
340
1E
  0
BLOCK_RECORD
  5
23
330
1
100
AcDbSymbolTableRecord
100
AcDbBlockTableRecord
  2
*Paper_Space0
340
26
  0
BLOCK_RECORD
  5
23D
330
1
100
AcDbSymbolTableRecord
100
AcDbBlockTableRecord
  2
SW_CENTERMARKSYMBOL_0
340
0
102
{BLKREFS
331
248
102
}
  0
BLOCK_RECORD
  5
311
330
1
100
AcDbSymbolTableRecord
100
AcDbBlockTableRecord
  2
SW_CENTERMARKSYMBOL_1
340
0
102
{BLKREFS
331
31C
102
}
  0
ENDTAB
  0
ENDSEC
  0
SECTION
  2
BLOCKS
  0
BLOCK
  5
20
330
1F
100
AcDbEntity
  8
0
100
AcDbBlockBegin
  2
*Model_Space
 70
     0
 10
0.0
 20
0.0
 30
0.0
  3
*Model_Space
  1

  0
ENDBLK
  5
21
330
1F
100
AcDbEntity
  8
0
100
AcDbBlockEnd
  0
BLOCK
  5
1C
330
1B
100
AcDbEntity
 67
     1
  8
0
100
AcDbBlockBegin
  2
*Paper_Space
 70
     0
 10
0.0
 20
0.0
 30
0.0
  3
*Paper_Space
  1

  0
ENDBLK
  5
1D
330
1B
100
AcDbEntity
 67
     1
  8
0
100
AcDbBlockEnd
  0
BLOCK
  5
24
330
23
100
AcDbEntity
  8
0
100
AcDbBlockBegin
  2
*Paper_Space0
 70
     0
 10
0.0
 20
0.0
 30
0.0
  3
*Paper_Space0
  1

  0
ENDBLK
  5
25
330
23
100
AcDbEntity
  8
0
100
AcDbBlockEnd
  0
BLOCK
  5
23E
330
23D
100
AcDbEntity
  8
0
100
AcDbBlockBegin
  2
SW_CENTERMARKSYMBOL_0
 70
     0
 10
0.0
 20
0.0
 30
0.0
  3
SW_CENTERMARKSYMBOL_0
  1

  0
LINE
  5
240
330
23D
100
AcDbEntity
  8
0
  6
Continuous
 62
     0
370
    18
100
AcDbLine
 10
0.0
 20
0.0
 30
0.0
 11
0.0
 21
2.5
 31
0.0
  0
LINE
  5
241
330
23D
100
AcDbEntity
  8
0
  6
Continuous
 62
     0
370
    18
100
AcDbLine
 10
0.0
 20
0.0
 30
0.0
 11
-2.5
 21
0.0
 31
0.0
  0
LINE
  5
242
330
23D
100
AcDbEntity
  8
0
  6
Continuous
 62
     0
370
    18
100
AcDbLine
 10
0.0
 20
0.0
 30
0.0
 11
0.0
 21
-2.5
 31
0.0
  0
LINE
  5
243
330
23D
100
AcDbEntity
  8
0
  6
Continuous
 62
     0
370
    18
100
AcDbLine
 10
0.0
 20
0.0
 30
0.0
 11
2.5
 21
0.0
 31
0.0
  0
LINE
  5
244
330
23D
100
AcDbEntity
  8
0
  6
Continuous
 62
     0
370
    18
100
AcDbLine
 10
0.0
 20
5.0
 30
0.0
 11
0.0
 21
29.7121360879
 31
0.0
  0
LINE
  5
245
330
23D
100
AcDbEntity
  8
0
  6
Continuous
 62
     0
370
    18
100
AcDbLine
 10
-5.0
 20
0.0
 30
0.0
 11
-10.35
 21
0.0
 31
0.0
  0
LINE
  5
246
330
23D
100
AcDbEntity
  8
0
  6
Continuous
 62
     0
370
    18
100
AcDbLine
 10
0.0
 20
-5.0
 30
0.0
 11
0.0
 21
-25.0796142792
 31
0.0
  0
LINE
  5
247
330
23D
100
AcDbEntity
  8
0
  6
Continuous
 62
     0
370
    18
100
AcDbLine
 10
5.0
 20
0.0
 30
0.0
 11
10.35
 21
0.0
 31
0.0
  0
ENDBLK
  5
23F
330
23D
100
AcDbEntity
  8
0
100
AcDbBlockEnd
  0
BLOCK
  5
312
330
311
100
AcDbEntity
  8
0
100
AcDbBlockBegin
  2
SW_CENTERMARKSYMBOL_1
 70
     0
 10
0.0
 20
0.0
 30
0.0
  3
SW_CENTERMARKSYMBOL_1
  1

  0
LINE
  5
314
330
311
100
AcDbEntity
  8
0
  6
Continuous
 62
     0
370
    18
100
AcDbLine
 10
0.0
 20
0.0
 30
0.0
 11
0.0
 21
2.5
 31
0.0
  0
LINE
  5
315
330
311
100
AcDbEntity
  8
0
  6
Continuous
 62
     0
370
    18
100
AcDbLine
 10
0.0
 20
0.0
 30
0.0
 11
-2.5
 21
0.0
 31
0.0
  0
LINE
  5
316
330
311
100
AcDbEntity
  8
0
  6
Continuous
 62
     0
370
    18
100
AcDbLine
 10
0.0
 20
0.0
 30
0.0
 11
0.0
 21
-2.5
 31
0.0
  0
LINE
  5
317
330
311
100
AcDbEntity
  8
0
  6
Continuous
 62
     0
370
    18
100
AcDbLine
 10
0.0
 20
0.0
 30
0.0
 11
2.5
 21
0.0
 31
0.0
  0
LINE
  5
318
330
311
100
AcDbEntity
  8
0
  6
Continuous
 62
     0
370
    18
100
AcDbLine
 10
0.0
 20
5.0
 30
0.0
 11
0.0
 21
9.95
 31
0.0
  0
LINE
  5
319
330
311
100
AcDbEntity
  8
0
  6
Continuous
 62
     0
370
    18
100
AcDbLine
 10
-5.0
 20
0.0
 30
0.0
 11
-58.8141930937
 21
0.0
 31
0.0
  0
LINE
  5
31A
330
311
100
AcDbEntity
  8
0
  6
Continuous
 62
     0
370
    18
100
AcDbLine
 10
0.0
 20
-5.0
 30
0.0
 11
0.0
 21
-9.95
 31
0.0
  0
LINE
  5
31B
330
311
100
AcDbEntity
  8
0
  6
Continuous
 62
     0
370
    18
100
AcDbLine
 10
5.0
 20
0.0
 30
0.0
 11
13.7473967437
 21
0.0
 31
0.0
  0
ENDBLK
  5
313
330
311
100
AcDbEntity
  8
0
100
AcDbBlockEnd
  0
ENDSEC
  0
SECTION
  2
ENTITIES
  0
MTEXT
  5
64
330
1F
100
AcDbEntity
  8
0
  6
Continuous
 62
     7
370
     0
100
AcDbMText
 10
195.8299041319
 20
120.3111100958
 30
0.0
 40
3.5
 41
0.0
 71
     1
 72
     1
  1
エースボール　アングル型　BY-3209R
  7
SLDTEXTSTYLE0
 73
     1
 44
1.0
  0
LINE
  5
65
330
1F
100
AcDbEntity
  8
0
  6
Continuous
 62
     7
370
    25
100
AcDbLine
 10
143.9921851739
 20
79.8997033073
 30
0.0
 11
139.9921851739
 21
79.2497033073
 31
0.0
  0
LINE
  5
66
330
1F
100
AcDbEntity
  8
0
  6
Continuous
 62
     7
370
    25
100
AcDbLine
 10
139.9921851739
 20
71.5497033073
 30
0.0
 11
143.9921851739
 21
70.8997033073
 31
0.0
  0
LINE
  5
67
330
1F
100
AcDbEntity
  8
0
  6
Continuous
 62
     7
370
    25
100
AcDbLine
 10
139.9921851739
 20
79.8997033073
 30
0.0
 11
135.9921851739
 21
79.2497033073
 31
0.0
  0
LINE
  5
68
330
1F
100
AcDbEntity
  8
0
  6
Continuous
 62
     7
370
    25
100
AcDbLine
 10
135.9921851739
 20
71.5497033073
 30
0.0
 11
139.9921851739
 21
70.8997033073
 31
0.0
  0
LINE
  5
69
330
1F
100
AcDbEntity
  8
0
  6
Continuous
 62
     7
370
    25
100
AcDbLine
 10
131.9921851739
 20
79.8997033073
 30
0.0
 11
127.198293138
 21
79.3331524304
 31
0.0
  0
LINE
  5
6A
330
1F
100
AcDbEntity
  8
0
  6
Continuous
 62
     7
370
    25
100
AcDbLine
 10
127.198293138
 20
71.4662541843
 30
0.0
 11
131.9921851739
 21
70.8997033073
 31
0.0
  0
LINE
  5
6B
330
1F
100
AcDbEntity
  8
0
  6
Continuous
 62
     7
370
    25
100
AcDbLine
 10
135.9921851739
 20
79.8997033073
 30
0.0
 11
131.9921851739
 21
79.2497033073
 31
0.0
  0
LINE
  5
6C
330
1F
100
AcDbEntity
  8
0
  6
Continuous
 62
     7
370
    25
100
AcDbLine
 10
131.9921851739
 20
71.5497033073
 30
0.0
 11
135.9921851739
 21
70.8997033073
 31
0.0
  0
LINE
  5
6D
330
1F
100
AcDbEntity
  8
0
  6
Continuous
 62
     7
370
    25
100
AcDbLine
 10
147.9921851739
 20
79.8997033073
 30
0.0
 11
143.9921851739
 21
79.2497033073
 31
0.0
  0
LINE
  5
6E
330
1F
100
AcDbEntity
  8
0
  6
Continuous
 62
     7
370
    25
100
AcDbLine
 10
143.9921851739
 20
71.5497033073
 30
0.0
 11
147.9921851739
 21
70.8997033073
 31
0.0
  0
LINE
  5
6F
330
1F
100
AcDbEntity
  8
0
  6
Continuous
 62
     7
370
    25
100
AcDbLine
 10
152.4118004161
 20
70.8997033073
 30
0.0
 11
152.4921851739
 21
71.1997033073
 31
0.0
  0
LINE
  5
70
330
1F
100
AcDbEntity
  8
0
  6
Continuous
 62
     7
370
    25
100
AcDbLine
 10
152.4921851739
 20
79.5997033073
 30
0.0
 11
152.4118004161
 21
79.8997033073
 31
0.0
  0
LINE
  5
71
330
1F
100
AcDbEntity
  8
0
  6
Continuous
 62
     7
370
    25
100
AcDbLine
 10
152.4118004161
 20
79.8997033073
 30
0.0
 11
147.9921851739
 21
79.8997033073
 31
0.0
  0
LINE
  5
72
330
1F
100
AcDbEntity
  8
0
  6
Continuous
 62
     7
370
    25
100
AcDbLine
 10
147.9921851739
 20
70.8997033073
 30
0.0
 11
152.4118004161
 21
70.8997033073
 31
0.0
  0
ARC
  5
73
330
1F
100
AcDbEntity
  8
0
  6
Continuous
 62
     7
370
    25
100
AcDbCircle
 10
127.2921851739
 20
78.5386813575
 30
0.0
 40
0.8000000000000256
100
AcDbArc
 50
96.7400560979
 51
180.0
  0
ARC
  5
74
330
1F
100
AcDbEntity
  8
0
  6
Continuous
 62
     7
370
    25
100
AcDbCircle
 10
127.2921851739
 20
72.2607252571
 30
0.0
 40
0.8000000000000256
100
AcDbArc
 50
180.0
 51
263.2599439021
  0
LINE
  5
75
330
1F
100
AcDbEntity
  8
0
  6
Continuous
 62
     7
370
    25
100
AcDbLine
 10
162.6910514537
 20
66.1620990003
 30
0.0
 11
163.4921851739
 21
67.5497033073
 31
0.0
  0
LINE
  5
76
330
1F
100
AcDbEntity
  8
0
  6
Continuous
 62
     7
370
    25
100
AcDbLine
 10
163.4921851739
 20
83.2497033073
 30
0.0
 11
162.6910514537
 21
84.6373076144
 31
0.0
  0
LINE
  5
77
330
1F
100
AcDbEntity
  8
0
  6
Continuous
 62
     7
370
    25
100
AcDbLine
 10
155.2933188941
 20
84.6373076144
 30
0.0
 11
154.4921851739
 21
83.2497033073
 31
0.0
  0
LINE
  5
78
330
1F
100
AcDbEntity
  8
0
  6
Continuous
 62
     7
370
    25
100
AcDbLine
 10
154.4921851739
 20
67.5497033073
 30
0.0
 11
155.2933188941
 21
66.1620990003
 31
0.0
  0
LINE
  5
79
330
1F
100
AcDbEntity
  8
0
  6
Continuous
 62
     7
370
    25
100
AcDbLine
 10
154.4921851739
 20
83.2497033073
 30
0.0
 11
152.7921851739
 21
83.2497033073
 31
0.0
  0
LINE
  5
7A
330
1F
100
AcDbEntity
  8
0
  6
Continuous
 62
     7
370
    25
100
AcDbLine
 10
152.7921851739
 20
67.5497033073
 30
0.0
 11
154.4921851739
 21
67.5497033073
 31
0.0
  0
LINE
  5
7B
330
1F
100
AcDbEntity
  8
0
  6
Continuous
 62
     7
370
    25
100
AcDbLine
 10
163.4921851739
 20
67.5497033073
 30
0.0
 11
165.1921851739
 21
67.5497033073
 31
0.0
  0
LINE
  5
7C
330
1F
100
AcDbEntity
  8
0
  6
Continuous
 62
     7
370
    25
100
AcDbLine
 10
165.1921851739
 20
83.2497033073
 30
0.0
 11
163.4921851739
 21
83.2497033073
 31
0.0
  0
ARC
  5
7D
330
1F
100
AcDbEntity
  8
0
  6
Continuous
 62
     7
370
    25
100
AcDbCircle
 10
152.7921851739
 20
67.8497033073
 30
0.0
 40
0.2999999999999972
100
AcDbArc
 50
180.0
 51
270.0
  0
ARC
  5
7E
330
1F
100
AcDbEntity
  8
0
  6
Continuous
 62
     7
370
    25
100
AcDbCircle
 10
152.7921851739
 20
82.9497033073
 30
0.0
 40
0.2999999999999972
100
AcDbArc
 50
90.0
 51
180.0
  0
ARC
  5
7F
330
1F
100
AcDbEntity
  8
0
  6
Continuous
 62
     7
370
    25
100
AcDbCircle
 10
165.1921851739
 20
82.9497033073
 30
0.0
 40
0.2999999999999972
100
AcDbArc
 50
0.0
 51
90.0
  0
ARC
  5
80
330
1F
100
AcDbEntity
  8
0
  6
Continuous
 62
     7
370
    25
100
AcDbCircle
 10
165.1921851739
 20
67.8497033073
 30
0.0
 40
0.2999999999999972
100
AcDbArc
 50
270.0
 51
0.0
  0
LINE
  5
81
330
1F
100
AcDbEntity
  8
0
  6
Continuous
 62
     7
370
    25
100
AcDbLine
 10
159.0457750124
 20
84.6373076144
 30
0.0
 11
158.9921851739
 21
84.4373076144
 31
0.0
  0
LINE
  5
82
330
1F
100
AcDbEntity
  8
0
  6
Continuous
 62
     7
370
    25
100
AcDbLine
 10
158.9921851739
 20
84.4373076144
 30
0.0
 11
158.9385953354
 21
84.6373076144
 31
0.0
  0
LINE
  5
83
330
1F
100
AcDbEntity
  8
0
  6
Continuous
 62
     7
370
    25
100
AcDbLine
 10
158.9385953354
 20
66.1620990003
 30
0.0
 11
158.9921851739
 21
66.3620990003
 31
0.0
  0
LINE
  5
84
330
1F
100
AcDbEntity
  8
0
  6
Continuous
 62
     7
370
    25
100
AcDbLine
 10
158.9921851739
 20
66.3620990003
 30
0.0
 11
159.0457750124
 21
66.1620990003
 31
0.0
  0
LINE
  5
85
330
1F
100
AcDbEntity
  8
0
  6
Continuous
 62
     7
370
    25
100
AcDbLine
 10
190.1703130963
 20
85.8997033073
 30
0.0
 11
190.6203130963
 21
93.8997033073
 31
0.0
  0
LINE
  5
86
330
1F
100
AcDbEntity
  8
0
  6
Continuous
 62
     7
370
    25
100
AcDbLine
 10
190.6203130963
 20
93.8997033073
 30
0.0
 11
188.6703130963
 21
101.8997033073
 31
0.0
  0
LINE
  5
87
330
1F
100
AcDbEntity
  8
0
  6
Continuous
 62
     7
370
    25
100
AcDbLine
 10
176.1015676787
 20
87.1218440646
 30
0.0
 11
176.1703130963
 21
85.8997033073
 31
0.0
  0
LINE
  5
88
330
1F
100
AcDbEntity
  8
0
  6
Continuous
 62
     7
370
    25
100
AcDbLine
 10
177.6703130963
 20
101.8997033073
 30
0.0
 11
177.4170815618
 21
100.8608047041
 31
0.0
  0
LINE
  5
89
330
1F
100
AcDbEntity
  8
0
  6
Continuous
 62
     7
370
    25
100
AcDbLine
 10
168.8703130963
 20
83.8997033073
 30
0.0
 11
168.6703130963
 21
83.6997033073
 31
0.0
  0
LINE
  5
8A
330
1F
100
AcDbEntity
  8
0
  6
Continuous
 62
     7
370
    25
100
AcDbLine
 10
168.6703130963
 20
67.0997033073
 30
0.0
 11
168.8703130963
 21
66.8997033073
 31
0.0
  0
LINE
  5
8B
330
1F
100
AcDbEntity
  8
0
  6
Continuous
 62
     7
370
    25
100
AcDbLine
 10
168.8703130963
 20
66.8997033073
 30
0.0
 11
171.6703130963
 21
66.8997033073
 31
0.0
  0
LINE
  5
8C
330
1F
100
AcDbEntity
  8
0
  6
Continuous
 62
     7
370
    25
100
AcDbLine
 10
171.6703130963
 20
83.8997033073
 30
0.0
 11
168.8703130963
 21
83.8997033073
 31
0.0
  0
LINE
  5
8D
330
1F
100
AcDbEntity
  8
0
  6
Continuous
 62
     7
370
    25
100
AcDbLine
 10
168.6703130963
 20
81.9782033073
 30
0.0
 11
165.4921851739
 21
81.9782033073
 31
0.0
  0
LINE
  5
8E
330
1F
100
AcDbEntity
  8
0
  6
Continuous
 62
     7
370
    25
100
AcDbLine
 10
165.4921851739
 20
68.8212033073
 30
0.0
 11
168.6703130963
 21
68.8212033073
 31
0.0
  0
LINE
  5
8F
330
1F
100
AcDbEntity
  8
0
  6
Continuous
 62
     7
370
    25
100
AcDbLine
 10
194.3114443492
 20
65.6620990003
 30
0.0
 11
195.1703130963
 21
67.1497033073
 31
0.0
  0
LINE
  5
90
330
1F
100
AcDbEntity
  8
0
  6
Continuous
 62
     7
370
    25
100
AcDbLine
 10
195.1703130963
 20
83.6497033073
 30
0.0
 11
194.3114443492
 21
85.1373076144
 31
0.0
  0
LINE
  5
91
330
1F
100
AcDbEntity
  8
0
  6
Continuous
 62
     7
370
    25
100
AcDbLine
 10
176.4121255963
 20
63.3997033073
 30
0.0
 11
176.7057610378
 21
54.0033691812
 31
0.0
  0
LINE
  5
92
330
1F
100
AcDbEntity
  8
0
  6
Continuous
 62
     7
370
    25
100
AcDbLine
 10
189.6348651549
 20
54.0033691812
 30
0.0
 11
189.9285005963
 21
63.3997033073
 31
0.0
  0
SPLINE
  5
93
330
1F
100
AcDbEntity
  8
0
  6
Continuous
 62
     7
370
    25
100
AcDbSpline
210
0.0
220
0.0
230
1.0
 70
     8
 71
     3
 72
    11
 73
     7
 74
     0
 42
0.00000001
 43
0.00000001
 40
0.0
 40
0.0
 40
0.0
 40
0.0
 40
0.1664010884146822
 40
0.5538901081109767
 40
0.8818486017183644
 40
1.0
 40
1.0
 40
1.0
 40
1.0
 10
189.3415649703498
 20
84.1895993089563
 30
0.0
 10
189.309450733376
 20
84.21948770308542
 30
0.0
 10
189.2025538473113
 20
84.31897554906742
 30
0.0
 10
189.1040036524274
 20
84.53484092016714
 30
0.0
 10
189.0481323967871
 20
84.74963823916316
 30
0.0
 10
189.0559989368465
 20
84.86676174934101
 30
0.0
 10
189.0580823757582
 20
84.89778169924745
 30
0.0
  0
SPLINE
  5
94
330
1F
100
AcDbEntity
  8
0
  6
Continuous
 62
     7
370
    25
100
AcDbSpline
210
0.0
220
0.0
230
1.0
 70
     8
 71
     3
 72
    11
 73
     7
 74
     0
 42
0.00000001
 43
0.00000001
 40
0.0
 40
0.0
 40
0.0
 40
0.0
 40
0.1682759790710469
 40
0.5204490680671586
 40
0.8849435914737268
 40
1.0
 40
1.0
 40
1.0
 40
1.0
 10
177.2765476729911
 20
84.8991965835376
 30
0.0
 10
177.2785659139033
 20
84.85504885302959
 30
0.0
 10
177.2848079908042
 20
84.7185074088673
 30
0.0
 10
177.2143903715417
 20
84.49447678820513
 30
0.0
 10
177.1137741217534
 20
84.29526493257792
 30
0.0
 10
177.0187696723898
 20
84.21276161496351
 30
0.0
 10
176.9959756999254
 20
84.19296698047505
 30
0.0
  0
LINE
  5
95
330
1F
100
AcDbEntity
  8
0
  6
Continuous
 62
     7
370
    25
100
AcDbLine
 10
176.7057610378
 20
54.0033691812
 30
0.0
 11
177.9203130963
 21
51.8997033073
 31
0.0
  0
LINE
  5
96
330
1F
100
AcDbEntity
  8
0
  6
Continuous
 62
     7
370
    25
100
AcDbLine
 10
188.4203130963
 20
51.8997033073
 30
0.0
 11
189.6348651549
 21
54.0033691812
 31
0.0
  0
LINE
  5
97
330
1F
100
AcDbEntity
  8
0
  6
Continuous
 62
     7
370
    25
100
AcDbLine
 10
189.0703130963
 20
84.8951724872
 30
0.0
 11
189.0703130963
 21
85.8997033073
 31
0.0
  0
LINE
  5
98
330
1F
100
AcDbEntity
  8
0
  6
Continuous
 62
     7
370
    25
100
AcDbLine
 10
177.2703130963
 20
85.8997033073
 30
0.0
 11
177.2703130963
 21
84.8997033073
 31
0.0
  0
LINE
  5
99
330
1F
100
AcDbEntity
  8
0
  6
Continuous
 62
     7
370
    25
100
AcDbLine
 10
177.000146189
 20
84.1944410366
 30
0.0
 11
176.4557819165
 21
85.1373076144
 31
0.0
  0
LINE
  5
9A
330
1F
100
AcDbEntity
  8
0
  6
Continuous
 62
     7
370
    25
100
AcDbLine
 10
189.8848442761
 20
85.1373076144
 30
0.0
 11
189.3404800037
 21
84.1944410366
 31
0.0
  0
LINE
  5
9B
330
1F
100
AcDbEntity
  8
0
  6
Continuous
 62
     7
370
    25
100
AcDbLine
 10
172.3848442761
 20
85.1373076144
 30
0.0
 11
171.6703130963
 21
83.8997033073
 31
0.0
  0
LINE
  5
9C
330
1F
100
AcDbEntity
  8
0
  6
Continuous
 62
     7
370
    25
100
AcDbLine
 10
191.6703130963
 20
63.3997033073
 30
0.0
 11
192.9079174033
 21
64.1142344871
 31
0.0
  0
LINE
  5
9D
330
1F
100
AcDbEntity
  8
0
  6
Continuous
 62
     7
370
    25
100
AcDbLine
 10
173.4327087893
 20
64.1142344871
 30
0.0
 11
174.6703130963
 21
63.3997033073
 31
0.0
  0
LINE
  5
9E
330
1F
100
AcDbEntity
  8
0
  6
Continuous
 62
     7
370
    25
100
AcDbLine
 10
171.6703130963
 20
66.8997033073
 30
0.0
 11
172.3848442761
 21
65.6620990003
 31
0.0
  0
LINE
  5
9F
330
1F
100
AcDbEntity
  8
0
  6
Continuous
 62
     7
370
    25
100
AcDbLine
 10
192.9079174033
 20
64.1116741058
 30
0.0
 11
192.9079174033
 21
65.6620990003
 31
0.0
  0
LINE
  5
A0
330
1F
100
AcDbEntity
  8
0
  6
Continuous
 62
     7
370
    25
100
AcDbLine
 10
192.9079174033
 20
65.6620990003
 30
0.0
 11
194.3140124047
 21
65.6620990003
 31
0.0
  0
LINE
  5
A1
330
1F
100
AcDbEntity
  8
0
  6
Continuous
 62
     7
370
    25
100
AcDbLine
 10
176.458349972
 20
85.1373076144
 30
0.0
 11
172.3822838948
 21
85.1373076144
 31
0.0
  0
LINE
  5
A2
330
1F
100
AcDbEntity
  8
0
  6
Continuous
 62
     7
370
    25
100
AcDbLine
 10
194.3140124047
 20
85.1373076144
 30
0.0
 11
189.8822762207
 21
85.1373076144
 31
0.0
  0
LINE
  5
A3
330
1F
100
AcDbEntity
  8
0
  6
Continuous
 62
     7
370
    25
100
AcDbLine
 10
173.4327087893
 20
65.6620990003
 30
0.0
 11
173.4327087893
 21
64.1116741058
 31
0.0
  0
LINE
  5
A4
330
1F
100
AcDbEntity
  8
0
  6
Continuous
 62
     7
370
    25
100
AcDbLine
 10
172.3822838948
 20
65.6620990003
 30
0.0
 11
173.4327087893
 21
65.6620990003
 31
0.0
  0
LINE
  5
A5
330
1F
100
AcDbEntity
  8
0
  6
Continuous
 62
     7
370
    25
100
AcDbLine
 10
143.9921851739
 20
71.5000866265
 30
0.0
 11
143.9921851739
 21
70.8997033073
 31
0.0
  0
LINE
  5
A6
330
1F
100
AcDbEntity
  8
0
  6
Continuous
 62
     7
370
    25
100
AcDbLine
 10
143.9921851739
 20
79.8997033073
 30
0.0
 11
143.9921851739
 21
71.5000866265
 31
0.0
  0
LINE
  5
A7
330
1F
100
AcDbEntity
  8
0
  6
Continuous
 62
     7
370
    25
100
AcDbLine
 10
139.9921851739
 20
71.5000866265
 30
0.0
 11
139.9921851739
 21
70.8997033073
 31
0.0
  0
LINE
  5
A8
330
1F
100
AcDbEntity
  8
0
  6
Continuous
 62
     7
370
    25
100
AcDbLine
 10
139.9921851739
 20
79.8997033073
 30
0.0
 11
139.9921851739
 21
71.5000866265
 31
0.0
  0
LINE
  5
A9
330
1F
100
AcDbEntity
  8
0
  6
Continuous
 62
     7
370
    25
100
AcDbLine
 10
131.9921851739
 20
71.5000866265
 30
0.0
 11
131.9921851739
 21
70.8997033073
 31
0.0
  0
LINE
  5
AA
330
1F
100
AcDbEntity
  8
0
  6
Continuous
 62
     7
370
    25
100
AcDbLine
 10
131.9921851739
 20
79.8997033073
 30
0.0
 11
131.9921851739
 21
71.5000866265
 31
0.0
  0
LINE
  5
AB
330
1F
100
AcDbEntity
  8
0
  6
Continuous
 62
     7
370
    25
100
AcDbLine
 10
135.9921851739
 20
71.5000866265
 30
0.0
 11
135.9921851739
 21
70.8997033073
 31
0.0
  0
LINE
  5
AC
330
1F
100
AcDbEntity
  8
0
  6
Continuous
 62
     7
370
    25
100
AcDbLine
 10
135.9921851739
 20
79.8997033073
 30
0.0
 11
135.9921851739
 21
71.5000866265
 31
0.0
  0
LINE
  5
AD
330
1F
100
AcDbEntity
  8
0
  6
Continuous
 62
     7
370
    25
100
AcDbLine
 10
147.9921851739
 20
71.5000866265
 30
0.0
 11
147.9921851739
 21
70.8997033073
 31
0.0
  0
LINE
  5
AE
330
1F
100
AcDbEntity
  8
0
  6
Continuous
 62
     7
370
    25
100
AcDbLine
 10
147.9921851739
 20
79.8997033073
 30
0.0
 11
147.9921851739
 21
71.5000866265
 31
0.0
  0
LINE
  5
AF
330
1F
100
AcDbEntity
  8
0
  6
Continuous
 62
     7
370
    25
100
AcDbLine
 10
152.4118004161
 20
71.5000866265
 30
0.0
 11
152.4118004161
 21
70.8997033073
 31
0.0
  0
LINE
  5
B0
330
1F
100
AcDbEntity
  8
0
  6
Continuous
 62
     7
370
    25
100
AcDbLine
 10
152.4118004161
 20
79.8997033073
 30
0.0
 11
152.4118004161
 21
71.5000866265
 31
0.0
  0
LINE
  5
B1
330
1F
100
AcDbEntity
  8
0
  6
Continuous
 62
     7
370
    25
100
AcDbLine
 10
126.4921851739
 20
72.6795230484
 30
0.0
 11
126.4921851739
 21
78.5386813575
 31
0.0
  0
LINE
  5
B2
330
1F
100
AcDbEntity
  8
0
  6
Continuous
 62
     7
370
    25
100
AcDbLine
 10
126.4921851739
 20
72.2607252571
 30
0.0
 11
126.4921851739
 21
72.6795230484
 31
0.0
  0
LINE
  5
B3
330
1F
100
AcDbEntity
  8
0
  6
Continuous
 62
     7
370
    25
100
AcDbLine
 10
162.6910514537
 20
84.6373076144
 30
0.0
 11
159.0457750124
 21
84.6373076144
 31
0.0
  0
SPLINE
  5
B4
330
1F
100
AcDbEntity
  8
0
  6
Continuous
 62
     7
370
    25
100
AcDbSpline
210
0.0
220
0.0
230
1.0
 70
     8
 71
     3
 72
    12
 73
     8
 74
     0
 42
0.00000001
 43
0.00000001
 40
0.0
 40
0.0
 40
0.0
 40
0.0
 40
0.2645357324841768
 40
0.3998137210612349
 40
0.5350672982154578
 40
0.7654034360362892
 40
1.0
 40
1.0
 40
1.0
 40
1.0
 10
162.691051453682
 20
84.6373076143625
 30
0.0
 10
162.8981488762753
 20
84.2364729960305
 30
0.0
 10
163.2111515484347
 20
83.63066001651153
 30
0.0
 10
163.3911766866215
 20
82.79791631473447
 30
0.0
 10
163.4276847765389
 20
82.01506850037093
 30
0.0
 10
163.2427890143046
 20
81.07709873856578
 30
0.0
 10
162.8760840781474
 20
80.37351897886123
 30
0.0
 10
162.691051453682
 20
80.01850546084547
 30
0.0
  0
LINE
  5
B5
330
1F
100
AcDbEntity
  8
0
  6
Continuous
 62
     7
370
    25
100
AcDbLine
 10
162.6910514537
 20
80.0185054608
 30
0.0
 11
159.0457750124
 21
80.0185054608
 31
0.0
  0
LINE
  5
B6
330
1F
100
AcDbEntity
  8
0
  6
Continuous
 62
     7
370
    25
100
AcDbLine
 10
158.9921851739
 20
80.2256285106
 30
0.0
 11
159.0457750124
 21
80.0185054608
 31
0.0
  0
LINE
  5
B7
330
1F
100
AcDbEntity
  8
0
  6
Continuous
 62
     7
370
    25
100
AcDbLine
 10
158.9385953354
 20
80.0185054608
 30
0.0
 11
158.9921851739
 21
80.2256285106
 31
0.0
  0
LINE
  5
B8
330
1F
100
AcDbEntity
  8
0
  6
Continuous
 62
     7
370
    25
100
AcDbLine
 10
158.9385953354
 20
80.0185054608
 30
0.0
 11
155.2933188941
 21
80.0185054608
 31
0.0
  0
SPLINE
  5
B9
330
1F
100
AcDbEntity
  8
0
  6
Continuous
 62
     7
370
    25
100
AcDbSpline
210
0.0
220
0.0
230
1.0
 70
     8
 71
     3
 72
    12
 73
     8
 74
     0
 42
0.00000001
 43
0.00000001
 40
0.0
 40
0.0
 40
0.0
 40
0.0
 40
0.2645357324841768
 40
0.3998137210612349
 40
0.5350672982154578
 40
0.7654034360362892
 40
1.0
 40
1.0
 40
1.0
 40
1.0
 10
155.2933188940715
 20
84.6373076143625
 30
0.0
 10
155.0862214714783
 20
84.2364729960305
 30
0.0
 10
154.7732187993189
 20
83.63066001651153
 30
0.0
 10
154.5931936611321
 20
82.79791631473447
 30
0.0
 10
154.5566855712147
 20
82.01506850037093
 30
0.0
 10
154.741581333449
 20
81.07709873856578
 30
0.0
 10
155.1082862696061
 20
80.37351897886123
 30
0.0
 10
155.2933188940715
 20
80.01850546084547
 30
0.0
  0
LINE
  5
BA
330
1F
100
AcDbEntity
  8
0
  6
Continuous
 62
     7
370
    25
100
AcDbLine
 10
158.9385953354
 20
84.6373076144
 30
0.0
 11
155.2933188941
 21
84.6373076144
 31
0.0
  0
LINE
  5
BB
330
1F
100
AcDbEntity
  8
0
  6
Continuous
 62
     7
370
    25
100
AcDbLine
 10
158.9921851739
 20
84.4301845646
 30
0.0
 11
158.9385953354
 21
84.6373076144
 31
0.0
  0
LINE
  5
BC
330
1F
100
AcDbEntity
  8
0
  6
Continuous
 62
     7
370
    25
100
AcDbLine
 10
159.0457750124
 20
84.6373076144
 30
0.0
 11
158.9921851739
 21
84.4301845646
 31
0.0
  0
LINE
  5
BD
330
1F
100
AcDbEntity
  8
0
  6
Continuous
 62
     7
370
    25
100
AcDbLine
 10
158.9385953354
 20
70.7809011538
 30
0.0
 11
158.9921851739
 21
71.1951472534
 31
0.0
  0
LINE
  5
BE
330
1F
100
AcDbEntity
  8
0
  6
Continuous
 62
     7
370
    25
100
AcDbLine
 10
158.9921851739
 20
71.1951472534
 30
0.0
 11
158.9921851739
 21
70.573778104
 31
0.0
  0
LINE
  5
BF
330
1F
100
AcDbEntity
  8
0
  6
Continuous
 62
     7
370
    25
100
AcDbLine
 10
158.9921851739
 20
70.573778104
 30
0.0
 11
158.9385953354
 21
70.7809011538
 31
0.0
  0
LINE
  5
C0
330
1F
100
AcDbEntity
  8
0
  6
Continuous
 62
     7
370
    25
100
AcDbLine
 10
159.0457750124
 20
80.0185054608
 30
0.0
 11
158.9921851739
 21
79.6042593612
 31
0.0
  0
LINE
  5
C1
330
1F
100
AcDbEntity
  8
0
  6
Continuous
 62
     7
370
    25
100
AcDbLine
 10
158.9921851739
 20
80.2256285106
 30
0.0
 11
158.9921851739
 21
79.6042593612
 31
0.0
  0
SPLINE
  5
C2
330
1F
100
AcDbEntity
  8
0
  6
Continuous
 62
     7
370
    25
100
AcDbSpline
210
0.0
220
0.0
230
1.0
 70
     8
 71
     3
 72
    12
 73
     8
 74
     0
 42
0.00000001
 43
0.00000001
 40
0.0
 40
0.0
 40
0.0
 40
0.0
 40
0.2645357324841768
 40
0.3998137210612349
 40
0.535067298215458
 40
0.7654034360362891
 40
1.0
 40
1.0
 40
1.0
 40
1.0
 10
162.691051453682
 20
70.78090115381143
 30
0.0
 10
162.8981488762753
 20
70.38006653547944
 30
0.0
 10
163.2111515484347
 20
69.77425355596047
 30
0.0
 10
163.3911766866215
 20
68.94150985418342
 30
0.0
 10
163.4276847765389
 20
68.1586620398199
 30
0.0
 10
163.2427890143046
 20
67.22069227801475
 30
0.0
 10
162.8760840781474
 20
66.51711251831021
 30
0.0
 10
162.691051453682
 20
66.16209900029446
 30
0.0
  0
SPLINE
  5
C3
330
1F
100
AcDbEntity
  8
0
  6
Continuous
 62
     7
370
    25
100
AcDbSpline
210
0.0
220
0.0
230
1.0
 70
     8
 71
     3
 72
    13
 73
     9
 74
     0
 42
0.00000001
 43
0.00000001
 40
0.0
 40
0.0
 40
0.0
 40
0.0
 40
0.1912580406961239
 40
0.3843458819554667
 40
0.6360717224482983
 40
0.7654026222191218
 40
0.8947699173407201
 40
0.9999999999999999
 40
0.9999999999999999
 40
0.9999999999999999
 40
0.9999999999999999
 10
162.691051453682
 20
80.01850546084547
 30
0.0
 10
162.8445386162532
 20
79.4404964107188
 30
0.0
 10
163.1529813810778
 20
78.27894839244672
 30
0.0
 10
163.4259786497908
 20
76.3048113243265
 30
0.0
 10
163.4159603662741
 20
74.50153679337751
 30
0.0
 10
163.2026455400702
 20
72.91965579230079
 30
0.0
 10
162.9734305964774
 20
71.80469636912818
 30
0.0
 10
162.7784922405423
 20
71.09792690268533
 30
0.0
 10
162.691051453682
 20
70.78090115381143
 30
0.0
  0
LINE
  5
C4
330
1F
100
AcDbEntity
  8
0
  6
Continuous
 62
     7
370
    25
100
AcDbLine
 10
163.4921851739
 20
83.2497033073
 30
0.0
 11
163.4921851739
 21
67.5497033073
 31
0.0
  0
LINE
  5
C5
330
1F
100
AcDbEntity
  8
0
  6
Continuous
 62
     7
370
    25
100
AcDbLine
 10
158.9921851739
 20
71.1951472534
 30
0.0
 11
159.0457750124
 21
70.7809011538
 31
0.0
  0
LINE
  5
C6
330
1F
100
AcDbEntity
  8
0
  6
Continuous
 62
     7
370
    25
100
AcDbLine
 10
159.0457750124
 20
70.7809011538
 30
0.0
 11
158.9921851739
 21
70.573778104
 31
0.0
  0
LINE
  5
C7
330
1F
100
AcDbEntity
  8
0
  6
Continuous
 62
     7
370
    25
100
AcDbLine
 10
162.6910514537
 20
70.7809011538
 30
0.0
 11
159.0457750124
 21
70.7809011538
 31
0.0
  0
LINE
  5
C8
330
1F
100
AcDbEntity
  8
0
  6
Continuous
 62
     7
370
    25
100
AcDbLine
 10
158.9385953354
 20
70.7809011538
 30
0.0
 11
155.2933188941
 21
70.7809011538
 31
0.0
  0
SPLINE
  5
C9
330
1F
100
AcDbEntity
  8
0
  6
Continuous
 62
     7
370
    25
100
AcDbSpline
210
0.0
220
0.0
230
1.0
 70
     8
 71
     3
 72
    13
 73
     9
 74
     0
 42
0.00000001
 43
0.00000001
 40
0.0
 40
0.0
 40
0.0
 40
0.0
 40
0.1912580406961239
 40
0.3843458819554667
 40
0.6360717224482983
 40
0.7654026222191218
 40
0.8947699173407201
 40
0.9999999999999999
 40
0.9999999999999999
 40
0.9999999999999999
 40
0.9999999999999999
 10
155.2933188940715
 20
80.01850546084547
 30
0.0
 10
155.1398317315004
 20
79.4404964107188
 30
0.0
 10
154.8313889666757
 20
78.27894839244672
 30
0.0
 10
154.5583916979627
 20
76.3048113243265
 30
0.0
 10
154.5684099814795
 20
74.50153679337751
 30
0.0
 10
154.7817248076833
 20
72.91965579230079
 30
0.0
 10
155.0109397512762
 20
71.80469636912818
 30
0.0
 10
155.2058781072113
 20
71.09792690268533
 30
0.0
 10
155.2933188940715
 20
70.78090115381143
 30
0.0
  0
LINE
  5
CA
330
1F
100
AcDbEntity
  8
0
  6
Continuous
 62
     7
370
    25
100
AcDbLine
 10
158.9921851739
 20
79.6042593612
 30
0.0
 11
158.9385953354
 21
80.0185054608
 31
0.0
  0
SPLINE
  5
CB
330
1F
100
AcDbEntity
  8
0
  6
Continuous
 62
     7
370
    25
100
AcDbSpline
210
0.0
220
0.0
230
1.0
 70
     8
 71
     3
 72
    12
 73
     8
 74
     0
 42
0.00000001
 43
0.00000001
 40
0.0
 40
0.0
 40
0.0
 40
0.0
 40
0.2645357324841768
 40
0.3998137210612349
 40
0.535067298215458
 40
0.7654034360362891
 40
1.0
 40
1.0
 40
1.0
 40
1.0
 10
155.2933188940715
 20
70.78090115381143
 30
0.0
 10
155.0862214714783
 20
70.38006653547944
 30
0.0
 10
154.7732187993189
 20
69.77425355596047
 30
0.0
 10
154.5931936611321
 20
68.94150985418342
 30
0.0
 10
154.5566855712147
 20
68.1586620398199
 30
0.0
 10
154.741581333449
 20
67.22069227801475
 30
0.0
 10
155.1082862696061
 20
66.51711251831021
 30
0.0
 10
155.2933188940715
 20
66.16209900029446
 30
0.0
  0
LINE
  5
CC
330
1F
100
AcDbEntity
  8
0
  6
Continuous
 62
     7
370
    25
100
AcDbLine
 10
154.4921851739
 20
83.2497033073
 30
0.0
 11
154.4921851739
 21
67.5497033073
 31
0.0
  0
LINE
  5
CD
330
1F
100
AcDbEntity
  8
0
  6
Continuous
 62
     7
370
    25
100
AcDbLine
 10
162.6910514537
 20
66.1620990003
 30
0.0
 11
159.0457750124
 21
66.1620990003
 31
0.0
  0
LINE
  5
CE
330
1F
100
AcDbEntity
  8
0
  6
Continuous
 62
     7
370
    25
100
AcDbLine
 10
158.9921851739
 20
66.3692220501
 30
0.0
 11
159.0457750124
 21
66.1620990003
 31
0.0
  0
LINE
  5
CF
330
1F
100
AcDbEntity
  8
0
  6
Continuous
 62
     7
370
    25
100
AcDbLine
 10
158.9385953354
 20
66.1620990003
 30
0.0
 11
158.9921851739
 21
66.3692220501
 31
0.0
  0
LINE
  5
D0
330
1F
100
AcDbEntity
  8
0
  6
Continuous
 62
     7
370
    25
100
AcDbLine
 10
158.9385953354
 20
66.1620990003
 30
0.0
 11
155.2933188941
 21
66.1620990003
 31
0.0
  0
LINE
  5
D1
330
1F
100
AcDbEntity
  8
0
  6
Continuous
 62
     7
370
    25
100
AcDbLine
 10
152.4921851739
 20
75.3997033073
 30
0.0
 11
152.4921851739
 21
82.9497033073
 31
0.0
  0
LINE
  5
D2
330
1F
100
AcDbEntity
  8
0
  6
Continuous
 62
     7
370
    25
100
AcDbLine
 10
152.4921851739
 20
67.8497033073
 30
0.0
 11
152.4921851739
 21
75.3997033073
 31
0.0
  0
LINE
  5
D3
330
1F
100
AcDbEntity
  8
0
  6
Continuous
 62
     7
370
    25
100
AcDbLine
 10
165.4921851739
 20
82.9497033073
 30
0.0
 11
165.4921851739
 21
67.8497033073
 31
0.0
  0
LINE
  5
D4
330
1F
100
AcDbEntity
  8
0
  6
Continuous
 62
     7
370
    25
100
AcDbLine
 10
158.9921851739
 20
84.4373076144
 30
0.0
 11
158.9921851739
 21
84.4301845646
 31
0.0
  0
LINE
  5
D5
330
1F
100
AcDbEntity
  8
0
  6
Continuous
 62
     7
370
    25
100
AcDbLine
 10
158.9921851739
 20
66.3692220501
 30
0.0
 11
158.9921851739
 21
66.3620990003
 31
0.0
  0
LINE
  5
D6
330
1F
100
AcDbEntity
  8
0
  6
Continuous
 62
     7
370
    25
100
AcDbLine
 10
188.409398429
 20
101.8997033073
 30
0.0
 11
188.409398429
 21
102.4997033073
 31
0.0
  0
LINE
  5
D7
330
1F
100
AcDbEntity
  8
0
  6
Continuous
 62
     7
370
    25
100
AcDbLine
 10
177.9312277637
 20
101.8997033073
 30
0.0
 11
188.409398429
 21
101.8997033073
 31
0.0
  0
LINE
  5
D8
330
1F
100
AcDbEntity
  8
0
  6
Continuous
 62
     7
370
    25
100
AcDbLine
 10
177.9312277637
 20
102.4997033073
 30
0.0
 11
177.9312277637
 21
101.8997033073
 31
0.0
  0
LINE
  5
D9
330
1F
100
AcDbEntity
  8
0
  6
Continuous
 62
     7
370
    25
100
AcDbLine
 10
188.409398429
 20
102.4997033073
 30
0.0
 11
177.9312277637
 21
102.4997033073
 31
0.0
  0
SPLINE
  5
DA
330
1F
100
AcDbEntity
  8
0
  6
Continuous
 62
     7
370
    25
100
AcDbSpline
210
0.0
220
0.0
230
1.0
 70
     8
 71
     3
 72
    15
 73
    11
 74
     0
 42
0.00000001
 43
0.00000001
 40
0.0
 40
0.0
 40
0.0
 40
0.0
 40
0.0090459071881971
 40
0.1032433785236816
 40
0.1542564497735189
 40
0.31331690267151
 40
0.5243720399414428
 40
0.6678060008509183
 40
0.9918332554187028
 40
1.0
 40
1.0
 40
1.0
 40
1.0
 10
188.4093984289678
 20
102.4997033073285
 30
0.0
 10
188.4093927370011
 20
102.5013844059129
 30
0.0
 10
188.4093277730504
 20
102.5205712374684
 30
0.0
 10
188.4073320866145
 20
102.5492655169884
 30
0.0
 10
188.399515090398
 20
102.5999415569603
 30
0.0
 10
188.3823452666431
 20
102.6578178565372
 30
0.0
 10
188.3557613700755
 20
102.7026833712719
 30
0.0
 10
188.3179320715869
 20
102.7400457545265
 30
0.0
 10
188.2896512915767
 20
102.7495917667959
 30
0.0
 10
188.2698201440454
 20
102.7497006309827
 30
0.0
 10
188.2693326099025
 20
102.7497033073285
 30
0.0
  0
SPLINE
  5
DB
330
1F
100
AcDbEntity
  8
0
  6
Continuous
 62
     7
370
    25
100
AcDbSpline
210
0.0
220
0.0
230
1.0
 70
     8
 71
     3
 72
    15
 73
    11
 74
     0
 42
0.00000001
 43
0.00000001
 40
0.0
 40
0.0
 40
0.0
 40
0.0
 40
0.0081667445812973
 40
0.3321939991490804
 40
0.475627960058556
 40
0.6866830973284891
 40
0.8457435502264751
 40
0.8967566214763124
 40
0.9909540928118028
 40
1.0
 40
1.0
 40
1.0
 40
1.0
 10
178.0712935827169
 20
102.7497033073285
 30
0.0
 10
178.0708060485741
 20
102.7497006309827
 30
0.0
 10
178.0509749010428
 20
102.7495917667959
 30
0.0
 10
178.0226941210325
 20
102.7400457545265
 30
0.0
 10
177.9848648225439
 20
102.7026833712719
 30
0.0
 10
177.9582809259764
 20
102.6578178565372
 30
0.0
 10
177.9411111022214
 20
102.5999415569603
 30
0.0
 10
177.933294106005
 20
102.5492655169884
 30
0.0
 10
177.9312984195691
 20
102.5205712374684
 30
0.0
 10
177.9312334556183
 20
102.5013844059129
 30
0.0
 10
177.9312277636516
 20
102.4997033073285
 30
0.0
  0
LINE
  5
DC
330
1F
100
AcDbEntity
  8
0
  6
Continuous
 62
     7
370
    25
100
AcDbLine
 10
178.0712935827
 20
102.7497033073
 30
0.0
 11
188.2693326099
 21
102.7497033073
 31
0.0
  0
SPLINE
  5
DD
330
1F
100
AcDbEntity
  8
0
  6
Continuous
 62
     7
370
    25
100
AcDbSpline
210
0.0
220
0.0
230
1.0
 70
     8
 71
     3
 72
    15
 73
    11
 74
     0
 42
0.00000001
 43
0.00000001
 40
0.0
 40
0.0
 40
0.0
 40
0.0
 40
0.0089557228015919
 40
0.0999003359608209
 40
0.1531632460581751
 40
0.3125636920784904
 40
0.5249666935695061
 40
0.6689893599351777
 40
0.991915253381045
 40
1.0
 40
1.0
 40
1.0
 40
1.0
 10
177.693087521258
 20
102.4997033073285
 30
0.0
 10
177.6931032768367
 20
102.5013844329014
 30
0.0
 10
177.6932790289932
 20
102.5201372475258
 30
0.0
 10
177.6987080450127
 20
102.5488994766333
 30
0.0
 10
177.7202435287201
 20
102.5997865501016
 30
0.0
 10
177.7679489569849
 20
102.6579222002343
 30
0.0
 10
177.8403399019768
 20
102.7026300734177
 30
0.0
 10
177.9422590139945
 20
102.7399118968794
 30
0.0
 10
178.0176141054495
 20
102.7495910517171
 30
0.0
 10
178.0700137511728
 20
102.7497006309188
 30
0.0
 10
178.0712935827169
 20
102.7497033073285
 30
0.0
  0
LINE
  5
DE
330
1F
100
AcDbEntity
  8
0
  6
Continuous
 62
     7
370
    25
100
AcDbLine
 10
177.6930875213
 20
102.4997033073
 30
0.0
 11
177.9312277637
 21
102.4997033073
 31
0.0
  0
SPLINE
  5
DF
330
1F
100
AcDbEntity
  8
0
  6
Continuous
 62
     7
370
    25
100
AcDbSpline
210
0.0
220
0.0
230
1.0
 70
     8
 71
     3
 72
    15
 73
    11
 74
     0
 42
0.00000001
 43
0.00000001
 40
0.0
 40
0.0
 40
0.0
 40
0.0
 40
0.0080847466189582
 40
0.3310106400648243
 40
0.4750333064304948
 40
0.6874363079215142
 40
0.8468367539418303
 40
0.9000996640391847
 40
0.9910442771984082
 40
1.0
 40
1.0
 40
1.0
 40
1.0
 10
188.2693326099025
 20
102.7497033073285
 30
0.0
 10
188.2706124414466
 20
102.7497006309188
 30
0.0
 10
188.3230120871699
 20
102.7495910517171
 30
0.0
 10
188.398367178625
 20
102.7399118968794
 30
0.0
 10
188.5002862906426
 20
102.7026300734177
 30
0.0
 10
188.5726772356345
 20
102.6579222002343
 30
0.0
 10
188.6203826638994
 20
102.5997865501016
 30
0.0
 10
188.6419181476067
 20
102.5488994766333
 30
0.0
 10
188.6473471636262
 20
102.5201372475258
 30
0.0
 10
188.6475229157828
 20
102.5013844329014
 30
0.0
 10
188.6475386713614
 20
102.4997033073285
 30
0.0
  0
LINE
  5
E0
330
1F
100
AcDbEntity
  8
0
  6
Continuous
 62
     7
370
    25
100
AcDbLine
 10
188.409398429
 20
102.4997033073
 30
0.0
 11
188.6475386714
 21
102.4997033073
 31
0.0
  0
LINE
  5
E1
330
1F
100
AcDbEntity
  8
0
  6
Continuous
 62
     7
370
    25
100
AcDbLine
 10
177.6930875213
 20
101.8997033073
 30
0.0
 11
177.6930875213
 21
102.4997033073
 31
0.0
  0
LINE
  5
E2
330
1F
100
AcDbEntity
  8
0
  6
Continuous
 62
     7
370
    25
100
AcDbLine
 10
177.9312277637
 20
101.8997033073
 30
0.0
 11
177.6930875213
 21
101.8997033073
 31
0.0
  0
LINE
  5
E3
330
1F
100
AcDbEntity
  8
0
  6
Continuous
 62
     7
370
    25
100
AcDbLine
 10
188.6475386714
 20
102.4997033073
 30
0.0
 11
188.6475386714
 21
101.8997033073
 31
0.0
  0
LINE
  5
E4
330
1F
100
AcDbEntity
  8
0
  6
Continuous
 62
     7
370
    25
100
AcDbLine
 10
188.6475386714
 20
101.8997033073
 30
0.0
 11
188.409398429
 21
101.8997033073
 31
0.0
  0
LINE
  5
E5
330
1F
100
AcDbEntity
  8
0
  6
Continuous
 62
     7
370
    25
100
AcDbLine
 10
188.9203130963
 20
101.8997033073
 30
0.0
 11
188.9203130963
 21
102.4997033073
 31
0.0
  0
LINE
  5
E6
330
1F
100
AcDbEntity
  8
0
  6
Continuous
 62
     7
370
    25
100
AcDbLine
 10
188.9203130963
 20
102.4997033073
 30
0.0
 11
188.6475386714
 21
102.4997033073
 31
0.0
  0
LINE
  5
E7
330
1F
100
AcDbEntity
  8
0
  6
Continuous
 62
     7
370
    25
100
AcDbLine
 10
188.6475386714
 20
101.8997033073
 30
0.0
 11
188.9203130963
 21
101.8997033073
 31
0.0
  0
LINE
  5
E8
330
1F
100
AcDbEntity
  8
0
  6
Continuous
 62
     7
370
    25
100
AcDbLine
 10
188.9203130963
 20
102.4997033073
 30
0.0
 11
189.1703130963
 21
102.4997033073
 31
0.0
  0
LINE
  5
E9
330
1F
100
AcDbEntity
  8
0
  6
Continuous
 62
     7
370
    25
100
AcDbLine
 10
188.9203130963
 20
102.4997033073
 30
0.0
 11
188.9203130963
 21
102.7497033073
 31
0.0
  0
ARC
  5
EA
330
1F
100
AcDbEntity
  8
0
  6
Continuous
 62
     7
370
    25
100
AcDbCircle
 10
188.9203130963
 20
102.4997033073
 30
0.0
 40
0.25
100
AcDbArc
 50
0.0
 51
90.0
  0
LINE
  5
EB
330
1F
100
AcDbEntity
  8
0
  6
Continuous
 62
     7
370
    25
100
AcDbLine
 10
177.1703130963
 20
101.8997033073
 30
0.0
 11
177.1703130963
 21
102.4997033073
 31
0.0
  0
LINE
  5
EC
330
1F
100
AcDbEntity
  8
0
  6
Continuous
 62
     7
370
    25
100
AcDbLine
 10
177.1703130963
 20
102.4997033073
 30
0.0
 11
177.4203130963
 21
102.4997033073
 31
0.0
  0
LINE
  5
ED
330
1F
100
AcDbEntity
  8
0
  6
Continuous
 62
     7
370
    25
100
AcDbLine
 10
177.4203130963
 20
102.4997033073
 30
0.0
 11
177.4203130963
 21
101.8997033073
 31
0.0
  0
LINE
  5
EE
330
1F
100
AcDbEntity
  8
0
  6
Continuous
 62
     7
370
    25
100
AcDbLine
 10
177.4203130963
 20
101.8997033073
 30
0.0
 11
177.1703130963
 21
101.8997033073
 31
0.0
  0
LINE
  5
EF
330
1F
100
AcDbEntity
  8
0
  6
Continuous
 62
     7
370
    25
100
AcDbLine
 10
177.6930875213
 20
102.4997033073
 30
0.0
 11
177.4203130963
 21
102.4997033073
 31
0.0
  0
LINE
  5
F0
330
1F
100
AcDbEntity
  8
0
  6
Continuous
 62
     7
370
    25
100
AcDbLine
 10
177.4203130963
 20
101.8997033073
 30
0.0
 11
177.6930875213
 21
101.8997033073
 31
0.0
  0
LINE
  5
F1
330
1F
100
AcDbEntity
  8
0
  6
Continuous
 62
     7
370
    25
100
AcDbLine
 10
189.1703130963
 20
102.4997033073
 30
0.0
 11
189.1703130963
 21
101.8997033073
 31
0.0
  0
LINE
  5
F2
330
1F
100
AcDbEntity
  8
0
  6
Continuous
 62
     7
370
    25
100
AcDbLine
 10
189.1703130963
 20
101.8997033073
 30
0.0
 11
188.9203130963
 21
101.8997033073
 31
0.0
  0
LINE
  5
F3
330
1F
100
AcDbEntity
  8
0
  6
Continuous
 62
     7
370
    25
100
AcDbLine
 10
177.4203130963
 20
102.7497033073
 30
0.0
 11
177.4203130963
 21
102.4997033073
 31
0.0
  0
LINE
  5
F4
330
1F
100
AcDbEntity
  8
0
  6
Continuous
 62
     7
370
    25
100
AcDbLine
 10
177.4203130963
 20
102.7497033073
 30
0.0
 11
178.0712935827
 21
102.7497033073
 31
0.0
  0
LINE
  5
F5
330
1F
100
AcDbEntity
  8
0
  6
Continuous
 62
     7
370
    25
100
AcDbLine
 10
188.2693326099
 20
102.7497033073
 30
0.0
 11
188.9203130963
 21
102.7497033073
 31
0.0
  0
ARC
  5
F6
330
1F
100
AcDbEntity
  8
0
  6
Continuous
 62
     7
370
    25
100
AcDbCircle
 10
177.4203130963
 20
102.4997033073
 30
0.0
 40
0.25
100
AcDbArc
 50
90.0
 51
180.0
  0
LINE
  5
F7
330
1F
100
AcDbEntity
  8
0
  6
Continuous
 62
     7
370
    25
100
AcDbLine
 10
178.1703130963
 20
102.7597033073
 30
0.0
 11
188.1703130963
 21
102.7597033073
 31
0.0
  0
LINE
  5
F8
330
1F
100
AcDbEntity
  8
0
  6
Continuous
 62
     7
370
    25
100
AcDbLine
 10
188.1703130963
 20
102.7497033073
 30
0.0
 11
188.1703130963
 21
102.7597033073
 31
0.0
  0
LINE
  5
F9
330
1F
100
AcDbEntity
  8
0
  6
Continuous
 62
     7
370
    25
100
AcDbLine
 10
178.1703130963
 20
102.7497033073
 30
0.0
 11
178.1703130963
 21
102.7597033073
 31
0.0
  0
LINE
  5
FA
330
1F
100
AcDbEntity
  8
0
  6
Continuous
 62
     7
370
    25
100
AcDbLine
 10
181.1703130963
 20
85.8997033073
 30
0.0
 11
190.1703130963
 21
85.8997033073
 31
0.0
  0
LINE
  5
FB
330
1F
100
AcDbEntity
  8
0
  6
Continuous
 62
     7
370
    25
100
AcDbLine
 10
181.1703130963
 20
85.9375202311
 30
0.0
 11
181.1703130963
 21
85.8997033073
 31
0.0
  0
SPLINE
  5
FC
330
1F
100
AcDbEntity
  8
0
  6
Continuous
 62
     7
370
    25
100
AcDbSpline
210
0.0
220
0.0
230
1.0
 70
     8
 71
     3
 72
     9
 73
     5
 74
     0
 42
0.00000001
 43
0.00000001
 40
0.0
 40
0.0
 40
0.0
 40
0.0
 40
0.4875141023677128
 40
0.9999999999999999
 40
0.9999999999999999
 40
0.9999999999999999
 40
0.9999999999999999
 10
181.0143678458825
 20
85.89970330732855
 30
0.0
 10
181.0406744198051
 20
85.90143065330025
 30
0.0
 10
181.0946350617533
 20
85.90497382459172
 30
0.0
 10
181.1446705924481
 20
85.92649231054104
 30
0.0
 10
181.1703130963097
 20
85.93752023112847
 30
0.0
  0
SPLINE
  5
FD
330
1F
100
AcDbEntity
  8
0
  6
Continuous
 62
     7
370
    25
100
AcDbSpline
210
0.0
220
0.0
230
1.0
 70
     8
 71
     3
 72
    17
 73
    13
 74
     0
 42
0.00000001
 43
0.00000001
 40
0.0
 40
0.0
 40
0.0
 40
0.0
 40
0.3241697628029873
 40
0.5422758463620719
 40
0.689509052693928
 40
0.7894036290694505
 40
0.8577090008137825
 40
0.9049823971474137
 40
0.9551712229700868
 40
0.9753097783197817
 40
0.9919572060138848
 40
1.0
 40
1.0
 40
1.0
 40
1.0
 10
178.6957662122275
 20
93.8997033073261
 30
0.0
 10
178.8384815722447
 20
92.98708980472044
 30
0.0
 10
179.0772178811867
 20
91.4604567984591
 30
0.0
 10
179.4568050756383
 20
89.53368389617812
 30
0.0
 10
179.7659392839854
 20
88.24604842524536
 30
0.0
 10
180.0220528121855
 20
87.38689645852361
 30
0.0
 10
180.2363638150806
 20
86.8134285701462
 30
0.0
 10
180.4395980361084
 20
86.39189641611625
 30
0.0
 10
180.624143300651
 20
86.11140387332082
 30
0.0
 10
180.8102143870192
 20
85.95585520474015
 30
0.0
 10
180.9254249862751
 20
85.90524460554265
 30
0.0
 10
180.992513791748
 20
85.901064853738
 30
0.0
 10
181.0143678458825
 20
85.89970330732855
 30
0.0
  0
LINE
  5
FE
330
1F
100
AcDbEntity
  8
0
  6
Continuous
 62
     7
370
    25
100
AcDbLine
 10
178.6957662122
 20
93.8997033073
 30
0.0
 11
190.6203130963
 21
93.8997033073
 31
0.0
  0
LINE
  5
FF
330
1F
100
AcDbEntity
  8
0
  6
Continuous
 62
     7
370
    25
100
AcDbLine
 10
179.455976968
 20
94.8944468853
 30
0.0
 11
178.6957662122
 21
93.8997033073
 31
0.0
  0
LINE
  5
100
330
1F
100
AcDbEntity
  8
0
  6
Continuous
 62
     7
370
    25
100
AcDbLine
 10
177.946510922
 20
101.8997033073
 30
0.0
 11
176.218372258
 21
94.8944468853
 31
0.0
  0
LINE
  5
101
330
1F
100
AcDbEntity
  8
0
  6
Continuous
 62
     7
370
    25
100
AcDbLine
 10
188.409398429
 20
101.8997033073
 30
0.0
 11
177.946510922
 21
101.8997033073
 31
0.0
  0
SPLINE
  5
102
330
1F
100
AcDbEntity
  8
0
  6
Continuous
 62
     7
370
    25
100
AcDbSpline
210
0.0
220
0.0
230
1.0
 70
     8
 71
     3
 72
    14
 73
    10
 74
     0
 42
0.00000001
 43
0.00000001
 40
0.0
 40
0.0
 40
0.0
 40
0.0
 40
0.1576095309202822
 40
0.3152382602707094
 40
0.4726926441579498
 40
0.6301650083177254
 40
0.7907313191165901
 40
0.9513050385928076
 40
1.0
 40
1.0
 40
1.0
 40
1.0
 10
176.6703130963097
 20
85.89970330732848
 30
0.0
 10
176.6037420815277
 20
86.11320509580588
 30
0.0
 10
176.4705919429427
 20
86.54023467943139
 30
0.0
 10
176.1420249811921
 20
87.1254817582877
 30
0.0
 10
175.72863534046
 20
87.64763629911013
 30
0.0
 10
175.2329604215154
 20
88.09661442653
 30
0.0
 10
174.6666707162309
 20
88.45589615833637
 30
0.0
 10
174.1904200598378
 20
88.66046233743756
 30
0.0
 10
173.9102254916451
 20
88.74125688578886
 30
0.0
 10
173.845026706872
 20
88.76005705883563
 30
0.0
  0
LINE
  5
103
330
1F
100
AcDbEntity
  8
0
  6
Continuous
 62
     7
370
    25
100
AcDbLine
 10
173.8450267069
 20
88.7600570588
 30
0.0
 11
168.065269857
 21
90.3286784993
 31
0.0
  0
SPLINE
  5
104
330
1F
100
AcDbEntity
  8
0
  6
Continuous
 62
     7
370
    25
100
AcDbSpline
210
0.0
220
0.0
230
1.0
 70
     8
 71
     3
 72
     9
 73
     5
 74
     0
 42
0.00000001
 43
0.00000001
 40
0.0
 40
0.0
 40
0.0
 40
0.0
 40
0.4976931370791441
 40
0.9999999999999999
 40
0.9999999999999999
 40
0.9999999999999999
 40
0.9999999999999999
 10
160.994876234773
 20
91.65187900030402
 30
0.0
 10
162.1835131985543
 20
91.50243211930359
 30
0.0
 10
164.5718060545842
 20
91.20215295154668
 30
0.0
 10
166.8972056707721
 20
90.62073082415927
 30
0.0
 10
168.0652698570168
 20
90.32867849931851
 30
0.0
  0
LINE
  5
105
330
1F
100
AcDbEntity
  8
0
  6
Continuous
 62
     7
370
    25
100
AcDbLine
 10
160.9948762348
 20
91.6518790003
 30
0.0
 11
160.9948762348
 21
94.8944468853
 31
0.0
  0
LINE
  5
106
330
1F
100
AcDbEntity
  8
0
  6
Continuous
 62
     7
370
    25
100
AcDbLine
 10
160.9948762348
 20
94.8944468853
 30
0.0
 11
179.455976968
 21
94.8944468853
 31
0.0
  0
LINE
  5
107
330
1F
100
AcDbEntity
  8
0
  6
Continuous
 62
     7
370
    25
100
AcDbLine
 10
181.0143678459
 20
85.8997033073
 30
0.0
 11
176.6703130963
 21
85.8997033073
 31
0.0
  0
LINE
  5
108
330
1F
100
AcDbEntity
  8
0
  6
Continuous
 62
     7
370
    25
100
AcDbLine
 10
181.1703130963
 20
85.9375202311
 30
0.0
 11
181.1635137384
 21
85.8997033073
 31
0.0
  0
LINE
  5
109
330
1F
100
AcDbEntity
  8
0
  6
Continuous
 62
     7
370
    25
100
AcDbLine
 10
181.1703130963
 20
85.8997033073
 30
0.0
 11
181.1635137384
 21
85.8997033073
 31
0.0
  0
LINE
  5
10A
330
1F
100
AcDbEntity
  8
0
  6
Continuous
 62
     7
370
    25
100
AcDbLine
 10
181.1635137384
 20
85.8997033073
 30
0.0
 11
181.0143678459
 21
85.8997033073
 31
0.0
  0
LINE
  5
10B
330
1F
100
AcDbEntity
  8
0
  6
Continuous
 62
     7
370
    25
100
AcDbLine
 10
143.1703130963
 20
103.8997033073
 30
0.0
 11
160.9948762348
 21
103.8997033073
 31
0.0
  0
LINE
  5
10C
330
1F
100
AcDbEntity
  8
0
  6
Continuous
 62
     7
370
    25
100
AcDbLine
 10
160.9948762348
 20
103.8997033073
 30
0.0
 11
160.9948762348
 21
94.8944468853
 31
0.0
  0
LINE
  5
10D
330
1F
100
AcDbEntity
  8
0
  6
Continuous
 62
     7
370
    25
100
AcDbLine
 10
156.2786452386
 20
91.8997033073
 30
0.0
 11
148.1703130963
 21
91.8997033073
 31
0.0
  0
ARC
  5
10E
330
1F
100
AcDbEntity
  8
0
  6
Continuous
 62
     7
370
    25
100
AcDbCircle
 10
148.1703130963
 20
96.8997033073
 30
0.0
 40
5.0
100
AcDbArc
 50
180.0
 51
270.0
  0
LINE
  5
10F
330
1F
100
AcDbEntity
  8
0
  6
Continuous
 62
     7
370
    25
100
AcDbLine
 10
143.1703130963
 20
96.8997033073
 30
0.0
 11
143.1703130963
 21
103.8997033073
 31
0.0
  0
ARC
  5
110
330
1F
100
AcDbEntity
  8
0
  6
Continuous
 62
     7
370
    25
100
AcDbCircle
 10
156.2786452386
 20
46.8995740531
 30
0.0
 40
45.00012925418374
100
AcDbArc
 50
83.9840777705
 51
90.0
  0
LINE
  5
111
330
1F
100
AcDbEntity
  8
0
  6
Continuous
 62
     7
370
    25
100
AcDbLine
 10
160.9948762348
 20
103.8997033073
 30
0.0
 11
163.1703130963
 21
103.8997033073
 31
0.0
  0
LINE
  5
112
330
1F
100
AcDbEntity
  8
0
  6
Continuous
 62
     7
370
    25
100
AcDbLine
 10
163.1703130963
 20
103.8997033073
 30
0.0
 11
163.1703130963
 21
101.9186588307
 31
0.0
  0
ARC
  5
113
330
1F
100
AcDbEntity
  8
0
  6
Continuous
 62
     7
370
    25
100
AcDbCircle
 10
169.1703130963
 20
101.9186588307
 30
0.0
 40
6.000000000000003
100
AcDbArc
 50
180.0
 51
275.5801667845
  0
ARC
  5
114
330
1F
100
AcDbEntity
  8
0
  6
Continuous
 62
     7
370
    25
100
AcDbCircle
 10
168.781359532
 20
105.8997033073
 30
0.0
 40
10.0000000000085
100
AcDbArc
 50
275.5801667845
 51
336.4218215217
  0
LINE
  5
115
330
1F
100
AcDbEntity
  8
0
  6
Continuous
 62
     7
370
    25
100
AcDbLine
 10
176.6703130963
 20
85.8997033073
 30
0.0
 11
176.1703130963
 21
85.8997033073
 31
0.0
  0
LINE
  5
116
330
1F
100
AcDbEntity
  8
0
  6
Continuous
 62
     7
370
    25
100
AcDbLine
 10
168.8703130963
 20
83.8997033073
 30
0.0
 11
168.8703130963
 21
66.8997033073
 31
0.0
  0
LINE
  5
117
330
1F
100
AcDbEntity
  8
0
  6
Continuous
 62
     7
370
    25
100
AcDbLine
 10
168.6703130963
 20
67.0997033073
 30
0.0
 11
168.6703130963
 21
83.6997033073
 31
0.0
  0
LINE
  5
118
330
1F
100
AcDbEntity
  8
0
  6
Continuous
 62
     7
370
    25
100
AcDbLine
 10
171.6703130963
 20
83.8997033073
 30
0.0
 11
171.6703130963
 21
66.8997033073
 31
0.0
  0
SPLINE
  5
119
330
1F
100
AcDbEntity
  8
0
  6
Continuous
 62
     7
370
    25
100
AcDbSpline
210
0.0
220
0.0
230
1.0
 70
     8
 71
     3
 72
    10
 73
     6
 74
     0
 42
0.00000001
 43
0.00000001
 40
0.0
 40
0.0
 40
0.0
 40
0.0
 40
0.5000000000000001
 40
0.5000000000000001
 40
1.0
 40
1.0
 40
1.0
 40
1.0
 10
178.5515109427927
 20
64.07742471258865
 30
0.0
 10
179.3021896422885
 20
63.87049465905595
 30
0.0
 10
180.0664705865111
 20
63.69868904868224
 30
0.0
 10
181.6210453205987
 20
63.46173854215087
 30
0.0
 10
182.3966202881149
 20
63.39970330732849
 30
0.0
 10
183.1703130963097
 20
63.39970330732849
 30
0.0
  0
LINE
  5
11A
330
1F
100
AcDbEntity
  8
0
  6
Continuous
 62
     7
370
    25
100
AcDbLine
 10
178.5515109428
 20
67.4333067675
 30
0.0
 11
178.5515109428
 21
64.0774247126
 31
0.0
  0
SPLINE
  5
11B
330
1F
100
AcDbEntity
  8
0
  6
Continuous
 62
     7
370
    25
100
AcDbSpline
210
0.0
220
0.0
230
1.0
 70
     8
 71
     3
 72
     8
 73
     4
 74
     0
 42
0.00000001
 43
0.00000001
 40
0.0
 40
0.0
 40
0.0
 40
0.0
 40
1.0
 40
1.0
 40
1.0
 40
1.0
 10
178.5515109427927
 20
67.43330676747348
 30
0.0
 10
178.756696765336
 20
67.4898677345977
 30
0.0
 10
178.9629199660433
 20
67.54380780601153
 30
0.0
 10
179.1703130963097
 20
67.5947920957545
 30
0.0
  0
LINE
  5
11C
330
1F
100
AcDbEntity
  8
0
  6
Continuous
 62
     7
370
    25
100
AcDbLine
 10
179.1703130963
 20
67.5947920958
 30
0.0
 11
179.1703130963
 21
71.3997033073
 31
0.0
  0
SPLINE
  5
11D
330
1F
100
AcDbEntity
  8
0
  6
Continuous
 62
     7
370
    25
100
AcDbSpline
210
0.0
220
0.0
230
1.0
 70
     8
 71
     3
 72
     8
 73
     4
 74
     0
 42
0.00000001
 43
0.00000001
 40
0.0
 40
0.0
 40
0.0
 40
0.0
 40
1.0
 40
1.0
 40
1.0
 40
1.0
 10
176.4925916910495
 20
70.78090115381144
 30
0.0
 10
176.5491550605178
 20
70.98609569132121
 30
0.0
 10
176.603094983339
 20
71.19231934483837
 30
0.0
 10
176.6540770193305
 20
71.39970330732848
 30
0.0
  0
LINE
  5
11E
330
1F
100
AcDbEntity
  8
0
  6
Continuous
 62
     7
370
    25
100
AcDbLine
 10
172.3480345016
 20
70.7809011538
 30
0.0
 11
176.492591691
 21
70.7809011538
 31
0.0
  0
SPLINE
  5
11F
330
1F
100
AcDbEntity
  8
0
  6
Continuous
 62
     7
370
    25
100
AcDbSpline
210
0.0
220
0.0
230
1.0
 70
     8
 71
     3
 72
    10
 73
     6
 74
     0
 42
0.00000001
 43
0.00000001
 40
0.0
 40
0.0
 40
0.0
 40
0.0
 40
0.5
 40
0.5
 40
1.0
 40
1.0
 40
1.0
 40
1.0
 10
172.3480345015699
 20
70.78090115381147
 30
0.0
 10
172.1399658253387
 20
71.53571042686076
 30
0.0
 10
171.9695668193141
 20
72.29645681409266
 30
0.0
 10
171.7344068396153
 20
73.83459919171592
 30
0.0
 10
171.6703130963097
 20
74.61210034424073
 30
0.0
 10
171.6703130963097
 20
75.39970330732848
 30
0.0
  0
SPLINE
  5
120
330
1F
100
AcDbEntity
  8
0
  6
Continuous
 62
     7
370
    25
100
AcDbSpline
210
0.0
220
0.0
230
1.0
 70
     8
 71
     3
 72
    12
 73
     8
 74
     0
 42
0.00000001
 43
0.00000001
 40
0.0
 40
0.0
 40
0.0
 40
0.0
 40
0.2500000000000001
 40
0.2500000000000001
 40
0.5000000000000001
 40
0.5000000000000001
 40
1.0
 40
1.0
 40
1.0
 40
1.0
 10
171.6703130963097
 20
75.39970330732848
 30
0.0
 10
171.6703130963097
 20
75.79402138800032
 30
0.0
 10
171.6863119012908
 20
76.18768043195077
 30
0.0
 10
171.7480820396052
 20
76.9672164314961
 30
0.0
 10
171.7938241639067
 20
77.35416961962152
 30
0.0
 10
171.9704943112536
 20
78.50755618247553
 30
0.0
 10
172.1407493767339
 20
79.26653867168055
 30
0.0
 10
172.3480345015699
 20
80.01850546084549
 30
0.0
  0
LINE
  5
121
330
1F
100
AcDbEntity
  8
0
  6
Continuous
 62
     7
370
    25
100
AcDbLine
 10
176.492591691
 20
80.0185054608
 30
0.0
 11
172.3480345016
 21
80.0185054608
 31
0.0
  0
SPLINE
  5
122
330
1F
100
AcDbEntity
  8
0
  6
Continuous
 62
     7
370
    25
100
AcDbSpline
210
0.0
220
0.0
230
1.0
 70
     8
 71
     3
 72
     8
 73
     4
 74
     0
 42
0.00000001
 43
0.00000001
 40
0.0
 40
0.0
 40
0.0
 40
0.0
 40
1.0
 40
1.0
 40
1.0
 40
1.0
 10
176.6540770193305
 20
79.39970330732848
 30
0.0
 10
176.603178302408
 20
79.60674834575747
 30
0.0
 10
176.5492441661573
 20
79.81298767543412
 30
0.0
 10
176.4925916910495
 20
80.01850546084549
 30
0.0
  0
LINE
  5
123
330
1F
100
AcDbEntity
  8
0
  6
Continuous
 62
     7
370
    25
100
AcDbLine
 10
189.6865491733
 20
79.3997033073
 30
0.0
 11
176.6540770193
 21
79.3997033073
 31
0.0
  0
SPLINE
  5
124
330
1F
100
AcDbEntity
  8
0
  6
Continuous
 62
     7
370
    25
100
AcDbSpline
210
0.0
220
0.0
230
1.0
 70
     8
 71
     3
 72
     8
 73
     4
 74
     0
 42
0.00000001
 43
0.00000001
 40
0.0
 40
0.0
 40
0.0
 40
0.0
 40
1.0
 40
1.0
 40
1.0
 40
1.0
 10
189.6865491732889
 20
79.39970330732855
 30
0.0
 10
189.737445406544
 20
79.6067382427323
 30
0.0
 10
189.7913793615076
 20
79.8129780077973
 30
0.0
 10
189.8480345015699
 20
80.01850546084549
 30
0.0
  0
LINE
  5
125
330
1F
100
AcDbEntity
  8
0
  6
Continuous
 62
     7
370
    25
100
AcDbLine
 10
194.3482541238
 20
80.0185054608
 30
0.0
 11
189.8480345016
 21
80.0185054608
 31
0.0
  0
SPLINE
  5
126
330
1F
100
AcDbEntity
  8
0
  6
Continuous
 62
     7
370
    25
100
AcDbSpline
210
0.0
220
0.0
230
1.0
 70
     8
 71
     3
 72
    14
 73
    10
 74
     0
 42
0.00000001
 43
0.00000001
 40
0.0
 40
0.0
 40
0.0
 40
0.0
 40
0.25
 40
0.25
 40
0.5
 40
0.5
 40
0.75
 40
0.75
 40
1.0
 40
1.0
 40
1.0
 40
1.0
 10
194.3482541237521
 20
70.78090115381143
 30
0.0
 10
194.5562044844579
 20
71.5352812144614
 30
0.0
 10
194.7284262931468
 20
72.30472238192691
 30
0.0
 10
194.9630614158977
 20
73.84523374286807
 30
0.0
 10
195.0260054745253
 20
74.62008812287509
 30
0.0
 10
195.0259455617939
 20
76.18044907776064
 30
0.0
 10
194.9613308955018
 20
76.97090527054567
 30
0.0
 10
194.7247715561005
 20
78.51318493335414
 30
0.0
 10
194.5544264160211
 20
79.27057568655533
 30
0.0
 10
194.3482541237521
 20
80.01850546084549
 30
0.0
  0
LINE
  5
127
330
1F
100
AcDbEntity
  8
0
  6
Continuous
 62
     7
370
    25
100
AcDbLine
 10
189.8480345016
 20
70.7809011538
 30
0.0
 11
194.3482541238
 21
70.7809011538
 31
0.0
  0
SPLINE
  5
128
330
1F
100
AcDbEntity
  8
0
  6
Continuous
 62
     7
370
    25
100
AcDbSpline
210
0.0
220
0.0
230
1.0
 70
     8
 71
     3
 72
     8
 73
     4
 74
     0
 42
0.00000001
 43
0.00000001
 40
0.0
 40
0.0
 40
0.0
 40
0.0
 40
1.0
 40
1.0
 40
1.0
 40
1.0
 10
189.8480345015699
 20
70.78090115381144
 30
0.0
 10
189.791472658133
 20
70.98609015534826
 30
0.0
 10
189.7375326408766
 20
71.19231352141296
 30
0.0
 10
189.6865491732889
 20
71.39970330732842
 30
0.0
  0
LINE
  5
129
330
1F
100
AcDbEntity
  8
0
  6
Continuous
 62
     7
370
    25
100
AcDbLine
 10
189.6865491733
 20
71.3997033073
 30
0.0
 11
187.1703130963
 21
71.3997033073
 31
0.0
  0
LINE
  5
12A
330
1F
100
AcDbEntity
  8
0
  6
Continuous
 62
     7
370
    25
100
AcDbLine
 10
187.1703130963
 20
67.5947920958
 30
0.0
 11
187.1703130963
 21
71.3997033073
 31
0.0
  0
SPLINE
  5
12B
330
1F
100
AcDbEntity
  8
0
  6
Continuous
 62
     7
370
    25
100
AcDbSpline
210
0.0
220
0.0
230
1.0
 70
     8
 71
     3
 72
     8
 73
     4
 74
     0
 42
0.00000001
 43
0.00000001
 40
0.0
 40
0.0
 40
0.0
 40
0.0
 40
1.0
 40
1.0
 40
1.0
 40
1.0
 10
187.1703130963097
 20
67.5947920957545
 30
0.0
 10
187.3773421596451
 20
67.54389730605368
 30
0.0
 10
187.5835821769145
 20
67.48996345669224
 30
0.0
 10
187.7891152498267
 20
67.43330676747347
 30
0.0
  0
LINE
  5
12C
330
1F
100
AcDbEntity
  8
0
  6
Continuous
 62
     7
370
    25
100
AcDbLine
 10
187.7891152498
 20
64.0774247126
 30
0.0
 11
187.7891152498
 21
67.4333067675
 31
0.0
  0
SPLINE
  5
12D
330
1F
100
AcDbEntity
  8
0
  6
Continuous
 62
     7
370
    25
100
AcDbSpline
210
0.0
220
0.0
230
1.0
 70
     8
 71
     3
 72
    10
 73
     6
 74
     0
 42
0.00000001
 43
0.00000001
 40
0.0
 40
0.0
 40
0.0
 40
0.0
 40
0.5
 40
0.5
 40
1.0
 40
1.0
 40
1.0
 40
1.0
 10
183.1703130963097
 20
63.39970330732849
 30
0.0
 10
183.9458930329167
 20
63.39970330732849
 30
0.0
 10
184.7195832516431
 20
63.46198766930699
 30
0.0
 10
186.263617793976
 20
63.69683578731403
 30
0.0
 10
187.0369264701308
 20
63.87007839444522
 30
0.0
 10
187.7891152498267
 20
64.07742471258868
 30
0.0
  0
ARC
  5
12E
330
1F
100
AcDbEntity
  8
0
  6
Continuous
 62
     7
370
    25
100
AcDbCircle
 10
184.721044452
 20
74.822784314
 30
0.0
 40
0.889000000000007
100
AcDbArc
 50
45.0
 51
315.0
  0
LINE
  5
12F
330
1F
100
AcDbEntity
  8
0
  6
Continuous
 62
     7
370
    25
100
AcDbLine
 10
185.3496623805
 20
75.4514022425
 30
0.0
 11
185.8162727661
 21
75.9180126281
 31
0.0
  0
ARC
  5
130
330
1F
100
AcDbEntity
  8
0
  6
Continuous
 62
     7
370
    25
100
AcDbCircle
 10
184.721044452
 20
74.822784314
 30
0.0
 40
1.548886735692404
100
AcDbArc
 50
45.0
 51
315.0
  0
LINE
  5
131
330
1F
100
AcDbEntity
  8
0
  6
Continuous
 62
     7
370
    25
100
AcDbLine
 10
185.8162727661
 20
73.7275559999
 30
0.0
 11
185.3496623805
 21
74.1941663855
 31
0.0
  0
ARC
  5
132
330
1F
100
AcDbEntity
  8
0
  6
Continuous
 62
     7
370
    25
100
AcDbCircle
 10
188.0631890484
 20
74.822784314
 30
0.0
 40
0.8889999999999875
100
AcDbArc
 50
45.0
 51
159.0751675724
  0
LINE
  5
133
330
1F
100
AcDbEntity
  8
0
  6
Continuous
 62
     7
370
    25
100
AcDbLine
 10
188.6918069769
 20
75.4514022425
 30
0.0
 11
189.1584173625
 21
75.9180126281
 31
0.0
  0
ARC
  5
134
330
1F
100
AcDbEntity
  8
0
  6
Continuous
 62
     7
370
    25
100
AcDbCircle
 10
188.0631890484
 20
74.822784314
 30
0.0
 40
1.548886735692373
100
AcDbArc
 50
45.0
 51
315.0
  0
LINE
  5
135
330
1F
100
AcDbEntity
  8
0
  6
Continuous
 62
     7
370
    25
100
AcDbLine
 10
189.1584173625
 20
73.7275559999
 30
0.0
 11
188.6918069769
 21
74.1941663855
 31
0.0
  0
ARC
  5
136
330
1F
100
AcDbEntity
  8
0
  6
Continuous
 62
     7
370
    25
100
AcDbCircle
 10
188.0631890484
 20
74.822784314
 30
0.0
 40
0.8890000000000405
100
AcDbArc
 50
200.9248324276
 51
315.0
  0
LINE
  5
137
330
1F
100
AcDbEntity
  8
0
  6
Continuous
 62
     7
370
    25
100
AcDbLine
 10
187.2328187996
 20
74.505284314
 30
0.0
 11
189.1584173625
 21
74.505284314
 31
0.0
  0
LINE
  5
138
330
1F
100
AcDbEntity
  8
0
  6
Continuous
 62
     7
370
    25
100
AcDbLine
 10
189.1584173625
 20
74.505284314
 30
0.0
 11
189.1584173625
 21
75.140284314
 31
0.0
  0
LINE
  5
139
330
1F
100
AcDbEntity
  8
0
  6
Continuous
 62
     7
370
    25
100
AcDbLine
 10
189.1584173625
 20
75.140284314
 30
0.0
 11
187.2328187996
 21
75.140284314
 31
0.0
  0
LINE
  5
13A
330
1F
100
AcDbEntity
  8
0
  6
Continuous
 62
     7
370
    25
100
AcDbLine
 10
182.2685541823
 20
73.9773302897
 30
0.0
 11
182.226903863
 21
73.9535253599
 31
0.0
  0
ELLIPSE
  5
13B
330
1F
100
AcDbEntity
  8
0
  6
Continuous
 62
     7
370
    25
100
AcDbEllipse
 10
181.8780606835
 20
74.5082078311
 30
0.0
 11
0.6784129479252385
 21
6.110667527536862E-13
 31
0.0
210
0.0
220
0.0
230
1.0
 40
0.9533039403
 41
3.470145824140279
 42
5.252469180536282
  0
LINE
  5
13C
330
1F
100
AcDbEntity
  8
0
  6
Continuous
 62
     7
370
    25
100
AcDbLine
 10
181.2359359165
 20
74.2995237161
 30
0.0
 11
179.9762817116
 21
77.8219681128
 31
0.0
  0
ELLIPSE
  5
13D
330
1F
100
AcDbEntity
  8
0
  6
Continuous
 62
     7
370
    25
100
AcDbEllipse
 10
179.3852991537
 20
77.5596288767
 30
0.0
 11
0.6519124952381503
 21
5.968558980384842E-13
 31
0.0
210
0.0
220
0.0
230
1.0
 40
0.9533023292
 41
0.4357905044355181
 42
2.705800116361558
  0
LINE
  5
13E
330
1F
100
AcDbEntity
  8
0
  6
Continuous
 62
     7
370
    25
100
AcDbLine
 10
178.7943171551
 20
77.821969258
 30
0.0
 11
177.5349523535
 21
74.3003458563
 31
0.0
  0
ELLIPSE
  5
13F
330
1F
100
AcDbEntity
  8
0
  6
Continuous
 62
     7
370
    25
100
AcDbEllipse
 10
176.8928311695
 20
74.50902869
 30
0.0
 11
-0.6784085062757867
 21
3.126388037344441E-13
 31
0.0
210
0.0
220
0.0
230
1.0
 40
0.9533122623
 41
1.04719377118793
 42
2.813042320199896
  0
LINE
  5
140
330
1F
100
AcDbEntity
  8
0
  6
Continuous
 62
     7
370
    25
100
AcDbLine
 10
176.5536246955
 20
73.9489408447
 30
0.0
 11
176.502044125
 21
73.9773302897
 31
0.0
  0
LINE
  5
141
330
1F
100
AcDbEntity
  8
0
  6
Continuous
 62
     7
370
    25
100
AcDbLine
 10
176.502044125
 20
73.9773302897
 30
0.0
 11
177.2983127845
 21
72.4591581883
 31
0.0
  0
ELLIPSE
  5
142
330
1F
100
AcDbEntity
  8
0
  6
Continuous
 62
     7
370
    25
100
AcDbEllipse
 10
177.3741616579
 20
72.4953117033
 30
0.0
 11
0.08480161849067258
 21
-2.842170943040401E-14
 31
0.0
210
0.0
220
0.0
230
1.0
 40
0.9533039403
 41
3.605240262591202
 42
5.462183310215349
  0
ELLIPSE
  5
143
330
1F
100
AcDbEntity
  8
0
  6
Continuous
 62
     7
370
    25
100
AcDbEllipse
 10
179.3852991537
 20
70.4364630827
 30
0.0
 11
2.866293551216216
 21
-1.506350599811412E-12
 31
0.0
210
0.0
220
0.0
230
1.0
 40
0.9533046568
 41
0.8210016221243815
 42
2.320591031466443
  0
ELLIPSE
  5
144
330
1F
100
AcDbEntity
  8
0
  6
Continuous
 62
     7
370
    25
100
AcDbEllipse
 10
181.3964366494
 20
72.4953117033
 30
0.0
 11
0.08480161849058732
 21
0.0
 31
0.0
210
0.0
220
0.0
230
1.0
 40
0.9533039403
 41
3.962594650556324
 42
5.819537698177312
  0
LINE
  5
145
330
1F
100
AcDbEntity
  8
0
  6
Continuous
 62
     7
370
    25
100
AcDbLine
 10
181.4722855228
 20
72.4591581883
 30
0.0
 11
182.2685541823
 21
73.9773302897
 31
0.0
  0
LINE
  5
146
330
1F
100
AcDbEntity
  8
0
  6
Continuous
 62
     7
370
    25
100
AcDbLine
 10
179.1703130963
 20
71.3997033073
 30
0.0
 11
176.6540770193
 21
71.3997033073
 31
0.0
  0
LINE
  5
147
330
1F
100
AcDbEntity
  8
0
  6
Continuous
 62
     7
370
    25
100
AcDbLine
 10
177.1703130963
 20
82.7609192395
 30
0.0
 11
177.1703130963
 21
79.3997033073
 31
0.0
  0
SPLINE
  5
148
330
1F
100
AcDbEntity
  8
0
  6
Continuous
 62
     7
370
    25
100
AcDbSpline
210
0.0
220
0.0
230
1.0
 70
     8
 71
     3
 72
    10
 73
     6
 74
     0
 42
0.00000001
 43
0.00000001
 40
0.0
 40
0.0
 40
0.0
 40
0.0
 40
0.5
 40
0.5
 40
1.0
 40
1.0
 40
1.0
 40
1.0
 10
176.4925916910495
 20
80.45151816273771
 30
0.0
 10
176.4689162966251
 20
80.40857463183649
 30
0.0
 10
176.4558251867405
 20
80.34513218721236
 30
0.0
 10
176.4557388654522
 20
80.1926533500934
 30
0.0
 10
176.468907799396
 20
80.10442334798611
 30
0.0
 10
176.4925916910495
 20
80.01850546084549
 30
0.0
  0
SPLINE
  5
149
330
1F
100
AcDbEntity
  8
0
  6
Continuous
 62
     7
370
    25
100
AcDbSpline
210
0.0
220
0.0
230
1.0
 70
     8
 71
     3
 72
    12
 73
     8
 74
     0
 42
0.00000001
 43
0.00000001
 40
0.0
 40
0.0
 40
0.0
 40
0.0
 40
0.2500000000000001
 40
0.2500000000000001
 40
0.5000000000000002
 40
0.5000000000000002
 40
1.0
 40
1.0
 40
1.0
 40
1.0
 10
177.1703130963097
 20
82.76091923949622
 30
0.0
 10
177.1703130963097
 20
82.5651769766167
 30
0.0
 10
177.1544701602208
 20
82.36851036742614
 30
0.0
 10
177.0929672999831
 20
81.97924214009785
 30
0.0
 10
177.0473636589394
 20
81.78583810714493
 30
0.0
 10
176.8709126414502
 20
81.20890905588818
 30
0.0
 10
176.7005152741983
 20
80.82865962268517
 30
0.0
 10
176.4925916910495
 20
80.45151816273771
 30
0.0
  0
SPLINE
  5
14A
330
1F
100
AcDbEntity
  8
0
  6
Continuous
 62
     7
370
    25
100
AcDbSpline
210
0.0
220
0.0
230
1.0
 70
     8
 71
     3
 72
    10
 73
     6
 74
     0
 42
0.00000001
 43
0.00000001
 40
0.0
 40
0.0
 40
0.0
 40
0.0
 40
0.5
 40
0.5
 40
1.0
 40
1.0
 40
1.0
 40
1.0
 10
194.348254123752
 20
70.78090115381147
 30
0.0
 10
194.3245787293276
 20
70.69501409200902
 30
0.0
 10
194.3114876194431
 20
70.60760688302888
 30
0.0
 10
194.3114012981548
 20
70.45497044043515
 30
0.0
 10
194.3245702320986
 20
70.39084739548956
 30
0.0
 10
194.3482541237521
 20
70.34788845191925
 30
0.0
  0
SPLINE
  5
14B
330
1F
100
AcDbEntity
  8
0
  6
Continuous
 62
     7
370
    25
100
AcDbSpline
210
0.0
220
0.0
230
1.0
 70
     8
 71
     3
 72
    10
 73
     6
 74
     0
 42
0.00000001
 43
0.00000001
 40
0.0
 40
0.0
 40
0.0
 40
0.0
 40
0.5
 40
0.5
 40
1.0
 40
1.0
 40
1.0
 40
1.0
 10
194.3482541237521
 20
80.45151816273771
 30
0.0
 10
194.3245787293277
 20
80.40857463183649
 30
0.0
 10
194.3114876194431
 20
80.34513218721236
 30
0.0
 10
194.3114012981548
 20
80.1926533500934
 30
0.0
 10
194.3245702320986
 20
80.10442334798611
 30
0.0
 10
194.3482541237521
 20
80.01850546084549
 30
0.0
  0
SPLINE
  5
14C
330
1F
100
AcDbEntity
  8
0
  6
Continuous
 62
     7
370
    25
100
AcDbSpline
210
0.0
220
0.0
230
1.0
 70
     8
 71
     3
 72
    16
 73
    12
 74
     0
 42
0.00000001
 43
0.00000001
 40
0.0
 40
0.0
 40
0.0
 40
0.0
 40
0.2500000000000001
 40
0.2500000000000001
 40
0.5000000000000001
 40
0.5000000000000001
 40
0.6250000000000001
 40
0.6250000000000001
 40
0.7500000000000002
 40
0.7500000000000002
 40
1.0
 40
1.0
 40
1.0
 40
1.0
 10
194.3482541237521
 20
85.07032031625472
 30
0.0
 10
194.5562695718579
 20
84.69301222737822
 30
0.0
 10
194.7264758768308
 20
84.31298849700401
 30
0.0
 10
194.9614119083984
 20
83.54536518159333
 30
0.0
 10
195.0254840400621
 20
83.15771836480452
 30
0.0
 10
195.0262169889831
 20
82.56939781291668
 30
0.0
 10
195.0105575089001
 20
82.37232462036104
 30
0.0
 10
194.9492823822631
 20
81.98226764280693
 30
0.0
 10
194.903726109764
 20
81.7884747422189
 30
0.0
 10
194.7272400770078
 20
81.21039375745546
 30
0.0
 10
194.556583623522
 20
80.82939589312065
 30
0.0
 10
194.3482541237521
 20
80.45151816273771
 30
0.0
  0
SPLINE
  5
14D
330
1F
100
AcDbEntity
  8
0
  6
Continuous
 62
     7
370
    25
100
AcDbSpline
210
0.0
220
0.0
230
1.0
 70
     8
 71
     3
 72
    10
 73
     6
 74
     0
 42
0.00000001
 43
0.00000001
 40
0.0
 40
0.0
 40
0.0
 40
0.0
 40
0.1601790552921226
 40
0.7197651707803578
 40
1.0
 40
1.0
 40
1.0
 40
1.0
 10
194.3140246906352
 20
85.13259859500447
 30
0.0
 10
194.313261900542
 20
85.13399082303083
 30
0.0
 10
194.3098343004682
 20
85.14024680475914
 30
0.0
 10
194.3243417652665
 20
85.11373954003125
 30
0.0
 10
194.3422713183843
 20
85.08118368488608
 30
0.0
 10
194.3482541237521
 20
85.07032031625472
 30
0.0
  0
SPLINE
  5
14E
330
1F
100
AcDbEntity
  8
0
  6
Continuous
 62
     7
370
    25
100
AcDbSpline
210
0.0
220
0.0
230
1.0
 70
     8
 71
     3
 72
     9
 73
     5
 74
     0
 42
0.00000001
 43
0.00000001
 40
0.0
 40
0.0
 40
0.0
 40
0.0
 40
0.5797912171256352
 40
1.0
 40
1.0
 40
1.0
 40
1.0
 10
194.3482541237521
 20
65.72908629840225
 30
0.0
 10
194.3358955204056
 20
65.70661265016112
 30
0.0
 10
194.3145799106112
 20
65.6678510277403
 30
0.0
 10
194.3141889681085
 20
65.66711662298208
 30
0.0
 10
194.3140246906352
 20
65.6668080196525
 30
0.0
  0
SPLINE
  5
14F
330
1F
100
AcDbEntity
  8
0
  6
Continuous
 62
     7
370
    25
100
AcDbSpline
210
0.0
220
0.0
230
1.0
 70
     8
 71
     3
 72
    16
 73
    12
 74
     0
 42
0.00000001
 43
0.00000001
 40
0.0
 40
0.0
 40
0.0
 40
0.0
 40
0.2500000000000001
 40
0.2500000000000001
 40
0.5000000000000002
 40
0.5000000000000002
 40
0.6250000000000001
 40
0.6250000000000001
 40
0.7500000000000001
 40
0.7500000000000001
 40
1.0
 40
1.0
 40
1.0
 40
1.0
 10
194.3482541237521
 20
70.34788845191925
 30
0.0
 10
194.5562695718579
 20
69.97058036304276
 30
0.0
 10
194.7264758768308
 20
69.59055663266855
 30
0.0
 10
194.9614119083984
 20
68.82293331725786
 30
0.0
 10
195.0254840400621
 20
68.43528650046906
 30
0.0
 10
195.0262169889831
 20
67.84696594858123
 30
0.0
 10
195.0105575089001
 20
67.64989275602557
 30
0.0
 10
194.9492823822631
 20
67.25983577847147
 30
0.0
 10
194.903726109764
 20
67.06604287788342
 30
0.0
 10
194.7272400770078
 20
66.48796189312
 30
0.0
 10
194.556583623522
 20
66.10696402878519
 30
0.0
 10
194.3482541237521
 20
65.72908629840225
 30
0.0
  0
LINE
  5
150
330
1F
100
AcDbEntity
  8
0
  6
Continuous
 62
     7
370
    25
100
AcDbLine
 10
195.1703130963
 20
83.6497033073
 30
0.0
 11
195.1703130963
 21
67.1497033073
 31
0.0
  0
SPLINE
  5
151
330
1F
100
AcDbEntity
  8
0
  6
Continuous
 62
     7
370
    25
100
AcDbSpline
210
0.0
220
0.0
230
1.0
 70
     8
 71
     3
 72
    10
 73
     6
 74
     0
 42
0.00000001
 43
0.00000001
 40
0.0
 40
0.0
 40
0.0
 40
0.0
 40
0.5
 40
0.5
 40
1.0
 40
1.0
 40
1.0
 40
1.0
 10
178.1184982409005
 20
67.43330676747347
 30
0.0
 10
178.1614417718017
 20
67.4096313730491
 30
0.0
 10
178.2248842164259
 20
67.39654026316445
 30
0.0
 10
178.3773630535448
 20
67.39645394187617
 30
0.0
 10
178.4655930556521
 20
67.40962287582
 30
0.0
 10
178.5515109427927
 20
67.43330676747347
 30
0.0
  0
SPLINE
  5
152
330
1F
100
AcDbEntity
  8
0
  6
Continuous
 62
     7
370
    25
100
AcDbSpline
210
0.0
220
0.0
230
1.0
 70
     8
 71
     3
 72
    10
 73
     6
 74
     0
 42
0.00000001
 43
0.00000001
 40
0.0
 40
0.0
 40
0.0
 40
0.0
 40
0.5
 40
0.5
 40
1.0
 40
1.0
 40
1.0
 40
1.0
 10
178.1184982409005
 20
64.07742471258868
 30
0.0
 10
178.1614360499997
 20
64.10109695250023
 30
0.0
 10
178.2248766398919
 20
64.1141909424355
 30
0.0
 10
178.3773657854007
 20
64.11427780989693
 30
0.0
 10
178.4655951746041
 20
64.10110802013757
 30
0.0
 10
178.5515109427927
 20
64.07742471258868
 30
0.0
  0
LINE
  5
153
330
1F
100
AcDbEntity
  8
0
  6
Continuous
 62
     7
370
    25
100
AcDbLine
 10
178.1184982409
 20
64.0774247126
 30
0.0
 11
178.1184982409
 21
67.4333067675
 31
0.0
  0
SPLINE
  5
154
330
1F
100
AcDbEntity
  8
0
  6
Continuous
 62
     7
370
    25
100
AcDbSpline
210
0.0
220
0.0
230
1.0
 70
     8
 71
     3
 72
    10
 73
     6
 74
     0
 42
0.00000001
 43
0.00000001
 40
0.0
 40
0.0
 40
0.0
 40
0.0
 40
0.5
 40
0.5
 40
1.0
 40
1.0
 40
1.0
 40
1.0
 10
187.7891152498267
 20
67.43330676747345
 30
0.0
 10
187.8750023116293
 20
67.40963137304905
 30
0.0
 10
187.9624095206095
 20
67.39654026316443
 30
0.0
 10
188.1150459632033
 20
67.3964539418762
 30
0.0
 10
188.1791690081491
 20
67.40962287582015
 30
0.0
 10
188.2221279517193
 20
67.4333067674737
 30
0.0
  0
LINE
  5
155
330
1F
100
AcDbEntity
  8
0
  6
Continuous
 62
     7
370
    25
100
AcDbLine
 10
188.2221279517
 20
67.4333067675
 30
0.0
 11
188.2221279517
 21
64.0774247126
 31
0.0
  0
SPLINE
  5
156
330
1F
100
AcDbEntity
  8
0
  6
Continuous
 62
     7
370
    25
100
AcDbSpline
210
0.0
220
0.0
230
1.0
 70
     8
 71
     3
 72
    10
 73
     6
 74
     0
 42
0.00000001
 43
0.00000001
 40
0.0
 40
0.0
 40
0.0
 40
0.0
 40
0.5
 40
0.5
 40
1.0
 40
1.0
 40
1.0
 40
1.0
 10
187.7891152498267
 20
64.07742471258868
 30
0.0
 10
187.8749968923332
 20
64.10109861314463
 30
0.0
 10
187.9624060982986
 20
64.11419117032375
 30
0.0
 10
188.1150485833735
 20
64.11427758430605
 30
0.0
 10
188.1791715684559
 20
64.10110719270742
 30
0.0
 10
188.2221279517189
 20
64.07742471258868
 30
0.0
  0
LINE
  5
157
330
1F
100
AcDbEntity
  8
0
  6
Continuous
 62
     7
370
    25
100
AcDbLine
 10
194.3482541238
 20
70.3478884519
 30
0.0
 11
189.8480345016
 21
70.3478884519
 31
0.0
  0
SPLINE
  5
158
330
1F
100
AcDbEntity
  8
0
  6
Continuous
 62
     7
370
    25
100
AcDbSpline
210
0.0
220
0.0
230
1.0
 70
     8
 71
     3
 72
    10
 73
     6
 74
     0
 42
0.00000001
 43
0.00000001
 40
0.0
 40
0.0
 40
0.0
 40
0.0
 40
0.5
 40
0.5
 40
1.0
 40
1.0
 40
1.0
 40
1.0
 10
189.8480345015666
 20
70.34788845191925
 30
0.0
 10
189.871709895991
 20
70.39083198282042
 30
0.0
 10
189.8848010058789
 20
70.4542744274442
 30
0.0
 10
189.8848873271672
 20
70.60675326456328
 30
0.0
 10
189.8717183932234
 20
70.69498326667072
 30
0.0
 10
189.8480345015699
 20
70.78090115381146
 30
0.0
  0
SPLINE
  5
159
330
1F
100
AcDbEntity
  8
0
  6
Continuous
 62
     7
370
    25
100
AcDbSpline
210
0.0
220
0.0
230
1.0
 70
     8
 71
     3
 72
     8
 73
     4
 74
     0
 42
0.00000001
 43
0.00000001
 40
0.0
 40
0.0
 40
0.0
 40
0.0
 40
1.0
 40
1.0
 40
1.0
 40
1.0
 10
175.8809369116931
 20
68.11032712269974
 30
0.0
 10
176.1899540543349
 20
68.21133223052988
 30
0.0
 10
176.5052718106528
 20
68.30798901959581
 30
0.0
 10
176.8277511374959
 20
68.39970330732848
 30
0.0
  0
SPLINE
  5
15A
330
1F
100
AcDbEntity
  8
0
  6
Continuous
 62
     7
370
    25
100
AcDbSpline
210
0.0
220
0.0
230
1.0
 70
     8
 71
     3
 72
    12
 73
     8
 74
     0
 42
0.00000001
 43
0.00000001
 40
0.0
 40
0.0
 40
0.0
 40
0.0
 40
0.2500000000000002
 40
0.2500000000000002
 40
0.5000000000000004
 40
0.5000000000000004
 40
1.0
 40
1.0
 40
1.0
 40
1.0
 10
175.8809369116879
 20
68.11032712269362
 30
0.0
 10
176.070963086991
 20
68.10661863683718
 30
0.0
 10
176.2611781496769
 20
68.08803613399951
 30
0.0
 10
176.6381149088093
 20
68.02316909703336
 30
0.0
 10
176.8254377000688
 20
67.9769035437831
 30
0.0
 10
177.3843476563829
 20
67.80117901347613
 30
0.0
 10
177.7528833144932
 20
67.63487560469939
 30
0.0
 10
178.1184982409005
 20
67.43330676747347
 30
0.0
  0
SPLINE
  5
15B
330
1F
100
AcDbEntity
  8
0
  6
Continuous
 62
     7
370
    25
100
AcDbSpline
210
0.0
220
0.0
230
1.0
 70
     8
 71
     3
 72
    10
 73
     6
 74
     0
 42
0.00000001
 43
0.00000001
 40
0.0
 40
0.0
 40
0.0
 40
0.0
 40
0.5
 40
0.5
 40
1.0
 40
1.0
 40
1.0
 40
1.0
 10
172.3480345015699
 20
70.78090115381147
 30
0.0
 10
172.3717084021258
 20
70.695019511305
 30
0.0
 10
172.384800959305
 20
70.60761030533958
 30
0.0
 10
172.3848873732873
 20
70.45496782026466
 30
0.0
 10
172.3717169816886
 20
70.39084483518228
 30
0.0
 10
172.3480345015699
 20
70.34788845191925
 30
0.0
  0
SPLINE
  5
15C
330
1F
100
AcDbEntity
  8
0
  6
Continuous
 62
     7
370
    25
100
AcDbSpline
210
0.0
220
0.0
230
1.0
 70
     8
 71
     3
 72
    12
 73
     8
 74
     0
 42
0.00000001
 43
0.00000001
 40
0.0
 40
0.0
 40
0.0
 40
0.0
 40
0.2499999999999999
 40
0.2499999999999999
 40
0.4999999999999998
 40
0.4999999999999998
 40
1.0
 40
1.0
 40
1.0
 40
1.0
 10
171.6703130963097
 20
68.03848737516074
 30
0.0
 10
171.6703130963097
 20
68.23349085516654
 30
0.0
 10
171.6860594263317
 20
68.43002551419096
 30
0.0
 10
171.7475044509171
 20
68.8194452017965
 30
0.0
 10
171.7930932101708
 20
69.01292989485677
 30
0.0
 10
171.9695442124274
 20
69.59011349361236
 30
0.0
 10
172.1400019143909
 20
69.97054927539533
 30
0.0
 10
172.3480345015698
 20
70.34788845191926
 30
0.0
  0
LINE
  5
15D
330
1F
100
AcDbEntity
  8
0
  6
Continuous
 62
     7
370
    25
100
AcDbLine
 10
171.6703130963
 20
75.3997033073
 30
0.0
 11
171.6703130963
 21
68.0384873752
 31
0.0
  0
SPLINE
  5
15E
330
1F
100
AcDbEntity
  8
0
  6
Continuous
 62
     7
370
    25
100
AcDbSpline
210
0.0
220
0.0
230
1.0
 70
     8
 71
     3
 72
    10
 73
     6
 74
     0
 42
0.00000001
 43
0.00000001
 40
0.0
 40
0.0
 40
0.0
 40
0.0
 40
0.5
 40
0.5
 40
1.0
 40
1.0
 40
1.0
 40
1.0
 10
172.3480345015694
 20
80.45151816273768
 30
0.0
 10
172.1392245769032
 20
80.83026731012896
 30
0.0
 10
171.9686904371559
 20
81.21147258654027
 30
0.0
 10
171.733904632137
 20
81.98070320772804
 30
0.0
 10
171.6703130963097
 20
82.36877091252637
 30
0.0
 10
171.6703130963097
 20
82.76091923949622
 30
0.0
  0
SPLINE
  5
15F
330
1F
100
AcDbEntity
  8
0
  6
Continuous
 62
     7
370
    25
100
AcDbSpline
210
0.0
220
0.0
230
1.0
 70
     8
 71
     3
 72
    10
 73
     6
 74
     0
 42
0.00000001
 43
0.00000001
 40
0.0
 40
0.0
 40
0.0
 40
0.0
 40
0.5
 40
0.5
 40
1.0
 40
1.0
 40
1.0
 40
1.0
 10
172.3480345015699
 20
80.45151816273771
 30
0.0
 10
172.3717067414815
 20
80.40858035363847
 30
0.0
 10
172.3848007314167
 20
80.34513976374627
 30
0.0
 10
172.3848875988782
 20
80.19265061823744
 30
0.0
 10
172.3717178091188
 20
80.10442122903412
 30
0.0
 10
172.3480345015699
 20
80.01850546084549
 30
0.0
  0
LINE
  5
160
330
1F
100
AcDbEntity
  8
0
  6
Continuous
 62
     7
370
    25
100
AcDbLine
 10
171.6703130963
 20
75.3997033073
 30
0.0
 11
171.6703130963
 21
82.7609192395
 31
0.0
  0
LINE
  5
161
330
1F
100
AcDbEntity
  8
0
  6
Continuous
 62
     7
370
    25
100
AcDbLine
 10
179.1165520898
 20
74.8252714508
 30
0.0
 11
179.7239004486
 21
74.8252714508
 31
0.0
  0
ELLIPSE
  5
162
330
1F
100
AcDbEntity
  8
0
  6
Continuous
 62
     7
370
    25
100
AcDbEllipse
 10
179.1165520898
 20
74.9061131679
 30
0.0
 11
0.08480161849064416
 21
-1.421085471520200E-14
 31
0.0
210
0.0
220
0.0
230
1.0
 40
0.9533039403
 41
2.798568711308549
 42
4.712388980384528
  0
ELLIPSE
  5
163
330
1F
100
AcDbEntity
  8
0
  6
Continuous
 62
     7
370
    25
100
AcDbEllipse
 10
179.7239004486
 20
74.9061131679
 30
0.0
 11
-0.08480161849067258
 21
-4.263256414560601E-14
 31
0.0
210
0.0
220
0.0
230
1.0
 40
0.9533039403
 41
1.570796326794417
 42
3.484616592149421
  0
LINE
  5
164
330
1F
100
AcDbEntity
  8
0
  6
Continuous
 62
     7
370
    25
100
AcDbLine
 10
179.3403650327
 20
75.7438857968
 30
0.0
 11
179.0366908515
 21
74.9333031799
 31
0.0
  0
ELLIPSE
  5
165
330
1F
100
AcDbEntity
  8
0
  6
Continuous
 62
     7
370
    25
100
AcDbEllipse
 10
179.420226271
 20
75.7166957849
 30
0.0
 11
0.08480161849064416
 21
1.421085471520200E-14
 31
0.0
210
0.0
220
0.0
230
1.0
 40
0.9533039403
 41
0.3430239404204655
 42
2.798568713169093
  0
LINE
  5
166
330
1F
100
AcDbEntity
  8
0
  6
Continuous
 62
     7
370
    25
100
AcDbLine
 10
179.8037616869
 20
74.9333031796
 30
0.0
 11
179.5000875093
 21
75.7438857968
 31
0.0
  0
LINE
  5
167
330
1F
100
AcDbEntity
  8
0
  6
Continuous
 62
     7
370
    25
100
AcDbLine
 10
189.1703130963
 20
82.7609192395
 30
0.0
 11
189.1703130963
 21
79.3997033073
 31
0.0
  0
SPLINE
  5
168
330
1F
100
AcDbEntity
  8
0
  6
Continuous
 62
     7
370
    25
100
AcDbSpline
210
0.0
220
0.0
230
1.0
 70
     8
 71
     3
 72
    10
 73
     6
 74
     0
 42
0.00000001
 43
0.00000001
 40
0.0
 40
0.0
 40
0.0
 40
0.0
 40
0.5
 40
0.5
 40
1.0
 40
1.0
 40
1.0
 40
1.0
 10
189.8480345015699
 20
80.45151816273768
 30
0.0
 10
189.6396137487525
 20
80.82956141213984
 30
0.0
 10
189.469149913475
 20
81.21033091693569
 30
0.0
 10
189.2341674785367
 20
81.97947944249324
 30
0.0
 10
189.1703130963097
 20
82.36790617066849
 30
0.0
 10
189.1703130963097
 20
82.76091923949622
 30
0.0
  0
SPLINE
  5
169
330
1F
100
AcDbEntity
  8
0
  6
Continuous
 62
     7
370
    25
100
AcDbSpline
210
0.0
220
0.0
230
1.0
 70
     8
 71
     3
 72
    10
 73
     6
 74
     0
 42
0.00000001
 43
0.00000001
 40
0.0
 40
0.0
 40
0.0
 40
0.0
 40
0.5
 40
0.5
 40
1.0
 40
1.0
 40
1.0
 40
1.0
 10
189.8480345015699
 20
80.01850546084549
 30
0.0
 10
189.8717098959943
 20
80.10439252264794
 30
0.0
 10
189.8848010058789
 20
80.19179973162804
 30
0.0
 10
189.8848873271672
 20
80.34443617422178
 30
0.0
 10
189.8717183932234
 20
80.40855921916736
 30
0.0
 10
189.8480345015699
 20
80.45151816273768
 30
0.0
  0
SPLINE
  5
16A
330
1F
100
AcDbEntity
  8
0
  6
Continuous
 62
     7
370
    25
100
AcDbSpline
210
0.0
220
0.0
230
1.0
 70
     8
 71
     3
 72
    12
 73
     8
 74
     0
 42
0.00000001
 43
0.00000001
 40
0.0
 40
0.0
 40
0.0
 40
0.0
 40
0.2499999999999998
 40
0.2499999999999998
 40
0.4999999999999996
 40
0.4999999999999996
 40
1.0
 40
1.0
 40
1.0
 40
1.0
 10
190.5315290284774
 20
63.39970330732849
 30
0.0
 10
190.3365255484716
 20
63.39970330732847
 30
0.0
 10
190.1399908894472
 20
63.41544963735043
 30
0.0
 10
189.7505712018417
 20
63.47689466193587
 30
0.0
 10
189.5570865087814
 20
63.52248342118959
 30
0.0
 10
188.9799029100258
 20
63.6989344234462
 30
0.0
 10
188.5994671282428
 20
63.86939212540968
 30
0.0
 10
188.2221279517189
 20
64.07742471258852
 30
0.0
  0
LINE
  5
16B
330
1F
100
AcDbEntity
  8
0
  6
Continuous
 62
     7
370
    25
100
AcDbLine
 10
183.1703130963
 20
63.3997033073
 30
0.0
 11
190.5315290285
 21
63.3997033073
 31
0.0
  0
SPLINE
  5
16C
330
1F
100
AcDbEntity
  8
0
  6
Continuous
 62
     7
370
    25
100
AcDbSpline
210
0.0
220
0.0
230
1.0
 70
     8
 71
     3
 72
     8
 73
     4
 74
     0
 42
0.00000001
 43
0.00000001
 40
0.0
 40
0.0
 40
0.0
 40
0.0
 40
1.0
 40
1.0
 40
1.0
 40
1.0
 10
189.2916965878059
 20
68.98958177400324
 30
0.0
 10
189.2505813121646
 20
69.12561216849278
 30
0.0
 10
189.2100923292967
 20
69.26231623313022
 30
0.0
 10
189.1703130963097
 20
69.39970330732848
 30
0.0
  0
LINE
  5
16D
330
1F
100
AcDbEntity
  8
0
  6
Continuous
 62
     7
370
    25
100
AcDbLine
 10
189.1703130963
 20
71.3997033073
 30
0.0
 11
189.1703130963
 21
69.3997033073
 31
0.0
  0
SPLINE
  5
16E
330
1F
100
AcDbEntity
  8
0
  6
Continuous
 62
     7
370
    25
100
AcDbSpline
210
0.0
220
0.0
230
1.0
 70
     8
 71
     3
 72
     8
 73
     4
 74
     0
 42
0.00000001
 43
0.00000001
 40
0.0
 40
0.0
 40
0.0
 40
0.0
 40
1.0
 40
1.0
 40
1.0
 40
1.0
 10
189.2916965878059
 20
68.98958177400324
 30
0.0
 10
189.4073291978349
 20
69.448132706061
 30
0.0
 10
189.6012186026554
 20
69.90020230181925
 30
0.0
 10
189.8480345015698
 20
70.347888451919
 30
0.0
  0
LINE
  5
16F
330
1F
100
AcDbEntity
  8
0
  6
Continuous
 62
     7
370
    25
100
AcDbLine
 10
177.1703130963
 20
71.3997033073
 30
0.0
 11
177.1703130963
 21
69.3997033073
 31
0.0
  0
SPLINE
  5
170
330
1F
100
AcDbEntity
  8
0
  6
Continuous
 62
     7
370
    25
100
AcDbSpline
210
0.0
220
0.0
230
1.0
 70
     8
 71
     3
 72
     8
 73
     4
 74
     0
 42
0.00000001
 43
0.00000001
 40
0.0
 40
0.0
 40
0.0
 40
0.0
 40
1.0
 40
1.0
 40
1.0
 40
1.0
 10
177.1703130963097
 20
69.39970330732848
 30
0.0
 10
177.1305344381196
 20
69.26231821832837
 30
0.0
 10
177.0900454752913
 20
69.1256141365166
 30
0.0
 10
177.0489296048136
 20
68.98958177400323
 30
0.0
  0
SPLINE
  5
171
330
1F
100
AcDbEntity
  8
0
  6
Continuous
 62
     7
370
    25
100
AcDbSpline
210
0.0
220
0.0
230
1.0
 70
     8
 71
     3
 72
     8
 73
     4
 74
     0
 42
0.00000001
 43
0.00000001
 40
0.0
 40
0.0
 40
0.0
 40
0.0
 40
1.0
 40
1.0
 40
1.0
 40
1.0
 10
176.4925916910495
 20
70.34788845191925
 30
0.0
 10
176.7397654719335
 20
69.89955315886792
 30
0.0
 10
176.9334871402374
 20
69.44737866812434
 30
0.0
 10
177.0489296048136
 20
68.98958177400323
 30
0.0
  0
SPLINE
  5
172
330
1F
100
AcDbEntity
  8
0
  6
Continuous
 62
     7
370
    25
100
AcDbSpline
210
0.0
220
0.0
230
1.0
 70
     8
 71
     3
 72
    10
 73
     6
 74
     0
 42
0.00000001
 43
0.00000001
 40
0.0
 40
0.0
 40
0.0
 40
0.0
 40
0.5
 40
0.5
 40
1.0
 40
1.0
 40
1.0
 40
1.0
 10
176.4925916910495
 20
70.78090115381147
 30
0.0
 10
176.4689162966251
 20
70.69501409200902
 30
0.0
 10
176.4558251867405
 20
70.6076068830289
 30
0.0
 10
176.4557388654522
 20
70.45497044043515
 30
0.0
 10
176.468907799396
 20
70.39084739548956
 30
0.0
 10
176.4925916910495
 20
70.34788845191925
 30
0.0
  0
LINE
  5
173
330
1F
100
AcDbEntity
  8
0
  6
Continuous
 62
     7
370
    25
100
AcDbLine
 10
189.8480345016
 20
80.4515181627
 30
0.0
 11
194.3482541238
 21
80.4515181627
 31
0.0
  0
LINE
  5
174
330
1F
100
AcDbEntity
  8
0
  6
Continuous
 62
     7
370
    25
100
AcDbLine
 10
175.8090971641
 20
63.3997033073
 30
0.0
 11
183.1703130963
 21
63.3997033073
 31
0.0
  0
SPLINE
  5
175
330
1F
100
AcDbEntity
  8
0
  6
Continuous
 62
     7
370
    25
100
AcDbSpline
210
0.0
220
0.0
230
1.0
 70
     8
 71
     3
 72
    10
 73
     6
 74
     0
 42
0.00000001
 43
0.00000001
 40
0.0
 40
0.0
 40
0.0
 40
0.0
 40
0.5
 40
0.5
 40
1.0
 40
1.0
 40
1.0
 40
1.0
 10
178.1184982409005
 20
64.07742471258821
 30
0.0
 10
177.7397490935092
 20
63.86861478792194
 30
0.0
 10
177.3585438170979
 20
63.6980806481747
 30
0.0
 10
176.5893131959101
 20
63.46329484315577
 30
0.0
 10
176.2012454911118
 20
63.39970330732849
 30
0.0
 10
175.809097164142
 20
63.39970330732849
 30
0.0
  0
LINE
  5
176
330
1F
100
AcDbEntity
  8
0
  6
Continuous
 62
     7
370
    25
100
AcDbLine
 10
172.3480345016
 20
80.4515181627
 30
0.0
 11
176.492591691
 21
80.4515181627
 31
0.0
  0
SPLINE
  5
177
330
1F
100
AcDbEntity
  8
0
  6
Continuous
 62
     7
370
    25
100
AcDbSpline
210
0.0
220
0.0
230
1.0
 70
     8
 71
     3
 72
     8
 73
     4
 74
     0
 42
0.00000001
 43
0.00000001
 40
0.0
 40
0.0
 40
0.0
 40
0.0
 40
1.0
 40
1.0
 40
1.0
 40
1.0
 10
189.5128750551236
 20
68.39970330732848
 30
0.0
 10
189.8353543819728
 20
68.30798901959402
 30
0.0
 10
190.1506721382968
 20
68.21133223052611
 30
0.0
 10
190.4596892809443
 20
68.11032712269386
 30
0.0
  0
SPLINE
  5
178
330
1F
100
AcDbEntity
  8
0
  6
Continuous
 62
     7
370
    25
100
AcDbSpline
210
0.0
220
0.0
230
1.0
 70
     8
 71
     3
 72
    10
 73
     6
 74
     0
 42
0.00000001
 43
0.00000001
 40
0.0
 40
0.0
 40
0.0
 40
0.0
 40
0.5
 40
0.5
 40
1.0
 40
1.0
 40
1.0
 40
1.0
 10
188.2221279517192
 20
67.43330676747362
 30
0.0
 10
188.5886458985597
 20
67.63537345302456
 30
0.0
 10
188.9577261240256
 20
67.8017662252952
 30
0.0
 10
189.702978472253
 20
68.03581319916526
 30
0.0
 10
190.0791912442008
 20
68.10290145312409
 30
0.0
 10
190.4596892809443
 20
68.11032712269386
 30
0.0
  0
LINE
  5
179
330
1F
100
AcDbEntity
  8
0
  6
Continuous
 62
     7
370
    25
100
AcDbLine
 10
176.492591691
 20
70.3478884519
 30
0.0
 11
172.3480345016
 21
70.3478884519
 31
0.0
  0
SPLINE
  5
17A
330
1F
100
AcDbEntity
  8
0
  6
Continuous
 62
     7
370
    25
100
AcDbSpline
210
0.0
220
0.0
230
1.0
 70
     8
 71
     3
 72
    12
 73
     8
 74
     0
 42
0.00000001
 43
0.00000001
 40
0.0
 40
0.0
 40
0.0
 40
0.0
 40
0.2499999999999999
 40
0.2499999999999999
 40
0.4999999999999998
 40
0.4999999999999998
 40
1.0
 40
1.0
 40
1.0
 40
1.0
 10
189.1703130963097
 20
82.76091923949622
 30
0.0
 10
189.1703130963097
 20
82.95666150237572
 30
0.0
 10
189.1861560323987
 20
83.15332811156628
 30
0.0
 10
189.2476588926363
 20
83.54259633889457
 30
0.0
 10
189.29326253368
 20
83.73600037184748
 30
0.0
 10
189.4697135511692
 20
84.31292942310425
 30
0.0
 10
189.6401109184211
 20
84.69317885630726
 30
0.0
 10
189.8480345015699
 20
85.07032031625472
 30
0.0
  0
LINE
  5
17B
330
1F
100
AcDbEntity
  8
0
  6
Continuous
 62
     7
370
    25
100
AcDbLine
 10
194.3482541238
 20
85.0703203163
 30
0.0
 11
189.8480345016
 21
85.0703203163
 31
0.0
  0
ELLIPSE
  5
17C
330
1F
100
AcDbEntity
  8
0
  6
Continuous
 62
     7
370
    25
100
AcDbEllipse
 10
183.1703130963
 20
65.5847487311
 30
0.0
 11
8.5
 21
0.0
 31
0.0
210
0.0
220
0.0
230
1.0
 40
0.5773502692
 41
2.374833212873084
 42
2.530692279913059
  0
LINE
  5
17D
330
1F
100
AcDbEntity
  8
0
  6
Continuous
 62
     7
370
    25
100
AcDbLine
 10
175.8809369117
 20
68.1103271227
 30
0.0
 11
173.4996960874
 21
65.7290862984
 31
0.0
  0
LINE
  5
17E
330
1F
100
AcDbEntity
  8
0
  6
Continuous
 62
     7
370
    25
100
AcDbLine
 10
172.3480345016
 20
65.7290862984
 30
0.0
 11
173.4996960874
 21
65.7290862984
 31
0.0
  0
SPLINE
  5
17F
330
1F
100
AcDbEntity
  8
0
  6
Continuous
 62
     7
370
    25
100
AcDbSpline
210
0.0
220
0.0
230
1.0
 70
     8
 71
     3
 72
    10
 73
     6
 74
     0
 42
0.00000001
 43
0.00000001
 40
0.0
 40
0.0
 40
0.0
 40
0.0
 40
0.5
 40
0.5
 40
1.0
 40
1.0
 40
1.0
 40
1.0
 10
172.3480345015694
 20
65.72908629840221
 30
0.0
 10
172.1392245769032
 20
66.1078354457935
 30
0.0
 10
171.9686904371559
 20
66.4890407222048
 30
0.0
 10
171.733904632137
 20
67.2582713433926
 30
0.0
 10
171.6703130963097
 20
67.64633904819091
 30
0.0
 10
171.6703130963097
 20
68.03848737516074
 30
0.0
  0
ELLIPSE
  5
180
330
1F
100
AcDbEntity
  8
0
  6
Continuous
 62
     7
370
    25
100
AcDbEllipse
 10
183.1703130963
 20
65.5847487311
 30
0.0
 11
8.5
 21
0.0
 31
0.0
210
0.0
220
0.0
230
1.0
 40
0.5773502692
 41
0.6109003736767357
 42
0.7667594407167105
  0
LINE
  5
181
330
1F
100
AcDbEntity
  8
0
  6
Continuous
 62
     7
370
    25
100
AcDbLine
 10
192.8409301052
 20
65.7290862984
 30
0.0
 11
194.3482541238
 21
65.7290862984
 31
0.0
  0
LINE
  5
182
330
1F
100
AcDbEntity
  8
0
  6
Continuous
 62
     7
370
    25
100
AcDbLine
 10
192.8409301052
 20
65.7290862984
 30
0.0
 11
190.4596892809
 21
68.1103271227
 31
0.0
  0
SPLINE
  5
183
330
1F
100
AcDbEntity
  8
0
  6
Continuous
 62
     7
370
    25
100
AcDbSpline
210
0.0
220
0.0
230
1.0
 70
     8
 71
     3
 72
    12
 73
     8
 74
     0
 42
0.00000001
 43
0.00000001
 40
0.0
 40
0.0
 40
0.0
 40
0.0
 40
0.2500000000000002
 40
0.2500000000000002
 40
0.5000000000000001
 40
0.5000000000000001
 40
1.0
 40
1.0
 40
1.0
 40
1.0
 10
175.809097164142
 20
63.39970330732849
 30
0.0
 10
175.6140936841362
 20
63.39970330732849
 30
0.0
 10
175.4175590251118
 20
63.41544963735043
 30
0.0
 10
175.0281393375062
 20
63.47689466193587
 30
0.0
 10
174.834654644446
 20
63.52248342118961
 30
0.0
 10
174.2574710456904
 20
63.6989344234462
 30
0.0
 10
173.8770352639074
 20
63.86939212540968
 30
0.0
 10
173.4996960873835
 20
64.07742471258852
 30
0.0
  0
LINE
  5
184
330
1F
100
AcDbEntity
  8
0
  6
Continuous
 62
     7
370
    25
100
AcDbLine
 10
173.4996960874
 20
65.7290862984
 30
0.0
 11
173.4996960874
 21
64.0774247126
 31
0.0
  0
SPLINE
  5
185
330
1F
100
AcDbEntity
  8
0
  6
Continuous
 62
     7
370
    25
100
AcDbSpline
210
0.0
220
0.0
230
1.0
 70
     8
 71
     3
 72
    12
 73
     8
 74
     0
 42
0.00000001
 43
0.00000001
 40
0.0
 40
0.0
 40
0.0
 40
0.0
 40
0.2499999999999999
 40
0.2499999999999999
 40
0.5
 40
0.5
 40
1.0
 40
1.0
 40
1.0
 40
1.0
 10
171.6703130963097
 20
82.76091923949622
 30
0.0
 10
171.6703130963097
 20
82.955922719502
 30
0.0
 10
171.6860594263317
 20
83.15245737852642
 30
0.0
 10
171.7475044509171
 20
83.54187706613196
 30
0.0
 10
171.7930932101708
 20
83.73536175919222
 30
0.0
 10
171.9695442124274
 20
84.31254535794783
 30
0.0
 10
172.1400019143909
 20
84.69298113973079
 30
0.0
 10
172.3480345015698
 20
85.07032031625472
 30
0.0
  0
LINE
  5
186
330
1F
100
AcDbEntity
  8
0
  6
Continuous
 62
     7
370
    25
100
AcDbLine
 10
176.492591691
 20
85.0703203163
 30
0.0
 11
172.3480345016
 21
85.0703203163
 31
0.0
  0
SPLINE
  5
187
330
1F
100
AcDbEntity
  8
0
  6
Continuous
 62
     7
370
    25
100
AcDbSpline
210
0.0
220
0.0
230
1.0
 70
     8
 71
     3
 72
    10
 73
     6
 74
     0
 42
0.00000001
 43
0.00000001
 40
0.0
 40
0.0
 40
0.0
 40
0.0
 40
0.5
 40
0.5
 40
1.0
 40
1.0
 40
1.0
 40
1.0
 10
176.4925916910495
 20
85.07032031625474
 30
0.0
 10
176.7010124438669
 20
84.69227706685257
 30
0.0
 10
176.8714762791444
 20
84.31150756205673
 30
0.0
 10
177.1064587140827
 20
83.54235903649919
 30
0.0
 10
177.1703130963097
 20
83.15393230832395
 30
0.0
 10
177.1703130963097
 20
82.76091923949622
 30
0.0
  0
LINE
  5
188
330
1F
100
AcDbEntity
  8
0
  6
Continuous
 62
     7
370
    25
100
AcDbLine
 10
192.8409301052
 20
64.0774247126
 30
0.0
 11
192.8409301052
 21
65.7290862984
 31
0.0
  0
SPLINE
  5
189
330
1F
100
AcDbEntity
  8
0
  6
Continuous
 62
     7
370
    25
100
AcDbSpline
210
0.0
220
0.0
230
1.0
 70
     8
 71
     3
 72
    10
 73
     6
 74
     0
 42
0.00000001
 43
0.00000001
 40
0.0
 40
0.0
 40
0.0
 40
0.0
 40
0.5
 40
0.5
 40
1.0
 40
1.0
 40
1.0
 40
1.0
 10
192.8409301052359
 20
64.07742471258821
 30
0.0
 10
192.4621809578447
 20
63.86861478792196
 30
0.0
 10
192.0809756814334
 20
63.6980806481747
 30
0.0
 10
191.3117450602456
 20
63.46329484315577
 30
0.0
 10
190.9236773554473
 20
63.39970330732849
 30
0.0
 10
190.5315290284774
 20
63.39970330732849
 30
0.0
  0
LINE
  5
18A
330
1F
100
AcDbEntity
  8
0
  6
Continuous
 62
     7
370
    25
100
AcDbLine
 10
179.1703130963
 20
71.3997033073
 30
0.0
 11
177.1703130963
 21
69.3997033073
 31
0.0
  0
LINE
  5
18B
330
1F
100
AcDbEntity
  8
0
  6
Continuous
 62
     7
370
    25
100
AcDbLine
 10
176.2076920237
 20
68.3997033073
 30
0.0
 11
179.1703130963
 21
68.3997033073
 31
0.0
  0
LINE
  5
18C
330
1F
100
AcDbEntity
  8
0
  6
Continuous
 62
     7
370
    25
100
AcDbLine
 10
189.1703130963
 20
69.3997033073
 30
0.0
 11
187.1703130963
 21
71.3997033073
 31
0.0
  0
LINE
  5
18D
330
1F
100
AcDbEntity
  8
0
  6
Continuous
 62
     7
370
    25
100
AcDbLine
 10
187.1703130963
 20
68.3997033073
 30
0.0
 11
190.132934169
 21
68.3997033073
 31
0.0
  0
LINE
  5
18E
330
1F
100
AcDbEntity
  8
0
  6
Continuous
 62
     7
370
    25
100
AcDbLine
 10
177.1703130963
 20
83.3341577856
 30
0.0
 11
177.1703130963
 21
82.7609192395
 31
0.0
  0
SPLINE
  5
18F
330
1F
100
AcDbEntity
  8
0
  6
Continuous
 62
     7
370
    25
100
AcDbSpline
210
0.0
220
0.0
230
1.0
 70
     8
 71
     3
 72
    32
 73
    28
 74
     0
 42
0.00000001
 43
0.00000001
 40
0.0
 40
0.0
 40
0.0
 40
0.0
 40
0.0625000000000001
 40
0.0625000000000001
 40
0.1250000000000001
 40
0.1250000000000001
 40
0.1875000000000002
 40
0.1875000000000002
 40
0.2500000000000003
 40
0.2500000000000003
 40
0.3750000000000003
 40
0.3750000000000003
 40
0.4375000000000003
 40
0.4375000000000003
 40
0.5000000000000002
 40
0.5000000000000002
 40
0.5625000000000002
 40
0.5625000000000002
 40
0.6250000000000001
 40
0.6250000000000001
 40
0.7500000000000001
 40
0.7500000000000001
 40
0.8750000000000002
 40
0.8750000000000002
 40
0.9375000000000001
 40
0.9375000000000001
 40
1.0
 40
1.0
 40
1.0
 40
1.0
 10
189.1703130963012
 20
83.33415778554914
 30
0.0
 10
189.0134567603843
 20
83.23920080765343
 30
0.0
 10
188.8404583262287
 20
83.13644763302825
 30
0.0
 10
188.4637537396029
 20
82.91973643137999
 30
0.0
 10
188.2609009591462
 20
82.80631772088998
 30
0.0
 10
187.8349196963436
 20
82.57822758419181
 30
0.0
 10
187.6107417360556
 20
82.46292070173995
 30
0.0
 10
187.1393906424792
 20
82.23459759936517
 30
0.0
 10
186.8907051271141
 20
82.12094758323143
 30
0.0
 10
186.1201326424225
 20
81.79788355199739
 30
0.0
 10
185.5744952323403
 20
81.60498502783388
 30
0.0
 10
184.691715483844
 20
81.39339110256017
 30
0.0
 10
184.3930763839711
 20
81.33774871644243
 30
0.0
 10
183.7865747832554
 20
81.2620806470786
 30
0.0
 10
183.4764275445894
 20
81.24210740130228
 30
0.0
 10
182.8563420559057
 20
81.24244116755553
 30
0.0
 10
182.5497710184376
 20
81.26244013287831
 30
0.0
 10
181.9431162711294
 20
81.33847891907477
 30
0.0
 10
181.6407432065041
 20
81.39513201920633
 30
0.0
 10
180.7641069037512
 20
81.60591056925217
 30
0.0
 10
180.2160527717742
 20
81.79945639982392
 30
0.0
 10
179.185555504531
 20
82.23207569309972
 30
0.0
 10
178.7179954692515
 20
82.46455233779015
 30
0.0
 10
178.0797818656236
 20
82.80629033870919
 30
0.0
 10
177.8765721274337
 20
82.91990785413758
 30
0.0
 10
177.5002352010393
 20
83.13641024649382
 30
0.0
 10
177.3272565925478
 20
83.23914804293821
 30
0.0
 10
177.1703130963097
 20
83.33415778555428
 30
0.0
  0
LINE
  5
190
330
1F
100
AcDbEntity
  8
0
  6
Continuous
 62
     7
370
    25
100
AcDbLine
 10
189.1703130963
 20
83.3341577855
 30
0.0
 11
189.1703130963
 21
82.7609192395
 31
0.0
  0
LINE
  5
191
330
1F
100
AcDbEntity
  8
0
  6
Continuous
 62
     7
370
    25
100
AcDbLine
 10
176.7057610378
 20
54.0033691812
 30
0.0
 11
189.6348651549
 21
54.0033691812
 31
0.0
  0
SPLINE
  5
192
330
1F
100
AcDbEntity
  8
0
  6
Continuous
 62
     7
370
    25
100
AcDbSpline
210
0.0
220
0.0
230
1.0
 70
     8
 71
     3
 72
    11
 73
     7
 74
     0
 42
0.00000001
 43
0.00000001
 40
0.0
 40
0.0
 40
0.0
 40
0.0
 40
0.0860363962994498
 40
0.3126240132839471
 40
0.544481681962628
 40
1.0
 40
1.0
 40
1.0
 40
1.0
 10
189.3436602837767
 20
84.1926049010296
 30
0.0
 10
189.3448491007968
 20
84.19661852656796
 30
0.0
 10
189.3491688162181
 20
84.21120253726096
 30
0.0
 10
189.3179893078984
 20
84.10464631315868
 30
0.0
 10
189.2355616989905
 20
83.82409838129973
 30
0.0
 10
189.1963189427155
 20
83.52943123750786
 30
0.0
 10
189.1703130963097
 20
83.33415778554716
 30
0.0
  0
SPLINE
  5
193
330
1F
100
AcDbEntity
  8
0
  6
Continuous
 62
     7
370
    25
100
AcDbSpline
210
0.0
220
0.0
230
1.0
 70
     8
 71
     3
 72
    11
 73
     7
 74
     0
 42
0.00000001
 43
0.00000001
 40
0.0
 40
0.0
 40
0.0
 40
0.0
 40
0.3176308659260422
 40
0.6359488535530885
 40
0.8656744095322493
 40
1.0
 40
1.0
 40
1.0
 40
1.0
 10
177.1703130963097
 20
83.3341577855542
 30
0.0
 10
177.1566743574547
 20
83.4654223539051
 30
0.0
 10
177.1293673754539
 20
83.72823545146575
 30
0.0
 10
177.0413624765232
 20
84.03988082689827
 30
0.0
 10
176.9968016080794
 20
84.19362902262196
 30
0.0
 10
176.9971505834734
 20
84.19211474901685
 30
0.0
 10
176.9972793464956
 20
84.19155602066748
 30
0.0
  0
LINE
  5
194
330
1F
100
AcDbEntity
  8
0
  6
Continuous
 62
     7
370
    25
100
AcDbLine
 10
188.4203130963
 20
51.8997033073
 30
0.0
 11
177.9203130963
 21
51.8997033073
 31
0.0
  0
SPLINE
  5
195
330
1F
100
AcDbEntity
  8
0
  6
Continuous
 62
     7
370
    25
100
AcDbSpline
210
0.0
220
0.0
230
1.0
 70
     8
 71
     3
 72
    10
 73
     6
 74
     0
 42
0.00000001
 43
0.00000001
 40
0.0
 40
0.0
 40
0.0
 40
0.0
 40
0.1601790552921523
 40
0.7197651707804853
 40
1.0
 40
1.0
 40
1.0
 40
1.0
 10
176.4583622579326
 20
85.13259859500447
 30
0.0
 10
176.4575994678394
 20
85.13399082303083
 30
0.0
 10
176.4541718677656
 20
85.14024680475914
 30
0.0
 10
176.4686793325639
 20
85.11373954003125
 30
0.0
 10
176.4866088856817
 20
85.0811836848861
 30
0.0
 10
176.4925916910495
 20
85.07032031625474
 30
0.0
  0
SPLINE
  5
196
330
1F
100
AcDbEntity
  8
0
  6
Continuous
 62
     7
370
    25
100
AcDbSpline
210
0.0
220
0.0
230
1.0
 70
     8
 71
     3
 72
     9
 73
     5
 74
     0
 42
0.00000001
 43
0.00000001
 40
0.0
 40
0.0
 40
0.0
 40
0.0
 40
0.5797912171256431
 40
1.0
 40
1.0
 40
1.0
 40
1.0
 10
189.8480345015699
 20
85.07032031625472
 30
0.0
 10
189.8603931049164
 20
85.09279396449584
 30
0.0
 10
189.8817087147108
 20
85.13155558691666
 30
0.0
 10
189.8820996572136
 20
85.13228999167488
 30
0.0
 10
189.8822639346868
 20
85.13259859500447
 30
0.0
  0
SPLINE
  5
197
330
1F
100
AcDbEntity
  8
0
  6
Continuous
 62
     7
370
    25
100
AcDbSpline
210
0.0
220
0.0
230
1.0
 70
     8
 71
     3
 72
    10
 73
     6
 74
     0
 42
0.00000001
 43
0.00000001
 40
0.0
 40
0.0
 40
0.0
 40
0.0
 40
0.1593935212994522
 40
0.7189934545690309
 40
1.0
 40
1.0
 40
1.0
 40
1.0
 10
172.3822714911473
 20
85.13261239572117
 30
0.0
 10
172.3830330181448
 20
85.13400231454779
 30
0.0
 10
172.3864681196607
 20
85.14027197049472
 30
0.0
 10
172.3719734971942
 20
85.11378802867094
 30
0.0
 10
172.3540321267015
 20
85.08121062462406
 30
0.0
 10
172.3480345015699
 20
85.07032031625472
 30
0.0
  0
LINE
  5
198
330
1F
100
AcDbEntity
  8
0
  6
Continuous
 62
     7
370
    25
100
AcDbLine
 10
171.6703130963
 20
83.8997033073
 30
0.0
 11
171.6703130963
 21
82.7609192395
 31
0.0
  0
SPLINE
  5
199
330
1F
100
AcDbEntity
  8
0
  6
Continuous
 62
     7
370
    25
100
AcDbSpline
210
0.0
220
0.0
230
1.0
 70
     8
 71
     3
 72
     9
 73
     5
 74
     0
 42
0.00000001
 43
0.00000001
 40
0.0
 40
0.0
 40
0.0
 40
0.0
 40
0.5789479223911498
 40
1.0
 40
1.0
 40
1.0
 40
1.0
 10
192.8409301052359
 20
64.07742471258868
 30
0.0
 10
192.8633714724286
 20
64.08976560290309
 30
0.0
 10
192.9021337968531
 20
64.111081665777
 30
0.0
 10
192.9028996997122
 20
64.11148983969137
 30
0.0
 10
192.9032221847023
 20
64.11166170216606
 30
0.0
  0
LINE
  5
19A
330
1F
100
AcDbEntity
  8
0
  6
Continuous
 62
     7
370
    25
100
AcDbLine
 10
190.5315290285
 20
63.3997033073
 30
0.0
 11
191.6703130963
 21
63.3997033073
 31
0.0
  0
SPLINE
  5
19B
330
1F
100
AcDbEntity
  8
0
  6
Continuous
 62
     7
370
    25
100
AcDbSpline
210
0.0
220
0.0
230
1.0
 70
     8
 71
     3
 72
    10
 73
     6
 74
     0
 42
0.00000001
 43
0.00000001
 40
0.0
 40
0.0
 40
0.0
 40
0.0
 40
0.1593935213061655
 40
0.7189934545756295
 40
1.0
 40
1.0
 40
1.0
 40
1.0
 10
173.4374040079171
 20
64.11166170216606
 30
0.0
 10
173.4360140890905
 20
64.11242322916351
 30
0.0
 10
173.4297444331437
 20
64.11585833067937
 30
0.0
 10
173.4562283749677
 20
64.10136370821277
 30
0.0
 10
173.4888057790143
 20
64.08342233772017
 30
0.0
 10
173.4996960873835
 20
64.07742471258868
 30
0.0
  0
LINE
  5
19C
330
1F
100
AcDbEntity
  8
0
  6
Continuous
 62
     7
370
    25
100
AcDbLine
 10
174.6703130963
 20
63.3997033073
 30
0.0
 11
175.8090971641
 21
63.3997033073
 31
0.0
  0
SPLINE
  5
19D
330
1F
100
AcDbEntity
  8
0
  6
Continuous
 62
     7
370
    25
100
AcDbSpline
210
0.0
220
0.0
230
1.0
 70
     8
 71
     3
 72
     9
 73
     5
 74
     0
 42
0.00000001
 43
0.00000001
 40
0.0
 40
0.0
 40
0.0
 40
0.0
 40
0.5789479223839474
 40
0.9999999999999999
 40
0.9999999999999999
 40
0.9999999999999999
 40
0.9999999999999999
 10
172.3480345015699
 20
65.72908629840224
 30
0.0
 10
172.3603753918841
 20
65.70664493120987
 30
0.0
 10
172.3816914547581
 20
65.66788260678533
 30
0.0
 10
172.3820996286726
 20
65.66711670392596
 30
0.0
 10
172.3822714911473
 20
65.66679421893578
 30
0.0
  0
LINE
  5
19E
330
1F
100
AcDbEntity
  8
0
  6
Continuous
 62
     7
370
    25
100
AcDbLine
 10
171.6703130963
 20
68.0384873752
 30
0.0
 11
171.6703130963
 21
66.8997033073
 31
0.0
  0
LINE
  5
19F
330
1F
100
AcDbEntity
  8
0
  6
Continuous
 62
     7
370
    25
100
AcDbLine
 10
192.9079174033
 20
65.6620990003
 30
0.0
 11
192.8409301052
 21
65.7290862984
 31
0.0
  0
LINE
  5
1A0
330
1F
100
AcDbEntity
  8
0
  6
Continuous
 62
     7
370
    25
100
AcDbLine
 10
173.4996960874
 20
65.7290862984
 30
0.0
 11
173.4327087893
 21
65.6620990003
 31
0.0
  0
LINE
  5
1A1
330
1F
100
AcDbEntity
  8
0
  6
Continuous
 62
     7
370
    25
100
AcDbLine
 10
127.198293138
 20
79.3331524304
 30
0.0
 11
127.198293138
 21
71.4662541843
 31
0.0
  0
LINE
  5
1A2
330
1F
100
AcDbEntity
  8
0
  6
Continuous
 62
     7
370
    25
100
AcDbLine
 10
152.7921851739
 20
75.3997033073
 30
0.0
 11
152.7921851739
 21
67.5497033073
 31
0.0
  0
LINE
  5
1A3
330
1F
100
AcDbEntity
  8
0
  6
Continuous
 62
     7
370
    25
100
AcDbLine
 10
152.7921851739
 20
83.2497033073
 30
0.0
 11
152.7921851739
 21
75.3997033073
 31
0.0
  0
LINE
  5
1A4
330
1F
100
AcDbEntity
  8
0
  6
Continuous
 62
     7
370
    25
100
AcDbLine
 10
165.1921851739
 20
67.5497033073
 30
0.0
 11
165.1921851739
 21
83.2497033073
 31
0.0
  0
SPLINE
  5
1A5
330
1F
100
AcDbEntity
  8
0
  6
Continuous
 62
     7
370
    25
100
AcDbSpline
210
0.0
220
0.0
230
1.0
 70
     8
 71
     3
 72
    30
 73
    26
 74
     0
 42
0.00000001
 43
0.00000001
 40
0.0
 40
0.0
 40
0.0
 40
0.0
 40
0.0110312660349472
 40
0.0532775966557535
 40
0.0955510658762007
 40
0.1522052900752524
 40
0.2089591849931276
 40
0.2161886814139207
 40
0.2769247001993664
 40
0.3376599452269796
 40
0.3847633881663814
 40
0.4317720750128258
 40
0.4687707990034732
 40
0.5057307833876435
 40
0.5426486892413234
 40
0.5796156723590665
 40
0.629150719041233
 40
0.6787775173188375
 40
0.731813086469481
 40
0.784839972228295
 40
0.8294788431838606
 40
0.8740829140692338
 40
0.9165632233039452
 40
0.9590085241044983
 40
1.0
 40
1.0
 40
1.0
 40
1.0
 10
177.2703130963097
 20
84.8997033073285
 30
0.0
 10
177.2711371436559
 20
84.89900547543077
 30
0.0
 10
177.2751170369881
 20
84.89563516360418
 30
0.0
 10
177.3458987459174
 20
84.83528551999885
 30
0.0
 10
177.5671874760166
 20
84.64975542434092
 30
0.0
 10
177.9577504914131
 20
84.32920947939928
 30
0.0
 10
178.3609925774994
 20
84.01553257585894
 30
0.0
 10
178.8278068165882
 20
83.66914328796902
 30
0.0
 10
179.3634346506663
 20
83.2887183409656
 30
0.0
 10
180.1791850286688
 20
82.79069479070493
 30
0.0
 10
181.0207448344333
 20
82.37857691763112
 30
0.0
 10
181.80415175306
 20
82.10157780141606
 30
0.0
 10
182.5771366301647
 20
81.95016064895415
 30
0.0
 10
183.3077269344402
 20
81.91201117841861
 30
0.0
 10
184.0324493968971
 20
81.9913430748581
 30
0.0
 10
184.8058189866095
 20
82.1838462581131
 30
0.0
 10
185.5962139553374
 20
82.50100585101377
 30
0.0
 10
186.3930179121033
 20
82.92628388971559
 30
0.0
 10
187.1203873626647
 20
83.3887465831658
 30
0.0
 10
187.7345848021846
 20
83.82915285473334
 30
0.0
 10
188.2280696319569
 20
84.20763454396449
 30
0.0
 10
188.6030440583958
 20
84.50932601185941
 30
0.0
 10
188.8735677469294
 20
84.7331987565747
 30
0.0
 10
189.0447433535689
 20
84.87798743676962
 30
0.0
 10
189.0601550510567
 20
84.89100317080275
 30
0.0
 10
189.0677266310133
 20
84.89739764298886
 30
0.0
  0
LINE
  5
1A6
330
1F
100
AcDbEntity
  8
0
  6
Continuous
 62
     7
370
    18
100
AcDbLine
 10
177.1040630963
 20
62.8997033073
 30
0.0
 11
177.4207747925
 21
52.7649290299
 31
0.0
  0
LINE
  5
1A7
330
1F
100
AcDbEntity
  8
0
  6
Continuous
 62
     7
370
    18
100
AcDbLine
 10
188.9198514001
 20
52.7649290299
 30
0.0
 11
189.2365630963
 21
62.8997033073
 31
0.0
  0
LINE
  5
1A8
330
1F
100
AcDbEntity
  8
0
  6
Continuous
 62
     7
370
    18
100
AcDbLine
 10
167.6703130963
 20
81.1222033073
 30
0.0
 11
165.4921851739
 21
81.1222033073
 31
0.0
  0
LINE
  5
1A9
330
1F
100
AcDbEntity
  8
0
  6
Continuous
 62
     7
370
    18
100
AcDbLine
 10
165.4921851739
 20
69.6772033073
 30
0.0
 11
167.6703130963
 21
69.6772033073
 31
0.0
  0
LINE
  5
1AA
330
1F
100
AcDbEntity
  8
0
  6
Continuous
 62
     7
370
    25
100
AcDbLine
 10
167.6703130963
 20
81.9782033073
 30
0.0
 11
167.6703130963
 21
81.9670735265
 31
0.0
  0
SPLINE
  5
1AB
330
1F
100
AcDbEntity
  8
0
  6
Continuous
 62
     7
370
     0
100
AcDbSpline
210
0.0
220
0.0
230
1.0
 70
     8
 71
     3
 72
    34
 73
    30
 74
     0
 42
0.00000001
 43
0.00000001
 40
0.0
 40
0.0
 40
0.0
 40
0.0
 40
0.0377355478449374
 40
0.0754710955612773
 40
0.1132066432776174
 40
0.1509421909939571
 40
0.1886777387102974
 40
0.2264132864266369
 40
0.2641488341429774
 40
0.3018843818593172
 40
0.3396199295756567
 40
0.3773554772919968
 40
0.4150910250083368
 40
0.4528265727246767
 40
0.4905621204410164
 40
0.5282976681573568
 40
0.5660332158736963
 40
0.6037687635900363
 40
0.6415043113063766
 40
0.6792398590227164
 40
0.7169754067390565
 40
0.7547109544553962
 40
0.792446502171736
 40
0.8301820498880762
 40
0.867917597604416
 40
0.9056531453207558
 40
0.9433886930370958
 40
0.9811242407534356
 40
1.0
 40
1.0
 40
1.0
 40
1.0
 10
167.6702499389648
 20
81.96707352651602
 30
0.0
 10
167.6703130963097
 20
81.87826111051928
 30
0.0
 10
167.6703130963097
 20
81.70183731409591
 30
0.0
 10
167.6703130963097
 20
81.44018796644035
 30
0.0
 10
167.6703130963097
 20
81.0968514261244
 30
0.0
 10
167.6703130963097
 20
80.6764707308675
 30
0.0
 10
167.6703130963097
 20
80.18473080841676
 30
0.0
 10
167.6703130963097
 20
79.62828159765134
 30
0.0
 10
167.6703130963097
 20
79.01464811956724
 30
0.0
 10
167.6703130963097
 20
78.35212871427719
 30
0.0
 10
167.6703130963097
 20
77.64968282019635
 30
0.0
 10
167.6703130963097
 20
76.91680981300757
 30
0.0
 10
167.6703130963097
 20
76.16342054290126
 30
0.0
 10
167.6703130963097
 20
75.39970330732844
 30
0.0
 10
167.6703130963097
 20
74.6359860717556
 30
0.0
 10
167.6703130963097
 20
73.8825968016493
 30
0.0
 10
167.6703130963097
 20
73.14972379446053
 30
0.0
 10
167.6703130963097
 20
72.44727790037969
 30
0.0
 10
167.6703130963097
 20
71.78475849508963
 30
0.0
 10
167.6703130963097
 20
71.17112501700554
 30
0.0
 10
167.6703130963097
 20
70.61467580624014
 30
0.0
 10
167.6703130963097
 20
70.1229358837894
 30
0.0
 10
167.6703130963097
 20
69.70255518853253
 30
0.0
 10
167.6703130963097
 20
69.35921864821658
 30
0.0
 10
167.6703130963097
 20
69.09756930056103
 30
0.0
 10
167.6703130963097
 20
68.92114550413767
 30
0.0
 10
167.6703130963097
 20
68.83233308814094
 30
0.0
 10
167.6703130963097
 20
68.82120330732847
 30
0.0
 10
167.6703130963097
 20
68.82344957823221
 30
0.0
 10
167.6703130963097
 20
68.82120330732847
 30
0.0
  0
LINE
  5
1AC
330
1F
100
AcDbEntity
  8
0
  6
CENTERX2
 62
     7
370
    18
100
AcDbLine
 10
183.1703130963
 20
49.9363932973
 30
0.0
 11
183.1703130963
 21
105.4187959799
 31
0.0
  0
LINE
  5
1AD
330
1F
100
AcDbEntity
  8
0
  6
CENTERX2
 62
     7
370
    18
100
AcDbLine
 10
197.5071892653
 20
75.3997033073
 30
0.0
 11
124.4921851739
 21
75.3997033073
 31
0.0
  0
ARC
  5
1AE
330
1F
100
AcDbEntity
  8
0
  6
Continuous
 62
     7
370
    25
100
AcDbCircle
 10
240.4919888674
 20
102.4997033073
 30
0.0
 40
0.25
100
AcDbArc
 50
90.0
 51
180.0
  0
ARC
  5
1AF
330
1F
100
AcDbEntity
  8
0
  6
Continuous
 62
     7
370
    25
100
AcDbCircle
 10
250.9919888674
 20
102.4997033073
 30
0.0
 40
0.25
100
AcDbArc
 50
0.0
 51
90.0
  0
LINE
  5
1B0
330
1F
100
AcDbEntity
  8
0
  6
Continuous
 62
     7
370
    25
100
AcDbLine
 10
240.2419888674
 20
102.4997033073
 30
0.0
 11
240.2419888674
 21
101.8997033073
 31
0.0
  0
LINE
  5
1B1
330
1F
100
AcDbEntity
  8
0
  6
Continuous
 62
     7
370
    25
100
AcDbLine
 10
251.2419888674
 20
101.8997033073
 30
0.0
 11
251.2419888674
 21
102.4997033073
 31
0.0
  0
LINE
  5
1B2
330
1F
100
AcDbEntity
  8
0
  6
Continuous
 62
     7
370
    25
100
AcDbLine
 10
253.1919888674
 20
93.8997033073
 30
0.0
 11
251.2419888674
 21
101.8997033073
 31
0.0
  0
LINE
  5
1B3
330
1F
100
AcDbEntity
  8
0
  6
Continuous
 62
     7
370
    25
100
AcDbLine
 10
240.2419888674
 20
101.8997033073
 30
0.0
 11
238.2919888674
 21
93.8997033073
 31
0.0
  0
LINE
  5
1B4
330
1F
100
AcDbEntity
  8
0
  6
Continuous
 62
     7
370
    25
100
AcDbLine
 10
238.2919888674
 20
93.8997033073
 30
0.0
 11
238.7419888674
 21
85.8997033073
 31
0.0
  0
LINE
  5
1B5
330
1F
100
AcDbEntity
  8
0
  6
Continuous
 62
     7
370
    25
100
AcDbLine
 10
252.7419888674
 20
85.8997033073
 30
0.0
 11
253.1919888674
 21
93.8997033073
 31
0.0
  0
LINE
  5
1B6
330
1F
100
AcDbEntity
  8
0
  6
Continuous
 62
     7
370
    25
100
AcDbLine
 10
238.9838013674
 20
63.3997033073
 30
0.0
 11
239.2774368088
 21
54.0033691812
 31
0.0
  0
LINE
  5
1B7
330
1F
100
AcDbEntity
  8
0
  6
Continuous
 62
     7
370
    25
100
AcDbLine
 10
252.2065409259
 20
54.0033691812
 30
0.0
 11
252.5001763674
 21
63.3997033073
 31
0.0
  0
LINE
  5
1B8
330
1F
100
AcDbEntity
  8
0
  6
Continuous
 62
     7
370
    25
100
AcDbLine
 10
239.2774368088
 20
54.0033691812
 30
0.0
 11
240.4919888674
 21
51.8997033073
 31
0.0
  0
LINE
  5
1B9
330
1F
100
AcDbEntity
  8
0
  6
Continuous
 62
     7
370
    25
100
AcDbLine
 10
250.9919888674
 20
51.8997033073
 30
0.0
 11
252.2065409259
 21
54.0033691812
 31
0.0
  0
LINE
  5
1BA
330
1F
100
AcDbEntity
  8
0
  6
Continuous
 62
     7
370
    25
100
AcDbLine
 10
251.6419888674
 20
81.9382319712
 30
0.0
 11
251.6419888674
 21
85.8997033073
 31
0.0
  0
LINE
  5
1BB
330
1F
100
AcDbEntity
  8
0
  6
Continuous
 62
     7
370
    25
100
AcDbLine
 10
239.8419888674
 20
85.8997033073
 30
0.0
 11
239.8419888674
 21
81.9329295605
 31
0.0
  0
CIRCLE
  5
1BC
330
1F
100
AcDbEntity
  8
0
  6
Continuous
 62
     7
370
    25
100
AcDbCircle
 10
245.7419888674
 20
75.3997033073
 30
0.0
 40
3.933449123032079
  0
CIRCLE
  5
1BD
330
1F
100
AcDbEntity
  8
0
  6
Continuous
 62
     7
370
    25
100
AcDbCircle
 10
245.7419888674
 20
75.3997033073
 30
0.0
 40
3.138978050180552
  0
CIRCLE
  5
1BE
330
1F
100
AcDbEntity
  8
0
  6
Continuous
 62
     7
370
    25
100
AcDbCircle
 10
245.7419888674
 20
75.3997033073
 30
0.0
 40
2.499999999999996
  0
CIRCLE
  5
1BF
330
1F
100
AcDbEntity
  8
0
  6
Continuous
 62
     7
370
    25
100
AcDbCircle
 10
245.7419888674
 20
75.3997033073
 30
0.0
 40
2.700000000000005
  0
CIRCLE
  5
1C0
330
1F
100
AcDbEntity
  8
0
  6
Continuous
 62
     7
370
    25
100
AcDbCircle
 10
245.7419888674
 20
75.3997033073
 30
0.0
 40
4.499999999999994
  0
CIRCLE
  5
1C1
330
1F
100
AcDbEntity
  8
0
  6
Continuous
 62
     7
370
    25
100
AcDbCircle
 10
245.7419888674
 20
75.3997033073
 30
0.0
 40
7.850000000000023
  0
CIRCLE
  5
1C2
330
1F
100
AcDbEntity
  8
0
  6
Continuous
 62
     7
370
    25
100
AcDbCircle
 10
245.7419888674
 20
75.3997033073
 30
0.0
 40
7.549999999999983
  0
CIRCLE
  5
1C3
330
1F
100
AcDbEntity
  8
0
  6
Continuous
 62
     7
370
    25
100
AcDbCircle
 10
245.7419888674
 20
75.3997033073
 30
0.0
 40
4.849999999999966
  0
CIRCLE
  5
1C4
330
1F
100
AcDbEntity
  8
0
  6
Continuous
 62
     7
370
    25
100
AcDbCircle
 10
245.7419888674
 20
75.3997033073
 30
0.0
 40
4.749999999999972
  0
SPLINE
  5
1C5
330
1F
100
AcDbEntity
  8
0
  6
Continuous
 62
     7
370
    25
100
AcDbSpline
210
0.0
220
0.0
230
1.0
 70
    24
 71
     3
 72
    12
 73
     8
 74
     0
 42
0.00000001
 43
0.00000001
 40
0.0
 40
0.0
 40
0.0
 40
0.0
 40
0.2645357324841802
 40
0.3998137210612399
 40
0.5350672982154645
 40
0.7654034360362928
 40
1.0
 40
1.0
 40
1.0
 40
1.0
 10
237.7419888673623
 20
80.01850546084559
 30
0.0
 10
238.4362547917458
 20
80.41934007917757
 30
0.0
 10
239.4855536521574
 20
81.02515305869655
 30
0.0
 10
240.9279080533182
 20
81.8578967604736
 30
0.0
 10
242.2838402423901
 20
82.64074457483711
 30
0.0
 10
243.9084515257999
 20
83.57871433664224
 30
0.0
 10
245.1270874167852
 20
84.28229409634676
 30
0.0
 10
245.7419888673623
 20
84.6373076143625
 30
0.0
  0
SPLINE
  5
1C6
330
1F
100
AcDbEntity
  8
0
  6
Continuous
 62
     7
370
    25
100
AcDbSpline
210
0.0
220
0.0
230
1.0
 70
    24
 71
     3
 72
    12
 73
     8
 74
     0
 42
0.00000001
 43
0.00000001
 40
0.0
 40
0.0
 40
0.0
 40
0.0
 40
0.2645357324841768
 40
0.3998137210612349
 40
0.5350672982154578
 40
0.7654034360362892
 40
1.0
 40
1.0
 40
1.0
 40
1.0
 10
245.7419888673623
 20
84.6373076143625
 30
0.0
 10
246.4362547917457
 20
84.2364729960305
 30
0.0
 10
247.4855536521573
 20
83.63066001651153
 30
0.0
 10
248.9279080533182
 20
82.79791631473447
 30
0.0
 10
250.28384024239
 20
82.01506850037093
 30
0.0
 10
251.9084515257998
 20
81.07709873856578
 30
0.0
 10
253.1270874167853
 20
80.37351897886123
 30
0.0
 10
253.7419888673623
 20
80.01850546084547
 30
0.0
  0
SPLINE
  5
1C7
330
1F
100
AcDbEntity
  8
0
  6
Continuous
 62
     7
370
    25
100
AcDbSpline
210
0.0
220
0.0
230
1.0
 70
    24
 71
     3
 72
    13
 73
     9
 74
     0
 42
0.00000001
 43
0.00000001
 40
0.0
 40
0.0
 40
0.0
 40
0.0
 40
0.1912580406961239
 40
0.3843458819554667
 40
0.6360717224482983
 40
0.7654026222191218
 40
0.8947699173407201
 40
0.9999999999999999
 40
0.9999999999999999
 40
0.9999999999999999
 40
0.9999999999999999
 10
253.7419888673623
 20
80.01850546084547
 30
0.0
 10
253.7419888673623
 20
79.4404964107188
 30
0.0
 10
253.7419888673623
 20
78.27894839244672
 30
0.0
 10
253.7419888673623
 20
76.3048113243265
 30
0.0
 10
253.7419888673623
 20
74.50153679337751
 30
0.0
 10
253.7419888673623
 20
72.91965579230079
 30
0.0
 10
253.7419888673623
 20
71.80469636912818
 30
0.0
 10
253.7419888673623
 20
71.09792690268533
 30
0.0
 10
253.7419888673623
 20
70.78090115381143
 30
0.0
  0
SPLINE
  5
1C8
330
1F
100
AcDbEntity
  8
0
  6
Continuous
 62
     7
370
    25
100
AcDbSpline
210
0.0
220
0.0
230
1.0
 70
    24
 71
     3
 72
    12
 73
     8
 74
     0
 42
0.00000001
 43
0.00000001
 40
0.0
 40
0.0
 40
0.0
 40
0.0
 40
0.2645357324841768
 40
0.3998137210612349
 40
0.535067298215458
 40
0.7654034360362891
 40
1.0
 40
1.0
 40
1.0
 40
1.0
 10
253.7419888673623
 20
70.78090115381143
 30
0.0
 10
253.0477229429787
 20
70.38006653547944
 30
0.0
 10
251.9984240825672
 20
69.77425355596047
 30
0.0
 10
250.5560696814063
 20
68.94150985418342
 30
0.0
 10
249.2001374923344
 20
68.1586620398199
 30
0.0
 10
247.5755262089247
 20
67.22069227801475
 30
0.0
 10
246.3568903179392
 20
66.51711251831021
 30
0.0
 10
245.7419888673622
 20
66.16209900029446
 30
0.0
  0
SPLINE
  5
1C9
330
1F
100
AcDbEntity
  8
0
  6
Continuous
 62
     7
370
    25
100
AcDbSpline
210
0.0
220
0.0
230
1.0
 70
    24
 71
     3
 72
    12
 73
     8
 74
     0
 42
0.00000001
 43
0.00000001
 40
0.0
 40
0.0
 40
0.0
 40
0.0
 40
0.2645357324841768
 40
0.3998137210612349
 40
0.5350672982154578
 40
0.7654034360362891
 40
1.0
 40
1.0
 40
1.0
 40
1.0
 10
245.7419888673622
 20
66.16209900029446
 30
0.0
 10
245.0477229429787
 20
66.56293361862646
 30
0.0
 10
243.9984240825672
 20
67.16874659814545
 30
0.0
 10
242.5560696814063
 20
68.00149029992252
 30
0.0
 10
241.2001374923344
 20
68.78433811428607
 30
0.0
 10
239.5755262089246
 20
69.72230787609122
 30
0.0
 10
238.3568903179393
 20
70.42588763579579
 30
0.0
 10
237.7419888673622
 20
70.78090115381154
 30
0.0
  0
SPLINE
  5
1CA
330
1F
100
AcDbEntity
  8
0
  6
Continuous
 62
     7
370
    25
100
AcDbSpline
210
0.0
220
0.0
230
1.0
 70
    24
 71
     3
 72
    13
 73
     9
 74
     0
 42
0.00000001
 43
0.00000001
 40
0.0
 40
0.0
 40
0.0
 40
0.0
 40
0.105223324965629
 40
0.3573016070345048
 40
0.486491217401796
 40
0.6156778809274955
 40
0.806749718209131
 40
1.0
 40
1.0
 40
1.0
 40
1.0
 10
237.7419888673622
 20
70.78090115381154
 30
0.0
 10
237.7419888673622
 20
71.09791195437113
 30
0.0
 10
237.7419888673622
 20
72.17436975043711
 30
0.0
 10
237.7419888673623
 20
73.67853069803876
 30
0.0
 10
237.7419888673623
 20
75.27313915094777
 30
0.0
 10
237.7419888673623
 20
76.67824418313961
 30
0.0
 10
237.7419888673623
 20
78.27292412164186
 30
0.0
 10
237.7419888673623
 20
79.43445039660475
 30
0.0
 10
237.7419888673623
 20
80.01850546084559
 30
0.0
  0
LINE
  5
1CB
330
1F
100
AcDbEntity
  8
0
  6
Continuous
 62
     7
370
    25
100
AcDbLine
 10
240.4919888674
 20
102.7497033073
 30
0.0
 11
242.2419888674
 21
102.7497033073
 31
0.0
  0
LINE
  5
1CC
330
1F
100
AcDbEntity
  8
0
  6
Continuous
 62
     7
370
    25
100
AcDbLine
 10
249.2419888674
 20
102.7497033073
 30
0.0
 11
250.9919888674
 21
102.7497033073
 31
0.0
  0
LINE
  5
1CD
330
1F
100
AcDbEntity
  8
0
  6
Continuous
 62
     7
370
    25
100
AcDbLine
 10
240.2419888674
 20
101.8997033073
 30
0.0
 11
242.2419888674
 21
101.8997033073
 31
0.0
  0
LINE
  5
1CE
330
1F
100
AcDbEntity
  8
0
  6
Continuous
 62
     7
370
    25
100
AcDbLine
 10
249.2419888674
 20
101.8997033073
 30
0.0
 11
251.2419888674
 21
101.8997033073
 31
0.0
  0
LINE
  5
1CF
330
1F
100
AcDbEntity
  8
0
  6
Continuous
 62
     7
370
    25
100
AcDbLine
 10
249.2419888674
 20
91.8997033073
 30
0.0
 11
242.2419888674
 21
91.8997033073
 31
0.0
  0
LINE
  5
1D0
330
1F
100
AcDbEntity
  8
0
  6
Continuous
 62
     7
370
    25
100
AcDbLine
 10
242.2419888674
 20
96.8997033073
 30
0.0
 11
249.2419888674
 21
96.8997033073
 31
0.0
  0
LINE
  5
1D1
330
1F
100
AcDbEntity
  8
0
  6
Continuous
 62
     7
370
    25
100
AcDbLine
 10
249.2419888674
 20
96.8997033073
 30
0.0
 11
249.2419888674
 21
91.8997033073
 31
0.0
  0
LINE
  5
1D2
330
1F
100
AcDbEntity
  8
0
  6
Continuous
 62
     7
370
    25
100
AcDbLine
 10
242.2419888674
 20
91.8997033073
 30
0.0
 11
242.2419888674
 21
96.8997033073
 31
0.0
  0
LINE
  5
1D3
330
1F
100
AcDbEntity
  8
0
  6
Continuous
 62
     7
370
    25
100
AcDbLine
 10
249.2419888674
 20
96.8997033073
 30
0.0
 11
249.2419888674
 21
103.8997033073
 31
0.0
  0
LINE
  5
1D4
330
1F
100
AcDbEntity
  8
0
  6
Continuous
 62
     7
370
    25
100
AcDbLine
 10
242.2419888674
 20
103.8997033073
 30
0.0
 11
249.2419888674
 21
103.8997033073
 31
0.0
  0
LINE
  5
1D5
330
1F
100
AcDbEntity
  8
0
  6
Continuous
 62
     7
370
    25
100
AcDbLine
 10
242.2419888674
 20
103.8997033073
 30
0.0
 11
242.2419888674
 21
96.8997033073
 31
0.0
  0
SPLINE
  5
1D6
330
1F
100
AcDbEntity
  8
0
  6
Continuous
 62
     7
370
    25
100
AcDbSpline
210
0.0
220
0.0
230
1.0
 70
     8
 71
     3
 72
     9
 73
     5
 74
     0
 42
0.00000001
 43
0.00000001
 40
0.0
 40
0.0
 40
0.0
 40
0.0
 40
0.4976931370791441
 40
0.9999999999999999
 40
0.9999999999999999
 40
0.9999999999999999
 40
0.9999999999999999
 10
249.2419888673623
 20
91.65187900030402
 30
0.0
 10
249.2586583805794
 20
91.50243211930359
 30
0.0
 10
249.292151937101
 20
91.20215295154668
 30
0.0
 10
249.5154906207427
 20
90.62073082415927
 30
0.0
 10
249.6276751742916
 20
90.32867849931851
 30
0.0
  0
LINE
  5
1D7
330
1F
100
AcDbEntity
  8
0
  6
Continuous
 62
     7
370
    25
100
AcDbLine
 10
249.6276751743
 20
90.3286784993
 30
0.0
 11
241.8563025604
 21
90.3286784993
 31
0.0
  0
SPLINE
  5
1D8
330
1F
100
AcDbEntity
  8
0
  6
Continuous
 62
     7
370
    25
100
AcDbSpline
210
0.0
220
0.0
230
1.0
 70
     8
 71
     3
 72
     9
 73
     5
 74
     0
 42
0.00000001
 43
0.00000001
 40
0.0
 40
0.0
 40
0.0
 40
0.0
 40
0.4977232396629077
 40
1.0
 40
1.0
 40
1.0
 40
1.0
 10
241.8563025604329
 20
90.32867849931851
 30
0.0
 10
241.9675992365468
 20
90.61827089994266
 30
0.0
 10
242.1912108086914
 20
91.20010509522814
 30
0.0
 10
242.2250115436901
 20
91.50083124436628
 30
0.0
 10
242.2419888673622
 20
91.65187900030402
 30
0.0
  0
LINE
  5
1D9
330
1F
100
AcDbEntity
  8
0
  6
Continuous
 62
     7
370
    25
100
AcDbLine
 10
249.2419888674
 20
91.8997033073
 30
0.0
 11
249.2419888674
 21
91.6518790003
 31
0.0
  0
LINE
  5
1DA
330
1F
100
AcDbEntity
  8
0
  6
Continuous
 62
     7
370
    25
100
AcDbLine
 10
242.2419888674
 20
91.6518790003
 30
0.0
 11
242.2419888674
 21
91.8997033073
 31
0.0
  0
SPLINE
  5
1DB
330
1F
100
AcDbEntity
  8
0
  6
Continuous
 62
     7
370
    25
100
AcDbSpline
210
0.0
220
0.0
230
1.0
 70
     8
 71
     3
 72
    16
 73
    12
 74
     0
 42
0.00000001
 43
0.00000001
 40
0.0
 40
0.0
 40
0.0
 40
0.0
 40
0.0155634360124117
 40
0.0359329243097674
 40
0.0739120889290614
 40
0.1570057548437684
 40
0.2406581385754913
 40
0.4592958294318596
 40
0.6783839187935417
 40
0.8974954344294845
 40
1.0
 40
1.0
 40
1.0
 40
1.0
 10
239.08226664514
 20
85.89970330732858
 30
0.0
 10
239.0959603121534
 20
85.90489667910774
 30
0.0
 10
239.1275763062
 20
85.91688715697552
 30
0.0
 10
239.1830559965101
 20
86.03521308097248
 30
0.0
 10
239.2616568070006
 20
86.34646438842144
 30
0.0
 10
239.3409969936297
 20
86.87211188978648
 30
0.0
 10
239.4462247017328
 20
87.91065805405664
 30
0.0
 10
239.5612181029521
 20
89.34573209640276
 30
0.0
 10
239.663618103367
 20
91.1839841978422
 30
0.0
 10
239.7333669832474
 20
92.70516704666164
 30
0.0
 10
239.7728256026762
 20
93.61099908745815
 30
0.0
 10
239.7854017419892
 20
93.8997033073261
 30
0.0
  0
LINE
  5
1DC
330
1F
100
AcDbEntity
  8
0
  6
Continuous
 62
     7
370
    25
100
AcDbLine
 10
239.785401742
 20
93.8997033073
 30
0.0
 11
239.5652410267
 21
94.8944468853
 31
0.0
  0
LINE
  5
1DD
330
1F
100
AcDbEntity
  8
0
  6
Continuous
 62
     7
370
    25
100
AcDbLine
 10
239.5652410267
 20
94.8944468853
 30
0.0
 11
242.2419888674
 21
94.8944468853
 31
0.0
  0
ELLIPSE
  5
1DE
330
1F
100
AcDbEntity
  8
0
  6
Continuous
 62
     7
370
    25
100
AcDbEllipse
 10
177.2419888674
 20
92.2475777397
 30
0.0
 11
65.0
 21
0.0
 31
0.0
210
0.0
220
0.0
230
1.0
 40
0.2713992096
 41
6.084179739699221
 42
6.174194364446292
  0
SPLINE
  5
1DF
330
1F
100
AcDbEntity
  8
0
  6
Continuous
 62
     7
370
    25
100
AcDbSpline
210
0.0
220
0.0
230
1.0
 70
     8
 71
     3
 72
    13
 73
     9
 74
     0
 42
0.00000001
 43
0.00000001
 40
0.0
 40
0.0
 40
0.0
 40
0.0
 40
0.1610294006389558
 40
0.3266880383557516
 40
0.4877296220820637
 40
0.6535536198224136
 40
0.8237602734841889
 40
1.0
 40
1.0
 40
1.0
 40
1.0
 10
240.9591265372577
 20
88.76005705883563
 30
0.0
 10
240.9153227698253
 20
88.69066016425839
 30
0.0
 10
240.826455974083
 20
88.54987136874983
 30
0.0
 10
240.6974359554111
 20
88.2037465510422
 30
0.0
 10
240.5764258596438
 20
87.76453990799016
 30
0.0
 10
240.4697448765191
 20
87.23093807105056
 30
0.0
 10
240.3790775891633
 20
86.60711176435088
 30
0.0
 10
240.3422587802665
 20
86.13822786614888
 30
0.0
 10
240.3235287914952
 20
85.89970330732848
 30
0.0
  0
LINE
  5
1E0
330
1F
100
AcDbEntity
  8
0
  6
Continuous
 62
     7
370
    25
100
AcDbLine
 10
240.3235287915
 20
85.8997033073
 30
0.0
 11
239.0822666451
 21
85.8997033073
 31
0.0
  0
SPLINE
  5
1E1
330
1F
100
AcDbEntity
  8
0
  6
Continuous
 62
     7
370
    25
100
AcDbSpline
210
0.0
220
0.0
230
1.0
 70
     8
 71
     3
 72
    17
 73
    13
 74
     0
 42
0.00000001
 43
0.00000001
 40
0.0
 40
0.0
 40
0.0
 40
0.0
 40
0.3241697628029873
 40
0.5422758463620719
 40
0.689509052693928
 40
0.7894036290694505
 40
0.8577090008137825
 40
0.9049823971474137
 40
0.9551712229700868
 40
0.9753097783197817
 40
0.9919572060138848
 40
1.0
 40
1.0
 40
1.0
 40
1.0
 10
251.6985759927353
 20
93.8997033073261
 30
0.0
 10
251.7392264314621
 20
92.98708980472044
 30
0.0
 10
251.8072270706178
 20
91.4604567984591
 30
0.0
 10
251.9186599699341
 20
89.53368389617812
 30
0.0
 10
252.0111646299927
 20
88.24604842524536
 30
0.0
 10
252.0890660863101
 20
87.38689645852361
 30
0.0
 10
252.1551185857324
 20
86.8134285701462
 30
0.0
 10
252.2184751930948
 20
86.39189641611625
 30
0.0
 10
252.2766016607887
 20
86.11140387332082
 30
0.0
 10
252.3359434891115
 20
85.95585520474015
 30
0.0
 10
252.3729495577343
 20
85.90524460554265
 30
0.0
 10
252.3946441246047
 20
85.901064853738
 30
0.0
 10
252.4017110895845
 20
85.89970330732855
 30
0.0
  0
LINE
  5
1E2
330
1F
100
AcDbEntity
  8
0
  6
Continuous
 62
     7
370
    25
100
AcDbLine
 10
252.4017110896
 20
85.8997033073
 30
0.0
 11
251.1604489432
 21
85.8997033073
 31
0.0
  0
SPLINE
  5
1E3
330
1F
100
AcDbEntity
  8
0
  6
Continuous
 62
     7
370
    25
100
AcDbSpline
210
0.0
220
0.0
230
1.0
 70
     8
 71
     3
 72
    14
 73
    10
 74
     0
 42
0.00000001
 43
0.00000001
 40
0.0
 40
0.0
 40
0.0
 40
0.0
 40
0.1576095309202822
 40
0.3152382602707094
 40
0.4726926441579498
 40
0.6301650083177254
 40
0.7907313191165901
 40
0.9513050385928076
 40
1.0
 40
1.0
 40
1.0
 40
1.0
 10
251.1604489432294
 20
85.89970330732848
 30
0.0
 10
251.1439436063869
 20
86.11320509580588
 30
0.0
 10
251.1109309221856
 20
86.54023467943139
 30
0.0
 10
251.0311272322736
 20
87.1254817582877
 30
0.0
 10
250.9333398247874
 20
87.64763629911013
 30
0.0
 10
250.8197499851054
 20
88.09661442653
 30
0.0
 10
250.6952078860736
 20
88.45589615833637
 30
0.0
 10
250.5948505452972
 20
88.66046233743756
 30
0.0
 10
250.5380647476821
 20
88.74125688578886
 30
0.0
 10
250.5248511974668
 20
88.76005705883563
 30
0.0
  0
ELLIPSE
  5
1E4
330
1F
100
AcDbEntity
  8
0
  6
Continuous
 62
     7
370
    25
100
AcDbEllipse
 10
314.2419888674
 20
92.2475777397
 30
0.0
 11
65.00000000000006
 21
0.0
 31
0.0
210
0.0
220
0.0
230
1.0
 40
0.2713992096
 41
3.25058359632319
 42
3.340598221070257
  0
LINE
  5
1E5
330
1F
100
AcDbEntity
  8
0
  6
Continuous
 62
     7
370
    25
100
AcDbLine
 10
251.918736708
 20
94.8944468853
 30
0.0
 11
251.6985759927
 21
93.8997033073
 31
0.0
  0
LINE
  5
1E6
330
1F
100
AcDbEntity
  8
0
  6
Continuous
 62
     7
370
    25
100
AcDbLine
 10
249.2419888674
 20
94.8944468853
 30
0.0
 11
251.918736708
 21
94.8944468853
 31
0.0
  0
LINE
  5
1E7
330
1F
100
AcDbEntity
  8
0
  6
Continuous
 62
     7
370
    25
100
AcDbLine
 10
240.9591265373
 20
88.7600570588
 30
0.0
 11
250.5248511975
 21
88.7600570588
 31
0.0
  0
SPLINE
  5
1E8
330
1F
100
AcDbEntity
  8
0
  6
Continuous
 62
     7
370
    25
100
AcDbSpline
210
0.0
220
0.0
230
1.0
 70
     8
 71
     3
 72
    15
 73
    11
 74
     0
 42
0.00000001
 43
0.00000001
 40
0.0
 40
0.0
 40
0.0
 40
0.0
 40
0.108302867318557
 40
0.2410753171544203
 40
0.4144372864330101
 40
0.5908932123492212
 40
0.6903297377178795
 40
0.7895984437307898
 40
0.9112454994513551
 40
0.9999999999999999
 40
0.9999999999999999
 40
0.9999999999999999
 40
0.9999999999999999
 10
248.3400650787156
 20
85.89970330732848
 30
0.0
 10
248.2219055152528
 20
86.08274468735473
 30
0.0
 10
247.9588898173133
 20
86.49018319599938
 30
0.0
 10
247.2325496293208
 20
86.92546334574725
 30
0.0
 10
246.2707412962564
 20
87.17165832629539
 30
0.0
 10
245.3301529649013
 20
87.16668623624118
 30
0.0
 10
244.5761814208245
 20
87.01211131299351
 30
0.0
 10
243.9758058961093
 20
86.77152374338671
 30
0.0
 10
243.4591515818787
 20
86.4110942604642
 30
0.0
 10
243.237438669544
 20
86.05142428237225
 30
0.0
 10
243.1439126560089
 20
85.89970330732848
 30
0.0
  0
LINE
  5
1E9
330
1F
100
AcDbEntity
  8
0
  6
Continuous
 62
     7
370
    25
100
AcDbLine
 10
243.143912656
 20
85.8997033073
 30
0.0
 11
240.3235287915
 21
85.8997033073
 31
0.0
  0
LINE
  5
1EA
330
1F
100
AcDbEntity
  8
0
  6
Continuous
 62
     7
370
    25
100
AcDbLine
 10
251.1604489432
 20
85.8997033073
 30
0.0
 11
248.3400650787
 21
85.8997033073
 31
0.0
  0
LINE
  5
1EB
330
1F
100
AcDbEntity
  8
0
  6
Continuous
 62
     7
370
    25
100
AcDbLine
 10
248.3400650787
 20
85.8997033073
 30
0.0
 11
243.143912656
 21
85.8997033073
 31
0.0
  0
LINE
  5
1EC
330
1F
100
AcDbEntity
  8
0
  6
Continuous
 62
     7
370
    25
100
AcDbLine
 10
251.6985759927
 20
93.8997033073
 30
0.0
 11
253.1919888674
 21
93.8997033073
 31
0.0
  0
LINE
  5
1ED
330
1F
100
AcDbEntity
  8
0
  6
Continuous
 62
     7
370
    25
100
AcDbLine
 10
238.2919888674
 20
93.8997033073
 30
0.0
 11
239.785401742
 21
93.8997033073
 31
0.0
  0
SPLINE
  5
1EE
330
1F
100
AcDbEntity
  8
0
  6
Continuous
 62
     7
370
    25
100
AcDbSpline
210
0.0
220
0.0
230
1.0
 70
     8
 71
     3
 72
     9
 73
     5
 74
     0
 42
0.00000001
 43
0.00000001
 40
0.0
 40
0.0
 40
0.0
 40
0.0
 40
0.4875141023677128
 40
0.9999999999999999
 40
0.9999999999999999
 40
0.9999999999999999
 40
0.9999999999999999
 10
252.4017110895845
 20
85.89970330732855
 30
0.0
 10
252.4102372011203
 20
85.90143065330025
 30
0.0
 10
252.4277261547616
 20
85.90497382459172
 30
0.0
 10
252.4440478586479
 20
85.92649231054104
 30
0.0
 10
252.4524125017151
 20
85.93752023112847
 30
0.0
  0
SPLINE
  5
1EF
330
1F
100
AcDbEntity
  8
0
  6
Continuous
 62
     7
370
    25
100
AcDbSpline
210
0.0
220
0.0
230
1.0
 70
     8
 71
     3
 72
     9
 73
     5
 74
     0
 42
0.00000001
 43
0.00000001
 40
0.0
 40
0.0
 40
0.0
 40
0.0
 40
0.5124861829376838
 40
0.9999999999999999
 40
0.9999999999999999
 40
0.9999999999999999
 40
0.9999999999999999
 10
239.0315652638757
 20
85.9375201852687
 30
0.0
 10
239.0399299069993
 20
85.92649227231752
 30
0.0
 10
239.0562516019096
 20
85.90497381324812
 30
0.0
 10
239.0737405441513
 20
85.90143064890296
 30
0.0
 10
239.08226664514
 20
85.89970330732858
 30
0.0
  0
LINE
  5
1F0
330
1F
100
AcDbEntity
  8
0
  6
Continuous
 62
     7
370
    25
100
AcDbLine
 10
252.4501927999
 20
85.8997033073
 30
0.0
 11
252.7419888674
 21
85.8997033073
 31
0.0
  0
LINE
  5
1F1
330
1F
100
AcDbEntity
  8
0
  6
Continuous
 62
     7
370
    25
100
AcDbLine
 10
238.7419888674
 20
85.8997033073
 30
0.0
 11
239.0337849349
 21
85.8997033073
 31
0.0
  0
LINE
  5
1F2
330
1F
100
AcDbEntity
  8
0
  6
Continuous
 62
     7
370
    25
100
AcDbLine
 10
252.4524125017
 20
85.9375202311
 30
0.0
 11
252.4501927999
 21
85.8997033073
 31
0.0
  0
LINE
  5
1F3
330
1F
100
AcDbEntity
  8
0
  6
Continuous
 62
     7
370
    25
100
AcDbLine
 10
252.4501927999
 20
85.8997033073
 30
0.0
 11
252.4017110896
 21
85.8997033073
 31
0.0
  0
LINE
  5
1F4
330
1F
100
AcDbEntity
  8
0
  6
Continuous
 62
     7
370
    25
100
AcDbLine
 10
239.0337849349
 20
85.8997033073
 30
0.0
 11
239.0315652639
 21
85.9375201853
 31
0.0
  0
LINE
  5
1F5
330
1F
100
AcDbEntity
  8
0
  6
Continuous
 62
     7
370
    25
100
AcDbLine
 10
239.0822666451
 20
85.8997033073
 30
0.0
 11
239.0337849349
 21
85.8997033073
 31
0.0
  0
ARC
  5
1F6
330
1F
100
AcDbEntity
  8
0
  6
Continuous
 62
     7
370
    25
100
AcDbCircle
 10
245.7419888674
 20
75.3997033073
 30
0.0
 40
8.500000000000002
100
AcDbArc
 50
220.7598808236
 51
235.2496774046
  0
ARC
  5
1F7
330
1F
100
AcDbEntity
  8
0
  6
Continuous
 62
     7
370
    25
100
AcDbCircle
 10
245.7419888674
 20
75.3997033073
 30
0.0
 40
8.499999999999998
100
AcDbArc
 50
160.2805871832
 51
199.3468742864
  0
ARC
  5
1F8
330
1F
100
AcDbEntity
  8
0
  6
Continuous
 62
     7
370
    25
100
AcDbCircle
 10
245.7419888674
 20
75.3997033073
 30
0.0
 40
8.50000000000001
100
AcDbArc
 50
100.9577884131
 51
138.9717990522
  0
ARC
  5
1F9
330
1F
100
AcDbEntity
  8
0
  6
Continuous
 62
     7
370
    25
100
AcDbCircle
 10
245.7419888674
 20
75.3997033073
 30
0.0
 40
8.500000000000018
100
AcDbArc
 50
41.2160080252
 51
78.7844630539
  0
ARC
  5
1FA
330
1F
100
AcDbEntity
  8
0
  6
Continuous
 62
     7
370
    25
100
AcDbCircle
 10
245.7419888674
 20
75.3997033073
 30
0.0
 40
8.500000000000016
100
AcDbArc
 50
341.1446352918
 51
18.8696550258
  0
ARC
  5
1FB
330
1F
100
AcDbEntity
  8
0
  6
Continuous
 62
     7
370
    25
100
AcDbCircle
 10
245.7419888674
 20
75.3997033073
 30
0.0
 40
8.5
100
AcDbArc
 50
280.850231353
 51
319.3671914713
  0
ARC
  5
1FC
330
1F
100
AcDbEntity
  8
0
  6
Continuous
 62
     7
370
    25
100
AcDbCircle
 10
245.7419888674
 20
75.3997033073
 30
0.0
 40
8.500000000000002
100
AcDbArc
 50
235.2496774046
 51
259.4519881502
  0
ARC
  5
1FD
330
1F
100
AcDbEntity
  8
0
  6
Continuous
 62
     7
370
    25
100
AcDbCircle
 10
245.7419888674
 20
75.3997033073
 30
0.0
 40
8.29999999999999
100
AcDbArc
 50
235.2496774046
 51
254.1321125347
  0
ARC
  5
1FE
330
1F
100
AcDbEntity
  8
0
  6
Continuous
 62
     7
370
    25
100
AcDbCircle
 10
245.7419888674
 20
75.3997033073
 30
0.0
 40
8.3
100
AcDbArc
 50
284.8733673382
 51
314.4304284671
  0
ARC
  5
1FF
330
1F
100
AcDbEntity
  8
0
  6
Continuous
 62
     7
370
    25
100
AcDbCircle
 10
245.7419888674
 20
75.3997033073
 30
0.0
 40
8.299999999999986
100
AcDbArc
 50
345.5536038171
 51
15.1022920183
  0
ARC
  5
200
330
1F
100
AcDbEntity
  8
0
  6
Continuous
 62
     7
370
    25
100
AcDbCircle
 10
245.7419888674
 20
75.3997033073
 30
0.0
 40
8.300000000000004
100
AcDbArc
 50
45.8668133981
 51
74.5659041014
  0
ARC
  5
201
330
1F
100
AcDbEntity
  8
0
  6
Continuous
 62
     7
370
    25
100
AcDbCircle
 10
245.7419888674
 20
75.3997033073
 30
0.0
 40
8.300000000000004
100
AcDbArc
 50
105.4897690546
 51
134.1316720143
  0
ARC
  5
202
330
1F
100
AcDbEntity
  8
0
  6
Continuous
 62
     7
370
    25
100
AcDbCircle
 10
245.7419888674
 20
75.3997033073
 30
0.0
 40
8.300000000000006
100
AcDbArc
 50
164.8511026785
 51
194.4162196383
  0
LWPOLYLINE
  5
203
330
1F
100
AcDbEntity
  8
0
  6
Continuous
 62
     7
370
    25
100
AcDbPolyline
 90
        3
 70
   128
 43
0.0
 10
239.9284546963
 20
69.4757839593
 10
240.2894745878
 20
69.1419011347
 10
241.0109773408
 20
68.5800603596
  0
SPLINE
  5
204
330
1F
100
AcDbEntity
  8
0
  6
Continuous
 62
     7
370
    25
100
AcDbSpline
210
0.0
220
0.0
230
1.0
 70
     8
 71
     3
 72
    10
 73
     6
 74
     0
 42
0.00000001
 43
0.00000001
 40
0.0
 40
0.0
 40
0.0
 40
0.0
 40
0.5
 40
0.5
 40
1.0
 40
1.0
 40
1.0
 40
1.0
 10
237.4919888673623
 20
70.34788845191925
 30
0.0
 10
237.4176184004367
 20
70.39082626101849
 30
0.0
 10
237.3533128041488
 20
70.45426685091067
 30
0.0
 10
237.265090016343
 20
70.60675599641952
 30
0.0
 10
237.2419888673622
 20
70.69498538562284
 30
0.0
 10
237.2419888673622
 20
70.78090115381147
 30
0.0
  0
SPLINE
  5
205
330
1F
100
AcDbEntity
  8
0
  6
Continuous
 62
     7
370
    25
100
AcDbSpline
210
0.0
220
0.0
230
1.0
 70
    24
 71
     3
 72
    10
 73
     6
 74
     0
 42
0.00000001
 43
0.00000001
 40
0.0
 40
0.0
 40
0.0
 40
0.0
 40
0.5
 40
0.5
 40
1.0
 40
1.0
 40
1.0
 40
1.0
 10
237.2419888673622
 20
70.78090115381147
 30
0.0
 10
237.2419888673622
 20
71.53571042686076
 30
0.0
 10
237.2419888673622
 20
72.29645681409266
 30
0.0
 10
237.2419888673622
 20
73.83459919171592
 30
0.0
 10
237.2419888673622
 20
74.61210034424073
 30
0.0
 10
237.2419888673622
 20
75.39970330732848
 30
0.0
  0
SPLINE
  5
206
330
1F
100
AcDbEntity
  8
0
  6
Continuous
 62
     7
370
    25
100
AcDbSpline
210
0.0
220
0.0
230
1.0
 70
    24
 71
     3
 72
    10
 73
     6
 74
     0
 42
0.00000001
 43
0.00000001
 40
0.0
 40
0.0
 40
0.0
 40
0.0
 40
0.5
 40
0.5
 40
1.0
 40
1.0
 40
1.0
 40
1.0
 10
237.4919888673622
 20
70.34788845191927
 30
0.0
 10
238.1480016339673
 20
69.969139304528
 30
0.0
 10
238.8082685408251
 20
69.58793402811669
 30
0.0
 10
240.14061505946
 20
68.81870340692892
 30
0.0
 10
240.8127680409474
 20
68.43063570213059
 30
0.0
 10
241.4919888673623
 20
68.03848737516074
 30
0.0
  0
SPLINE
  5
207
330
1F
100
AcDbEntity
  8
0
  6
Continuous
 62
     7
370
    25
100
AcDbSpline
210
0.0
220
0.0
230
1.0
 70
     8
 71
     3
 72
    10
 73
     6
 74
     0
 42
0.00000001
 43
0.00000001
 40
0.0
 40
0.0
 40
0.0
 40
0.0
 40
0.5
 40
0.5
 40
1.0
 40
1.0
 40
1.0
 40
1.0
 10
237.2419888673622
 20
80.01850546084549
 30
0.0
 10
237.2419888673622
 20
80.10438710335191
 30
0.0
 10
237.2647794390097
 20
80.19179630931735
 30
0.0
 10
237.3527254363085
 20
80.34443879439232
 30
0.0
 10
237.4175862290413
 20
80.40856177947468
 30
0.0
 10
237.4919888673623
 20
80.45151816273771
 30
0.0
  0
SPLINE
  5
208
330
1F
100
AcDbEntity
  8
0
  6
Continuous
 62
     7
370
    25
100
AcDbSpline
210
0.0
220
0.0
230
1.0
 70
    24
 71
     3
 72
    12
 73
     8
 74
     0
 42
0.00000001
 43
0.00000001
 40
0.0
 40
0.0
 40
0.0
 40
0.0
 40
0.2500000000000001
 40
0.2500000000000001
 40
0.5000000000000002
 40
0.5000000000000002
 40
1.0
 40
1.0
 40
1.0
 40
1.0
 10
241.4919888673623
 20
82.76091923949622
 30
0.0
 10
241.1542329323395
 20
82.56591575949042
 30
0.0
 10
240.813824917461
 20
82.36938110046601
 30
0.0
 10
240.1393302330606
 20
81.97996141286046
 30
0.0
 10
239.8042049141933
 20
81.7864767198002
 30
0.0
 10
238.8044935958532
 20
81.2092931210446
 30
0.0
 10
238.1455594927879
 20
80.82885733926163
 30
0.0
 10
237.4919888673623
 20
80.4515181627377
 30
0.0
  0
SPLINE
  5
209
330
1F
100
AcDbEntity
  8
0
  6
Continuous
 62
     7
370
    25
100
AcDbSpline
210
0.0
220
0.0
230
1.0
 70
    24
 71
     3
 72
    12
 73
     8
 74
     0
 42
0.00000001
 43
0.00000001
 40
0.0
 40
0.0
 40
0.0
 40
0.0
 40
0.2499999999999999
 40
0.2499999999999999
 40
0.4999999999999998
 40
0.4999999999999998
 40
1.0
 40
1.0
 40
1.0
 40
1.0
 10
237.2419888673622
 20
75.39970330732848
 30
0.0
 10
237.2419888673622
 20
75.79402138800032
 30
0.0
 10
237.2419888673622
 20
76.18768043195077
 30
0.0
 10
237.2419888673623
 20
76.9672164314961
 30
0.0
 10
237.2419888673622
 20
77.35416961962152
 30
0.0
 10
237.2419888673622
 20
78.50755618247553
 30
0.0
 10
237.2419888673622
 20
79.26653867168055
 30
0.0
 10
237.2419888673622
 20
80.01850546084549
 30
0.0
  0
SPLINE
  5
20A
330
1F
100
AcDbEntity
  8
0
  6
Continuous
 62
     7
370
    25
100
AcDbSpline
210
0.0
220
0.0
230
1.0
 70
    24
 71
     3
 72
    10
 73
     6
 74
     0
 42
0.00000001
 43
0.00000001
 40
0.0
 40
0.0
 40
0.0
 40
0.0
 40
0.5
 40
0.5
 40
1.0
 40
1.0
 40
1.0
 40
1.0
 10
245.9919888673622
 20
65.72908629840221
 30
0.0
 10
246.6480016339673
 20
66.1078354457935
 30
0.0
 10
247.308268540825
 20
66.4890407222048
 30
0.0
 10
248.64061505946
 20
67.2582713433926
 30
0.0
 10
249.3127680409474
 20
67.64633904819091
 30
0.0
 10
249.9919888673623
 20
68.03848737516074
 30
0.0
  0
SPLINE
  5
20B
330
1F
100
AcDbEntity
  8
0
  6
Continuous
 62
     7
370
    25
100
AcDbSpline
210
0.0
220
0.0
230
1.0
 70
     8
 71
     3
 72
    10
 73
     6
 74
     0
 42
0.00000001
 43
0.00000001
 40
0.0
 40
0.0
 40
0.0
 40
0.0
 40
0.5
 40
0.5
 40
1.0
 40
1.0
 40
1.0
 40
1.0
 10
245.9919888673623
 20
65.72908629840224
 30
0.0
 10
245.9176141133723
 20
65.6861460141652
 30
0.0
 10
245.8305203818063
 20
65.66217822958937
 30
0.0
 10
245.6543545532618
 20
65.66202017348385
 30
0.0
 10
245.5663935293715
 20
65.68612874676224
 30
0.0
 10
245.4919888673623
 20
65.72908629840224
 30
0.0
  0
SPLINE
  5
20C
330
1F
100
AcDbEntity
  8
0
  6
Continuous
 62
     7
370
    25
100
AcDbSpline
210
0.0
220
0.0
230
1.0
 70
    24
 71
     3
 72
    12
 73
     8
 74
     0
 42
0.00000001
 43
0.00000001
 40
0.0
 40
0.0
 40
0.0
 40
0.0
 40
0.25
 40
0.25
 40
0.5000000000000002
 40
0.5000000000000002
 40
1.0
 40
1.0
 40
1.0
 40
1.0
 10
241.4919888673623
 20
68.03848737516074
 30
0.0
 10
241.829744802385
 20
67.84348389515496
 30
0.0
 10
242.1701528172635
 20
67.64694923613054
 30
0.0
 10
242.844647501664
 20
67.257529548525
 30
0.0
 10
243.1797728205312
 20
67.06404485546474
 30
0.0
 10
244.1794841388713
 20
66.48686125670913
 30
0.0
 10
244.8384182419366
 20
66.10642547492618
 30
0.0
 10
245.4919888673623
 20
65.72908629840224
 30
0.0
  0
SPLINE
  5
20D
330
1F
100
AcDbEntity
  8
0
  6
Continuous
 62
     7
370
    25
100
AcDbSpline
210
0.0
220
0.0
230
1.0
 70
     8
 71
     3
 72
    10
 73
     6
 74
     0
 42
0.00000001
 43
0.00000001
 40
0.0
 40
0.0
 40
0.0
 40
0.0
 40
0.5
 40
0.5
 40
1.0
 40
1.0
 40
1.0
 40
1.0
 10
245.4919888673623
 20
85.07032031625472
 30
0.0
 10
245.5663636213523
 20
85.11326060049176
 30
0.0
 10
245.6534573529182
 20
85.13722838506759
 30
0.0
 10
245.8296231814627
 20
85.1373864411731
 30
0.0
 10
245.917584205353
 20
85.11327786789472
 30
0.0
 10
245.9919888673623
 20
85.07032031625472
 30
0.0
  0
SPLINE
  5
20E
330
1F
100
AcDbEntity
  8
0
  6
Continuous
 62
     7
370
    25
100
AcDbSpline
210
0.0
220
0.0
230
1.0
 70
    24
 71
     3
 72
    12
 73
     8
 74
     0
 42
0.00000001
 43
0.00000001
 40
0.0
 40
0.0
 40
0.0
 40
0.0
 40
0.2499999999999999
 40
0.2499999999999999
 40
0.5
 40
0.5
 40
1.0
 40
1.0
 40
1.0
 40
1.0
 10
249.9919888673623
 20
82.76091923949622
 30
0.0
 10
249.6542329323395
 20
82.955922719502
 30
0.0
 10
249.313824917461
 20
83.15245737852642
 30
0.0
 10
248.6393302330606
 20
83.54187706613196
 30
0.0
 10
248.3042049141933
 20
83.73536175919222
 30
0.0
 10
247.3044935958532
 20
84.31254535794783
 30
0.0
 10
246.6455594927879
 20
84.69298113973079
 30
0.0
 10
245.9919888673622
 20
85.07032031625472
 30
0.0
  0
SPLINE
  5
20F
330
1F
100
AcDbEntity
  8
0
  6
Continuous
 62
     7
370
    25
100
AcDbSpline
210
0.0
220
0.0
230
1.0
 70
    24
 71
     3
 72
    10
 73
     6
 74
     0
 42
0.00000001
 43
0.00000001
 40
0.0
 40
0.0
 40
0.0
 40
0.0
 40
0.5
 40
0.5
 40
1.0
 40
1.0
 40
1.0
 40
1.0
 10
245.4919888673623
 20
85.07032031625475
 30
0.0
 10
244.8359761007572
 20
84.69157116886346
 30
0.0
 10
244.1757091938995
 20
84.31036589245215
 30
0.0
 10
242.8433626752645
 20
83.54113527126438
 30
0.0
 10
242.1712096937771
 20
83.15306756646605
 30
0.0
 10
241.4919888673623
 20
82.76091923949622
 30
0.0
  0
SPLINE
  5
210
330
1F
100
AcDbEntity
  8
0
  6
Continuous
 62
     7
370
    25
100
AcDbSpline
210
0.0
220
0.0
230
1.0
 70
    24
 71
     3
 72
    10
 73
     6
 74
     0
 42
0.00000001
 43
0.00000001
 40
0.0
 40
0.0
 40
0.0
 40
0.0
 40
0.5
 40
0.5
 40
1.0
 40
1.0
 40
1.0
 40
1.0
 10
254.2419888673623
 20
70.78090115381147
 30
0.0
 10
254.2419888673623
 20
71.53571042686076
 30
0.0
 10
254.2419888673623
 20
72.29645681409266
 30
0.0
 10
254.2419888673623
 20
73.83459919171592
 30
0.0
 10
254.2419888673623
 20
74.61210034424073
 30
0.0
 10
254.2419888673623
 20
75.39970330732848
 30
0.0
  0
SPLINE
  5
211
330
1F
100
AcDbEntity
  8
0
  6
Continuous
 62
     7
370
    25
100
AcDbSpline
210
0.0
220
0.0
230
1.0
 70
     8
 71
     3
 72
    10
 73
     6
 74
     0
 42
0.00000001
 43
0.00000001
 40
0.0
 40
0.0
 40
0.0
 40
0.0
 40
0.5
 40
0.5
 40
1.0
 40
1.0
 40
1.0
 40
1.0
 10
254.2419888673623
 20
70.78090115381147
 30
0.0
 10
254.2419888673623
 20
70.695019511305
 30
0.0
 10
254.2191982957148
 20
70.60761030533958
 30
0.0
 10
254.131252298416
 20
70.45496782026466
 30
0.0
 10
254.0663915056832
 20
70.39084483518228
 30
0.0
 10
253.9919888673623
 20
70.34788845191925
 30
0.0
  0
SPLINE
  5
212
330
1F
100
AcDbEntity
  8
0
  6
Continuous
 62
     7
370
    25
100
AcDbSpline
210
0.0
220
0.0
230
1.0
 70
    24
 71
     3
 72
    12
 73
     8
 74
     0
 42
0.00000001
 43
0.00000001
 40
0.0
 40
0.0
 40
0.0
 40
0.0
 40
0.2499999999999999
 40
0.2499999999999999
 40
0.4999999999999998
 40
0.4999999999999998
 40
1.0
 40
1.0
 40
1.0
 40
1.0
 10
249.9919888673623
 20
68.03848737516074
 30
0.0
 10
250.3297448023851
 20
68.23349085516654
 30
0.0
 10
250.6701528172636
 20
68.43002551419096
 30
0.0
 10
251.344647501664
 20
68.8194452017965
 30
0.0
 10
251.6797728205312
 20
69.01292989485677
 30
0.0
 10
252.6794841388714
 20
69.59011349361236
 30
0.0
 10
253.3384182419366
 20
69.97054927539533
 30
0.0
 10
253.9919888673623
 20
70.34788845191926
 30
0.0
  0
SPLINE
  5
213
330
1F
100
AcDbEntity
  8
0
  6
Continuous
 62
     7
370
    25
100
AcDbSpline
210
0.0
220
0.0
230
1.0
 70
     8
 71
     3
 72
    10
 73
     6
 74
     0
 42
0.00000001
 43
0.00000001
 40
0.0
 40
0.0
 40
0.0
 40
0.0
 40
0.5
 40
0.5
 40
1.0
 40
1.0
 40
1.0
 40
1.0
 10
253.9919888673622
 20
80.45151816273771
 30
0.0
 10
254.0663593342879
 20
80.40858035363847
 30
0.0
 10
254.1306649305757
 20
80.34513976374627
 30
0.0
 10
254.2188877183815
 20
80.19265061823744
 30
0.0
 10
254.2419888673623
 20
80.10442122903412
 30
0.0
 10
254.2419888673623
 20
80.01850546084549
 30
0.0
  0
SPLINE
  5
214
330
1F
100
AcDbEntity
  8
0
  6
Continuous
 62
     7
370
    25
100
AcDbSpline
210
0.0
220
0.0
230
1.0
 70
    24
 71
     3
 72
    12
 73
     8
 74
     0
 42
0.00000001
 43
0.00000001
 40
0.0
 40
0.0
 40
0.0
 40
0.0
 40
0.2500000000000001
 40
0.2500000000000001
 40
0.5000000000000001
 40
0.5000000000000001
 40
1.0
 40
1.0
 40
1.0
 40
1.0
 10
254.2419888673623
 20
75.39970330732848
 30
0.0
 10
254.2419888673623
 20
75.79402138800032
 30
0.0
 10
254.2419888673623
 20
76.18768043195077
 30
0.0
 10
254.2419888673623
 20
76.9672164314961
 30
0.0
 10
254.2419888673623
 20
77.35416961962152
 30
0.0
 10
254.2419888673623
 20
78.50755618247553
 30
0.0
 10
254.2419888673623
 20
79.26653867168055
 30
0.0
 10
254.2419888673623
 20
80.01850546084549
 30
0.0
  0
SPLINE
  5
215
330
1F
100
AcDbEntity
  8
0
  6
Continuous
 62
     7
370
    25
100
AcDbSpline
210
0.0
220
0.0
230
1.0
 70
    24
 71
     3
 72
    10
 73
     6
 74
     0
 42
0.00000001
 43
0.00000001
 40
0.0
 40
0.0
 40
0.0
 40
0.0
 40
0.5
 40
0.5
 40
1.0
 40
1.0
 40
1.0
 40
1.0
 10
253.9919888673623
 20
80.45151816273768
 30
0.0
 10
253.3359761007572
 20
80.83026731012896
 30
0.0
 10
252.6757091938995
 20
81.21147258654027
 30
0.0
 10
251.3433626752645
 20
81.98070320772804
 30
0.0
 10
250.6712096937771
 20
82.36877091252637
 30
0.0
 10
249.9919888673623
 20
82.76091923949622
 30
0.0
  0
LINE
  5
216
330
1F
100
AcDbEntity
  8
0
  6
Continuous
 62
     7
370
    25
100
AcDbLine
 10
241.4919888674
 20
63.3997033073
 30
0.0
 11
249.9919888674
 21
63.3997033073
 31
0.0
  0
SPLINE
  5
217
330
1F
100
AcDbEntity
  8
0
  6
Continuous
 62
     7
370
    25
100
AcDbSpline
210
0.0
220
0.0
230
1.0
 70
     8
 71
     3
 72
    10
 73
     6
 74
     0
 42
0.00000001
 43
0.00000001
 40
0.0
 40
0.0
 40
0.0
 40
0.0
 40
0.5
 40
0.5
 40
1.0
 40
1.0
 40
1.0
 40
1.0
 10
245.4919888673623
 20
64.07742471258821
 30
0.0
 10
244.8359761007572
 20
63.86861478792194
 30
0.0
 10
244.1757091938995
 20
63.6980806481747
 30
0.0
 10
242.8433626752645
 20
63.46329484315577
 30
0.0
 10
242.1712096937771
 20
63.39970330732849
 30
0.0
 10
241.4919888673623
 20
63.39970330732849
 30
0.0
  0
SPLINE
  5
218
330
1F
100
AcDbEntity
  8
0
  6
Continuous
 62
     7
370
    25
100
AcDbSpline
210
0.0
220
0.0
230
1.0
 70
     8
 71
     3
 72
    10
 73
     6
 74
     0
 42
0.00000001
 43
0.00000001
 40
0.0
 40
0.0
 40
0.0
 40
0.0
 40
0.5
 40
0.5
 40
1.0
 40
1.0
 40
1.0
 40
1.0
 10
245.4919888673623
 20
64.07742471258868
 30
0.0
 10
245.5663636213523
 20
64.10109831707979
 30
0.0
 10
245.6534573529182
 20
64.11419109287301
 30
0.0
 10
245.8296231814627
 20
64.11427766097397
 30
0.0
 10
245.917584205353
 20
64.10110783685069
 30
0.0
 10
245.9919888673623
 20
64.07742471258868
 30
0.0
  0
SPLINE
  5
219
330
1F
100
AcDbEntity
  8
0
  6
Continuous
 62
     7
370
    25
100
AcDbSpline
210
0.0
220
0.0
230
1.0
 70
     8
 71
     3
 72
    12
 73
     8
 74
     0
 42
0.00000001
 43
0.00000001
 40
0.0
 40
0.0
 40
0.0
 40
0.0
 40
0.2500000000000002
 40
0.2500000000000002
 40
0.5000000000000001
 40
0.5000000000000001
 40
1.0
 40
1.0
 40
1.0
 40
1.0
 10
249.9919888673623
 20
63.39970330732849
 30
0.0
 10
249.6542329323395
 20
63.39970330732849
 30
0.0
 10
249.313824917461
 20
63.41544963735043
 30
0.0
 10
248.6393302330606
 20
63.47689466193587
 30
0.0
 10
248.3042049141933
 20
63.52248342118961
 30
0.0
 10
247.3044935958532
 20
63.6989344234462
 30
0.0
 10
246.6455594927879
 20
63.86939212540968
 30
0.0
 10
245.9919888673622
 20
64.07742471258852
 30
0.0
  0
LINE
  5
21A
330
1F
100
AcDbEntity
  8
0
  6
Continuous
 62
     7
370
    25
100
AcDbLine
 10
245.9919888674
 20
65.7290862984
 30
0.0
 11
245.9919888674
 21
64.0774247126
 31
0.0
  0
LINE
  5
21B
330
1F
100
AcDbEntity
  8
0
  6
Continuous
 62
     7
370
    25
100
AcDbLine
 10
245.4919888674
 20
64.0774247126
 30
0.0
 11
245.4919888674
 21
65.7290862984
 31
0.0
  0
SPLINE
  5
21C
330
1F
100
AcDbEntity
  8
0
  6
Continuous
 62
     7
370
    25
100
AcDbSpline
210
0.0
220
0.0
230
1.0
 70
     8
 71
     3
 72
    12
 73
     8
 74
     0
 42
0.00000001
 43
0.00000001
 40
0.0
 40
0.0
 40
0.0
 40
0.0
 40
0.2500000000000001
 40
0.2500000000000001
 40
0.5000000000000002
 40
0.5000000000000002
 40
1.0
 40
1.0
 40
1.0
 40
1.0
 10
241.4919888673623
 20
63.39970330732849
 30
0.0
 10
241.1542329323395
 20
63.39970330732849
 30
0.0
 10
240.813824917461
 20
63.41544963735043
 30
0.0
 10
240.1393302330605
 20
63.47689466193587
 30
0.0
 10
239.8042049141933
 20
63.52248342118961
 30
0.0
 10
238.8044935958532
 20
63.6989344234462
 30
0.0
 10
238.1455594927879
 20
63.8693921254097
 30
0.0
 10
237.4919888673622
 20
64.07742471258852
 30
0.0
  0
LINE
  5
21D
330
1F
100
AcDbEntity
  8
0
  6
Continuous
 62
     7
370
    25
100
AcDbLine
 10
237.4919888674
 20
67.4333067675
 30
0.0
 11
237.4919888674
 21
64.0774247126
 31
0.0
  0
SPLINE
  5
21E
330
1F
100
AcDbEntity
  8
0
  6
Continuous
 62
     7
370
    25
100
AcDbSpline
210
0.0
220
0.0
230
1.0
 70
     8
 71
     3
 72
    10
 73
     6
 74
     0
 42
0.00000001
 43
0.00000001
 40
0.0
 40
0.0
 40
0.0
 40
0.0
 40
0.5
 40
0.5
 40
1.0
 40
1.0
 40
1.0
 40
1.0
 10
237.4919888673627
 20
67.43330676747362
 30
0.0
 10
238.1268165731764
 20
67.63537345302456
 30
0.0
 10
238.7660822757522
 20
67.8017662252952
 30
0.0
 10
240.056897207342
 20
68.03581319916526
 30
0.0
 10
240.7085168428119
 20
68.10290145312409
 30
0.0
 10
241.367558774632
 20
68.11032712269386
 30
0.0
  0
SPLINE
  5
21F
330
1F
100
AcDbEntity
  8
0
  6
Continuous
 62
     7
370
    25
100
AcDbSpline
210
0.0
220
0.0
230
1.0
 70
     8
 71
     3
 72
    12
 73
     8
 74
     0
 42
0.00000001
 43
0.00000001
 40
0.0
 40
0.0
 40
0.0
 40
0.0
 40
0.2500000000000002
 40
0.2500000000000002
 40
0.5000000000000004
 40
0.5000000000000004
 40
1.0
 40
1.0
 40
1.0
 40
1.0
 10
250.1164189601146
 20
68.11032712269362
 30
0.0
 10
250.4455539505078
 20
68.10661863683718
 30
0.0
 10
250.7750161034446
 20
68.08803613399951
 30
0.0
 10
251.4278897215022
 20
68.02316909703336
 30
0.0
 10
251.7523423133793
 20
67.9769035437831
 30
0.0
 10
252.7204027545714
 20
67.80117901347613
 30
0.0
 10
253.3587252388193
 20
67.63487560469939
 30
0.0
 10
253.9919888673622
 20
67.43330676747347
 30
0.0
  0
LINE
  5
220
330
1F
100
AcDbEntity
  8
0
  6
Continuous
 62
     7
370
    25
100
AcDbLine
 10
253.9919888674
 20
64.0774247126
 30
0.0
 11
253.9919888674
 21
67.4333067675
 31
0.0
  0
SPLINE
  5
221
330
1F
100
AcDbEntity
  8
0
  6
Continuous
 62
     7
370
    25
100
AcDbSpline
210
0.0
220
0.0
230
1.0
 70
     8
 71
     3
 72
    10
 73
     6
 74
     0
 42
0.00000001
 43
0.00000001
 40
0.0
 40
0.0
 40
0.0
 40
0.0
 40
0.5
 40
0.5
 40
1.0
 40
1.0
 40
1.0
 40
1.0
 10
253.9919888673623
 20
64.07742471258821
 30
0.0
 10
253.3359761007572
 20
63.86861478792194
 30
0.0
 10
252.6757091938995
 20
63.6980806481747
 30
0.0
 10
251.3433626752645
 20
63.46329484315577
 30
0.0
 10
250.6712096937771
 20
63.39970330732849
 30
0.0
 10
249.9919888673623
 20
63.39970330732849
 30
0.0
  0
SPLINE
  5
222
330
1F
100
AcDbEntity
  8
0
  6
Continuous
 62
     7
370
    25
100
AcDbSpline
210
0.0
220
0.0
230
1.0
 70
     8
 71
     3
 72
    10
 73
     6
 74
     0
 42
0.00000001
 43
0.00000001
 40
0.0
 40
0.0
 40
0.0
 40
0.0
 40
0.5
 40
0.5
 40
1.0
 40
1.0
 40
1.0
 40
1.0
 10
237.2419888673622
 20
64.07742471258868
 30
0.0
 10
237.2419888673622
 20
64.10109861314463
 30
0.0
 10
237.2647794390097
 20
64.11419117032375
 30
0.0
 10
237.3527254363085
 20
64.11427758430605
 30
0.0
 10
237.4175862290413
 20
64.10110719270742
 30
0.0
 10
237.4919888673623
 20
64.07742471258868
 30
0.0
  0
LINE
  5
223
330
1F
100
AcDbEntity
  8
0
  6
Continuous
 62
     7
370
    25
100
AcDbLine
 10
241.4919888674
 20
63.3997033073
 30
0.0
 11
237.2419888674
 21
63.3997033073
 31
0.0
  0
SPLINE
  5
224
330
1F
100
AcDbEntity
  8
0
  6
Continuous
 62
     7
370
    25
100
AcDbSpline
210
0.0
220
0.0
230
1.0
 70
    24
 71
     3
 72
    10
 73
     6
 74
     0
 42
0.00000001
 43
0.00000001
 40
0.0
 40
0.0
 40
0.0
 40
0.0
 40
0.5000000000000001
 40
0.5000000000000001
 40
1.0
 40
1.0
 40
1.0
 40
1.0
 10
237.2419888673622
 20
64.07742471258865
 30
0.0
 10
237.2419888673622
 20
63.87049465905595
 30
0.0
 10
237.2419888673622
 20
63.69868904868224
 30
0.0
 10
237.2419888673622
 20
63.46173854215087
 30
0.0
 10
237.2419888673622
 20
63.39970330732849
 30
0.0
 10
237.2419888673622
 20
63.39970330732849
 30
0.0
  0
SPLINE
  5
225
330
1F
100
AcDbEntity
  8
0
  6
Continuous
 62
     7
370
    25
100
AcDbSpline
210
0.0
220
0.0
230
1.0
 70
     8
 71
     3
 72
    10
 73
     6
 74
     0
 42
0.00000001
 43
0.00000001
 40
0.0
 40
0.0
 40
0.0
 40
0.0
 40
0.5
 40
0.5
 40
1.0
 40
1.0
 40
1.0
 40
1.0
 10
253.9919888673622
 20
64.07742471258868
 30
0.0
 10
254.0663593342879
 20
64.10109695250023
 30
0.0
 10
254.1306649305757
 20
64.1141909424355
 30
0.0
 10
254.2188877183815
 20
64.11427780989693
 30
0.0
 10
254.2419888673623
 20
64.10110802013757
 30
0.0
 10
254.2419888673623
 20
64.07742471258868
 30
0.0
  0
LINE
  5
226
330
1F
100
AcDbEntity
  8
0
  6
Continuous
 62
     7
370
    25
100
AcDbLine
 10
249.9919888674
 20
63.3997033073
 30
0.0
 11
254.2419888674
 21
63.3997033073
 31
0.0
  0
SPLINE
  5
227
330
1F
100
AcDbEntity
  8
0
  6
Continuous
 62
     7
370
    25
100
AcDbSpline
210
0.0
220
0.0
230
1.0
 70
    24
 71
     3
 72
    10
 73
     6
 74
     0
 42
0.00000001
 43
0.00000001
 40
0.0
 40
0.0
 40
0.0
 40
0.0
 40
0.5000000000000001
 40
0.5000000000000001
 40
1.0
 40
1.0
 40
1.0
 40
1.0
 10
254.2419888673623
 20
64.07742471258865
 30
0.0
 10
254.2419888673623
 20
63.87049465905595
 30
0.0
 10
254.2419888673623
 20
63.69868904868224
 30
0.0
 10
254.2419888673623
 20
63.46173854215087
 30
0.0
 10
254.2419888673623
 20
63.39970330732849
 30
0.0
 10
254.2419888673623
 20
63.39970330732849
 30
0.0
  0
SPLINE
  5
228
330
1F
100
AcDbEntity
  8
0
  6
Continuous
 62
     7
370
    25
100
AcDbSpline
210
0.0
220
0.0
230
1.0
 70
     8
 71
     3
 72
     8
 73
     4
 74
     0
 42
0.00000001
 43
0.00000001
 40
0.0
 40
0.0
 40
0.0
 40
0.0
 40
1.0
 40
1.0
 40
1.0
 40
1.0
 10
238.8137856370868
 20
68.39970330732848
 30
0.0
 10
238.2873647758775
 20
68.13649287672388
 30
0.0
 10
237.7638203191638
 20
67.86739544833716
 30
0.0
 10
237.2419888673622
 20
67.59479209575451
 30
0.0
  0
SPLINE
  5
229
330
1F
100
AcDbEntity
  8
0
  6
Continuous
 62
     7
370
    25
100
AcDbSpline
210
0.0
220
0.0
230
1.0
 70
     8
 71
     3
 72
    10
 73
     6
 74
     0
 42
0.00000001
 43
0.00000001
 40
0.0
 40
0.0
 40
0.0
 40
0.0
 40
0.5
 40
0.5
 40
1.0
 40
1.0
 40
1.0
 40
1.0
 10
237.2419888673622
 20
67.43330676747341
 30
0.0
 10
237.2419888673622
 20
67.40963137304901
 30
0.0
 10
237.2647813166921
 20
67.39654026316443
 30
0.0
 10
237.3527240207854
 20
67.3964539418762
 30
0.0
 10
237.4175817944596
 20
67.40962287582015
 30
0.0
 10
237.4919888673629
 20
67.4333067674737
 30
0.0
  0
SPLINE
  5
22A
330
1F
100
AcDbEntity
  8
0
  6
Continuous
 62
     7
370
    25
100
AcDbSpline
210
0.0
220
0.0
230
1.0
 70
    24
 71
     3
 72
     8
 73
     4
 74
     0
 42
0.00000001
 43
0.00000001
 40
0.0
 40
0.0
 40
0.0
 40
0.0
 40
1.0
 40
1.0
 40
1.0
 40
1.0
 10
237.2419888673622
 20
67.43330676747348
 30
0.0
 10
237.2419888673622
 20
67.4898677345977
 30
0.0
 10
237.2419888673622
 20
67.54380780601153
 30
0.0
 10
237.2419888673622
 20
67.5947920957545
 30
0.0
  0
SPLINE
  5
22B
330
1F
100
AcDbEntity
  8
0
  6
Continuous
 62
     7
370
    25
100
AcDbSpline
210
0.0
220
0.0
230
1.0
 70
     8
 71
     3
 72
     8
 73
     4
 74
     0
 42
0.00000001
 43
0.00000001
 40
0.0
 40
0.0
 40
0.0
 40
0.0
 40
1.0
 40
1.0
 40
1.0
 40
1.0
 10
254.2419888673623
 20
67.5947920957545
 30
0.0
 10
253.7201827160604
 20
67.86738223142385
 30
0.0
 10
253.1965292472043
 20
68.13653473254524
 30
0.0
 10
252.6701920976377
 20
68.39970330732848
 30
0.0
  0
SPLINE
  5
22C
330
1F
100
AcDbEntity
  8
0
  6
Continuous
 62
     7
370
    25
100
AcDbSpline
210
0.0
220
0.0
230
1.0
 70
     8
 71
     3
 72
    10
 73
     6
 74
     0
 42
0.00000001
 43
0.00000001
 40
0.0
 40
0.0
 40
0.0
 40
0.0
 40
0.5
 40
0.5
 40
1.0
 40
1.0
 40
1.0
 40
1.0
 10
253.9919888673622
 20
67.43330676747347
 30
0.0
 10
254.0663692447396
 20
67.4096313730491
 30
0.0
 10
254.1306698835254
 20
67.39654026316445
 30
0.0
 10
254.2188855683083
 20
67.39645394187617
 30
0.0
 10
254.2419888673623
 20
67.40962287582
 30
0.0
 10
254.2419888673623
 20
67.43330676747347
 30
0.0
  0
SPLINE
  5
22D
330
1F
100
AcDbEntity
  8
0
  6
Continuous
 62
     7
370
    25
100
AcDbSpline
210
0.0
220
0.0
230
1.0
 70
    24
 71
     3
 72
     8
 73
     4
 74
     0
 42
0.00000001
 43
0.00000001
 40
0.0
 40
0.0
 40
0.0
 40
0.0
 40
1.0
 40
1.0
 40
1.0
 40
1.0
 10
254.2419888673623
 20
67.43330676747348
 30
0.0
 10
254.2419888673623
 20
67.4898677345977
 30
0.0
 10
254.2419888673623
 20
67.54380780601153
 30
0.0
 10
254.2419888673623
 20
67.5947920957545
 30
0.0
  0
LINE
  5
22E
330
1F
100
AcDbEntity
  8
0
  6
Continuous
 62
     7
370
    25
100
AcDbLine
 10
238.2419888674
 20
69.91487575
 30
0.0
 11
238.2419888674
 21
68.3997033073
 31
0.0
  0
LINE
  5
22F
330
1F
100
AcDbEntity
  8
0
  6
Continuous
 62
     7
370
    25
100
AcDbLine
 10
238.2419888674
 20
68.3997033073
 30
0.0
 11
240.8663445203
 21
68.3997033073
 31
0.0
  0
LINE
  5
230
330
1F
100
AcDbEntity
  8
0
  6
Continuous
 62
     7
370
    25
100
AcDbLine
 10
253.2419888674
 20
68.3997033073
 30
0.0
 11
253.2419888674
 21
69.91487575
 31
0.0
  0
LINE
  5
231
330
1F
100
AcDbEntity
  8
0
  6
Continuous
 62
     7
370
    25
100
AcDbLine
 10
250.6176332144
 20
68.3997033073
 30
0.0
 11
253.2419888674
 21
68.3997033073
 31
0.0
  0
LINE
  5
232
330
1F
100
AcDbEntity
  8
0
  6
Continuous
 62
     7
370
    25
100
AcDbLine
 10
239.2774368088
 20
54.0033691812
 30
0.0
 11
252.2065409259
 21
54.0033691812
 31
0.0
  0
LINE
  5
233
330
1F
100
AcDbEntity
  8
0
  6
Continuous
 62
     7
370
    25
100
AcDbLine
 10
245.7419888674
 20
51.8997033073
 30
0.0
 11
240.4919888674
 21
51.8997033073
 31
0.0
  0
LINE
  5
234
330
1F
100
AcDbEntity
  8
0
  6
Continuous
 62
     7
370
    25
100
AcDbLine
 10
250.9919888674
 20
51.8997033073
 30
0.0
 11
245.7419888674
 21
51.8997033073
 31
0.0
  0
LINE
  5
235
330
1F
100
AcDbEntity
  8
0
  6
Continuous
 62
     7
370
    25
100
AcDbLine
 10
237.2419888674
 20
64.0774247126
 30
0.0
 11
237.2419888674
 21
67.4333067675
 31
0.0
  0
LINE
  5
236
330
1F
100
AcDbEntity
  8
0
  6
Continuous
 62
     7
370
    25
100
AcDbLine
 10
254.2419888674
 20
67.4333067675
 30
0.0
 11
254.2419888674
 21
64.0774247126
 31
0.0
  0
LINE
  5
237
330
1F
100
AcDbEntity
  8
0
  6
Continuous
 62
     7
370
    25
100
AcDbLine
 10
237.2419888674
 20
67.5947920958
 30
0.0
 11
237.2419888674
 21
70.730552009
 31
0.0
  0
LINE
  5
238
330
1F
100
AcDbEntity
  8
0
  6
Continuous
 62
     7
370
    25
100
AcDbLine
 10
254.2419888674
 20
67.5947920958
 30
0.0
 11
254.2419888674
 21
70.730552009
 31
0.0
  0
LINE
  5
239
330
1F
100
AcDbEntity
  8
0
  6
Continuous
 62
     7
370
    25
100
AcDbLine
 10
242.2419888674
 20
102.4997033073
 30
0.0
 11
240.2419888674
 21
102.4997033073
 31
0.0
  0
LINE
  5
23A
330
1F
100
AcDbEntity
  8
0
  6
Continuous
 62
     7
370
    25
100
AcDbLine
 10
251.2419888674
 20
102.4997033073
 30
0.0
 11
249.2419888674
 21
102.4997033073
 31
0.0
  0
SPLINE
  5
23B
330
1F
100
AcDbEntity
  8
0
  6
Continuous
 62
     7
370
    25
100
AcDbSpline
210
0.0
220
0.0
230
1.0
 70
     8
 71
     3
 72
    18
 73
    14
 74
     0
 42
0.00000001
 43
0.00000001
 40
0.0
 40
0.0
 40
0.0
 40
0.0
 40
0.0468428660816961
 40
0.1374640506088982
 40
0.2589131060108724
 40
0.3805758244683994
 40
0.396073618741469
 40
0.5262727736085903
 40
0.6564702697793088
 40
0.7574454173882827
 40
0.8582174373726889
 40
0.9375312068800595
 40
1.0
 40
1.0
 40
1.0
 40
1.0
 10
246.3564466543488
 20
84.85990051482979
 30
0.0
 10
246.4990948841574
 20
84.84923040678125
 30
0.0
 10
246.9177072604257
 20
84.81791814099823
 30
0.0
 10
247.6713979919896
 20
84.64537514945873
 30
0.0
 10
248.5689238492852
 20
84.33059463574054
 30
0.0
 10
249.1787075369605
 20
84.01549689612783
 30
0.0
 10
249.7544452147847
 20
83.66917216875062
 30
0.0
 10
250.291817556233
 20
83.28861579843031
 30
0.0
 10
250.8577379038802
 20
82.7909893281503
 30
0.0
 10
251.2593154590372
 20
82.37775751404575
 30
0.0
 10
251.4986586460929
 20
82.10437598014471
 30
0.0
 10
251.6238444720689
 20
81.95264414832485
 30
0.0
 10
251.6311574650464
 20
81.94321778892913
 30
0.0
 10
251.6343795386
 20
81.93906457513434
 30
0.0
  0
SPLINE
  5
23C
330
1F
100
AcDbEntity
  8
0
  6
Continuous
 62
     7
370
    25
100
AcDbSpline
210
0.0
220
0.0
230
1.0
 70
     8
 71
     3
 72
    19
 73
    15
 74
     0
 42
0.00000001
 43
0.00000001
 40
0.0
 40
0.0
 40
0.0
 40
0.0
 40
0.0663419227307615
 40
0.1059282466801644
 40
0.1953124765245073
 40
0.2848629631593756
 40
0.4058558208796053
 40
0.5269349084512265
 40
0.6283688975881768
 40
0.7297356097148114
 40
0.8191464248555616
 40
0.9084832637958117
 40
0.9868724213149118
 40
1.0
 40
1.0
 40
1.0
 40
1.0
 10
239.843930009705
 20
81.93227011058649
 30
0.0
 10
239.8486699997904
 20
81.93806770186832
 30
0.0
 10
239.8562383490087
 20
81.9473247244895
 30
0.0
 10
239.9374965405165
 20
82.04633396553464
 30
0.0
 10
240.0871652414128
 20
82.22317179995353
 30
0.0
 10
240.395554036821
 20
82.55998249941828
 30
0.0
 10
240.8527979071103
 20
83.0005705463609
 30
0.0
 10
241.4511253424871
 20
83.48258932411184
 30
0.0
 10
242.1210098541731
 20
83.91851706298986
 30
0.0
 10
242.8111638707308
 20
84.27486786480127
 30
0.0
 10
243.5472504836743
 20
84.56171004178059
 30
0.0
 10
244.2800573777346
 20
84.75369286695707
 30
0.0
 10
244.8206187590607
 20
84.85339336397851
 30
0.0
 10
245.1015881564961
 20
84.8663351831819
 30
0.0
 10
245.1418916903186
 20
84.86819161684603
 30
0.0
  0
INSERT
  5
248
330
1F
100
AcDbEntity
  8
0
  6
Continuous
 62
     7
370
    18
100
AcDbBlockReference
  2
SW_CENTERMARKSYMBOL_0
 10
245.7419888674
 20
75.3997033073
 30
0.0
  0
LINE
  5
249
330
1F
100
AcDbEntity
  8
0
  6
Continuous
 62
     7
370
    18
100
AcDbLine
 10
239.6757388674
 20
62.8997033073
 30
0.0
 11
239.9924505635
 21
52.7649290299
 31
0.0
  0
LINE
  5
24A
330
1F
100
AcDbEntity
  8
0
  6
Continuous
 62
     7
370
    18
100
AcDbLine
 10
251.4915271712
 20
52.7649290299
 30
0.0
 11
251.8082388674
 21
62.8997033073
 31
0.0
  0
LINE
  5
24B
330
1F
100
AcDbEntity
  8
0
  6
Continuous
 62
     7
370
    25
100
AcDbLine
 10
139.9921851739
 20
142.1707243332
 30
0.0
 11
135.9921851739
 21
141.5207243332
 31
0.0
  0
LINE
  5
24C
330
1F
100
AcDbEntity
  8
0
  6
Continuous
 62
     7
370
    25
100
AcDbLine
 10
135.9921851739
 20
133.8207243332
 30
0.0
 11
139.9921851739
 21
133.1707243332
 31
0.0
  0
LINE
  5
24D
330
1F
100
AcDbEntity
  8
0
  6
Continuous
 62
     7
370
    25
100
AcDbLine
 10
143.9921851739
 20
142.1707243332
 30
0.0
 11
139.9921851739
 21
141.5207243332
 31
0.0
  0
LINE
  5
24E
330
1F
100
AcDbEntity
  8
0
  6
Continuous
 62
     7
370
    25
100
AcDbLine
 10
139.9921851739
 20
133.8207243332
 30
0.0
 11
143.9921851739
 21
133.1707243332
 31
0.0
  0
LINE
  5
24F
330
1F
100
AcDbEntity
  8
0
  6
Continuous
 62
     7
370
    25
100
AcDbLine
 10
135.9921851739
 20
142.1707243332
 30
0.0
 11
131.9921851739
 21
141.5207243332
 31
0.0
  0
LINE
  5
250
330
1F
100
AcDbEntity
  8
0
  6
Continuous
 62
     7
370
    25
100
AcDbLine
 10
131.9921851739
 20
133.8207243332
 30
0.0
 11
135.9921851739
 21
133.1707243332
 31
0.0
  0
LINE
  5
251
330
1F
100
AcDbEntity
  8
0
  6
Continuous
 62
     7
370
    25
100
AcDbLine
 10
131.9921851739
 20
142.1707243332
 30
0.0
 11
127.198293138
 21
141.6041734563
 31
0.0
  0
LINE
  5
252
330
1F
100
AcDbEntity
  8
0
  6
Continuous
 62
     7
370
    25
100
AcDbLine
 10
127.198293138
 20
133.7372752102
 30
0.0
 11
131.9921851739
 21
133.1707243332
 31
0.0
  0
LINE
  5
253
330
1F
100
AcDbEntity
  8
0
  6
Continuous
 62
     7
370
    25
100
AcDbLine
 10
152.4118004161
 20
133.1707243332
 30
0.0
 11
152.4921851739
 21
133.4707243332
 31
0.0
  0
LINE
  5
254
330
1F
100
AcDbEntity
  8
0
  6
Continuous
 62
     7
370
    25
100
AcDbLine
 10
152.4921851739
 20
141.8707243332
 30
0.0
 11
152.4118004161
 21
142.1707243332
 31
0.0
  0
LINE
  5
255
330
1F
100
AcDbEntity
  8
0
  6
Continuous
 62
     7
370
    25
100
AcDbLine
 10
152.4118004161
 20
142.1707243332
 30
0.0
 11
147.9921851739
 21
142.1707243332
 31
0.0
  0
LINE
  5
256
330
1F
100
AcDbEntity
  8
0
  6
Continuous
 62
     7
370
    25
100
AcDbLine
 10
147.9921851739
 20
133.1707243332
 30
0.0
 11
152.4118004161
 21
133.1707243332
 31
0.0
  0
LINE
  5
257
330
1F
100
AcDbEntity
  8
0
  6
Continuous
 62
     7
370
    25
100
AcDbLine
 10
147.9921851739
 20
142.1707243332
 30
0.0
 11
143.9921851739
 21
141.5207243332
 31
0.0
  0
LINE
  5
258
330
1F
100
AcDbEntity
  8
0
  6
Continuous
 62
     7
370
    25
100
AcDbLine
 10
143.9921851739
 20
133.8207243332
 30
0.0
 11
147.9921851739
 21
133.1707243332
 31
0.0
  0
ARC
  5
259
330
1F
100
AcDbEntity
  8
0
  6
Continuous
 62
     7
370
    25
100
AcDbCircle
 10
127.2921851739
 20
140.8097023834
 30
0.0
 40
0.8000000000000256
100
AcDbArc
 50
96.7400560979
 51
180.0
  0
ARC
  5
25A
330
1F
100
AcDbEntity
  8
0
  6
Continuous
 62
     7
370
    25
100
AcDbCircle
 10
127.2921851739
 20
134.5317462831
 30
0.0
 40
0.8000000000000256
100
AcDbArc
 50
180.0
 51
263.2599439021
  0
LINE
  5
25B
330
1F
100
AcDbEntity
  8
0
  6
Continuous
 62
     7
370
    25
100
AcDbLine
 10
154.5787877143
 20
145.6707243332
 30
0.0
 11
154.4921851739
 21
145.5207243332
 31
0.0
  0
LINE
  5
25C
330
1F
100
AcDbEntity
  8
0
  6
Continuous
 62
     7
370
    25
100
AcDbLine
 10
154.4921851739
 20
129.8207243332
 30
0.0
 11
154.5787877143
 21
129.6707243332
 31
0.0
  0
LINE
  5
25D
330
1F
100
AcDbEntity
  8
0
  6
Continuous
 62
     7
370
    25
100
AcDbLine
 10
163.4055826335
 20
129.6707243332
 30
0.0
 11
163.4921851739
 21
129.8207243332
 31
0.0
  0
LINE
  5
25E
330
1F
100
AcDbEntity
  8
0
  6
Continuous
 62
     7
370
    25
100
AcDbLine
 10
163.4921851739
 20
145.5207243332
 30
0.0
 11
163.4055826335
 21
145.6707243332
 31
0.0
  0
LINE
  5
25F
330
1F
100
AcDbEntity
  8
0
  6
Continuous
 62
     7
370
    25
100
AcDbLine
 10
154.4921851739
 20
145.5207243332
 30
0.0
 11
152.7921851739
 21
145.5207243332
 31
0.0
  0
LINE
  5
260
330
1F
100
AcDbEntity
  8
0
  6
Continuous
 62
     7
370
    25
100
AcDbLine
 10
152.7921851739
 20
129.8207243332
 30
0.0
 11
154.4921851739
 21
129.8207243332
 31
0.0
  0
LINE
  5
261
330
1F
100
AcDbEntity
  8
0
  6
Continuous
 62
     7
370
    25
100
AcDbLine
 10
163.4921851739
 20
129.8207243332
 30
0.0
 11
165.1921851739
 21
129.8207243332
 31
0.0
  0
LINE
  5
262
330
1F
100
AcDbEntity
  8
0
  6
Continuous
 62
     7
370
    25
100
AcDbLine
 10
165.1921851739
 20
145.5207243332
 30
0.0
 11
163.4921851739
 21
145.5207243332
 31
0.0
  0
ARC
  5
263
330
1F
100
AcDbEntity
  8
0
  6
Continuous
 62
     7
370
    25
100
AcDbCircle
 10
152.7921851739
 20
130.1207243332
 30
0.0
 40
0.3000000000000114
100
AcDbArc
 50
180.0
 51
270.0
  0
ARC
  5
264
330
1F
100
AcDbEntity
  8
0
  6
Continuous
 62
     7
370
    25
100
AcDbCircle
 10
152.7921851739
 20
145.2207243332
 30
0.0
 40
0.2999999999999829
100
AcDbArc
 50
90.0
 51
180.0
  0
ARC
  5
265
330
1F
100
AcDbEntity
  8
0
  6
Continuous
 62
     7
370
    25
100
AcDbCircle
 10
165.1921851739
 20
145.2207243332
 30
0.0
 40
0.2999999999999829
100
AcDbArc
 50
0.0
 51
90.0
  0
ARC
  5
266
330
1F
100
AcDbEntity
  8
0
  6
Continuous
 62
     7
370
    25
100
AcDbCircle
 10
165.1921851739
 20
130.1207243332
 30
0.0
 40
0.3000000000000114
100
AcDbArc
 50
270.0
 51
0.0
  0
LINE
  5
267
330
1F
100
AcDbEntity
  8
0
  6
Continuous
 62
     7
370
    25
100
AcDbLine
 10
168.8703130963
 20
129.1707243332
 30
0.0
 11
171.6703130963
 21
129.1707243332
 31
0.0
  0
LINE
  5
268
330
1F
100
AcDbEntity
  8
0
  6
Continuous
 62
     7
370
    25
100
AcDbLine
 10
171.6703130963
 20
146.1707243332
 30
0.0
 11
168.8703130963
 21
146.1707243332
 31
0.0
  0
LINE
  5
269
330
1F
100
AcDbEntity
  8
0
  6
Continuous
 62
     7
370
    25
100
AcDbLine
 10
168.8703130963
 20
146.1707243332
 30
0.0
 11
168.6703130963
 21
145.9707243332
 31
0.0
  0
LINE
  5
26A
330
1F
100
AcDbEntity
  8
0
  6
Continuous
 62
     7
370
    25
100
AcDbLine
 10
168.6703130963
 20
129.3707243332
 30
0.0
 11
168.8703130963
 21
129.1707243332
 31
0.0
  0
LINE
  5
26B
330
1F
100
AcDbEntity
  8
0
  6
Continuous
 62
     7
370
    25
100
AcDbLine
 10
168.6703130963
 20
144.2492243332
 30
0.0
 11
165.4921851739
 21
144.2492243332
 31
0.0
  0
LINE
  5
26C
330
1F
100
AcDbEntity
  8
0
  6
Continuous
 62
     7
370
    25
100
AcDbLine
 10
165.4921851739
 20
131.0922243332
 30
0.0
 11
168.6703130963
 21
131.0922243332
 31
0.0
  0
LINE
  5
26D
330
1F
100
AcDbEntity
  8
0
  6
Continuous
 62
     7
370
    25
100
AcDbLine
 10
195.025975529
 20
129.1707243332
 30
0.0
 11
195.1703130963
 21
129.4207243332
 31
0.0
  0
LINE
  5
26E
330
1F
100
AcDbEntity
  8
0
  6
Continuous
 62
     7
370
    25
100
AcDbLine
 10
195.1703130963
 20
145.9207243332
 30
0.0
 11
195.025975529
 21
146.1707243332
 31
0.0
  0
LINE
  5
26F
330
1F
100
AcDbEntity
  8
0
  6
Continuous
 62
     7
370
    25
100
AcDbLine
 10
139.9921851739
 20
142.1707243332
 30
0.0
 11
139.9921851739
 21
133.1707243332
 31
0.0
  0
LINE
  5
270
330
1F
100
AcDbEntity
  8
0
  6
Continuous
 62
     7
370
    25
100
AcDbLine
 10
143.9921851739
 20
142.1707243332
 30
0.0
 11
143.9921851739
 21
141.1707243332
 31
0.0
  0
LINE
  5
271
330
1F
100
AcDbEntity
  8
0
  6
Continuous
 62
     7
370
    25
100
AcDbLine
 10
143.9921851739
 20
134.1707243332
 30
0.0
 11
143.9921851739
 21
133.1707243332
 31
0.0
  0
LINE
  5
272
330
1F
100
AcDbEntity
  8
0
  6
Continuous
 62
     7
370
    25
100
AcDbLine
 10
135.9921851739
 20
142.1707243332
 30
0.0
 11
135.9921851739
 21
133.1707243332
 31
0.0
  0
LINE
  5
273
330
1F
100
AcDbEntity
  8
0
  6
Continuous
 62
     7
370
    25
100
AcDbLine
 10
131.9921851739
 20
142.1707243332
 30
0.0
 11
131.9921851739
 21
133.1707243332
 31
0.0
  0
LINE
  5
274
330
1F
100
AcDbEntity
  8
0
  6
Continuous
 62
     7
370
    25
100
AcDbLine
 10
152.4118004161
 20
142.1707243332
 30
0.0
 11
152.4118004161
 21
141.1707243332
 31
0.0
  0
LINE
  5
275
330
1F
100
AcDbEntity
  8
0
  6
Continuous
 62
     7
370
    25
100
AcDbLine
 10
152.4118004161
 20
134.1707243332
 30
0.0
 11
152.4118004161
 21
133.1707243332
 31
0.0
  0
LINE
  5
276
330
1F
100
AcDbEntity
  8
0
  6
Continuous
 62
     7
370
    25
100
AcDbLine
 10
147.9921851739
 20
142.1707243332
 30
0.0
 11
147.9921851739
 21
141.1707243332
 31
0.0
  0
LINE
  5
277
330
1F
100
AcDbEntity
  8
0
  6
Continuous
 62
     7
370
    25
100
AcDbLine
 10
147.9921851739
 20
134.1707243332
 30
0.0
 11
147.9921851739
 21
133.1707243332
 31
0.0
  0
LINE
  5
278
330
1F
100
AcDbEntity
  8
0
  6
Continuous
 62
     7
370
    25
100
AcDbLine
 10
126.4921851739
 20
134.5317462831
 30
0.0
 11
126.4921851739
 21
140.8097023834
 31
0.0
  0
SPLINE
  5
279
330
1F
100
AcDbEntity
  8
0
  6
Continuous
 62
     7
370
    25
100
AcDbSpline
210
0.0
220
0.0
230
1.0
 70
     8
 71
     3
 72
    11
 73
     7
 74
     0
 42
0.00000001
 43
0.00000001
 40
0.0
 40
0.0
 40
0.0
 40
0.0
 40
0.4709116352817393
 40
0.7117259034345579
 40
0.9524967157451775
 40
1.0
 40
1.0
 40
1.0
 40
1.0
 10
155.2933188940715
 20
145.6707243332389
 30
0.0
 10
155.0838565432396
 20
144.9763055055119
 30
0.0
 10
154.7672795684697
 20
143.9267755502152
 30
0.0
 10
154.6041598272104
 20
142.4855141596883
 30
0.0
 10
154.5437001854111
 20
141.6783909392236
 30
0.0
 10
154.5982939692213
 20
141.2425452254975
 30
0.0
 10
154.6072902129413
 20
141.1707243332389
 30
0.0
  0
SPLINE
  5
27A
330
1F
100
AcDbEntity
  8
0
  6
Continuous
 62
     7
370
    25
100
AcDbSpline
210
0.0
220
0.0
230
1.0
 70
     8
 71
     3
 72
    10
 73
     6
 74
     0
 42
0.00000001
 43
0.00000001
 40
0.0
 40
0.0
 40
0.0
 40
0.0
 40
0.1721130615207077
 40
0.5822633461311513
 40
1.0
 40
1.0
 40
1.0
 40
1.0
 10
154.6029281775888
 20
134.1707243332389
 30
0.0
 10
154.5918261140284
 20
133.9092742820175
 30
0.0
 10
154.554267519576
 20
133.0247813776134
 30
0.0
 10
154.7463984301861
 20
131.5041325211777
 30
0.0
 10
155.1099017478972
 20
130.2855824704082
 30
0.0
 10
155.2933188940715
 20
129.670724333239
 30
0.0
  0
SPLINE
  5
27B
330
1F
100
AcDbEntity
  8
0
  6
Continuous
 62
     7
370
    25
100
AcDbSpline
210
0.0
220
0.0
230
1.0
 70
    24
 71
     3
 72
    10
 73
     6
 74
     0
 42
0.00000001
 43
0.00000001
 40
0.0
 40
0.0
 40
0.0
 40
0.0
 40
0.3825555204542415
 40
0.768771019355621
 40
1.0
 40
1.0
 40
1.0
 40
1.0
 10
155.2933188940715
 20
129.670724333239
 30
0.0
 10
155.142727833569
 20
129.670724333239
 30
0.0
 10
154.8401049804185
 20
129.670724333239
 30
0.0
 10
154.5874614783681
 20
129.670724333239
 30
0.0
 10
154.6172525172548
 20
129.670724333239
 30
0.0
 10
154.6284090694345
 20
129.670724333239
 30
0.0
  0
SPLINE
  5
27C
330
1F
100
AcDbEntity
  8
0
  6
Continuous
 62
     7
370
    25
100
AcDbSpline
210
0.0
220
0.0
230
1.0
 70
    24
 71
     3
 72
    10
 73
     6
 74
     0
 42
0.00000001
 43
0.00000001
 40
0.0
 40
0.0
 40
0.0
 40
0.0
 40
0.231479098598238
 40
0.613561454343343
 40
1.0
 40
1.0
 40
1.0
 40
1.0
 10
154.5841287277029
 20
145.670724333239
 30
0.0
 10
154.5907102060797
 20
145.670724333239
 30
0.0
 10
154.6081551566996
 20
145.670724333239
 30
0.0
 10
154.8326435259927
 20
145.670724333239
 30
0.0
 10
155.1391812577124
 20
145.670724333239
 30
0.0
 10
155.2933188940715
 20
145.6707243332389
 30
0.0
  0
LINE
  5
27D
330
1F
100
AcDbEntity
  8
0
  6
Continuous
 62
     7
370
    25
100
AcDbLine
 10
154.4921851739
 20
145.5207243332
 30
0.0
 11
154.4921851739
 21
141.1707243332
 31
0.0
  0
LINE
  5
27E
330
1F
100
AcDbEntity
  8
0
  6
Continuous
 62
     7
370
    25
100
AcDbLine
 10
154.4921851739
 20
134.1707243332
 30
0.0
 11
154.4921851739
 21
129.8207243332
 31
0.0
  0
LINE
  5
27F
330
1F
100
AcDbEntity
  8
0
  6
Continuous
 62
     7
370
    25
100
AcDbLine
 10
162.6910514537
 20
145.6707243332
 30
0.0
 11
159.0457750124
 21
145.6707243332
 31
0.0
  0
SPLINE
  5
280
330
1F
100
AcDbEntity
  8
0
  6
Continuous
 62
     7
370
    25
100
AcDbSpline
210
0.0
220
0.0
230
1.0
 70
     8
 71
     3
 72
    11
 73
     7
 74
     0
 42
0.00000001
 43
0.00000001
 40
0.0
 40
0.0
 40
0.0
 40
0.0
 40
0.4774272530304457
 40
0.7215734705388572
 40
0.9656756309422522
 40
1.0
 40
1.0
 40
1.0
 40
1.0
 10
162.691051453682
 20
145.6707243332389
 30
0.0
 10
162.9007067421058
 20
144.9762968745752
 30
0.0
 10
163.2175753186785
 20
143.9267538746631
 30
0.0
 10
163.3793158694329
 20
142.485554181319
 30
0.0
 10
163.4412994269554
 20
141.699112033746
 30
0.0
 10
163.3904229646385
 20
141.2838492723426
 30
0.0
 10
163.384150924139
 20
141.2326557589014
 30
0.0
  0
LINE
  5
281
330
1F
100
AcDbEntity
  8
0
  6
Continuous
 62
     7
370
    25
100
AcDbLine
 10
158.9385953354
 20
145.6707243332
 30
0.0
 11
155.2933188941
 21
145.6707243332
 31
0.0
  0
LINE
  5
282
330
1F
100
AcDbEntity
  8
0
  6
Continuous
 62
     7
370
    25
100
AcDbLine
 10
158.9921851739
 20
145.3119766876
 30
0.0
 11
158.9385953354
 21
145.6707243332
 31
0.0
  0
LINE
  5
283
330
1F
100
AcDbEntity
  8
0
  6
Continuous
 62
     7
370
    25
100
AcDbLine
 10
159.0457750124
 20
145.6707243332
 30
0.0
 11
158.9921851739
 21
145.3119766876
 31
0.0
  0
SPLINE
  5
284
330
1F
100
AcDbEntity
  8
0
  6
Continuous
 62
     7
370
    25
100
AcDbSpline
210
0.0
220
0.0
230
1.0
 70
    24
 71
     3
 72
    10
 73
     6
 74
     0
 42
0.00000001
 43
0.00000001
 40
0.0
 40
0.0
 40
0.0
 40
0.0
 40
0.231479098598238
 40
0.613561454343343
 40
1.0
 40
1.0
 40
1.0
 40
1.0
 10
163.4002416200507
 20
145.670724333239
 30
0.0
 10
163.3936601416739
 20
145.670724333239
 30
0.0
 10
163.376215191054
 20
145.670724333239
 30
0.0
 10
163.1517268217609
 20
145.670724333239
 30
0.0
 10
162.8451890900412
 20
145.670724333239
 30
0.0
 10
162.691051453682
 20
145.6707243332389
 30
0.0
  0
SPLINE
  5
285
330
1F
100
AcDbEntity
  8
0
  6
Continuous
 62
     7
370
    25
100
AcDbSpline
210
0.0
220
0.0
230
1.0
 70
    24
 71
     3
 72
    10
 73
     6
 74
     0
 42
0.00000001
 43
0.00000001
 40
0.0
 40
0.0
 40
0.0
 40
0.0
 40
0.3825555204542415
 40
0.7687710193556209
 40
1.0
 40
1.0
 40
1.0
 40
1.0
 10
162.691051453682
 20
129.670724333239
 30
0.0
 10
162.8416425141845
 20
129.670724333239
 30
0.0
 10
163.1442653673352
 20
129.670724333239
 30
0.0
 10
163.3969088693855
 20
129.670724333239
 30
0.0
 10
163.3671178304988
 20
129.670724333239
 30
0.0
 10
163.3559612783191
 20
129.670724333239
 30
0.0
  0
SPLINE
  5
286
330
1F
100
AcDbEntity
  8
0
  6
Continuous
 62
     7
370
    25
100
AcDbSpline
210
0.0
220
0.0
230
1.0
 70
     8
 71
     3
 72
    10
 73
     6
 74
     0
 42
0.00000001
 43
0.00000001
 40
0.0
 40
0.0
 40
0.0
 40
0.0
 40
0.1546642000203771
 40
0.573458968772139
 40
1.0
 40
1.0
 40
1.0
 40
1.0
 10
163.3838707014305
 20
134.0766483539529
 30
0.0
 10
163.3933181638096
 20
133.8465517301422
 30
0.0
 10
163.4283471623284
 20
132.993406835648
 30
0.0
 10
163.2372067181904
 20
131.5041277834712
 30
0.0
 10
162.8742119799358
 20
130.2855808815545
 30
0.0
 10
162.691051453682
 20
129.670724333239
 30
0.0
  0
LINE
  5
287
330
1F
100
AcDbEntity
  8
0
  6
Continuous
 62
     7
370
    25
100
AcDbLine
 10
163.4921851739
 20
145.5207243332
 30
0.0
 11
163.4921851739
 21
141.2187155263
 31
0.0
  0
LINE
  5
288
330
1F
100
AcDbEntity
  8
0
  6
Continuous
 62
     7
370
    25
100
AcDbLine
 10
163.4921851739
 20
134.1227331402
 30
0.0
 11
163.4921851739
 21
129.8207243332
 31
0.0
  0
LINE
  5
289
330
1F
100
AcDbEntity
  8
0
  6
Continuous
 62
     7
370
    25
100
AcDbLine
 10
162.6910514537
 20
129.6707243332
 30
0.0
 11
159.0457750124
 21
129.6707243332
 31
0.0
  0
LINE
  5
28A
330
1F
100
AcDbEntity
  8
0
  6
Continuous
 62
     7
370
    25
100
AcDbLine
 10
158.9921851739
 20
130.0294719789
 30
0.0
 11
159.0457750124
 21
129.6707243332
 31
0.0
  0
LINE
  5
28B
330
1F
100
AcDbEntity
  8
0
  6
Continuous
 62
     7
370
    25
100
AcDbLine
 10
158.9385953354
 20
129.6707243332
 30
0.0
 11
158.9921851739
 21
130.0294719789
 31
0.0
  0
LINE
  5
28C
330
1F
100
AcDbEntity
  8
0
  6
Continuous
 62
     7
370
    25
100
AcDbLine
 10
158.9385953354
 20
129.6707243332
 30
0.0
 11
155.2933188941
 21
129.6707243332
 31
0.0
  0
LINE
  5
28D
330
1F
100
AcDbEntity
  8
0
  6
Continuous
 62
     7
370
    25
100
AcDbLine
 10
152.4921851739
 20
130.1207243332
 30
0.0
 11
152.4921851739
 21
134.1707243332
 31
0.0
  0
LINE
  5
28E
330
1F
100
AcDbEntity
  8
0
  6
Continuous
 62
     7
370
    25
100
AcDbLine
 10
152.4921851739
 20
141.1707243332
 30
0.0
 11
152.4921851739
 21
145.2207243332
 31
0.0
  0
LINE
  5
28F
330
1F
100
AcDbEntity
  8
0
  6
Continuous
 62
     7
370
    25
100
AcDbLine
 10
165.4921851739
 20
145.2207243332
 30
0.0
 11
165.4921851739
 21
141.326493963
 31
0.0
  0
LINE
  5
290
330
1F
100
AcDbEntity
  8
0
  6
Continuous
 62
     7
370
    25
100
AcDbLine
 10
165.4921851739
 20
134.0149547035
 30
0.0
 11
165.4921851739
 21
130.1207243332
 31
0.0
  0
LINE
  5
291
330
1F
100
AcDbEntity
  8
0
  6
Continuous
 62
     7
370
    25
100
AcDbLine
 10
158.9921851739
 20
145.6707243332
 30
0.0
 11
158.9921851739
 21
145.3119766876
 31
0.0
  0
LINE
  5
292
330
1F
100
AcDbEntity
  8
0
  6
Continuous
 62
     7
370
    25
100
AcDbLine
 10
158.9921851739
 20
145.6707243332
 30
0.0
 11
159.0457750124
 21
145.6707243332
 31
0.0
  0
LINE
  5
293
330
1F
100
AcDbEntity
  8
0
  6
Continuous
 62
     7
370
    25
100
AcDbLine
 10
158.9385953354
 20
145.6707243332
 30
0.0
 11
158.9921851739
 21
145.6707243332
 31
0.0
  0
LINE
  5
294
330
1F
100
AcDbEntity
  8
0
  6
Continuous
 62
     7
370
    25
100
AcDbLine
 10
158.9921851739
 20
130.0294719789
 30
0.0
 11
158.9921851739
 21
129.6707243332
 31
0.0
  0
LINE
  5
295
330
1F
100
AcDbEntity
  8
0
  6
Continuous
 62
     7
370
    25
100
AcDbLine
 10
158.9921851739
 20
129.6707243332
 30
0.0
 11
158.9385953354
 21
129.6707243332
 31
0.0
  0
LINE
  5
296
330
1F
100
AcDbEntity
  8
0
  6
Continuous
 62
     7
370
    25
100
AcDbLine
 10
159.0457750124
 20
129.6707243332
 30
0.0
 11
158.9921851739
 21
129.6707243332
 31
0.0
  0
SPLINE
  5
297
330
1F
100
AcDbEntity
  8
0
  6
Continuous
 62
     7
370
    25
100
AcDbSpline
210
0.0
220
0.0
230
1.0
 70
     8
 71
     3
 72
    15
 73
    11
 74
     0
 42
0.00000001
 43
0.00000001
 40
0.0
 40
0.0
 40
0.0
 40
0.0
 40
0.0081667445812695
 40
0.3321939991490083
 40
0.4756279600585602
 40
0.6866830973284899
 40
0.8457435502264811
 40
0.8967566214763185
 40
0.9909540928118029
 40
1.0
 40
1.0
 40
1.0
 40
1.0
 10
188.2693326099025
 20
138.920724333239
 30
0.0
 10
188.2698201440454
 20
138.922161796178
 30
0.0
 10
188.2896512915775
 20
138.9806326541297
 30
0.0
 10
188.3179320715867
 20
139.0650578318492
 30
0.0
 10
188.3557613700755
 20
139.1796369038716
 30
0.0
 10
188.3823452666431
 20
139.2610077910682
 30
0.0
 10
188.399515090398
 20
139.3140267830699
 30
0.0
 10
188.4073320866145
 20
139.338228714914
 30
0.0
 10
188.4093277730504
 20
139.3444183355802
 30
0.0
 10
188.4093927370011
 20
139.3446197309928
 30
0.0
 10
188.4093984289678
 20
139.3446373767172
 30
0.0
  0
ARC
  5
298
330
1F
100
AcDbEntity
  8
0
  6
Continuous
 62
     7
370
    25
100
AcDbCircle
 10
183.1703130963
 20
137.6707243332
 30
0.0
 40
5.250000000000009
100
AcDbArc
 50
13.774146998
 51
166.225853002
  0
SPLINE
  5
299
330
1F
100
AcDbEntity
  8
0
  6
Continuous
 62
     7
370
    25
100
AcDbSpline
210
0.0
220
0.0
230
1.0
 70
     8
 71
     3
 72
    15
 73
    11
 74
     0
 42
0.00000001
 43
0.00000001
 40
0.0
 40
0.0
 40
0.0
 40
0.0
 40
0.0090459071881971
 40
0.1032433785236874
 40
0.1542564497735246
 40
0.313316902671511
 40
0.5243720399414428
 40
0.6678060008509903
 40
0.9918332554187292
 40
1.0
 40
1.0
 40
1.0
 40
1.0
 10
177.9312277636516
 20
139.3446373767172
 30
0.0
 10
177.9312334556183
 20
139.3446197309928
 30
0.0
 10
177.9312984195691
 20
139.3444183355802
 30
0.0
 10
177.933294106005
 20
139.338228714914
 30
0.0
 10
177.9411111022214
 20
139.3140267830699
 30
0.0
 10
177.9582809259764
 20
139.2610077910682
 30
0.0
 10
177.9848648225439
 20
139.1796369038716
 30
0.0
 10
178.0226941210327
 20
139.0650578318492
 30
0.0
 10
178.050974901042
 20
138.9806326541297
 30
0.0
 10
178.070806048574
 20
138.922161796178
 30
0.0
 10
178.0712935827169
 20
138.920724333239
 30
0.0
  0
ARC
  5
29A
330
1F
100
AcDbEntity
  8
0
  6
Continuous
 62
     7
370
    25
100
AcDbCircle
 10
183.1703130963
 20
137.6707243332
 30
0.0
 40
5.500000000000002
100
AcDbArc
 50
17.7189318734
 51
162.2810681266
  0
ARC
  5
29B
330
1F
100
AcDbEntity
  8
0
  6
Continuous
 62
     7
370
    25
100
AcDbCircle
 10
177.6930875213
 20
139.4207243332
 30
0.0
 40
0.2500000000000126
100
AcDbArc
 50
270.0
 51
342.2810681266
  0
SPLINE
  5
29C
330
1F
100
AcDbEntity
  8
0
  6
Continuous
 62
     7
370
    25
100
AcDbSpline
210
0.0
220
0.0
230
1.0
 70
     8
 71
     3
 72
    15
 73
    11
 74
     0
 42
0.00000001
 43
0.00000001
 40
0.0
 40
0.0
 40
0.0
 40
0.0
 40
0.0080847466189818
 40
0.3310106400647567
 40
0.4750333064304972
 40
0.6874363079215137
 40
0.8468367539418253
 40
0.9000996640391794
 40
0.9910442771984082
 40
1.0
 40
1.0
 40
1.0
 40
1.0
 10
178.0712935827169
 20
138.920724333239
 30
0.0
 10
178.0700137511728
 20
138.9215402692272
 30
0.0
 10
178.017614105449
 20
138.9549468194209
 30
0.0
 10
177.9422590139946
 20
139.0037603841558
 30
0.0
 10
177.8403399019768
 20
139.0711308564239
 30
0.0
 10
177.7679489569849
 20
139.1197148967674
 30
0.0
 10
177.72024352872
 20
139.1521637582259
 30
0.0
 10
177.6987080450127
 20
139.1668747992922
 30
0.0
 10
177.6932790289932
 20
139.1705932502103
 30
0.0
 10
177.6931032768367
 20
139.1707135488758
 30
0.0
 10
177.693087521258
 20
139.170724333239
 30
0.0
  0
ARC
  5
29D
330
1F
100
AcDbEntity
  8
0
  6
Continuous
 62
     7
370
    25
100
AcDbCircle
 10
188.6475386714
 20
139.4207243332
 30
0.0
 40
0.25
100
AcDbArc
 50
197.7189318734
 51
270.0
  0
SPLINE
  5
29E
330
1F
100
AcDbEntity
  8
0
  6
Continuous
 62
     7
370
    25
100
AcDbSpline
210
0.0
220
0.0
230
1.0
 70
     8
 71
     3
 72
    15
 73
    11
 74
     0
 42
0.00000001
 43
0.00000001
 40
0.0
 40
0.0
 40
0.0
 40
0.0
 40
0.0089557228015919
 40
0.0999003359608148
 40
0.153163246058169
 40
0.3125636920784848
 40
0.5249666935694999
 40
0.6689893599352451
 40
0.9919152533810159
 40
1.0
 40
1.0
 40
1.0
 40
1.0
 10
188.6475386713614
 20
139.170724333239
 30
0.0
 10
188.6475229157828
 20
139.1707135488758
 30
0.0
 10
188.6473471636262
 20
139.1705932502103
 30
0.0
 10
188.6419181476067
 20
139.1668747992922
 30
0.0
 10
188.6203826638994
 20
139.1521637582259
 30
0.0
 10
188.5726772356345
 20
139.1197148967674
 30
0.0
 10
188.5002862906426
 20
139.0711308564239
 30
0.0
 10
188.3983671786249
 20
139.0037603841557
 30
0.0
 10
188.3230120871704
 20
138.954946819421
 30
0.0
 10
188.2706124414466
 20
138.9215402692272
 30
0.0
 10
188.2693326099025
 20
138.920724333239
 30
0.0
  0
SPLINE
  5
29F
330
1F
100
AcDbEntity
  8
0
  6
Continuous
 62
     7
370
    25
100
AcDbSpline
210
0.0
220
0.0
230
1.0
 70
     8
 71
     3
 72
    15
 73
    11
 74
     0
 42
0.00000001
 43
0.00000001
 40
0.0
 40
0.0
 40
0.0
 40
0.0
 40
0.0090459071881971
 40
0.1032433785236816
 40
0.1542564497735189
 40
0.31331690267151
 40
0.5243720399414428
 40
0.6678060008509183
 40
0.9918332554187028
 40
1.0
 40
1.0
 40
1.0
 40
1.0
 10
188.4093984289678
 20
135.9968112897607
 30
0.0
 10
188.4093927370011
 20
135.9968289354852
 30
0.0
 10
188.4093277730504
 20
135.9970303308977
 30
0.0
 10
188.4073320866145
 20
136.0032199515639
 30
0.0
 10
188.399515090398
 20
136.027421883408
 30
0.0
 10
188.3823452666431
 20
136.0804408754097
 30
0.0
 10
188.3557613700755
 20
136.1618117626063
 30
0.0
 10
188.3179320715869
 20
136.2763908346288
 30
0.0
 10
188.2896512915767
 20
136.3608160123479
 30
0.0
 10
188.2698201440454
 20
136.4192868702999
 30
0.0
 10
188.2693326099025
 20
136.420724333239
 30
0.0
  0
ARC
  5
2A0
330
1F
100
AcDbEntity
  8
0
  6
Continuous
 62
     7
370
    25
100
AcDbCircle
 10
183.1703130963
 20
137.6707243332
 30
0.0
 40
5.499999999999993
100
AcDbArc
 50
197.7189318734
 51
342.2810681266
  0
SPLINE
  5
2A1
330
1F
100
AcDbEntity
  8
0
  6
Continuous
 62
     7
370
    25
100
AcDbSpline
210
0.0
220
0.0
230
1.0
 70
     8
 71
     3
 72
    15
 73
    11
 74
     0
 42
0.00000001
 43
0.00000001
 40
0.0
 40
0.0
 40
0.0
 40
0.0
 40
0.0081667445812973
 40
0.3321939991490804
 40
0.475627960058556
 40
0.6866830973284891
 40
0.8457435502264751
 40
0.8967566214763124
 40
0.9909540928118028
 40
1.0
 40
1.0
 40
1.0
 40
1.0
 10
178.0712935827169
 20
136.420724333239
 30
0.0
 10
178.0708060485741
 20
136.4192868702999
 30
0.0
 10
178.0509749010428
 20
136.360816012348
 30
0.0
 10
178.0226941210325
 20
136.2763908346288
 30
0.0
 10
177.9848648225439
 20
136.1618117626063
 30
0.0
 10
177.9582809259764
 20
136.0804408754097
 30
0.0
 10
177.9411111022214
 20
136.027421883408
 30
0.0
 10
177.933294106005
 20
136.0032199515639
 30
0.0
 10
177.9312984195691
 20
135.9970303308977
 30
0.0
 10
177.9312334556183
 20
135.9968289354852
 30
0.0
 10
177.9312277636516
 20
135.9968112897607
 30
0.0
  0
ARC
  5
2A2
330
1F
100
AcDbEntity
  8
0
  6
Continuous
 62
     7
370
    25
100
AcDbCircle
 10
183.1703130963
 20
137.6707243332
 30
0.0
 40
5.250000000000009
100
AcDbArc
 50
193.774146998
 51
346.225853002
  0
SPLINE
  5
2A3
330
1F
100
AcDbEntity
  8
0
  6
Continuous
 62
     7
370
    25
100
AcDbSpline
210
0.0
220
0.0
230
1.0
 70
     8
 71
     3
 72
    15
 73
    11
 74
     0
 42
0.00000001
 43
0.00000001
 40
0.0
 40
0.0
 40
0.0
 40
0.0
 40
0.0080847466189582
 40
0.3310106400648243
 40
0.4750333064304948
 40
0.6874363079215142
 40
0.8468367539418303
 40
0.9000996640391847
 40
0.9910442771984082
 40
1.0
 40
1.0
 40
1.0
 40
1.0
 10
188.2693326099025
 20
136.420724333239
 30
0.0
 10
188.2706124414466
 20
136.4199083972507
 30
0.0
 10
188.3230120871699
 20
136.3865018470561
 30
0.0
 10
188.398367178625
 20
136.3376882823223
 30
0.0
 10
188.5002862906426
 20
136.270317810054
 30
0.0
 10
188.5726772356345
 20
136.2217337697106
 30
0.0
 10
188.6203826638994
 20
136.189284908252
 30
0.0
 10
188.6419181476067
 20
136.1745738671857
 30
0.0
 10
188.6473471636262
 20
136.1708554162676
 30
0.0
 10
188.6475229157828
 20
136.1707351176021
 30
0.0
 10
188.6475386713614
 20
136.170724333239
 30
0.0
  0
ARC
  5
2A4
330
1F
100
AcDbEntity
  8
0
  6
Continuous
 62
     7
370
    25
100
AcDbCircle
 10
188.6475386714
 20
135.9207243332
 30
0.0
 40
0.25
100
AcDbArc
 50
90.0
 51
162.2810681266
  0
SPLINE
  5
2A5
330
1F
100
AcDbEntity
  8
0
  6
Continuous
 62
     7
370
    25
100
AcDbSpline
210
0.0
220
0.0
230
1.0
 70
     8
 71
     3
 72
    15
 73
    11
 74
     0
 42
0.00000001
 43
0.00000001
 40
0.0
 40
0.0
 40
0.0
 40
0.0
 40
0.0089557228015919
 40
0.0999003359608209
 40
0.1531632460581751
 40
0.3125636920784904
 40
0.5249666935695061
 40
0.6689893599351777
 40
0.991915253381045
 40
1.0
 40
1.0
 40
1.0
 40
1.0
 10
177.693087521258
 20
136.170724333239
 30
0.0
 10
177.6931032768367
 20
136.1707351176021
 30
0.0
 10
177.6932790289932
 20
136.1708554162676
 30
0.0
 10
177.6987080450127
 20
136.1745738671857
 30
0.0
 10
177.7202435287201
 20
136.189284908252
 30
0.0
 10
177.7679489569849
 20
136.2217337697106
 30
0.0
 10
177.8403399019768
 20
136.270317810054
 30
0.0
 10
177.9422590139945
 20
136.3376882823223
 30
0.0
 10
178.0176141054495
 20
136.3865018470563
 30
0.0
 10
178.0700137511728
 20
136.4199083972507
 30
0.0
 10
178.0712935827169
 20
136.420724333239
 30
0.0
  0
ARC
  5
2A6
330
1F
100
AcDbEntity
  8
0
  6
Continuous
 62
     7
370
    25
100
AcDbCircle
 10
177.6930875213
 20
135.9207243332
 30
0.0
 40
0.2500000000000213
100
AcDbArc
 50
17.7189318734
 51
90.0
  0
LINE
  5
2A7
330
1F
100
AcDbEntity
  8
0
  6
Continuous
 62
     7
370
    25
100
AcDbLine
 10
188.1703130963
 20
138.2707243332
 30
0.0
 11
178.1703130963
 21
138.2707243332
 31
0.0
  0
LINE
  5
2A8
330
1F
100
AcDbEntity
  8
0
  6
Continuous
 62
     7
370
    25
100
AcDbLine
 10
188.1703130963
 20
137.0707243332
 30
0.0
 11
188.1703130963
 21
138.2707243332
 31
0.0
  0
LINE
  5
2A9
330
1F
100
AcDbEntity
  8
0
  6
Continuous
 62
     7
370
    25
100
AcDbLine
 10
178.1703130963
 20
137.0707243332
 30
0.0
 11
188.1703130963
 21
137.0707243332
 31
0.0
  0
LINE
  5
2AA
330
1F
100
AcDbEntity
  8
0
  6
Continuous
 62
     7
370
    25
100
AcDbLine
 10
178.1703130963
 20
138.2707243332
 30
0.0
 11
178.1703130963
 21
137.0707243332
 31
0.0
  0
LINE
  5
2AB
330
1F
100
AcDbEntity
  8
0
  6
Continuous
 62
     7
370
    25
100
AcDbLine
 10
188.9203130963
 20
138.9207243332
 30
0.0
 11
188.2693326099
 21
138.9207243332
 31
0.0
  0
LINE
  5
2AC
330
1F
100
AcDbEntity
  8
0
  6
Continuous
 62
     7
370
    25
100
AcDbLine
 10
188.9203130963
 20
136.4207243332
 30
0.0
 11
188.9203130963
 21
138.9207243332
 31
0.0
  0
LINE
  5
2AD
330
1F
100
AcDbEntity
  8
0
  6
Continuous
 62
     7
370
    25
100
AcDbLine
 10
188.2693326099
 20
136.4207243332
 30
0.0
 11
188.9203130963
 21
136.4207243332
 31
0.0
  0
LINE
  5
2AE
330
1F
100
AcDbEntity
  8
0
  6
Continuous
 62
     7
370
    25
100
AcDbLine
 10
177.4203130963
 20
136.4207243332
 30
0.0
 11
178.0712935827
 21
136.4207243332
 31
0.0
  0
LINE
  5
2AF
330
1F
100
AcDbEntity
  8
0
  6
Continuous
 62
     7
370
    25
100
AcDbLine
 10
177.4203130963
 20
138.9207243332
 30
0.0
 11
177.4203130963
 21
136.4207243332
 31
0.0
  0
LINE
  5
2B0
330
1F
100
AcDbEntity
  8
0
  6
Continuous
 62
     7
370
    25
100
AcDbLine
 10
178.0712935827
 20
138.9207243332
 30
0.0
 11
177.4203130963
 21
138.9207243332
 31
0.0
  0
LINE
  5
2B1
330
1F
100
AcDbEntity
  8
0
  6
Continuous
 62
     7
370
    25
100
AcDbLine
 10
177.4203130963
 20
139.1707243332
 30
0.0
 11
177.4203130963
 21
138.9207243332
 31
0.0
  0
LINE
  5
2B2
330
1F
100
AcDbEntity
  8
0
  6
Continuous
 62
     7
370
    25
100
AcDbLine
 10
177.4203130963
 20
138.9207243332
 30
0.0
 11
177.1703130963
 21
138.9207243332
 31
0.0
  0
ARC
  5
2B3
330
1F
100
AcDbEntity
  8
0
  6
Continuous
 62
     7
370
    25
100
AcDbCircle
 10
177.4203130963
 20
138.9207243332
 30
0.0
 40
0.25
100
AcDbArc
 50
90.0
 51
180.0
  0
LINE
  5
2B4
330
1F
100
AcDbEntity
  8
0
  6
Continuous
 62
     7
370
    25
100
AcDbLine
 10
177.4203130963
 20
139.1707243332
 30
0.0
 11
177.6930875213
 21
139.1707243332
 31
0.0
  0
ARC
  5
2B5
330
1F
100
AcDbEntity
  8
0
  6
Continuous
 62
     7
370
    25
100
AcDbCircle
 10
188.9203130963
 20
138.9207243332
 30
0.0
 40
0.25
100
AcDbArc
 50
0.0
 51
90.0
  0
LINE
  5
2B6
330
1F
100
AcDbEntity
  8
0
  6
Continuous
 62
     7
370
    25
100
AcDbLine
 10
189.1703130963
 20
138.9207243332
 30
0.0
 11
188.9203130963
 21
138.9207243332
 31
0.0
  0
LINE
  5
2B7
330
1F
100
AcDbEntity
  8
0
  6
Continuous
 62
     7
370
    25
100
AcDbLine
 10
188.9203130963
 20
138.9207243332
 30
0.0
 11
188.9203130963
 21
139.1707243332
 31
0.0
  0
LINE
  5
2B8
330
1F
100
AcDbEntity
  8
0
  6
Continuous
 62
     7
370
    25
100
AcDbLine
 10
188.6475386714
 20
139.1707243332
 30
0.0
 11
188.9203130963
 21
139.1707243332
 31
0.0
  0
LINE
  5
2B9
330
1F
100
AcDbEntity
  8
0
  6
Continuous
 62
     7
370
    25
100
AcDbLine
 10
177.1703130963
 20
136.4207243332
 30
0.0
 11
177.4203130963
 21
136.4207243332
 31
0.0
  0
LINE
  5
2BA
330
1F
100
AcDbEntity
  8
0
  6
Continuous
 62
     7
370
    25
100
AcDbLine
 10
177.1703130963
 20
136.4207243332
 30
0.0
 11
177.1703130963
 21
138.9207243332
 31
0.0
  0
LINE
  5
2BB
330
1F
100
AcDbEntity
  8
0
  6
Continuous
 62
     7
370
    25
100
AcDbLine
 10
189.1703130963
 20
138.9207243332
 30
0.0
 11
189.1703130963
 21
136.4207243332
 31
0.0
  0
LINE
  5
2BC
330
1F
100
AcDbEntity
  8
0
  6
Continuous
 62
     7
370
    25
100
AcDbLine
 10
188.9203130963
 20
136.4207243332
 30
0.0
 11
189.1703130963
 21
136.4207243332
 31
0.0
  0
LINE
  5
2BD
330
1F
100
AcDbEntity
  8
0
  6
Continuous
 62
     7
370
    25
100
AcDbLine
 10
177.4203130963
 20
136.4207243332
 30
0.0
 11
177.4203130963
 21
136.1707243332
 31
0.0
  0
ARC
  5
2BE
330
1F
100
AcDbEntity
  8
0
  6
Continuous
 62
     7
370
    25
100
AcDbCircle
 10
177.4203130963
 20
136.4207243332
 30
0.0
 40
0.25
100
AcDbArc
 50
180.0
 51
270.0
  0
LINE
  5
2BF
330
1F
100
AcDbEntity
  8
0
  6
Continuous
 62
     7
370
    25
100
AcDbLine
 10
177.6930875213
 20
136.1707243332
 30
0.0
 11
177.4203130963
 21
136.1707243332
 31
0.0
  0
LINE
  5
2C0
330
1F
100
AcDbEntity
  8
0
  6
Continuous
 62
     7
370
    25
100
AcDbLine
 10
188.9203130963
 20
136.1707243332
 30
0.0
 11
188.9203130963
 21
136.4207243332
 31
0.0
  0
LINE
  5
2C1
330
1F
100
AcDbEntity
  8
0
  6
Continuous
 62
     7
370
    25
100
AcDbLine
 10
188.9203130963
 20
136.1707243332
 30
0.0
 11
188.6475386714
 21
136.1707243332
 31
0.0
  0
ARC
  5
2C2
330
1F
100
AcDbEntity
  8
0
  6
Continuous
 62
     7
370
    25
100
AcDbCircle
 10
188.9203130963
 20
136.4207243332
 30
0.0
 40
0.25
100
AcDbArc
 50
270.0
 51
0.0
  0
LINE
  5
2C3
330
1F
100
AcDbEntity
  8
0
  6
Continuous
 62
     7
370
    25
100
AcDbLine
 10
163.1703130963
 20
140.9424235973
 30
0.0
 11
160.9948762348
 21
141.1707243332
 31
0.0
  0
LINE
  5
2C4
330
1F
100
AcDbEntity
  8
0
  6
Continuous
 62
     7
370
    25
100
AcDbLine
 10
163.1703130963
 20
134.3990250692
 30
0.0
 11
163.1703130963
 21
140.9424235973
 31
0.0
  0
LINE
  5
2C5
330
1F
100
AcDbEntity
  8
0
  6
Continuous
 62
     7
370
    25
100
AcDbLine
 10
160.9948762348
 20
134.1707243332
 30
0.0
 11
163.1703130963
 21
134.3990250692
 31
0.0
  0
LINE
  5
2C6
330
1F
100
AcDbEntity
  8
0
  6
Continuous
 62
     7
370
    25
100
AcDbLine
 10
143.1703130963
 20
134.1707243332
 30
0.0
 11
160.9948762348
 21
134.1707243332
 31
0.0
  0
LINE
  5
2C7
330
1F
100
AcDbEntity
  8
0
  6
Continuous
 62
     7
370
    25
100
AcDbLine
 10
143.1703130963
 20
141.1707243332
 30
0.0
 11
143.1703130963
 21
134.1707243332
 31
0.0
  0
LINE
  5
2C8
330
1F
100
AcDbEntity
  8
0
  6
Continuous
 62
     7
370
    25
100
AcDbLine
 10
160.9948762348
 20
141.1707243332
 30
0.0
 11
143.1703130963
 21
141.1707243332
 31
0.0
  0
LINE
  5
2C9
330
1F
100
AcDbEntity
  8
0
  6
Continuous
 62
     7
370
    25
100
AcDbLine
 10
177.946510922
 20
139.391738814
 30
0.0
 11
177.8499466046
 21
139.2323394938
 31
0.0
  0
LINE
  5
2CA
330
1F
100
AcDbEntity
  8
0
  6
Continuous
 62
     7
370
    25
100
AcDbLine
 10
177.827669224
 20
136.1255066659
 30
0.0
 11
177.946510922
 21
135.9497098524
 31
0.0
  0
LINE
  5
2CB
330
1F
100
AcDbEntity
  8
0
  6
Continuous
 62
     7
370
    25
100
AcDbLine
 10
169.7537434427
 20
140.2515269688
 30
0.0
 11
169.7537434427
 21
135.0899216977
 31
0.0
  0
LINE
  5
2CC
330
1F
100
AcDbEntity
  8
0
  6
Continuous
 62
     7
370
    25
100
AcDbLine
 10
177.946510922
 20
135.9497098524
 30
0.0
 11
169.7537434427
 21
135.0899216977
 31
0.0
  0
LINE
  5
2CD
330
1F
100
AcDbEntity
  8
0
  6
Continuous
 62
     7
370
    25
100
AcDbLine
 10
169.7537434427
 20
140.2515269688
 30
0.0
 11
177.946510922
 21
139.3917388141
 31
0.0
  0
LINE
  5
2CE
330
1F
100
AcDbEntity
  8
0
  6
Continuous
 62
     7
370
    25
100
AcDbLine
 10
169.7537434427
 20
135.0899216977
 30
0.0
 11
163.1703130963
 21
134.3990250692
 31
0.0
  0
LINE
  5
2CF
330
1F
100
AcDbEntity
  8
0
  6
Continuous
 62
     7
370
    25
100
AcDbLine
 10
163.1703130963
 20
140.9424235973
 30
0.0
 11
169.7537434427
 21
140.2515269688
 31
0.0
  0
ARC
  5
2D0
330
1F
100
AcDbEntity
  8
0
  6
Continuous
 62
     7
370
    25
100
AcDbCircle
 10
183.1703130963
 20
137.6707243332
 30
0.0
 40
7.450000000000673
100
AcDbArc
 50
233.0863788866
 51
126.9136211134
  0
ARC
  5
2D1
330
1F
100
AcDbEntity
  8
0
  6
Continuous
 62
     7
370
    25
100
AcDbCircle
 10
183.1703130963
 20
137.6707243332
 30
0.0
 40
7.207531252870766
100
AcDbArc
 50
195.3041237151
 51
238.9797515565
  0
ARC
  5
2D2
330
1F
100
AcDbEntity
  8
0
  6
Continuous
 62
     7
370
    25
100
AcDbCircle
 10
183.1703130963
 20
137.6707243332
 30
0.0
 40
7.207531252872434
100
AcDbArc
 50
121.0202484435
 51
164.6958762849
  0
ARC
  5
2D3
330
1F
100
AcDbEntity
  8
0
  6
Continuous
 62
     7
370
    25
100
AcDbCircle
 10
160.9948762348
 20
206.1707243332
 30
0.0
 40
65.0
100
AcDbArc
 50
270.0
 51
286.5000949923
  0
ARC
  5
2D4
330
1F
100
AcDbEntity
  8
0
  6
Continuous
 62
     7
370
    25
100
AcDbCircle
 10
160.9948762348
 20
69.1707243332
 30
0.0
 40
65.0
100
AcDbArc
 50
73.4999050077
 51
90.0
  0
LINE
  5
2D5
330
1F
100
AcDbEntity
  8
0
  6
Continuous
 62
     7
370
    25
100
AcDbLine
 10
171.6703130963
 20
146.1707243332
 30
0.0
 11
171.6703130963
 21
142.0533706151
 31
0.0
  0
LINE
  5
2D6
330
1F
100
AcDbEntity
  8
0
  6
Continuous
 62
     7
370
    25
100
AcDbLine
 10
171.6703130963
 20
133.2880780514
 30
0.0
 11
171.6703130963
 21
129.1707243332
 31
0.0
  0
LINE
  5
2D7
330
1F
100
AcDbEntity
  8
0
  6
Continuous
 62
     7
370
    25
100
AcDbLine
 10
168.8703130963
 20
146.1707243332
 30
0.0
 11
168.8703130963
 21
141.6495844313
 31
0.0
  0
LINE
  5
2D8
330
1F
100
AcDbEntity
  8
0
  6
Continuous
 62
     7
370
    25
100
AcDbLine
 10
168.8703130963
 20
133.6918642351
 30
0.0
 11
168.8703130963
 21
129.1707243332
 31
0.0
  0
LINE
  5
2D9
330
1F
100
AcDbEntity
  8
0
  6
Continuous
 62
     7
370
    25
100
AcDbLine
 10
168.6703130963
 20
129.3707243332
 30
0.0
 11
168.6703130963
 21
133.7159617175
 31
0.0
  0
LINE
  5
2DA
330
1F
100
AcDbEntity
  8
0
  6
Continuous
 62
     7
370
    25
100
AcDbLine
 10
168.6703130963
 20
141.625486949
 30
0.0
 11
168.6703130963
 21
145.9707243332
 31
0.0
  0
SPLINE
  5
2DB
330
1F
100
AcDbEntity
  8
0
  6
Continuous
 62
     7
370
    25
100
AcDbSpline
210
0.0
220
0.0
230
1.0
 70
    24
 71
     3
 72
    10
 73
     6
 74
     0
 42
0.00000001
 43
0.00000001
 40
0.0
 40
0.0
 40
0.0
 40
0.0
 40
0.3696152770602492
 40
0.7422760833961306
 40
1.0
 40
1.0
 40
1.0
 40
1.0
 10
194.3482541237521
 20
129.170724333239
 30
0.0
 10
194.4894569645772
 20
129.170724333239
 30
0.0
 10
194.7730261192009
 20
129.170724333239
 30
0.0
 10
194.9921666644129
 20
129.170724333239
 30
0.0
 10
195.0145576513902
 20
129.170724333239
 30
0.0
 10
195.0237118910956
 20
129.170724333239
 30
0.0
  0
SPLINE
  5
2DC
330
1F
100
AcDbEntity
  8
0
  6
Continuous
 62
     7
370
    25
100
AcDbSpline
210
0.0
220
0.0
230
1.0
 70
     8
 71
     3
 72
    10
 73
     6
 74
     0
 42
0.00000001
 43
0.00000001
 40
0.0
 40
0.0
 40
0.0
 40
0.0
 40
0.5
 40
0.5
 40
1.0
 40
1.0
 40
1.0
 40
1.0
 10
194.3482541237521
 20
129.420724333239
 30
0.0
 10
194.3245787293277
 20
129.3463439558616
 30
0.0
 10
194.3114876194431
 20
129.2820433170758
 30
0.0
 10
194.3114012981548
 20
129.1938276322929
 30
0.0
 10
194.3245702320986
 20
129.170724333239
 30
0.0
 10
194.3482541237521
 20
129.170724333239
 30
0.0
  0
SPLINE
  5
2DD
330
1F
100
AcDbEntity
  8
0
  6
Continuous
 62
     7
370
    25
100
AcDbSpline
210
0.0
220
0.0
230
1.0
 70
     8
 71
     3
 72
    16
 73
    12
 74
     0
 42
0.00000001
 43
0.00000001
 40
0.0
 40
0.0
 40
0.0
 40
0.0
 40
0.2500000000000001
 40
0.2500000000000001
 40
0.5000000000000001
 40
0.5000000000000001
 40
0.6250000000000001
 40
0.6250000000000001
 40
0.7500000000000002
 40
0.7500000000000002
 40
1.0
 40
1.0
 40
1.0
 40
1.0
 10
194.3482541237521
 20
137.420724333239
 30
0.0
 10
194.5562695718579
 20
136.7672075531981
 30
0.0
 10
194.7264758768308
 20
136.1089871441082
 30
0.0
 10
194.9614119083984
 20
134.7794245607424
 30
0.0
 10
195.0254840400621
 20
134.1080005786719
 30
0.0
 10
195.0262169889831
 20
133.0889994916651
 30
0.0
 10
195.0105575089001
 20
132.747658709349
 30
0.0
 10
194.9492823822631
 20
132.0720602063785
 30
0.0
 10
194.903726109764
 20
131.7364010564139
 30
0.0
 10
194.7272400770078
 20
130.7351354199142
 30
0.0
 10
194.556583623522
 20
130.075227761311
 30
0.0
 10
194.3482541237521
 20
129.420724333239
 30
0.0
  0
SPLINE
  5
2DE
330
1F
100
AcDbEntity
  8
0
  6
Continuous
 62
     7
370
    25
100
AcDbSpline
210
0.0
220
0.0
230
1.0
 70
     8
 71
     3
 72
    10
 73
     6
 74
     0
 42
0.00000001
 43
0.00000001
 40
0.0
 40
0.0
 40
0.0
 40
0.0
 40
0.5
 40
0.5
 40
1.0
 40
1.0
 40
1.0
 40
1.0
 10
194.3482541237521
 20
137.920724333239
 30
0.0
 10
194.3245787293277
 20
137.8463439558616
 30
0.0
 10
194.3114876194431
 20
137.7592508677461
 30
0.0
 10
194.3114012981548
 20
137.5830924788701
 30
0.0
 10
194.3245702320986
 20
137.4951314061422
 30
0.0
 10
194.3482541237521
 20
137.420724333239
 30
0.0
  0
SPLINE
  5
2DF
330
1F
100
AcDbEntity
  8
0
  6
Continuous
 62
     7
370
    25
100
AcDbSpline
210
0.0
220
0.0
230
1.0
 70
     8
 71
     3
 72
    16
 73
    12
 74
     0
 42
0.00000001
 43
0.00000001
 40
0.0
 40
0.0
 40
0.0
 40
0.0
 40
0.2499999999999997
 40
0.2499999999999997
 40
0.4999999999999993
 40
0.4999999999999993
 40
0.6249999999999993
 40
0.6249999999999993
 40
0.7499999999999996
 40
0.7499999999999996
 40
1.0
 40
1.0
 40
1.0
 40
1.0
 10
194.3482541237521
 20
145.920724333239
 30
0.0
 10
194.5562695718579
 20
145.2672075531982
 30
0.0
 10
194.7264758768308
 20
144.6089871441082
 30
0.0
 10
194.9614119083984
 20
143.2794245607424
 30
0.0
 10
195.0254840400621
 20
142.6080005786718
 30
0.0
 10
195.0262169889831
 20
141.5889994916651
 30
0.0
 10
195.0105575089001
 20
141.247658709349
 30
0.0
 10
194.9492823822631
 20
140.5720602063785
 30
0.0
 10
194.903726109764
 20
140.2364010564139
 30
0.0
 10
194.7272400770078
 20
139.2351354199142
 30
0.0
 10
194.556583623522
 20
138.575227761311
 30
0.0
 10
194.3482541237521
 20
137.920724333239
 30
0.0
  0
SPLINE
  5
2E0
330
1F
100
AcDbEntity
  8
0
  6
Continuous
 62
     7
370
    25
100
AcDbSpline
210
0.0
220
0.0
230
1.0
 70
     8
 71
     3
 72
    10
 73
     6
 74
     0
 42
0.00000001
 43
0.00000001
 40
0.0
 40
0.0
 40
0.0
 40
0.0
 40
0.5
 40
0.5
 40
1.0
 40
1.0
 40
1.0
 40
1.0
 10
194.3482541237521
 20
146.170724333239
 30
0.0
 10
194.3245787293277
 20
146.170724333239
 30
0.0
 10
194.3114876194431
 20
146.1479318839092
 30
0.0
 10
194.3114012981548
 20
146.0599891798161
 30
0.0
 10
194.3245702320986
 20
145.9951314061422
 30
0.0
 10
194.3482541237521
 20
145.920724333239
 30
0.0
  0
SPLINE
  5
2E1
330
1F
100
AcDbEntity
  8
0
  6
Continuous
 62
     7
370
    25
100
AcDbSpline
210
0.0
220
0.0
230
1.0
 70
    24
 71
     3
 72
    10
 73
     6
 74
     0
 42
0.00000001
 43
0.00000001
 40
0.0
 40
0.0
 40
0.0
 40
0.0
 40
0.2577198432893485
 40
0.6270822012201618
 40
1.0
 40
1.0
 40
1.0
 40
1.0
 10
195.0223700013071
 20
146.170724333239
 30
0.0
 10
195.0137662279425
 20
146.170724333239
 30
0.0
 10
194.9928315840617
 20
146.170724333239
 30
0.0
 10
194.7738604359752
 20
146.170724333239
 30
0.0
 10
194.4905751962753
 20
146.170724333239
 30
0.0
 10
194.3482541237521
 20
146.170724333239
 30
0.0
  0
LINE
  5
2E2
330
1F
100
AcDbEntity
  8
0
  6
Continuous
 62
     7
370
    25
100
AcDbLine
 10
195.1703130963
 20
145.9207243332
 30
0.0
 11
195.1703130963
 21
129.4207243332
 31
0.0
  0
SPLINE
  5
2E3
330
1F
100
AcDbEntity
  8
0
  6
Continuous
 62
     7
370
    25
100
AcDbSpline
210
0.0
220
0.0
230
1.0
 70
     8
 71
     3
 72
    10
 73
     6
 74
     0
 42
0.00000001
 43
0.00000001
 40
0.0
 40
0.0
 40
0.0
 40
0.0
 40
0.0498536884990144
 40
0.5210072120990525
 40
1.0
 40
1.0
 40
1.0
 40
1.0
 10
189.1717553678429
 20
142.0261583836626
 30
0.0
 10
189.1724415569759
 20
142.0917514360074
 30
0.0
 10
189.1796127312253
 20
142.7772464187091
 30
0.0
 10
189.3261359866215
 20
144.0938915712954
 30
0.0
 10
189.6731140723541
 20
145.3084398341036
 30
0.0
 10
189.8480345015699
 20
145.920724333239
 30
0.0
  0
LINE
  5
2E4
330
1F
100
AcDbEntity
  8
0
  6
Continuous
 62
     7
370
    25
100
AcDbLine
 10
194.3482541238
 20
145.9207243332
 30
0.0
 11
189.8480345016
 21
145.9207243332
 31
0.0
  0
SPLINE
  5
2E5
330
1F
100
AcDbEntity
  8
0
  6
Continuous
 62
     7
370
    25
100
AcDbSpline
210
0.0
220
0.0
230
1.0
 70
     8
 71
     3
 72
    10
 73
     6
 74
     0
 42
0.00000001
 43
0.00000001
 40
0.0
 40
0.0
 40
0.0
 40
0.0
 40
0.0812118530414641
 40
0.5372829595337943
 40
0.9999999999999999
 40
0.9999999999999999
 40
0.9999999999999999
 40
0.9999999999999999
 10
171.6744480043219
 20
142.1043562682913
 30
0.0
 10
171.6762250778421
 20
142.2090958793813
 30
0.0
 10
171.6879818754583
 20
142.9020342389843
 30
0.0
 10
171.8519181213408
 20
144.1903426135727
 30
0.0
 10
172.1818668278789
 20
145.3411556747287
 30
0.0
 10
172.3480345015699
 20
145.920724333239
 30
0.0
  0
LINE
  5
2E6
330
1F
100
AcDbEntity
  8
0
  6
Continuous
 62
     7
370
    25
100
AcDbLine
 10
176.492591691
 20
145.9207243332
 30
0.0
 11
172.3480345016
 21
145.9207243332
 31
0.0
  0
SPLINE
  5
2E7
330
1F
100
AcDbEntity
  8
0
  6
Continuous
 62
     7
370
    25
100
AcDbSpline
210
0.0
220
0.0
230
1.0
 70
     8
 71
     3
 72
     9
 73
     5
 74
     0
 42
0.00000001
 43
0.00000001
 40
0.0
 40
0.0
 40
0.0
 40
0.0
 40
0.7354033951503907
 40
1.0
 40
1.0
 40
1.0
 40
1.0
 10
176.4925916910495
 20
145.920724333239
 30
0.0
 10
176.695269469644
 20
145.2712270336628
 30
0.0
 10
176.9708702894539
 20
144.3880419629122
 30
0.0
 10
177.0343534717362
 20
143.4777950983346
 30
0.0
 10
177.0511509062331
 20
143.2369468683924
 30
0.0
  0
SPLINE
  5
2E8
330
1F
100
AcDbEntity
  8
0
  6
Continuous
 62
     7
370
    25
100
AcDbSpline
210
0.0
220
0.0
230
1.0
 70
     8
 71
     3
 72
     9
 73
     5
 74
     0
 42
0.00000001
 43
0.00000001
 40
0.0
 40
0.0
 40
0.0
 40
0.0
 40
0.3160819061498747
 40
0.9999999999999999
 40
0.9999999999999999
 40
0.9999999999999999
 40
0.9999999999999999
 10
177.0592872989479
 20
132.1368529564466
 30
0.0
 10
177.0342091566237
 20
131.8459645979094
 30
0.0
 10
176.9548685115686
 20
130.9256703549378
 30
0.0
 10
176.6803439832038
 20
130.0319534769049
 30
0.0
 10
176.4925916910495
 20
129.420724333239
 30
0.0
  0
LINE
  5
2E9
330
1F
100
AcDbEntity
  8
0
  6
Continuous
 62
     7
370
    25
100
AcDbLine
 10
172.3480345016
 20
129.4207243332
 30
0.0
 11
176.492591691
 21
129.4207243332
 31
0.0
  0
SPLINE
  5
2EA
330
1F
100
AcDbEntity
  8
0
  6
Continuous
 62
     7
370
    25
100
AcDbSpline
210
0.0
220
0.0
230
1.0
 70
     8
 71
     3
 72
     9
 73
     5
 74
     0
 42
0.00000001
 43
0.00000001
 40
0.0
 40
0.0
 40
0.0
 40
0.0
 40
0.5153442191329356
 40
1.0
 40
1.0
 40
1.0
 40
1.0
 10
172.3480345015699
 20
129.420724333239
 30
0.0
 10
172.1567992155638
 20
130.0716814566134
 30
0.0
 10
171.7857165898038
 20
131.334831598221
 30
0.0
 10
171.7173287940579
 20
132.6365992974149
 30
0.0
 10
171.6841842535088
 20
133.2675085381753
 30
0.0
  0
LINE
  5
2EB
330
1F
100
AcDbEntity
  8
0
  6
Continuous
 62
     7
370
    25
100
AcDbLine
 10
189.8480345016
 20
129.4207243332
 30
0.0
 11
194.3482541238
 21
129.4207243332
 31
0.0
  0
SPLINE
  5
2EC
330
1F
100
AcDbEntity
  8
0
  6
Continuous
 62
     7
370
    25
100
AcDbSpline
210
0.0
220
0.0
230
1.0
 70
     8
 71
     3
 72
     9
 73
     5
 74
     0
 42
0.00000001
 43
0.00000001
 40
0.0
 40
0.0
 40
0.0
 40
0.0
 40
0.5089221384932903
 40
1.0
 40
1.0
 40
1.0
 40
1.0
 10
189.8480345015699
 20
129.4207243332389
 30
0.0
 10
189.6571331466975
 20
130.0717240592729
 30
0.0
 10
189.2820239886687
 20
131.3508975846403
 30
0.0
 10
189.2134293620592
 20
132.6691759819593
 30
0.0
 10
189.179744059513
 20
133.3165533181852
 30
0.0
  0
LINE
  5
2ED
330
1F
100
AcDbEntity
  8
0
  6
Continuous
 62
     7
370
    25
100
AcDbLine
 10
189.1703130963
 20
133.2545608399
 30
0.0
 11
189.1703130963
 21
130.1707243332
 31
0.0
  0
LINE
  5
2EE
330
1F
100
AcDbEntity
  8
0
  6
Continuous
 62
     7
370
    25
100
AcDbLine
 10
189.1703130963
 20
130.1707243332
 30
0.0
 11
177.1703130963
 21
130.1707243332
 31
0.0
  0
LINE
  5
2EF
330
1F
100
AcDbEntity
  8
0
  6
Continuous
 62
     7
370
    25
100
AcDbLine
 10
177.1703130963
 20
132.1259087293
 30
0.0
 11
177.1703130963
 21
130.1707243332
 31
0.0
  0
LINE
  5
2F0
330
1F
100
AcDbEntity
  8
0
  6
Continuous
 62
     7
370
    25
100
AcDbLine
 10
177.1703130963
 20
145.1707243332
 30
0.0
 11
177.1703130963
 21
143.2155399372
 31
0.0
  0
LINE
  5
2F1
330
1F
100
AcDbEntity
  8
0
  6
Continuous
 62
     7
370
    25
100
AcDbLine
 10
177.1703130963
 20
145.1707243332
 30
0.0
 11
189.1703130963
 21
145.1707243332
 31
0.0
  0
LINE
  5
2F2
330
1F
100
AcDbEntity
  8
0
  6
Continuous
 62
     7
370
    25
100
AcDbLine
 10
189.1703130963
 20
145.1707243332
 30
0.0
 11
189.1703130963
 21
142.0868878266
 31
0.0
  0
SPLINE
  5
2F3
330
1F
100
AcDbEntity
  8
0
  6
Continuous
 62
     7
370
    25
100
AcDbSpline
210
0.0
220
0.0
230
1.0
 70
     8
 71
     3
 72
     8
 73
     4
 74
     0
 42
0.00000001
 43
0.00000001
 40
0.0
 40
0.0
 40
0.0
 40
0.0
 40
1.0
 40
1.0
 40
1.0
 40
1.0
 10
176.6540770193305
 20
146.170724333239
 30
0.0
 10
176.8277800955503
 20
145.8382129111035
 30
0.0
 10
177.000082314613
 20
145.5048858112046
 30
0.0
 10
177.1703130963097
 20
145.170724333239
 30
0.0
  0
SPLINE
  5
2F4
330
1F
100
AcDbEntity
  8
0
  6
Continuous
 62
     7
370
    25
100
AcDbSpline
210
0.0
220
0.0
230
1.0
 70
     8
 71
     3
 72
    10
 73
     6
 74
     0
 42
0.00000001
 43
0.00000001
 40
0.0
 40
0.0
 40
0.0
 40
0.0
 40
0.5
 40
0.5
 40
1.0
 40
1.0
 40
1.0
 40
1.0
 10
176.4925916910552
 20
146.170724333239
 30
0.0
 10
176.4689162966309
 20
146.170724333239
 30
0.0
 10
176.4558251867406
 20
146.1479318839095
 30
0.0
 10
176.4557388654522
 20
146.0599891798165
 30
0.0
 10
176.468907799396
 20
145.9951314061425
 30
0.0
 10
176.4925916910495
 20
145.920724333239
 30
0.0
  0
SPLINE
  5
2F5
330
1F
100
AcDbEntity
  8
0
  6
Continuous
 62
     7
370
    25
100
AcDbSpline
210
0.0
220
0.0
230
1.0
 70
    24
 71
     3
 72
     8
 73
     4
 74
     0
 42
0.00000001
 43
0.00000001
 40
0.0
 40
0.0
 40
0.0
 40
0.0
 40
1.0
 40
1.0
 40
1.0
 40
1.0
 10
176.6540770193305
 20
146.170724333239
 30
0.0
 10
176.6031783024081
 20
146.170724333239
 30
0.0
 10
176.5492441661575
 20
146.170724333239
 30
0.0
 10
176.4925916910499
 20
146.170724333239
 30
0.0
  0
SPLINE
  5
2F6
330
1F
100
AcDbEntity
  8
0
  6
Continuous
 62
     7
370
    25
100
AcDbSpline
210
0.0
220
0.0
230
1.0
 70
     8
 71
     3
 72
     8
 73
     4
 74
     0
 42
0.00000001
 43
0.00000001
 40
0.0
 40
0.0
 40
0.0
 40
0.0
 40
1.0
 40
1.0
 40
1.0
 40
1.0
 10
189.1703130963097
 20
145.170724333239
 30
0.0
 10
189.3405907036534
 20
145.5049777295243
 30
0.0
 10
189.5128624522791
 20
145.8382442190932
 30
0.0
 10
189.6865491732888
 20
146.1707243332388
 30
0.0
  0
SPLINE
  5
2F7
330
1F
100
AcDbEntity
  8
0
  6
Continuous
 62
     7
370
    25
100
AcDbSpline
210
0.0
220
0.0
230
1.0
 70
    24
 71
     3
 72
     8
 73
     4
 74
     0
 42
0.00000001
 43
0.00000001
 40
0.0
 40
0.0
 40
0.0
 40
0.0
 40
1.0
 40
1.0
 40
1.0
 40
1.0
 10
189.6865491732884
 20
146.170724333239
 30
0.0
 10
189.7374454065436
 20
146.170724333239
 30
0.0
 10
189.7913793615074
 20
146.170724333239
 30
0.0
 10
189.8480345015699
 20
146.170724333239
 30
0.0
  0
SPLINE
  5
2F8
330
1F
100
AcDbEntity
  8
0
  6
Continuous
 62
     7
370
    25
100
AcDbSpline
210
0.0
220
0.0
230
1.0
 70
     8
 71
     3
 72
    10
 73
     6
 74
     0
 42
0.00000001
 43
0.00000001
 40
0.0
 40
0.0
 40
0.0
 40
0.0
 40
0.5
 40
0.5
 40
1.0
 40
1.0
 40
1.0
 40
1.0
 10
189.8480345015699
 20
145.920724333239
 30
0.0
 10
189.8717098959943
 20
145.9951047106163
 30
0.0
 10
189.8848010058789
 20
146.0594053494021
 30
0.0
 10
189.8848873271672
 20
146.147621034185
 30
0.0
 10
189.8717183932234
 20
146.170724333239
 30
0.0
 10
189.8480345015699
 20
146.170724333239
 30
0.0
  0
SPLINE
  5
2F9
330
1F
100
AcDbEntity
  8
0
  6
Continuous
 62
     7
370
    25
100
AcDbSpline
210
0.0
220
0.0
230
1.0
 70
     8
 71
     3
 72
    10
 73
     6
 74
     0
 42
0.00000001
 43
0.00000001
 40
0.0
 40
0.0
 40
0.0
 40
0.0
 40
0.5
 40
0.5
 40
1.0
 40
1.0
 40
1.0
 40
1.0
 10
172.3480345015699
 20
146.170724333239
 30
0.0
 10
172.3717084021258
 20
146.170724333239
 30
0.0
 10
172.384800959305
 20
146.1479337615916
 30
0.0
 10
172.3848873732873
 20
146.0599877642927
 30
0.0
 10
172.3717169816886
 20
145.99512697156
 30
0.0
 10
172.3480345015699
 20
145.920724333239
 30
0.0
  0
SPLINE
  5
2FA
330
1F
100
AcDbEntity
  8
0
  6
Continuous
 62
     7
370
    25
100
AcDbSpline
210
0.0
220
0.0
230
1.0
 70
    24
 71
     3
 72
    12
 73
     8
 74
     0
 42
0.00000001
 43
0.00000001
 40
0.0
 40
0.0
 40
0.0
 40
0.0
 40
0.2499999999999999
 40
0.2499999999999999
 40
0.4999999999999998
 40
0.4999999999999998
 40
1.0
 40
1.0
 40
1.0
 40
1.0
 10
171.6703130963097
 20
146.170724333239
 30
0.0
 10
171.6703130963097
 20
146.170724333239
 30
0.0
 10
171.6863119012908
 20
146.170724333239
 30
0.0
 10
171.7480820396052
 20
146.170724333239
 30
0.0
 10
171.7938241639067
 20
146.170724333239
 30
0.0
 10
171.9704943112536
 20
146.170724333239
 30
0.0
 10
172.1407493767339
 20
146.170724333239
 30
0.0
 10
172.3480345015699
 20
146.170724333239
 30
0.0
  0
SPLINE
  5
2FB
330
1F
100
AcDbEntity
  8
0
  6
Continuous
 62
     7
370
    25
100
AcDbSpline
210
0.0
220
0.0
230
1.0
 70
     8
 71
     3
 72
     8
 73
     4
 74
     0
 42
0.00000001
 43
0.00000001
 40
0.0
 40
0.0
 40
0.0
 40
0.0
 40
1.0
 40
1.0
 40
1.0
 40
1.0
 10
177.1703130963097
 20
130.170724333239
 30
0.0
 10
177.0000354889659
 20
129.8364709369536
 30
0.0
 10
176.8277637403402
 20
129.5032044473845
 30
0.0
 10
176.6540770193305
 20
129.170724333239
 30
0.0
  0
SPLINE
  5
2FC
330
1F
100
AcDbEntity
  8
0
  6
Continuous
 62
     7
370
    25
100
AcDbSpline
210
0.0
220
0.0
230
1.0
 70
    24
 71
     3
 72
     8
 73
     4
 74
     0
 42
0.00000001
 43
0.00000001
 40
0.0
 40
0.0
 40
0.0
 40
0.0
 40
1.0
 40
1.0
 40
1.0
 40
1.0
 10
176.6540770193305
 20
129.170724333239
 30
0.0
 10
176.603178302408
 20
129.170724333239
 30
0.0
 10
176.5492441661573
 20
129.170724333239
 30
0.0
 10
176.4925916910495
 20
129.170724333239
 30
0.0
  0
SPLINE
  5
2FD
330
1F
100
AcDbEntity
  8
0
  6
Continuous
 62
     7
370
    25
100
AcDbSpline
210
0.0
220
0.0
230
1.0
 70
     8
 71
     3
 72
    10
 73
     6
 74
     0
 42
0.00000001
 43
0.00000001
 40
0.0
 40
0.0
 40
0.0
 40
0.0
 40
0.5
 40
0.5
 40
1.0
 40
1.0
 40
1.0
 40
1.0
 10
176.4925916910495
 20
129.420724333239
 30
0.0
 10
176.4689162966251
 20
129.3463439558616
 30
0.0
 10
176.4558251867405
 20
129.2820433170758
 30
0.0
 10
176.4557388654522
 20
129.1938276322929
 30
0.0
 10
176.468907799396
 20
129.170724333239
 30
0.0
 10
176.4925916910495
 20
129.170724333239
 30
0.0
  0
SPLINE
  5
2FE
330
1F
100
AcDbEntity
  8
0
  6
Continuous
 62
     7
370
    25
100
AcDbSpline
210
0.0
220
0.0
230
1.0
 70
     8
 71
     3
 72
     8
 73
     4
 74
     0
 42
0.00000001
 43
0.00000001
 40
0.0
 40
0.0
 40
0.0
 40
0.0
 40
1.0
 40
1.0
 40
1.0
 40
1.0
 10
189.6865491732889
 20
129.170724333239
 30
0.0
 10
189.5128460970691
 20
129.5032357553744
 30
0.0
 10
189.3405438780064
 20
129.8365628552733
 30
0.0
 10
189.1703130963097
 20
130.170724333239
 30
0.0
  0
SPLINE
  5
2FF
330
1F
100
AcDbEntity
  8
0
  6
Continuous
 62
     7
370
    25
100
AcDbSpline
210
0.0
220
0.0
230
1.0
 70
     8
 71
     3
 72
    10
 73
     6
 74
     0
 42
0.00000001
 43
0.00000001
 40
0.0
 40
0.0
 40
0.0
 40
0.0
 40
0.5
 40
0.5
 40
1.0
 40
1.0
 40
1.0
 40
1.0
 10
189.8480345015699
 20
129.170724333239
 30
0.0
 10
189.8717098959943
 20
129.170724333239
 30
0.0
 10
189.8848010058789
 20
129.1935167825688
 30
0.0
 10
189.8848873271672
 20
129.2814594866618
 30
0.0
 10
189.8717183932234
 20
129.3463172603357
 30
0.0
 10
189.8480345015699
 20
129.4207243332389
 30
0.0
  0
SPLINE
  5
300
330
1F
100
AcDbEntity
  8
0
  6
Continuous
 62
     7
370
    25
100
AcDbSpline
210
0.0
220
0.0
230
1.0
 70
    24
 71
     3
 72
     8
 73
     4
 74
     0
 42
0.00000001
 43
0.00000001
 40
0.0
 40
0.0
 40
0.0
 40
0.0
 40
1.0
 40
1.0
 40
1.0
 40
1.0
 10
189.6865491732889
 20
129.170724333239
 30
0.0
 10
189.737445406544
 20
129.170724333239
 30
0.0
 10
189.7913793615076
 20
129.170724333239
 30
0.0
 10
189.8480345015699
 20
129.170724333239
 30
0.0
  0
SPLINE
  5
301
330
1F
100
AcDbEntity
  8
0
  6
Continuous
 62
     7
370
    25
100
AcDbSpline
210
0.0
220
0.0
230
1.0
 70
     8
 71
     3
 72
    10
 73
     6
 74
     0
 42
0.00000001
 43
0.00000001
 40
0.0
 40
0.0
 40
0.0
 40
0.0
 40
0.5
 40
0.5
 40
1.0
 40
1.0
 40
1.0
 40
1.0
 10
172.3480345015699
 20
129.420724333239
 30
0.0
 10
172.3717067414815
 20
129.3463538663134
 30
0.0
 10
172.3848007314167
 20
129.2820482700255
 30
0.0
 10
172.3848875988782
 20
129.1938254822197
 30
0.0
 10
172.3717178091188
 20
129.170724333239
 30
0.0
 10
172.3480345015699
 20
129.170724333239
 30
0.0
  0
SPLINE
  5
302
330
1F
100
AcDbEntity
  8
0
  6
Continuous
 62
     7
370
    25
100
AcDbSpline
210
0.0
220
0.0
230
1.0
 70
    24
 71
     3
 72
    12
 73
     8
 74
     0
 42
0.00000001
 43
0.00000001
 40
0.0
 40
0.0
 40
0.0
 40
0.0
 40
0.2500000000000001
 40
0.2500000000000001
 40
0.5000000000000001
 40
0.5000000000000001
 40
1.0
 40
1.0
 40
1.0
 40
1.0
 10
171.6703130963097
 20
129.170724333239
 30
0.0
 10
171.6703130963097
 20
129.170724333239
 30
0.0
 10
171.6863119012908
 20
129.170724333239
 30
0.0
 10
171.7480820396052
 20
129.170724333239
 30
0.0
 10
171.7938241639067
 20
129.170724333239
 30
0.0
 10
171.9704943112536
 20
129.170724333239
 30
0.0
 10
172.1407493767339
 20
129.170724333239
 30
0.0
 10
172.3480345015699
 20
129.170724333239
 30
0.0
  0
LINE
  5
303
330
1F
100
AcDbEntity
  8
0
  6
Continuous
 62
     7
370
    25
100
AcDbLine
 10
189.8480345016
 20
146.1707243332
 30
0.0
 11
194.3482541238
 21
146.1707243332
 31
0.0
  0
LINE
  5
304
330
1F
100
AcDbEntity
  8
0
  6
Continuous
 62
     7
370
    25
100
AcDbLine
 10
172.3480345016
 20
146.1707243332
 30
0.0
 11
176.492591691
 21
146.1707243332
 31
0.0
  0
LINE
  5
305
330
1F
100
AcDbEntity
  8
0
  6
Continuous
 62
     7
370
    25
100
AcDbLine
 10
194.3482541238
 20
129.1707243332
 30
0.0
 11
189.8480345016
 21
129.1707243332
 31
0.0
  0
LINE
  5
306
330
1F
100
AcDbEntity
  8
0
  6
Continuous
 62
     7
370
    25
100
AcDbLine
 10
176.492591691
 20
129.1707243332
 30
0.0
 11
172.3480345016
 21
129.1707243332
 31
0.0
  0
LINE
  5
307
330
1F
100
AcDbEntity
  8
0
  6
Continuous
 62
     7
370
    25
100
AcDbLine
 10
189.6865491733
 20
146.1707243332
 30
0.0
 11
176.6540770193
 21
146.1707243332
 31
0.0
  0
LINE
  5
308
330
1F
100
AcDbEntity
  8
0
  6
Continuous
 62
     7
370
    25
100
AcDbLine
 10
189.6865491733
 20
129.1707243332
 30
0.0
 11
176.6540770193
 21
129.1707243332
 31
0.0
  0
LINE
  5
309
330
1F
100
AcDbEntity
  8
0
  6
Continuous
 62
     7
370
    25
100
AcDbLine
 10
127.198293138
 20
139.6336554781
 30
0.0
 11
127.198293138
 21
133.7372752102
 31
0.0
  0
LINE
  5
30A
330
1F
100
AcDbEntity
  8
0
  6
Continuous
 62
     7
370
    25
100
AcDbLine
 10
127.198293138
 20
141.6041734563
 30
0.0
 11
127.198293138
 21
139.6336554781
 31
0.0
  0
LINE
  5
30B
330
1F
100
AcDbEntity
  8
0
  6
Continuous
 62
     7
370
    25
100
AcDbLine
 10
152.7921851739
 20
145.5207243332
 30
0.0
 11
152.7921851739
 21
141.1707243332
 31
0.0
  0
LINE
  5
30C
330
1F
100
AcDbEntity
  8
0
  6
Continuous
 62
     7
370
    25
100
AcDbLine
 10
152.7921851739
 20
134.1707243332
 30
0.0
 11
152.7921851739
 21
129.8207243332
 31
0.0
  0
LINE
  5
30D
330
1F
100
AcDbEntity
  8
0
  6
Continuous
 62
     7
370
    25
100
AcDbLine
 10
165.1921851739
 20
129.8207243332
 30
0.0
 11
165.1921851739
 21
134.0350642873
 31
0.0
  0
LINE
  5
30E
330
1F
100
AcDbEntity
  8
0
  6
Continuous
 62
     7
370
    25
100
AcDbLine
 10
165.1921851739
 20
141.3063843792
 30
0.0
 11
165.1921851739
 21
145.5207243332
 31
0.0
  0
LINE
  5
30F
330
1F
100
AcDbEntity
  8
0
  6
Continuous
 62
     7
370
    25
100
AcDbLine
 10
194.3482541238
 20
137.4207243332
 30
0.0
 11
190.6161172839
 21
137.4207243332
 31
0.0
  0
LINE
  5
310
330
1F
100
AcDbEntity
  8
0
  6
Continuous
 62
     7
370
    25
100
AcDbLine
 10
190.6161172839
 20
137.9207243332
 30
0.0
 11
194.3482541238
 21
137.9207243332
 31
0.0
  0
INSERT
  5
31C
330
1F
100
AcDbEntity
  8
0
  6
Continuous
 62
     7
370
    18
100
AcDbBlockReference
  2
SW_CENTERMARKSYMBOL_1
 10
183.1703130963
 20
137.6707243332
 30
0.0
  0
ENDSEC
  0
SECTION
  2
OBJECTS
  0
DICTIONARY
  5
C
330
0
100
AcDbDictionary
281
     1
  3
ACAD_GROUP
350
D
  3
ACAD_LAYOUT
350
1A
  3
ACAD_MLINESTYLE
350
17
  3
ACAD_PLOTSETTINGS
350
19
  3
ACAD_PLOTSTYLENAME
350
E
  3
ACAD_SCALELIST
350
47
  3
DWGPROPS
350
31D
  0
DICTIONARY
  5
D
102
{ACAD_REACTORS
330
C
102
}
330
C
100
AcDbDictionary
281
     1
  0
DICTIONARY
  5
1A
102
{ACAD_REACTORS
330
C
102
}
330
C
100
AcDbDictionary
281
     1
  3
Layout1
350
1E
  3
Layout2
350
26
  3
Model
350
22
  0
DICTIONARY
  5
17
102
{ACAD_REACTORS
330
C
102
}
330
C
100
AcDbDictionary
281
     1
  3
Standard
350
18
  0
DICTIONARY
  5
19
102
{ACAD_REACTORS
330
C
102
}
330
C
100
AcDbDictionary
281
     1
  0
ACDBDICTIONARYWDFLT
  5
E
102
{ACAD_REACTORS
330
C
102
}
330
C
100
AcDbDictionary
281
     1
  3
Normal
350
F
100
AcDbDictionaryWithDefault
340
F
  0
DICTIONARY
  5
47
102
{ACAD_REACTORS
330
C
102
}
330
C
100
AcDbDictionary
281
     1
  3
A0
350
48
  3
A1
350
49
  3
A2
350
4A
  3
A3
350
4B
  3
A4
350
4C
  3
A5
350
4D
  3
A6
350
4E
  3
A7
350
4F
  3
A8
350
50
  3
A9
350
51
  3
B0
350
52
  3
B1
350
53
  3
B2
350
54
  3
B3
350
55
  3
B4
350
56
  3
B5
350
57
  3
B6
350
58
  0
XRECORD
  5
31D
102
{ACAD_REACTORS
330
C
102
}
330
C
100
AcDbXrecord
280
     1
  1
DWGPROPS COOKIE
  2

  3

  4

  6

  7

  8
user28
  9

300
=
301
=
302
=
303
=
304
=
305
=
306
=
307
=
308
=
309
=
 40
0.0
 41
2460137.043228148
 42
2460137.043229051
  1

 90
        0
  0
LAYOUT
  5
1E
102
{ACAD_REACTORS
330
1A
102
}
330
1A
100
AcDbPlotSettings
  1

  2
none_device
  4

  6

 40
0.0
 41
0.0
 42
0.0
 43
0.0
 44
0.0
 45
0.0
 46
0.0
 47
0.0
 48
0.0
 49
0.0
140
0.0
141
0.0
142
1.0
143
1.0
 70
   688
 72
     1
 73
     0
 74
     5
  7

 75
    16
147
1.0
148
0.0
149
0.0
100
AcDbLayout
  1
Layout1
 70
     1
 71
     1
 10
0.0
 20
0.0
 11
420.0
 21
297.0
 12
0.0
 22
0.0
 32
0.0
 14
1.0000000000E+20
 24
1.0000000000E+20
 34
1.0000000000E+20
 15
-1.0000000000E+20
 25
-1.0000000000E+20
 35
-1.0000000000E+20
146
0.0
 13
0.0
 23
0.0
 33
0.0
 16
1.0
 26
0.0
 36
0.0
 17
0.0
 27
1.0
 37
0.0
 76
     0
330
1B
  0
LAYOUT
  5
26
102
{ACAD_REACTORS
330
1A
102
}
330
1A
100
AcDbPlotSettings
  1

  2
none_device
  4

  6

 40
0.0
 41
0.0
 42
0.0
 43
0.0
 44
0.0
 45
0.0
 46
0.0
 47
0.0
 48
0.0
 49
0.0
140
0.0
141
0.0
142
1.0
143
1.0
 70
   688
 72
     1
 73
     0
 74
     5
  7

 75
    16
147
1.0
148
0.0
149
0.0
100
AcDbLayout
  1
Layout2
 70
     1
 71
     2
 10
0.0
 20
0.0
 11
0.0
 21
0.0
 12
0.0
 22
0.0
 32
0.0
 14
0.0
 24
0.0
 34
0.0
 15
0.0
 25
0.0
 35
0.0
146
0.0
 13
0.0
 23
0.0
 33
0.0
 16
1.0
 26
0.0
 36
0.0
 17
0.0
 27
1.0
 37
0.0
 76
     0
330
23
  0
LAYOUT
  5
22
102
{ACAD_REACTORS
330
1A
102
}
330
1A
100
AcDbPlotSettings
  1

  2
none_device
  4
Letter_(8.50_x_11.00_Inches)
  6

 40
6.35
 41
6.35
 42
6.35000508
 43
6.35000508
 44
215.9
 45
279.4
 46
0.0
 47
0.0
 48
0.0
 49
0.0
140
0.0
141
0.0
142
1.0
143
1.0
 70
  1712
 72
     1
 73
     0
 74
     0
  7

 75
     0
147
1.0
148
0.0
149
0.0
100
AcDbLayout
  1
Model
 70
     1
 71
     0
 10
0.0
 20
0.0
 11
431.8
 21
279.4
 12
0.0
 22
0.0
 32
0.0
 14
0.0
 24
0.0
 34
0.0
 15
431.8
 25
279.4
 35
0.0
146
0.0
 13
0.0
 23
0.0
 33
0.0
 16
1.0
 26
0.0
 36
0.0
 17
0.0
 27
1.0
 37
0.0
 76
     0
330
1F
331
29
  0
MLINESTYLE
  5
18
102
{ACAD_REACTORS
330
17
102
}
330
17
100
AcDbMlineStyle
  2
Standard
 70
     0
  3

 62
   256
 51
90.0
 52
90.0
 71
     2
 49
0.5
 62
   256
  6
BYLAYER
 49
-0.5
 62
   256
  6
BYLAYER
  0
ACDBPLACEHOLDER
  5
F
102
{ACAD_REACTORS
330
E
102
}
330
E
  0
SCALE
  5
48
102
{ACAD_REACTORS
330
47
102
}
330
47
100
AcDbScale
 70
     0
300
1:1
140
1.0
141
1.0
290
     1
  0
SCALE
  5
49
102
{ACAD_REACTORS
330
47
102
}
330
47
100
AcDbScale
 70
     0
300
1:2
140
1.0
141
2.0
290
     0
  0
SCALE
  5
4A
102
{ACAD_REACTORS
330
47
102
}
330
47
100
AcDbScale
 70
     0
300
1:4
140
1.0
141
4.0
290
     0
  0
SCALE
  5
4B
102
{ACAD_REACTORS
330
47
102
}
330
47
100
AcDbScale
 70
     0
300
1:5
140
1.0
141
5.0
290
     0
  0
SCALE
  5
4C
102
{ACAD_REACTORS
330
47
102
}
330
47
100
AcDbScale
 70
     0
300
1:8
140
1.0
141
8.0
290
     0
  0
SCALE
  5
4D
102
{ACAD_REACTORS
330
47
102
}
330
47
100
AcDbScale
 70
     0
300
1:10
140
1.0
141
10.0
290
     0
  0
SCALE
  5
4E
102
{ACAD_REACTORS
330
47
102
}
330
47
100
AcDbScale
 70
     0
300
1:16
140
1.0
141
16.0
290
     0
  0
SCALE
  5
4F
102
{ACAD_REACTORS
330
47
102
}
330
47
100
AcDbScale
 70
     0
300
1:20
140
1.0
141
20.0
290
     0
  0
SCALE
  5
50
102
{ACAD_REACTORS
330
47
102
}
330
47
100
AcDbScale
 70
     0
300
1:30
140
1.0
141
30.0
290
     0
  0
SCALE
  5
51
102
{ACAD_REACTORS
330
47
102
}
330
47
100
AcDbScale
 70
     0
300
1:40
140
1.0
141
40.0
290
     0
  0
SCALE
  5
52
102
{ACAD_REACTORS
330
47
102
}
330
47
100
AcDbScale
 70
     0
300
1:50
140
1.0
141
50.0
290
     0
  0
SCALE
  5
53
102
{ACAD_REACTORS
330
47
102
}
330
47
100
AcDbScale
 70
     0
300
1:100
140
1.0
141
100.0
290
     0
  0
SCALE
  5
54
102
{ACAD_REACTORS
330
47
102
}
330
47
100
AcDbScale
 70
     0
300
2:1
140
2.0
141
1.0
290
     0
  0
SCALE
  5
55
102
{ACAD_REACTORS
330
47
102
}
330
47
100
AcDbScale
 70
     0
300
4:1
140
4.0
141
1.0
290
     0
  0
SCALE
  5
56
102
{ACAD_REACTORS
330
47
102
}
330
47
100
AcDbScale
 70
     0
300
8:1
140
8.0
141
1.0
290
     0
  0
SCALE
  5
57
102
{ACAD_REACTORS
330
47
102
}
330
47
100
AcDbScale
 70
     0
300
10:1
140
10.0
141
1.0
290
     0
  0
SCALE
  5
58
102
{ACAD_REACTORS
330
47
102
}
330
47
100
AcDbScale
 70
     0
300
100:1
140
100.0
141
1.0
290
     0
  0
ENDSEC
  0
EOF
