  0
SECTION
  2
HEADER
  9
$ACADVER
  1
AC1015
  9
$ACADMAINTVER
 70
     6
  9
$DWGCODEPAGE
  3
DOS932
  9
$INSBASE
 10
0.0
 20
0.0
 30
0.0
  9
$EXTMIN
 10
0.0
 20
0.0
 30
0.0
  9
$EXTMAX
 10
431.8
 20
279.4
 30
0.0
  9
$LIMMIN
 10
0.0
 20
0.0
  9
$LIMMAX
 10
431.8
 20
279.4
  9
$ORTHOMODE
 70
     0
  9
$REGENMODE
 70
     1
  9
$FILLMODE
 70
     1
  9
$QTEXTMODE
 70
     0
  9
$MIRRTEXT
 70
     1
  9
$LTSCALE
 40
1.0
  9
$ATTMODE
 70
     1
  9
$TEXTSIZE
 40
3.5
  9
$TRACEWID
 40
1.0
  9
$TEXTSTYLE
  7
Standard
  9
$CLAYER
  8
0
  9
$CELTYPE
  6
ByLayer
  9
$CECOLOR
 62
   256
  9
$CELTSCALE
 40
1.0
  9
$DISPSILH
 70
     0
  9
$DIMSCALE
 40
1.0
  9
$DIMASZ
 40
3.556
  9
$DIMEXO
 40
1.0
  9
$DIMDLI
 40
3.75
  9
$DIMRND
 40
0.0
  9
$DIMDLE
 40
0.0
  9
$DIMEXE
 40
1.0
  9
$DIMTP
 40
0.0
  9
$DIMTM
 40
0.0
  9
$DIMTXT
 40
3.5
  9
$DIMCEN
 40
2.5
  9
$DIMTSZ
 40
0.0
  9
$DIMTOL
 70
     0
  9
$DIMLIM
 70
     0
  9
$DIMTIH
 70
     1
  9
$DIMTOH
 70
     1
  9
$DIMSE1
 70
     0
  9
$DIMSE2
 70
     0
  9
$DIMTAD
 70
     1
  9
$DIMZIN
 70
     0
  9
$DIMBLK
  1

  9
$DIMASO
 70
     1
  9
$DIMSHO
 70
     1
  9
$DIMPOST
  1

  9
$DIMAPOST
  1

  9
$DIMALT
 70
     0
  9
$DIMALTD
 70
     3
  9
$DIMALTF
 40
0.0393700787
  9
$DIMLFAC
 40
1.0
  9
$DIMTOFL
 70
     1
  9
$DIMTVP
 40
0.0
  9
$DIMTIX
 70
     0
  9
$DIMSOXD
 70
     0
  9
$DIMSAH
 70
     0
  9
$DIMBLK1
  1

  9
$DIMBLK2
  1

  9
$DIMSTYLE
  2
ISO-25
  9
$DIMCLRD
 70
     0
  9
$DIMCLRE
 70
     0
  9
$DIMCLRT
 70
     0
  9
$DIMTFAC
 40
1.0
  9
$DIMGAP
 40
1.524
  9
$DIMJUST
 70
     0
  9
$DIMSD1
 70
     0
  9
$DIMSD2
 70
     0
  9
$DIMTOLJ
 70
     0
  9
$DIMTZIN
 70
     0
  9
$DIMALTZ
 70
     0
  9
$DIMALTTZ
 70
     0
  9
$DIMUPT
 70
     0
  9
$DIMDEC
 70
     3
  9
$DIMTDEC
 70
     3
  9
$DIMALTU
 70
     2
  9
$DIMALTTD
 70
     3
  9
$DIMTXSTY
  7
Standard
  9
$DIMAUNIT
 70
     0
  9
$DIMADEC
 70
     2
  9
$DIMALTRND
 40
0.0
  9
$DIMAZIN
 70
     0
  9
$DIMDSEP
 70
    44
  9
$DIMATFIT
 70
     3
  9
$DIMFRAC
 70
     0
  9
$DIMLDRBLK
  1

  9
$DIMLUNIT
 70
     2
  9
$DIMLWD
 70
    -2
  9
$DIMLWE
 70
    -2
  9
$DIMTMOVE
 70
     0
  9
$LUNITS
 70
     2
  9
$LUPREC
 70
     3
  9
$SKETCHINC
 40
1.0
  9
$FILLETRAD
 40
0.0
  9
$AUNITS
 70
     0
  9
$AUPREC
 70
     2
  9
$MENU
  1
.
  9
$ELEVATION
 40
0.0
  9
$PELEVATION
 40
0.0
  9
$THICKNESS
 40
0.0
  9
$LIMCHECK
 70
     0
  9
$CHAMFERA
 40
0.0
  9
$CHAMFERB
 40
0.0
  9
$CHAMFERC
 40
0.0
  9
$CHAMFERD
 40
0.0
  9
$SKPOLY
 70
     0
  9
$TDCREATE
 40
2460137.41657794
  9
$TDUCREATE
 40
2460137.04157794
  9
$TDUPDATE
 40
2460137.416579294
  9
$TDUUPDATE
 40
2460137.041579294
  9
$TDINDWG
 40
0.0000000116
  9
$TDUSRTIMER
 40
0.0000000116
  9
$USRTIMER
 70
     1
  9
$ANGBASE
 50
0.0
  9
$ANGDIR
 70
     0
  9
$PDMODE
 70
     0
  9
$PDSIZE
 40
-1.0
  9
$PLINEWID
 40
0.0
  9
$SPLFRAME
 70
     0
  9
$SPLINETYPE
 70
     6
  9
$SPLINESEGS
 70
     8
  9
$HANDSEED
  5
327
  9
$SURFTAB1
 70
     6
  9
$SURFTAB2
 70
     6
  9
$SURFTYPE
 70
     6
  9
$SURFU
 70
     6
  9
$SURFV
 70
     6
  9
$UCSBASE
  2

  9
$UCSNAME
  2

  9
$UCSORG
 10
0.0
 20
0.0
 30
0.0
  9
$UCSXDIR
 10
1.0
 20
0.0
 30
0.0
  9
$UCSYDIR
 10
0.0
 20
1.0
 30
0.0
  9
$UCSORTHOREF
  2

  9
$UCSORTHOVIEW
 70
     0
  9
$UCSORGTOP
 10
0.0
 20
0.0
 30
0.0
  9
$UCSORGBOTTOM
 10
0.0
 20
0.0
 30
0.0
  9
$UCSORGLEFT
 10
0.0
 20
0.0
 30
0.0
  9
$UCSORGRIGHT
 10
0.0
 20
0.0
 30
0.0
  9
$UCSORGFRONT
 10
0.0
 20
0.0
 30
0.0
  9
$UCSORGBACK
 10
0.0
 20
0.0
 30
0.0
  9
$PUCSBASE
  2

  9
$PUCSNAME
  2

  9
$PUCSORG
 10
0.0
 20
0.0
 30
0.0
  9
$PUCSXDIR
 10
1.0
 20
0.0
 30
0.0
  9
$PUCSYDIR
 10
0.0
 20
1.0
 30
0.0
  9
$PUCSORTHOREF
  2

  9
$PUCSORTHOVIEW
 70
     0
  9
$PUCSORGTOP
 10
0.0
 20
0.0
 30
0.0
  9
$PUCSORGBOTTOM
 10
0.0
 20
0.0
 30
0.0
  9
$PUCSORGLEFT
 10
0.0
 20
0.0
 30
0.0
  9
$PUCSORGRIGHT
 10
0.0
 20
0.0
 30
0.0
  9
$PUCSORGFRONT
 10
0.0
 20
0.0
 30
0.0
  9
$PUCSORGBACK
 10
0.0
 20
0.0
 30
0.0
  9
$USERI1
 70
     0
  9
$USERI2
 70
     0
  9
$USERI3
 70
     0
  9
$USERI4
 70
     0
  9
$USERI5
 70
     0
  9
$USERR1
 40
0.0
  9
$USERR2
 40
0.0
  9
$USERR3
 40
0.0
  9
$USERR4
 40
0.0
  9
$USERR5
 40
0.0
  9
$WORLDVIEW
 70
     1
  9
$SHADEDGE
 70
     3
  9
$SHADEDIF
 70
    70
  9
$TILEMODE
 70
     1
  9
$MAXACTVP
 70
    64
  9
$PINSBASE
 10
0.0
 20
0.0
 30
0.0
  9
$PLIMCHECK
 70
     0
  9
$PEXTMIN
 10
1.0000000000E+20
 20
1.0000000000E+20
 30
1.0000000000E+20
  9
$PEXTMAX
 10
-1.0000000000E+20
 20
-1.0000000000E+20
 30
-1.0000000000E+20
  9
$PLIMMIN
 10
0.0
 20
0.0
  9
$PLIMMAX
 10
420.0
 20
297.0
  9
$UNITMODE
 70
     0
  9
$VISRETAIN
 70
     1
  9
$PLINEGEN
 70
     0
  9
$PSLTSCALE
 70
     1
  9
$TREEDEPTH
 70
  3020
  9
$CMLSTYLE
  2
Standard
  9
$CMLJUST
 70
     0
  9
$CMLSCALE
 40
20.0
  9
$PROXYGRAPHICS
 70
     1
  9
$MEASUREMENT
 70
     1
  9
$CELWEIGHT
370
    -1
  9
$ENDCAPS
280
     0
  9
$JOINSTYLE
280
     0
  9
$LWDISPLAY
290
     1
  9
$INSUNITS
 70
     4
  9
$HYPERLINKBASE
  1

  9
$STYLESHEET
  1

  9
$XEDIT
290
     1
  9
$CEPSNTYPE
380
     0
  9
$PSTYLEMODE
290
     1
  9
$FINGERPRINTGUID
  2
{52f8a668-00a2-42d1-9af9-89167b7b9fdc}
  9
$VERSIONGUID
  2
{FAEB1C32-E019-11D5-929B-00C0DF256EC4}
  9
$EXTNAMES
290
     1
  9
$PSVPSCALE
 40
0.0
  9
$OLESTARTUP
290
     0
  0
ENDSEC
  0
SECTION
  2
CLASSES
  0
CLASS
  1
ACDBDICTIONARYWDFLT
  2
AcDbDictionaryWithDefault
  3
ObjectDBX Classes
 90
        0
280
     0
281
     0
  0
CLASS
  1
VISUALSTYLE
  2
AcDbVisualStyle
  3
ObjectDBX Classes
 90
     4095
280
     0
281
     0
  0
CLASS
  1
MATERIAL
  2
AcDbMaterial
  3
ObjectDBX Classes
 90
     1153
280
     0
281
     0
  0
CLASS
  1
SCALE
  2
AcDbScale
  3
ObjectDBX Classes
 90
     1153
280
     0
281
     0
  0
CLASS
  1
TABLESTYLE
  2
AcDbTableStyle
  3
ObjectDBX Classes
 90
     4095
280
     0
281
     0
  0
CLASS
  1
MLEADERSTYLE
  2
AcDbMLeaderStyle
  3
ACDB_MLEADERSTYLE_CLASS
 90
     4095
280
     0
281
     0
  0
CLASS
  1
SUN
  2
AcDbSun
  3
SCENEOE
 90
     1153
280
     0
281
     0
  0
CLASS
  1
ACDBPLACEHOLDER
  2
AcDbPlaceHolder
  3
ObjectDBX Classes
 90
        0
280
     0
281
     0
  0
CLASS
  1
LAYOUT
  2
AcDbLayout
  3
ObjectDBX Classes
 90
        0
280
     0
281
     0
  0
ENDSEC
  0
SECTION
  2
TABLES
  0
TABLE
  2
VPORT
  5
8
330
0
100
AcDbSymbolTable
 70
     1
  0
VPORT
  5
29
330
8
100
AcDbSymbolTableRecord
100
AcDbViewportTableRecord
  2
*Active
 70
     0
 10
0.0
 20
0.0
 11
1.0
 21
1.0
 12
215.9
 22
139.7
 13
0.0
 23
0.0
 14
10.0
 24
10.0
 15
10.0
 25
10.0
 16
0.0
 26
0.0
 36
1.0
 17
0.0
 27
0.0
 37
0.0
 40
279.4
 41
1.5454545455
 42
50.0
 43
0.0
 44
0.0
 50
0.0
 51
0.0
 71
     0
 72
  2000
 73
     1
 74
     3
 75
     0
 76
     0
 77
     0
 78
     0
281
     0
 65
     1
110
0.0
120
0.0
130
0.0
111
1.0
121
0.0
131
0.0
112
0.0
122
1.0
132
0.0
 79
     0
146
0.0
  0
ENDTAB
  0
TABLE
  2
LTYPE
  5
5
330
0
100
AcDbSymbolTable
 70
     6
  0
LTYPE
  5
14
330
5
100
AcDbSymbolTableRecord
100
AcDbLinetypeTableRecord
  2
ByBlock
 70
     0
  3

 72
    65
 73
     0
 40
0.0
  0
LTYPE
  5
15
330
5
100
AcDbSymbolTableRecord
100
AcDbLinetypeTableRecord
  2
ByLayer
 70
     0
  3

 72
    65
 73
     0
 40
0.0
  0
LTYPE
  5
16
330
5
100
AcDbSymbolTableRecord
100
AcDbLinetypeTableRecord
  2
Continuous
 70
     0
  3
Solid line
 72
    65
 73
     0
 40
0.0
  0
LTYPE
  5
5E
330
5
100
AcDbSymbolTableRecord
100
AcDbLinetypeTableRecord
  2
HIDDEN
 70
     0
  3
Hidden __ __ __ __ __ __ __ __ __ __ __ __ __ __
 72
    65
 73
     2
 40
1.905
 49
1.27
 74
     0
 49
-0.635
 74
     0
  0
LTYPE
  5
5F
330
5
100
AcDbSymbolTableRecord
100
AcDbLinetypeTableRecord
  2
PHANTOM
 70
     0
  3
Phantom ______  __  __  ______  __  __  ______
 72
    65
 73
     6
 40
12.7
 49
6.35
 74
     0
 49
-1.27
 74
     0
 49
1.27
 74
     0
 49
-1.27
 74
     0
 49
1.27
 74
     0
 49
-1.27
 74
     0
  0
LTYPE
  5
60
330
5
100
AcDbSymbolTableRecord
100
AcDbLinetypeTableRecord
  2
CENTER
 70
     0
  3
Center ____ _ ____ _ ____ _ ____ _ ____ _ ____
 72
    65
 73
     4
 40
10.16
 49
6.35
 74
     0
 49
-1.27
 74
     0
 49
1.27
 74
     0
 49
-1.27
 74
     0
  0
LTYPE
  5
61
330
5
100
AcDbSymbolTableRecord
100
AcDbLinetypeTableRecord
  2
CENTERX2
 70
     0
  3
Center (2x) ________  __  ________  __  _____
 72
    65
 73
     4
 40
20.32
 49
12.7
 74
     0
 49
-2.54
 74
     0
 49
2.54
 74
     0
 49
-2.54
 74
     0
  0
LTYPE
  5
62
330
5
100
AcDbSymbolTableRecord
100
AcDbLinetypeTableRecord
  2
DOT2
 70
     0
  3
Dot (.5x) ........................................
 72
    65
 73
     2
 40
0.635
 49
0.0
 74
     0
 49
-0.635
 74
     0
  0
ENDTAB
  0
TABLE
  2
LAYER
  5
2
330
0
100
AcDbSymbolTable
 70
     1
  0
LAYER
  5
10
330
2
100
AcDbSymbolTableRecord
100
AcDbLayerTableRecord
  2
0
 70
     0
 62
     7
  6
Continuous
370
    -3
390
F
  0
ENDTAB
  0
TABLE
  2
STYLE
  5
3
330
0
100
AcDbSymbolTable
 70
     2
  0
STYLE
  5
11
330
3
100
AcDbSymbolTableRecord
100
AcDbTextStyleTableRecord
  2
Standard
 70
     0
 40
0.0
 41
1.0
 50
0.0
 71
     0
 42
3.5
  3
txt
  4
bigfont
  0
STYLE
  5
63
330
3
100
AcDbSymbolTableRecord
100
AcDbTextStyleTableRecord
  2
SLDTEXTSTYLE0
 70
     0
 40
0.0
 41
0.7
 50
0.0
 71
     0
 42
3.5
  3
TXT
  4
bigfont
  0
ENDTAB
  0
TABLE
  2
VIEW
  5
6
330
0
100
AcDbSymbolTable
 70
     0
  0
ENDTAB
  0
TABLE
  2
UCS
  5
7
330
0
100
AcDbSymbolTable
 70
     0
  0
ENDTAB
  0
TABLE
  2
APPID
  5
9
330
0
100
AcDbSymbolTable
 70
     1
  0
APPID
  5
12
330
9
100
AcDbSymbolTableRecord
100
AcDbRegAppTableRecord
  2
ACAD
 70
     0
  0
ENDTAB
  0
TABLE
  2
DIMSTYLE
  5
A
330
0
100
AcDbSymbolTable
 70
     1
100
AcDbDimStyleTable
  0
DIMSTYLE
105
27
330
A
100
AcDbSymbolTableRecord
100
AcDbDimStyleTableRecord
  2
ISO-25
 70
     0
 41
2.5
 42
0.625
 43
3.75
 44
1.25
 73
     0
 74
     0
 77
     1
 78
     8
140
2.5
141
2.5
143
0.0393700787
147
0.625
171
     3
172
     1
178
     0
271
     2
272
     2
274
     3
278
    44
283
     0
284
     8
340
11
  0
ENDTAB
  0
TABLE
  2
BLOCK_RECORD
  5
1
330
0
100
AcDbSymbolTable
 70
     3
  0
BLOCK_RECORD
  5
1F
330
1
100
AcDbSymbolTableRecord
100
AcDbBlockTableRecord
  2
*Model_Space
340
22
  0
BLOCK_RECORD
  5
1B
330
1
100
AcDbSymbolTableRecord
100
AcDbBlockTableRecord
  2
*Paper_Space
340
1E
  0
BLOCK_RECORD
  5
23
330
1
100
AcDbSymbolTableRecord
100
AcDbBlockTableRecord
  2
*Paper_Space0
340
26
  0
BLOCK_RECORD
  5
23C
330
1
100
AcDbSymbolTableRecord
100
AcDbBlockTableRecord
  2
SW_CENTERMARKSYMBOL_0
340
0
102
{BLKREFS
331
247
102
}
  0
BLOCK_RECORD
  5
31A
330
1
100
AcDbSymbolTableRecord
100
AcDbBlockTableRecord
  2
SW_CENTERMARKSYMBOL_1
340
0
102
{BLKREFS
331
325
102
}
  0
ENDTAB
  0
ENDSEC
  0
SECTION
  2
BLOCKS
  0
BLOCK
  5
20
330
1F
100
AcDbEntity
  8
0
100
AcDbBlockBegin
  2
*Model_Space
 70
     0
 10
0.0
 20
0.0
 30
0.0
  3
*Model_Space
  1

  0
ENDBLK
  5
21
330
1F
100
AcDbEntity
  8
0
100
AcDbBlockEnd
  0
BLOCK
  5
1C
330
1B
100
AcDbEntity
 67
     1
  8
0
100
AcDbBlockBegin
  2
*Paper_Space
 70
     0
 10
0.0
 20
0.0
 30
0.0
  3
*Paper_Space
  1

  0
ENDBLK
  5
1D
330
1B
100
AcDbEntity
 67
     1
  8
0
100
AcDbBlockEnd
  0
BLOCK
  5
24
330
23
100
AcDbEntity
  8
0
100
AcDbBlockBegin
  2
*Paper_Space0
 70
     0
 10
0.0
 20
0.0
 30
0.0
  3
*Paper_Space0
  1

  0
ENDBLK
  5
25
330
23
100
AcDbEntity
  8
0
100
AcDbBlockEnd
  0
BLOCK
  5
23D
330
23C
100
AcDbEntity
  8
0
100
AcDbBlockBegin
  2
SW_CENTERMARKSYMBOL_0
 70
     0
 10
0.0
 20
0.0
 30
0.0
  3
SW_CENTERMARKSYMBOL_0
  1

  0
LINE
  5
23F
330
23C
100
AcDbEntity
  8
0
  6
Continuous
 62
     0
370
    18
100
AcDbLine
 10
0.0
 20
0.0
 30
0.0
 11
0.0
 21
2.5
 31
0.0
  0
LINE
  5
240
330
23C
100
AcDbEntity
  8
0
  6
Continuous
 62
     0
370
    18
100
AcDbLine
 10
0.0
 20
0.0
 30
0.0
 11
-2.5
 21
0.0
 31
0.0
  0
LINE
  5
241
330
23C
100
AcDbEntity
  8
0
  6
Continuous
 62
     0
370
    18
100
AcDbLine
 10
0.0
 20
0.0
 30
0.0
 11
0.0
 21
-2.5
 31
0.0
  0
LINE
  5
242
330
23C
100
AcDbEntity
  8
0
  6
Continuous
 62
     0
370
    18
100
AcDbLine
 10
0.0
 20
0.0
 30
0.0
 11
2.5
 21
0.0
 31
0.0
  0
LINE
  5
243
330
23C
100
AcDbEntity
  8
0
  6
Continuous
 62
     0
370
    18
100
AcDbLine
 10
0.0
 20
5.0
 30
0.0
 11
0.0
 21
30.299702825
 31
0.0
  0
LINE
  5
244
330
23C
100
AcDbEntity
  8
0
  6
Continuous
 62
     0
370
    18
100
AcDbLine
 10
-5.0
 20
0.0
 30
0.0
 11
-10.35
 21
0.0
 31
0.0
  0
LINE
  5
245
330
23C
100
AcDbEntity
  8
0
  6
Continuous
 62
     0
370
    18
100
AcDbLine
 10
0.0
 20
-5.0
 30
0.0
 11
0.0
 21
-24.7095033719
 31
0.0
  0
LINE
  5
246
330
23C
100
AcDbEntity
  8
0
  6
Continuous
 62
     0
370
    18
100
AcDbLine
 10
5.0
 20
0.0
 30
0.0
 11
10.35
 21
0.0
 31
0.0
  0
ENDBLK
  5
23E
330
23C
100
AcDbEntity
  8
0
100
AcDbBlockEnd
  0
BLOCK
  5
31B
330
31A
100
AcDbEntity
  8
0
100
AcDbBlockBegin
  2
SW_CENTERMARKSYMBOL_1
 70
     0
 10
0.0
 20
0.0
 30
0.0
  3
SW_CENTERMARKSYMBOL_1
  1

  0
LINE
  5
31D
330
31A
100
AcDbEntity
  8
0
  6
Continuous
 62
     0
370
    18
100
AcDbLine
 10
0.0
 20
0.0
 30
0.0
 11
0.0
 21
2.5
 31
0.0
  0
LINE
  5
31E
330
31A
100
AcDbEntity
  8
0
  6
Continuous
 62
     0
370
    18
100
AcDbLine
 10
0.0
 20
0.0
 30
0.0
 11
-2.5
 21
0.0
 31
0.0
  0
LINE
  5
31F
330
31A
100
AcDbEntity
  8
0
  6
Continuous
 62
     0
370
    18
100
AcDbLine
 10
0.0
 20
0.0
 30
0.0
 11
0.0
 21
-2.5
 31
0.0
  0
LINE
  5
320
330
31A
100
AcDbEntity
  8
0
  6
Continuous
 62
     0
370
    18
100
AcDbLine
 10
0.0
 20
0.0
 30
0.0
 11
2.5
 21
0.0
 31
0.0
  0
LINE
  5
321
330
31A
100
AcDbEntity
  8
0
  6
Continuous
 62
     0
370
    18
100
AcDbLine
 10
0.0
 20
5.0
 30
0.0
 11
0.0
 21
9.95
 31
0.0
  0
LINE
  5
322
330
31A
100
AcDbEntity
  8
0
  6
Continuous
 62
     0
370
    18
100
AcDbLine
 10
-5.0
 20
0.0
 30
0.0
 11
-57.8878797884
 21
0.0
 31
0.0
  0
LINE
  5
323
330
31A
100
AcDbEntity
  8
0
  6
Continuous
 62
     0
370
    18
100
AcDbLine
 10
0.0
 20
-5.0
 30
0.0
 11
0.0
 21
-9.95
 31
0.0
  0
LINE
  5
324
330
31A
100
AcDbEntity
  8
0
  6
Continuous
 62
     0
370
    18
100
AcDbLine
 10
5.0
 20
0.0
 30
0.0
 11
13.7167530865
 21
0.0
 31
0.0
  0
ENDBLK
  5
31C
330
31A
100
AcDbEntity
  8
0
100
AcDbBlockEnd
  0
ENDSEC
  0
SECTION
  2
ENTITIES
  0
MTEXT
  5
64
330
1F
100
AcDbEntity
  8
0
  6
Continuous
 62
     7
370
     0
100
AcDbMText
 10
195.8299041319
 20
120.3111100958
 30
0.0
 40
3.5
 41
0.0
 71
     1
 72
     1
  1
エースボール　アングル型　BY-3208R
  7
SLDTEXTSTYLE0
 73
     1
 44
1.0
  0
LINE
  5
65
330
1F
100
AcDbEntity
  8
0
  6
Continuous
 62
     7
370
    25
100
AcDbLine
 10
156.4048176817
 20
74.1416995489
 30
0.0
 11
156.4316126009
 21
74.2416995489
 31
0.0
  0
LINE
  5
66
330
1F
100
AcDbEntity
  8
0
  6
Continuous
 62
     7
370
    25
100
AcDbLine
 10
156.4316126009
 20
83.0416995489
 30
0.0
 11
156.4048176817
 21
83.1416995489
 31
0.0
  0
LINE
  5
67
330
1F
100
AcDbEntity
  8
0
  6
Continuous
 62
     7
370
    25
100
AcDbLine
 10
156.4048176817
 20
83.1416995489
 30
0.0
 11
155.9316126009
 21
83.1416995489
 31
0.0
  0
LINE
  5
68
330
1F
100
AcDbEntity
  8
0
  6
Continuous
 62
     7
370
    25
100
AcDbLine
 10
155.9316126009
 20
74.1416995489
 30
0.0
 11
156.4048176817
 21
74.1416995489
 31
0.0
  0
LINE
  5
69
330
1F
100
AcDbEntity
  8
0
  6
Continuous
 62
     7
370
    25
100
AcDbLine
 10
155.9316126009
 20
82.6416995489
 30
0.0
 11
151.9316126009
 21
82.6416995489
 31
0.0
  0
LINE
  5
6A
330
1F
100
AcDbEntity
  8
0
  6
Continuous
 62
     7
370
    25
100
AcDbLine
 10
151.9316126009
 20
74.6416995489
 30
0.0
 11
155.9316126009
 21
74.6416995489
 31
0.0
  0
LINE
  5
6B
330
1F
100
AcDbEntity
  8
0
  6
Continuous
 62
     7
370
    25
100
AcDbLine
 10
151.9316126009
 20
82.6416995489
 30
0.0
 11
147.9316126009
 21
81.9916995489
 31
0.0
  0
LINE
  5
6C
330
1F
100
AcDbEntity
  8
0
  6
Continuous
 62
     7
370
    25
100
AcDbLine
 10
147.9316126009
 20
75.2916995489
 30
0.0
 11
151.9316126009
 21
74.6416995489
 31
0.0
  0
LINE
  5
6D
330
1F
100
AcDbEntity
  8
0
  6
Continuous
 62
     7
370
    25
100
AcDbLine
 10
147.9316126009
 20
82.6416995489
 30
0.0
 11
143.9316126009
 21
81.9916995489
 31
0.0
  0
LINE
  5
6E
330
1F
100
AcDbEntity
  8
0
  6
Continuous
 62
     7
370
    25
100
AcDbLine
 10
143.9316126009
 20
75.2916995489
 30
0.0
 11
147.9316126009
 21
74.6416995489
 31
0.0
  0
LINE
  5
6F
330
1F
100
AcDbEntity
  8
0
  6
Continuous
 62
     7
370
    25
100
AcDbLine
 10
139.9316126009
 20
82.6416995489
 30
0.0
 11
135.9316126009
 21
81.9916995489
 31
0.0
  0
LINE
  5
70
330
1F
100
AcDbEntity
  8
0
  6
Continuous
 62
     7
370
    25
100
AcDbLine
 10
135.9316126009
 20
75.2916995489
 30
0.0
 11
139.9316126009
 21
74.6416995489
 31
0.0
  0
LINE
  5
71
330
1F
100
AcDbEntity
  8
0
  6
Continuous
 62
     7
370
    25
100
AcDbLine
 10
135.9316126009
 20
82.6416995489
 30
0.0
 11
131.1377205651
 21
82.0751486719
 31
0.0
  0
LINE
  5
72
330
1F
100
AcDbEntity
  8
0
  6
Continuous
 62
     7
370
    25
100
AcDbLine
 10
131.1377205651
 20
75.2082504259
 30
0.0
 11
135.9316126009
 21
74.6416995489
 31
0.0
  0
LINE
  5
73
330
1F
100
AcDbEntity
  8
0
  6
Continuous
 62
     7
370
    25
100
AcDbLine
 10
143.9316126009
 20
82.6416995489
 30
0.0
 11
139.9316126009
 21
81.9916995489
 31
0.0
  0
LINE
  5
74
330
1F
100
AcDbEntity
  8
0
  6
Continuous
 62
     7
370
    25
100
AcDbLine
 10
139.9316126009
 20
75.2916995489
 30
0.0
 11
143.9316126009
 21
74.6416995489
 31
0.0
  0
ARC
  5
75
330
1F
100
AcDbEntity
  8
0
  6
Continuous
 62
     7
370
    25
100
AcDbCircle
 10
131.2316126009
 20
81.2806775991
 30
0.0
 40
0.7999999999999993
100
AcDbArc
 50
96.7400560979
 51
180.0
  0
ARC
  5
76
330
1F
100
AcDbEntity
  8
0
  6
Continuous
 62
     7
370
    25
100
AcDbCircle
 10
131.2316126009
 20
76.0027214987
 30
0.0
 40
0.7999999999999993
100
AcDbArc
 50
180.0
 51
263.2599439021
  0
LINE
  5
77
330
1F
100
AcDbEntity
  8
0
  6
Continuous
 62
     7
370
    25
100
AcDbLine
 10
159.2327463211
 20
87.8793038559
 30
0.0
 11
158.4316126009
 21
86.4916995489
 31
0.0
  0
LINE
  5
78
330
1F
100
AcDbEntity
  8
0
  6
Continuous
 62
     7
370
    25
100
AcDbLine
 10
158.4316126009
 20
70.7916995489
 30
0.0
 11
159.2327463211
 21
69.4040952419
 31
0.0
  0
LINE
  5
79
330
1F
100
AcDbEntity
  8
0
  6
Continuous
 62
     7
370
    25
100
AcDbLine
 10
166.6304788807
 20
69.4040952419
 30
0.0
 11
167.4316126009
 21
70.7916995489
 31
0.0
  0
LINE
  5
7A
330
1F
100
AcDbEntity
  8
0
  6
Continuous
 62
     7
370
    25
100
AcDbLine
 10
167.4316126009
 20
86.4916995489
 30
0.0
 11
166.6304788807
 21
87.8793038559
 31
0.0
  0
LINE
  5
7B
330
1F
100
AcDbEntity
  8
0
  6
Continuous
 62
     7
370
    25
100
AcDbLine
 10
167.4316126009
 20
70.7916995489
 30
0.0
 11
169.1316126009
 21
70.7916995489
 31
0.0
  0
LINE
  5
7C
330
1F
100
AcDbEntity
  8
0
  6
Continuous
 62
     7
370
    25
100
AcDbLine
 10
169.1316126009
 20
86.4916995489
 30
0.0
 11
167.4316126009
 21
86.4916995489
 31
0.0
  0
LINE
  5
7D
330
1F
100
AcDbEntity
  8
0
  6
Continuous
 62
     7
370
    25
100
AcDbLine
 10
158.4316126009
 20
86.4916995489
 30
0.0
 11
156.7316126009
 21
86.4916995489
 31
0.0
  0
LINE
  5
7E
330
1F
100
AcDbEntity
  8
0
  6
Continuous
 62
     7
370
    25
100
AcDbLine
 10
156.7316126009
 20
70.7916995489
 30
0.0
 11
158.4316126009
 21
70.7916995489
 31
0.0
  0
ARC
  5
7F
330
1F
100
AcDbEntity
  8
0
  6
Continuous
 62
     7
370
    25
100
AcDbCircle
 10
156.7316126009
 20
71.0916995489
 30
0.0
 40
0.3000000000000114
100
AcDbArc
 50
180.0
 51
270.0
  0
ARC
  5
80
330
1F
100
AcDbEntity
  8
0
  6
Continuous
 62
     7
370
    25
100
AcDbCircle
 10
156.7316126009
 20
86.1916995489
 30
0.0
 40
0.3000000000000114
100
AcDbArc
 50
90.0
 51
180.0
  0
ARC
  5
81
330
1F
100
AcDbEntity
  8
0
  6
Continuous
 62
     7
370
    25
100
AcDbCircle
 10
169.1316126009
 20
86.1916995489
 30
0.0
 40
0.3000000000000114
100
AcDbArc
 50
0.0
 51
90.0
  0
ARC
  5
82
330
1F
100
AcDbEntity
  8
0
  6
Continuous
 62
     7
370
    25
100
AcDbCircle
 10
169.1316126009
 20
71.0916995489
 30
0.0
 40
0.3000000000000114
100
AcDbArc
 50
270.0
 51
0.0
  0
LINE
  5
83
330
1F
100
AcDbEntity
  8
0
  6
Continuous
 62
     7
370
    25
100
AcDbLine
 10
162.9852024394
 20
87.8793038559
 30
0.0
 11
162.9316126009
 21
87.6793038559
 31
0.0
  0
LINE
  5
84
330
1F
100
AcDbEntity
  8
0
  6
Continuous
 62
     7
370
    25
100
AcDbLine
 10
162.9316126009
 20
87.6793038559
 30
0.0
 11
162.8780227624
 21
87.8793038559
 31
0.0
  0
LINE
  5
85
330
1F
100
AcDbEntity
  8
0
  6
Continuous
 62
     7
370
    25
100
AcDbLine
 10
162.9316126009
 20
69.6040952419
 30
0.0
 11
162.9852024394
 21
69.4040952419
 31
0.0
  0
LINE
  5
86
330
1F
100
AcDbEntity
  8
0
  6
Continuous
 62
     7
370
    25
100
AcDbLine
 10
162.8780227624
 20
69.4040952419
 30
0.0
 11
162.9316126009
 21
69.6040952419
 31
0.0
  0
LINE
  5
87
330
1F
100
AcDbEntity
  8
0
  6
Continuous
 62
     7
370
    25
100
AcDbLine
 10
194.1097405234
 20
89.1416995489
 30
0.0
 11
194.5597405234
 21
97.1416995489
 31
0.0
  0
LINE
  5
88
330
1F
100
AcDbEntity
  8
0
  6
Continuous
 62
     7
370
    25
100
AcDbLine
 10
194.5597405234
 20
97.1416995489
 30
0.0
 11
192.6097405234
 21
105.1416995489
 31
0.0
  0
LINE
  5
89
330
1F
100
AcDbEntity
  8
0
  6
Continuous
 62
     7
370
    25
100
AcDbLine
 10
180.0409951058
 20
90.3638403061
 30
0.0
 11
180.1097405234
 21
89.1416995489
 31
0.0
  0
LINE
  5
8A
330
1F
100
AcDbEntity
  8
0
  6
Continuous
 62
     7
370
    25
100
AcDbLine
 10
181.6097405234
 20
105.1416995489
 30
0.0
 11
181.3565089888
 21
104.1028009457
 31
0.0
  0
LINE
  5
8B
330
1F
100
AcDbEntity
  8
0
  6
Continuous
 62
     7
370
    25
100
AcDbLine
 10
172.8097405234
 20
87.1416995489
 30
0.0
 11
172.6097405234
 21
86.9416995489
 31
0.0
  0
LINE
  5
8C
330
1F
100
AcDbEntity
  8
0
  6
Continuous
 62
     7
370
    25
100
AcDbLine
 10
172.6097405234
 20
70.3416995489
 30
0.0
 11
172.8097405234
 21
70.1416995489
 31
0.0
  0
LINE
  5
8D
330
1F
100
AcDbEntity
  8
0
  6
Continuous
 62
     7
370
    25
100
AcDbLine
 10
172.8097405234
 20
70.1416995489
 30
0.0
 11
175.6097405234
 21
70.1416995489
 31
0.0
  0
LINE
  5
8E
330
1F
100
AcDbEntity
  8
0
  6
Continuous
 62
     7
370
    25
100
AcDbLine
 10
175.6097405234
 20
87.1416995489
 30
0.0
 11
172.8097405234
 21
87.1416995489
 31
0.0
  0
LINE
  5
8F
330
1F
100
AcDbEntity
  8
0
  6
Continuous
 62
     7
370
    25
100
AcDbLine
 10
172.6097405234
 20
85.2201995489
 30
0.0
 11
169.4316126009
 21
85.2201995489
 31
0.0
  0
LINE
  5
90
330
1F
100
AcDbEntity
  8
0
  6
Continuous
 62
     7
370
    25
100
AcDbLine
 10
169.4316126009
 20
72.0631995489
 30
0.0
 11
172.6097405234
 21
72.0631995489
 31
0.0
  0
LINE
  5
91
330
1F
100
AcDbEntity
  8
0
  6
Continuous
 62
     7
370
    25
100
AcDbLine
 10
198.2508717763
 20
68.9040952419
 30
0.0
 11
199.1097405234
 21
70.3916995489
 31
0.0
  0
LINE
  5
92
330
1F
100
AcDbEntity
  8
0
  6
Continuous
 62
     7
370
    25
100
AcDbLine
 10
199.1097405234
 20
86.8916995489
 30
0.0
 11
198.2508717763
 21
88.3793038559
 31
0.0
  0
LINE
  5
93
330
1F
100
AcDbEntity
  8
0
  6
Continuous
 62
     7
370
    25
100
AcDbLine
 10
180.3515530234
 20
66.6416995489
 30
0.0
 11
180.6451884648
 21
57.2453654228
 31
0.0
  0
LINE
  5
94
330
1F
100
AcDbEntity
  8
0
  6
Continuous
 62
     7
370
    25
100
AcDbLine
 10
193.5742925819
 20
57.2453654228
 30
0.0
 11
193.8679280234
 21
66.6416995489
 31
0.0
  0
SPLINE
  5
95
330
1F
100
AcDbEntity
  8
0
  6
Continuous
 62
     7
370
    25
100
AcDbSpline
210
0.0
220
0.0
230
1.0
 70
     8
 71
     3
 72
    11
 73
     7
 74
     0
 42
0.00000001
 43
0.00000001
 40
0.0
 40
0.0
 40
0.0
 40
0.0
 40
0.1664010884183562
 40
0.5538901081128212
 40
0.8818486017204341
 40
1.0
 40
1.0
 40
1.0
 40
1.0
 10
193.2809923974091
 20
87.43159555052834
 30
0.0
 10
193.2488781604347
 20
87.46148394465818
 30
0.0
 10
193.1419812743698
 20
87.56097179064074
 30
0.0
 10
193.0434310794861
 20
87.77683716174097
 30
0.0
 10
192.9875598238463
 20
87.99163448073611
 30
0.0
 10
192.9954263639058
 20
88.10875799091342
 30
0.0
 10
192.9975098028176
 20
88.1397779408193
 30
0.0
  0
SPLINE
  5
96
330
1F
100
AcDbEntity
  8
0
  6
Continuous
 62
     7
370
    25
100
AcDbSpline
210
0.0
220
0.0
230
1.0
 70
     8
 71
     3
 72
    11
 73
     7
 74
     0
 42
0.00000001
 43
0.00000001
 40
0.0
 40
0.0
 40
0.0
 40
0.0
 40
0.1682759790706359
 40
0.5204490680659646
 40
0.8849435914720587
 40
1.0
 40
1.0
 40
1.0
 40
1.0
 10
181.2159751000505
 20
88.14119282510941
 30
0.0
 10
181.2179933409627
 20
88.09704509460151
 30
0.0
 10
181.2242354178636
 20
87.96050365043955
 30
0.0
 10
181.1538177986014
 20
87.73647302977776
 30
0.0
 10
181.0532015488132
 20
87.5372611741504
 30
0.0
 10
180.9581970994495
 20
87.45475785653571
 30
0.0
 10
180.9354031269847
 20
87.43496322204693
 30
0.0
  0
LINE
  5
97
330
1F
100
AcDbEntity
  8
0
  6
Continuous
 62
     7
370
    25
100
AcDbLine
 10
180.6451884648
 20
57.2453654228
 30
0.0
 11
181.8597405234
 21
55.1416995489
 31
0.0
  0
LINE
  5
98
330
1F
100
AcDbEntity
  8
0
  6
Continuous
 62
     7
370
    25
100
AcDbLine
 10
192.3597405234
 20
55.1416995489
 30
0.0
 11
193.5742925819
 21
57.2453654228
 31
0.0
  0
LINE
  5
99
330
1F
100
AcDbEntity
  8
0
  6
Continuous
 62
     7
370
    25
100
AcDbLine
 10
193.0097405234
 20
88.1371687288
 30
0.0
 11
193.0097405234
 21
89.1416995489
 31
0.0
  0
LINE
  5
9A
330
1F
100
AcDbEntity
  8
0
  6
Continuous
 62
     7
370
    25
100
AcDbLine
 10
181.2097405234
 20
89.1416995489
 30
0.0
 11
181.2097405234
 21
88.1416995489
 31
0.0
  0
LINE
  5
9B
330
1F
100
AcDbEntity
  8
0
  6
Continuous
 62
     7
370
    25
100
AcDbLine
 10
180.939573616
 20
87.4364372782
 30
0.0
 11
180.3952093436
 21
88.3793038559
 31
0.0
  0
LINE
  5
9C
330
1F
100
AcDbEntity
  8
0
  6
Continuous
 62
     7
370
    25
100
AcDbLine
 10
176.3242717032
 20
88.3793038559
 30
0.0
 11
175.6097405234
 21
87.1416995489
 31
0.0
  0
LINE
  5
9D
330
1F
100
AcDbEntity
  8
0
  6
Continuous
 62
     7
370
    25
100
AcDbLine
 10
193.8242717032
 20
88.3793038559
 30
0.0
 11
193.2799074307
 21
87.4364372782
 31
0.0
  0
LINE
  5
9E
330
1F
100
AcDbEntity
  8
0
  6
Continuous
 62
     7
370
    25
100
AcDbLine
 10
195.6097405234
 20
66.6416995489
 30
0.0
 11
196.8473448304
 21
67.3562307287
 31
0.0
  0
LINE
  5
9F
330
1F
100
AcDbEntity
  8
0
  6
Continuous
 62
     7
370
    25
100
AcDbLine
 10
175.6097405234
 20
70.1416995489
 30
0.0
 11
176.3242717032
 21
68.9040952419
 31
0.0
  0
LINE
  5
A0
330
1F
100
AcDbEntity
  8
0
  6
Continuous
 62
     7
370
    25
100
AcDbLine
 10
177.3721362163
 20
67.3562307287
 30
0.0
 11
178.6097405234
 21
66.6416995489
 31
0.0
  0
LINE
  5
A1
330
1F
100
AcDbEntity
  8
0
  6
Continuous
 62
     7
370
    25
100
AcDbLine
 10
196.8473448304
 20
67.3536703474
 30
0.0
 11
196.8473448304
 21
68.9040952419
 31
0.0
  0
LINE
  5
A2
330
1F
100
AcDbEntity
  8
0
  6
Continuous
 62
     7
370
    25
100
AcDbLine
 10
196.8473448304
 20
68.9040952419
 30
0.0
 11
198.2534398317
 21
68.9040952419
 31
0.0
  0
LINE
  5
A3
330
1F
100
AcDbEntity
  8
0
  6
Continuous
 62
     7
370
    25
100
AcDbLine
 10
180.397777399
 20
88.3793038559
 30
0.0
 11
176.3217113219
 21
88.3793038559
 31
0.0
  0
LINE
  5
A4
330
1F
100
AcDbEntity
  8
0
  6
Continuous
 62
     7
370
    25
100
AcDbLine
 10
198.2534398317
 20
88.3793038559
 30
0.0
 11
193.8217036477
 21
88.3793038559
 31
0.0
  0
LINE
  5
A5
330
1F
100
AcDbEntity
  8
0
  6
Continuous
 62
     7
370
    25
100
AcDbLine
 10
177.3721362163
 20
68.9040952419
 30
0.0
 11
177.3721362163
 21
67.3536703474
 31
0.0
  0
LINE
  5
A6
330
1F
100
AcDbEntity
  8
0
  6
Continuous
 62
     7
370
    25
100
AcDbLine
 10
176.3217113219
 20
68.9040952419
 30
0.0
 11
177.3721362163
 21
68.9040952419
 31
0.0
  0
LINE
  5
A7
330
1F
100
AcDbEntity
  8
0
  6
Continuous
 62
     7
370
    25
100
AcDbLine
 10
156.4048176817
 20
83.1416995489
 30
0.0
 11
156.4048176817
 21
74.1416995489
 31
0.0
  0
LINE
  5
A8
330
1F
100
AcDbEntity
  8
0
  6
Continuous
 62
     7
370
    25
100
AcDbLine
 10
155.9316126009
 20
77.9048239831
 30
0.0
 11
155.9316126009
 21
83.1416995489
 31
0.0
  0
LINE
  5
A9
330
1F
100
AcDbEntity
  8
0
  6
Continuous
 62
     7
370
    25
100
AcDbLine
 10
155.9316126009
 20
74.1416995489
 30
0.0
 11
155.9316126009
 21
77.9048239831
 31
0.0
  0
LINE
  5
AA
330
1F
100
AcDbEntity
  8
0
  6
Continuous
 62
     7
370
    25
100
AcDbLine
 10
151.9316126009
 20
82.6416995489
 30
0.0
 11
151.9316126009
 21
74.6416995489
 31
0.0
  0
LINE
  5
AB
330
1F
100
AcDbEntity
  8
0
  6
Continuous
 62
     7
370
    25
100
AcDbLine
 10
147.9316126009
 20
82.6416995489
 30
0.0
 11
147.9316126009
 21
74.6416995489
 31
0.0
  0
LINE
  5
AC
330
1F
100
AcDbEntity
  8
0
  6
Continuous
 62
     7
370
    25
100
AcDbLine
 10
139.9316126009
 20
82.6416995489
 30
0.0
 11
139.9316126009
 21
74.6416995489
 31
0.0
  0
LINE
  5
AD
330
1F
100
AcDbEntity
  8
0
  6
Continuous
 62
     7
370
    25
100
AcDbLine
 10
135.9316126009
 20
82.6416995489
 30
0.0
 11
135.9316126009
 21
74.6416995489
 31
0.0
  0
LINE
  5
AE
330
1F
100
AcDbEntity
  8
0
  6
Continuous
 62
     7
370
    25
100
AcDbLine
 10
143.9316126009
 20
82.6416995489
 30
0.0
 11
143.9316126009
 21
74.6416995489
 31
0.0
  0
LINE
  5
AF
330
1F
100
AcDbEntity
  8
0
  6
Continuous
 62
     7
370
    25
100
AcDbLine
 10
130.4316126009
 20
76.0027214987
 30
0.0
 11
130.4316126009
 21
81.2806775991
 31
0.0
  0
LINE
  5
B0
330
1F
100
AcDbEntity
  8
0
  6
Continuous
 62
     7
370
    25
100
AcDbLine
 10
162.9316126009
 20
74.437143495
 30
0.0
 11
162.9852024394
 21
74.0228973954
 31
0.0
  0
LINE
  5
B1
330
1F
100
AcDbEntity
  8
0
  6
Continuous
 62
     7
370
    25
100
AcDbLine
 10
162.9852024394
 20
74.0228973954
 30
0.0
 11
162.9316126009
 21
73.8157743456
 31
0.0
  0
LINE
  5
B2
330
1F
100
AcDbEntity
  8
0
  6
Continuous
 62
     7
370
    25
100
AcDbLine
 10
162.9316126009
 20
74.437143495
 30
0.0
 11
162.9316126009
 21
73.8157743456
 31
0.0
  0
LINE
  5
B3
330
1F
100
AcDbEntity
  8
0
  6
Continuous
 62
     7
370
    25
100
AcDbLine
 10
166.6304788807
 20
87.8793038559
 30
0.0
 11
162.9852024394
 21
87.8793038559
 31
0.0
  0
SPLINE
  5
B4
330
1F
100
AcDbEntity
  8
0
  6
Continuous
 62
     7
370
    25
100
AcDbSpline
210
0.0
220
0.0
230
1.0
 70
     8
 71
     3
 72
    12
 73
     8
 74
     0
 42
0.00000001
 43
0.00000001
 40
0.0
 40
0.0
 40
0.0
 40
0.0
 40
0.2645357324841768
 40
0.3998137210612349
 40
0.5350672982154578
 40
0.7654034360362892
 40
1.0
 40
1.0
 40
1.0
 40
1.0
 10
166.6304788807414
 20
87.87930385593431
 30
0.0
 10
166.8375763033346
 20
87.47846923760231
 30
0.0
 10
167.150578975494
 20
86.87265625808334
 30
0.0
 10
167.3306041136808
 20
86.03991255630628
 30
0.0
 10
167.3671122035983
 20
85.25706474194276
 30
0.0
 10
167.182216441364
 20
84.31909498013759
 30
0.0
 10
166.8155115052068
 20
83.61551522043305
 30
0.0
 10
166.6304788807414
 20
83.26050170241729
 30
0.0
  0
LINE
  5
B5
330
1F
100
AcDbEntity
  8
0
  6
Continuous
 62
     7
370
    25
100
AcDbLine
 10
166.6304788807
 20
83.2605017024
 30
0.0
 11
162.9852024394
 21
83.2605017024
 31
0.0
  0
LINE
  5
B6
330
1F
100
AcDbEntity
  8
0
  6
Continuous
 62
     7
370
    25
100
AcDbLine
 10
162.9316126009
 20
83.4676247522
 30
0.0
 11
162.9852024394
 21
83.2605017024
 31
0.0
  0
LINE
  5
B7
330
1F
100
AcDbEntity
  8
0
  6
Continuous
 62
     7
370
    25
100
AcDbLine
 10
162.8780227624
 20
83.2605017024
 30
0.0
 11
162.9316126009
 21
83.4676247522
 31
0.0
  0
LINE
  5
B8
330
1F
100
AcDbEntity
  8
0
  6
Continuous
 62
     7
370
    25
100
AcDbLine
 10
162.8780227624
 20
83.2605017024
 30
0.0
 11
159.2327463211
 21
83.2605017024
 31
0.0
  0
SPLINE
  5
B9
330
1F
100
AcDbEntity
  8
0
  6
Continuous
 62
     7
370
    25
100
AcDbSpline
210
0.0
220
0.0
230
1.0
 70
     8
 71
     3
 72
    12
 73
     8
 74
     0
 42
0.00000001
 43
0.00000001
 40
0.0
 40
0.0
 40
0.0
 40
0.0
 40
0.2645357324841768
 40
0.3998137210612349
 40
0.5350672982154578
 40
0.7654034360362892
 40
1.0
 40
1.0
 40
1.0
 40
1.0
 10
159.2327463211309
 20
87.87930385593431
 30
0.0
 10
159.0256488985377
 20
87.47846923760231
 30
0.0
 10
158.7126462263783
 20
86.87265625808334
 30
0.0
 10
158.5326210881915
 20
86.03991255630628
 30
0.0
 10
158.496112998274
 20
85.25706474194276
 30
0.0
 10
158.6810087605084
 20
84.31909498013759
 30
0.0
 10
159.0477136966655
 20
83.61551522043305
 30
0.0
 10
159.2327463211309
 20
83.26050170241729
 30
0.0
  0
LINE
  5
BA
330
1F
100
AcDbEntity
  8
0
  6
Continuous
 62
     7
370
    25
100
AcDbLine
 10
162.8780227624
 20
87.8793038559
 30
0.0
 11
159.2327463211
 21
87.8793038559
 31
0.0
  0
LINE
  5
BB
330
1F
100
AcDbEntity
  8
0
  6
Continuous
 62
     7
370
    25
100
AcDbLine
 10
162.9316126009
 20
87.6721808061
 30
0.0
 11
162.8780227624
 21
87.8793038559
 31
0.0
  0
LINE
  5
BC
330
1F
100
AcDbEntity
  8
0
  6
Continuous
 62
     7
370
    25
100
AcDbLine
 10
162.9852024394
 20
87.8793038559
 30
0.0
 11
162.9316126009
 21
87.6721808061
 31
0.0
  0
LINE
  5
BD
330
1F
100
AcDbEntity
  8
0
  6
Continuous
 62
     7
370
    25
100
AcDbLine
 10
162.9316126009
 20
83.4676247522
 30
0.0
 11
162.9316126009
 21
82.8462556028
 31
0.0
  0
LINE
  5
BE
330
1F
100
AcDbEntity
  8
0
  6
Continuous
 62
     7
370
    25
100
AcDbLine
 10
162.9316126009
 20
82.8462556028
 30
0.0
 11
162.8780227624
 21
83.2605017024
 31
0.0
  0
LINE
  5
BF
330
1F
100
AcDbEntity
  8
0
  6
Continuous
 62
     7
370
    25
100
AcDbLine
 10
162.9852024394
 20
83.2605017024
 30
0.0
 11
162.9316126009
 21
82.8462556028
 31
0.0
  0
SPLINE
  5
C0
330
1F
100
AcDbEntity
  8
0
  6
Continuous
 62
     7
370
    25
100
AcDbSpline
210
0.0
220
0.0
230
1.0
 70
     8
 71
     3
 72
    13
 73
     9
 74
     0
 42
0.00000001
 43
0.00000001
 40
0.0
 40
0.0
 40
0.0
 40
0.0
 40
0.1912580406961239
 40
0.3843458819554667
 40
0.6360717224482983
 40
0.7654026222191218
 40
0.8947699173407201
 40
0.9999999999999999
 40
0.9999999999999999
 40
0.9999999999999999
 40
0.9999999999999999
 10
159.2327463211309
 20
83.26050170241729
 30
0.0
 10
159.0792591585598
 20
82.6824926522906
 30
0.0
 10
158.7708163937351
 20
81.52094463401853
 30
0.0
 10
158.4978191250221
 20
79.5468075658983
 30
0.0
 10
158.5078374085389
 20
77.74353303494932
 30
0.0
 10
158.7211522347427
 20
76.16165203387261
 30
0.0
 10
158.9503671783356
 20
75.04669261069999
 30
0.0
 10
159.1453055342707
 20
74.33992314425716
 30
0.0
 10
159.2327463211309
 20
74.02289739538324
 30
0.0
  0
SPLINE
  5
C1
330
1F
100
AcDbEntity
  8
0
  6
Continuous
 62
     7
370
    25
100
AcDbSpline
210
0.0
220
0.0
230
1.0
 70
     8
 71
     3
 72
    12
 73
     8
 74
     0
 42
0.00000001
 43
0.00000001
 40
0.0
 40
0.0
 40
0.0
 40
0.0
 40
0.2645357324841768
 40
0.3998137210612349
 40
0.535067298215458
 40
0.7654034360362891
 40
1.0
 40
1.0
 40
1.0
 40
1.0
 10
159.2327463211309
 20
74.02289739538324
 30
0.0
 10
159.0256488985377
 20
73.62206277705126
 30
0.0
 10
158.7126462263783
 20
73.01624979753228
 30
0.0
 10
158.5326210881915
 20
72.18350609575523
 30
0.0
 10
158.496112998274
 20
71.40065828139173
 30
0.0
 10
158.6810087605084
 20
70.46268851958656
 30
0.0
 10
159.0477136966655
 20
69.75910875988204
 30
0.0
 10
159.2327463211309
 20
69.40409524186627
 30
0.0
  0
LINE
  5
C2
330
1F
100
AcDbEntity
  8
0
  6
Continuous
 62
     7
370
    25
100
AcDbLine
 10
158.4316126009
 20
86.4916995489
 30
0.0
 11
158.4316126009
 21
70.7916995489
 31
0.0
  0
SPLINE
  5
C3
330
1F
100
AcDbEntity
  8
0
  6
Continuous
 62
     7
370
    25
100
AcDbSpline
210
0.0
220
0.0
230
1.0
 70
     8
 71
     3
 72
    12
 73
     8
 74
     0
 42
0.00000001
 43
0.00000001
 40
0.0
 40
0.0
 40
0.0
 40
0.0
 40
0.2645357324841768
 40
0.3998137210612349
 40
0.535067298215458
 40
0.7654034360362891
 40
1.0
 40
1.0
 40
1.0
 40
1.0
 10
166.6304788807414
 20
74.02289739538324
 30
0.0
 10
166.8375763033346
 20
73.62206277705126
 30
0.0
 10
167.150578975494
 20
73.01624979753228
 30
0.0
 10
167.3306041136808
 20
72.18350609575523
 30
0.0
 10
167.3671122035983
 20
71.40065828139173
 30
0.0
 10
167.182216441364
 20
70.46268851958656
 30
0.0
 10
166.8155115052068
 20
69.75910875988204
 30
0.0
 10
166.6304788807414
 20
69.40409524186627
 30
0.0
  0
SPLINE
  5
C4
330
1F
100
AcDbEntity
  8
0
  6
Continuous
 62
     7
370
    25
100
AcDbSpline
210
0.0
220
0.0
230
1.0
 70
     8
 71
     3
 72
    13
 73
     9
 74
     0
 42
0.00000001
 43
0.00000001
 40
0.0
 40
0.0
 40
0.0
 40
0.0
 40
0.1912580406961239
 40
0.3843458819554667
 40
0.6360717224482983
 40
0.7654026222191218
 40
0.8947699173407201
 40
0.9999999999999999
 40
0.9999999999999999
 40
0.9999999999999999
 40
0.9999999999999999
 10
166.6304788807414
 20
83.26050170241729
 30
0.0
 10
166.7839660433125
 20
82.6824926522906
 30
0.0
 10
167.0924088081372
 20
81.52094463401853
 30
0.0
 10
167.3654060768502
 20
79.5468075658983
 30
0.0
 10
167.3553877933334
 20
77.74353303494932
 30
0.0
 10
167.1420729671296
 20
76.16165203387261
 30
0.0
 10
166.9128580235367
 20
75.04669261069999
 30
0.0
 10
166.7179196676016
 20
74.33992314425716
 30
0.0
 10
166.6304788807414
 20
74.02289739538324
 30
0.0
  0
LINE
  5
C5
330
1F
100
AcDbEntity
  8
0
  6
Continuous
 62
     7
370
    25
100
AcDbLine
 10
167.4316126009
 20
86.4916995489
 30
0.0
 11
167.4316126009
 21
70.7916995489
 31
0.0
  0
LINE
  5
C6
330
1F
100
AcDbEntity
  8
0
  6
Continuous
 62
     7
370
    25
100
AcDbLine
 10
166.6304788807
 20
74.0228973954
 30
0.0
 11
162.9852024394
 21
74.0228973954
 31
0.0
  0
LINE
  5
C7
330
1F
100
AcDbEntity
  8
0
  6
Continuous
 62
     7
370
    25
100
AcDbLine
 10
162.8780227624
 20
74.0228973954
 30
0.0
 11
162.9316126009
 21
74.437143495
 31
0.0
  0
LINE
  5
C8
330
1F
100
AcDbEntity
  8
0
  6
Continuous
 62
     7
370
    25
100
AcDbLine
 10
162.8780227624
 20
74.0228973954
 30
0.0
 11
159.2327463211
 21
74.0228973954
 31
0.0
  0
LINE
  5
C9
330
1F
100
AcDbEntity
  8
0
  6
Continuous
 62
     7
370
    25
100
AcDbLine
 10
162.9316126009
 20
73.8157743456
 30
0.0
 11
162.8780227624
 21
74.0228973954
 31
0.0
  0
LINE
  5
CA
330
1F
100
AcDbEntity
  8
0
  6
Continuous
 62
     7
370
    25
100
AcDbLine
 10
166.6304788807
 20
69.4040952419
 30
0.0
 11
162.9852024394
 21
69.4040952419
 31
0.0
  0
LINE
  5
CB
330
1F
100
AcDbEntity
  8
0
  6
Continuous
 62
     7
370
    25
100
AcDbLine
 10
162.9316126009
 20
69.6112182917
 30
0.0
 11
162.9852024394
 21
69.4040952419
 31
0.0
  0
LINE
  5
CC
330
1F
100
AcDbEntity
  8
0
  6
Continuous
 62
     7
370
    25
100
AcDbLine
 10
162.8780227624
 20
69.4040952419
 30
0.0
 11
162.9316126009
 21
69.6112182917
 31
0.0
  0
LINE
  5
CD
330
1F
100
AcDbEntity
  8
0
  6
Continuous
 62
     7
370
    25
100
AcDbLine
 10
162.8780227624
 20
69.4040952419
 30
0.0
 11
159.2327463211
 21
69.4040952419
 31
0.0
  0
LINE
  5
CE
330
1F
100
AcDbEntity
  8
0
  6
Continuous
 62
     7
370
    25
100
AcDbLine
 10
156.4316126009
 20
78.6416995489
 30
0.0
 11
156.4316126009
 21
86.1916995489
 31
0.0
  0
LINE
  5
CF
330
1F
100
AcDbEntity
  8
0
  6
Continuous
 62
     7
370
    25
100
AcDbLine
 10
156.4316126009
 20
71.0916995489
 30
0.0
 11
156.4316126009
 21
78.6416995489
 31
0.0
  0
LINE
  5
D0
330
1F
100
AcDbEntity
  8
0
  6
Continuous
 62
     7
370
    25
100
AcDbLine
 10
169.4316126009
 20
86.1916995489
 30
0.0
 11
169.4316126009
 21
71.0916995489
 31
0.0
  0
LINE
  5
D1
330
1F
100
AcDbEntity
  8
0
  6
Continuous
 62
     7
370
    25
100
AcDbLine
 10
162.9316126009
 20
87.6793038559
 30
0.0
 11
162.9316126009
 21
87.6721808061
 31
0.0
  0
LINE
  5
D2
330
1F
100
AcDbEntity
  8
0
  6
Continuous
 62
     7
370
    25
100
AcDbLine
 10
162.9316126009
 20
69.6112182917
 30
0.0
 11
162.9316126009
 21
69.6040952419
 31
0.0
  0
LINE
  5
D3
330
1F
100
AcDbEntity
  8
0
  6
Continuous
 62
     7
370
    25
100
AcDbLine
 10
192.348825856
 20
105.1416995489
 30
0.0
 11
192.348825856
 21
105.7416995489
 31
0.0
  0
LINE
  5
D4
330
1F
100
AcDbEntity
  8
0
  6
Continuous
 62
     7
370
    25
100
AcDbLine
 10
181.8706551907
 20
105.1416995489
 30
0.0
 11
192.348825856
 21
105.1416995489
 31
0.0
  0
LINE
  5
D5
330
1F
100
AcDbEntity
  8
0
  6
Continuous
 62
     7
370
    25
100
AcDbLine
 10
181.8706551907
 20
105.7416995489
 30
0.0
 11
181.8706551907
 21
105.1416995489
 31
0.0
  0
LINE
  5
D6
330
1F
100
AcDbEntity
  8
0
  6
Continuous
 62
     7
370
    25
100
AcDbLine
 10
192.348825856
 20
105.7416995489
 30
0.0
 11
181.8706551907
 21
105.7416995489
 31
0.0
  0
SPLINE
  5
D7
330
1F
100
AcDbEntity
  8
0
  6
Continuous
 62
     7
370
    25
100
AcDbSpline
210
0.0
220
0.0
230
1.0
 70
     8
 71
     3
 72
    15
 73
    11
 74
     0
 42
0.00000001
 43
0.00000001
 40
0.0
 40
0.0
 40
0.0
 40
0.0
 40
0.0090459071881971
 40
0.1032433785236816
 40
0.1542564497735189
 40
0.31331690267151
 40
0.5243720399414428
 40
0.6678060008509183
 40
0.9918332554187028
 40
1.0
 40
1.0
 40
1.0
 40
1.0
 10
192.3488258560272
 20
105.7416995489003
 30
0.0
 10
192.3488201640606
 20
105.7433806474847
 30
0.0
 10
192.3487552001097
 20
105.7625674790402
 30
0.0
 10
192.3467595136739
 20
105.7912617585602
 30
0.0
 10
192.3389425174574
 20
105.8419377985322
 30
0.0
 10
192.3217726937024
 20
105.899814098109
 30
0.0
 10
192.2951887971349
 20
105.9446796128437
 30
0.0
 10
192.2573594986463
 20
105.9820419960983
 30
0.0
 10
192.229078718636
 20
105.9915880083677
 30
0.0
 10
192.2092475711048
 20
105.9916968725545
 30
0.0
 10
192.2087600369619
 20
105.9916995489003
 30
0.0
  0
SPLINE
  5
D8
330
1F
100
AcDbEntity
  8
0
  6
Continuous
 62
     7
370
    25
100
AcDbSpline
210
0.0
220
0.0
230
1.0
 70
     8
 71
     3
 72
    15
 73
    11
 74
     0
 42
0.00000001
 43
0.00000001
 40
0.0
 40
0.0
 40
0.0
 40
0.0
 40
0.0081667445812973
 40
0.3321939991490804
 40
0.475627960058556
 40
0.6866830973284891
 40
0.8457435502264751
 40
0.8967566214763124
 40
0.9909540928118028
 40
1.0
 40
1.0
 40
1.0
 40
1.0
 10
182.0107210097763
 20
105.9916995489003
 30
0.0
 10
182.0102334756334
 20
105.9916968725545
 30
0.0
 10
181.9904023281022
 20
105.9915880083677
 30
0.0
 10
181.9621215480919
 20
105.9820419960983
 30
0.0
 10
181.9242922496033
 20
105.9446796128437
 30
0.0
 10
181.8977083530358
 20
105.899814098109
 30
0.0
 10
181.8805385292808
 20
105.8419377985322
 30
0.0
 10
181.8727215330643
 20
105.7912617585602
 30
0.0
 10
181.8707258466284
 20
105.7625674790402
 30
0.0
 10
181.8706608826777
 20
105.7433806474847
 30
0.0
 10
181.870655190711
 20
105.7416995489003
 30
0.0
  0
LINE
  5
D9
330
1F
100
AcDbEntity
  8
0
  6
Continuous
 62
     7
370
    25
100
AcDbLine
 10
182.0107210098
 20
105.9916995489
 30
0.0
 11
192.208760037
 21
105.9916995489
 31
0.0
  0
SPLINE
  5
DA
330
1F
100
AcDbEntity
  8
0
  6
Continuous
 62
     7
370
    25
100
AcDbSpline
210
0.0
220
0.0
230
1.0
 70
     8
 71
     3
 72
    15
 73
    11
 74
     0
 42
0.00000001
 43
0.00000001
 40
0.0
 40
0.0
 40
0.0
 40
0.0
 40
0.0080847466189582
 40
0.3310106400648243
 40
0.4750333064304948
 40
0.6874363079215142
 40
0.8468367539418303
 40
0.9000996640391847
 40
0.9910442771984082
 40
1.0
 40
1.0
 40
1.0
 40
1.0
 10
192.2087600369619
 20
105.9916995489003
 30
0.0
 10
192.210039868506
 20
105.9916968724906
 30
0.0
 10
192.2624395142292
 20
105.9915872932889
 30
0.0
 10
192.3377946056843
 20
105.9819081384512
 30
0.0
 10
192.439713717702
 20
105.9446263149895
 30
0.0
 10
192.512104662694
 20
105.8999184418061
 30
0.0
 10
192.5598100909587
 20
105.8417827916735
 30
0.0
 10
192.5813455746661
 20
105.7908957182051
 30
0.0
 10
192.5867745906856
 20
105.7621334890976
 30
0.0
 10
192.5869503428422
 20
105.7433806744732
 30
0.0
 10
192.5869660984208
 20
105.7416995489003
 30
0.0
  0
LINE
  5
DB
330
1F
100
AcDbEntity
  8
0
  6
Continuous
 62
     7
370
    25
100
AcDbLine
 10
192.348825856
 20
105.7416995489
 30
0.0
 11
192.5869660984
 21
105.7416995489
 31
0.0
  0
SPLINE
  5
DC
330
1F
100
AcDbEntity
  8
0
  6
Continuous
 62
     7
370
    25
100
AcDbSpline
210
0.0
220
0.0
230
1.0
 70
     8
 71
     3
 72
    15
 73
    11
 74
     0
 42
0.00000001
 43
0.00000001
 40
0.0
 40
0.0
 40
0.0
 40
0.0
 40
0.0089557228015919
 40
0.0999003359608209
 40
0.1531632460581751
 40
0.3125636920784904
 40
0.5249666935695061
 40
0.6689893599351777
 40
0.991915253381045
 40
1.0
 40
1.0
 40
1.0
 40
1.0
 10
181.6325149483174
 20
105.7416995489003
 30
0.0
 10
181.632530703896
 20
105.7433806744732
 30
0.0
 10
181.6327064560526
 20
105.7621334890976
 30
0.0
 10
181.6381354720722
 20
105.7908957182051
 30
0.0
 10
181.6596709557795
 20
105.8417827916735
 30
0.0
 10
181.7073763840443
 20
105.8999184418061
 30
0.0
 10
181.7797673290362
 20
105.9446263149895
 30
0.0
 10
181.8816864410539
 20
105.9819081384513
 30
0.0
 10
181.9570415325089
 20
105.9915872932889
 30
0.0
 10
182.0094411782322
 20
105.9916968724906
 30
0.0
 10
182.0107210097763
 20
105.9916995489003
 30
0.0
  0
LINE
  5
DD
330
1F
100
AcDbEntity
  8
0
  6
Continuous
 62
     7
370
    25
100
AcDbLine
 10
181.6325149483
 20
105.7416995489
 30
0.0
 11
181.8706551907
 21
105.7416995489
 31
0.0
  0
LINE
  5
DE
330
1F
100
AcDbEntity
  8
0
  6
Continuous
 62
     7
370
    25
100
AcDbLine
 10
192.5869660984
 20
105.7416995489
 30
0.0
 11
192.5869660984
 21
105.1416995489
 31
0.0
  0
LINE
  5
DF
330
1F
100
AcDbEntity
  8
0
  6
Continuous
 62
     7
370
    25
100
AcDbLine
 10
192.5869660984
 20
105.1416995489
 30
0.0
 11
192.348825856
 21
105.1416995489
 31
0.0
  0
LINE
  5
E0
330
1F
100
AcDbEntity
  8
0
  6
Continuous
 62
     7
370
    25
100
AcDbLine
 10
181.6325149483
 20
105.1416995489
 30
0.0
 11
181.6325149483
 21
105.7416995489
 31
0.0
  0
LINE
  5
E1
330
1F
100
AcDbEntity
  8
0
  6
Continuous
 62
     7
370
    25
100
AcDbLine
 10
181.8706551907
 20
105.1416995489
 30
0.0
 11
181.6325149483
 21
105.1416995489
 31
0.0
  0
LINE
  5
E2
330
1F
100
AcDbEntity
  8
0
  6
Continuous
 62
     7
370
    25
100
AcDbLine
 10
192.8597405234
 20
105.1416995489
 30
0.0
 11
192.8597405234
 21
105.7416995489
 31
0.0
  0
LINE
  5
E3
330
1F
100
AcDbEntity
  8
0
  6
Continuous
 62
     7
370
    25
100
AcDbLine
 10
192.8597405234
 20
105.7416995489
 30
0.0
 11
193.1097405234
 21
105.7416995489
 31
0.0
  0
LINE
  5
E4
330
1F
100
AcDbEntity
  8
0
  6
Continuous
 62
     7
370
    25
100
AcDbLine
 10
193.1097405234
 20
105.7416995489
 30
0.0
 11
193.1097405234
 21
105.1416995489
 31
0.0
  0
LINE
  5
E5
330
1F
100
AcDbEntity
  8
0
  6
Continuous
 62
     7
370
    25
100
AcDbLine
 10
193.1097405234
 20
105.1416995489
 30
0.0
 11
192.8597405234
 21
105.1416995489
 31
0.0
  0
LINE
  5
E6
330
1F
100
AcDbEntity
  8
0
  6
Continuous
 62
     7
370
    25
100
AcDbLine
 10
192.8597405234
 20
105.7416995489
 30
0.0
 11
192.8597405234
 21
105.9916995489
 31
0.0
  0
ARC
  5
E7
330
1F
100
AcDbEntity
  8
0
  6
Continuous
 62
     7
370
    25
100
AcDbCircle
 10
192.8597405234
 20
105.7416995489
 30
0.0
 40
0.25
100
AcDbArc
 50
0.0
 51
90.0
  0
LINE
  5
E8
330
1F
100
AcDbEntity
  8
0
  6
Continuous
 62
     7
370
    25
100
AcDbLine
 10
181.1097405234
 20
105.1416995489
 30
0.0
 11
181.1097405234
 21
105.7416995489
 31
0.0
  0
LINE
  5
E9
330
1F
100
AcDbEntity
  8
0
  6
Continuous
 62
     7
370
    25
100
AcDbLine
 10
181.1097405234
 20
105.7416995489
 30
0.0
 11
181.3597405234
 21
105.7416995489
 31
0.0
  0
LINE
  5
EA
330
1F
100
AcDbEntity
  8
0
  6
Continuous
 62
     7
370
    25
100
AcDbLine
 10
181.3597405234
 20
105.7416995489
 30
0.0
 11
181.3597405234
 21
105.1416995489
 31
0.0
  0
LINE
  5
EB
330
1F
100
AcDbEntity
  8
0
  6
Continuous
 62
     7
370
    25
100
AcDbLine
 10
181.3597405234
 20
105.1416995489
 30
0.0
 11
181.1097405234
 21
105.1416995489
 31
0.0
  0
LINE
  5
EC
330
1F
100
AcDbEntity
  8
0
  6
Continuous
 62
     7
370
    25
100
AcDbLine
 10
181.6325149483
 20
105.7416995489
 30
0.0
 11
181.3597405234
 21
105.7416995489
 31
0.0
  0
LINE
  5
ED
330
1F
100
AcDbEntity
  8
0
  6
Continuous
 62
     7
370
    25
100
AcDbLine
 10
181.3597405234
 20
105.9916995489
 30
0.0
 11
181.3597405234
 21
105.7416995489
 31
0.0
  0
LINE
  5
EE
330
1F
100
AcDbEntity
  8
0
  6
Continuous
 62
     7
370
    25
100
AcDbLine
 10
181.3597405234
 20
105.9916995489
 30
0.0
 11
182.0107210098
 21
105.9916995489
 31
0.0
  0
LINE
  5
EF
330
1F
100
AcDbEntity
  8
0
  6
Continuous
 62
     7
370
    25
100
AcDbLine
 10
192.8597405234
 20
105.7416995489
 30
0.0
 11
192.5869660984
 21
105.7416995489
 31
0.0
  0
LINE
  5
F0
330
1F
100
AcDbEntity
  8
0
  6
Continuous
 62
     7
370
    25
100
AcDbLine
 10
192.5869660984
 20
105.1416995489
 30
0.0
 11
192.8597405234
 21
105.1416995489
 31
0.0
  0
LINE
  5
F1
330
1F
100
AcDbEntity
  8
0
  6
Continuous
 62
     7
370
    25
100
AcDbLine
 10
181.3597405234
 20
105.1416995489
 30
0.0
 11
181.6325149483
 21
105.1416995489
 31
0.0
  0
LINE
  5
F2
330
1F
100
AcDbEntity
  8
0
  6
Continuous
 62
     7
370
    25
100
AcDbLine
 10
192.208760037
 20
105.9916995489
 30
0.0
 11
192.8597405234
 21
105.9916995489
 31
0.0
  0
ARC
  5
F3
330
1F
100
AcDbEntity
  8
0
  6
Continuous
 62
     7
370
    25
100
AcDbCircle
 10
181.3597405234
 20
105.7416995489
 30
0.0
 40
0.25
100
AcDbArc
 50
90.0
 51
180.0
  0
LINE
  5
F4
330
1F
100
AcDbEntity
  8
0
  6
Continuous
 62
     7
370
    25
100
AcDbLine
 10
182.1097405234
 20
105.9916995489
 30
0.0
 11
182.1097405234
 21
106.0016995489
 31
0.0
  0
LINE
  5
F5
330
1F
100
AcDbEntity
  8
0
  6
Continuous
 62
     7
370
    25
100
AcDbLine
 10
192.1097405234
 20
105.9916995489
 30
0.0
 11
192.1097405234
 21
106.0016995489
 31
0.0
  0
LINE
  5
F6
330
1F
100
AcDbEntity
  8
0
  6
Continuous
 62
     7
370
    25
100
AcDbLine
 10
182.1097405234
 20
106.0016995489
 30
0.0
 11
192.1097405234
 21
106.0016995489
 31
0.0
  0
LINE
  5
F7
330
1F
100
AcDbEntity
  8
0
  6
Continuous
 62
     7
370
    25
100
AcDbLine
 10
185.1097405234
 20
89.1416995489
 30
0.0
 11
194.1097405234
 21
89.1416995489
 31
0.0
  0
LINE
  5
F8
330
1F
100
AcDbEntity
  8
0
  6
Continuous
 62
     7
370
    25
100
AcDbLine
 10
185.1097405234
 20
89.1795164727
 30
0.0
 11
185.1097405234
 21
89.1416995489
 31
0.0
  0
SPLINE
  5
F9
330
1F
100
AcDbEntity
  8
0
  6
Continuous
 62
     7
370
    25
100
AcDbSpline
210
0.0
220
0.0
230
1.0
 70
     8
 71
     3
 72
     9
 73
     5
 74
     0
 42
0.00000001
 43
0.00000001
 40
0.0
 40
0.0
 40
0.0
 40
0.0
 40
0.4875141023677128
 40
0.9999999999999999
 40
0.9999999999999999
 40
0.9999999999999999
 40
0.9999999999999999
 10
184.9537952729419
 20
89.14169954890036
 30
0.0
 10
184.9801018468645
 20
89.14342689487206
 30
0.0
 10
185.0340624888127
 20
89.14697006616353
 30
0.0
 10
185.0840980195075
 20
89.16848855211285
 30
0.0
 10
185.1097405233691
 20
89.17951647270029
 30
0.0
  0
SPLINE
  5
FA
330
1F
100
AcDbEntity
  8
0
  6
Continuous
 62
     7
370
    25
100
AcDbSpline
210
0.0
220
0.0
230
1.0
 70
     8
 71
     3
 72
    17
 73
    13
 74
     0
 42
0.00000001
 43
0.00000001
 40
0.0
 40
0.0
 40
0.0
 40
0.0
 40
0.3241697628029873
 40
0.5422758463620719
 40
0.689509052693928
 40
0.7894036290694505
 40
0.8577090008137825
 40
0.9049823971474137
 40
0.9551712229700868
 40
0.9753097783197817
 40
0.9919572060138848
 40
1.0
 40
1.0
 40
1.0
 40
1.0
 10
182.6351936392869
 20
97.14169954889792
 30
0.0
 10
182.7779089993041
 20
96.22908604629225
 30
0.0
 10
183.0166453082461
 20
94.70245304003092
 30
0.0
 10
183.3962325026977
 20
92.77568013774993
 30
0.0
 10
183.7053667110448
 20
91.48804466681717
 30
0.0
 10
183.9614802392449
 20
90.62889270009543
 30
0.0
 10
184.1757912421399
 20
90.05542481171803
 30
0.0
 10
184.3790254631678
 20
89.63389265768807
 30
0.0
 10
184.5635707277104
 20
89.35340011489264
 30
0.0
 10
184.7496418140786
 20
89.19785144631197
 30
0.0
 10
184.8648524133345
 20
89.14724084711446
 30
0.0
 10
184.9319412188074
 20
89.14306109530982
 30
0.0
 10
184.9537952729419
 20
89.14169954890036
 30
0.0
  0
LINE
  5
FB
330
1F
100
AcDbEntity
  8
0
  6
Continuous
 62
     7
370
    25
100
AcDbLine
 10
182.6351936393
 20
97.1416995489
 30
0.0
 11
194.5597405234
 21
97.1416995489
 31
0.0
  0
LINE
  5
FC
330
1F
100
AcDbEntity
  8
0
  6
Continuous
 62
     7
370
    25
100
AcDbLine
 10
183.395404395
 20
98.1364431269
 30
0.0
 11
182.6351936393
 21
97.1416995489
 31
0.0
  0
LINE
  5
FD
330
1F
100
AcDbEntity
  8
0
  6
Continuous
 62
     7
370
    25
100
AcDbLine
 10
181.885938349
 20
105.1416995489
 30
0.0
 11
180.157799685
 21
98.1364431269
 31
0.0
  0
LINE
  5
FE
330
1F
100
AcDbEntity
  8
0
  6
Continuous
 62
     7
370
    25
100
AcDbLine
 10
192.348825856
 20
105.1416995489
 30
0.0
 11
181.885938349
 21
105.1416995489
 31
0.0
  0
SPLINE
  5
FF
330
1F
100
AcDbEntity
  8
0
  6
Continuous
 62
     7
370
    25
100
AcDbSpline
210
0.0
220
0.0
230
1.0
 70
     8
 71
     3
 72
    14
 73
    10
 74
     0
 42
0.00000001
 43
0.00000001
 40
0.0
 40
0.0
 40
0.0
 40
0.0
 40
0.1576095309202822
 40
0.3152382602707094
 40
0.4726926441579498
 40
0.6301650083177254
 40
0.7907313191165901
 40
0.9513050385928076
 40
1.0
 40
1.0
 40
1.0
 40
1.0
 10
180.6097405233691
 20
89.14169954890029
 30
0.0
 10
180.5431695085871
 20
89.3552013373777
 30
0.0
 10
180.4100193700021
 20
89.7822309210032
 30
0.0
 10
180.0814524082514
 20
90.36747799985952
 30
0.0
 10
179.6680627675194
 20
90.88963254068194
 30
0.0
 10
179.1723878485748
 20
91.33861066810181
 30
0.0
 10
178.6060981432903
 20
91.6978923999082
 30
0.0
 10
178.1298474868973
 20
91.90245857900938
 30
0.0
 10
177.8496529187045
 20
91.98325312736068
 30
0.0
 10
177.7844541339315
 20
92.00205330040745
 30
0.0
  0
LINE
  5
100
330
1F
100
AcDbEntity
  8
0
  6
Continuous
 62
     7
370
    25
100
AcDbLine
 10
177.7844541339
 20
92.0020533004
 30
0.0
 11
172.0046972841
 21
93.5706747409
 31
0.0
  0
SPLINE
  5
101
330
1F
100
AcDbEntity
  8
0
  6
Continuous
 62
     7
370
    25
100
AcDbSpline
210
0.0
220
0.0
230
1.0
 70
     8
 71
     3
 72
     9
 73
     5
 74
     0
 42
0.00000001
 43
0.00000001
 40
0.0
 40
0.0
 40
0.0
 40
0.0
 40
0.4976931370791441
 40
0.9999999999999999
 40
0.9999999999999999
 40
0.9999999999999999
 40
0.9999999999999999
 10
164.9343036618324
 20
94.89387524187585
 30
0.0
 10
166.1229406256137
 20
94.7444283608754
 30
0.0
 10
168.5112334816436
 20
94.4441491931185
 30
0.0
 10
170.8366330978315
 20
93.86272706573108
 30
0.0
 10
172.0046972840762
 20
93.57067474089033
 30
0.0
  0
LINE
  5
102
330
1F
100
AcDbEntity
  8
0
  6
Continuous
 62
     7
370
    25
100
AcDbLine
 10
164.9343036618
 20
94.8938752419
 30
0.0
 11
164.9343036618
 21
98.1364431269
 31
0.0
  0
LINE
  5
103
330
1F
100
AcDbEntity
  8
0
  6
Continuous
 62
     7
370
    25
100
AcDbLine
 10
164.9343036618
 20
98.1364431269
 30
0.0
 11
183.395404395
 21
98.1364431269
 31
0.0
  0
LINE
  5
104
330
1F
100
AcDbEntity
  8
0
  6
Continuous
 62
     7
370
    25
100
AcDbLine
 10
184.9537952729
 20
89.1416995489
 30
0.0
 11
180.6097405234
 21
89.1416995489
 31
0.0
  0
LINE
  5
105
330
1F
100
AcDbEntity
  8
0
  6
Continuous
 62
     7
370
    25
100
AcDbLine
 10
185.1097405234
 20
89.1795164727
 30
0.0
 11
185.1029411655
 21
89.1416995489
 31
0.0
  0
LINE
  5
106
330
1F
100
AcDbEntity
  8
0
  6
Continuous
 62
     7
370
    25
100
AcDbLine
 10
185.1097405234
 20
89.1416995489
 30
0.0
 11
185.1029411655
 21
89.1416995489
 31
0.0
  0
LINE
  5
107
330
1F
100
AcDbEntity
  8
0
  6
Continuous
 62
     7
370
    25
100
AcDbLine
 10
185.1029411655
 20
89.1416995489
 30
0.0
 11
184.9537952729
 21
89.1416995489
 31
0.0
  0
LINE
  5
108
330
1F
100
AcDbEntity
  8
0
  6
Continuous
 62
     7
370
    25
100
AcDbLine
 10
147.1097405234
 20
107.1416995489
 30
0.0
 11
164.9343036618
 21
107.1416995489
 31
0.0
  0
LINE
  5
109
330
1F
100
AcDbEntity
  8
0
  6
Continuous
 62
     7
370
    25
100
AcDbLine
 10
164.9343036618
 20
107.1416995489
 30
0.0
 11
164.9343036618
 21
98.1364431269
 31
0.0
  0
LINE
  5
10A
330
1F
100
AcDbEntity
  8
0
  6
Continuous
 62
     7
370
    25
100
AcDbLine
 10
160.2180726656
 20
95.1416995489
 30
0.0
 11
152.1097405234
 21
95.1416995489
 31
0.0
  0
ARC
  5
10B
330
1F
100
AcDbEntity
  8
0
  6
Continuous
 62
     7
370
    25
100
AcDbCircle
 10
152.1097405234
 20
100.1416995489
 30
0.0
 40
5.0
100
AcDbArc
 50
180.0
 51
270.0
  0
LINE
  5
10C
330
1F
100
AcDbEntity
  8
0
  6
Continuous
 62
     7
370
    25
100
AcDbLine
 10
147.1097405234
 20
100.1416995489
 30
0.0
 11
147.1097405234
 21
107.1416995489
 31
0.0
  0
ARC
  5
10D
330
1F
100
AcDbEntity
  8
0
  6
Continuous
 62
     7
370
    25
100
AcDbCircle
 10
160.2180726656
 20
50.1415702947
 30
0.0
 40
45.00012925418374
100
AcDbArc
 50
83.9840777705
 51
90.0
  0
LINE
  5
10E
330
1F
100
AcDbEntity
  8
0
  6
Continuous
 62
     7
370
    25
100
AcDbLine
 10
164.9343036618
 20
107.1416995489
 30
0.0
 11
167.1097405234
 21
107.1416995489
 31
0.0
  0
LINE
  5
10F
330
1F
100
AcDbEntity
  8
0
  6
Continuous
 62
     7
370
    25
100
AcDbLine
 10
167.1097405234
 20
107.1416995489
 30
0.0
 11
167.1097405234
 21
105.1606550723
 31
0.0
  0
ARC
  5
110
330
1F
100
AcDbEntity
  8
0
  6
Continuous
 62
     7
370
    25
100
AcDbCircle
 10
173.1097405234
 20
105.1606550723
 30
0.0
 40
6.000000000000003
100
AcDbArc
 50
180.0
 51
275.5801667845
  0
ARC
  5
111
330
1F
100
AcDbEntity
  8
0
  6
Continuous
 62
     7
370
    25
100
AcDbCircle
 10
172.7207869591
 20
109.1416995489
 30
0.0
 40
10.00000000000847
100
AcDbArc
 50
275.5801667845
 51
336.4218215217
  0
LINE
  5
112
330
1F
100
AcDbEntity
  8
0
  6
Continuous
 62
     7
370
    25
100
AcDbLine
 10
180.6097405234
 20
89.1416995489
 30
0.0
 11
180.1097405234
 21
89.1416995489
 31
0.0
  0
LINE
  5
113
330
1F
100
AcDbEntity
  8
0
  6
Continuous
 62
     7
370
    25
100
AcDbLine
 10
172.8097405234
 20
87.1416995489
 30
0.0
 11
172.8097405234
 21
70.1416995489
 31
0.0
  0
LINE
  5
114
330
1F
100
AcDbEntity
  8
0
  6
Continuous
 62
     7
370
    25
100
AcDbLine
 10
172.6097405234
 20
70.3416995489
 30
0.0
 11
172.6097405234
 21
86.9416995489
 31
0.0
  0
LINE
  5
115
330
1F
100
AcDbEntity
  8
0
  6
Continuous
 62
     7
370
    25
100
AcDbLine
 10
175.6097405234
 20
87.1416995489
 30
0.0
 11
175.6097405234
 21
70.1416995489
 31
0.0
  0
SPLINE
  5
116
330
1F
100
AcDbEntity
  8
0
  6
Continuous
 62
     7
370
    25
100
AcDbSpline
210
0.0
220
0.0
230
1.0
 70
     8
 71
     3
 72
    10
 73
     6
 74
     0
 42
0.00000001
 43
0.00000001
 40
0.0
 40
0.0
 40
0.0
 40
0.0
 40
0.5000000000000001
 40
0.5000000000000001
 40
1.0
 40
1.0
 40
1.0
 40
1.0
 10
182.4909383698521
 20
67.31942095416046
 30
0.0
 10
183.2416170693479
 20
67.11249090062776
 30
0.0
 10
184.0058980135706
 20
66.94068529025405
 30
0.0
 10
185.5604727476581
 20
66.70373478372268
 30
0.0
 10
186.3360477151742
 20
66.6416995489003
 30
0.0
 10
187.1097405233691
 20
66.6416995489003
 30
0.0
  0
LINE
  5
117
330
1F
100
AcDbEntity
  8
0
  6
Continuous
 62
     7
370
    25
100
AcDbLine
 10
182.4909383699
 20
70.675303009
 30
0.0
 11
182.4909383699
 21
67.3194209542
 31
0.0
  0
SPLINE
  5
118
330
1F
100
AcDbEntity
  8
0
  6
Continuous
 62
     7
370
    25
100
AcDbSpline
210
0.0
220
0.0
230
1.0
 70
     8
 71
     3
 72
     8
 73
     4
 74
     0
 42
0.00000001
 43
0.00000001
 40
0.0
 40
0.0
 40
0.0
 40
0.0
 40
1.0
 40
1.0
 40
1.0
 40
1.0
 10
182.4909383698521
 20
70.67530300904531
 30
0.0
 10
182.6961241923954
 20
70.7318639761695
 30
0.0
 10
182.9023473931027
 20
70.78580404758335
 30
0.0
 10
183.1097405233691
 20
70.83678833732631
 30
0.0
  0
LINE
  5
119
330
1F
100
AcDbEntity
  8
0
  6
Continuous
 62
     7
370
    25
100
AcDbLine
 10
183.1097405234
 20
70.8367883373
 30
0.0
 11
183.1097405234
 21
74.6416995489
 31
0.0
  0
SPLINE
  5
11A
330
1F
100
AcDbEntity
  8
0
  6
Continuous
 62
     7
370
    25
100
AcDbSpline
210
0.0
220
0.0
230
1.0
 70
     8
 71
     3
 72
     8
 73
     4
 74
     0
 42
0.00000001
 43
0.00000001
 40
0.0
 40
0.0
 40
0.0
 40
0.0
 40
1.0
 40
1.0
 40
1.0
 40
1.0
 10
180.4320191181089
 20
74.02289739538325
 30
0.0
 10
180.4885824875772
 20
74.22809193289302
 30
0.0
 10
180.5425224103984
 20
74.43431558641018
 30
0.0
 10
180.5935044463899
 20
74.64169954890029
 30
0.0
  0
LINE
  5
11B
330
1F
100
AcDbEntity
  8
0
  6
Continuous
 62
     7
370
    25
100
AcDbLine
 10
176.2874619286
 20
74.0228973954
 30
0.0
 11
180.4320191181
 21
74.0228973954
 31
0.0
  0
SPLINE
  5
11C
330
1F
100
AcDbEntity
  8
0
  6
Continuous
 62
     7
370
    25
100
AcDbSpline
210
0.0
220
0.0
230
1.0
 70
     8
 71
     3
 72
    10
 73
     6
 74
     0
 42
0.00000001
 43
0.00000001
 40
0.0
 40
0.0
 40
0.0
 40
0.0
 40
0.5
 40
0.5
 40
1.0
 40
1.0
 40
1.0
 40
1.0
 10
176.2874619286293
 20
74.02289739538328
 30
0.0
 10
176.0793932523981
 20
74.77770666843257
 30
0.0
 10
175.9089942463735
 20
75.53845305566448
 30
0.0
 10
175.6738342666747
 20
77.07659543328774
 30
0.0
 10
175.6097405233691
 20
77.85409658581256
 30
0.0
 10
175.6097405233691
 20
78.64169954890029
 30
0.0
  0
SPLINE
  5
11D
330
1F
100
AcDbEntity
  8
0
  6
Continuous
 62
     7
370
    25
100
AcDbSpline
210
0.0
220
0.0
230
1.0
 70
     8
 71
     3
 72
    12
 73
     8
 74
     0
 42
0.00000001
 43
0.00000001
 40
0.0
 40
0.0
 40
0.0
 40
0.0
 40
0.2500000000000001
 40
0.2500000000000001
 40
0.5000000000000001
 40
0.5000000000000001
 40
1.0
 40
1.0
 40
1.0
 40
1.0
 10
175.6097405233691
 20
78.64169954890029
 30
0.0
 10
175.6097405233691
 20
79.03601762957213
 30
0.0
 10
175.6257393283502
 20
79.42967667352258
 30
0.0
 10
175.6875094666646
 20
80.20921267306791
 30
0.0
 10
175.7332515909661
 20
80.59616586119334
 30
0.0
 10
175.909921738313
 20
81.74955242404734
 30
0.0
 10
176.0801768037933
 20
82.50853491325238
 30
0.0
 10
176.2874619286293
 20
83.2605017024173
 30
0.0
  0
LINE
  5
11E
330
1F
100
AcDbEntity
  8
0
  6
Continuous
 62
     7
370
    25
100
AcDbLine
 10
180.4320191181
 20
83.2605017024
 30
0.0
 11
176.2874619286
 21
83.2605017024
 31
0.0
  0
SPLINE
  5
11F
330
1F
100
AcDbEntity
  8
0
  6
Continuous
 62
     7
370
    25
100
AcDbSpline
210
0.0
220
0.0
230
1.0
 70
     8
 71
     3
 72
     8
 73
     4
 74
     0
 42
0.00000001
 43
0.00000001
 40
0.0
 40
0.0
 40
0.0
 40
0.0
 40
1.0
 40
1.0
 40
1.0
 40
1.0
 10
180.5935044463899
 20
82.6416995489003
 30
0.0
 10
180.5426057294674
 20
82.84874458732928
 30
0.0
 10
180.4886715932166
 20
83.05498391700593
 30
0.0
 10
180.4320191181089
 20
83.2605017024173
 30
0.0
  0
SPLINE
  5
120
330
1F
100
AcDbEntity
  8
0
  6
Continuous
 62
     7
370
    25
100
AcDbSpline
210
0.0
220
0.0
230
1.0
 70
     8
 71
     3
 72
     8
 73
     4
 74
     0
 42
0.00000001
 43
0.00000001
 40
0.0
 40
0.0
 40
0.0
 40
0.0
 40
1.0
 40
1.0
 40
1.0
 40
1.0
 10
193.6259766003483
 20
82.64169954890036
 30
0.0
 10
193.6768728336033
 20
82.84873448430412
 30
0.0
 10
193.730806788567
 20
83.05497424936911
 30
0.0
 10
193.7874619286293
 20
83.2605017024173
 30
0.0
  0
LINE
  5
121
330
1F
100
AcDbEntity
  8
0
  6
Continuous
 62
     7
370
    25
100
AcDbLine
 10
198.2876815508
 20
83.2605017024
 30
0.0
 11
193.7874619286
 21
83.2605017024
 31
0.0
  0
SPLINE
  5
122
330
1F
100
AcDbEntity
  8
0
  6
Continuous
 62
     7
370
    25
100
AcDbSpline
210
0.0
220
0.0
230
1.0
 70
     8
 71
     3
 72
    14
 73
    10
 74
     0
 42
0.00000001
 43
0.00000001
 40
0.0
 40
0.0
 40
0.0
 40
0.0
 40
0.25
 40
0.25
 40
0.5
 40
0.5
 40
0.75
 40
0.75
 40
1.0
 40
1.0
 40
1.0
 40
1.0
 10
198.2876815508115
 20
74.02289739538324
 30
0.0
 10
198.4956319115173
 20
74.77727745603323
 30
0.0
 10
198.6678537202062
 20
75.54671862349872
 30
0.0
 10
198.902488842957
 20
77.08722998443989
 30
0.0
 10
198.9654329015847
 20
77.8620843644469
 30
0.0
 10
198.9653729888533
 20
79.42244531933245
 30
0.0
 10
198.9007583225612
 20
80.2129015121175
 30
0.0
 10
198.6641989831599
 20
81.75518117492597
 30
0.0
 10
198.4938538430805
 20
82.51257192812714
 30
0.0
 10
198.2876815508115
 20
83.2605017024173
 30
0.0
  0
LINE
  5
123
330
1F
100
AcDbEntity
  8
0
  6
Continuous
 62
     7
370
    25
100
AcDbLine
 10
193.7874619286
 20
74.0228973954
 30
0.0
 11
198.2876815508
 21
74.0228973954
 31
0.0
  0
SPLINE
  5
124
330
1F
100
AcDbEntity
  8
0
  6
Continuous
 62
     7
370
    25
100
AcDbSpline
210
0.0
220
0.0
230
1.0
 70
     8
 71
     3
 72
     8
 73
     4
 74
     0
 42
0.00000001
 43
0.00000001
 40
0.0
 40
0.0
 40
0.0
 40
0.0
 40
1.0
 40
1.0
 40
1.0
 40
1.0
 10
193.7874619286293
 20
74.02289739538325
 30
0.0
 10
193.7309000851923
 20
74.22808639692008
 30
0.0
 10
193.6769600679359
 20
74.43430976298478
 30
0.0
 10
193.6259766003483
 20
74.64169954890023
 30
0.0
  0
LINE
  5
125
330
1F
100
AcDbEntity
  8
0
  6
Continuous
 62
     7
370
    25
100
AcDbLine
 10
193.6259766003
 20
74.6416995489
 30
0.0
 11
191.1097405234
 21
74.6416995489
 31
0.0
  0
LINE
  5
126
330
1F
100
AcDbEntity
  8
0
  6
Continuous
 62
     7
370
    25
100
AcDbLine
 10
191.1097405234
 20
70.8367883373
 30
0.0
 11
191.1097405234
 21
74.6416995489
 31
0.0
  0
SPLINE
  5
127
330
1F
100
AcDbEntity
  8
0
  6
Continuous
 62
     7
370
    25
100
AcDbSpline
210
0.0
220
0.0
230
1.0
 70
     8
 71
     3
 72
     8
 73
     4
 74
     0
 42
0.00000001
 43
0.00000001
 40
0.0
 40
0.0
 40
0.0
 40
0.0
 40
1.0
 40
1.0
 40
1.0
 40
1.0
 10
191.1097405233691
 20
70.83678833732631
 30
0.0
 10
191.3167695867045
 20
70.78589354762549
 30
0.0
 10
191.5230096039738
 20
70.73195969826405
 30
0.0
 10
191.7285426768861
 20
70.6753030090453
 30
0.0
  0
LINE
  5
128
330
1F
100
AcDbEntity
  8
0
  6
Continuous
 62
     7
370
    25
100
AcDbLine
 10
191.7285426769
 20
67.3194209542
 30
0.0
 11
191.7285426769
 21
70.675303009
 31
0.0
  0
SPLINE
  5
129
330
1F
100
AcDbEntity
  8
0
  6
Continuous
 62
     7
370
    25
100
AcDbSpline
210
0.0
220
0.0
230
1.0
 70
     8
 71
     3
 72
    10
 73
     6
 74
     0
 42
0.00000001
 43
0.00000001
 40
0.0
 40
0.0
 40
0.0
 40
0.0
 40
0.5
 40
0.5
 40
1.0
 40
1.0
 40
1.0
 40
1.0
 10
187.1097405233691
 20
66.6416995489003
 30
0.0
 10
187.8853204599761
 20
66.6416995489003
 30
0.0
 10
188.6590106787025
 20
66.7039839108788
 30
0.0
 10
190.2030452210354
 20
66.93883202888584
 30
0.0
 10
190.9763538971902
 20
67.11207463601704
 30
0.0
 10
191.7285426768861
 20
67.31942095416049
 30
0.0
  0
ARC
  5
12A
330
1F
100
AcDbEntity
  8
0
  6
Continuous
 62
     7
370
    25
100
AcDbCircle
 10
188.6604718791
 20
78.0647805556
 30
0.0
 40
0.889000000000007
100
AcDbArc
 50
45.0
 51
315.0
  0
LINE
  5
12B
330
1F
100
AcDbEntity
  8
0
  6
Continuous
 62
     7
370
    25
100
AcDbLine
 10
189.2890898076
 20
78.6933984841
 30
0.0
 11
189.7557001932
 21
79.1600088697
 31
0.0
  0
ARC
  5
12C
330
1F
100
AcDbEntity
  8
0
  6
Continuous
 62
     7
370
    25
100
AcDbCircle
 10
188.6604718791
 20
78.0647805556
 30
0.0
 40
1.548886735692404
100
AcDbArc
 50
45.0
 51
315.0
  0
LINE
  5
12D
330
1F
100
AcDbEntity
  8
0
  6
Continuous
 62
     7
370
    25
100
AcDbLine
 10
189.7557001932
 20
76.9695522415
 30
0.0
 11
189.2890898076
 21
77.4361626271
 31
0.0
  0
ARC
  5
12E
330
1F
100
AcDbEntity
  8
0
  6
Continuous
 62
     7
370
    25
100
AcDbCircle
 10
192.0026164754
 20
78.0647805556
 30
0.0
 40
0.8889999999999768
100
AcDbArc
 50
45.0
 51
159.0751675724
  0
LINE
  5
12F
330
1F
100
AcDbEntity
  8
0
  6
Continuous
 62
     7
370
    25
100
AcDbLine
 10
192.6312344039
 20
78.6933984841
 30
0.0
 11
193.0978447895
 21
79.1600088697
 31
0.0
  0
ARC
  5
130
330
1F
100
AcDbEntity
  8
0
  6
Continuous
 62
     7
370
    25
100
AcDbCircle
 10
192.0026164754
 20
78.0647805556
 30
0.0
 40
1.548886735692373
100
AcDbArc
 50
45.0
 51
315.0
  0
LINE
  5
131
330
1F
100
AcDbEntity
  8
0
  6
Continuous
 62
     7
370
    25
100
AcDbLine
 10
193.0978447895
 20
76.9695522415
 30
0.0
 11
192.6312344039
 21
77.4361626271
 31
0.0
  0
ARC
  5
132
330
1F
100
AcDbEntity
  8
0
  6
Continuous
 62
     7
370
    25
100
AcDbCircle
 10
192.0026164754
 20
78.0647805556
 30
0.0
 40
0.889000000000014
100
AcDbArc
 50
200.9248324276
 51
315.0
  0
LINE
  5
133
330
1F
100
AcDbEntity
  8
0
  6
Continuous
 62
     7
370
    25
100
AcDbLine
 10
191.1722462267
 20
77.7472805556
 30
0.0
 11
193.0978447895
 21
77.7472805556
 31
0.0
  0
LINE
  5
134
330
1F
100
AcDbEntity
  8
0
  6
Continuous
 62
     7
370
    25
100
AcDbLine
 10
193.0978447895
 20
77.7472805556
 30
0.0
 11
193.0978447895
 21
78.3822805556
 31
0.0
  0
LINE
  5
135
330
1F
100
AcDbEntity
  8
0
  6
Continuous
 62
     7
370
    25
100
AcDbLine
 10
193.0978447895
 20
78.3822805556
 30
0.0
 11
191.1722462267
 21
78.3822805556
 31
0.0
  0
LINE
  5
136
330
1F
100
AcDbEntity
  8
0
  6
Continuous
 62
     7
370
    25
100
AcDbLine
 10
186.2079816094
 20
77.2193265313
 30
0.0
 11
186.1663312901
 21
77.1955216015
 31
0.0
  0
ELLIPSE
  5
137
330
1F
100
AcDbEntity
  8
0
  6
Continuous
 62
     7
370
    25
100
AcDbEllipse
 10
185.8174881106
 20
77.7502040727
 30
0.0
 11
0.678412947925267
 21
6.110667527536863E-13
 31
0.0
210
0.0
220
0.0
230
1.0
 40
0.9533039403
 41
3.470145824140271
 42
5.252469180536299
  0
LINE
  5
138
330
1F
100
AcDbEntity
  8
0
  6
Continuous
 62
     7
370
    25
100
AcDbLine
 10
185.1753633436
 20
77.5415199577
 30
0.0
 11
183.9157091386
 21
81.0639643544
 31
0.0
  0
ELLIPSE
  5
139
330
1F
100
AcDbEntity
  8
0
  6
Continuous
 62
     7
370
    25
100
AcDbEllipse
 10
183.3247265807
 20
80.8016251183
 30
0.0
 11
0.6519124952381503
 21
5.968558980384842E-13
 31
0.0
210
0.0
220
0.0
230
1.0
 40
0.9533023292
 41
0.4357905044355181
 42
2.705800116361556
  0
LINE
  5
13A
330
1F
100
AcDbEntity
  8
0
  6
Continuous
 62
     7
370
    25
100
AcDbLine
 10
182.7337445822
 20
81.0639654996
 30
0.0
 11
181.4743797805
 21
77.5423420979
 31
0.0
  0
ELLIPSE
  5
13B
330
1F
100
AcDbEntity
  8
0
  6
Continuous
 62
     7
370
    25
100
AcDbEllipse
 10
180.8322585965
 20
77.7510249315
 30
0.0
 11
-0.6784085062757867
 21
3.126388037344441E-13
 31
0.0
210
0.0
220
0.0
230
1.0
 40
0.9533122623
 41
1.047193771187966
 42
2.813042320199909
  0
LINE
  5
13C
330
1F
100
AcDbEntity
  8
0
  6
Continuous
 62
     7
370
    25
100
AcDbLine
 10
180.4930521226
 20
77.1909370863
 30
0.0
 11
180.441471552
 21
77.2193265313
 31
0.0
  0
LINE
  5
13D
330
1F
100
AcDbEntity
  8
0
  6
Continuous
 62
     7
370
    25
100
AcDbLine
 10
180.441471552
 20
77.2193265313
 30
0.0
 11
181.2377402116
 21
75.7011544299
 31
0.0
  0
ELLIPSE
  5
13E
330
1F
100
AcDbEntity
  8
0
  6
Continuous
 62
     7
370
    25
100
AcDbEllipse
 10
181.313589085
 20
75.7373079448
 30
0.0
 11
0.08480161849067258
 21
-2.842170943040401E-14
 31
0.0
210
0.0
220
0.0
230
1.0
 40
0.9533039403
 41
3.605240262591132
 42
5.462183310215437
  0
ELLIPSE
  5
13F
330
1F
100
AcDbEntity
  8
0
  6
Continuous
 62
     7
370
    25
100
AcDbEllipse
 10
183.3247265807
 20
73.6784593243
 30
0.0
 11
2.866293551216188
 21
-1.506350599811412E-12
 31
0.0
210
0.0
220
0.0
230
1.0
 40
0.9533046568
 41
0.8210016221243864
 42
2.320591031466452
  0
ELLIPSE
  5
140
330
1F
100
AcDbEntity
  8
0
  6
Continuous
 62
     7
370
    25
100
AcDbEllipse
 10
185.3358640764
 20
75.7373079448
 30
0.0
 11
0.08480161849061574
 21
0.0
 31
0.0
210
0.0
220
0.0
230
1.0
 40
0.9533039403
 41
3.962594650556404
 42
5.819537698177405
  0
LINE
  5
141
330
1F
100
AcDbEntity
  8
0
  6
Continuous
 62
     7
370
    25
100
AcDbLine
 10
185.4117129499
 20
75.7011544299
 30
0.0
 11
186.2079816094
 21
77.2193265313
 31
0.0
  0
LINE
  5
142
330
1F
100
AcDbEntity
  8
0
  6
Continuous
 62
     7
370
    25
100
AcDbLine
 10
183.1097405234
 20
74.6416995489
 30
0.0
 11
180.5935044464
 21
74.6416995489
 31
0.0
  0
LINE
  5
143
330
1F
100
AcDbEntity
  8
0
  6
Continuous
 62
     7
370
    25
100
AcDbLine
 10
193.6259766003
 20
82.6416995489
 30
0.0
 11
180.5935044464
 21
82.6416995489
 31
0.0
  0
LINE
  5
144
330
1F
100
AcDbEntity
  8
0
  6
Continuous
 62
     7
370
    25
100
AcDbLine
 10
181.1097405234
 20
86.0029154811
 30
0.0
 11
181.1097405234
 21
82.6416995489
 31
0.0
  0
SPLINE
  5
145
330
1F
100
AcDbEntity
  8
0
  6
Continuous
 62
     7
370
    25
100
AcDbSpline
210
0.0
220
0.0
230
1.0
 70
     8
 71
     3
 72
    10
 73
     6
 74
     0
 42
0.00000001
 43
0.00000001
 40
0.0
 40
0.0
 40
0.0
 40
0.0
 40
0.5
 40
0.5
 40
1.0
 40
1.0
 40
1.0
 40
1.0
 10
180.4320191181089
 20
83.69351440430952
 30
0.0
 10
180.4083437236845
 20
83.6505708734083
 30
0.0
 10
180.3952526137999
 20
83.58712842878417
 30
0.0
 10
180.3951662925116
 20
83.4346495916652
 30
0.0
 10
180.4083352264554
 20
83.34641958955794
 30
0.0
 10
180.4320191181089
 20
83.2605017024173
 30
0.0
  0
SPLINE
  5
146
330
1F
100
AcDbEntity
  8
0
  6
Continuous
 62
     7
370
    25
100
AcDbSpline
210
0.0
220
0.0
230
1.0
 70
     8
 71
     3
 72
    12
 73
     8
 74
     0
 42
0.00000001
 43
0.00000001
 40
0.0
 40
0.0
 40
0.0
 40
0.0
 40
0.2500000000000001
 40
0.2500000000000001
 40
0.5000000000000002
 40
0.5000000000000002
 40
1.0
 40
1.0
 40
1.0
 40
1.0
 10
181.1097405233691
 20
86.00291548106803
 30
0.0
 10
181.1097405233691
 20
85.80717321818851
 30
0.0
 10
181.0938975872801
 20
85.61050660899795
 30
0.0
 10
181.0323947270425
 20
85.22123838166968
 30
0.0
 10
180.9867910859988
 20
85.02783434871675
 30
0.0
 10
180.8103400685096
 20
84.45090529746
 30
0.0
 10
180.6399427012577
 20
84.07065586425698
 30
0.0
 10
180.4320191181089
 20
83.69351440430952
 30
0.0
  0
SPLINE
  5
147
330
1F
100
AcDbEntity
  8
0
  6
Continuous
 62
     7
370
    25
100
AcDbSpline
210
0.0
220
0.0
230
1.0
 70
     8
 71
     3
 72
    10
 73
     6
 74
     0
 42
0.00000001
 43
0.00000001
 40
0.0
 40
0.0
 40
0.0
 40
0.0
 40
0.5
 40
0.5
 40
1.0
 40
1.0
 40
1.0
 40
1.0
 10
198.2876815508114
 20
74.02289739538328
 30
0.0
 10
198.264006156387
 20
73.93701033358083
 30
0.0
 10
198.2509150465025
 20
73.84960312460069
 30
0.0
 10
198.2508287252142
 20
73.69696668200697
 30
0.0
 10
198.263997659158
 20
73.63284363706138
 30
0.0
 10
198.2876815508115
 20
73.58988469349106
 30
0.0
  0
SPLINE
  5
148
330
1F
100
AcDbEntity
  8
0
  6
Continuous
 62
     7
370
    25
100
AcDbSpline
210
0.0
220
0.0
230
1.0
 70
     8
 71
     3
 72
    10
 73
     6
 74
     0
 42
0.00000001
 43
0.00000001
 40
0.0
 40
0.0
 40
0.0
 40
0.0
 40
0.5
 40
0.5
 40
1.0
 40
1.0
 40
1.0
 40
1.0
 10
198.2876815508115
 20
83.69351440430952
 30
0.0
 10
198.2640061563871
 20
83.6505708734083
 30
0.0
 10
198.2509150465025
 20
83.58712842878417
 30
0.0
 10
198.2508287252142
 20
83.4346495916652
 30
0.0
 10
198.263997659158
 20
83.34641958955794
 30
0.0
 10
198.2876815508115
 20
83.2605017024173
 30
0.0
  0
SPLINE
  5
149
330
1F
100
AcDbEntity
  8
0
  6
Continuous
 62
     7
370
    25
100
AcDbSpline
210
0.0
220
0.0
230
1.0
 70
     8
 71
     3
 72
    16
 73
    12
 74
     0
 42
0.00000001
 43
0.00000001
 40
0.0
 40
0.0
 40
0.0
 40
0.0
 40
0.2500000000000001
 40
0.2500000000000001
 40
0.5000000000000001
 40
0.5000000000000001
 40
0.6250000000000001
 40
0.6250000000000001
 40
0.7500000000000002
 40
0.7500000000000002
 40
1.0
 40
1.0
 40
1.0
 40
1.0
 10
198.2876815508115
 20
88.31231655782653
 30
0.0
 10
198.4956969989173
 20
87.93500846895004
 30
0.0
 10
198.6659033038902
 20
87.55498473857583
 30
0.0
 10
198.9008393354578
 20
86.78736142316514
 30
0.0
 10
198.9649114671215
 20
86.39971460637634
 30
0.0
 10
198.9656444160425
 20
85.8113940544885
 30
0.0
 10
198.9499849359595
 20
85.61432086193285
 30
0.0
 10
198.8887098093226
 20
85.22426388437874
 30
0.0
 10
198.8431535368234
 20
85.0304709837907
 30
0.0
 10
198.6666675040671
 20
84.45238999902728
 30
0.0
 10
198.4960110505814
 20
84.07139213469246
 30
0.0
 10
198.2876815508115
 20
83.69351440430952
 30
0.0
  0
SPLINE
  5
14A
330
1F
100
AcDbEntity
  8
0
  6
Continuous
 62
     7
370
    25
100
AcDbSpline
210
0.0
220
0.0
230
1.0
 70
     8
 71
     3
 72
    10
 73
     6
 74
     0
 42
0.00000001
 43
0.00000001
 40
0.0
 40
0.0
 40
0.0
 40
0.0
 40
0.1601790552921226
 40
0.7197651707803578
 40
1.0
 40
1.0
 40
1.0
 40
1.0
 10
198.2534521176946
 20
88.37459483657628
 30
0.0
 10
198.2526893276013
 20
88.37598706460264
 30
0.0
 10
198.2492617275276
 20
88.38224304633097
 30
0.0
 10
198.2637691923259
 20
88.35573578160306
 30
0.0
 10
198.2816987454437
 20
88.3231799264579
 30
0.0
 10
198.2876815508115
 20
88.31231655782653
 30
0.0
  0
SPLINE
  5
14B
330
1F
100
AcDbEntity
  8
0
  6
Continuous
 62
     7
370
    25
100
AcDbSpline
210
0.0
220
0.0
230
1.0
 70
     8
 71
     3
 72
     9
 73
     5
 74
     0
 42
0.00000001
 43
0.00000001
 40
0.0
 40
0.0
 40
0.0
 40
0.0
 40
0.5797912171256352
 40
1.0
 40
1.0
 40
1.0
 40
1.0
 10
198.2876815508115
 20
68.97108253997406
 30
0.0
 10
198.275322947465
 20
68.94860889173293
 30
0.0
 10
198.2540073376706
 20
68.90984726931211
 30
0.0
 10
198.2536163951679
 20
68.90911286455389
 30
0.0
 10
198.2534521176946
 20
68.90880426122432
 30
0.0
  0
SPLINE
  5
14C
330
1F
100
AcDbEntity
  8
0
  6
Continuous
 62
     7
370
    25
100
AcDbSpline
210
0.0
220
0.0
230
1.0
 70
     8
 71
     3
 72
    16
 73
    12
 74
     0
 42
0.00000001
 43
0.00000001
 40
0.0
 40
0.0
 40
0.0
 40
0.0
 40
0.2500000000000001
 40
0.2500000000000001
 40
0.5000000000000002
 40
0.5000000000000002
 40
0.6250000000000001
 40
0.6250000000000001
 40
0.7500000000000001
 40
0.7500000000000001
 40
1.0
 40
1.0
 40
1.0
 40
1.0
 10
198.2876815508115
 20
73.58988469349106
 30
0.0
 10
198.4956969989173
 20
73.21257660461457
 30
0.0
 10
198.6659033038902
 20
72.83255287424036
 30
0.0
 10
198.9008393354578
 20
72.06492955882968
 30
0.0
 10
198.9649114671215
 20
71.67728274204089
 30
0.0
 10
198.9656444160425
 20
71.08896219015304
 30
0.0
 10
198.9499849359595
 20
70.89188899759738
 30
0.0
 10
198.8887098093226
 20
70.50183202004328
 30
0.0
 10
198.8431535368234
 20
70.30803911945524
 30
0.0
 10
198.6666675040671
 20
69.72995813469183
 30
0.0
 10
198.4960110505814
 20
69.348960270357
 30
0.0
 10
198.2876815508115
 20
68.97108253997406
 30
0.0
  0
LINE
  5
14D
330
1F
100
AcDbEntity
  8
0
  6
Continuous
 62
     7
370
    25
100
AcDbLine
 10
199.1097405234
 20
86.8916995489
 30
0.0
 11
199.1097405234
 21
70.3916995489
 31
0.0
  0
SPLINE
  5
14E
330
1F
100
AcDbEntity
  8
0
  6
Continuous
 62
     7
370
    25
100
AcDbSpline
210
0.0
220
0.0
230
1.0
 70
     8
 71
     3
 72
    10
 73
     6
 74
     0
 42
0.00000001
 43
0.00000001
 40
0.0
 40
0.0
 40
0.0
 40
0.0
 40
0.5
 40
0.5
 40
1.0
 40
1.0
 40
1.0
 40
1.0
 10
182.0579256679599
 20
70.6753030090453
 30
0.0
 10
182.1008691988611
 20
70.6516276146209
 30
0.0
 10
182.1643116434852
 20
70.63853650473627
 30
0.0
 10
182.3167904806042
 20
70.63845018344799
 30
0.0
 10
182.4050204827114
 20
70.65161911739182
 30
0.0
 10
182.4909383698521
 20
70.6753030090453
 30
0.0
  0
SPLINE
  5
14F
330
1F
100
AcDbEntity
  8
0
  6
Continuous
 62
     7
370
    25
100
AcDbSpline
210
0.0
220
0.0
230
1.0
 70
     8
 71
     3
 72
    10
 73
     6
 74
     0
 42
0.00000001
 43
0.00000001
 40
0.0
 40
0.0
 40
0.0
 40
0.0
 40
0.5
 40
0.5
 40
1.0
 40
1.0
 40
1.0
 40
1.0
 10
182.0579256679599
 20
67.31942095416049
 30
0.0
 10
182.1008634770591
 20
67.34309319407204
 30
0.0
 10
182.1643040669513
 20
67.35618718400731
 30
0.0
 10
182.3167932124601
 20
67.35627405146876
 30
0.0
 10
182.4050226016635
 20
67.34310426170939
 30
0.0
 10
182.4909383698521
 20
67.31942095416049
 30
0.0
  0
LINE
  5
150
330
1F
100
AcDbEntity
  8
0
  6
Continuous
 62
     7
370
    25
100
AcDbLine
 10
182.057925668
 20
67.3194209542
 30
0.0
 11
182.057925668
 21
70.675303009
 31
0.0
  0
SPLINE
  5
151
330
1F
100
AcDbEntity
  8
0
  6
Continuous
 62
     7
370
    25
100
AcDbSpline
210
0.0
220
0.0
230
1.0
 70
     8
 71
     3
 72
    10
 73
     6
 74
     0
 42
0.00000001
 43
0.00000001
 40
0.0
 40
0.0
 40
0.0
 40
0.0
 40
0.5
 40
0.5
 40
1.0
 40
1.0
 40
1.0
 40
1.0
 10
191.7285426768861
 20
70.67530300904528
 30
0.0
 10
191.8144297386887
 20
70.65162761462086
 30
0.0
 10
191.9018369476688
 20
70.63853650473624
 30
0.0
 10
192.0544733902627
 20
70.63845018344801
 30
0.0
 10
192.1185964352085
 20
70.65161911739196
 30
0.0
 10
192.1615553787787
 20
70.6753030090455
 30
0.0
  0
LINE
  5
152
330
1F
100
AcDbEntity
  8
0
  6
Continuous
 62
     7
370
    25
100
AcDbLine
 10
192.1615553788
 20
70.675303009
 30
0.0
 11
192.1615553788
 21
67.3194209542
 31
0.0
  0
SPLINE
  5
153
330
1F
100
AcDbEntity
  8
0
  6
Continuous
 62
     7
370
    25
100
AcDbSpline
210
0.0
220
0.0
230
1.0
 70
     8
 71
     3
 72
    10
 73
     6
 74
     0
 42
0.00000001
 43
0.00000001
 40
0.0
 40
0.0
 40
0.0
 40
0.0
 40
0.5
 40
0.5
 40
1.0
 40
1.0
 40
1.0
 40
1.0
 10
191.7285426768861
 20
67.31942095416049
 30
0.0
 10
191.8144243193925
 20
67.34309485471644
 30
0.0
 10
191.901833525358
 20
67.35618741189558
 30
0.0
 10
192.0544760104329
 20
67.35627382587786
 30
0.0
 10
192.1185989955153
 20
67.34310343427924
 30
0.0
 10
192.1615553787783
 20
67.31942095416049
 30
0.0
  0
LINE
  5
154
330
1F
100
AcDbEntity
  8
0
  6
Continuous
 62
     7
370
    25
100
AcDbLine
 10
198.2876815508
 20
73.5898846935
 30
0.0
 11
193.7874619286
 21
73.5898846935
 31
0.0
  0
SPLINE
  5
155
330
1F
100
AcDbEntity
  8
0
  6
Continuous
 62
     7
370
    25
100
AcDbSpline
210
0.0
220
0.0
230
1.0
 70
     8
 71
     3
 72
    10
 73
     6
 74
     0
 42
0.00000001
 43
0.00000001
 40
0.0
 40
0.0
 40
0.0
 40
0.0
 40
0.5
 40
0.5
 40
1.0
 40
1.0
 40
1.0
 40
1.0
 10
193.787461928626
 20
73.58988469349106
 30
0.0
 10
193.8111373230504
 20
73.63282822439223
 30
0.0
 10
193.8242284329383
 20
73.69627066901602
 30
0.0
 10
193.8243147542266
 20
73.84874950613509
 30
0.0
 10
193.8111458202828
 20
73.93697950824253
 30
0.0
 10
193.7874619286293
 20
74.02289739538327
 30
0.0
  0
LINE
  5
156
330
1F
100
AcDbEntity
  8
0
  6
Continuous
 62
     7
370
    25
100
AcDbLine
 10
193.1097405234
 20
86.0029154811
 30
0.0
 11
193.1097405234
 21
82.6416995489
 31
0.0
  0
SPLINE
  5
157
330
1F
100
AcDbEntity
  8
0
  6
Continuous
 62
     7
370
    25
100
AcDbSpline
210
0.0
220
0.0
230
1.0
 70
     8
 71
     3
 72
    10
 73
     6
 74
     0
 42
0.00000001
 43
0.00000001
 40
0.0
 40
0.0
 40
0.0
 40
0.0
 40
0.5
 40
0.5
 40
1.0
 40
1.0
 40
1.0
 40
1.0
 10
193.7874619286293
 20
83.6935144043095
 30
0.0
 10
193.5790411758119
 20
84.07155765371166
 30
0.0
 10
193.4085773405345
 20
84.4523271585075
 30
0.0
 10
193.173594905596
 20
85.22147568406506
 30
0.0
 10
193.1097405233691
 20
85.6099024122403
 30
0.0
 10
193.1097405233691
 20
86.00291548106803
 30
0.0
  0
SPLINE
  5
158
330
1F
100
AcDbEntity
  8
0
  6
Continuous
 62
     7
370
    25
100
AcDbSpline
210
0.0
220
0.0
230
1.0
 70
     8
 71
     3
 72
    10
 73
     6
 74
     0
 42
0.00000001
 43
0.00000001
 40
0.0
 40
0.0
 40
0.0
 40
0.0
 40
0.5
 40
0.5
 40
1.0
 40
1.0
 40
1.0
 40
1.0
 10
193.7874619286293
 20
83.2605017024173
 30
0.0
 10
193.8111373230537
 20
83.34638876421975
 30
0.0
 10
193.8242284329383
 20
83.43379597319986
 30
0.0
 10
193.8243147542266
 20
83.5864324157936
 30
0.0
 10
193.8111458202828
 20
83.65055546073917
 30
0.0
 10
193.7874619286293
 20
83.6935144043095
 30
0.0
  0
SPLINE
  5
159
330
1F
100
AcDbEntity
  8
0
  6
Continuous
 62
     7
370
    25
100
AcDbSpline
210
0.0
220
0.0
230
1.0
 70
     8
 71
     3
 72
     8
 73
     4
 74
     0
 42
0.00000001
 43
0.00000001
 40
0.0
 40
0.0
 40
0.0
 40
0.0
 40
1.0
 40
1.0
 40
1.0
 40
1.0
 10
179.8203643387525
 20
71.35232336427156
 30
0.0
 10
180.1293814813942
 20
71.45332847210169
 30
0.0
 10
180.4446992377122
 20
71.54998526116762
 30
0.0
 10
180.7671785645552
 20
71.64169954890029
 30
0.0
  0
SPLINE
  5
15A
330
1F
100
AcDbEntity
  8
0
  6
Continuous
 62
     7
370
    25
100
AcDbSpline
210
0.0
220
0.0
230
1.0
 70
     8
 71
     3
 72
    12
 73
     8
 74
     0
 42
0.00000001
 43
0.00000001
 40
0.0
 40
0.0
 40
0.0
 40
0.0
 40
0.2500000000000002
 40
0.2500000000000002
 40
0.5000000000000004
 40
0.5000000000000004
 40
1.0
 40
1.0
 40
1.0
 40
1.0
 10
179.8203643387472
 20
71.35232336426543
 30
0.0
 10
180.0103905140505
 20
71.34861487840901
 30
0.0
 10
180.2006055767363
 20
71.33003237557132
 30
0.0
 10
180.5775423358687
 20
71.26516533860517
 30
0.0
 10
180.7648651271282
 20
71.2188997853549
 30
0.0
 10
181.3237750834423
 20
71.04317525504794
 30
0.0
 10
181.6923107415526
 20
70.8768718462712
 30
0.0
 10
182.0579256679599
 20
70.6753030090453
 30
0.0
  0
SPLINE
  5
15B
330
1F
100
AcDbEntity
  8
0
  6
Continuous
 62
     7
370
    25
100
AcDbSpline
210
0.0
220
0.0
230
1.0
 70
     8
 71
     3
 72
    10
 73
     6
 74
     0
 42
0.00000001
 43
0.00000001
 40
0.0
 40
0.0
 40
0.0
 40
0.0
 40
0.5
 40
0.5
 40
1.0
 40
1.0
 40
1.0
 40
1.0
 10
176.2874619286293
 20
74.02289739538328
 30
0.0
 10
176.3111358291852
 20
73.93701575287683
 30
0.0
 10
176.3242283863644
 20
73.84960654691139
 30
0.0
 10
176.3243148003467
 20
73.69696406183647
 30
0.0
 10
176.311144408748
 20
73.63284107675409
 30
0.0
 10
176.2874619286293
 20
73.58988469349106
 30
0.0
  0
SPLINE
  5
15C
330
1F
100
AcDbEntity
  8
0
  6
Continuous
 62
     7
370
    25
100
AcDbSpline
210
0.0
220
0.0
230
1.0
 70
     8
 71
     3
 72
    12
 73
     8
 74
     0
 42
0.00000001
 43
0.00000001
 40
0.0
 40
0.0
 40
0.0
 40
0.0
 40
0.2499999999999999
 40
0.2499999999999999
 40
0.4999999999999998
 40
0.4999999999999998
 40
1.0
 40
1.0
 40
1.0
 40
1.0
 10
175.6097405233691
 20
71.28048361673255
 30
0.0
 10
175.6097405233691
 20
71.47548709673836
 30
0.0
 10
175.625486853391
 20
71.67202175576277
 30
0.0
 10
175.6869318779765
 20
72.06144144336832
 30
0.0
 10
175.7325206372302
 20
72.2549261364286
 30
0.0
 10
175.9089716394868
 20
72.83210973518419
 30
0.0
 10
176.0794293414503
 20
73.21254551696714
 30
0.0
 10
176.2874619286291
 20
73.58988469349107
 30
0.0
  0
LINE
  5
15D
330
1F
100
AcDbEntity
  8
0
  6
Continuous
 62
     7
370
    25
100
AcDbLine
 10
175.6097405234
 20
78.6416995489
 30
0.0
 11
175.6097405234
 21
71.2804836167
 31
0.0
  0
SPLINE
  5
15E
330
1F
100
AcDbEntity
  8
0
  6
Continuous
 62
     7
370
    25
100
AcDbSpline
210
0.0
220
0.0
230
1.0
 70
     8
 71
     3
 72
    10
 73
     6
 74
     0
 42
0.00000001
 43
0.00000001
 40
0.0
 40
0.0
 40
0.0
 40
0.0
 40
0.5
 40
0.5
 40
1.0
 40
1.0
 40
1.0
 40
1.0
 10
176.2874619286288
 20
83.6935144043095
 30
0.0
 10
176.0786520039626
 20
84.07226355170077
 30
0.0
 10
175.9081178642153
 20
84.45346882811208
 30
0.0
 10
175.6733320591964
 20
85.22269944929987
 30
0.0
 10
175.6097405233691
 20
85.61076715409818
 30
0.0
 10
175.6097405233691
 20
86.00291548106803
 30
0.0
  0
SPLINE
  5
15F
330
1F
100
AcDbEntity
  8
0
  6
Continuous
 62
     7
370
    25
100
AcDbSpline
210
0.0
220
0.0
230
1.0
 70
     8
 71
     3
 72
    10
 73
     6
 74
     0
 42
0.00000001
 43
0.00000001
 40
0.0
 40
0.0
 40
0.0
 40
0.0
 40
0.5
 40
0.5
 40
1.0
 40
1.0
 40
1.0
 40
1.0
 10
176.2874619286293
 20
83.69351440430952
 30
0.0
 10
176.3111341685409
 20
83.65057659521028
 30
0.0
 10
176.3242281584761
 20
83.58713600531809
 30
0.0
 10
176.3243150259376
 20
83.43464685980925
 30
0.0
 10
176.3111452361782
 20
83.34641747060593
 30
0.0
 10
176.2874619286293
 20
83.2605017024173
 30
0.0
  0
LINE
  5
160
330
1F
100
AcDbEntity
  8
0
  6
Continuous
 62
     7
370
    25
100
AcDbLine
 10
175.6097405234
 20
78.6416995489
 30
0.0
 11
175.6097405234
 21
86.0029154811
 31
0.0
  0
LINE
  5
161
330
1F
100
AcDbEntity
  8
0
  6
Continuous
 62
     7
370
    25
100
AcDbLine
 10
183.0559795169
 20
78.0672676924
 30
0.0
 11
183.6633278756
 21
78.0672676924
 31
0.0
  0
ELLIPSE
  5
162
330
1F
100
AcDbEntity
  8
0
  6
Continuous
 62
     7
370
    25
100
AcDbEllipse
 10
183.0559795169
 20
78.1481094095
 30
0.0
 11
0.08480161849064416
 21
-1.421085471520200E-14
 31
0.0
210
0.0
220
0.0
230
1.0
 40
0.9533039403
 41
2.798568711308659
 42
4.712388980384862
  0
ELLIPSE
  5
163
330
1F
100
AcDbEntity
  8
0
  6
Continuous
 62
     7
370
    25
100
AcDbEllipse
 10
183.6633278756
 20
78.1481094095
 30
0.0
 11
-0.08480161849067258
 21
-4.263256414560601E-14
 31
0.0
210
0.0
220
0.0
230
1.0
 40
0.9533039403
 41
1.570796326794417
 42
3.484616592149087
  0
LINE
  5
164
330
1F
100
AcDbEntity
  8
0
  6
Continuous
 62
     7
370
    25
100
AcDbLine
 10
183.2797924597
 20
78.9858820384
 30
0.0
 11
182.9761182786
 21
78.1752994215
 31
0.0
  0
ELLIPSE
  5
165
330
1F
100
AcDbEntity
  8
0
  6
Continuous
 62
     7
370
    25
100
AcDbEllipse
 10
183.359653698
 20
78.9586920265
 30
0.0
 11
0.08480161849064416
 21
1.421085471520200E-14
 31
0.0
210
0.0
220
0.0
230
1.0
 40
0.9533039403
 41
0.343023940420631
 42
2.798568713168927
  0
LINE
  5
166
330
1F
100
AcDbEntity
  8
0
  6
Continuous
 62
     7
370
    25
100
AcDbLine
 10
183.743189114
 20
78.1752994212
 30
0.0
 11
183.4395149363
 21
78.9858820384
 31
0.0
  0
LINE
  5
167
330
1F
100
AcDbEntity
  8
0
  6
Continuous
 62
     7
370
    25
100
AcDbLine
 10
179.7485245912
 20
66.6416995489
 30
0.0
 11
187.1097405234
 21
66.6416995489
 31
0.0
  0
SPLINE
  5
168
330
1F
100
AcDbEntity
  8
0
  6
Continuous
 62
     7
370
    25
100
AcDbSpline
210
0.0
220
0.0
230
1.0
 70
     8
 71
     3
 72
    10
 73
     6
 74
     0
 42
0.00000001
 43
0.00000001
 40
0.0
 40
0.0
 40
0.0
 40
0.0
 40
0.5
 40
0.5
 40
1.0
 40
1.0
 40
1.0
 40
1.0
 10
182.0579256679599
 20
67.31942095416002
 30
0.0
 10
181.6791765205686
 20
67.11061102949375
 30
0.0
 10
181.2979712441573
 20
66.9400768897465
 30
0.0
 10
180.5287406229695
 20
66.70529108472759
 30
0.0
 10
180.1406729181712
 20
66.6416995489003
 30
0.0
 10
179.7485245912013
 20
66.6416995489003
 30
0.0
  0
SPLINE
  5
169
330
1F
100
AcDbEntity
  8
0
  6
Continuous
 62
     7
370
    25
100
AcDbSpline
210
0.0
220
0.0
230
1.0
 70
     8
 71
     3
 72
    12
 73
     8
 74
     0
 42
0.00000001
 43
0.00000001
 40
0.0
 40
0.0
 40
0.0
 40
0.0
 40
0.2499999999999998
 40
0.2499999999999998
 40
0.4999999999999996
 40
0.4999999999999996
 40
1.0
 40
1.0
 40
1.0
 40
1.0
 10
194.4709564555368
 20
66.6416995489003
 30
0.0
 10
194.275952975531
 20
66.64169954890029
 30
0.0
 10
194.0794183165066
 20
66.65744587892225
 30
0.0
 10
193.6899986289011
 20
66.71889090350768
 30
0.0
 10
193.4965139358408
 20
66.7644796627614
 30
0.0
 10
192.9193303370852
 20
66.94093066501802
 30
0.0
 10
192.5388945553023
 20
67.1113883669815
 30
0.0
 10
192.1615553787783
 20
67.31942095416034
 30
0.0
  0
LINE
  5
16A
330
1F
100
AcDbEntity
  8
0
  6
Continuous
 62
     7
370
    25
100
AcDbLine
 10
187.1097405234
 20
66.6416995489
 30
0.0
 11
194.4709564555
 21
66.6416995489
 31
0.0
  0
SPLINE
  5
16B
330
1F
100
AcDbEntity
  8
0
  6
Continuous
 62
     7
370
    25
100
AcDbSpline
210
0.0
220
0.0
230
1.0
 70
     8
 71
     3
 72
     8
 73
     4
 74
     0
 42
0.00000001
 43
0.00000001
 40
0.0
 40
0.0
 40
0.0
 40
0.0
 40
1.0
 40
1.0
 40
1.0
 40
1.0
 10
193.2311240148653
 20
72.23157801557505
 30
0.0
 10
193.190008739224
 20
72.36760841006459
 30
0.0
 10
193.1495197563561
 20
72.50431247470205
 30
0.0
 10
193.1097405233691
 20
72.64169954890029
 30
0.0
  0
LINE
  5
16C
330
1F
100
AcDbEntity
  8
0
  6
Continuous
 62
     7
370
    25
100
AcDbLine
 10
193.1097405234
 20
74.6416995489
 30
0.0
 11
193.1097405234
 21
72.6416995489
 31
0.0
  0
SPLINE
  5
16D
330
1F
100
AcDbEntity
  8
0
  6
Continuous
 62
     7
370
    25
100
AcDbSpline
210
0.0
220
0.0
230
1.0
 70
     8
 71
     3
 72
     8
 73
     4
 74
     0
 42
0.00000001
 43
0.00000001
 40
0.0
 40
0.0
 40
0.0
 40
0.0
 40
1.0
 40
1.0
 40
1.0
 40
1.0
 10
193.2311240148653
 20
72.23157801557505
 30
0.0
 10
193.3467566248943
 20
72.69012894763281
 30
0.0
 10
193.5406460297147
 20
73.14219854339106
 30
0.0
 10
193.7874619286291
 20
73.58988469349082
 30
0.0
  0
LINE
  5
16E
330
1F
100
AcDbEntity
  8
0
  6
Continuous
 62
     7
370
    25
100
AcDbLine
 10
181.1097405234
 20
74.6416995489
 30
0.0
 11
181.1097405234
 21
72.6416995489
 31
0.0
  0
SPLINE
  5
16F
330
1F
100
AcDbEntity
  8
0
  6
Continuous
 62
     7
370
    25
100
AcDbSpline
210
0.0
220
0.0
230
1.0
 70
     8
 71
     3
 72
     8
 73
     4
 74
     0
 42
0.00000001
 43
0.00000001
 40
0.0
 40
0.0
 40
0.0
 40
0.0
 40
1.0
 40
1.0
 40
1.0
 40
1.0
 10
181.1097405233691
 20
72.64169954890029
 30
0.0
 10
181.0699618651789
 20
72.50431445990019
 30
0.0
 10
181.0294729023507
 20
72.36761037808841
 30
0.0
 10
180.9883570318729
 20
72.23157801557504
 30
0.0
  0
SPLINE
  5
170
330
1F
100
AcDbEntity
  8
0
  6
Continuous
 62
     7
370
    25
100
AcDbSpline
210
0.0
220
0.0
230
1.0
 70
     8
 71
     3
 72
     8
 73
     4
 74
     0
 42
0.00000001
 43
0.00000001
 40
0.0
 40
0.0
 40
0.0
 40
0.0
 40
1.0
 40
1.0
 40
1.0
 40
1.0
 10
180.4320191181089
 20
73.58988469349106
 30
0.0
 10
180.6791928989929
 20
73.14154940043974
 30
0.0
 10
180.8729145672968
 20
72.68937490969616
 30
0.0
 10
180.9883570318729
 20
72.23157801557504
 30
0.0
  0
SPLINE
  5
171
330
1F
100
AcDbEntity
  8
0
  6
Continuous
 62
     7
370
    25
100
AcDbSpline
210
0.0
220
0.0
230
1.0
 70
     8
 71
     3
 72
    10
 73
     6
 74
     0
 42
0.00000001
 43
0.00000001
 40
0.0
 40
0.0
 40
0.0
 40
0.0
 40
0.5
 40
0.5
 40
1.0
 40
1.0
 40
1.0
 40
1.0
 10
180.4320191181089
 20
74.02289739538328
 30
0.0
 10
180.4083437236845
 20
73.93701033358083
 30
0.0
 10
180.3952526137999
 20
73.8496031246007
 30
0.0
 10
180.3951662925116
 20
73.69696668200697
 30
0.0
 10
180.4083352264554
 20
73.63284363706138
 30
0.0
 10
180.4320191181089
 20
73.58988469349106
 30
0.0
  0
LINE
  5
172
330
1F
100
AcDbEntity
  8
0
  6
Continuous
 62
     7
370
    25
100
AcDbLine
 10
193.7874619286
 20
83.6935144043
 30
0.0
 11
198.2876815508
 21
83.6935144043
 31
0.0
  0
LINE
  5
173
330
1F
100
AcDbEntity
  8
0
  6
Continuous
 62
     7
370
    25
100
AcDbLine
 10
176.2874619286
 20
83.6935144043
 30
0.0
 11
180.4320191181
 21
83.6935144043
 31
0.0
  0
SPLINE
  5
174
330
1F
100
AcDbEntity
  8
0
  6
Continuous
 62
     7
370
    25
100
AcDbSpline
210
0.0
220
0.0
230
1.0
 70
     8
 71
     3
 72
     8
 73
     4
 74
     0
 42
0.00000001
 43
0.00000001
 40
0.0
 40
0.0
 40
0.0
 40
0.0
 40
1.0
 40
1.0
 40
1.0
 40
1.0
 10
193.4523024821829
 20
71.64169954890029
 30
0.0
 10
193.7747818090322
 20
71.54998526116583
 30
0.0
 10
194.0900995653562
 20
71.45332847209792
 30
0.0
 10
194.3991167080037
 20
71.35232336426569
 30
0.0
  0
SPLINE
  5
175
330
1F
100
AcDbEntity
  8
0
  6
Continuous
 62
     7
370
    25
100
AcDbSpline
210
0.0
220
0.0
230
1.0
 70
     8
 71
     3
 72
    10
 73
     6
 74
     0
 42
0.00000001
 43
0.00000001
 40
0.0
 40
0.0
 40
0.0
 40
0.0
 40
0.5
 40
0.5
 40
1.0
 40
1.0
 40
1.0
 40
1.0
 10
192.1615553787786
 20
70.67530300904544
 30
0.0
 10
192.5280733256191
 20
70.87736969459638
 30
0.0
 10
192.897153551085
 20
71.04376246686701
 30
0.0
 10
193.6424058993124
 20
71.27780944073707
 30
0.0
 10
194.0186186712601
 20
71.3448976946959
 30
0.0
 10
194.3991167080037
 20
71.35232336426569
 30
0.0
  0
LINE
  5
176
330
1F
100
AcDbEntity
  8
0
  6
Continuous
 62
     7
370
    25
100
AcDbLine
 10
180.4320191181
 20
73.5898846935
 30
0.0
 11
176.2874619286
 21
73.5898846935
 31
0.0
  0
SPLINE
  5
177
330
1F
100
AcDbEntity
  8
0
  6
Continuous
 62
     7
370
    25
100
AcDbSpline
210
0.0
220
0.0
230
1.0
 70
     8
 71
     3
 72
    12
 73
     8
 74
     0
 42
0.00000001
 43
0.00000001
 40
0.0
 40
0.0
 40
0.0
 40
0.0
 40
0.2499999999999999
 40
0.2499999999999999
 40
0.4999999999999998
 40
0.4999999999999998
 40
1.0
 40
1.0
 40
1.0
 40
1.0
 10
193.1097405233691
 20
86.00291548106803
 30
0.0
 10
193.1097405233691
 20
86.19865774394754
 30
0.0
 10
193.1255834594581
 20
86.3953243531381
 30
0.0
 10
193.1870863196957
 20
86.78459258046638
 30
0.0
 10
193.2326899607394
 20
86.97799661341931
 30
0.0
 10
193.4091409782286
 20
87.55492566467608
 30
0.0
 10
193.5795383454805
 20
87.93517509787907
 30
0.0
 10
193.7874619286293
 20
88.31231655782653
 30
0.0
  0
LINE
  5
178
330
1F
100
AcDbEntity
  8
0
  6
Continuous
 62
     7
370
    25
100
AcDbLine
 10
198.2876815508
 20
88.3123165578
 30
0.0
 11
193.7874619286
 21
88.3123165578
 31
0.0
  0
ELLIPSE
  5
179
330
1F
100
AcDbEntity
  8
0
  6
Continuous
 62
     7
370
    25
100
AcDbEllipse
 10
187.1097405234
 20
68.8267449727
 30
0.0
 11
8.500000000000028
 21
0.0
 31
0.0
210
0.0
220
0.0
230
1.0
 40
0.5773502692
 41
2.374833212873082
 42
2.530692279913056
  0
LINE
  5
17A
330
1F
100
AcDbEntity
  8
0
  6
Continuous
 62
     7
370
    25
100
AcDbLine
 10
179.8203643387
 20
71.3523233643
 30
0.0
 11
177.4391235144
 21
68.97108254
 31
0.0
  0
LINE
  5
17B
330
1F
100
AcDbEntity
  8
0
  6
Continuous
 62
     7
370
    25
100
AcDbLine
 10
176.2874619286
 20
68.97108254
 30
0.0
 11
177.4391235144
 21
68.97108254
 31
0.0
  0
SPLINE
  5
17C
330
1F
100
AcDbEntity
  8
0
  6
Continuous
 62
     7
370
    25
100
AcDbSpline
210
0.0
220
0.0
230
1.0
 70
     8
 71
     3
 72
    10
 73
     6
 74
     0
 42
0.00000001
 43
0.00000001
 40
0.0
 40
0.0
 40
0.0
 40
0.0
 40
0.5
 40
0.5
 40
1.0
 40
1.0
 40
1.0
 40
1.0
 10
176.2874619286288
 20
68.97108253997402
 30
0.0
 10
176.0786520039626
 20
69.34983168736532
 30
0.0
 10
175.9081178642153
 20
69.73103696377662
 30
0.0
 10
175.6733320591964
 20
70.5002675849644
 30
0.0
 10
175.6097405233691
 20
70.88833528976272
 30
0.0
 10
175.6097405233691
 20
71.28048361673255
 30
0.0
  0
ELLIPSE
  5
17D
330
1F
100
AcDbEntity
  8
0
  6
Continuous
 62
     7
370
    25
100
AcDbEllipse
 10
187.1097405234
 20
68.8267449727
 30
0.0
 11
8.500000000000028
 21
0.0
 31
0.0
210
0.0
220
0.0
230
1.0
 40
0.5773502692
 41
0.6109003736767326
 42
0.7667594407167092
  0
LINE
  5
17E
330
1F
100
AcDbEntity
  8
0
  6
Continuous
 62
     7
370
    25
100
AcDbLine
 10
196.7803575323
 20
68.97108254
 30
0.0
 11
198.2876815508
 21
68.97108254
 31
0.0
  0
LINE
  5
17F
330
1F
100
AcDbEntity
  8
0
  6
Continuous
 62
     7
370
    25
100
AcDbLine
 10
196.7803575323
 20
68.97108254
 30
0.0
 11
194.399116708
 21
71.3523233643
 31
0.0
  0
SPLINE
  5
180
330
1F
100
AcDbEntity
  8
0
  6
Continuous
 62
     7
370
    25
100
AcDbSpline
210
0.0
220
0.0
230
1.0
 70
     8
 71
     3
 72
    12
 73
     8
 74
     0
 42
0.00000001
 43
0.00000001
 40
0.0
 40
0.0
 40
0.0
 40
0.0
 40
0.2500000000000002
 40
0.2500000000000002
 40
0.5000000000000001
 40
0.5000000000000001
 40
1.0
 40
1.0
 40
1.0
 40
1.0
 10
179.7485245912013
 20
66.6416995489003
 30
0.0
 10
179.5535211111956
 20
66.6416995489003
 30
0.0
 10
179.3569864521712
 20
66.65744587892225
 30
0.0
 10
178.9675667645656
 20
66.71889090350768
 30
0.0
 10
178.7740820715053
 20
66.76447966276142
 30
0.0
 10
178.1968984727498
 20
66.94093066501802
 30
0.0
 10
177.8164626909668
 20
67.1113883669815
 30
0.0
 10
177.4391235144429
 20
67.31942095416034
 30
0.0
  0
LINE
  5
181
330
1F
100
AcDbEntity
  8
0
  6
Continuous
 62
     7
370
    25
100
AcDbLine
 10
177.4391235144
 20
68.97108254
 30
0.0
 11
177.4391235144
 21
67.3194209542
 31
0.0
  0
SPLINE
  5
182
330
1F
100
AcDbEntity
  8
0
  6
Continuous
 62
     7
370
    25
100
AcDbSpline
210
0.0
220
0.0
230
1.0
 70
     8
 71
     3
 72
    12
 73
     8
 74
     0
 42
0.00000001
 43
0.00000001
 40
0.0
 40
0.0
 40
0.0
 40
0.0
 40
0.2499999999999999
 40
0.2499999999999999
 40
0.5
 40
0.5
 40
1.0
 40
1.0
 40
1.0
 40
1.0
 10
175.6097405233691
 20
86.00291548106803
 30
0.0
 10
175.6097405233691
 20
86.19791896107381
 30
0.0
 10
175.625486853391
 20
86.39445362009823
 30
0.0
 10
175.6869318779765
 20
86.78387330770377
 30
0.0
 10
175.7325206372302
 20
86.97735800076403
 30
0.0
 10
175.9089716394868
 20
87.55454159951964
 30
0.0
 10
176.0794293414503
 20
87.9349773813026
 30
0.0
 10
176.2874619286291
 20
88.31231655782653
 30
0.0
  0
LINE
  5
183
330
1F
100
AcDbEntity
  8
0
  6
Continuous
 62
     7
370
    25
100
AcDbLine
 10
180.4320191181
 20
88.3123165578
 30
0.0
 11
176.2874619286
 21
88.3123165578
 31
0.0
  0
SPLINE
  5
184
330
1F
100
AcDbEntity
  8
0
  6
Continuous
 62
     7
370
    25
100
AcDbSpline
210
0.0
220
0.0
230
1.0
 70
     8
 71
     3
 72
    10
 73
     6
 74
     0
 42
0.00000001
 43
0.00000001
 40
0.0
 40
0.0
 40
0.0
 40
0.0
 40
0.5
 40
0.5
 40
1.0
 40
1.0
 40
1.0
 40
1.0
 10
180.4320191181089
 20
88.31231655782655
 30
0.0
 10
180.6404398709263
 20
87.9342733084244
 30
0.0
 10
180.8109037062038
 20
87.55350380362854
 30
0.0
 10
181.0458861411421
 20
86.784355278071
 30
0.0
 10
181.1097405233691
 20
86.39592854989577
 30
0.0
 10
181.1097405233691
 20
86.00291548106803
 30
0.0
  0
LINE
  5
185
330
1F
100
AcDbEntity
  8
0
  6
Continuous
 62
     7
370
    25
100
AcDbLine
 10
196.7803575323
 20
67.3194209542
 30
0.0
 11
196.7803575323
 21
68.97108254
 31
0.0
  0
SPLINE
  5
186
330
1F
100
AcDbEntity
  8
0
  6
Continuous
 62
     7
370
    25
100
AcDbSpline
210
0.0
220
0.0
230
1.0
 70
     8
 71
     3
 72
    10
 73
     6
 74
     0
 42
0.00000001
 43
0.00000001
 40
0.0
 40
0.0
 40
0.0
 40
0.0
 40
0.5
 40
0.5
 40
1.0
 40
1.0
 40
1.0
 40
1.0
 10
196.7803575322954
 20
67.31942095416002
 30
0.0
 10
196.4016083849041
 20
67.11061102949377
 30
0.0
 10
196.0204031084928
 20
66.9400768897465
 30
0.0
 10
195.251172487305
 20
66.70529108472759
 30
0.0
 10
194.8631047825067
 20
66.6416995489003
 30
0.0
 10
194.4709564555368
 20
66.6416995489003
 30
0.0
  0
LINE
  5
187
330
1F
100
AcDbEntity
  8
0
  6
Continuous
 62
     7
370
    25
100
AcDbLine
 10
183.1097405234
 20
74.6416995489
 30
0.0
 11
181.1097405234
 21
72.6416995489
 31
0.0
  0
LINE
  5
188
330
1F
100
AcDbEntity
  8
0
  6
Continuous
 62
     7
370
    25
100
AcDbLine
 10
180.1471194507
 20
71.6416995489
 30
0.0
 11
183.1097405234
 21
71.6416995489
 31
0.0
  0
LINE
  5
189
330
1F
100
AcDbEntity
  8
0
  6
Continuous
 62
     7
370
    25
100
AcDbLine
 10
193.1097405234
 20
72.6416995489
 30
0.0
 11
191.1097405234
 21
74.6416995489
 31
0.0
  0
LINE
  5
18A
330
1F
100
AcDbEntity
  8
0
  6
Continuous
 62
     7
370
    25
100
AcDbLine
 10
191.1097405234
 20
71.6416995489
 30
0.0
 11
194.072361596
 21
71.6416995489
 31
0.0
  0
LINE
  5
18B
330
1F
100
AcDbEntity
  8
0
  6
Continuous
 62
     7
370
    25
100
AcDbLine
 10
181.1097405234
 20
86.5761540271
 30
0.0
 11
181.1097405234
 21
86.0029154811
 31
0.0
  0
SPLINE
  5
18C
330
1F
100
AcDbEntity
  8
0
  6
Continuous
 62
     7
370
    25
100
AcDbSpline
210
0.0
220
0.0
230
1.0
 70
     8
 71
     3
 72
    32
 73
    28
 74
     0
 42
0.00000001
 43
0.00000001
 40
0.0
 40
0.0
 40
0.0
 40
0.0
 40
0.0625000000000001
 40
0.0625000000000001
 40
0.1250000000000001
 40
0.1250000000000001
 40
0.1875000000000002
 40
0.1875000000000002
 40
0.2500000000000003
 40
0.2500000000000003
 40
0.3750000000000003
 40
0.3750000000000003
 40
0.4375000000000003
 40
0.4375000000000003
 40
0.5000000000000002
 40
0.5000000000000002
 40
0.5625000000000002
 40
0.5625000000000002
 40
0.6250000000000001
 40
0.6250000000000001
 40
0.7500000000000001
 40
0.7500000000000001
 40
0.8750000000000002
 40
0.8750000000000002
 40
0.9375000000000001
 40
0.9375000000000001
 40
1.0
 40
1.0
 40
1.0
 40
1.0
 10
193.1097405233606
 20
86.57615402712095
 30
0.0
 10
192.9528841874437
 20
86.48119704922524
 30
0.0
 10
192.7798857532881
 20
86.37844387460007
 30
0.0
 10
192.4031811666623
 20
86.1617326729518
 30
0.0
 10
192.2003283862056
 20
86.04831396246179
 30
0.0
 10
191.774347123403
 20
85.82022382576362
 30
0.0
 10
191.550169163115
 20
85.70491694331177
 30
0.0
 10
191.0788180695386
 20
85.47659384093699
 30
0.0
 10
190.8301325541735
 20
85.36294382480324
 30
0.0
 10
190.0595600694819
 20
85.0398797935692
 30
0.0
 10
189.5139226593997
 20
84.84698126940569
 30
0.0
 10
188.6311429109033
 20
84.635387344132
 30
0.0
 10
188.3325038110305
 20
84.57974495801425
 30
0.0
 10
187.7260022103147
 20
84.50407688865042
 30
0.0
 10
187.4158549716488
 20
84.48410364287409
 30
0.0
 10
186.7957694829651
 20
84.48443740912734
 30
0.0
 10
186.489198445497
 20
84.50443637445012
 30
0.0
 10
185.8825436981888
 20
84.5804751606466
 30
0.0
 10
185.5801706335635
 20
84.63712826077814
 30
0.0
 10
184.7035343308106
 20
84.84790681082399
 30
0.0
 10
184.1554801988337
 20
85.04145264139575
 30
0.0
 10
183.1249829315904
 20
85.47407193467153
 30
0.0
 10
182.6574228963109
 20
85.70654857936196
 30
0.0
 10
182.019209292683
 20
86.048286580281
 30
0.0
 10
181.8159995544931
 20
86.1619040957094
 30
0.0
 10
181.4396626280987
 20
86.37840648806564
 30
0.0
 10
181.2666840196072
 20
86.48114428451002
 30
0.0
 10
181.1097405233691
 20
86.5761540271261
 30
0.0
  0
LINE
  5
18D
330
1F
100
AcDbEntity
  8
0
  6
Continuous
 62
     7
370
    25
100
AcDbLine
 10
193.1097405234
 20
86.5761540271
 30
0.0
 11
193.1097405234
 21
86.0029154811
 31
0.0
  0
LINE
  5
18E
330
1F
100
AcDbEntity
  8
0
  6
Continuous
 62
     7
370
    25
100
AcDbLine
 10
180.6451884648
 20
57.2453654228
 30
0.0
 11
193.5742925819
 21
57.2453654228
 31
0.0
  0
SPLINE
  5
18F
330
1F
100
AcDbEntity
  8
0
  6
Continuous
 62
     7
370
    25
100
AcDbSpline
210
0.0
220
0.0
230
1.0
 70
     8
 71
     3
 72
    11
 73
     7
 74
     0
 42
0.00000001
 43
0.00000001
 40
0.0
 40
0.0
 40
0.0
 40
0.0
 40
0.0860363962994498
 40
0.3126240132839471
 40
0.544481681962628
 40
1.0
 40
1.0
 40
1.0
 40
1.0
 10
193.2830877108361
 20
87.43460114260142
 30
0.0
 10
193.2842765278562
 20
87.43861476813977
 30
0.0
 10
193.2885962432775
 20
87.45319877883277
 30
0.0
 10
193.2574167349578
 20
87.3466425547305
 30
0.0
 10
193.1749891260499
 20
87.06609462287155
 30
0.0
 10
193.1357463697749
 20
86.77142747907968
 30
0.0
 10
193.1097405233691
 20
86.57615402711897
 30
0.0
  0
SPLINE
  5
190
330
1F
100
AcDbEntity
  8
0
  6
Continuous
 62
     7
370
    25
100
AcDbSpline
210
0.0
220
0.0
230
1.0
 70
     8
 71
     3
 72
    11
 73
     7
 74
     0
 42
0.00000001
 43
0.00000001
 40
0.0
 40
0.0
 40
0.0
 40
0.0
 40
0.317630865926042
 40
0.6359488535530882
 40
0.8656744095322488
 40
0.9999999999999999
 40
0.9999999999999999
 40
0.9999999999999999
 40
0.9999999999999999
 10
181.1097405233691
 20
86.57615402712601
 30
0.0
 10
181.0961017845141
 20
86.70741859547691
 30
0.0
 10
181.0687948025133
 20
86.97023169303756
 30
0.0
 10
180.9807899035826
 20
87.28187706847008
 30
0.0
 10
180.9362290351388
 20
87.43562526419377
 30
0.0
 10
180.9365780105327
 20
87.43411099058866
 30
0.0
 10
180.9367067735549
 20
87.4335522622393
 30
0.0
  0
LINE
  5
191
330
1F
100
AcDbEntity
  8
0
  6
Continuous
 62
     7
370
    25
100
AcDbLine
 10
192.3597405234
 20
55.1416995489
 30
0.0
 11
181.8597405234
 21
55.1416995489
 31
0.0
  0
SPLINE
  5
192
330
1F
100
AcDbEntity
  8
0
  6
Continuous
 62
     7
370
    25
100
AcDbSpline
210
0.0
220
0.0
230
1.0
 70
     8
 71
     3
 72
    10
 73
     6
 74
     0
 42
0.00000001
 43
0.00000001
 40
0.0
 40
0.0
 40
0.0
 40
0.0
 40
0.1601790552921523
 40
0.7197651707804853
 40
1.0
 40
1.0
 40
1.0
 40
1.0
 10
180.397789684992
 20
88.37459483657628
 30
0.0
 10
180.3970268948987
 20
88.37598706460264
 30
0.0
 10
180.393599294825
 20
88.38224304633097
 30
0.0
 10
180.4081067596233
 20
88.35573578160306
 30
0.0
 10
180.4260363127411
 20
88.32317992645791
 30
0.0
 10
180.4320191181089
 20
88.31231655782655
 30
0.0
  0
SPLINE
  5
193
330
1F
100
AcDbEntity
  8
0
  6
Continuous
 62
     7
370
    25
100
AcDbSpline
210
0.0
220
0.0
230
1.0
 70
     8
 71
     3
 72
    10
 73
     6
 74
     0
 42
0.00000001
 43
0.00000001
 40
0.0
 40
0.0
 40
0.0
 40
0.0
 40
0.1593935212994522
 40
0.7189934545690309
 40
1.0
 40
1.0
 40
1.0
 40
1.0
 10
176.3216989182067
 20
88.374608637293
 30
0.0
 10
176.3224604452042
 20
88.37599855611961
 30
0.0
 10
176.3258955467201
 20
88.38226821206655
 30
0.0
 10
176.3114009242536
 20
88.35578427024275
 30
0.0
 10
176.2934595537609
 20
88.32320686619587
 30
0.0
 10
176.2874619286293
 20
88.31231655782653
 30
0.0
  0
LINE
  5
194
330
1F
100
AcDbEntity
  8
0
  6
Continuous
 62
     7
370
    25
100
AcDbLine
 10
175.6097405234
 20
87.1416995489
 30
0.0
 11
175.6097405234
 21
86.0029154811
 31
0.0
  0
SPLINE
  5
195
330
1F
100
AcDbEntity
  8
0
  6
Continuous
 62
     7
370
    25
100
AcDbSpline
210
0.0
220
0.0
230
1.0
 70
     8
 71
     3
 72
     9
 73
     5
 74
     0
 42
0.00000001
 43
0.00000001
 40
0.0
 40
0.0
 40
0.0
 40
0.0
 40
0.5797912171256431
 40
1.0
 40
1.0
 40
1.0
 40
1.0
 10
193.7874619286293
 20
88.31231655782653
 30
0.0
 10
193.7998205319757
 20
88.33479020606767
 30
0.0
 10
193.8211361417702
 20
88.37355182848849
 30
0.0
 10
193.8215270842729
 20
88.37428623324669
 30
0.0
 10
193.8216913617462
 20
88.37459483657628
 30
0.0
  0
SPLINE
  5
196
330
1F
100
AcDbEntity
  8
0
  6
Continuous
 62
     7
370
    25
100
AcDbSpline
210
0.0
220
0.0
230
1.0
 70
     8
 71
     3
 72
     9
 73
     5
 74
     0
 42
0.00000001
 43
0.00000001
 40
0.0
 40
0.0
 40
0.0
 40
0.0
 40
0.5789479223911498
 40
1.0
 40
1.0
 40
1.0
 40
1.0
 10
196.7803575322953
 20
67.31942095416049
 30
0.0
 10
196.802798899488
 20
67.3317618444749
 30
0.0
 10
196.8415612239125
 20
67.3530779073488
 30
0.0
 10
196.8423271267716
 20
67.3534860812632
 30
0.0
 10
196.8426496117617
 20
67.35365794373787
 30
0.0
  0
LINE
  5
197
330
1F
100
AcDbEntity
  8
0
  6
Continuous
 62
     7
370
    25
100
AcDbLine
 10
194.4709564555
 20
66.6416995489
 30
0.0
 11
195.6097405234
 21
66.6416995489
 31
0.0
  0
SPLINE
  5
198
330
1F
100
AcDbEntity
  8
0
  6
Continuous
 62
     7
370
    25
100
AcDbSpline
210
0.0
220
0.0
230
1.0
 70
     8
 71
     3
 72
     9
 73
     5
 74
     0
 42
0.00000001
 43
0.00000001
 40
0.0
 40
0.0
 40
0.0
 40
0.0
 40
0.5789479223839474
 40
0.9999999999999999
 40
0.9999999999999999
 40
0.9999999999999999
 40
0.9999999999999999
 10
176.2874619286293
 20
68.97108253997405
 30
0.0
 10
176.2998028189436
 20
68.94864117278168
 30
0.0
 10
176.3211188818175
 20
68.90987884835714
 30
0.0
 10
176.321527055732
 20
68.90911294549777
 30
0.0
 10
176.3216989182067
 20
68.90879046050759
 30
0.0
  0
LINE
  5
199
330
1F
100
AcDbEntity
  8
0
  6
Continuous
 62
     7
370
    25
100
AcDbLine
 10
175.6097405234
 20
71.2804836167
 30
0.0
 11
175.6097405234
 21
70.1416995489
 31
0.0
  0
SPLINE
  5
19A
330
1F
100
AcDbEntity
  8
0
  6
Continuous
 62
     7
370
    25
100
AcDbSpline
210
0.0
220
0.0
230
1.0
 70
     8
 71
     3
 72
    10
 73
     6
 74
     0
 42
0.00000001
 43
0.00000001
 40
0.0
 40
0.0
 40
0.0
 40
0.0
 40
0.1593935213061655
 40
0.7189934545756295
 40
1.0
 40
1.0
 40
1.0
 40
1.0
 10
177.3768314349765
 20
67.35365794373787
 30
0.0
 10
177.3754415161499
 20
67.35441947073532
 30
0.0
 10
177.3691718602031
 20
67.35785457225118
 30
0.0
 10
177.3956558020271
 20
67.34335994978458
 30
0.0
 10
177.4282332060738
 20
67.32541857929198
 30
0.0
 10
177.4391235144429
 20
67.31942095416049
 30
0.0
  0
LINE
  5
19B
330
1F
100
AcDbEntity
  8
0
  6
Continuous
 62
     7
370
    25
100
AcDbLine
 10
178.6097405234
 20
66.6416995489
 30
0.0
 11
179.7485245912
 21
66.6416995489
 31
0.0
  0
LINE
  5
19C
330
1F
100
AcDbEntity
  8
0
  6
Continuous
 62
     7
370
    25
100
AcDbLine
 10
196.8473448304
 20
68.9040952419
 30
0.0
 11
196.7803575323
 21
68.97108254
 31
0.0
  0
LINE
  5
19D
330
1F
100
AcDbEntity
  8
0
  6
Continuous
 62
     7
370
    25
100
AcDbLine
 10
177.4391235144
 20
68.97108254
 30
0.0
 11
177.3721362163
 21
68.9040952419
 31
0.0
  0
LINE
  5
19E
330
1F
100
AcDbEntity
  8
0
  6
Continuous
 62
     7
370
    25
100
AcDbLine
 10
131.1377205651
 20
78.0794718233
 30
0.0
 11
131.1377205651
 21
75.2082504259
 31
0.0
  0
LINE
  5
19F
330
1F
100
AcDbEntity
  8
0
  6
Continuous
 62
     7
370
    25
100
AcDbLine
 10
131.1377205651
 20
82.0751486719
 30
0.0
 11
131.1377205651
 21
78.0794718233
 31
0.0
  0
LINE
  5
1A0
330
1F
100
AcDbEntity
  8
0
  6
Continuous
 62
     7
370
    25
100
AcDbLine
 10
169.1316126009
 20
70.7916995489
 30
0.0
 11
169.1316126009
 21
86.4916995489
 31
0.0
  0
LINE
  5
1A1
330
1F
100
AcDbEntity
  8
0
  6
Continuous
 62
     7
370
    25
100
AcDbLine
 10
156.7316126009
 20
78.6416995489
 30
0.0
 11
156.7316126009
 21
70.7916995489
 31
0.0
  0
LINE
  5
1A2
330
1F
100
AcDbEntity
  8
0
  6
Continuous
 62
     7
370
    25
100
AcDbLine
 10
156.7316126009
 20
86.4916995489
 30
0.0
 11
156.7316126009
 21
78.6416995489
 31
0.0
  0
SPLINE
  5
1A3
330
1F
100
AcDbEntity
  8
0
  6
Continuous
 62
     7
370
    25
100
AcDbSpline
210
0.0
220
0.0
230
1.0
 70
     8
 71
     3
 72
    30
 73
    26
 74
     0
 42
0.00000001
 43
0.00000001
 40
0.0
 40
0.0
 40
0.0
 40
0.0
 40
0.0110312660349472
 40
0.0532775966557535
 40
0.0955510658762007
 40
0.1522052900752524
 40
0.2089591849931276
 40
0.2161886814139207
 40
0.2769247001993664
 40
0.3376599452269796
 40
0.3847633881663814
 40
0.4317720750128258
 40
0.4687707990034732
 40
0.5057307833876435
 40
0.5426486892413234
 40
0.5796156723590665
 40
0.629150719041233
 40
0.6787775173188375
 40
0.731813086469481
 40
0.784839972228295
 40
0.8294788431838606
 40
0.8740829140692338
 40
0.9165632233039452
 40
0.9590085241044983
 40
1.0
 40
1.0
 40
1.0
 40
1.0
 10
181.2097405233691
 20
88.1416995489003
 30
0.0
 10
181.2105645707153
 20
88.14100171700258
 30
0.0
 10
181.2145444640475
 20
88.137631405176
 30
0.0
 10
181.2853261729768
 20
88.07728176157066
 30
0.0
 10
181.506614903076
 20
87.89175166591275
 30
0.0
 10
181.8971779184726
 20
87.57120572097111
 30
0.0
 10
182.3004200045588
 20
87.25752881743077
 30
0.0
 10
182.7672342436476
 20
86.91113952954085
 30
0.0
 10
183.3028620777257
 20
86.53071458253741
 30
0.0
 10
184.1186124557282
 20
86.03269103227674
 30
0.0
 10
184.9601722614926
 20
85.62057315920293
 30
0.0
 10
185.7435791801193
 20
85.34357404298787
 30
0.0
 10
186.5165640572241
 20
85.19215689052596
 30
0.0
 10
187.2471543614996
 20
85.15400741999042
 30
0.0
 10
187.9718768239565
 20
85.23333931642992
 30
0.0
 10
188.7452464136689
 20
85.42584249968492
 30
0.0
 10
189.5356413823968
 20
85.74300209258558
 30
0.0
 10
190.3324453391627
 20
86.16828013128742
 30
0.0
 10
191.0598147897241
 20
86.63074282473761
 30
0.0
 10
191.674012229244
 20
87.07114909630516
 30
0.0
 10
192.1674970590163
 20
87.4496307855363
 30
0.0
 10
192.5424714854552
 20
87.75132225343123
 30
0.0
 10
192.8129951739888
 20
87.9751949981465
 30
0.0
 10
192.9841707806283
 20
88.11998367834143
 30
0.0
 10
192.9995824781161
 20
88.13299941237457
 30
0.0
 10
193.0071540580727
 20
88.13939388456069
 30
0.0
  0
LINE
  5
1A4
330
1F
100
AcDbEntity
  8
0
  6
Continuous
 62
     7
370
    18
100
AcDbLine
 10
181.0434905234
 20
66.1416995489
 30
0.0
 11
181.3602022195
 21
56.0069252715
 31
0.0
  0
LINE
  5
1A5
330
1F
100
AcDbEntity
  8
0
  6
Continuous
 62
     7
370
    18
100
AcDbLine
 10
192.8592788272
 20
56.0069252715
 30
0.0
 11
193.1759905234
 21
66.1416995489
 31
0.0
  0
LINE
  5
1A6
330
1F
100
AcDbEntity
  8
0
  6
Continuous
 62
     7
370
    18
100
AcDbLine
 10
171.6097405234
 20
84.3641995489
 30
0.0
 11
169.4316126009
 21
84.3641995489
 31
0.0
  0
LINE
  5
1A7
330
1F
100
AcDbEntity
  8
0
  6
Continuous
 62
     7
370
    18
100
AcDbLine
 10
169.4316126009
 20
72.9191995489
 30
0.0
 11
171.6097405234
 21
72.9191995489
 31
0.0
  0
LINE
  5
1A8
330
1F
100
AcDbEntity
  8
0
  6
Continuous
 62
     7
370
    25
100
AcDbLine
 10
171.6097405234
 20
85.2201995489
 30
0.0
 11
171.6097405234
 21
85.2090697681
 31
0.0
  0
SPLINE
  5
1A9
330
1F
100
AcDbEntity
  8
0
  6
Continuous
 62
     7
370
     0
100
AcDbSpline
210
0.0
220
0.0
230
1.0
 70
     8
 71
     3
 72
    34
 73
    30
 74
     0
 42
0.00000001
 43
0.00000001
 40
0.0
 40
0.0
 40
0.0
 40
0.0
 40
0.037735548033918
 40
0.075471095742847
 40
0.1132066434517761
 40
0.1509421911607049
 40
0.1886777388696342
 40
0.2264132865785628
 40
0.2641488342874923
 40
0.3018843819964212
 40
0.3396199297053498
 40
0.3773554774142789
 40
0.4150910251232079
 40
0.452826572832137
 40
0.4905621205410657
 40
0.5282976682499951
 40
0.5660332159589236
 40
0.6037687636678528
 40
0.6415043113767821
 40
0.679239859085711
 40
0.7169754067946401
 40
0.7547109545035688
 40
0.7924465022124978
 40
0.830182049921427
 40
0.8679175976303559
 40
0.9056531453392848
 40
0.9433886930482138
 40
0.9811242407571427
 40
1.0
 40
1.0
 40
1.0
 40
1.0
 10
171.60964012146
 20
85.20906976808783
 30
0.0
 10
171.6097405233691
 20
85.1202573520911
 30
0.0
 10
171.6097405233691
 20
84.94383355566774
 30
0.0
 10
171.6097405233691
 20
84.68218420801216
 30
0.0
 10
171.6097405233691
 20
84.33884766769621
 30
0.0
 10
171.6097405233691
 20
83.91846697243932
 30
0.0
 10
171.6097405233691
 20
83.42672704998857
 30
0.0
 10
171.6097405233691
 20
82.87027783922315
 30
0.0
 10
171.6097405233691
 20
82.25664436113905
 30
0.0
 10
171.6097405233691
 20
81.594124955849
 30
0.0
 10
171.6097405233691
 20
80.89167906176817
 30
0.0
 10
171.6097405233691
 20
80.1588060545794
 30
0.0
 10
171.6097405233691
 20
79.40541678447308
 30
0.0
 10
171.6097405233691
 20
78.64169954890025
 30
0.0
 10
171.6097405233691
 20
77.87798231332742
 30
0.0
 10
171.6097405233691
 20
77.12459304322111
 30
0.0
 10
171.6097405233691
 20
76.39172003603234
 30
0.0
 10
171.6097405233691
 20
75.6892741419515
 30
0.0
 10
171.6097405233691
 20
75.02675473666146
 30
0.0
 10
171.6097405233691
 20
74.41312125857735
 30
0.0
 10
171.6097405233691
 20
73.85667204781195
 30
0.0
 10
171.6097405233691
 20
73.36493212536122
 30
0.0
 10
171.6097405233691
 20
72.94455143010434
 30
0.0
 10
171.6097405233691
 20
72.6012148897884
 30
0.0
 10
171.6097405233691
 20
72.33956554213285
 30
0.0
 10
171.6097405233691
 20
72.16314174570948
 30
0.0
 10
171.6097405233691
 20
72.07432932971277
 30
0.0
 10
171.6097405233691
 20
72.0631995489003
 30
0.0
 10
171.6097405233691
 20
72.06544581980403
 30
0.0
 10
171.6097405233691
 20
72.0631995489003
 30
0.0
  0
LINE
  5
1AA
330
1F
100
AcDbEntity
  8
0
  6
CENTERX2
 62
     7
370
    18
100
AcDbLine
 10
200.0683269089
 20
78.6416995489
 30
0.0
 11
128.4316126009
 21
78.6416995489
 31
0.0
  0
LINE
  5
1AB
330
1F
100
AcDbEntity
  8
0
  6
CENTERX2
 62
     7
370
    18
100
AcDbLine
 10
187.1097405234
 20
53.6794739434
 30
0.0
 11
187.1097405234
 21
107.6777912055
 31
0.0
  0
ARC
  5
1AC
330
1F
100
AcDbEntity
  8
0
  6
Continuous
 62
     7
370
    25
100
AcDbCircle
 10
236.4055933091
 20
105.7416995489
 30
0.0
 40
0.25
100
AcDbArc
 50
90.0
 51
180.0
  0
ARC
  5
1AD
330
1F
100
AcDbEntity
  8
0
  6
Continuous
 62
     7
370
    25
100
AcDbCircle
 10
246.9055933091
 20
105.7416995489
 30
0.0
 40
0.25
100
AcDbArc
 50
0.0
 51
90.0
  0
LINE
  5
1AE
330
1F
100
AcDbEntity
  8
0
  6
Continuous
 62
     7
370
    25
100
AcDbLine
 10
236.1555933091
 20
105.7416995489
 30
0.0
 11
236.1555933091
 21
105.1416995489
 31
0.0
  0
LINE
  5
1AF
330
1F
100
AcDbEntity
  8
0
  6
Continuous
 62
     7
370
    25
100
AcDbLine
 10
247.1555933091
 20
105.1416995489
 30
0.0
 11
247.1555933091
 21
105.7416995489
 31
0.0
  0
LINE
  5
1B0
330
1F
100
AcDbEntity
  8
0
  6
Continuous
 62
     7
370
    25
100
AcDbLine
 10
249.1055933091
 20
97.1416995489
 30
0.0
 11
247.1555933091
 21
105.1416995489
 31
0.0
  0
LINE
  5
1B1
330
1F
100
AcDbEntity
  8
0
  6
Continuous
 62
     7
370
    25
100
AcDbLine
 10
236.1555933091
 20
105.1416995489
 30
0.0
 11
234.2055933091
 21
97.1416995489
 31
0.0
  0
LINE
  5
1B2
330
1F
100
AcDbEntity
  8
0
  6
Continuous
 62
     7
370
    25
100
AcDbLine
 10
234.2055933091
 20
97.1416995489
 30
0.0
 11
234.6555933091
 21
89.1416995489
 31
0.0
  0
LINE
  5
1B3
330
1F
100
AcDbEntity
  8
0
  6
Continuous
 62
     7
370
    25
100
AcDbLine
 10
248.6555933091
 20
89.1416995489
 30
0.0
 11
249.1055933091
 21
97.1416995489
 31
0.0
  0
LINE
  5
1B4
330
1F
100
AcDbEntity
  8
0
  6
Continuous
 62
     7
370
    25
100
AcDbLine
 10
234.8974058091
 20
66.6416995489
 30
0.0
 11
235.1910412505
 21
57.2453654228
 31
0.0
  0
LINE
  5
1B5
330
1F
100
AcDbEntity
  8
0
  6
Continuous
 62
     7
370
    25
100
AcDbLine
 10
248.1201453676
 20
57.2453654228
 30
0.0
 11
248.4137808091
 21
66.6416995489
 31
0.0
  0
LINE
  5
1B6
330
1F
100
AcDbEntity
  8
0
  6
Continuous
 62
     7
370
    25
100
AcDbLine
 10
235.1910412505
 20
57.2453654228
 30
0.0
 11
236.4055933091
 21
55.1416995489
 31
0.0
  0
LINE
  5
1B7
330
1F
100
AcDbEntity
  8
0
  6
Continuous
 62
     7
370
    25
100
AcDbLine
 10
246.9055933091
 20
55.1416995489
 30
0.0
 11
248.1201453676
 21
57.2453654228
 31
0.0
  0
LINE
  5
1B8
330
1F
100
AcDbEntity
  8
0
  6
Continuous
 62
     7
370
    25
100
AcDbLine
 10
247.5555933091
 20
85.1802282128
 30
0.0
 11
247.5555933091
 21
89.1416995489
 31
0.0
  0
LINE
  5
1B9
330
1F
100
AcDbEntity
  8
0
  6
Continuous
 62
     7
370
    25
100
AcDbLine
 10
235.7555933091
 20
89.1416995489
 30
0.0
 11
235.7555933091
 21
85.1749258021
 31
0.0
  0
CIRCLE
  5
1BA
330
1F
100
AcDbEntity
  8
0
  6
Continuous
 62
     7
370
    25
100
AcDbCircle
 10
241.6555933091
 20
78.6416995489
 30
0.0
 40
3.433449123032061
  0
CIRCLE
  5
1BB
330
1F
100
AcDbEntity
  8
0
  6
Continuous
 62
     7
370
    25
100
AcDbCircle
 10
241.6555933091
 20
78.6416995489
 30
0.0
 40
2.638978050180542
  0
CIRCLE
  5
1BC
330
1F
100
AcDbEntity
  8
0
  6
Continuous
 62
     7
370
    25
100
AcDbCircle
 10
241.6555933091
 20
78.6416995489
 30
0.0
 40
2.449999999999974
  0
CIRCLE
  5
1BD
330
1F
100
AcDbEntity
  8
0
  6
Continuous
 62
     7
370
    25
100
AcDbCircle
 10
241.6555933091
 20
78.6416995489
 30
0.0
 40
2.249999999999999
  0
CIRCLE
  5
1BE
330
1F
100
AcDbEntity
  8
0
  6
Continuous
 62
     7
370
    25
100
AcDbCircle
 10
241.6555933091
 20
78.6416995489
 30
0.0
 40
3.999999999999999
  0
CIRCLE
  5
1BF
330
1F
100
AcDbEntity
  8
0
  6
Continuous
 62
     7
370
    25
100
AcDbCircle
 10
241.6555933091
 20
78.6416995489
 30
0.0
 40
4.499999999999995
  0
CIRCLE
  5
1C0
330
1F
100
AcDbEntity
  8
0
  6
Continuous
 62
     7
370
    25
100
AcDbCircle
 10
241.6555933091
 20
78.6416995489
 30
0.0
 40
7.849999999999994
  0
CIRCLE
  5
1C1
330
1F
100
AcDbEntity
  8
0
  6
Continuous
 62
     7
370
    25
100
AcDbCircle
 10
241.6555933091
 20
78.6416995489
 30
0.0
 40
7.550000000000011
  0
CIRCLE
  5
1C2
330
1F
100
AcDbEntity
  8
0
  6
Continuous
 62
     7
370
    25
100
AcDbCircle
 10
241.6555933091
 20
78.6416995489
 30
0.0
 40
4.849999999999994
  0
CIRCLE
  5
1C3
330
1F
100
AcDbEntity
  8
0
  6
Continuous
 62
     7
370
    25
100
AcDbCircle
 10
241.6555933091
 20
78.6416995489
 30
0.0
 40
4.75
  0
SPLINE
  5
1C4
330
1F
100
AcDbEntity
  8
0
  6
Continuous
 62
     7
370
    25
100
AcDbSpline
210
0.0
220
0.0
230
1.0
 70
    24
 71
     3
 72
    12
 73
     8
 74
     0
 42
0.00000001
 43
0.00000001
 40
0.0
 40
0.0
 40
0.0
 40
0.0
 40
0.2645357324841802
 40
0.3998137210612399
 40
0.5350672982154645
 40
0.7654034360362928
 40
1.0
 40
1.0
 40
1.0
 40
1.0
 10
233.6555933090632
 20
83.2605017024174
 30
0.0
 10
234.3498592334467
 20
83.66133632074938
 30
0.0
 10
235.3991580938582
 20
84.26714930026837
 30
0.0
 10
236.8415124950191
 20
85.09989300204542
 30
0.0
 10
238.197444684091
 20
85.88274081640893
 30
0.0
 10
239.8220559675007
 20
86.82071057821406
 30
0.0
 10
241.0406918584861
 20
87.52429033791857
 30
0.0
 10
241.6555933090631
 20
87.87930385593431
 30
0.0
  0
SPLINE
  5
1C5
330
1F
100
AcDbEntity
  8
0
  6
Continuous
 62
     7
370
    25
100
AcDbSpline
210
0.0
220
0.0
230
1.0
 70
    24
 71
     3
 72
    12
 73
     8
 74
     0
 42
0.00000001
 43
0.00000001
 40
0.0
 40
0.0
 40
0.0
 40
0.0
 40
0.2645357324841768
 40
0.3998137210612349
 40
0.5350672982154578
 40
0.7654034360362892
 40
1.0
 40
1.0
 40
1.0
 40
1.0
 10
241.6555933090631
 20
87.87930385593431
 30
0.0
 10
242.3498592334466
 20
87.47846923760231
 30
0.0
 10
243.3991580938582
 20
86.87265625808334
 30
0.0
 10
244.841512495019
 20
86.03991255630628
 30
0.0
 10
246.1974446840909
 20
85.25706474194276
 30
0.0
 10
247.8220559675007
 20
84.31909498013759
 30
0.0
 10
249.0406918584861
 20
83.61551522043305
 30
0.0
 10
249.6555933090631
 20
83.26050170241729
 30
0.0
  0
SPLINE
  5
1C6
330
1F
100
AcDbEntity
  8
0
  6
Continuous
 62
     7
370
    25
100
AcDbSpline
210
0.0
220
0.0
230
1.0
 70
    24
 71
     3
 72
    13
 73
     9
 74
     0
 42
0.00000001
 43
0.00000001
 40
0.0
 40
0.0
 40
0.0
 40
0.0
 40
0.1912580406961239
 40
0.3843458819554667
 40
0.6360717224482983
 40
0.7654026222191218
 40
0.8947699173407201
 40
0.9999999999999999
 40
0.9999999999999999
 40
0.9999999999999999
 40
0.9999999999999999
 10
249.6555933090631
 20
83.26050170241729
 30
0.0
 10
249.6555933090631
 20
82.6824926522906
 30
0.0
 10
249.6555933090631
 20
81.52094463401853
 30
0.0
 10
249.6555933090631
 20
79.5468075658983
 30
0.0
 10
249.6555933090631
 20
77.74353303494932
 30
0.0
 10
249.6555933090631
 20
76.16165203387261
 30
0.0
 10
249.6555933090631
 20
75.04669261069999
 30
0.0
 10
249.6555933090631
 20
74.33992314425716
 30
0.0
 10
249.6555933090631
 20
74.02289739538324
 30
0.0
  0
SPLINE
  5
1C7
330
1F
100
AcDbEntity
  8
0
  6
Continuous
 62
     7
370
    25
100
AcDbSpline
210
0.0
220
0.0
230
1.0
 70
    24
 71
     3
 72
    12
 73
     8
 74
     0
 42
0.00000001
 43
0.00000001
 40
0.0
 40
0.0
 40
0.0
 40
0.0
 40
0.2645357324841768
 40
0.3998137210612349
 40
0.535067298215458
 40
0.7654034360362891
 40
1.0
 40
1.0
 40
1.0
 40
1.0
 10
249.6555933090631
 20
74.02289739538324
 30
0.0
 10
248.9613273846796
 20
73.62206277705126
 30
0.0
 10
247.912028524268
 20
73.01624979753228
 30
0.0
 10
246.4696741231072
 20
72.18350609575523
 30
0.0
 10
245.1137419340353
 20
71.40065828139173
 30
0.0
 10
243.4891306506255
 20
70.46268851958656
 30
0.0
 10
242.2704947596401
 20
69.75910875988204
 30
0.0
 10
241.6555933090631
 20
69.40409524186627
 30
0.0
  0
SPLINE
  5
1C8
330
1F
100
AcDbEntity
  8
0
  6
Continuous
 62
     7
370
    25
100
AcDbSpline
210
0.0
220
0.0
230
1.0
 70
    24
 71
     3
 72
    12
 73
     8
 74
     0
 42
0.00000001
 43
0.00000001
 40
0.0
 40
0.0
 40
0.0
 40
0.0
 40
0.2645357324841768
 40
0.3998137210612349
 40
0.5350672982154578
 40
0.7654034360362891
 40
1.0
 40
1.0
 40
1.0
 40
1.0
 10
241.6555933090631
 20
69.40409524186627
 30
0.0
 10
240.9613273846796
 20
69.80492986019827
 30
0.0
 10
239.912028524268
 20
70.41074283971727
 30
0.0
 10
238.4696741231072
 20
71.24348654149435
 30
0.0
 10
237.1137419340353
 20
72.02633435585788
 30
0.0
 10
235.4891306506255
 20
72.96430411766303
 30
0.0
 10
234.2704947596401
 20
73.6678838773676
 30
0.0
 10
233.6555933090631
 20
74.02289739538335
 30
0.0
  0
SPLINE
  5
1C9
330
1F
100
AcDbEntity
  8
0
  6
Continuous
 62
     7
370
    25
100
AcDbSpline
210
0.0
220
0.0
230
1.0
 70
    24
 71
     3
 72
    13
 73
     9
 74
     0
 42
0.00000001
 43
0.00000001
 40
0.0
 40
0.0
 40
0.0
 40
0.0
 40
0.105223324965629
 40
0.3573016070345048
 40
0.486491217401796
 40
0.6156778809274955
 40
0.806749718209131
 40
1.0
 40
1.0
 40
1.0
 40
1.0
 10
233.6555933090631
 20
74.02289739538335
 30
0.0
 10
233.6555933090631
 20
74.33990819594294
 30
0.0
 10
233.6555933090631
 20
75.41636599200892
 30
0.0
 10
233.6555933090631
 20
76.92052693961057
 30
0.0
 10
233.6555933090631
 20
78.51513539251958
 30
0.0
 10
233.6555933090631
 20
79.92024042471142
 30
0.0
 10
233.6555933090631
 20
81.51492036321369
 30
0.0
 10
233.6555933090632
 20
82.67644663817656
 30
0.0
 10
233.6555933090632
 20
83.2605017024174
 30
0.0
  0
LINE
  5
1CA
330
1F
100
AcDbEntity
  8
0
  6
Continuous
 62
     7
370
    25
100
AcDbLine
 10
236.4055933091
 20
105.9916995489
 30
0.0
 11
238.1555933091
 21
105.9916995489
 31
0.0
  0
LINE
  5
1CB
330
1F
100
AcDbEntity
  8
0
  6
Continuous
 62
     7
370
    25
100
AcDbLine
 10
245.1555933091
 20
105.9916995489
 30
0.0
 11
246.9055933091
 21
105.9916995489
 31
0.0
  0
LINE
  5
1CC
330
1F
100
AcDbEntity
  8
0
  6
Continuous
 62
     7
370
    25
100
AcDbLine
 10
236.1555933091
 20
105.1416995489
 30
0.0
 11
238.1555933091
 21
105.1416995489
 31
0.0
  0
LINE
  5
1CD
330
1F
100
AcDbEntity
  8
0
  6
Continuous
 62
     7
370
    25
100
AcDbLine
 10
245.1555933091
 20
105.1416995489
 30
0.0
 11
247.1555933091
 21
105.1416995489
 31
0.0
  0
LINE
  5
1CE
330
1F
100
AcDbEntity
  8
0
  6
Continuous
 62
     7
370
    25
100
AcDbLine
 10
238.1555933091
 20
107.1416995489
 30
0.0
 11
245.1555933091
 21
107.1416995489
 31
0.0
  0
LINE
  5
1CF
330
1F
100
AcDbEntity
  8
0
  6
Continuous
 62
     7
370
    25
100
AcDbLine
 10
245.1555933091
 20
100.1416995489
 30
0.0
 11
245.1555933091
 21
107.1416995489
 31
0.0
  0
LINE
  5
1D0
330
1F
100
AcDbEntity
  8
0
  6
Continuous
 62
     7
370
    25
100
AcDbLine
 10
238.1555933091
 20
100.1416995489
 30
0.0
 11
245.1555933091
 21
100.1416995489
 31
0.0
  0
LINE
  5
1D1
330
1F
100
AcDbEntity
  8
0
  6
Continuous
 62
     7
370
    25
100
AcDbLine
 10
238.1555933091
 20
107.1416995489
 30
0.0
 11
238.1555933091
 21
100.1416995489
 31
0.0
  0
LINE
  5
1D2
330
1F
100
AcDbEntity
  8
0
  6
Continuous
 62
     7
370
    25
100
AcDbLine
 10
245.1555933091
 20
95.1416995489
 30
0.0
 11
238.1555933091
 21
95.1416995489
 31
0.0
  0
LINE
  5
1D3
330
1F
100
AcDbEntity
  8
0
  6
Continuous
 62
     7
370
    25
100
AcDbLine
 10
245.1555933091
 20
100.1416995489
 30
0.0
 11
245.1555933091
 21
95.1416995489
 31
0.0
  0
LINE
  5
1D4
330
1F
100
AcDbEntity
  8
0
  6
Continuous
 62
     7
370
    25
100
AcDbLine
 10
238.1555933091
 20
95.1416995489
 30
0.0
 11
238.1555933091
 21
100.1416995489
 31
0.0
  0
SPLINE
  5
1D5
330
1F
100
AcDbEntity
  8
0
  6
Continuous
 62
     7
370
    25
100
AcDbSpline
210
0.0
220
0.0
230
1.0
 70
     8
 71
     3
 72
     9
 73
     5
 74
     0
 42
0.00000001
 43
0.00000001
 40
0.0
 40
0.0
 40
0.0
 40
0.0
 40
0.4976931370791441
 40
0.9999999999999999
 40
0.9999999999999999
 40
0.9999999999999999
 40
0.9999999999999999
 10
245.1555933090631
 20
94.89387524187585
 30
0.0
 10
245.1722628222803
 20
94.7444283608754
 30
0.0
 10
245.2057563788019
 20
94.4441491931185
 30
0.0
 10
245.4290950624436
 20
93.86272706573108
 30
0.0
 10
245.5412796159925
 20
93.57067474089033
 30
0.0
  0
LINE
  5
1D6
330
1F
100
AcDbEntity
  8
0
  6
Continuous
 62
     7
370
    25
100
AcDbLine
 10
245.541279616
 20
93.5706747409
 30
0.0
 11
237.7699070021
 21
93.5706747409
 31
0.0
  0
SPLINE
  5
1D7
330
1F
100
AcDbEntity
  8
0
  6
Continuous
 62
     7
370
    25
100
AcDbSpline
210
0.0
220
0.0
230
1.0
 70
     8
 71
     3
 72
     9
 73
     5
 74
     0
 42
0.00000001
 43
0.00000001
 40
0.0
 40
0.0
 40
0.0
 40
0.0
 40
0.4977232396629077
 40
1.0
 40
1.0
 40
1.0
 40
1.0
 10
237.7699070021337
 20
93.57067474089033
 30
0.0
 10
237.8812036782477
 20
93.86026714151448
 30
0.0
 10
238.1048152503922
 20
94.44210133679995
 30
0.0
 10
238.1386159853909
 20
94.7428274859381
 30
0.0
 10
238.1555933090631
 20
94.89387524187585
 30
0.0
  0
LINE
  5
1D8
330
1F
100
AcDbEntity
  8
0
  6
Continuous
 62
     7
370
    25
100
AcDbLine
 10
245.1555933091
 20
95.1416995489
 30
0.0
 11
245.1555933091
 21
94.8938752419
 31
0.0
  0
LINE
  5
1D9
330
1F
100
AcDbEntity
  8
0
  6
Continuous
 62
     7
370
    25
100
AcDbLine
 10
238.1555933091
 20
94.8938752419
 30
0.0
 11
238.1555933091
 21
95.1416995489
 31
0.0
  0
SPLINE
  5
1DA
330
1F
100
AcDbEntity
  8
0
  6
Continuous
 62
     7
370
    25
100
AcDbSpline
210
0.0
220
0.0
230
1.0
 70
     8
 71
     3
 72
    16
 73
    12
 74
     0
 42
0.00000001
 43
0.00000001
 40
0.0
 40
0.0
 40
0.0
 40
0.0
 40
0.0155634360124117
 40
0.0359329243097674
 40
0.0739120889290614
 40
0.1570057548437684
 40
0.2406581385754913
 40
0.4592958294318596
 40
0.6783839187935417
 40
0.8974954344294845
 40
1.0
 40
1.0
 40
1.0
 40
1.0
 10
234.9958710868409
 20
89.14169954890039
 30
0.0
 10
235.0095647538542
 20
89.14689292067955
 30
0.0
 10
235.0411807479009
 20
89.15888339854733
 30
0.0
 10
235.0966604382109
 20
89.2772093225443
 30
0.0
 10
235.1752612487014
 20
89.58846062999325
 30
0.0
 10
235.2546014353305
 20
90.1141081313583
 30
0.0
 10
235.3598291434337
 20
91.15265429562845
 30
0.0
 10
235.4748225446529
 20
92.58772833797457
 30
0.0
 10
235.5772225450679
 20
94.425980439414
 30
0.0
 10
235.6469714249482
 20
95.94716328823345
 30
0.0
 10
235.686430044377
 20
96.85299532902997
 30
0.0
 10
235.69900618369
 20
97.14169954889792
 30
0.0
  0
LINE
  5
1DB
330
1F
100
AcDbEntity
  8
0
  6
Continuous
 62
     7
370
    25
100
AcDbLine
 10
235.6990061837
 20
97.1416995489
 30
0.0
 11
235.4788454684
 21
98.1364431269
 31
0.0
  0
LINE
  5
1DC
330
1F
100
AcDbEntity
  8
0
  6
Continuous
 62
     7
370
    25
100
AcDbLine
 10
235.4788454684
 20
98.1364431269
 30
0.0
 11
238.1555933091
 21
98.1364431269
 31
0.0
  0
ELLIPSE
  5
1DD
330
1F
100
AcDbEntity
  8
0
  6
Continuous
 62
     7
370
    25
100
AcDbEllipse
 10
173.1555933091
 20
95.4895739812
 30
0.0
 11
65.0
 21
0.0
 31
0.0
210
0.0
220
0.0
230
1.0
 40
0.2713992096
 41
6.084179739699224
 42
6.174194364446292
  0
SPLINE
  5
1DE
330
1F
100
AcDbEntity
  8
0
  6
Continuous
 62
     7
370
    25
100
AcDbSpline
210
0.0
220
0.0
230
1.0
 70
     8
 71
     3
 72
    13
 73
     9
 74
     0
 42
0.00000001
 43
0.00000001
 40
0.0
 40
0.0
 40
0.0
 40
0.0
 40
0.1610294006389558
 40
0.3266880383557516
 40
0.4877296220820637
 40
0.6535536198224136
 40
0.8237602734841889
 40
1.0
 40
1.0
 40
1.0
 40
1.0
 10
236.8727309789585
 20
92.00205330040745
 30
0.0
 10
236.8289272115262
 20
91.9326564058302
 30
0.0
 10
236.7400604157839
 20
91.79186761032166
 30
0.0
 10
236.6110403971119
 20
91.44574279261401
 30
0.0
 10
236.4900303013446
 20
91.00653614956197
 30
0.0
 10
236.3833493182199
 20
90.47293431262237
 30
0.0
 10
236.2926820308641
 20
89.84910800592269
 30
0.0
 10
236.2558632219674
 20
89.38022410772071
 30
0.0
 10
236.237133233196
 20
89.14169954890029
 30
0.0
  0
LINE
  5
1DF
330
1F
100
AcDbEntity
  8
0
  6
Continuous
 62
     7
370
    25
100
AcDbLine
 10
236.2371332332
 20
89.1416995489
 30
0.0
 11
234.9958710868
 21
89.1416995489
 31
0.0
  0
SPLINE
  5
1E0
330
1F
100
AcDbEntity
  8
0
  6
Continuous
 62
     7
370
    25
100
AcDbSpline
210
0.0
220
0.0
230
1.0
 70
     8
 71
     3
 72
    17
 73
    13
 74
     0
 42
0.00000001
 43
0.00000001
 40
0.0
 40
0.0
 40
0.0
 40
0.0
 40
0.3241697628029873
 40
0.5422758463620719
 40
0.689509052693928
 40
0.7894036290694505
 40
0.8577090008137825
 40
0.9049823971474137
 40
0.9551712229700868
 40
0.9753097783197817
 40
0.9919572060138848
 40
1.0
 40
1.0
 40
1.0
 40
1.0
 10
247.6121804344362
 20
97.14169954889792
 30
0.0
 10
247.6528308731629
 20
96.22908604629225
 30
0.0
 10
247.7208315123186
 20
94.70245304003092
 30
0.0
 10
247.832264411635
 20
92.77568013774993
 30
0.0
 10
247.9247690716935
 20
91.48804466681717
 30
0.0
 10
248.0026705280109
 20
90.62889270009543
 30
0.0
 10
248.0687230274332
 20
90.05542481171803
 30
0.0
 10
248.1320796347957
 20
89.63389265768807
 30
0.0
 10
248.1902061024896
 20
89.35340011489264
 30
0.0
 10
248.2495479308123
 20
89.19785144631197
 30
0.0
 10
248.2865539994351
 20
89.14724084711446
 30
0.0
 10
248.3082485663056
 20
89.14306109530982
 30
0.0
 10
248.3153155312853
 20
89.14169954890036
 30
0.0
  0
LINE
  5
1E1
330
1F
100
AcDbEntity
  8
0
  6
Continuous
 62
     7
370
    25
100
AcDbLine
 10
248.3153155313
 20
89.1416995489
 30
0.0
 11
247.0740533849
 21
89.1416995489
 31
0.0
  0
SPLINE
  5
1E2
330
1F
100
AcDbEntity
  8
0
  6
Continuous
 62
     7
370
    25
100
AcDbSpline
210
0.0
220
0.0
230
1.0
 70
     8
 71
     3
 72
    14
 73
    10
 74
     0
 42
0.00000001
 43
0.00000001
 40
0.0
 40
0.0
 40
0.0
 40
0.0
 40
0.1576095309202822
 40
0.3152382602707094
 40
0.4726926441579498
 40
0.6301650083177254
 40
0.7907313191165901
 40
0.9513050385928076
 40
1.0
 40
1.0
 40
1.0
 40
1.0
 10
247.0740533849302
 20
89.14169954890029
 30
0.0
 10
247.0575480480877
 20
89.3552013373777
 30
0.0
 10
247.0245353638864
 20
89.7822309210032
 30
0.0
 10
246.9447316739745
 20
90.36747799985952
 30
0.0
 10
246.8469442664882
 20
90.88963254068194
 30
0.0
 10
246.7333544268063
 20
91.33861066810181
 30
0.0
 10
246.6088123277745
 20
91.6978923999082
 30
0.0
 10
246.5084549869981
 20
91.90245857900938
 30
0.0
 10
246.451669189383
 20
91.98325312736068
 30
0.0
 10
246.4384556391676
 20
92.00205330040745
 30
0.0
  0
ELLIPSE
  5
1E3
330
1F
100
AcDbEntity
  8
0
  6
Continuous
 62
     7
370
    25
100
AcDbEllipse
 10
310.1555933091
 20
95.4895739812
 30
0.0
 11
65.0
 21
0.0
 31
0.0
210
0.0
220
0.0
230
1.0
 40
0.2713992096
 41
3.25058359632319
 42
3.340598221070255
  0
LINE
  5
1E4
330
1F
100
AcDbEntity
  8
0
  6
Continuous
 62
     7
370
    25
100
AcDbLine
 10
247.8323411497
 20
98.1364431269
 30
0.0
 11
247.6121804344
 21
97.1416995489
 31
0.0
  0
LINE
  5
1E5
330
1F
100
AcDbEntity
  8
0
  6
Continuous
 62
     7
370
    25
100
AcDbLine
 10
245.1555933091
 20
98.1364431269
 30
0.0
 11
247.8323411497
 21
98.1364431269
 31
0.0
  0
LINE
  5
1E6
330
1F
100
AcDbEntity
  8
0
  6
Continuous
 62
     7
370
    25
100
AcDbLine
 10
236.872730979
 20
92.0020533004
 30
0.0
 11
246.4384556392
 21
92.0020533004
 31
0.0
  0
SPLINE
  5
1E7
330
1F
100
AcDbEntity
  8
0
  6
Continuous
 62
     7
370
    25
100
AcDbSpline
210
0.0
220
0.0
230
1.0
 70
     8
 71
     3
 72
    15
 73
    11
 74
     0
 42
0.00000001
 43
0.00000001
 40
0.0
 40
0.0
 40
0.0
 40
0.0
 40
0.108302867318557
 40
0.2410753171544203
 40
0.4144372864330101
 40
0.5908932123492212
 40
0.6903297377178795
 40
0.7895984437307898
 40
0.9112454994513551
 40
0.9999999999999999
 40
0.9999999999999999
 40
0.9999999999999999
 40
0.9999999999999999
 10
244.2536695204165
 20
89.14169954890029
 30
0.0
 10
244.1355099569536
 20
89.32474092892654
 30
0.0
 10
243.8724942590141
 20
89.73217943757119
 30
0.0
 10
243.1461540710217
 20
90.16745958731906
 30
0.0
 10
242.1843457379573
 20
90.41365456786721
 30
0.0
 10
241.2437574066021
 20
90.40868247781299
 30
0.0
 10
240.4897858625254
 20
90.25410755456532
 30
0.0
 10
239.8894103378101
 20
90.01351998495852
 30
0.0
 10
239.3727560235795
 20
89.65309050203601
 30
0.0
 10
239.1510431112449
 20
89.29342052394406
 30
0.0
 10
239.0575170977098
 20
89.14169954890029
 30
0.0
  0
LINE
  5
1E8
330
1F
100
AcDbEntity
  8
0
  6
Continuous
 62
     7
370
    25
100
AcDbLine
 10
239.0575170977
 20
89.1416995489
 30
0.0
 11
236.2371332332
 21
89.1416995489
 31
0.0
  0
LINE
  5
1E9
330
1F
100
AcDbEntity
  8
0
  6
Continuous
 62
     7
370
    25
100
AcDbLine
 10
247.0740533849
 20
89.1416995489
 30
0.0
 11
244.2536695204
 21
89.1416995489
 31
0.0
  0
LINE
  5
1EA
330
1F
100
AcDbEntity
  8
0
  6
Continuous
 62
     7
370
    25
100
AcDbLine
 10
244.2536695204
 20
89.1416995489
 30
0.0
 11
239.0575170977
 21
89.1416995489
 31
0.0
  0
LINE
  5
1EB
330
1F
100
AcDbEntity
  8
0
  6
Continuous
 62
     7
370
    25
100
AcDbLine
 10
247.6121804344
 20
97.1416995489
 30
0.0
 11
249.1055933091
 21
97.1416995489
 31
0.0
  0
LINE
  5
1EC
330
1F
100
AcDbEntity
  8
0
  6
Continuous
 62
     7
370
    25
100
AcDbLine
 10
234.2055933091
 20
97.1416995489
 30
0.0
 11
235.6990061837
 21
97.1416995489
 31
0.0
  0
SPLINE
  5
1ED
330
1F
100
AcDbEntity
  8
0
  6
Continuous
 62
     7
370
    25
100
AcDbSpline
210
0.0
220
0.0
230
1.0
 70
     8
 71
     3
 72
     9
 73
     5
 74
     0
 42
0.00000001
 43
0.00000001
 40
0.0
 40
0.0
 40
0.0
 40
0.0
 40
0.4875141023677128
 40
0.9999999999999999
 40
0.9999999999999999
 40
0.9999999999999999
 40
0.9999999999999999
 10
248.3153155312853
 20
89.14169954890036
 30
0.0
 10
248.3238416428211
 20
89.14342689487206
 30
0.0
 10
248.3413305964624
 20
89.14697006616353
 30
0.0
 10
248.3576523003488
 20
89.16848855211285
 30
0.0
 10
248.3660169434159
 20
89.17951647270029
 30
0.0
  0
SPLINE
  5
1EE
330
1F
100
AcDbEntity
  8
0
  6
Continuous
 62
     7
370
    25
100
AcDbSpline
210
0.0
220
0.0
230
1.0
 70
     8
 71
     3
 72
     9
 73
     5
 74
     0
 42
0.00000001
 43
0.00000001
 40
0.0
 40
0.0
 40
0.0
 40
0.0
 40
0.5124861829376838
 40
0.9999999999999999
 40
0.9999999999999999
 40
0.9999999999999999
 40
0.9999999999999999
 10
234.9451697055765
 20
89.17951642684051
 30
0.0
 10
234.9535343487002
 20
89.16848851388934
 30
0.0
 10
234.9698560436104
 20
89.14697005481993
 30
0.0
 10
234.9873449858522
 20
89.14342689047477
 30
0.0
 10
234.9958710868409
 20
89.14169954890039
 30
0.0
  0
LINE
  5
1EF
330
1F
100
AcDbEntity
  8
0
  6
Continuous
 62
     7
370
    25
100
AcDbLine
 10
248.3637972416
 20
89.1416995489
 30
0.0
 11
248.6555933091
 21
89.1416995489
 31
0.0
  0
LINE
  5
1F0
330
1F
100
AcDbEntity
  8
0
  6
Continuous
 62
     7
370
    25
100
AcDbLine
 10
234.6555933091
 20
89.1416995489
 30
0.0
 11
234.9473893766
 21
89.1416995489
 31
0.0
  0
LINE
  5
1F1
330
1F
100
AcDbEntity
  8
0
  6
Continuous
 62
     7
370
    25
100
AcDbLine
 10
248.3660169434
 20
89.1795164727
 30
0.0
 11
248.3637972416
 21
89.1416995489
 31
0.0
  0
LINE
  5
1F2
330
1F
100
AcDbEntity
  8
0
  6
Continuous
 62
     7
370
    25
100
AcDbLine
 10
248.3637972416
 20
89.1416995489
 30
0.0
 11
248.3153155313
 21
89.1416995489
 31
0.0
  0
LINE
  5
1F3
330
1F
100
AcDbEntity
  8
0
  6
Continuous
 62
     7
370
    25
100
AcDbLine
 10
234.9473893766
 20
89.1416995489
 30
0.0
 11
234.9451697056
 21
89.1795164268
 31
0.0
  0
LINE
  5
1F4
330
1F
100
AcDbEntity
  8
0
  6
Continuous
 62
     7
370
    25
100
AcDbLine
 10
234.9958710868
 20
89.1416995489
 30
0.0
 11
234.9473893766
 21
89.1416995489
 31
0.0
  0
ARC
  5
1F5
330
1F
100
AcDbEntity
  8
0
  6
Continuous
 62
     7
370
    25
100
AcDbCircle
 10
241.6555933091
 20
78.6416995489
 30
0.0
 40
8.499999999999986
100
AcDbArc
 50
220.7598808236
 51
235.2496774046
  0
ARC
  5
1F6
330
1F
100
AcDbEntity
  8
0
  6
Continuous
 62
     7
370
    25
100
AcDbCircle
 10
241.6555933091
 20
78.6416995489
 30
0.0
 40
8.499999999999993
100
AcDbArc
 50
160.2805871832
 51
199.3468742864
  0
ARC
  5
1F7
330
1F
100
AcDbEntity
  8
0
  6
Continuous
 62
     7
370
    25
100
AcDbCircle
 10
241.6555933091
 20
78.6416995489
 30
0.0
 40
8.500000000000005
100
AcDbArc
 50
100.9577884131
 51
138.9717990522
  0
ARC
  5
1F8
330
1F
100
AcDbEntity
  8
0
  6
Continuous
 62
     7
370
    25
100
AcDbCircle
 10
241.6555933091
 20
78.6416995489
 30
0.0
 40
8.500000000000018
100
AcDbArc
 50
41.2160080252
 51
78.7844630539
  0
ARC
  5
1F9
330
1F
100
AcDbEntity
  8
0
  6
Continuous
 62
     7
370
    25
100
AcDbCircle
 10
241.6555933091
 20
78.6416995489
 30
0.0
 40
8.500000000000016
100
AcDbArc
 50
341.1446352918
 51
18.8696550258
  0
ARC
  5
1FA
330
1F
100
AcDbEntity
  8
0
  6
Continuous
 62
     7
370
    25
100
AcDbCircle
 10
241.6555933091
 20
78.6416995489
 30
0.0
 40
8.500000000000014
100
AcDbArc
 50
280.850231353
 51
319.3671914713
  0
ARC
  5
1FB
330
1F
100
AcDbEntity
  8
0
  6
Continuous
 62
     7
370
    25
100
AcDbCircle
 10
241.6555933091
 20
78.6416995489
 30
0.0
 40
8.499999999999996
100
AcDbArc
 50
235.2496774046
 51
259.4519881502
  0
ARC
  5
1FC
330
1F
100
AcDbEntity
  8
0
  6
Continuous
 62
     7
370
    25
100
AcDbCircle
 10
241.6555933091
 20
78.6416995489
 30
0.0
 40
8.29999999999999
100
AcDbArc
 50
235.2496774046
 51
254.1321125347
  0
ARC
  5
1FD
330
1F
100
AcDbEntity
  8
0
  6
Continuous
 62
     7
370
    25
100
AcDbCircle
 10
241.6555933091
 20
78.6416995489
 30
0.0
 40
8.3
100
AcDbArc
 50
284.8733673382
 51
314.4304284671
  0
ARC
  5
1FE
330
1F
100
AcDbEntity
  8
0
  6
Continuous
 62
     7
370
    25
100
AcDbCircle
 10
241.6555933091
 20
78.6416995489
 30
0.0
 40
8.300000000000013
100
AcDbArc
 50
345.5536038171
 51
15.1022920183
  0
ARC
  5
1FF
330
1F
100
AcDbEntity
  8
0
  6
Continuous
 62
     7
370
    25
100
AcDbCircle
 10
241.6555933091
 20
78.6416995489
 30
0.0
 40
8.300000000000018
100
AcDbArc
 50
45.8668133981
 51
74.5659041014
  0
ARC
  5
200
330
1F
100
AcDbEntity
  8
0
  6
Continuous
 62
     7
370
    25
100
AcDbCircle
 10
241.6555933091
 20
78.6416995489
 30
0.0
 40
8.300000000000004
100
AcDbArc
 50
105.4897690546
 51
134.1316720143
  0
ARC
  5
201
330
1F
100
AcDbEntity
  8
0
  6
Continuous
 62
     7
370
    25
100
AcDbCircle
 10
241.6555933091
 20
78.6416995489
 30
0.0
 40
8.300000000000006
100
AcDbArc
 50
164.8511026785
 51
194.4162196383
  0
LWPOLYLINE
  5
202
330
1F
100
AcDbEntity
  8
0
  6
Continuous
 62
     7
370
    25
100
AcDbPolyline
 90
        3
 70
   128
 43
0.0
 10
235.842059138
 20
72.7177802008
 10
236.2030790295
 20
72.3838973763
 10
236.9245817825
 20
71.8220566011
  0
SPLINE
  5
203
330
1F
100
AcDbEntity
  8
0
  6
Continuous
 62
     7
370
    25
100
AcDbSpline
210
0.0
220
0.0
230
1.0
 70
     8
 71
     3
 72
    10
 73
     6
 74
     0
 42
0.00000001
 43
0.00000001
 40
0.0
 40
0.0
 40
0.0
 40
0.0
 40
0.5
 40
0.5
 40
1.0
 40
1.0
 40
1.0
 40
1.0
 10
233.4055933090631
 20
73.58988469349106
 30
0.0
 10
233.3312228421375
 20
73.6328225025903
 30
0.0
 10
233.2669172458497
 20
73.6962630924825
 30
0.0
 10
233.1786944580439
 20
73.84875223799133
 30
0.0
 10
233.1555933090631
 20
73.93698162719465
 30
0.0
 10
233.1555933090631
 20
74.02289739538328
 30
0.0
  0
SPLINE
  5
204
330
1F
100
AcDbEntity
  8
0
  6
Continuous
 62
     7
370
    25
100
AcDbSpline
210
0.0
220
0.0
230
1.0
 70
    24
 71
     3
 72
    10
 73
     6
 74
     0
 42
0.00000001
 43
0.00000001
 40
0.0
 40
0.0
 40
0.0
 40
0.0
 40
0.5
 40
0.5
 40
1.0
 40
1.0
 40
1.0
 40
1.0
 10
233.1555933090631
 20
74.02289739538328
 30
0.0
 10
233.1555933090631
 20
74.77770666843257
 30
0.0
 10
233.1555933090631
 20
75.53845305566448
 30
0.0
 10
233.1555933090631
 20
77.07659543328774
 30
0.0
 10
233.1555933090631
 20
77.85409658581256
 30
0.0
 10
233.1555933090631
 20
78.64169954890029
 30
0.0
  0
SPLINE
  5
205
330
1F
100
AcDbEntity
  8
0
  6
Continuous
 62
     7
370
    25
100
AcDbSpline
210
0.0
220
0.0
230
1.0
 70
    24
 71
     3
 72
    10
 73
     6
 74
     0
 42
0.00000001
 43
0.00000001
 40
0.0
 40
0.0
 40
0.0
 40
0.0
 40
0.5
 40
0.5
 40
1.0
 40
1.0
 40
1.0
 40
1.0
 10
233.4055933090631
 20
73.58988469349109
 30
0.0
 10
234.0616060756682
 20
73.21113554609981
 30
0.0
 10
234.7218729825259
 20
72.8299302696885
 30
0.0
 10
236.0542195011609
 20
72.06069964850073
 30
0.0
 10
236.7263724826482
 20
71.67263194370241
 30
0.0
 10
237.4055933090631
 20
71.28048361673255
 30
0.0
  0
SPLINE
  5
206
330
1F
100
AcDbEntity
  8
0
  6
Continuous
 62
     7
370
    25
100
AcDbSpline
210
0.0
220
0.0
230
1.0
 70
     8
 71
     3
 72
    10
 73
     6
 74
     0
 42
0.00000001
 43
0.00000001
 40
0.0
 40
0.0
 40
0.0
 40
0.0
 40
0.5
 40
0.5
 40
1.0
 40
1.0
 40
1.0
 40
1.0
 10
233.1555933090631
 20
83.2605017024173
 30
0.0
 10
233.1555933090631
 20
83.34638334492372
 30
0.0
 10
233.1783838807106
 20
83.43379255088918
 30
0.0
 10
233.2663298780094
 20
83.58643503596413
 30
0.0
 10
233.3311906707422
 20
83.65055802104649
 30
0.0
 10
233.4055933090631
 20
83.69351440430952
 30
0.0
  0
SPLINE
  5
207
330
1F
100
AcDbEntity
  8
0
  6
Continuous
 62
     7
370
    25
100
AcDbSpline
210
0.0
220
0.0
230
1.0
 70
    24
 71
     3
 72
    12
 73
     8
 74
     0
 42
0.00000001
 43
0.00000001
 40
0.0
 40
0.0
 40
0.0
 40
0.0
 40
0.2499999999999999
 40
0.2499999999999999
 40
0.4999999999999998
 40
0.4999999999999998
 40
1.0
 40
1.0
 40
1.0
 40
1.0
 10
233.1555933090631
 20
78.64169954890029
 30
0.0
 10
233.1555933090631
 20
79.03601762957213
 30
0.0
 10
233.1555933090631
 20
79.42967667352258
 30
0.0
 10
233.1555933090631
 20
80.20921267306791
 30
0.0
 10
233.1555933090631
 20
80.59616586119334
 30
0.0
 10
233.1555933090631
 20
81.74955242404734
 30
0.0
 10
233.1555933090631
 20
82.50853491325238
 30
0.0
 10
233.1555933090631
 20
83.2605017024173
 30
0.0
  0
SPLINE
  5
208
330
1F
100
AcDbEntity
  8
0
  6
Continuous
 62
     7
370
    25
100
AcDbSpline
210
0.0
220
0.0
230
1.0
 70
    24
 71
     3
 72
    12
 73
     8
 74
     0
 42
0.00000001
 43
0.00000001
 40
0.0
 40
0.0
 40
0.0
 40
0.0
 40
0.2500000000000001
 40
0.2500000000000001
 40
0.5000000000000002
 40
0.5000000000000002
 40
1.0
 40
1.0
 40
1.0
 40
1.0
 10
237.4055933090631
 20
86.00291548106803
 30
0.0
 10
237.0678373740403
 20
85.80791200106223
 30
0.0
 10
236.7274293591618
 20
85.61137734203783
 30
0.0
 10
236.0529346747614
 20
85.22195765443227
 30
0.0
 10
235.7178093558942
 20
85.02847296137202
 30
0.0
 10
234.718098037554
 20
84.45128936261641
 30
0.0
 10
234.0591639344887
 20
84.07085358083346
 30
0.0
 10
233.4055933090631
 20
83.69351440430951
 30
0.0
  0
SPLINE
  5
209
330
1F
100
AcDbEntity
  8
0
  6
Continuous
 62
     7
370
    25
100
AcDbSpline
210
0.0
220
0.0
230
1.0
 70
    24
 71
     3
 72
    10
 73
     6
 74
     0
 42
0.00000001
 43
0.00000001
 40
0.0
 40
0.0
 40
0.0
 40
0.0
 40
0.5
 40
0.5
 40
1.0
 40
1.0
 40
1.0
 40
1.0
 10
241.9055933090631
 20
68.97108253997402
 30
0.0
 10
242.5616060756682
 20
69.34983168736532
 30
0.0
 10
243.2218729825259
 20
69.73103696377662
 30
0.0
 10
244.5542195011609
 20
70.5002675849644
 30
0.0
 10
245.2263724826482
 20
70.88833528976272
 30
0.0
 10
245.9055933090631
 20
71.28048361673255
 30
0.0
  0
SPLINE
  5
20A
330
1F
100
AcDbEntity
  8
0
  6
Continuous
 62
     7
370
    25
100
AcDbSpline
210
0.0
220
0.0
230
1.0
 70
     8
 71
     3
 72
    10
 73
     6
 74
     0
 42
0.00000001
 43
0.00000001
 40
0.0
 40
0.0
 40
0.0
 40
0.0
 40
0.5
 40
0.5
 40
1.0
 40
1.0
 40
1.0
 40
1.0
 10
241.9055933090631
 20
68.97108253997405
 30
0.0
 10
241.8312185550731
 20
68.92814225573701
 30
0.0
 10
241.7441248235072
 20
68.9041744711612
 30
0.0
 10
241.5679589949627
 20
68.90401641505566
 30
0.0
 10
241.4799979710724
 20
68.92812498833405
 30
0.0
 10
241.4055933090631
 20
68.97108253997405
 30
0.0
  0
SPLINE
  5
20B
330
1F
100
AcDbEntity
  8
0
  6
Continuous
 62
     7
370
    25
100
AcDbSpline
210
0.0
220
0.0
230
1.0
 70
    24
 71
     3
 72
    12
 73
     8
 74
     0
 42
0.00000001
 43
0.00000001
 40
0.0
 40
0.0
 40
0.0
 40
0.0
 40
0.25
 40
0.25
 40
0.5000000000000002
 40
0.5000000000000002
 40
1.0
 40
1.0
 40
1.0
 40
1.0
 10
237.4055933090631
 20
71.28048361673255
 30
0.0
 10
237.7433492440859
 20
71.08548013672677
 30
0.0
 10
238.0837572589644
 20
70.88894547770236
 30
0.0
 10
238.7582519433648
 20
70.49952579009681
 30
0.0
 10
239.093377262232
 20
70.30604109703656
 30
0.0
 10
240.0930885805722
 20
69.72885749828095
 30
0.0
 10
240.7520226836374
 20
69.348421716498
 30
0.0
 10
241.4055933090631
 20
68.97108253997405
 30
0.0
  0
SPLINE
  5
20C
330
1F
100
AcDbEntity
  8
0
  6
Continuous
 62
     7
370
    25
100
AcDbSpline
210
0.0
220
0.0
230
1.0
 70
     8
 71
     3
 72
    10
 73
     6
 74
     0
 42
0.00000001
 43
0.00000001
 40
0.0
 40
0.0
 40
0.0
 40
0.0
 40
0.5
 40
0.5
 40
1.0
 40
1.0
 40
1.0
 40
1.0
 10
241.4055933090631
 20
88.31231655782653
 30
0.0
 10
241.4799680630531
 20
88.35525684206357
 30
0.0
 10
241.567061794619
 20
88.3792246266394
 30
0.0
 10
241.7432276231636
 20
88.37938268274492
 30
0.0
 10
241.8311886470539
 20
88.35527410946655
 30
0.0
 10
241.9055933090631
 20
88.31231655782653
 30
0.0
  0
SPLINE
  5
20D
330
1F
100
AcDbEntity
  8
0
  6
Continuous
 62
     7
370
    25
100
AcDbSpline
210
0.0
220
0.0
230
1.0
 70
    24
 71
     3
 72
    12
 73
     8
 74
     0
 42
0.00000001
 43
0.00000001
 40
0.0
 40
0.0
 40
0.0
 40
0.0
 40
0.2499999999999999
 40
0.2499999999999999
 40
0.5
 40
0.5
 40
1.0
 40
1.0
 40
1.0
 40
1.0
 10
245.9055933090631
 20
86.00291548106803
 30
0.0
 10
245.5678373740404
 20
86.19791896107381
 30
0.0
 10
245.2274293591618
 20
86.39445362009823
 30
0.0
 10
244.5529346747614
 20
86.78387330770377
 30
0.0
 10
244.2178093558942
 20
86.97735800076403
 30
0.0
 10
243.218098037554
 20
87.55454159951964
 30
0.0
 10
242.5591639344888
 20
87.9349773813026
 30
0.0
 10
241.9055933090631
 20
88.31231655782653
 30
0.0
  0
SPLINE
  5
20E
330
1F
100
AcDbEntity
  8
0
  6
Continuous
 62
     7
370
    25
100
AcDbSpline
210
0.0
220
0.0
230
1.0
 70
    24
 71
     3
 72
    10
 73
     6
 74
     0
 42
0.00000001
 43
0.00000001
 40
0.0
 40
0.0
 40
0.0
 40
0.0
 40
0.5
 40
0.5
 40
1.0
 40
1.0
 40
1.0
 40
1.0
 10
241.4055933090632
 20
88.31231655782656
 30
0.0
 10
240.7495805424581
 20
87.93356741043527
 30
0.0
 10
240.0893136356003
 20
87.55236213402397
 30
0.0
 10
238.7569671169653
 20
86.78313151283619
 30
0.0
 10
238.084814135478
 20
86.39506380803786
 30
0.0
 10
237.4055933090631
 20
86.00291548106803
 30
0.0
  0
SPLINE
  5
20F
330
1F
100
AcDbEntity
  8
0
  6
Continuous
 62
     7
370
    25
100
AcDbSpline
210
0.0
220
0.0
230
1.0
 70
     8
 71
     3
 72
    10
 73
     6
 74
     0
 42
0.00000001
 43
0.00000001
 40
0.0
 40
0.0
 40
0.0
 40
0.0
 40
0.5
 40
0.5
 40
1.0
 40
1.0
 40
1.0
 40
1.0
 10
249.9055933090631
 20
83.69351440430952
 30
0.0
 10
249.9799637759887
 20
83.65057659521028
 30
0.0
 10
250.0442693722765
 20
83.58713600531809
 30
0.0
 10
250.1324921600824
 20
83.43464685980925
 30
0.0
 10
250.1555933090631
 20
83.34641747060593
 30
0.0
 10
250.1555933090631
 20
83.2605017024173
 30
0.0
  0
SPLINE
  5
210
330
1F
100
AcDbEntity
  8
0
  6
Continuous
 62
     7
370
    25
100
AcDbSpline
210
0.0
220
0.0
230
1.0
 70
    24
 71
     3
 72
    12
 73
     8
 74
     0
 42
0.00000001
 43
0.00000001
 40
0.0
 40
0.0
 40
0.0
 40
0.0
 40
0.2500000000000001
 40
0.2500000000000001
 40
0.5000000000000001
 40
0.5000000000000001
 40
1.0
 40
1.0
 40
1.0
 40
1.0
 10
250.1555933090631
 20
78.64169954890029
 30
0.0
 10
250.1555933090631
 20
79.03601762957213
 30
0.0
 10
250.1555933090631
 20
79.42967667352258
 30
0.0
 10
250.1555933090631
 20
80.20921267306791
 30
0.0
 10
250.1555933090631
 20
80.59616586119334
 30
0.0
 10
250.1555933090631
 20
81.74955242404734
 30
0.0
 10
250.1555933090631
 20
82.50853491325238
 30
0.0
 10
250.1555933090631
 20
83.2605017024173
 30
0.0
  0
SPLINE
  5
211
330
1F
100
AcDbEntity
  8
0
  6
Continuous
 62
     7
370
    25
100
AcDbSpline
210
0.0
220
0.0
230
1.0
 70
    24
 71
     3
 72
    10
 73
     6
 74
     0
 42
0.00000001
 43
0.00000001
 40
0.0
 40
0.0
 40
0.0
 40
0.0
 40
0.5
 40
0.5
 40
1.0
 40
1.0
 40
1.0
 40
1.0
 10
249.9055933090632
 20
83.6935144043095
 30
0.0
 10
249.2495805424581
 20
84.07226355170077
 30
0.0
 10
248.5893136356003
 20
84.45346882811208
 30
0.0
 10
247.2569671169653
 20
85.22269944929987
 30
0.0
 10
246.584814135478
 20
85.61076715409818
 30
0.0
 10
245.9055933090631
 20
86.00291548106803
 30
0.0
  0
SPLINE
  5
212
330
1F
100
AcDbEntity
  8
0
  6
Continuous
 62
     7
370
    25
100
AcDbSpline
210
0.0
220
0.0
230
1.0
 70
    24
 71
     3
 72
    10
 73
     6
 74
     0
 42
0.00000001
 43
0.00000001
 40
0.0
 40
0.0
 40
0.0
 40
0.0
 40
0.5
 40
0.5
 40
1.0
 40
1.0
 40
1.0
 40
1.0
 10
250.1555933090631
 20
74.02289739538328
 30
0.0
 10
250.1555933090631
 20
74.77770666843257
 30
0.0
 10
250.1555933090631
 20
75.53845305566448
 30
0.0
 10
250.1555933090631
 20
77.07659543328774
 30
0.0
 10
250.1555933090631
 20
77.85409658581256
 30
0.0
 10
250.1555933090631
 20
78.64169954890029
 30
0.0
  0
SPLINE
  5
213
330
1F
100
AcDbEntity
  8
0
  6
Continuous
 62
     7
370
    25
100
AcDbSpline
210
0.0
220
0.0
230
1.0
 70
     8
 71
     3
 72
    10
 73
     6
 74
     0
 42
0.00000001
 43
0.00000001
 40
0.0
 40
0.0
 40
0.0
 40
0.0
 40
0.5
 40
0.5
 40
1.0
 40
1.0
 40
1.0
 40
1.0
 10
250.1555933090631
 20
74.02289739538328
 30
0.0
 10
250.1555933090631
 20
73.93701575287683
 30
0.0
 10
250.1328027374157
 20
73.84960654691139
 30
0.0
 10
250.0448567401169
 20
73.69696406183647
 30
0.0
 10
249.9799959473841
 20
73.63284107675409
 30
0.0
 10
249.9055933090631
 20
73.58988469349106
 30
0.0
  0
SPLINE
  5
214
330
1F
100
AcDbEntity
  8
0
  6
Continuous
 62
     7
370
    25
100
AcDbSpline
210
0.0
220
0.0
230
1.0
 70
    24
 71
     3
 72
    12
 73
     8
 74
     0
 42
0.00000001
 43
0.00000001
 40
0.0
 40
0.0
 40
0.0
 40
0.0
 40
0.2499999999999999
 40
0.2499999999999999
 40
0.4999999999999998
 40
0.4999999999999998
 40
1.0
 40
1.0
 40
1.0
 40
1.0
 10
245.9055933090631
 20
71.28048361673255
 30
0.0
 10
246.2433492440859
 20
71.47548709673836
 30
0.0
 10
246.5837572589644
 20
71.67202175576277
 30
0.0
 10
247.2582519433648
 20
72.06144144336832
 30
0.0
 10
247.5933772622321
 20
72.2549261364286
 30
0.0
 10
248.5930885805722
 20
72.83210973518419
 30
0.0
 10
249.2520226836375
 20
73.21254551696714
 30
0.0
 10
249.9055933090631
 20
73.58988469349107
 30
0.0
  0
LINE
  5
215
330
1F
100
AcDbEntity
  8
0
  6
Continuous
 62
     7
370
    25
100
AcDbLine
 10
237.4055933091
 20
66.6416995489
 30
0.0
 11
245.9055933091
 21
66.6416995489
 31
0.0
  0
SPLINE
  5
216
330
1F
100
AcDbEntity
  8
0
  6
Continuous
 62
     7
370
    25
100
AcDbSpline
210
0.0
220
0.0
230
1.0
 70
     8
 71
     3
 72
    10
 73
     6
 74
     0
 42
0.00000001
 43
0.00000001
 40
0.0
 40
0.0
 40
0.0
 40
0.0
 40
0.5
 40
0.5
 40
1.0
 40
1.0
 40
1.0
 40
1.0
 10
241.4055933090632
 20
67.31942095416002
 30
0.0
 10
240.7495805424581
 20
67.11061102949375
 30
0.0
 10
240.0893136356003
 20
66.9400768897465
 30
0.0
 10
238.7569671169653
 20
66.70529108472759
 30
0.0
 10
238.084814135478
 20
66.6416995489003
 30
0.0
 10
237.4055933090631
 20
66.6416995489003
 30
0.0
  0
SPLINE
  5
217
330
1F
100
AcDbEntity
  8
0
  6
Continuous
 62
     7
370
    25
100
AcDbSpline
210
0.0
220
0.0
230
1.0
 70
     8
 71
     3
 72
    10
 73
     6
 74
     0
 42
0.00000001
 43
0.00000001
 40
0.0
 40
0.0
 40
0.0
 40
0.0
 40
0.5
 40
0.5
 40
1.0
 40
1.0
 40
1.0
 40
1.0
 10
241.4055933090631
 20
67.31942095416049
 30
0.0
 10
241.4799680630531
 20
67.3430945586516
 30
0.0
 10
241.5670617946191
 20
67.35618733444483
 30
0.0
 10
241.7432276231635
 20
67.35627390254578
 30
0.0
 10
241.8311886470538
 20
67.3431040784225
 30
0.0
 10
241.9055933090631
 20
67.31942095416049
 30
0.0
  0
SPLINE
  5
218
330
1F
100
AcDbEntity
  8
0
  6
Continuous
 62
     7
370
    25
100
AcDbSpline
210
0.0
220
0.0
230
1.0
 70
     8
 71
     3
 72
    12
 73
     8
 74
     0
 42
0.00000001
 43
0.00000001
 40
0.0
 40
0.0
 40
0.0
 40
0.0
 40
0.2500000000000002
 40
0.2500000000000002
 40
0.5000000000000001
 40
0.5000000000000001
 40
1.0
 40
1.0
 40
1.0
 40
1.0
 10
245.9055933090631
 20
66.6416995489003
 30
0.0
 10
245.5678373740404
 20
66.6416995489003
 30
0.0
 10
245.2274293591618
 20
66.65744587892225
 30
0.0
 10
244.5529346747614
 20
66.71889090350768
 30
0.0
 10
244.2178093558942
 20
66.76447966276142
 30
0.0
 10
243.218098037554
 20
66.94093066501802
 30
0.0
 10
242.5591639344888
 20
67.1113883669815
 30
0.0
 10
241.9055933090631
 20
67.31942095416034
 30
0.0
  0
LINE
  5
219
330
1F
100
AcDbEntity
  8
0
  6
Continuous
 62
     7
370
    25
100
AcDbLine
 10
241.9055933091
 20
68.97108254
 30
0.0
 11
241.9055933091
 21
67.3194209542
 31
0.0
  0
LINE
  5
21A
330
1F
100
AcDbEntity
  8
0
  6
Continuous
 62
     7
370
    25
100
AcDbLine
 10
241.4055933091
 20
67.3194209542
 30
0.0
 11
241.4055933091
 21
68.97108254
 31
0.0
  0
SPLINE
  5
21B
330
1F
100
AcDbEntity
  8
0
  6
Continuous
 62
     7
370
    25
100
AcDbSpline
210
0.0
220
0.0
230
1.0
 70
     8
 71
     3
 72
    12
 73
     8
 74
     0
 42
0.00000001
 43
0.00000001
 40
0.0
 40
0.0
 40
0.0
 40
0.0
 40
0.2500000000000001
 40
0.2500000000000001
 40
0.5000000000000002
 40
0.5000000000000002
 40
1.0
 40
1.0
 40
1.0
 40
1.0
 10
237.4055933090631
 20
66.6416995489003
 30
0.0
 10
237.0678373740403
 20
66.6416995489003
 30
0.0
 10
236.7274293591618
 20
66.65744587892225
 30
0.0
 10
236.0529346747614
 20
66.71889090350768
 30
0.0
 10
235.7178093558942
 20
66.76447966276142
 30
0.0
 10
234.718098037554
 20
66.94093066501802
 30
0.0
 10
234.0591639344887
 20
67.11138836698152
 30
0.0
 10
233.4055933090631
 20
67.31942095416034
 30
0.0
  0
LINE
  5
21C
330
1F
100
AcDbEntity
  8
0
  6
Continuous
 62
     7
370
    25
100
AcDbLine
 10
233.4055933091
 20
70.675303009
 30
0.0
 11
233.4055933091
 21
67.3194209542
 31
0.0
  0
SPLINE
  5
21D
330
1F
100
AcDbEntity
  8
0
  6
Continuous
 62
     7
370
    25
100
AcDbSpline
210
0.0
220
0.0
230
1.0
 70
     8
 71
     3
 72
    10
 73
     6
 74
     0
 42
0.00000001
 43
0.00000001
 40
0.0
 40
0.0
 40
0.0
 40
0.0
 40
0.5
 40
0.5
 40
1.0
 40
1.0
 40
1.0
 40
1.0
 10
233.4055933090636
 20
70.67530300904544
 30
0.0
 10
234.0404210148772
 20
70.87736969459638
 30
0.0
 10
234.679686717453
 20
71.04376246686701
 30
0.0
 10
235.9705016490429
 20
71.27780944073707
 30
0.0
 10
236.6221212845127
 20
71.3448976946959
 30
0.0
 10
237.2811632163328
 20
71.35232336426569
 30
0.0
  0
SPLINE
  5
21E
330
1F
100
AcDbEntity
  8
0
  6
Continuous
 62
     7
370
    25
100
AcDbSpline
210
0.0
220
0.0
230
1.0
 70
     8
 71
     3
 72
    12
 73
     8
 74
     0
 42
0.00000001
 43
0.00000001
 40
0.0
 40
0.0
 40
0.0
 40
0.0
 40
0.2500000000000002
 40
0.2500000000000002
 40
0.5000000000000004
 40
0.5000000000000004
 40
1.0
 40
1.0
 40
1.0
 40
1.0
 10
246.0300234018155
 20
71.35232336426543
 30
0.0
 10
246.3591583922087
 20
71.34861487840901
 30
0.0
 10
246.6886205451454
 20
71.33003237557132
 30
0.0
 10
247.341494163203
 20
71.26516533860517
 30
0.0
 10
247.6659467550801
 20
71.2188997853549
 30
0.0
 10
248.6340071962722
 20
71.04317525504794
 30
0.0
 10
249.2723296805201
 20
70.8768718462712
 30
0.0
 10
249.9055933090631
 20
70.6753030090453
 30
0.0
  0
LINE
  5
21F
330
1F
100
AcDbEntity
  8
0
  6
Continuous
 62
     7
370
    25
100
AcDbLine
 10
249.9055933091
 20
67.3194209542
 30
0.0
 11
249.9055933091
 21
70.675303009
 31
0.0
  0
SPLINE
  5
220
330
1F
100
AcDbEntity
  8
0
  6
Continuous
 62
     7
370
    25
100
AcDbSpline
210
0.0
220
0.0
230
1.0
 70
     8
 71
     3
 72
    10
 73
     6
 74
     0
 42
0.00000001
 43
0.00000001
 40
0.0
 40
0.0
 40
0.0
 40
0.0
 40
0.5
 40
0.5
 40
1.0
 40
1.0
 40
1.0
 40
1.0
 10
249.9055933090632
 20
67.31942095416002
 30
0.0
 10
249.2495805424581
 20
67.11061102949375
 30
0.0
 10
248.5893136356003
 20
66.9400768897465
 30
0.0
 10
247.2569671169653
 20
66.70529108472759
 30
0.0
 10
246.584814135478
 20
66.6416995489003
 30
0.0
 10
245.9055933090631
 20
66.6416995489003
 30
0.0
  0
SPLINE
  5
221
330
1F
100
AcDbEntity
  8
0
  6
Continuous
 62
     7
370
    25
100
AcDbSpline
210
0.0
220
0.0
230
1.0
 70
     8
 71
     3
 72
    10
 73
     6
 74
     0
 42
0.00000001
 43
0.00000001
 40
0.0
 40
0.0
 40
0.0
 40
0.0
 40
0.5
 40
0.5
 40
1.0
 40
1.0
 40
1.0
 40
1.0
 10
233.1555933090631
 20
67.31942095416049
 30
0.0
 10
233.1555933090631
 20
67.34309485471644
 30
0.0
 10
233.1783838807106
 20
67.35618741189558
 30
0.0
 10
233.2663298780093
 20
67.35627382587786
 30
0.0
 10
233.3311906707422
 20
67.34310343427924
 30
0.0
 10
233.4055933090631
 20
67.31942095416049
 30
0.0
  0
LINE
  5
222
330
1F
100
AcDbEntity
  8
0
  6
Continuous
 62
     7
370
    25
100
AcDbLine
 10
237.4055933091
 20
66.6416995489
 30
0.0
 11
233.1555933091
 21
66.6416995489
 31
0.0
  0
SPLINE
  5
223
330
1F
100
AcDbEntity
  8
0
  6
Continuous
 62
     7
370
    25
100
AcDbSpline
210
0.0
220
0.0
230
1.0
 70
    24
 71
     3
 72
    10
 73
     6
 74
     0
 42
0.00000001
 43
0.00000001
 40
0.0
 40
0.0
 40
0.0
 40
0.0
 40
0.5000000000000001
 40
0.5000000000000001
 40
1.0
 40
1.0
 40
1.0
 40
1.0
 10
233.1555933090631
 20
67.31942095416046
 30
0.0
 10
233.1555933090631
 20
67.11249090062776
 30
0.0
 10
233.1555933090631
 20
66.94068529025405
 30
0.0
 10
233.1555933090631
 20
66.70373478372268
 30
0.0
 10
233.1555933090631
 20
66.6416995489003
 30
0.0
 10
233.1555933090631
 20
66.6416995489003
 30
0.0
  0
SPLINE
  5
224
330
1F
100
AcDbEntity
  8
0
  6
Continuous
 62
     7
370
    25
100
AcDbSpline
210
0.0
220
0.0
230
1.0
 70
     8
 71
     3
 72
    10
 73
     6
 74
     0
 42
0.00000001
 43
0.00000001
 40
0.0
 40
0.0
 40
0.0
 40
0.0
 40
0.5
 40
0.5
 40
1.0
 40
1.0
 40
1.0
 40
1.0
 10
249.9055933090631
 20
67.31942095416049
 30
0.0
 10
249.9799637759887
 20
67.34309319407204
 30
0.0
 10
250.0442693722765
 20
67.35618718400731
 30
0.0
 10
250.1324921600824
 20
67.35627405146876
 30
0.0
 10
250.1555933090631
 20
67.34310426170939
 30
0.0
 10
250.1555933090631
 20
67.31942095416049
 30
0.0
  0
LINE
  5
225
330
1F
100
AcDbEntity
  8
0
  6
Continuous
 62
     7
370
    25
100
AcDbLine
 10
245.9055933091
 20
66.6416995489
 30
0.0
 11
250.1555933091
 21
66.6416995489
 31
0.0
  0
SPLINE
  5
226
330
1F
100
AcDbEntity
  8
0
  6
Continuous
 62
     7
370
    25
100
AcDbSpline
210
0.0
220
0.0
230
1.0
 70
    24
 71
     3
 72
    10
 73
     6
 74
     0
 42
0.00000001
 43
0.00000001
 40
0.0
 40
0.0
 40
0.0
 40
0.0
 40
0.5000000000000001
 40
0.5000000000000001
 40
1.0
 40
1.0
 40
1.0
 40
1.0
 10
250.1555933090631
 20
67.31942095416046
 30
0.0
 10
250.1555933090631
 20
67.11249090062776
 30
0.0
 10
250.1555933090631
 20
66.94068529025405
 30
0.0
 10
250.1555933090631
 20
66.70373478372268
 30
0.0
 10
250.1555933090631
 20
66.6416995489003
 30
0.0
 10
250.1555933090631
 20
66.6416995489003
 30
0.0
  0
SPLINE
  5
227
330
1F
100
AcDbEntity
  8
0
  6
Continuous
 62
     7
370
    25
100
AcDbSpline
210
0.0
220
0.0
230
1.0
 70
     8
 71
     3
 72
     8
 73
     4
 74
     0
 42
0.00000001
 43
0.00000001
 40
0.0
 40
0.0
 40
0.0
 40
0.0
 40
1.0
 40
1.0
 40
1.0
 40
1.0
 10
234.7273900787876
 20
71.64169954890029
 30
0.0
 10
234.2009692175784
 20
71.37848911829569
 30
0.0
 10
233.6774247608647
 20
71.10939168990899
 30
0.0
 10
233.1555933090631
 20
70.83678833732633
 30
0.0
  0
SPLINE
  5
228
330
1F
100
AcDbEntity
  8
0
  6
Continuous
 62
     7
370
    25
100
AcDbSpline
210
0.0
220
0.0
230
1.0
 70
     8
 71
     3
 72
    10
 73
     6
 74
     0
 42
0.00000001
 43
0.00000001
 40
0.0
 40
0.0
 40
0.0
 40
0.0
 40
0.5
 40
0.5
 40
1.0
 40
1.0
 40
1.0
 40
1.0
 10
233.1555933090631
 20
70.67530300904524
 30
0.0
 10
233.1555933090631
 20
70.65162761462082
 30
0.0
 10
233.178385758393
 20
70.63853650473624
 30
0.0
 10
233.2663284624862
 20
70.63845018344801
 30
0.0
 10
233.3311862361604
 20
70.65161911739196
 30
0.0
 10
233.4055933090638
 20
70.6753030090455
 30
0.0
  0
SPLINE
  5
229
330
1F
100
AcDbEntity
  8
0
  6
Continuous
 62
     7
370
    25
100
AcDbSpline
210
0.0
220
0.0
230
1.0
 70
    24
 71
     3
 72
     8
 73
     4
 74
     0
 42
0.00000001
 43
0.00000001
 40
0.0
 40
0.0
 40
0.0
 40
0.0
 40
1.0
 40
1.0
 40
1.0
 40
1.0
 10
233.1555933090631
 20
70.67530300904531
 30
0.0
 10
233.1555933090631
 20
70.7318639761695
 30
0.0
 10
233.1555933090631
 20
70.78580404758335
 30
0.0
 10
233.1555933090631
 20
70.83678833732631
 30
0.0
  0
SPLINE
  5
22A
330
1F
100
AcDbEntity
  8
0
  6
Continuous
 62
     7
370
    25
100
AcDbSpline
210
0.0
220
0.0
230
1.0
 70
     8
 71
     3
 72
     8
 73
     4
 74
     0
 42
0.00000001
 43
0.00000001
 40
0.0
 40
0.0
 40
0.0
 40
0.0
 40
1.0
 40
1.0
 40
1.0
 40
1.0
 10
250.1555933090631
 20
70.83678833732631
 30
0.0
 10
249.6337871577613
 20
71.10937847299566
 30
0.0
 10
249.1101336889051
 20
71.37853097411706
 30
0.0
 10
248.5837965393386
 20
71.64169954890029
 30
0.0
  0
SPLINE
  5
22B
330
1F
100
AcDbEntity
  8
0
  6
Continuous
 62
     7
370
    25
100
AcDbSpline
210
0.0
220
0.0
230
1.0
 70
     8
 71
     3
 72
    10
 73
     6
 74
     0
 42
0.00000001
 43
0.00000001
 40
0.0
 40
0.0
 40
0.0
 40
0.0
 40
0.5
 40
0.5
 40
1.0
 40
1.0
 40
1.0
 40
1.0
 10
249.9055933090631
 20
70.6753030090453
 30
0.0
 10
249.9799736864404
 20
70.6516276146209
 30
0.0
 10
250.0442743252262
 20
70.63853650473627
 30
0.0
 10
250.1324900100091
 20
70.63845018344799
 30
0.0
 10
250.1555933090631
 20
70.65161911739182
 30
0.0
 10
250.1555933090631
 20
70.6753030090453
 30
0.0
  0
SPLINE
  5
22C
330
1F
100
AcDbEntity
  8
0
  6
Continuous
 62
     7
370
    25
100
AcDbSpline
210
0.0
220
0.0
230
1.0
 70
    24
 71
     3
 72
     8
 73
     4
 74
     0
 42
0.00000001
 43
0.00000001
 40
0.0
 40
0.0
 40
0.0
 40
0.0
 40
1.0
 40
1.0
 40
1.0
 40
1.0
 10
250.1555933090631
 20
70.67530300904531
 30
0.0
 10
250.1555933090631
 20
70.7318639761695
 30
0.0
 10
250.1555933090631
 20
70.78580404758335
 30
0.0
 10
250.1555933090631
 20
70.83678833732631
 30
0.0
  0
LINE
  5
22D
330
1F
100
AcDbEntity
  8
0
  6
Continuous
 62
     7
370
    25
100
AcDbLine
 10
234.1555933091
 20
73.1568719916
 30
0.0
 11
234.1555933091
 21
71.6416995489
 31
0.0
  0
LINE
  5
22E
330
1F
100
AcDbEntity
  8
0
  6
Continuous
 62
     7
370
    25
100
AcDbLine
 10
234.1555933091
 20
71.6416995489
 30
0.0
 11
236.779948962
 21
71.6416995489
 31
0.0
  0
LINE
  5
22F
330
1F
100
AcDbEntity
  8
0
  6
Continuous
 62
     7
370
    25
100
AcDbLine
 10
249.1555933091
 20
71.6416995489
 30
0.0
 11
249.1555933091
 21
73.1568719916
 31
0.0
  0
LINE
  5
230
330
1F
100
AcDbEntity
  8
0
  6
Continuous
 62
     7
370
    25
100
AcDbLine
 10
246.5312376561
 20
71.6416995489
 30
0.0
 11
249.1555933091
 21
71.6416995489
 31
0.0
  0
LINE
  5
231
330
1F
100
AcDbEntity
  8
0
  6
Continuous
 62
     7
370
    25
100
AcDbLine
 10
235.1910412505
 20
57.2453654228
 30
0.0
 11
248.1201453676
 21
57.2453654228
 31
0.0
  0
LINE
  5
232
330
1F
100
AcDbEntity
  8
0
  6
Continuous
 62
     7
370
    25
100
AcDbLine
 10
241.6555933091
 20
55.1416995489
 30
0.0
 11
236.4055933091
 21
55.1416995489
 31
0.0
  0
LINE
  5
233
330
1F
100
AcDbEntity
  8
0
  6
Continuous
 62
     7
370
    25
100
AcDbLine
 10
246.9055933091
 20
55.1416995489
 30
0.0
 11
241.6555933091
 21
55.1416995489
 31
0.0
  0
LINE
  5
234
330
1F
100
AcDbEntity
  8
0
  6
Continuous
 62
     7
370
    25
100
AcDbLine
 10
233.1555933091
 20
67.3194209542
 30
0.0
 11
233.1555933091
 21
70.675303009
 31
0.0
  0
LINE
  5
235
330
1F
100
AcDbEntity
  8
0
  6
Continuous
 62
     7
370
    25
100
AcDbLine
 10
250.1555933091
 20
70.675303009
 30
0.0
 11
250.1555933091
 21
67.3194209542
 31
0.0
  0
LINE
  5
236
330
1F
100
AcDbEntity
  8
0
  6
Continuous
 62
     7
370
    25
100
AcDbLine
 10
233.1555933091
 20
70.8367883373
 30
0.0
 11
233.1555933091
 21
73.9725482506
 31
0.0
  0
LINE
  5
237
330
1F
100
AcDbEntity
  8
0
  6
Continuous
 62
     7
370
    25
100
AcDbLine
 10
250.1555933091
 20
70.8367883373
 30
0.0
 11
250.1555933091
 21
73.9725482506
 31
0.0
  0
LINE
  5
238
330
1F
100
AcDbEntity
  8
0
  6
Continuous
 62
     7
370
    25
100
AcDbLine
 10
238.1555933091
 20
105.7416995489
 30
0.0
 11
236.1555933091
 21
105.7416995489
 31
0.0
  0
LINE
  5
239
330
1F
100
AcDbEntity
  8
0
  6
Continuous
 62
     7
370
    25
100
AcDbLine
 10
247.1555933091
 20
105.7416995489
 30
0.0
 11
245.1555933091
 21
105.7416995489
 31
0.0
  0
SPLINE
  5
23A
330
1F
100
AcDbEntity
  8
0
  6
Continuous
 62
     7
370
    25
100
AcDbSpline
210
0.0
220
0.0
230
1.0
 70
     8
 71
     3
 72
    18
 73
    14
 74
     0
 42
0.00000001
 43
0.00000001
 40
0.0
 40
0.0
 40
0.0
 40
0.0
 40
0.0468428660816962
 40
0.1374640506088984
 40
0.2589131060108726
 40
0.3805758244683997
 40
0.3960736187414693
 40
0.5262727736085907
 40
0.6564702697793093
 40
0.7574454173882833
 40
0.8582174373726895
 40
0.9375312068800603
 40
1.0
 40
1.0
 40
1.0
 40
1.0
 10
242.2700510960497
 20
88.1018967564016
 30
0.0
 10
242.4126993258582
 20
88.09122664835306
 30
0.0
 10
242.8313117021265
 20
88.05991438257004
 30
0.0
 10
243.5850024336904
 20
87.88737139103054
 30
0.0
 10
244.482528290986
 20
87.57259087731235
 30
0.0
 10
245.0923119786614
 20
87.25749313769964
 30
0.0
 10
245.6680496564855
 20
86.91116841032246
 30
0.0
 10
246.2054219979339
 20
86.53061204000214
 30
0.0
 10
246.7713423455811
 20
86.03298556972213
 30
0.0
 10
247.1729199007381
 20
85.61975375561758
 30
0.0
 10
247.4122630877938
 20
85.34637222171652
 30
0.0
 10
247.5374489137697
 20
85.19464038989666
 30
0.0
 10
247.5447619067472
 20
85.18521403050094
 30
0.0
 10
247.5479839803008
 20
85.18106081670615
 30
0.0
  0
SPLINE
  5
23B
330
1F
100
AcDbEntity
  8
0
  6
Continuous
 62
     7
370
    25
100
AcDbSpline
210
0.0
220
0.0
230
1.0
 70
     8
 71
     3
 72
    19
 73
    15
 74
     0
 42
0.00000001
 43
0.00000001
 40
0.0
 40
0.0
 40
0.0
 40
0.0
 40
0.0663419227307622
 40
0.105928246680165
 40
0.1953124765245078
 40
0.2848629631593762
 40
0.4058558208796057
 40
0.5269349084512268
 40
0.628368897588177
 40
0.7297356097148117
 40
0.8191464248555617
 40
0.9084832637958118
 40
0.9868724213149118
 40
1.0
 40
1.0
 40
1.0
 40
1.0
 10
235.7575344514058
 20
85.1742663521583
 30
0.0
 10
235.7622744414913
 20
85.18006394344013
 30
0.0
 10
235.7698427907095
 20
85.18932096606132
 30
0.0
 10
235.8511009822173
 20
85.28833020710645
 30
0.0
 10
236.0007696831136
 20
85.46516804152535
 30
0.0
 10
236.3091584785218
 20
85.8019787409901
 30
0.0
 10
236.7664023488111
 20
86.24256678793273
 30
0.0
 10
237.3647297841879
 20
86.72458556568365
 30
0.0
 10
238.034614295874
 20
87.16051330456168
 30
0.0
 10
238.7247683124316
 20
87.51686410637308
 30
0.0
 10
239.4608549253752
 20
87.80370628335241
 30
0.0
 10
240.1936618194355
 20
87.99568910852888
 30
0.0
 10
240.7342232007616
 20
88.09538960555032
 30
0.0
 10
241.0151925981969
 20
88.10833142475371
 30
0.0
 10
241.0554961320195
 20
88.11018785841785
 30
0.0
  0
INSERT
  5
247
330
1F
100
AcDbEntity
  8
0
  6
Continuous
 62
     7
370
    18
100
AcDbBlockReference
  2
SW_CENTERMARKSYMBOL_0
 10
241.6555933091
 20
78.6416995489
 30
0.0
  0
LINE
  5
248
330
1F
100
AcDbEntity
  8
0
  6
Continuous
 62
     7
370
    18
100
AcDbLine
 10
235.5893433091
 20
66.1416995489
 30
0.0
 11
235.9060550052
 21
56.0069252715
 31
0.0
  0
LINE
  5
249
330
1F
100
AcDbEntity
  8
0
  6
Continuous
 62
     7
370
    18
100
AcDbLine
 10
247.4051316129
 20
56.0069252715
 30
0.0
 11
247.7218433091
 21
66.1416995489
 31
0.0
  0
LINE
  5
24A
330
1F
100
AcDbEntity
  8
0
  6
Continuous
 62
     7
370
    25
100
AcDbLine
 10
156.4048176817
 20
140.8986039413
 30
0.0
 11
155.9316126009
 21
140.8986039413
 31
0.0
  0
LINE
  5
24B
330
1F
100
AcDbEntity
  8
0
  6
Continuous
 62
     7
370
    25
100
AcDbLine
 10
155.9316126009
 20
131.8986039413
 30
0.0
 11
156.4048176817
 21
131.8986039413
 31
0.0
  0
LINE
  5
24C
330
1F
100
AcDbEntity
  8
0
  6
Continuous
 62
     7
370
    25
100
AcDbLine
 10
156.4048176817
 20
131.8986039413
 30
0.0
 11
156.4316126009
 21
131.9986039413
 31
0.0
  0
LINE
  5
24D
330
1F
100
AcDbEntity
  8
0
  6
Continuous
 62
     7
370
    25
100
AcDbLine
 10
156.4316126009
 20
140.7986039413
 30
0.0
 11
156.4048176817
 21
140.8986039413
 31
0.0
  0
LINE
  5
24E
330
1F
100
AcDbEntity
  8
0
  6
Continuous
 62
     7
370
    25
100
AcDbLine
 10
151.9316126009
 20
140.3986039413
 30
0.0
 11
148.854689524
 21
139.8986039413
 31
0.0
  0
LINE
  5
24F
330
1F
100
AcDbEntity
  8
0
  6
Continuous
 62
     7
370
    25
100
AcDbLine
 10
148.854689524
 20
132.8986039413
 30
0.0
 11
151.9316126009
 21
132.3986039413
 31
0.0
  0
LINE
  5
250
330
1F
100
AcDbEntity
  8
0
  6
Continuous
 62
     7
370
    25
100
AcDbLine
 10
155.9316126009
 20
140.3986039413
 30
0.0
 11
151.9316126009
 21
140.3986039413
 31
0.0
  0
LINE
  5
251
330
1F
100
AcDbEntity
  8
0
  6
Continuous
 62
     7
370
    25
100
AcDbLine
 10
151.9316126009
 20
132.3986039413
 30
0.0
 11
155.9316126009
 21
132.3986039413
 31
0.0
  0
LINE
  5
252
330
1F
100
AcDbEntity
  8
0
  6
Continuous
 62
     7
370
    25
100
AcDbLine
 10
139.9316126009
 20
140.3986039413
 30
0.0
 11
135.9316126009
 21
139.7486039413
 31
0.0
  0
LINE
  5
253
330
1F
100
AcDbEntity
  8
0
  6
Continuous
 62
     7
370
    25
100
AcDbLine
 10
135.9316126009
 20
133.0486039413
 30
0.0
 11
139.9316126009
 21
132.3986039413
 31
0.0
  0
LINE
  5
254
330
1F
100
AcDbEntity
  8
0
  6
Continuous
 62
     7
370
    25
100
AcDbLine
 10
135.9316126009
 20
140.3986039413
 30
0.0
 11
131.1377205651
 21
139.8320530643
 31
0.0
  0
LINE
  5
255
330
1F
100
AcDbEntity
  8
0
  6
Continuous
 62
     7
370
    25
100
AcDbLine
 10
131.1377205651
 20
132.9651548182
 30
0.0
 11
135.9316126009
 21
132.3986039413
 31
0.0
  0
LINE
  5
256
330
1F
100
AcDbEntity
  8
0
  6
Continuous
 62
     7
370
    25
100
AcDbLine
 10
143.9316126009
 20
140.3986039413
 30
0.0
 11
139.9316126009
 21
139.7486039413
 31
0.0
  0
LINE
  5
257
330
1F
100
AcDbEntity
  8
0
  6
Continuous
 62
     7
370
    25
100
AcDbLine
 10
139.9316126009
 20
133.0486039413
 30
0.0
 11
143.9316126009
 21
132.3986039413
 31
0.0
  0
LINE
  5
258
330
1F
100
AcDbEntity
  8
0
  6
Continuous
 62
     7
370
    25
100
AcDbLine
 10
147.9316126009
 20
140.3986039413
 30
0.0
 11
143.9316126009
 21
139.7486039413
 31
0.0
  0
LINE
  5
259
330
1F
100
AcDbEntity
  8
0
  6
Continuous
 62
     7
370
    25
100
AcDbLine
 10
143.9316126009
 20
133.0486039413
 30
0.0
 11
147.9316126009
 21
132.3986039413
 31
0.0
  0
ARC
  5
25A
330
1F
100
AcDbEntity
  8
0
  6
Continuous
 62
     7
370
    25
100
AcDbCircle
 10
131.2316126009
 20
139.0375819914
 30
0.0
 40
0.8000000000000135
100
AcDbArc
 50
96.7400560979
 51
180.0
  0
ARC
  5
25B
330
1F
100
AcDbEntity
  8
0
  6
Continuous
 62
     7
370
    25
100
AcDbCircle
 10
131.2316126009
 20
133.7596258911
 30
0.0
 40
0.7999999999999853
100
AcDbArc
 50
180.0
 51
263.2599439021
  0
LINE
  5
25C
330
1F
100
AcDbEntity
  8
0
  6
Continuous
 62
     7
370
    25
100
AcDbLine
 10
158.5182151413
 20
144.3986039413
 30
0.0
 11
158.4316126009
 21
144.2486039413
 31
0.0
  0
LINE
  5
25D
330
1F
100
AcDbEntity
  8
0
  6
Continuous
 62
     7
370
    25
100
AcDbLine
 10
158.4316126009
 20
128.5486039413
 30
0.0
 11
158.5182151413
 21
128.3986039413
 31
0.0
  0
LINE
  5
25E
330
1F
100
AcDbEntity
  8
0
  6
Continuous
 62
     7
370
    25
100
AcDbLine
 10
167.3450100606
 20
128.3986039413
 30
0.0
 11
167.4316126009
 21
128.5486039413
 31
0.0
  0
LINE
  5
25F
330
1F
100
AcDbEntity
  8
0
  6
Continuous
 62
     7
370
    25
100
AcDbLine
 10
167.4316126009
 20
144.2486039413
 30
0.0
 11
167.3450100606
 21
144.3986039413
 31
0.0
  0
ARC
  5
260
330
1F
100
AcDbEntity
  8
0
  6
Continuous
 62
     7
370
    25
100
AcDbCircle
 10
169.1316126009
 20
143.9486039413
 30
0.0
 40
0.3000000000000114
100
AcDbArc
 50
0.0
 51
90.0
  0
ARC
  5
261
330
1F
100
AcDbEntity
  8
0
  6
Continuous
 62
     7
370
    25
100
AcDbCircle
 10
169.1316126009
 20
128.8486039413
 30
0.0
 40
0.3000000000000114
100
AcDbArc
 50
270.0
 51
0.0
  0
LINE
  5
262
330
1F
100
AcDbEntity
  8
0
  6
Continuous
 62
     7
370
    25
100
AcDbLine
 10
158.4316126009
 20
144.2486039413
 30
0.0
 11
156.7316126009
 21
144.2486039413
 31
0.0
  0
LINE
  5
263
330
1F
100
AcDbEntity
  8
0
  6
Continuous
 62
     7
370
    25
100
AcDbLine
 10
156.7316126009
 20
128.5486039413
 30
0.0
 11
158.4316126009
 21
128.5486039413
 31
0.0
  0
LINE
  5
264
330
1F
100
AcDbEntity
  8
0
  6
Continuous
 62
     7
370
    25
100
AcDbLine
 10
167.4316126009
 20
128.5486039413
 30
0.0
 11
169.1316126009
 21
128.5486039413
 31
0.0
  0
LINE
  5
265
330
1F
100
AcDbEntity
  8
0
  6
Continuous
 62
     7
370
    25
100
AcDbLine
 10
169.1316126009
 20
144.2486039413
 30
0.0
 11
167.4316126009
 21
144.2486039413
 31
0.0
  0
ARC
  5
266
330
1F
100
AcDbEntity
  8
0
  6
Continuous
 62
     7
370
    25
100
AcDbCircle
 10
156.7316126009
 20
128.8486039413
 30
0.0
 40
0.3000000000000114
100
AcDbArc
 50
180.0
 51
270.0
  0
ARC
  5
267
330
1F
100
AcDbEntity
  8
0
  6
Continuous
 62
     7
370
    25
100
AcDbCircle
 10
156.7316126009
 20
143.9486039413
 30
0.0
 40
0.3000000000000114
100
AcDbArc
 50
90.0
 51
180.0
  0
LINE
  5
268
330
1F
100
AcDbEntity
  8
0
  6
Continuous
 62
     7
370
    25
100
AcDbLine
 10
172.8097405234
 20
127.8986039413
 30
0.0
 11
175.6097405234
 21
127.8986039413
 31
0.0
  0
LINE
  5
269
330
1F
100
AcDbEntity
  8
0
  6
Continuous
 62
     7
370
    25
100
AcDbLine
 10
175.6097405234
 20
144.8986039413
 30
0.0
 11
172.8097405234
 21
144.8986039413
 31
0.0
  0
LINE
  5
26A
330
1F
100
AcDbEntity
  8
0
  6
Continuous
 62
     7
370
    25
100
AcDbLine
 10
172.8097405234
 20
144.8986039413
 30
0.0
 11
172.6097405234
 21
144.6986039413
 31
0.0
  0
LINE
  5
26B
330
1F
100
AcDbEntity
  8
0
  6
Continuous
 62
     7
370
    25
100
AcDbLine
 10
172.6097405234
 20
128.0986039413
 30
0.0
 11
172.8097405234
 21
127.8986039413
 31
0.0
  0
LINE
  5
26C
330
1F
100
AcDbEntity
  8
0
  6
Continuous
 62
     7
370
    25
100
AcDbLine
 10
172.6097405234
 20
142.9771039413
 30
0.0
 11
169.4316126009
 21
142.9771039413
 31
0.0
  0
LINE
  5
26D
330
1F
100
AcDbEntity
  8
0
  6
Continuous
 62
     7
370
    25
100
AcDbLine
 10
169.4316126009
 20
129.8201039413
 30
0.0
 11
172.6097405234
 21
129.8201039413
 31
0.0
  0
LINE
  5
26E
330
1F
100
AcDbEntity
  8
0
  6
Continuous
 62
     7
370
    25
100
AcDbLine
 10
198.9654029561
 20
127.8986039413
 30
0.0
 11
199.1097405234
 21
128.1486039413
 31
0.0
  0
LINE
  5
26F
330
1F
100
AcDbEntity
  8
0
  6
Continuous
 62
     7
370
    25
100
AcDbLine
 10
199.1097405234
 20
144.6486039413
 30
0.0
 11
198.9654029561
 21
144.8986039413
 31
0.0
  0
LINE
  5
270
330
1F
100
AcDbEntity
  8
0
  6
Continuous
 62
     7
370
    25
100
AcDbLine
 10
155.9316126009
 20
131.8986039413
 30
0.0
 11
155.9316126009
 21
132.8986039413
 31
0.0
  0
LINE
  5
271
330
1F
100
AcDbEntity
  8
0
  6
Continuous
 62
     7
370
    25
100
AcDbLine
 10
155.9316126009
 20
139.8986039413
 30
0.0
 11
155.9316126009
 21
140.8986039413
 31
0.0
  0
LINE
  5
272
330
1F
100
AcDbEntity
  8
0
  6
Continuous
 62
     7
370
    25
100
AcDbLine
 10
156.4048176817
 20
140.8378622578
 30
0.0
 11
156.4048176817
 21
139.8986039413
 31
0.0
  0
LINE
  5
273
330
1F
100
AcDbEntity
  8
0
  6
Continuous
 62
     7
370
    25
100
AcDbLine
 10
156.4048176817
 20
132.8986039413
 30
0.0
 11
156.4048176817
 21
131.8986039413
 31
0.0
  0
LINE
  5
274
330
1F
100
AcDbEntity
  8
0
  6
Continuous
 62
     7
370
    25
100
AcDbLine
 10
156.4048176817
 20
140.8986039413
 30
0.0
 11
156.4048176817
 21
140.8378622578
 31
0.0
  0
LINE
  5
275
330
1F
100
AcDbEntity
  8
0
  6
Continuous
 62
     7
370
    25
100
AcDbLine
 10
151.9316126009
 20
140.3446113337
 30
0.0
 11
151.9316126009
 21
139.8986039413
 31
0.0
  0
LINE
  5
276
330
1F
100
AcDbEntity
  8
0
  6
Continuous
 62
     7
370
    25
100
AcDbLine
 10
151.9316126009
 20
132.8986039413
 30
0.0
 11
151.9316126009
 21
132.3986039413
 31
0.0
  0
LINE
  5
277
330
1F
100
AcDbEntity
  8
0
  6
Continuous
 62
     7
370
    25
100
AcDbLine
 10
151.9316126009
 20
140.3986039413
 30
0.0
 11
151.9316126009
 21
140.3446113337
 31
0.0
  0
LINE
  5
278
330
1F
100
AcDbEntity
  8
0
  6
Continuous
 62
     7
370
    25
100
AcDbLine
 10
139.9316126009
 20
140.3446113337
 30
0.0
 11
139.9316126009
 21
132.3986039413
 31
0.0
  0
LINE
  5
279
330
1F
100
AcDbEntity
  8
0
  6
Continuous
 62
     7
370
    25
100
AcDbLine
 10
139.9316126009
 20
140.3986039413
 30
0.0
 11
139.9316126009
 21
140.3446113337
 31
0.0
  0
LINE
  5
27A
330
1F
100
AcDbEntity
  8
0
  6
Continuous
 62
     7
370
    25
100
AcDbLine
 10
135.9316126009
 20
140.3446113337
 30
0.0
 11
135.9316126009
 21
132.3986039413
 31
0.0
  0
LINE
  5
27B
330
1F
100
AcDbEntity
  8
0
  6
Continuous
 62
     7
370
    25
100
AcDbLine
 10
135.9316126009
 20
140.3986039413
 30
0.0
 11
135.9316126009
 21
140.3446113337
 31
0.0
  0
LINE
  5
27C
330
1F
100
AcDbEntity
  8
0
  6
Continuous
 62
     7
370
    25
100
AcDbLine
 10
143.9316126009
 20
140.3446113337
 30
0.0
 11
143.9316126009
 21
132.3986039413
 31
0.0
  0
LINE
  5
27D
330
1F
100
AcDbEntity
  8
0
  6
Continuous
 62
     7
370
    25
100
AcDbLine
 10
143.9316126009
 20
140.3986039413
 30
0.0
 11
143.9316126009
 21
140.3446113337
 31
0.0
  0
LINE
  5
27E
330
1F
100
AcDbEntity
  8
0
  6
Continuous
 62
     7
370
    25
100
AcDbLine
 10
147.9316126009
 20
140.3446113337
 30
0.0
 11
147.9316126009
 21
139.8986039413
 31
0.0
  0
LINE
  5
27F
330
1F
100
AcDbEntity
  8
0
  6
Continuous
 62
     7
370
    25
100
AcDbLine
 10
147.9316126009
 20
132.8986039413
 30
0.0
 11
147.9316126009
 21
132.3986039413
 31
0.0
  0
LINE
  5
280
330
1F
100
AcDbEntity
  8
0
  6
Continuous
 62
     7
370
    25
100
AcDbLine
 10
147.9316126009
 20
140.3986039413
 30
0.0
 11
147.9316126009
 21
140.3446113337
 31
0.0
  0
LINE
  5
281
330
1F
100
AcDbEntity
  8
0
  6
Continuous
 62
     7
370
    25
100
AcDbLine
 10
130.4316126009
 20
139.0019606649
 30
0.0
 11
130.4316126009
 21
139.0375819914
 31
0.0
  0
LINE
  5
282
330
1F
100
AcDbEntity
  8
0
  6
Continuous
 62
     7
370
    25
100
AcDbLine
 10
130.4316126009
 20
133.7596258911
 30
0.0
 11
130.4316126009
 21
139.0019606649
 31
0.0
  0
SPLINE
  5
283
330
1F
100
AcDbEntity
  8
0
  6
Continuous
 62
     7
370
    25
100
AcDbSpline
210
0.0
220
0.0
230
1.0
 70
     8
 71
     3
 72
    11
 73
     7
 74
     0
 42
0.00000001
 43
0.00000001
 40
0.0
 40
0.0
 40
0.0
 40
0.0
 40
0.4709116352817393
 40
0.7117259034345579
 40
0.9524967157451775
 40
1.0
 40
1.0
 40
1.0
 40
1.0
 10
159.2327463211309
 20
144.3986039412658
 30
0.0
 10
159.023283970299
 20
143.7041851135388
 30
0.0
 10
158.7067069955291
 20
142.654655158242
 30
0.0
 10
158.5435872542698
 20
141.2133937677151
 30
0.0
 10
158.4831276124704
 20
140.4062705472506
 30
0.0
 10
158.5377213962806
 20
139.9704248335244
 30
0.0
 10
158.5467176400007
 20
139.8986039412658
 30
0.0
  0
SPLINE
  5
284
330
1F
100
AcDbEntity
  8
0
  6
Continuous
 62
     7
370
    25
100
AcDbSpline
210
0.0
220
0.0
230
1.0
 70
     8
 71
     3
 72
    10
 73
     6
 74
     0
 42
0.00000001
 43
0.00000001
 40
0.0
 40
0.0
 40
0.0
 40
0.0
 40
0.1721130615207077
 40
0.5822633461311513
 40
1.0
 40
1.0
 40
1.0
 40
1.0
 10
158.5423556046481
 20
132.8986039412658
 30
0.0
 10
158.5312535410878
 20
132.6371538900443
 30
0.0
 10
158.4936949466354
 20
131.7526609856402
 30
0.0
 10
158.6858258572455
 20
130.2320121292045
 30
0.0
 10
159.0493291749566
 20
129.0134620784351
 30
0.0
 10
159.2327463211309
 20
128.3986039412658
 30
0.0
  0
SPLINE
  5
285
330
1F
100
AcDbEntity
  8
0
  6
Continuous
 62
     7
370
    25
100
AcDbSpline
210
0.0
220
0.0
230
1.0
 70
    24
 71
     3
 72
    10
 73
     6
 74
     0
 42
0.00000001
 43
0.00000001
 40
0.0
 40
0.0
 40
0.0
 40
0.0
 40
0.3825555204542415
 40
0.768771019355621
 40
1.0
 40
1.0
 40
1.0
 40
1.0
 10
159.2327463211309
 20
128.3986039412658
 30
0.0
 10
159.0821552606284
 20
128.3986039412658
 30
0.0
 10
158.7795324074778
 20
128.3986039412658
 30
0.0
 10
158.5268889054275
 20
128.3986039412658
 30
0.0
 10
158.5566799443142
 20
128.3986039412658
 30
0.0
 10
158.5678364964939
 20
128.3986039412658
 30
0.0
  0
SPLINE
  5
286
330
1F
100
AcDbEntity
  8
0
  6
Continuous
 62
     7
370
    25
100
AcDbSpline
210
0.0
220
0.0
230
1.0
 70
    24
 71
     3
 72
    10
 73
     6
 74
     0
 42
0.00000001
 43
0.00000001
 40
0.0
 40
0.0
 40
0.0
 40
0.0
 40
0.231479098598238
 40
0.613561454343343
 40
1.0
 40
1.0
 40
1.0
 40
1.0
 10
158.5235561547623
 20
144.3986039412659
 30
0.0
 10
158.530137633139
 20
144.3986039412659
 30
0.0
 10
158.547582583759
 20
144.3986039412659
 30
0.0
 10
158.772070953052
 20
144.3986039412658
 30
0.0
 10
159.0786086847718
 20
144.3986039412658
 30
0.0
 10
159.2327463211309
 20
144.3986039412658
 30
0.0
  0
LINE
  5
287
330
1F
100
AcDbEntity
  8
0
  6
Continuous
 62
     7
370
    25
100
AcDbLine
 10
158.4316126009
 20
144.2486039413
 30
0.0
 11
158.4316126009
 21
139.8986039413
 31
0.0
  0
LINE
  5
288
330
1F
100
AcDbEntity
  8
0
  6
Continuous
 62
     7
370
    25
100
AcDbLine
 10
158.4316126009
 20
132.8986039413
 30
0.0
 11
158.4316126009
 21
128.5486039413
 31
0.0
  0
SPLINE
  5
289
330
1F
100
AcDbEntity
  8
0
  6
Continuous
 62
     7
370
    25
100
AcDbSpline
210
0.0
220
0.0
230
1.0
 70
    24
 71
     3
 72
    10
 73
     6
 74
     0
 42
0.00000001
 43
0.00000001
 40
0.0
 40
0.0
 40
0.0
 40
0.0
 40
0.231479098598238
 40
0.613561454343343
 40
1.0
 40
1.0
 40
1.0
 40
1.0
 10
167.33966904711
 20
144.3986039412659
 30
0.0
 10
167.3330875687333
 20
144.3986039412659
 30
0.0
 10
167.3156426181133
 20
144.3986039412659
 30
0.0
 10
167.0911542488203
 20
144.3986039412658
 30
0.0
 10
166.7846165171005
 20
144.3986039412658
 30
0.0
 10
166.6304788807414
 20
144.3986039412658
 30
0.0
  0
SPLINE
  5
28A
330
1F
100
AcDbEntity
  8
0
  6
Continuous
 62
     7
370
    25
100
AcDbSpline
210
0.0
220
0.0
230
1.0
 70
    24
 71
     3
 72
    10
 73
     6
 74
     0
 42
0.00000001
 43
0.00000001
 40
0.0
 40
0.0
 40
0.0
 40
0.0
 40
0.3825555204542415
 40
0.7687710193556209
 40
1.0
 40
1.0
 40
1.0
 40
1.0
 10
166.6304788807414
 20
128.3986039412658
 30
0.0
 10
166.7810699412439
 20
128.3986039412658
 30
0.0
 10
167.0836927943945
 20
128.3986039412658
 30
0.0
 10
167.3363362964448
 20
128.3986039412658
 30
0.0
 10
167.3065452575582
 20
128.3986039412658
 30
0.0
 10
167.2953887053785
 20
128.3986039412658
 30
0.0
  0
SPLINE
  5
28B
330
1F
100
AcDbEntity
  8
0
  6
Continuous
 62
     7
370
    25
100
AcDbSpline
210
0.0
220
0.0
230
1.0
 70
     8
 71
     3
 72
    10
 73
     6
 74
     0
 42
0.00000001
 43
0.00000001
 40
0.0
 40
0.0
 40
0.0
 40
0.0
 40
0.1546642000203772
 40
0.573458968772139
 40
1.0
 40
1.0
 40
1.0
 40
1.0
 10
167.3232981284899
 20
132.8045279619797
 30
0.0
 10
167.332745590869
 20
132.5744313381691
 30
0.0
 10
167.3677745893878
 20
131.7212864436748
 30
0.0
 10
167.1766341452497
 20
130.2320073914981
 30
0.0
 10
166.8136394069952
 20
129.0134604895814
 30
0.0
 10
166.6304788807414
 20
128.3986039412658
 30
0.0
  0
SPLINE
  5
28C
330
1F
100
AcDbEntity
  8
0
  6
Continuous
 62
     7
370
    25
100
AcDbSpline
210
0.0
220
0.0
230
1.0
 70
     8
 71
     3
 72
    11
 73
     7
 74
     0
 42
0.00000001
 43
0.00000001
 40
0.0
 40
0.0
 40
0.0
 40
0.0
 40
0.4774272530304457
 40
0.7215734705388572
 40
0.9656756309422522
 40
1.0
 40
1.0
 40
1.0
 40
1.0
 10
166.6304788807414
 20
144.3986039412658
 30
0.0
 10
166.8401341691652
 20
143.7041764826022
 30
0.0
 10
167.1570027457379
 20
142.6546334826899
 30
0.0
 10
167.3187432964923
 20
141.2134337893459
 30
0.0
 10
167.3807268540148
 20
140.4269916417729
 30
0.0
 10
167.3298503916979
 20
140.0117288803695
 30
0.0
 10
167.3235783511983
 20
139.9605353669284
 30
0.0
  0
LINE
  5
28D
330
1F
100
AcDbEntity
  8
0
  6
Continuous
 62
     7
370
    25
100
AcDbLine
 10
167.4316126009
 20
144.2486039413
 30
0.0
 11
167.4316126009
 21
139.9465951343
 31
0.0
  0
LINE
  5
28E
330
1F
100
AcDbEntity
  8
0
  6
Continuous
 62
     7
370
    25
100
AcDbLine
 10
167.4316126009
 20
132.8506127483
 30
0.0
 11
167.4316126009
 21
128.5486039413
 31
0.0
  0
LINE
  5
28F
330
1F
100
AcDbEntity
  8
0
  6
Continuous
 62
     7
370
    25
100
AcDbLine
 10
166.6304788807
 20
144.3986039413
 30
0.0
 11
162.9852024394
 21
144.3986039413
 31
0.0
  0
LINE
  5
290
330
1F
100
AcDbEntity
  8
0
  6
Continuous
 62
     7
370
    25
100
AcDbLine
 10
162.8780227624
 20
144.3986039413
 30
0.0
 11
159.2327463211
 21
144.3986039413
 31
0.0
  0
LINE
  5
291
330
1F
100
AcDbEntity
  8
0
  6
Continuous
 62
     7
370
    25
100
AcDbLine
 10
162.9316126009
 20
144.0398562956
 30
0.0
 11
162.8780227624
 21
144.3986039413
 31
0.0
  0
LINE
  5
292
330
1F
100
AcDbEntity
  8
0
  6
Continuous
 62
     7
370
    25
100
AcDbLine
 10
162.9852024394
 20
144.3986039413
 30
0.0
 11
162.9316126009
 21
144.0398562956
 31
0.0
  0
LINE
  5
293
330
1F
100
AcDbEntity
  8
0
  6
Continuous
 62
     7
370
    25
100
AcDbLine
 10
166.6304788807
 20
128.3986039413
 30
0.0
 11
162.9852024394
 21
128.3986039413
 31
0.0
  0
LINE
  5
294
330
1F
100
AcDbEntity
  8
0
  6
Continuous
 62
     7
370
    25
100
AcDbLine
 10
162.9316126009
 20
128.7573515869
 30
0.0
 11
162.9852024394
 21
128.3986039413
 31
0.0
  0
LINE
  5
295
330
1F
100
AcDbEntity
  8
0
  6
Continuous
 62
     7
370
    25
100
AcDbLine
 10
162.8780227624
 20
128.3986039413
 30
0.0
 11
162.9316126009
 21
128.7573515869
 31
0.0
  0
LINE
  5
296
330
1F
100
AcDbEntity
  8
0
  6
Continuous
 62
     7
370
    25
100
AcDbLine
 10
162.8780227624
 20
128.3986039413
 30
0.0
 11
159.2327463211
 21
128.3986039413
 31
0.0
  0
LINE
  5
297
330
1F
100
AcDbEntity
  8
0
  6
Continuous
 62
     7
370
    25
100
AcDbLine
 10
169.4316126009
 20
143.9486039413
 30
0.0
 11
169.4316126009
 21
140.054373571
 31
0.0
  0
LINE
  5
298
330
1F
100
AcDbEntity
  8
0
  6
Continuous
 62
     7
370
    25
100
AcDbLine
 10
169.4316126009
 20
132.7428343115
 30
0.0
 11
169.4316126009
 21
128.8486039413
 31
0.0
  0
LINE
  5
299
330
1F
100
AcDbEntity
  8
0
  6
Continuous
 62
     7
370
    25
100
AcDbLine
 10
156.4316126009
 20
128.8486039413
 30
0.0
 11
156.4316126009
 21
132.8986039413
 31
0.0
  0
LINE
  5
29A
330
1F
100
AcDbEntity
  8
0
  6
Continuous
 62
     7
370
    25
100
AcDbLine
 10
156.4316126009
 20
139.8986039413
 30
0.0
 11
156.4316126009
 21
143.9486039413
 31
0.0
  0
LINE
  5
29B
330
1F
100
AcDbEntity
  8
0
  6
Continuous
 62
     7
370
    25
100
AcDbLine
 10
162.8780227624
 20
144.3986039413
 30
0.0
 11
162.9316126009
 21
144.3986039413
 31
0.0
  0
LINE
  5
29C
330
1F
100
AcDbEntity
  8
0
  6
Continuous
 62
     7
370
    25
100
AcDbLine
 10
162.9316126009
 20
144.3986039413
 30
0.0
 11
162.9316126009
 21
144.0398562956
 31
0.0
  0
LINE
  5
29D
330
1F
100
AcDbEntity
  8
0
  6
Continuous
 62
     7
370
    25
100
AcDbLine
 10
162.9316126009
 20
144.3986039413
 30
0.0
 11
162.9852024394
 21
144.3986039413
 31
0.0
  0
LINE
  5
29E
330
1F
100
AcDbEntity
  8
0
  6
Continuous
 62
     7
370
    25
100
AcDbLine
 10
162.9316126009
 20
128.7573515869
 30
0.0
 11
162.9316126009
 21
128.3986039413
 31
0.0
  0
LINE
  5
29F
330
1F
100
AcDbEntity
  8
0
  6
Continuous
 62
     7
370
    25
100
AcDbLine
 10
162.9316126009
 20
128.3986039413
 30
0.0
 11
162.8780227624
 21
128.3986039413
 31
0.0
  0
LINE
  5
2A0
330
1F
100
AcDbEntity
  8
0
  6
Continuous
 62
     7
370
    25
100
AcDbLine
 10
162.9852024394
 20
128.3986039413
 30
0.0
 11
162.9316126009
 21
128.3986039413
 31
0.0
  0
SPLINE
  5
2A1
330
1F
100
AcDbEntity
  8
0
  6
Continuous
 62
     7
370
    25
100
AcDbSpline
210
0.0
220
0.0
230
1.0
 70
     8
 71
     3
 72
    15
 73
    11
 74
     0
 42
0.00000001
 43
0.00000001
 40
0.0
 40
0.0
 40
0.0
 40
0.0
 40
0.0081667445812695
 40
0.3321939991490083
 40
0.4756279600585602
 40
0.6866830973284899
 40
0.8457435502264811
 40
0.8967566214763185
 40
0.9909540928118029
 40
1.0
 40
1.0
 40
1.0
 40
1.0
 10
192.2087600369619
 20
137.6486039412659
 30
0.0
 10
192.2092475711048
 20
137.6500414042049
 30
0.0
 10
192.2290787186369
 20
137.7085122621566
 30
0.0
 10
192.2573594986461
 20
137.7929374398761
 30
0.0
 10
192.295188797135
 20
137.9075165118985
 30
0.0
 10
192.3217726937024
 20
137.9888873990951
 30
0.0
 10
192.3389425174574
 20
138.0419063910967
 30
0.0
 10
192.3467595136739
 20
138.0661083229409
 30
0.0
 10
192.3487552001097
 20
138.0722979436071
 30
0.0
 10
192.3488201640606
 20
138.0724993390197
 30
0.0
 10
192.3488258560272
 20
138.0725169847441
 30
0.0
  0
ARC
  5
2A2
330
1F
100
AcDbEntity
  8
0
  6
Continuous
 62
     7
370
    25
100
AcDbCircle
 10
187.1097405234
 20
136.3986039413
 30
0.0
 40
5.250000000000009
100
AcDbArc
 50
13.774146998
 51
166.225853002
  0
SPLINE
  5
2A3
330
1F
100
AcDbEntity
  8
0
  6
Continuous
 62
     7
370
    25
100
AcDbSpline
210
0.0
220
0.0
230
1.0
 70
     8
 71
     3
 72
    15
 73
    11
 74
     0
 42
0.00000001
 43
0.00000001
 40
0.0
 40
0.0
 40
0.0
 40
0.0
 40
0.0090459071881971
 40
0.1032433785236874
 40
0.1542564497735246
 40
0.313316902671511
 40
0.5243720399414428
 40
0.6678060008509903
 40
0.9918332554187292
 40
1.0
 40
1.0
 40
1.0
 40
1.0
 10
181.870655190711
 20
138.0725169847441
 30
0.0
 10
181.8706608826777
 20
138.0724993390197
 30
0.0
 10
181.8707258466284
 20
138.0722979436071
 30
0.0
 10
181.8727215330643
 20
138.0661083229409
 30
0.0
 10
181.8805385292808
 20
138.0419063910967
 30
0.0
 10
181.8977083530358
 20
137.9888873990951
 30
0.0
 10
181.9242922496032
 20
137.9075165118985
 30
0.0
 10
181.9621215480921
 20
137.7929374398761
 30
0.0
 10
181.9904023281013
 20
137.7085122621566
 30
0.0
 10
182.0102334756334
 20
137.6500414042049
 30
0.0
 10
182.0107210097763
 20
137.6486039412659
 30
0.0
  0
ARC
  5
2A4
330
1F
100
AcDbEntity
  8
0
  6
Continuous
 62
     7
370
    25
100
AcDbCircle
 10
187.1097405234
 20
136.3986039413
 30
0.0
 40
5.499999999999993
100
AcDbArc
 50
17.7189318734
 51
162.2810681266
  0
ARC
  5
2A5
330
1F
100
AcDbEntity
  8
0
  6
Continuous
 62
     7
370
    25
100
AcDbCircle
 10
181.6325149483
 20
138.1486039413
 30
0.0
 40
0.2500000000000213
100
AcDbArc
 50
270.0
 51
342.2810681266
  0
SPLINE
  5
2A6
330
1F
100
AcDbEntity
  8
0
  6
Continuous
 62
     7
370
    25
100
AcDbSpline
210
0.0
220
0.0
230
1.0
 70
     8
 71
     3
 72
    15
 73
    11
 74
     0
 42
0.00000001
 43
0.00000001
 40
0.0
 40
0.0
 40
0.0
 40
0.0
 40
0.0080847466189818
 40
0.3310106400647567
 40
0.4750333064304972
 40
0.6874363079215137
 40
0.8468367539418253
 40
0.9000996640391794
 40
0.9910442771984082
 40
1.0
 40
1.0
 40
1.0
 40
1.0
 10
182.0107210097763
 20
137.6486039412659
 30
0.0
 10
182.0094411782322
 20
137.6494198772541
 30
0.0
 10
181.9570415325084
 20
137.6828264274478
 30
0.0
 10
181.8816864410539
 20
137.7316399921827
 30
0.0
 10
181.7797673290362
 20
137.7990104644508
 30
0.0
 10
181.7073763840443
 20
137.8475945047943
 30
0.0
 10
181.6596709557795
 20
137.8800433662528
 30
0.0
 10
181.6381354720722
 20
137.8947544073191
 30
0.0
 10
181.6327064560526
 20
137.8984728582372
 30
0.0
 10
181.632530703896
 20
137.8985931569027
 30
0.0
 10
181.6325149483174
 20
137.8986039412659
 30
0.0
  0
ARC
  5
2A7
330
1F
100
AcDbEntity
  8
0
  6
Continuous
 62
     7
370
    25
100
AcDbCircle
 10
192.5869660984
 20
138.1486039413
 30
0.0
 40
0.2500000000000213
100
AcDbArc
 50
197.7189318734
 51
270.0
  0
SPLINE
  5
2A8
330
1F
100
AcDbEntity
  8
0
  6
Continuous
 62
     7
370
    25
100
AcDbSpline
210
0.0
220
0.0
230
1.0
 70
     8
 71
     3
 72
    15
 73
    11
 74
     0
 42
0.00000001
 43
0.00000001
 40
0.0
 40
0.0
 40
0.0
 40
0.0
 40
0.0089557228015919
 40
0.0999003359608148
 40
0.153163246058169
 40
0.3125636920784848
 40
0.5249666935694999
 40
0.6689893599352451
 40
0.9919152533810159
 40
1.0
 40
1.0
 40
1.0
 40
1.0
 10
192.5869660984208
 20
137.8986039412659
 30
0.0
 10
192.5869503428422
 20
137.8985931569027
 30
0.0
 10
192.5867745906856
 20
137.8984728582372
 30
0.0
 10
192.581345574666
 20
137.8947544073191
 30
0.0
 10
192.5598100909588
 20
137.8800433662528
 30
0.0
 10
192.5121046626939
 20
137.8475945047943
 30
0.0
 10
192.439713717702
 20
137.7990104644508
 30
0.0
 10
192.3377946056842
 20
137.7316399921826
 30
0.0
 10
192.2624395142298
 20
137.6828264274478
 30
0.0
 10
192.210039868506
 20
137.6494198772541
 30
0.0
 10
192.2087600369619
 20
137.6486039412659
 30
0.0
  0
SPLINE
  5
2A9
330
1F
100
AcDbEntity
  8
0
  6
Continuous
 62
     7
370
    25
100
AcDbSpline
210
0.0
220
0.0
230
1.0
 70
     8
 71
     3
 72
    15
 73
    11
 74
     0
 42
0.00000001
 43
0.00000001
 40
0.0
 40
0.0
 40
0.0
 40
0.0
 40
0.0090459071881971
 40
0.1032433785236816
 40
0.1542564497735189
 40
0.31331690267151
 40
0.5243720399414428
 40
0.6678060008509183
 40
0.9918332554187028
 40
1.0
 40
1.0
 40
1.0
 40
1.0
 10
192.3488258560272
 20
134.7246908977876
 30
0.0
 10
192.3488201640606
 20
134.7247085435121
 30
0.0
 10
192.3487552001097
 20
134.7249099389246
 30
0.0
 10
192.3467595136739
 20
134.7310995595908
 30
0.0
 10
192.3389425174574
 20
134.7553014914349
 30
0.0
 10
192.3217726937024
 20
134.8083204834366
 30
0.0
 10
192.2951887971349
 20
134.8896913706332
 30
0.0
 10
192.2573594986463
 20
135.0042704426557
 30
0.0
 10
192.229078718636
 20
135.0886956203748
 30
0.0
 10
192.2092475711048
 20
135.1471664783268
 30
0.0
 10
192.2087600369619
 20
135.1486039412659
 30
0.0
  0
ARC
  5
2AA
330
1F
100
AcDbEntity
  8
0
  6
Continuous
 62
     7
370
    25
100
AcDbCircle
 10
187.1097405234
 20
136.3986039413
 30
0.0
 40
5.499999999999993
100
AcDbArc
 50
197.7189318734
 51
342.2810681266
  0
SPLINE
  5
2AB
330
1F
100
AcDbEntity
  8
0
  6
Continuous
 62
     7
370
    25
100
AcDbSpline
210
0.0
220
0.0
230
1.0
 70
     8
 71
     3
 72
    15
 73
    11
 74
     0
 42
0.00000001
 43
0.00000001
 40
0.0
 40
0.0
 40
0.0
 40
0.0
 40
0.0081667445812973
 40
0.3321939991490804
 40
0.475627960058556
 40
0.6866830973284891
 40
0.8457435502264751
 40
0.8967566214763124
 40
0.9909540928118028
 40
1.0
 40
1.0
 40
1.0
 40
1.0
 10
182.0107210097763
 20
135.1486039412659
 30
0.0
 10
182.0102334756334
 20
135.1471664783268
 30
0.0
 10
181.9904023281022
 20
135.0886956203748
 30
0.0
 10
181.9621215480919
 20
135.0042704426557
 30
0.0
 10
181.9242922496033
 20
134.8896913706332
 30
0.0
 10
181.8977083530358
 20
134.8083204834366
 30
0.0
 10
181.8805385292808
 20
134.7553014914349
 30
0.0
 10
181.8727215330643
 20
134.7310995595908
 30
0.0
 10
181.8707258466284
 20
134.7249099389246
 30
0.0
 10
181.8706608826777
 20
134.7247085435121
 30
0.0
 10
181.870655190711
 20
134.7246908977876
 30
0.0
  0
ARC
  5
2AC
330
1F
100
AcDbEntity
  8
0
  6
Continuous
 62
     7
370
    25
100
AcDbCircle
 10
187.1097405234
 20
136.3986039413
 30
0.0
 40
5.250000000000009
100
AcDbArc
 50
193.774146998
 51
346.225853002
  0
SPLINE
  5
2AD
330
1F
100
AcDbEntity
  8
0
  6
Continuous
 62
     7
370
    25
100
AcDbSpline
210
0.0
220
0.0
230
1.0
 70
     8
 71
     3
 72
    15
 73
    11
 74
     0
 42
0.00000001
 43
0.00000001
 40
0.0
 40
0.0
 40
0.0
 40
0.0
 40
0.0080847466189582
 40
0.3310106400648243
 40
0.4750333064304948
 40
0.6874363079215142
 40
0.8468367539418303
 40
0.9000996640391847
 40
0.9910442771984082
 40
1.0
 40
1.0
 40
1.0
 40
1.0
 10
192.2087600369619
 20
135.1486039412659
 30
0.0
 10
192.210039868506
 20
135.1477880052776
 30
0.0
 10
192.2624395142292
 20
135.114381455083
 30
0.0
 10
192.3377946056843
 20
135.0655678903492
 30
0.0
 10
192.439713717702
 20
134.9981974180809
 30
0.0
 10
192.512104662694
 20
134.9496133777374
 30
0.0
 10
192.5598100909587
 20
134.9171645162789
 30
0.0
 10
192.5813455746661
 20
134.9024534752126
 30
0.0
 10
192.5867745906856
 20
134.8987350242945
 30
0.0
 10
192.5869503428422
 20
134.898614725629
 30
0.0
 10
192.5869660984208
 20
134.8986039412659
 30
0.0
  0
ARC
  5
2AE
330
1F
100
AcDbEntity
  8
0
  6
Continuous
 62
     7
370
    25
100
AcDbCircle
 10
192.5869660984
 20
134.6486039413
 30
0.0
 40
0.2500000000000213
100
AcDbArc
 50
90.0
 51
162.2810681266
  0
SPLINE
  5
2AF
330
1F
100
AcDbEntity
  8
0
  6
Continuous
 62
     7
370
    25
100
AcDbSpline
210
0.0
220
0.0
230
1.0
 70
     8
 71
     3
 72
    15
 73
    11
 74
     0
 42
0.00000001
 43
0.00000001
 40
0.0
 40
0.0
 40
0.0
 40
0.0
 40
0.0089557228015919
 40
0.0999003359608209
 40
0.1531632460581751
 40
0.3125636920784904
 40
0.5249666935695061
 40
0.6689893599351777
 40
0.991915253381045
 40
1.0
 40
1.0
 40
1.0
 40
1.0
 10
181.6325149483174
 20
134.8986039412659
 30
0.0
 10
181.632530703896
 20
134.898614725629
 30
0.0
 10
181.6327064560526
 20
134.8987350242945
 30
0.0
 10
181.6381354720722
 20
134.9024534752126
 30
0.0
 10
181.6596709557795
 20
134.9171645162789
 30
0.0
 10
181.7073763840443
 20
134.9496133777374
 30
0.0
 10
181.7797673290362
 20
134.9981974180809
 30
0.0
 10
181.8816864410539
 20
135.0655678903492
 30
0.0
 10
181.9570415325089
 20
135.1143814550831
 30
0.0
 10
182.0094411782322
 20
135.1477880052776
 30
0.0
 10
182.0107210097763
 20
135.1486039412659
 30
0.0
  0
ARC
  5
2B0
330
1F
100
AcDbEntity
  8
0
  6
Continuous
 62
     7
370
    25
100
AcDbCircle
 10
181.6325149483
 20
134.6486039413
 30
0.0
 40
0.2500000000000213
100
AcDbArc
 50
17.7189318734
 51
90.0
  0
LINE
  5
2B1
330
1F
100
AcDbEntity
  8
0
  6
Continuous
 62
     7
370
    25
100
AcDbLine
 10
192.1097405234
 20
135.7986039413
 30
0.0
 11
192.1097405234
 21
136.9986039413
 31
0.0
  0
LINE
  5
2B2
330
1F
100
AcDbEntity
  8
0
  6
Continuous
 62
     7
370
    25
100
AcDbLine
 10
182.1097405234
 20
135.7986039413
 30
0.0
 11
192.1097405234
 21
135.7986039413
 31
0.0
  0
LINE
  5
2B3
330
1F
100
AcDbEntity
  8
0
  6
Continuous
 62
     7
370
    25
100
AcDbLine
 10
182.1097405234
 20
136.9986039413
 30
0.0
 11
182.1097405234
 21
135.7986039413
 31
0.0
  0
LINE
  5
2B4
330
1F
100
AcDbEntity
  8
0
  6
Continuous
 62
     7
370
    25
100
AcDbLine
 10
192.1097405234
 20
136.9986039413
 30
0.0
 11
182.1097405234
 21
136.9986039413
 31
0.0
  0
LINE
  5
2B5
330
1F
100
AcDbEntity
  8
0
  6
Continuous
 62
     7
370
    25
100
AcDbLine
 10
192.8597405234
 20
137.6486039413
 30
0.0
 11
192.208760037
 21
137.6486039413
 31
0.0
  0
LINE
  5
2B6
330
1F
100
AcDbEntity
  8
0
  6
Continuous
 62
     7
370
    25
100
AcDbLine
 10
192.8597405234
 20
135.1486039413
 30
0.0
 11
192.8597405234
 21
137.6486039413
 31
0.0
  0
LINE
  5
2B7
330
1F
100
AcDbEntity
  8
0
  6
Continuous
 62
     7
370
    25
100
AcDbLine
 10
192.208760037
 20
135.1486039413
 30
0.0
 11
192.8597405234
 21
135.1486039413
 31
0.0
  0
LINE
  5
2B8
330
1F
100
AcDbEntity
  8
0
  6
Continuous
 62
     7
370
    25
100
AcDbLine
 10
181.3597405234
 20
135.1486039413
 30
0.0
 11
182.0107210098
 21
135.1486039413
 31
0.0
  0
LINE
  5
2B9
330
1F
100
AcDbEntity
  8
0
  6
Continuous
 62
     7
370
    25
100
AcDbLine
 10
181.3597405234
 20
137.6486039413
 30
0.0
 11
181.3597405234
 21
135.1486039413
 31
0.0
  0
LINE
  5
2BA
330
1F
100
AcDbEntity
  8
0
  6
Continuous
 62
     7
370
    25
100
AcDbLine
 10
182.0107210098
 20
137.6486039413
 30
0.0
 11
181.3597405234
 21
137.6486039413
 31
0.0
  0
ARC
  5
2BB
330
1F
100
AcDbEntity
  8
0
  6
Continuous
 62
     7
370
    25
100
AcDbCircle
 10
192.8597405234
 20
137.6486039413
 30
0.0
 40
0.25
100
AcDbArc
 50
0.0
 51
90.0
  0
LINE
  5
2BC
330
1F
100
AcDbEntity
  8
0
  6
Continuous
 62
     7
370
    25
100
AcDbLine
 10
193.1097405234
 20
137.6486039413
 30
0.0
 11
192.8597405234
 21
137.6486039413
 31
0.0
  0
LINE
  5
2BD
330
1F
100
AcDbEntity
  8
0
  6
Continuous
 62
     7
370
    25
100
AcDbLine
 10
192.8597405234
 20
137.6486039413
 30
0.0
 11
192.8597405234
 21
137.8986039413
 31
0.0
  0
LINE
  5
2BE
330
1F
100
AcDbEntity
  8
0
  6
Continuous
 62
     7
370
    25
100
AcDbLine
 10
181.3597405234
 20
137.8986039413
 30
0.0
 11
181.3597405234
 21
137.6486039413
 31
0.0
  0
LINE
  5
2BF
330
1F
100
AcDbEntity
  8
0
  6
Continuous
 62
     7
370
    25
100
AcDbLine
 10
181.3597405234
 20
137.6486039413
 30
0.0
 11
181.1097405234
 21
137.6486039413
 31
0.0
  0
ARC
  5
2C0
330
1F
100
AcDbEntity
  8
0
  6
Continuous
 62
     7
370
    25
100
AcDbCircle
 10
181.3597405234
 20
137.6486039413
 30
0.0
 40
0.25
100
AcDbArc
 50
90.0
 51
180.0
  0
LINE
  5
2C1
330
1F
100
AcDbEntity
  8
0
  6
Continuous
 62
     7
370
    25
100
AcDbLine
 10
181.3597405234
 20
137.8986039413
 30
0.0
 11
181.6325149483
 21
137.8986039413
 31
0.0
  0
LINE
  5
2C2
330
1F
100
AcDbEntity
  8
0
  6
Continuous
 62
     7
370
    25
100
AcDbLine
 10
192.5869660984
 20
137.8986039413
 30
0.0
 11
192.8597405234
 21
137.8986039413
 31
0.0
  0
LINE
  5
2C3
330
1F
100
AcDbEntity
  8
0
  6
Continuous
 62
     7
370
    25
100
AcDbLine
 10
193.1097405234
 20
137.6486039413
 30
0.0
 11
193.1097405234
 21
135.1486039413
 31
0.0
  0
LINE
  5
2C4
330
1F
100
AcDbEntity
  8
0
  6
Continuous
 62
     7
370
    25
100
AcDbLine
 10
192.8597405234
 20
135.1486039413
 30
0.0
 11
193.1097405234
 21
135.1486039413
 31
0.0
  0
LINE
  5
2C5
330
1F
100
AcDbEntity
  8
0
  6
Continuous
 62
     7
370
    25
100
AcDbLine
 10
181.1097405234
 20
135.1486039413
 30
0.0
 11
181.3597405234
 21
135.1486039413
 31
0.0
  0
LINE
  5
2C6
330
1F
100
AcDbEntity
  8
0
  6
Continuous
 62
     7
370
    25
100
AcDbLine
 10
181.1097405234
 20
135.1486039413
 30
0.0
 11
181.1097405234
 21
137.6486039413
 31
0.0
  0
LINE
  5
2C7
330
1F
100
AcDbEntity
  8
0
  6
Continuous
 62
     7
370
    25
100
AcDbLine
 10
181.3597405234
 20
135.1486039413
 30
0.0
 11
181.3597405234
 21
134.8986039413
 31
0.0
  0
ARC
  5
2C8
330
1F
100
AcDbEntity
  8
0
  6
Continuous
 62
     7
370
    25
100
AcDbCircle
 10
181.3597405234
 20
135.1486039413
 30
0.0
 40
0.25
100
AcDbArc
 50
180.0
 51
270.0
  0
LINE
  5
2C9
330
1F
100
AcDbEntity
  8
0
  6
Continuous
 62
     7
370
    25
100
AcDbLine
 10
181.6325149483
 20
134.8986039413
 30
0.0
 11
181.3597405234
 21
134.8986039413
 31
0.0
  0
ARC
  5
2CA
330
1F
100
AcDbEntity
  8
0
  6
Continuous
 62
     7
370
    25
100
AcDbCircle
 10
192.8597405234
 20
135.1486039413
 30
0.0
 40
0.25
100
AcDbArc
 50
270.0
 51
0.0
  0
LINE
  5
2CB
330
1F
100
AcDbEntity
  8
0
  6
Continuous
 62
     7
370
    25
100
AcDbLine
 10
192.8597405234
 20
134.8986039413
 30
0.0
 11
192.8597405234
 21
135.1486039413
 31
0.0
  0
LINE
  5
2CC
330
1F
100
AcDbEntity
  8
0
  6
Continuous
 62
     7
370
    25
100
AcDbLine
 10
192.8597405234
 20
134.8986039413
 30
0.0
 11
192.5869660984
 21
134.8986039413
 31
0.0
  0
LINE
  5
2CD
330
1F
100
AcDbEntity
  8
0
  6
Continuous
 62
     7
370
    25
100
AcDbLine
 10
167.1097405234
 20
139.6703032053
 30
0.0
 11
164.9343036618
 21
139.8986039413
 31
0.0
  0
LINE
  5
2CE
330
1F
100
AcDbEntity
  8
0
  6
Continuous
 62
     7
370
    25
100
AcDbLine
 10
167.1097405234
 20
133.1269046772
 30
0.0
 11
167.1097405234
 21
139.6703032053
 31
0.0
  0
LINE
  5
2CF
330
1F
100
AcDbEntity
  8
0
  6
Continuous
 62
     7
370
    25
100
AcDbLine
 10
164.9343036618
 20
132.8986039413
 30
0.0
 11
167.1097405234
 21
133.1269046772
 31
0.0
  0
LINE
  5
2D0
330
1F
100
AcDbEntity
  8
0
  6
Continuous
 62
     7
370
    25
100
AcDbLine
 10
147.1097405234
 20
132.8986039413
 30
0.0
 11
164.9343036618
 21
132.8986039413
 31
0.0
  0
LINE
  5
2D1
330
1F
100
AcDbEntity
  8
0
  6
Continuous
 62
     7
370
    25
100
AcDbLine
 10
147.1097405234
 20
139.8986039413
 30
0.0
 11
147.1097405234
 21
132.8986039413
 31
0.0
  0
LINE
  5
2D2
330
1F
100
AcDbEntity
  8
0
  6
Continuous
 62
     7
370
    25
100
AcDbLine
 10
164.9343036618
 20
139.8986039413
 30
0.0
 11
147.1097405234
 21
139.8986039413
 31
0.0
  0
LINE
  5
2D3
330
1F
100
AcDbEntity
  8
0
  6
Continuous
 62
     7
370
    25
100
AcDbLine
 10
181.885938349
 20
138.1196184221
 30
0.0
 11
181.7893740317
 21
137.9602191018
 31
0.0
  0
LINE
  5
2D4
330
1F
100
AcDbEntity
  8
0
  6
Continuous
 62
     7
370
    25
100
AcDbLine
 10
181.7670966511
 20
134.8533862739
 30
0.0
 11
181.885938349
 21
134.6775894605
 31
0.0
  0
LINE
  5
2D5
330
1F
100
AcDbEntity
  8
0
  6
Continuous
 62
     7
370
    25
100
AcDbLine
 10
173.6931708698
 20
138.9794065768
 30
0.0
 11
173.6931708698
 21
133.8178013057
 31
0.0
  0
LINE
  5
2D6
330
1F
100
AcDbEntity
  8
0
  6
Continuous
 62
     7
370
    25
100
AcDbLine
 10
181.885938349
 20
134.6775894604
 30
0.0
 11
173.6931708698
 21
133.8178013057
 31
0.0
  0
LINE
  5
2D7
330
1F
100
AcDbEntity
  8
0
  6
Continuous
 62
     7
370
    25
100
AcDbLine
 10
173.6931708698
 20
138.9794065768
 30
0.0
 11
181.885938349
 21
138.1196184221
 31
0.0
  0
LINE
  5
2D8
330
1F
100
AcDbEntity
  8
0
  6
Continuous
 62
     7
370
    25
100
AcDbLine
 10
173.6931708698
 20
133.8178013057
 30
0.0
 11
167.1097405234
 21
133.1269046772
 31
0.0
  0
LINE
  5
2D9
330
1F
100
AcDbEntity
  8
0
  6
Continuous
 62
     7
370
    25
100
AcDbLine
 10
167.1097405234
 20
139.6703032053
 30
0.0
 11
173.6931708698
 21
138.9794065768
 31
0.0
  0
ARC
  5
2DA
330
1F
100
AcDbEntity
  8
0
  6
Continuous
 62
     7
370
    25
100
AcDbCircle
 10
187.1097405234
 20
136.3986039413
 30
0.0
 40
7.450000000000627
100
AcDbArc
 50
233.0863788866
 51
126.9136211134
  0
ARC
  5
2DB
330
1F
100
AcDbEntity
  8
0
  6
Continuous
 62
     7
370
    25
100
AcDbCircle
 10
187.1097405234
 20
136.3986039413
 30
0.0
 40
7.207531252870791
100
AcDbArc
 50
195.3041237151
 51
238.9797515565
  0
ARC
  5
2DC
330
1F
100
AcDbEntity
  8
0
  6
Continuous
 62
     7
370
    25
100
AcDbCircle
 10
187.1097405234
 20
136.3986039413
 30
0.0
 40
7.207531252872426
100
AcDbArc
 50
121.0202484435
 51
164.6958762849
  0
ARC
  5
2DD
330
1F
100
AcDbEntity
  8
0
  6
Continuous
 62
     7
370
    25
100
AcDbCircle
 10
164.9343036618
 20
204.8986039413
 30
0.0
 40
65.0
100
AcDbArc
 50
270.0
 51
286.5000949923
  0
ARC
  5
2DE
330
1F
100
AcDbEntity
  8
0
  6
Continuous
 62
     7
370
    25
100
AcDbCircle
 10
164.9343036618
 20
67.8986039413
 30
0.0
 40
64.99999999999999
100
AcDbArc
 50
73.4999050077
 51
90.0
  0
LINE
  5
2DF
330
1F
100
AcDbEntity
  8
0
  6
Continuous
 62
     7
370
    25
100
AcDbLine
 10
172.8097405234
 20
144.8986039413
 30
0.0
 11
172.8097405234
 21
140.3774640394
 31
0.0
  0
LINE
  5
2E0
330
1F
100
AcDbEntity
  8
0
  6
Continuous
 62
     7
370
    25
100
AcDbLine
 10
172.8097405234
 20
132.4197438432
 30
0.0
 11
172.8097405234
 21
127.8986039413
 31
0.0
  0
LINE
  5
2E1
330
1F
100
AcDbEntity
  8
0
  6
Continuous
 62
     7
370
    25
100
AcDbLine
 10
175.6097405234
 20
144.8986039413
 30
0.0
 11
175.6097405234
 21
140.7812502231
 31
0.0
  0
LINE
  5
2E2
330
1F
100
AcDbEntity
  8
0
  6
Continuous
 62
     7
370
    25
100
AcDbLine
 10
175.6097405234
 20
132.0159576594
 30
0.0
 11
175.6097405234
 21
127.8986039413
 31
0.0
  0
LINE
  5
2E3
330
1F
100
AcDbEntity
  8
0
  6
Continuous
 62
     7
370
    25
100
AcDbLine
 10
172.6097405234
 20
128.0986039413
 30
0.0
 11
172.6097405234
 21
132.4438413255
 31
0.0
  0
LINE
  5
2E4
330
1F
100
AcDbEntity
  8
0
  6
Continuous
 62
     7
370
    25
100
AcDbLine
 10
172.6097405234
 20
140.3533665571
 30
0.0
 11
172.6097405234
 21
144.6986039413
 31
0.0
  0
SPLINE
  5
2E5
330
1F
100
AcDbEntity
  8
0
  6
Continuous
 62
     7
370
    25
100
AcDbSpline
210
0.0
220
0.0
230
1.0
 70
    24
 71
     3
 72
    10
 73
     6
 74
     0
 42
0.00000001
 43
0.00000001
 40
0.0
 40
0.0
 40
0.0
 40
0.0
 40
0.3696152770602492
 40
0.7422760833961306
 40
1.0
 40
1.0
 40
1.0
 40
1.0
 10
198.2876815508115
 20
127.8986039412659
 30
0.0
 10
198.4288843916365
 20
127.8986039412658
 30
0.0
 10
198.7124535462603
 20
127.8986039412659
 30
0.0
 10
198.9315940914723
 20
127.8986039412659
 30
0.0
 10
198.9539850784496
 20
127.8986039412659
 30
0.0
 10
198.963139318155
 20
127.8986039412659
 30
0.0
  0
SPLINE
  5
2E6
330
1F
100
AcDbEntity
  8
0
  6
Continuous
 62
     7
370
    25
100
AcDbSpline
210
0.0
220
0.0
230
1.0
 70
     8
 71
     3
 72
    10
 73
     6
 74
     0
 42
0.00000001
 43
0.00000001
 40
0.0
 40
0.0
 40
0.0
 40
0.0
 40
0.5
 40
0.5
 40
1.0
 40
1.0
 40
1.0
 40
1.0
 10
198.2876815508115
 20
128.1486039412659
 30
0.0
 10
198.2640061563871
 20
128.0742235638885
 30
0.0
 10
198.2509150465025
 20
128.0099229251028
 30
0.0
 10
198.2508287252142
 20
127.9217072403198
 30
0.0
 10
198.263997659158
 20
127.8986039412659
 30
0.0
 10
198.2876815508115
 20
127.8986039412659
 30
0.0
  0
SPLINE
  5
2E7
330
1F
100
AcDbEntity
  8
0
  6
Continuous
 62
     7
370
    25
100
AcDbSpline
210
0.0
220
0.0
230
1.0
 70
     8
 71
     3
 72
    16
 73
    12
 74
     0
 42
0.00000001
 43
0.00000001
 40
0.0
 40
0.0
 40
0.0
 40
0.0
 40
0.2500000000000001
 40
0.2500000000000001
 40
0.5000000000000001
 40
0.5000000000000001
 40
0.6250000000000001
 40
0.6250000000000001
 40
0.7500000000000002
 40
0.7500000000000002
 40
1.0
 40
1.0
 40
1.0
 40
1.0
 10
198.2876815508115
 20
136.1486039412659
 30
0.0
 10
198.4956969989173
 20
135.4950871612251
 30
0.0
 10
198.6659033038902
 20
134.8368667521351
 30
0.0
 10
198.9008393354578
 20
133.5073041687693
 30
0.0
 10
198.9649114671215
 20
132.8358801866987
 30
0.0
 10
198.9656444160425
 20
131.816879099692
 30
0.0
 10
198.9499849359595
 20
131.4755383173759
 30
0.0
 10
198.8887098093226
 20
130.7999398144054
 30
0.0
 10
198.8431535368234
 20
130.4642806644408
 30
0.0
 10
198.6666675040671
 20
129.4630150279411
 30
0.0
 10
198.4960110505814
 20
128.8031073693379
 30
0.0
 10
198.2876815508115
 20
128.1486039412659
 30
0.0
  0
SPLINE
  5
2E8
330
1F
100
AcDbEntity
  8
0
  6
Continuous
 62
     7
370
    25
100
AcDbSpline
210
0.0
220
0.0
230
1.0
 70
     8
 71
     3
 72
    10
 73
     6
 74
     0
 42
0.00000001
 43
0.00000001
 40
0.0
 40
0.0
 40
0.0
 40
0.0
 40
0.5
 40
0.5
 40
1.0
 40
1.0
 40
1.0
 40
1.0
 10
198.2876815508115
 20
136.6486039412659
 30
0.0
 10
198.2640061563871
 20
136.5742235638885
 30
0.0
 10
198.2509150465025
 20
136.487130475773
 30
0.0
 10
198.2508287252142
 20
136.310972086897
 30
0.0
 10
198.263997659158
 20
136.2230110141691
 30
0.0
 10
198.2876815508115
 20
136.1486039412659
 30
0.0
  0
SPLINE
  5
2E9
330
1F
100
AcDbEntity
  8
0
  6
Continuous
 62
     7
370
    25
100
AcDbSpline
210
0.0
220
0.0
230
1.0
 70
     8
 71
     3
 72
    16
 73
    12
 74
     0
 42
0.00000001
 43
0.00000001
 40
0.0
 40
0.0
 40
0.0
 40
0.0
 40
0.2499999999999997
 40
0.2499999999999997
 40
0.4999999999999993
 40
0.4999999999999993
 40
0.6249999999999993
 40
0.6249999999999993
 40
0.7499999999999996
 40
0.7499999999999996
 40
1.0
 40
1.0
 40
1.0
 40
1.0
 10
198.2876815508115
 20
144.6486039412659
 30
0.0
 10
198.4956969989173
 20
143.9950871612251
 30
0.0
 10
198.6659033038902
 20
143.3368667521351
 30
0.0
 10
198.9008393354578
 20
142.0073041687693
 30
0.0
 10
198.9649114671215
 20
141.3358801866987
 30
0.0
 10
198.9656444160425
 20
140.316879099692
 30
0.0
 10
198.9499849359595
 20
139.9755383173759
 30
0.0
 10
198.8887098093226
 20
139.2999398144054
 30
0.0
 10
198.8431535368234
 20
138.9642806644408
 30
0.0
 10
198.6666675040671
 20
137.9630150279411
 30
0.0
 10
198.4960110505814
 20
137.3031073693379
 30
0.0
 10
198.2876815508115
 20
136.6486039412659
 30
0.0
  0
SPLINE
  5
2EA
330
1F
100
AcDbEntity
  8
0
  6
Continuous
 62
     7
370
    25
100
AcDbSpline
210
0.0
220
0.0
230
1.0
 70
     8
 71
     3
 72
    10
 73
     6
 74
     0
 42
0.00000001
 43
0.00000001
 40
0.0
 40
0.0
 40
0.0
 40
0.0
 40
0.5
 40
0.5
 40
1.0
 40
1.0
 40
1.0
 40
1.0
 10
198.2876815508115
 20
144.8986039412659
 30
0.0
 10
198.2640061563871
 20
144.8986039412659
 30
0.0
 10
198.2509150465025
 20
144.8758114919361
 30
0.0
 10
198.2508287252142
 20
144.787868787843
 30
0.0
 10
198.263997659158
 20
144.7230110141691
 30
0.0
 10
198.2876815508115
 20
144.6486039412659
 30
0.0
  0
SPLINE
  5
2EB
330
1F
100
AcDbEntity
  8
0
  6
Continuous
 62
     7
370
    25
100
AcDbSpline
210
0.0
220
0.0
230
1.0
 70
    24
 71
     3
 72
    10
 73
     6
 74
     0
 42
0.00000001
 43
0.00000001
 40
0.0
 40
0.0
 40
0.0
 40
0.0
 40
0.2577198432893485
 40
0.6270822012201618
 40
1.0
 40
1.0
 40
1.0
 40
1.0
 10
198.9617974283665
 20
144.8986039412659
 30
0.0
 10
198.9531936550019
 20
144.8986039412659
 30
0.0
 10
198.9322590111211
 20
144.8986039412659
 30
0.0
 10
198.7132878630345
 20
144.8986039412659
 30
0.0
 10
198.4300026233346
 20
144.8986039412659
 30
0.0
 10
198.2876815508115
 20
144.8986039412659
 30
0.0
  0
LINE
  5
2EC
330
1F
100
AcDbEntity
  8
0
  6
Continuous
 62
     7
370
    25
100
AcDbLine
 10
199.1097405234
 20
144.6486039413
 30
0.0
 11
199.1097405234
 21
128.1486039413
 31
0.0
  0
SPLINE
  5
2ED
330
1F
100
AcDbEntity
  8
0
  6
Continuous
 62
     7
370
    25
100
AcDbSpline
210
0.0
220
0.0
230
1.0
 70
     8
 71
     3
 72
    10
 73
     6
 74
     0
 42
0.00000001
 43
0.00000001
 40
0.0
 40
0.0
 40
0.0
 40
0.0
 40
0.0498536884990144
 40
0.5210072120990525
 40
1.0
 40
1.0
 40
1.0
 40
1.0
 10
193.1111827949022
 20
140.7540379916895
 30
0.0
 10
193.1118689840353
 20
140.8196310440343
 30
0.0
 10
193.1190401582847
 20
141.505126026736
 30
0.0
 10
193.2655634136809
 20
142.8217711793223
 30
0.0
 10
193.6125414994135
 20
144.0363194421305
 30
0.0
 10
193.7874619286293
 20
144.6486039412659
 30
0.0
  0
LINE
  5
2EE
330
1F
100
AcDbEntity
  8
0
  6
Continuous
 62
     7
370
    25
100
AcDbLine
 10
198.2876815508
 20
144.6486039413
 30
0.0
 11
193.7874619286
 21
144.6486039413
 31
0.0
  0
SPLINE
  5
2EF
330
1F
100
AcDbEntity
  8
0
  6
Continuous
 62
     7
370
    25
100
AcDbSpline
210
0.0
220
0.0
230
1.0
 70
     8
 71
     3
 72
    10
 73
     6
 74
     0
 42
0.00000001
 43
0.00000001
 40
0.0
 40
0.0
 40
0.0
 40
0.0
 40
0.0812118530414641
 40
0.5372829595337943
 40
0.9999999999999999
 40
0.9999999999999999
 40
0.9999999999999999
 40
0.9999999999999999
 10
175.6138754313813
 20
140.8322358763182
 30
0.0
 10
175.6156525049015
 20
140.9369754874082
 30
0.0
 10
175.6274093025177
 20
141.6299138470112
 30
0.0
 10
175.7913455484002
 20
142.9182222215996
 30
0.0
 10
176.1212942549383
 20
144.0690352827556
 30
0.0
 10
176.2874619286293
 20
144.6486039412659
 30
0.0
  0
LINE
  5
2F0
330
1F
100
AcDbEntity
  8
0
  6
Continuous
 62
     7
370
    25
100
AcDbLine
 10
180.4320191181
 20
144.6486039413
 30
0.0
 11
176.2874619286
 21
144.6486039413
 31
0.0
  0
SPLINE
  5
2F1
330
1F
100
AcDbEntity
  8
0
  6
Continuous
 62
     7
370
    25
100
AcDbSpline
210
0.0
220
0.0
230
1.0
 70
     8
 71
     3
 72
     9
 73
     5
 74
     0
 42
0.00000001
 43
0.00000001
 40
0.0
 40
0.0
 40
0.0
 40
0.0
 40
0.7354033951503907
 40
1.0
 40
1.0
 40
1.0
 40
1.0
 10
180.4320191181089
 20
144.6486039412659
 30
0.0
 10
180.6346968967034
 20
143.9991066416897
 30
0.0
 10
180.9102977165133
 20
143.1159215709391
 30
0.0
 10
180.9737808987956
 20
142.2056747063615
 30
0.0
 10
180.9905783332925
 20
141.9648264764193
 30
0.0
  0
SPLINE
  5
2F2
330
1F
100
AcDbEntity
  8
0
  6
Continuous
 62
     7
370
    25
100
AcDbSpline
210
0.0
220
0.0
230
1.0
 70
     8
 71
     3
 72
     9
 73
     5
 74
     0
 42
0.00000001
 43
0.00000001
 40
0.0
 40
0.0
 40
0.0
 40
0.0
 40
0.3160819061498747
 40
0.9999999999999999
 40
0.9999999999999999
 40
0.9999999999999999
 40
0.9999999999999999
 10
180.9987147260073
 20
130.8647325644735
 30
0.0
 10
180.9736365836831
 20
130.5738442059363
 30
0.0
 10
180.894295938628
 20
129.6535499629646
 30
0.0
 10
180.6197714102632
 20
128.7598330849318
 30
0.0
 10
180.4320191181089
 20
128.1486039412659
 30
0.0
  0
LINE
  5
2F3
330
1F
100
AcDbEntity
  8
0
  6
Continuous
 62
     7
370
    25
100
AcDbLine
 10
176.2874619286
 20
128.1486039413
 30
0.0
 11
180.4320191181
 21
128.1486039413
 31
0.0
  0
SPLINE
  5
2F4
330
1F
100
AcDbEntity
  8
0
  6
Continuous
 62
     7
370
    25
100
AcDbSpline
210
0.0
220
0.0
230
1.0
 70
     8
 71
     3
 72
     9
 73
     5
 74
     0
 42
0.00000001
 43
0.00000001
 40
0.0
 40
0.0
 40
0.0
 40
0.0
 40
0.5153442191329356
 40
1.0
 40
1.0
 40
1.0
 40
1.0
 10
176.2874619286293
 20
128.1486039412659
 30
0.0
 10
176.0962266426232
 20
128.7995610646403
 30
0.0
 10
175.7251440168632
 20
130.0627112062479
 30
0.0
 10
175.6567562211172
 20
131.3644789054418
 30
0.0
 10
175.6236116805682
 20
131.9953881462021
 30
0.0
  0
LINE
  5
2F5
330
1F
100
AcDbEntity
  8
0
  6
Continuous
 62
     7
370
    25
100
AcDbLine
 10
193.7874619286
 20
128.1486039413
 30
0.0
 11
198.2876815508
 21
128.1486039413
 31
0.0
  0
SPLINE
  5
2F6
330
1F
100
AcDbEntity
  8
0
  6
Continuous
 62
     7
370
    25
100
AcDbSpline
210
0.0
220
0.0
230
1.0
 70
     8
 71
     3
 72
     9
 73
     5
 74
     0
 42
0.00000001
 43
0.00000001
 40
0.0
 40
0.0
 40
0.0
 40
0.0
 40
0.5089221384932903
 40
1.0
 40
1.0
 40
1.0
 40
1.0
 10
193.7874619286293
 20
128.1486039412658
 30
0.0
 10
193.5965605737569
 20
128.7996036672998
 30
0.0
 10
193.2214514157281
 20
130.0787771926672
 30
0.0
 10
193.1528567891186
 20
131.3970555899862
 30
0.0
 10
193.1191714865724
 20
132.0444329262121
 30
0.0
  0
LINE
  5
2F7
330
1F
100
AcDbEntity
  8
0
  6
Continuous
 62
     7
370
    25
100
AcDbLine
 10
193.1097405234
 20
131.9824404479
 30
0.0
 11
193.1097405234
 21
128.8986039413
 31
0.0
  0
LINE
  5
2F8
330
1F
100
AcDbEntity
  8
0
  6
Continuous
 62
     7
370
    25
100
AcDbLine
 10
193.1097405234
 20
128.8986039413
 30
0.0
 11
181.1097405234
 21
128.8986039413
 31
0.0
  0
LINE
  5
2F9
330
1F
100
AcDbEntity
  8
0
  6
Continuous
 62
     7
370
    25
100
AcDbLine
 10
181.1097405234
 20
130.8537883373
 30
0.0
 11
181.1097405234
 21
128.8986039413
 31
0.0
  0
LINE
  5
2FA
330
1F
100
AcDbEntity
  8
0
  6
Continuous
 62
     7
370
    25
100
AcDbLine
 10
181.1097405234
 20
143.8986039413
 30
0.0
 11
181.1097405234
 21
141.9434195452
 31
0.0
  0
LINE
  5
2FB
330
1F
100
AcDbEntity
  8
0
  6
Continuous
 62
     7
370
    25
100
AcDbLine
 10
181.1097405234
 20
143.8986039413
 30
0.0
 11
193.1097405234
 21
143.8986039413
 31
0.0
  0
LINE
  5
2FC
330
1F
100
AcDbEntity
  8
0
  6
Continuous
 62
     7
370
    25
100
AcDbLine
 10
193.1097405234
 20
143.8986039413
 30
0.0
 11
193.1097405234
 21
140.8147674346
 31
0.0
  0
SPLINE
  5
2FD
330
1F
100
AcDbEntity
  8
0
  6
Continuous
 62
     7
370
    25
100
AcDbSpline
210
0.0
220
0.0
230
1.0
 70
     8
 71
     3
 72
     8
 73
     4
 74
     0
 42
0.00000001
 43
0.00000001
 40
0.0
 40
0.0
 40
0.0
 40
0.0
 40
1.0
 40
1.0
 40
1.0
 40
1.0
 10
180.5935044463899
 20
144.8986039412659
 30
0.0
 10
180.7672075226097
 20
144.5660925191304
 30
0.0
 10
180.9395097416724
 20
144.2327654192315
 30
0.0
 10
181.1097405233691
 20
143.8986039412659
 30
0.0
  0
SPLINE
  5
2FE
330
1F
100
AcDbEntity
  8
0
  6
Continuous
 62
     7
370
    25
100
AcDbSpline
210
0.0
220
0.0
230
1.0
 70
     8
 71
     3
 72
    10
 73
     6
 74
     0
 42
0.00000001
 43
0.00000001
 40
0.0
 40
0.0
 40
0.0
 40
0.0
 40
0.5
 40
0.5
 40
1.0
 40
1.0
 40
1.0
 40
1.0
 10
180.4320191181145
 20
144.8986039412659
 30
0.0
 10
180.4083437236903
 20
144.8986039412659
 30
0.0
 10
180.3952526137999
 20
144.8758114919364
 30
0.0
 10
180.3951662925115
 20
144.7878687878433
 30
0.0
 10
180.4083352264554
 20
144.7230110141693
 30
0.0
 10
180.4320191181089
 20
144.6486039412659
 30
0.0
  0
SPLINE
  5
2FF
330
1F
100
AcDbEntity
  8
0
  6
Continuous
 62
     7
370
    25
100
AcDbSpline
210
0.0
220
0.0
230
1.0
 70
    24
 71
     3
 72
     8
 73
     4
 74
     0
 42
0.00000001
 43
0.00000001
 40
0.0
 40
0.0
 40
0.0
 40
0.0
 40
1.0
 40
1.0
 40
1.0
 40
1.0
 10
180.5935044463899
 20
144.8986039412659
 30
0.0
 10
180.5426057294675
 20
144.8986039412659
 30
0.0
 10
180.4886715932169
 20
144.8986039412659
 30
0.0
 10
180.4320191181093
 20
144.8986039412659
 30
0.0
  0
SPLINE
  5
300
330
1F
100
AcDbEntity
  8
0
  6
Continuous
 62
     7
370
    25
100
AcDbSpline
210
0.0
220
0.0
230
1.0
 70
     8
 71
     3
 72
     8
 73
     4
 74
     0
 42
0.00000001
 43
0.00000001
 40
0.0
 40
0.0
 40
0.0
 40
0.0
 40
1.0
 40
1.0
 40
1.0
 40
1.0
 10
193.1097405233691
 20
143.8986039412659
 30
0.0
 10
193.2800181307128
 20
144.2328573375512
 30
0.0
 10
193.4522898793385
 20
144.5661238271202
 30
0.0
 10
193.6259766003482
 20
144.8986039412656
 30
0.0
  0
SPLINE
  5
301
330
1F
100
AcDbEntity
  8
0
  6
Continuous
 62
     7
370
    25
100
AcDbSpline
210
0.0
220
0.0
230
1.0
 70
    24
 71
     3
 72
     8
 73
     4
 74
     0
 42
0.00000001
 43
0.00000001
 40
0.0
 40
0.0
 40
0.0
 40
0.0
 40
1.0
 40
1.0
 40
1.0
 40
1.0
 10
193.6259766003477
 20
144.8986039412659
 30
0.0
 10
193.676872833603
 20
144.8986039412659
 30
0.0
 10
193.7308067885668
 20
144.8986039412659
 30
0.0
 10
193.7874619286293
 20
144.8986039412659
 30
0.0
  0
SPLINE
  5
302
330
1F
100
AcDbEntity
  8
0
  6
Continuous
 62
     7
370
    25
100
AcDbSpline
210
0.0
220
0.0
230
1.0
 70
     8
 71
     3
 72
    10
 73
     6
 74
     0
 42
0.00000001
 43
0.00000001
 40
0.0
 40
0.0
 40
0.0
 40
0.0
 40
0.5
 40
0.5
 40
1.0
 40
1.0
 40
1.0
 40
1.0
 10
193.7874619286293
 20
144.6486039412659
 30
0.0
 10
193.8111373230537
 20
144.7229843186432
 30
0.0
 10
193.8242284329383
 20
144.787284957429
 30
0.0
 10
193.8243147542266
 20
144.8755006422119
 30
0.0
 10
193.8111458202827
 20
144.8986039412659
 30
0.0
 10
193.7874619286293
 20
144.8986039412659
 30
0.0
  0
SPLINE
  5
303
330
1F
100
AcDbEntity
  8
0
  6
Continuous
 62
     7
370
    25
100
AcDbSpline
210
0.0
220
0.0
230
1.0
 70
     8
 71
     3
 72
    10
 73
     6
 74
     0
 42
0.00000001
 43
0.00000001
 40
0.0
 40
0.0
 40
0.0
 40
0.0
 40
0.5
 40
0.5
 40
1.0
 40
1.0
 40
1.0
 40
1.0
 10
176.2874619286293
 20
144.8986039412659
 30
0.0
 10
176.3111358291852
 20
144.8986039412659
 30
0.0
 10
176.3242283863644
 20
144.8758133696184
 30
0.0
 10
176.3243148003467
 20
144.7878673723196
 30
0.0
 10
176.311144408748
 20
144.7230065795868
 30
0.0
 10
176.2874619286293
 20
144.6486039412659
 30
0.0
  0
SPLINE
  5
304
330
1F
100
AcDbEntity
  8
0
  6
Continuous
 62
     7
370
    25
100
AcDbSpline
210
0.0
220
0.0
230
1.0
 70
    24
 71
     3
 72
    12
 73
     8
 74
     0
 42
0.00000001
 43
0.00000001
 40
0.0
 40
0.0
 40
0.0
 40
0.0
 40
0.2499999999999999
 40
0.2499999999999999
 40
0.4999999999999998
 40
0.4999999999999998
 40
1.0
 40
1.0
 40
1.0
 40
1.0
 10
175.6097405233691
 20
144.8986039412659
 30
0.0
 10
175.6097405233691
 20
144.8986039412659
 30
0.0
 10
175.6257393283502
 20
144.8986039412659
 30
0.0
 10
175.6875094666646
 20
144.8986039412659
 30
0.0
 10
175.7332515909661
 20
144.8986039412659
 30
0.0
 10
175.909921738313
 20
144.8986039412659
 30
0.0
 10
176.0801768037933
 20
144.8986039412659
 30
0.0
 10
176.2874619286293
 20
144.8986039412659
 30
0.0
  0
SPLINE
  5
305
330
1F
100
AcDbEntity
  8
0
  6
Continuous
 62
     7
370
    25
100
AcDbSpline
210
0.0
220
0.0
230
1.0
 70
     8
 71
     3
 72
     8
 73
     4
 74
     0
 42
0.00000001
 43
0.00000001
 40
0.0
 40
0.0
 40
0.0
 40
0.0
 40
1.0
 40
1.0
 40
1.0
 40
1.0
 10
193.6259766003483
 20
127.8986039412658
 30
0.0
 10
193.4522735241285
 20
128.2311153634013
 30
0.0
 10
193.2799713050658
 20
128.5644424633002
 30
0.0
 10
193.1097405233691
 20
128.8986039412659
 30
0.0
  0
SPLINE
  5
306
330
1F
100
AcDbEntity
  8
0
  6
Continuous
 62
     7
370
    25
100
AcDbSpline
210
0.0
220
0.0
230
1.0
 70
     8
 71
     3
 72
    10
 73
     6
 74
     0
 42
0.00000001
 43
0.00000001
 40
0.0
 40
0.0
 40
0.0
 40
0.0
 40
0.5
 40
0.5
 40
1.0
 40
1.0
 40
1.0
 40
1.0
 10
193.7874619286293
 20
127.8986039412659
 30
0.0
 10
193.8111373230537
 20
127.8986039412659
 30
0.0
 10
193.8242284329383
 20
127.9213963905957
 30
0.0
 10
193.8243147542266
 20
128.0093390946887
 30
0.0
 10
193.8111458202828
 20
128.0741968683625
 30
0.0
 10
193.7874619286293
 20
128.1486039412658
 30
0.0
  0
SPLINE
  5
307
330
1F
100
AcDbEntity
  8
0
  6
Continuous
 62
     7
370
    25
100
AcDbSpline
210
0.0
220
0.0
230
1.0
 70
    24
 71
     3
 72
     8
 73
     4
 74
     0
 42
0.00000001
 43
0.00000001
 40
0.0
 40
0.0
 40
0.0
 40
0.0
 40
1.0
 40
1.0
 40
1.0
 40
1.0
 10
193.6259766003483
 20
127.8986039412659
 30
0.0
 10
193.6768728336033
 20
127.8986039412659
 30
0.0
 10
193.730806788567
 20
127.8986039412659
 30
0.0
 10
193.7874619286293
 20
127.8986039412659
 30
0.0
  0
SPLINE
  5
308
330
1F
100
AcDbEntity
  8
0
  6
Continuous
 62
     7
370
    25
100
AcDbSpline
210
0.0
220
0.0
230
1.0
 70
     8
 71
     3
 72
     8
 73
     4
 74
     0
 42
0.00000001
 43
0.00000001
 40
0.0
 40
0.0
 40
0.0
 40
0.0
 40
1.0
 40
1.0
 40
1.0
 40
1.0
 10
181.1097405233691
 20
128.8986039412659
 30
0.0
 10
180.9394629160253
 20
128.5643505449804
 30
0.0
 10
180.7671911673996
 20
128.2310840554115
 30
0.0
 10
180.5935044463899
 20
127.8986039412658
 30
0.0
  0
SPLINE
  5
309
330
1F
100
AcDbEntity
  8
0
  6
Continuous
 62
     7
370
    25
100
AcDbSpline
210
0.0
220
0.0
230
1.0
 70
    24
 71
     3
 72
     8
 73
     4
 74
     0
 42
0.00000001
 43
0.00000001
 40
0.0
 40
0.0
 40
0.0
 40
0.0
 40
1.0
 40
1.0
 40
1.0
 40
1.0
 10
180.5935044463899
 20
127.8986039412659
 30
0.0
 10
180.5426057294674
 20
127.8986039412659
 30
0.0
 10
180.4886715932166
 20
127.8986039412659
 30
0.0
 10
180.4320191181089
 20
127.8986039412659
 30
0.0
  0
SPLINE
  5
30A
330
1F
100
AcDbEntity
  8
0
  6
Continuous
 62
     7
370
    25
100
AcDbSpline
210
0.0
220
0.0
230
1.0
 70
     8
 71
     3
 72
    10
 73
     6
 74
     0
 42
0.00000001
 43
0.00000001
 40
0.0
 40
0.0
 40
0.0
 40
0.0
 40
0.5
 40
0.5
 40
1.0
 40
1.0
 40
1.0
 40
1.0
 10
180.4320191181089
 20
128.1486039412659
 30
0.0
 10
180.4083437236845
 20
128.0742235638885
 30
0.0
 10
180.3952526137999
 20
128.0099229251028
 30
0.0
 10
180.3951662925116
 20
127.9217072403198
 30
0.0
 10
180.4083352264554
 20
127.8986039412659
 30
0.0
 10
180.4320191181089
 20
127.8986039412659
 30
0.0
  0
SPLINE
  5
30B
330
1F
100
AcDbEntity
  8
0
  6
Continuous
 62
     7
370
    25
100
AcDbSpline
210
0.0
220
0.0
230
1.0
 70
     8
 71
     3
 72
    10
 73
     6
 74
     0
 42
0.00000001
 43
0.00000001
 40
0.0
 40
0.0
 40
0.0
 40
0.0
 40
0.5
 40
0.5
 40
1.0
 40
1.0
 40
1.0
 40
1.0
 10
176.2874619286293
 20
128.1486039412659
 30
0.0
 10
176.3111341685409
 20
128.0742334743403
 30
0.0
 10
176.3242281584761
 20
128.0099278780524
 30
0.0
 10
176.3243150259376
 20
127.9217050902466
 30
0.0
 10
176.3111452361782
 20
127.8986039412658
 30
0.0
 10
176.2874619286293
 20
127.8986039412659
 30
0.0
  0
SPLINE
  5
30C
330
1F
100
AcDbEntity
  8
0
  6
Continuous
 62
     7
370
    25
100
AcDbSpline
210
0.0
220
0.0
230
1.0
 70
    24
 71
     3
 72
    12
 73
     8
 74
     0
 42
0.00000001
 43
0.00000001
 40
0.0
 40
0.0
 40
0.0
 40
0.0
 40
0.2500000000000001
 40
0.2500000000000001
 40
0.5000000000000001
 40
0.5000000000000001
 40
1.0
 40
1.0
 40
1.0
 40
1.0
 10
175.6097405233691
 20
127.8986039412659
 30
0.0
 10
175.6097405233691
 20
127.8986039412659
 30
0.0
 10
175.6257393283502
 20
127.8986039412659
 30
0.0
 10
175.6875094666646
 20
127.8986039412659
 30
0.0
 10
175.7332515909661
 20
127.8986039412659
 30
0.0
 10
175.909921738313
 20
127.8986039412658
 30
0.0
 10
176.0801768037933
 20
127.8986039412658
 30
0.0
 10
176.2874619286293
 20
127.8986039412659
 30
0.0
  0
LINE
  5
30D
330
1F
100
AcDbEntity
  8
0
  6
Continuous
 62
     7
370
    25
100
AcDbLine
 10
193.7874619286
 20
144.8986039413
 30
0.0
 11
198.2876815508
 21
144.8986039413
 31
0.0
  0
LINE
  5
30E
330
1F
100
AcDbEntity
  8
0
  6
Continuous
 62
     7
370
    25
100
AcDbLine
 10
176.2874619286
 20
144.8986039413
 30
0.0
 11
180.4320191181
 21
144.8986039413
 31
0.0
  0
LINE
  5
30F
330
1F
100
AcDbEntity
  8
0
  6
Continuous
 62
     7
370
    25
100
AcDbLine
 10
198.2876815508
 20
127.8986039413
 30
0.0
 11
193.7874619286
 21
127.8986039413
 31
0.0
  0
LINE
  5
310
330
1F
100
AcDbEntity
  8
0
  6
Continuous
 62
     7
370
    25
100
AcDbLine
 10
180.4320191181
 20
127.8986039413
 30
0.0
 11
176.2874619286
 21
127.8986039413
 31
0.0
  0
LINE
  5
311
330
1F
100
AcDbEntity
  8
0
  6
Continuous
 62
     7
370
    25
100
AcDbLine
 10
193.6259766003
 20
144.8986039413
 30
0.0
 11
180.5935044464
 21
144.8986039413
 31
0.0
  0
LINE
  5
312
330
1F
100
AcDbEntity
  8
0
  6
Continuous
 62
     7
370
    25
100
AcDbLine
 10
193.6259766003
 20
127.8986039413
 30
0.0
 11
180.5935044464
 21
127.8986039413
 31
0.0
  0
LINE
  5
313
330
1F
100
AcDbEntity
  8
0
  6
Continuous
 62
     7
370
    25
100
AcDbLine
 10
131.1377205651
 20
139.8320530643
 30
0.0
 11
131.1377205651
 21
132.9651548182
 31
0.0
  0
LINE
  5
314
330
1F
100
AcDbEntity
  8
0
  6
Continuous
 62
     7
370
    25
100
AcDbLine
 10
169.1316126009
 20
128.5486039413
 30
0.0
 11
169.1316126009
 21
132.7629438953
 31
0.0
  0
LINE
  5
315
330
1F
100
AcDbEntity
  8
0
  6
Continuous
 62
     7
370
    25
100
AcDbLine
 10
169.1316126009
 20
140.0342639873
 30
0.0
 11
169.1316126009
 21
144.2486039413
 31
0.0
  0
LINE
  5
316
330
1F
100
AcDbEntity
  8
0
  6
Continuous
 62
     7
370
    25
100
AcDbLine
 10
156.7316126009
 20
144.2486039413
 30
0.0
 11
156.7316126009
 21
139.8986039413
 31
0.0
  0
LINE
  5
317
330
1F
100
AcDbEntity
  8
0
  6
Continuous
 62
     7
370
    25
100
AcDbLine
 10
156.7316126009
 20
132.8986039413
 30
0.0
 11
156.7316126009
 21
128.5486039413
 31
0.0
  0
LINE
  5
318
330
1F
100
AcDbEntity
  8
0
  6
Continuous
 62
     7
370
    25
100
AcDbLine
 10
198.2876815508
 20
136.1486039413
 30
0.0
 11
194.555544711
 21
136.1486039413
 31
0.0
  0
LINE
  5
319
330
1F
100
AcDbEntity
  8
0
  6
Continuous
 62
     7
370
    25
100
AcDbLine
 10
194.555544711
 20
136.6486039413
 30
0.0
 11
198.2876815508
 21
136.6486039413
 31
0.0
  0
INSERT
  5
325
330
1F
100
AcDbEntity
  8
0
  6
Continuous
 62
     7
370
    18
100
AcDbBlockReference
  2
SW_CENTERMARKSYMBOL_1
 10
187.1097405234
 20
136.3986039413
 30
0.0
  0
ENDSEC
  0
SECTION
  2
OBJECTS
  0
DICTIONARY
  5
C
330
0
100
AcDbDictionary
281
     1
  3
ACAD_GROUP
350
D
  3
ACAD_LAYOUT
350
1A
  3
ACAD_MLINESTYLE
350
17
  3
ACAD_PLOTSETTINGS
350
19
  3
ACAD_PLOTSTYLENAME
350
E
  3
ACAD_SCALELIST
350
47
  3
DWGPROPS
350
326
  0
DICTIONARY
  5
D
102
{ACAD_REACTORS
330
C
102
}
330
C
100
AcDbDictionary
281
     1
  0
DICTIONARY
  5
1A
102
{ACAD_REACTORS
330
C
102
}
330
C
100
AcDbDictionary
281
     1
  3
Layout1
350
1E
  3
Layout2
350
26
  3
Model
350
22
  0
DICTIONARY
  5
17
102
{ACAD_REACTORS
330
C
102
}
330
C
100
AcDbDictionary
281
     1
  3
Standard
350
18
  0
DICTIONARY
  5
19
102
{ACAD_REACTORS
330
C
102
}
330
C
100
AcDbDictionary
281
     1
  0
ACDBDICTIONARYWDFLT
  5
E
102
{ACAD_REACTORS
330
C
102
}
330
C
100
AcDbDictionary
281
     1
  3
Normal
350
F
100
AcDbDictionaryWithDefault
340
F
  0
DICTIONARY
  5
47
102
{ACAD_REACTORS
330
C
102
}
330
C
100
AcDbDictionary
281
     1
  3
A0
350
48
  3
A1
350
49
  3
A2
350
4A
  3
A3
350
4B
  3
A4
350
4C
  3
A5
350
4D
  3
A6
350
4E
  3
A7
350
4F
  3
A8
350
50
  3
A9
350
51
  3
B0
350
52
  3
B1
350
53
  3
B2
350
54
  3
B3
350
55
  3
B4
350
56
  3
B5
350
57
  3
B6
350
58
  0
XRECORD
  5
326
102
{ACAD_REACTORS
330
C
102
}
330
C
100
AcDbXrecord
280
     1
  1
DWGPROPS COOKIE
  2

  3

  4

  6

  7

  8
user28
  9

300
=
301
=
302
=
303
=
304
=
305
=
306
=
307
=
308
=
309
=
 40
0.0
 41
2460137.04157794
 42
2460137.041579294
  1

 90
        0
  0
LAYOUT
  5
1E
102
{ACAD_REACTORS
330
1A
102
}
330
1A
100
AcDbPlotSettings
  1

  2
none_device
  4

  6

 40
0.0
 41
0.0
 42
0.0
 43
0.0
 44
0.0
 45
0.0
 46
0.0
 47
0.0
 48
0.0
 49
0.0
140
0.0
141
0.0
142
1.0
143
1.0
 70
   688
 72
     1
 73
     0
 74
     5
  7

 75
    16
147
1.0
148
0.0
149
0.0
100
AcDbLayout
  1
Layout1
 70
     1
 71
     1
 10
0.0
 20
0.0
 11
420.0
 21
297.0
 12
0.0
 22
0.0
 32
0.0
 14
1.0000000000E+20
 24
1.0000000000E+20
 34
1.0000000000E+20
 15
-1.0000000000E+20
 25
-1.0000000000E+20
 35
-1.0000000000E+20
146
0.0
 13
0.0
 23
0.0
 33
0.0
 16
1.0
 26
0.0
 36
0.0
 17
0.0
 27
1.0
 37
0.0
 76
     0
330
1B
  0
LAYOUT
  5
26
102
{ACAD_REACTORS
330
1A
102
}
330
1A
100
AcDbPlotSettings
  1

  2
none_device
  4

  6

 40
0.0
 41
0.0
 42
0.0
 43
0.0
 44
0.0
 45
0.0
 46
0.0
 47
0.0
 48
0.0
 49
0.0
140
0.0
141
0.0
142
1.0
143
1.0
 70
   688
 72
     1
 73
     0
 74
     5
  7

 75
    16
147
1.0
148
0.0
149
0.0
100
AcDbLayout
  1
Layout2
 70
     1
 71
     2
 10
0.0
 20
0.0
 11
0.0
 21
0.0
 12
0.0
 22
0.0
 32
0.0
 14
0.0
 24
0.0
 34
0.0
 15
0.0
 25
0.0
 35
0.0
146
0.0
 13
0.0
 23
0.0
 33
0.0
 16
1.0
 26
0.0
 36
0.0
 17
0.0
 27
1.0
 37
0.0
 76
     0
330
23
  0
LAYOUT
  5
22
102
{ACAD_REACTORS
330
1A
102
}
330
1A
100
AcDbPlotSettings
  1

  2
none_device
  4
Letter_(8.50_x_11.00_Inches)
  6

 40
6.35
 41
6.35
 42
6.35000508
 43
6.35000508
 44
215.9
 45
279.4
 46
0.0
 47
0.0
 48
0.0
 49
0.0
140
0.0
141
0.0
142
1.0
143
1.0
 70
  1712
 72
     1
 73
     0
 74
     0
  7

 75
     0
147
1.0
148
0.0
149
0.0
100
AcDbLayout
  1
Model
 70
     1
 71
     0
 10
0.0
 20
0.0
 11
431.8
 21
279.4
 12
0.0
 22
0.0
 32
0.0
 14
0.0
 24
0.0
 34
0.0
 15
431.8
 25
279.4
 35
0.0
146
0.0
 13
0.0
 23
0.0
 33
0.0
 16
1.0
 26
0.0
 36
0.0
 17
0.0
 27
1.0
 37
0.0
 76
     0
330
1F
331
29
  0
MLINESTYLE
  5
18
102
{ACAD_REACTORS
330
17
102
}
330
17
100
AcDbMlineStyle
  2
Standard
 70
     0
  3

 62
   256
 51
90.0
 52
90.0
 71
     2
 49
0.5
 62
   256
  6
BYLAYER
 49
-0.5
 62
   256
  6
BYLAYER
  0
ACDBPLACEHOLDER
  5
F
102
{ACAD_REACTORS
330
E
102
}
330
E
  0
SCALE
  5
48
102
{ACAD_REACTORS
330
47
102
}
330
47
100
AcDbScale
 70
     0
300
1:1
140
1.0
141
1.0
290
     1
  0
SCALE
  5
49
102
{ACAD_REACTORS
330
47
102
}
330
47
100
AcDbScale
 70
     0
300
1:2
140
1.0
141
2.0
290
     0
  0
SCALE
  5
4A
102
{ACAD_REACTORS
330
47
102
}
330
47
100
AcDbScale
 70
     0
300
1:4
140
1.0
141
4.0
290
     0
  0
SCALE
  5
4B
102
{ACAD_REACTORS
330
47
102
}
330
47
100
AcDbScale
 70
     0
300
1:5
140
1.0
141
5.0
290
     0
  0
SCALE
  5
4C
102
{ACAD_REACTORS
330
47
102
}
330
47
100
AcDbScale
 70
     0
300
1:8
140
1.0
141
8.0
290
     0
  0
SCALE
  5
4D
102
{ACAD_REACTORS
330
47
102
}
330
47
100
AcDbScale
 70
     0
300
1:10
140
1.0
141
10.0
290
     0
  0
SCALE
  5
4E
102
{ACAD_REACTORS
330
47
102
}
330
47
100
AcDbScale
 70
     0
300
1:16
140
1.0
141
16.0
290
     0
  0
SCALE
  5
4F
102
{ACAD_REACTORS
330
47
102
}
330
47
100
AcDbScale
 70
     0
300
1:20
140
1.0
141
20.0
290
     0
  0
SCALE
  5
50
102
{ACAD_REACTORS
330
47
102
}
330
47
100
AcDbScale
 70
     0
300
1:30
140
1.0
141
30.0
290
     0
  0
SCALE
  5
51
102
{ACAD_REACTORS
330
47
102
}
330
47
100
AcDbScale
 70
     0
300
1:40
140
1.0
141
40.0
290
     0
  0
SCALE
  5
52
102
{ACAD_REACTORS
330
47
102
}
330
47
100
AcDbScale
 70
     0
300
1:50
140
1.0
141
50.0
290
     0
  0
SCALE
  5
53
102
{ACAD_REACTORS
330
47
102
}
330
47
100
AcDbScale
 70
     0
300
1:100
140
1.0
141
100.0
290
     0
  0
SCALE
  5
54
102
{ACAD_REACTORS
330
47
102
}
330
47
100
AcDbScale
 70
     0
300
2:1
140
2.0
141
1.0
290
     0
  0
SCALE
  5
55
102
{ACAD_REACTORS
330
47
102
}
330
47
100
AcDbScale
 70
     0
300
4:1
140
4.0
141
1.0
290
     0
  0
SCALE
  5
56
102
{ACAD_REACTORS
330
47
102
}
330
47
100
AcDbScale
 70
     0
300
8:1
140
8.0
141
1.0
290
     0
  0
SCALE
  5
57
102
{ACAD_REACTORS
330
47
102
}
330
47
100
AcDbScale
 70
     0
300
10:1
140
10.0
141
1.0
290
     0
  0
SCALE
  5
58
102
{ACAD_REACTORS
330
47
102
}
330
47
100
AcDbScale
 70
     0
300
100:1
140
100.0
141
1.0
290
     0
  0
ENDSEC
  0
EOF
