  0
SECTION
  2
HEADER
  9
$ACADVER
  1
AC1015
  9
$ACADMAINTVER
 70
     6
  9
$DWGCODEPAGE
  3
DOS932
  9
$INSBASE
 10
0.0
 20
0.0
 30
0.0
  9
$EXTMIN
 10
0.0
 20
0.0
 30
0.0
  9
$EXTMAX
 10
431.8
 20
279.4
 30
0.0
  9
$LIMMIN
 10
0.0
 20
0.0
  9
$LIMMAX
 10
431.8
 20
279.4
  9
$ORTHOMODE
 70
     0
  9
$REGENMODE
 70
     1
  9
$FILLMODE
 70
     1
  9
$QTEXTMODE
 70
     0
  9
$MIRRTEXT
 70
     1
  9
$LTSCALE
 40
1.0
  9
$ATTMODE
 70
     1
  9
$TEXTSIZE
 40
3.5
  9
$TRACEWID
 40
1.0
  9
$TEXTSTYLE
  7
Standard
  9
$CLAYER
  8
0
  9
$CELTYPE
  6
ByLayer
  9
$CECOLOR
 62
   256
  9
$CELTSCALE
 40
1.0
  9
$DISPSILH
 70
     0
  9
$DIMSCALE
 40
1.0
  9
$DIMASZ
 40
3.556
  9
$DIMEXO
 40
1.0
  9
$DIMDLI
 40
3.75
  9
$DIMRND
 40
0.0
  9
$DIMDLE
 40
0.0
  9
$DIMEXE
 40
1.0
  9
$DIMTP
 40
0.0
  9
$DIMTM
 40
0.0
  9
$DIMTXT
 40
3.5
  9
$DIMCEN
 40
2.5
  9
$DIMTSZ
 40
0.0
  9
$DIMTOL
 70
     0
  9
$DIMLIM
 70
     0
  9
$DIMTIH
 70
     1
  9
$DIMTOH
 70
     1
  9
$DIMSE1
 70
     0
  9
$DIMSE2
 70
     0
  9
$DIMTAD
 70
     1
  9
$DIMZIN
 70
     0
  9
$DIMBLK
  1

  9
$DIMASO
 70
     1
  9
$DIMSHO
 70
     1
  9
$DIMPOST
  1

  9
$DIMAPOST
  1

  9
$DIMALT
 70
     0
  9
$DIMALTD
 70
     3
  9
$DIMALTF
 40
0.0393700787
  9
$DIMLFAC
 40
1.0
  9
$DIMTOFL
 70
     1
  9
$DIMTVP
 40
0.0
  9
$DIMTIX
 70
     0
  9
$DIMSOXD
 70
     0
  9
$DIMSAH
 70
     0
  9
$DIMBLK1
  1

  9
$DIMBLK2
  1

  9
$DIMSTYLE
  2
ISO-25
  9
$DIMCLRD
 70
     0
  9
$DIMCLRE
 70
     0
  9
$DIMCLRT
 70
     0
  9
$DIMTFAC
 40
1.0
  9
$DIMGAP
 40
1.524
  9
$DIMJUST
 70
     0
  9
$DIMSD1
 70
     0
  9
$DIMSD2
 70
     0
  9
$DIMTOLJ
 70
     0
  9
$DIMTZIN
 70
     0
  9
$DIMALTZ
 70
     0
  9
$DIMALTTZ
 70
     0
  9
$DIMUPT
 70
     0
  9
$DIMDEC
 70
     3
  9
$DIMTDEC
 70
     3
  9
$DIMALTU
 70
     2
  9
$DIMALTTD
 70
     3
  9
$DIMTXSTY
  7
Standard
  9
$DIMAUNIT
 70
     0
  9
$DIMADEC
 70
     2
  9
$DIMALTRND
 40
0.0
  9
$DIMAZIN
 70
     0
  9
$DIMDSEP
 70
    44
  9
$DIMATFIT
 70
     3
  9
$DIMFRAC
 70
     0
  9
$DIMLDRBLK
  1

  9
$DIMLUNIT
 70
     2
  9
$DIMLWD
 70
    -2
  9
$DIMLWE
 70
    -2
  9
$DIMTMOVE
 70
     0
  9
$LUNITS
 70
     2
  9
$LUPREC
 70
     3
  9
$SKETCHINC
 40
1.0
  9
$FILLETRAD
 40
0.0
  9
$AUNITS
 70
     0
  9
$AUPREC
 70
     2
  9
$MENU
  1
.
  9
$ELEVATION
 40
0.0
  9
$PELEVATION
 40
0.0
  9
$THICKNESS
 40
0.0
  9
$LIMCHECK
 70
     0
  9
$CHAMFERA
 40
0.0
  9
$CHAMFERB
 40
0.0
  9
$CHAMFERC
 40
0.0
  9
$CHAMFERD
 40
0.0
  9
$SKPOLY
 70
     0
  9
$TDCREATE
 40
2460159.682344607
  9
$TDUCREATE
 40
2460159.307344607
  9
$TDUPDATE
 40
2460159.682345301
  9
$TDUUPDATE
 40
2460159.307345301
  9
$TDINDWG
 40
0.0000000116
  9
$TDUSRTIMER
 40
0.0000000116
  9
$USRTIMER
 70
     1
  9
$ANGBASE
 50
0.0
  9
$ANGDIR
 70
     0
  9
$PDMODE
 70
     0
  9
$PDSIZE
 40
-1.0
  9
$PLINEWID
 40
0.0
  9
$SPLFRAME
 70
     0
  9
$SPLINETYPE
 70
     6
  9
$SPLINESEGS
 70
     8
  9
$HANDSEED
  5
2F8
  9
$SURFTAB1
 70
     6
  9
$SURFTAB2
 70
     6
  9
$SURFTYPE
 70
     6
  9
$SURFU
 70
     6
  9
$SURFV
 70
     6
  9
$UCSBASE
  2

  9
$UCSNAME
  2

  9
$UCSORG
 10
0.0
 20
0.0
 30
0.0
  9
$UCSXDIR
 10
1.0
 20
0.0
 30
0.0
  9
$UCSYDIR
 10
0.0
 20
1.0
 30
0.0
  9
$UCSORTHOREF
  2

  9
$UCSORTHOVIEW
 70
     0
  9
$UCSORGTOP
 10
0.0
 20
0.0
 30
0.0
  9
$UCSORGBOTTOM
 10
0.0
 20
0.0
 30
0.0
  9
$UCSORGLEFT
 10
0.0
 20
0.0
 30
0.0
  9
$UCSORGRIGHT
 10
0.0
 20
0.0
 30
0.0
  9
$UCSORGFRONT
 10
0.0
 20
0.0
 30
0.0
  9
$UCSORGBACK
 10
0.0
 20
0.0
 30
0.0
  9
$PUCSBASE
  2

  9
$PUCSNAME
  2

  9
$PUCSORG
 10
0.0
 20
0.0
 30
0.0
  9
$PUCSXDIR
 10
1.0
 20
0.0
 30
0.0
  9
$PUCSYDIR
 10
0.0
 20
1.0
 30
0.0
  9
$PUCSORTHOREF
  2

  9
$PUCSORTHOVIEW
 70
     0
  9
$PUCSORGTOP
 10
0.0
 20
0.0
 30
0.0
  9
$PUCSORGBOTTOM
 10
0.0
 20
0.0
 30
0.0
  9
$PUCSORGLEFT
 10
0.0
 20
0.0
 30
0.0
  9
$PUCSORGRIGHT
 10
0.0
 20
0.0
 30
0.0
  9
$PUCSORGFRONT
 10
0.0
 20
0.0
 30
0.0
  9
$PUCSORGBACK
 10
0.0
 20
0.0
 30
0.0
  9
$USERI1
 70
     0
  9
$USERI2
 70
     0
  9
$USERI3
 70
     0
  9
$USERI4
 70
     0
  9
$USERI5
 70
     0
  9
$USERR1
 40
0.0
  9
$USERR2
 40
0.0
  9
$USERR3
 40
0.0
  9
$USERR4
 40
0.0
  9
$USERR5
 40
0.0
  9
$WORLDVIEW
 70
     1
  9
$SHADEDGE
 70
     3
  9
$SHADEDIF
 70
    70
  9
$TILEMODE
 70
     1
  9
$MAXACTVP
 70
    64
  9
$PINSBASE
 10
0.0
 20
0.0
 30
0.0
  9
$PLIMCHECK
 70
     0
  9
$PEXTMIN
 10
1.0000000000E+20
 20
1.0000000000E+20
 30
1.0000000000E+20
  9
$PEXTMAX
 10
-1.0000000000E+20
 20
-1.0000000000E+20
 30
-1.0000000000E+20
  9
$PLIMMIN
 10
0.0
 20
0.0
  9
$PLIMMAX
 10
420.0
 20
297.0
  9
$UNITMODE
 70
     0
  9
$VISRETAIN
 70
     1
  9
$PLINEGEN
 70
     0
  9
$PSLTSCALE
 70
     1
  9
$TREEDEPTH
 70
  3020
  9
$CMLSTYLE
  2
Standard
  9
$CMLJUST
 70
     0
  9
$CMLSCALE
 40
20.0
  9
$PROXYGRAPHICS
 70
     1
  9
$MEASUREMENT
 70
     1
  9
$CELWEIGHT
370
    -1
  9
$ENDCAPS
280
     0
  9
$JOINSTYLE
280
     0
  9
$LWDISPLAY
290
     1
  9
$INSUNITS
 70
     4
  9
$HYPERLINKBASE
  1

  9
$STYLESHEET
  1

  9
$XEDIT
290
     1
  9
$CEPSNTYPE
380
     0
  9
$PSTYLEMODE
290
     1
  9
$FINGERPRINTGUID
  2
{965f5378-70b2-4b9d-9b1c-08c5c3ea63d4}
  9
$VERSIONGUID
  2
{FAEB1C32-E019-11D5-929B-00C0DF256EC4}
  9
$EXTNAMES
290
     1
  9
$PSVPSCALE
 40
0.0
  9
$OLESTARTUP
290
     0
  0
ENDSEC
  0
SECTION
  2
CLASSES
  0
CLASS
  1
ACDBDICTIONARYWDFLT
  2
AcDbDictionaryWithDefault
  3
ObjectDBX Classes
 90
        0
280
     0
281
     0
  0
CLASS
  1
VISUALSTYLE
  2
AcDbVisualStyle
  3
ObjectDBX Classes
 90
     4095
280
     0
281
     0
  0
CLASS
  1
MATERIAL
  2
AcDbMaterial
  3
ObjectDBX Classes
 90
     1153
280
     0
281
     0
  0
CLASS
  1
SCALE
  2
AcDbScale
  3
ObjectDBX Classes
 90
     1153
280
     0
281
     0
  0
CLASS
  1
TABLESTYLE
  2
AcDbTableStyle
  3
ObjectDBX Classes
 90
     4095
280
     0
281
     0
  0
CLASS
  1
MLEADERSTYLE
  2
AcDbMLeaderStyle
  3
ACDB_MLEADERSTYLE_CLASS
 90
     4095
280
     0
281
     0
  0
CLASS
  1
SUN
  2
AcDbSun
  3
SCENEOE
 90
     1153
280
     0
281
     0
  0
CLASS
  1
ACDBPLACEHOLDER
  2
AcDbPlaceHolder
  3
ObjectDBX Classes
 90
        0
280
     0
281
     0
  0
CLASS
  1
LAYOUT
  2
AcDbLayout
  3
ObjectDBX Classes
 90
        0
280
     0
281
     0
  0
ENDSEC
  0
SECTION
  2
TABLES
  0
TABLE
  2
VPORT
  5
8
330
0
100
AcDbSymbolTable
 70
     1
  0
VPORT
  5
29
330
8
100
AcDbSymbolTableRecord
100
AcDbViewportTableRecord
  2
*Active
 70
     0
 10
0.0
 20
0.0
 11
1.0
 21
1.0
 12
215.9
 22
139.7
 13
0.0
 23
0.0
 14
10.0
 24
10.0
 15
10.0
 25
10.0
 16
0.0
 26
0.0
 36
1.0
 17
0.0
 27
0.0
 37
0.0
 40
279.4
 41
1.5454545455
 42
50.0
 43
0.0
 44
0.0
 50
0.0
 51
0.0
 71
     0
 72
  2000
 73
     1
 74
     3
 75
     0
 76
     0
 77
     0
 78
     0
281
     0
 65
     1
110
0.0
120
0.0
130
0.0
111
1.0
121
0.0
131
0.0
112
0.0
122
1.0
132
0.0
 79
     0
146
0.0
  0
ENDTAB
  0
TABLE
  2
LTYPE
  5
5
330
0
100
AcDbSymbolTable
 70
     6
  0
LTYPE
  5
14
330
5
100
AcDbSymbolTableRecord
100
AcDbLinetypeTableRecord
  2
ByBlock
 70
     0
  3

 72
    65
 73
     0
 40
0.0
  0
LTYPE
  5
15
330
5
100
AcDbSymbolTableRecord
100
AcDbLinetypeTableRecord
  2
ByLayer
 70
     0
  3

 72
    65
 73
     0
 40
0.0
  0
LTYPE
  5
16
330
5
100
AcDbSymbolTableRecord
100
AcDbLinetypeTableRecord
  2
Continuous
 70
     0
  3
Solid line
 72
    65
 73
     0
 40
0.0
  0
LTYPE
  5
5E
330
5
100
AcDbSymbolTableRecord
100
AcDbLinetypeTableRecord
  2
HIDDEN
 70
     0
  3
Hidden __ __ __ __ __ __ __ __ __ __ __ __ __ __
 72
    65
 73
     2
 40
1.905
 49
1.27
 74
     0
 49
-0.635
 74
     0
  0
LTYPE
  5
5F
330
5
100
AcDbSymbolTableRecord
100
AcDbLinetypeTableRecord
  2
PHANTOM
 70
     0
  3
Phantom ______  __  __  ______  __  __  ______
 72
    65
 73
     6
 40
12.7
 49
6.35
 74
     0
 49
-1.27
 74
     0
 49
1.27
 74
     0
 49
-1.27
 74
     0
 49
1.27
 74
     0
 49
-1.27
 74
     0
  0
LTYPE
  5
60
330
5
100
AcDbSymbolTableRecord
100
AcDbLinetypeTableRecord
  2
CENTER
 70
     0
  3
Center ____ _ ____ _ ____ _ ____ _ ____ _ ____
 72
    65
 73
     4
 40
10.16
 49
6.35
 74
     0
 49
-1.27
 74
     0
 49
1.27
 74
     0
 49
-1.27
 74
     0
  0
LTYPE
  5
61
330
5
100
AcDbSymbolTableRecord
100
AcDbLinetypeTableRecord
  2
CENTERX2
 70
     0
  3
Center (2x) ________  __  ________  __  _____
 72
    65
 73
     4
 40
20.32
 49
12.7
 74
     0
 49
-2.54
 74
     0
 49
2.54
 74
     0
 49
-2.54
 74
     0
  0
LTYPE
  5
62
330
5
100
AcDbSymbolTableRecord
100
AcDbLinetypeTableRecord
  2
DOT2
 70
     0
  3
Dot (.5x) ........................................
 72
    65
 73
     2
 40
0.635
 49
0.0
 74
     0
 49
-0.635
 74
     0
  0
ENDTAB
  0
TABLE
  2
LAYER
  5
2
330
0
100
AcDbSymbolTable
 70
     1
  0
LAYER
  5
10
330
2
100
AcDbSymbolTableRecord
100
AcDbLayerTableRecord
  2
0
 70
     0
 62
     7
  6
Continuous
370
    -3
390
F
  0
ENDTAB
  0
TABLE
  2
STYLE
  5
3
330
0
100
AcDbSymbolTable
 70
     2
  0
STYLE
  5
11
330
3
100
AcDbSymbolTableRecord
100
AcDbTextStyleTableRecord
  2
Standard
 70
     0
 40
0.0
 41
1.0
 50
0.0
 71
     0
 42
3.5
  3
txt
  4
bigfont
  0
STYLE
  5
63
330
3
100
AcDbSymbolTableRecord
100
AcDbTextStyleTableRecord
  2
SLDTEXTSTYLE0
 70
     0
 40
0.0
 41
0.7
 50
0.0
 71
     0
 42
3.5
  3
TXT
  4
bigfont
  0
ENDTAB
  0
TABLE
  2
VIEW
  5
6
330
0
100
AcDbSymbolTable
 70
     0
  0
ENDTAB
  0
TABLE
  2
UCS
  5
7
330
0
100
AcDbSymbolTable
 70
     0
  0
ENDTAB
  0
TABLE
  2
APPID
  5
9
330
0
100
AcDbSymbolTable
 70
     1
  0
APPID
  5
12
330
9
100
AcDbSymbolTableRecord
100
AcDbRegAppTableRecord
  2
ACAD
 70
     0
  0
ENDTAB
  0
TABLE
  2
DIMSTYLE
  5
A
330
0
100
AcDbSymbolTable
 70
     1
100
AcDbDimStyleTable
  0
DIMSTYLE
105
27
330
A
100
AcDbSymbolTableRecord
100
AcDbDimStyleTableRecord
  2
ISO-25
 70
     0
 41
2.5
 42
0.625
 43
3.75
 44
1.25
 73
     0
 74
     0
 77
     1
 78
     8
140
2.5
141
2.5
143
0.0393700787
147
0.625
171
     3
172
     1
178
     0
271
     2
272
     2
274
     3
278
    44
283
     0
284
     8
340
11
  0
ENDTAB
  0
TABLE
  2
BLOCK_RECORD
  5
1
330
0
100
AcDbSymbolTable
 70
     3
  0
BLOCK_RECORD
  5
1F
330
1
100
AcDbSymbolTableRecord
100
AcDbBlockTableRecord
  2
*Model_Space
340
22
  0
BLOCK_RECORD
  5
1B
330
1
100
AcDbSymbolTableRecord
100
AcDbBlockTableRecord
  2
*Paper_Space
340
1E
  0
BLOCK_RECORD
  5
23
330
1
100
AcDbSymbolTableRecord
100
AcDbBlockTableRecord
  2
*Paper_Space0
340
26
  0
BLOCK_RECORD
  5
1E7
330
1
100
AcDbSymbolTableRecord
100
AcDbBlockTableRecord
  2
SW_CENTERMARKSYMBOL_0
340
0
102
{BLKREFS
331
1F2
102
}
  0
BLOCK_RECORD
  5
2E4
330
1
100
AcDbSymbolTableRecord
100
AcDbBlockTableRecord
  2
SW_CENTERMARKSYMBOL_1
340
0
102
{BLKREFS
331
2EF
102
}
  0
ENDTAB
  0
ENDSEC
  0
SECTION
  2
BLOCKS
  0
BLOCK
  5
20
330
1F
100
AcDbEntity
  8
0
100
AcDbBlockBegin
  2
*Model_Space
 70
     0
 10
0.0
 20
0.0
 30
0.0
  3
*Model_Space
  1

  0
ENDBLK
  5
21
330
1F
100
AcDbEntity
  8
0
100
AcDbBlockEnd
  0
BLOCK
  5
1C
330
1B
100
AcDbEntity
 67
     1
  8
0
100
AcDbBlockBegin
  2
*Paper_Space
 70
     0
 10
0.0
 20
0.0
 30
0.0
  3
*Paper_Space
  1

  0
ENDBLK
  5
1D
330
1B
100
AcDbEntity
 67
     1
  8
0
100
AcDbBlockEnd
  0
BLOCK
  5
24
330
23
100
AcDbEntity
  8
0
100
AcDbBlockBegin
  2
*Paper_Space0
 70
     0
 10
0.0
 20
0.0
 30
0.0
  3
*Paper_Space0
  1

  0
ENDBLK
  5
25
330
23
100
AcDbEntity
  8
0
100
AcDbBlockEnd
  0
BLOCK
  5
1E8
330
1E7
100
AcDbEntity
  8
0
100
AcDbBlockBegin
  2
SW_CENTERMARKSYMBOL_0
 70
     0
 10
0.0
 20
0.0
 30
0.0
  3
SW_CENTERMARKSYMBOL_0
  1

  0
LINE
  5
1EA
330
1E7
100
AcDbEntity
  8
0
  6
Continuous
 62
     0
370
    18
100
AcDbLine
 10
0.0
 20
0.0
 30
0.0
 11
0.0
 21
2.5
 31
0.0
  0
LINE
  5
1EB
330
1E7
100
AcDbEntity
  8
0
  6
Continuous
 62
     0
370
    18
100
AcDbLine
 10
0.0
 20
0.0
 30
0.0
 11
-2.5
 21
0.0
 31
0.0
  0
LINE
  5
1EC
330
1E7
100
AcDbEntity
  8
0
  6
Continuous
 62
     0
370
    18
100
AcDbLine
 10
0.0
 20
0.0
 30
0.0
 11
0.0
 21
-2.5
 31
0.0
  0
LINE
  5
1ED
330
1E7
100
AcDbEntity
  8
0
  6
Continuous
 62
     0
370
    18
100
AcDbLine
 10
0.0
 20
0.0
 30
0.0
 11
2.5
 21
0.0
 31
0.0
  0
LINE
  5
1EE
330
1E7
100
AcDbEntity
  8
0
  6
Continuous
 62
     0
370
    18
100
AcDbLine
 10
0.0
 20
5.0
 30
0.0
 11
0.0
 21
29.8203547009
 31
0.0
  0
LINE
  5
1EF
330
1E7
100
AcDbEntity
  8
0
  6
Continuous
 62
     0
370
    18
100
AcDbLine
 10
-5.0
 20
0.0
 30
0.0
 11
-12.5
 21
0.0
 31
0.0
  0
LINE
  5
1F0
330
1E7
100
AcDbEntity
  8
0
  6
Continuous
 62
     0
370
    18
100
AcDbLine
 10
0.0
 20
-5.0
 30
0.0
 11
0.0
 21
-12.5
 31
0.0
  0
LINE
  5
1F1
330
1E7
100
AcDbEntity
  8
0
  6
Continuous
 62
     0
370
    18
100
AcDbLine
 10
5.0
 20
0.0
 30
0.0
 11
12.5
 21
0.0
 31
0.0
  0
ENDBLK
  5
1E9
330
1E7
100
AcDbEntity
  8
0
100
AcDbBlockEnd
  0
BLOCK
  5
2E5
330
2E4
100
AcDbEntity
  8
0
100
AcDbBlockBegin
  2
SW_CENTERMARKSYMBOL_1
 70
     0
 10
0.0
 20
0.0
 30
0.0
  3
SW_CENTERMARKSYMBOL_1
  1

  0
LINE
  5
2E7
330
2E4
100
AcDbEntity
  8
0
  6
Continuous
 62
     0
370
    18
100
AcDbLine
 10
0.0
 20
0.0
 30
0.0
 11
0.0
 21
2.5
 31
0.0
  0
LINE
  5
2E8
330
2E4
100
AcDbEntity
  8
0
  6
Continuous
 62
     0
370
    18
100
AcDbLine
 10
0.0
 20
0.0
 30
0.0
 11
-2.5
 21
0.0
 31
0.0
  0
LINE
  5
2E9
330
2E4
100
AcDbEntity
  8
0
  6
Continuous
 62
     0
370
    18
100
AcDbLine
 10
0.0
 20
0.0
 30
0.0
 11
0.0
 21
-2.5
 31
0.0
  0
LINE
  5
2EA
330
2E4
100
AcDbEntity
  8
0
  6
Continuous
 62
     0
370
    18
100
AcDbLine
 10
0.0
 20
0.0
 30
0.0
 11
2.5
 21
0.0
 31
0.0
  0
LINE
  5
2EB
330
2E4
100
AcDbEntity
  8
0
  6
Continuous
 62
     0
370
    18
100
AcDbLine
 10
0.0
 20
5.0
 30
0.0
 11
0.0
 21
9.95
 31
0.0
  0
LINE
  5
2EC
330
2E4
100
AcDbEntity
  8
0
  6
Continuous
 62
     0
370
    18
100
AcDbLine
 10
-5.0
 20
0.0
 30
0.0
 11
-57.155859512
 21
0.0
 31
0.0
  0
LINE
  5
2ED
330
2E4
100
AcDbEntity
  8
0
  6
Continuous
 62
     0
370
    18
100
AcDbLine
 10
0.0
 20
-5.0
 30
0.0
 11
0.0
 21
-9.95
 31
0.0
  0
LINE
  5
2EE
330
2E4
100
AcDbEntity
  8
0
  6
Continuous
 62
     0
370
    18
100
AcDbLine
 10
5.0
 20
0.0
 30
0.0
 11
21.3026755996
 21
0.0
 31
0.0
  0
ENDBLK
  5
2E6
330
2E4
100
AcDbEntity
  8
0
100
AcDbBlockEnd
  0
ENDSEC
  0
SECTION
  2
ENTITIES
  0
MTEXT
  5
64
330
1F
100
AcDbEntity
  8
0
  6
Continuous
 62
     7
370
     0
100
AcDbMText
 10
204.8557614839
 20
114.6514467108
 30
0.0
 40
3.5
 41
0.0
 71
     1
 72
     1
  1
エースボール　BY-1310R
  7
SLDTEXTSTYLE0
 73
     1
 44
1.0
  0
LINE
  5
65
330
1F
100
AcDbEntity
  8
0
  6
Continuous
 62
     7
370
    25
100
AcDbLine
 10
166.5789731033
 20
79.3310570966
 30
0.0
 11
162.0789731033
 21
79.3310570966
 31
0.0
  0
LINE
  5
66
330
1F
100
AcDbEntity
  8
0
  6
Continuous
 62
     7
370
    25
100
AcDbLine
 10
162.0789731033
 20
68.8310570966
 30
0.0
 11
166.5789731033
 21
68.8310570966
 31
0.0
  0
LINE
  5
67
330
1F
100
AcDbEntity
  8
0
  6
Continuous
 62
     7
370
    25
100
AcDbLine
 10
162.0789731033
 20
79.3310570966
 30
0.0
 11
158.0789731033
 21
78.5810570966
 31
0.0
  0
LINE
  5
68
330
1F
100
AcDbEntity
  8
0
  6
Continuous
 62
     7
370
    25
100
AcDbLine
 10
158.0789731033
 20
69.5810570966
 30
0.0
 11
162.0789731033
 21
68.8310570966
 31
0.0
  0
LINE
  5
69
330
1F
100
AcDbEntity
  8
0
  6
Continuous
 62
     7
370
    25
100
AcDbLine
 10
150.0789731033
 20
79.3310570966
 30
0.0
 11
146.0789731033
 21
78.5810570966
 31
0.0
  0
LINE
  5
6A
330
1F
100
AcDbEntity
  8
0
  6
Continuous
 62
     7
370
    25
100
AcDbLine
 10
146.0789731033
 20
69.5810570966
 30
0.0
 11
150.0789731033
 21
68.8310570966
 31
0.0
  0
LINE
  5
6B
330
1F
100
AcDbEntity
  8
0
  6
Continuous
 62
     7
370
    25
100
AcDbLine
 10
154.0789731033
 20
79.3310570966
 30
0.0
 11
150.0789731033
 21
78.5810570966
 31
0.0
  0
LINE
  5
6C
330
1F
100
AcDbEntity
  8
0
  6
Continuous
 62
     7
370
    25
100
AcDbLine
 10
150.0789731033
 20
69.5810570966
 30
0.0
 11
154.0789731033
 21
68.8310570966
 31
0.0
  0
LINE
  5
6D
330
1F
100
AcDbEntity
  8
0
  6
Continuous
 62
     7
370
    25
100
AcDbLine
 10
146.0789731033
 20
79.3310570966
 30
0.0
 11
140.5361159604
 21
78.6381999538
 31
0.0
  0
LINE
  5
6E
330
1F
100
AcDbEntity
  8
0
  6
Continuous
 62
     7
370
    25
100
AcDbLine
 10
140.5361159604
 20
69.5239142395
 30
0.0
 11
146.0789731033
 21
68.8310570966
 31
0.0
  0
LINE
  5
6F
330
1F
100
AcDbEntity
  8
0
  6
Continuous
 62
     7
370
    25
100
AcDbLine
 10
158.0789731033
 20
79.3310570966
 30
0.0
 11
154.0789731033
 21
78.5810570966
 31
0.0
  0
LINE
  5
70
330
1F
100
AcDbEntity
  8
0
  6
Continuous
 62
     7
370
    25
100
AcDbLine
 10
154.0789731033
 20
69.5810570966
 30
0.0
 11
158.0789731033
 21
68.8310570966
 31
0.0
  0
LINE
  5
71
330
1F
100
AcDbEntity
  8
0
  6
Continuous
 62
     7
370
    25
100
AcDbLine
 10
140.5361159604
 20
78.6381999538
 30
0.0
 11
140.0789731033
 21
78.1810570966
 31
0.0
  0
LINE
  5
72
330
1F
100
AcDbEntity
  8
0
  6
Continuous
 62
     7
370
    25
100
AcDbLine
 10
140.0789731033
 20
69.9810570966
 30
0.0
 11
140.5361159604
 21
69.5239142395
 31
0.0
  0
LINE
  5
73
330
1F
100
AcDbEntity
  8
0
  6
Continuous
 62
     7
370
    25
100
AcDbLine
 10
169.5140814197
 20
85.0507122112
 30
0.0
 11
168.5789731033
 21
83.4310570966
 31
0.0
  0
LINE
  5
74
330
1F
100
AcDbEntity
  8
0
  6
Continuous
 62
     7
370
    25
100
AcDbLine
 10
168.5789731033
 20
64.7310570966
 30
0.0
 11
169.5140814197
 21
63.111401982
 31
0.0
  0
LINE
  5
75
330
1F
100
AcDbEntity
  8
0
  6
Continuous
 62
     7
370
    25
100
AcDbLine
 10
177.6438647868
 20
63.111401982
 30
0.0
 11
178.5789731033
 21
64.7310570966
 31
0.0
  0
LINE
  5
76
330
1F
100
AcDbEntity
  8
0
  6
Continuous
 62
     7
370
    25
100
AcDbLine
 10
178.5789731033
 20
83.4310570966
 30
0.0
 11
177.6438647868
 21
85.0507122112
 31
0.0
  0
ARC
  5
77
330
1F
100
AcDbEntity
  8
0
  6
Continuous
 62
     7
370
    25
100
AcDbCircle
 10
180.2789731033
 20
83.1310570966
 30
0.0
 40
0.3000000000000114
100
AcDbArc
 50
0.0
 51
90.0
  0
ARC
  5
78
330
1F
100
AcDbEntity
  8
0
  6
Continuous
 62
     7
370
    25
100
AcDbCircle
 10
180.2789731033
 20
65.0310570966
 30
0.0
 40
0.2999999999999972
100
AcDbArc
 50
270.0
 51
0.0
  0
LINE
  5
79
330
1F
100
AcDbEntity
  8
0
  6
Continuous
 62
     7
370
    25
100
AcDbLine
 10
178.5789731033
 20
64.7310570966
 30
0.0
 11
180.2789731033
 21
64.7310570966
 31
0.0
  0
LINE
  5
7A
330
1F
100
AcDbEntity
  8
0
  6
Continuous
 62
     7
370
    25
100
AcDbLine
 10
180.2789731033
 20
83.4310570966
 30
0.0
 11
178.5789731033
 21
83.4310570966
 31
0.0
  0
ARC
  5
7B
330
1F
100
AcDbEntity
  8
0
  6
Continuous
 62
     7
370
    25
100
AcDbCircle
 10
166.8789731033
 20
65.0310570966
 30
0.0
 40
0.2999999999999972
100
AcDbArc
 50
180.0
 51
270.0
  0
ARC
  5
7C
330
1F
100
AcDbEntity
  8
0
  6
Continuous
 62
     7
370
    25
100
AcDbCircle
 10
166.8789731033
 20
83.1310570966
 30
0.0
 40
0.3000000000000114
100
AcDbArc
 50
90.0
 51
180.0
  0
LINE
  5
7D
330
1F
100
AcDbEntity
  8
0
  6
Continuous
 62
     7
370
    25
100
AcDbLine
 10
168.5789731033
 20
83.4310570966
 30
0.0
 11
166.8789731033
 21
83.4310570966
 31
0.0
  0
LINE
  5
7E
330
1F
100
AcDbEntity
  8
0
  6
Continuous
 62
     7
370
    25
100
AcDbLine
 10
166.8789731033
 20
64.7310570966
 30
0.0
 11
168.5789731033
 21
64.7310570966
 31
0.0
  0
LINE
  5
7F
330
1F
100
AcDbEntity
  8
0
  6
Continuous
 62
     7
370
    25
100
AcDbLine
 10
173.5789731033
 20
84.7507122112
 30
0.0
 11
173.4985883455
 21
85.0507122112
 31
0.0
  0
LINE
  5
80
330
1F
100
AcDbEntity
  8
0
  6
Continuous
 62
     7
370
    25
100
AcDbLine
 10
173.659357861
 20
85.0507122112
 30
0.0
 11
173.5789731033
 21
84.7507122112
 31
0.0
  0
LINE
  5
81
330
1F
100
AcDbEntity
  8
0
  6
Continuous
 62
     7
370
    25
100
AcDbLine
 10
173.5789731033
 20
63.411401982
 30
0.0
 11
173.659357861
 21
63.111401982
 31
0.0
  0
LINE
  5
82
330
1F
100
AcDbEntity
  8
0
  6
Continuous
 62
     7
370
    25
100
AcDbLine
 10
173.4985883455
 20
63.111401982
 30
0.0
 11
173.5789731033
 21
63.411401982
 31
0.0
  0
LINE
  5
83
330
1F
100
AcDbEntity
  8
0
  6
Continuous
 62
     7
370
    25
100
AcDbLine
 10
185.7880765689
 20
82.5810570966
 30
0.0
 11
182.9380765689
 21
82.5810570966
 31
0.0
  0
LINE
  5
84
330
1F
100
AcDbEntity
  8
0
  6
Continuous
 62
     7
370
    25
100
AcDbLine
 10
182.9380765689
 20
65.5810570966
 30
0.0
 11
185.7880765689
 21
65.5810570966
 31
0.0
  0
LINE
  5
85
330
1F
100
AcDbEntity
  8
0
  6
Continuous
 62
     7
370
    25
100
AcDbLine
 10
182.9380765689
 20
82.5810570966
 30
0.0
 11
182.7880765689
 21
82.4310570966
 31
0.0
  0
LINE
  5
86
330
1F
100
AcDbEntity
  8
0
  6
Continuous
 62
     7
370
    25
100
AcDbLine
 10
182.7880765689
 20
65.7310570966
 30
0.0
 11
182.9380765689
 21
65.5810570966
 31
0.0
  0
LINE
  5
87
330
1F
100
AcDbEntity
  8
0
  6
Continuous
 62
     7
370
    25
100
AcDbLine
 10
182.7880765689
 20
82.4120570966
 30
0.0
 11
180.5789731033
 21
82.4120570966
 31
0.0
  0
LINE
  5
88
330
1F
100
AcDbEntity
  8
0
  6
Continuous
 62
     7
370
    25
100
AcDbLine
 10
180.5789731033
 20
65.7500570966
 30
0.0
 11
182.7880765689
 21
65.7500570966
 31
0.0
  0
ARC
  5
89
330
1F
100
AcDbEntity
  8
0
  6
Continuous
 62
     7
370
    25
100
AcDbCircle
 10
204.7880765689
 20
83.0810570966
 30
0.0
 40
1.5
100
AcDbArc
 50
138.1896851042
 51
180.0
  0
ARC
  5
8A
330
1F
100
AcDbEntity
  8
0
  6
Continuous
 62
     7
370
    25
100
AcDbCircle
 10
204.7880765689
 20
65.0810570966
 30
0.0
 40
1.5
100
AcDbArc
 50
180.0
 51
221.8103148958
  0
LINE
  5
8B
330
1F
100
AcDbEntity
  8
0
  6
Continuous
 62
     7
370
    25
100
AcDbLine
 10
205.2880765689
 20
84.0810570966
 30
0.0
 11
203.6700425801
 21
84.0810570966
 31
0.0
  0
LINE
  5
8C
330
1F
100
AcDbEntity
  8
0
  6
Continuous
 62
     7
370
    25
100
AcDbLine
 10
203.6700425801
 20
64.0810570966
 30
0.0
 11
205.2880765689
 21
64.0810570966
 31
0.0
  0
LINE
  5
8D
330
1F
100
AcDbEntity
  8
0
  6
Continuous
 62
     7
370
    25
100
AcDbLine
 10
205.2880765689
 20
64.0810570966
 30
0.0
 11
205.7880765689
 21
64.5810570966
 31
0.0
  0
LINE
  5
8E
330
1F
100
AcDbEntity
  8
0
  6
Continuous
 62
     7
370
    25
100
AcDbLine
 10
205.7880765689
 20
83.5810570966
 30
0.0
 11
205.2880765689
 21
84.0810570966
 31
0.0
  0
LINE
  5
8F
330
1F
100
AcDbEntity
  8
0
  6
Continuous
 62
     7
370
    25
100
AcDbLine
 10
186.0380765689
 20
64.0810570966
 30
0.0
 11
187.9061105576
 21
64.0810570966
 31
0.0
  0
LINE
  5
90
330
1F
100
AcDbEntity
  8
0
  6
Continuous
 62
     7
370
    25
100
AcDbLine
 10
187.9061105576
 20
84.0810570966
 30
0.0
 11
186.0380765689
 21
84.0810570966
 31
0.0
  0
LINE
  5
91
330
1F
100
AcDbEntity
  8
0
  6
Continuous
 62
     7
370
    25
100
AcDbLine
 10
186.0380765689
 20
84.0810570966
 30
0.0
 11
185.7880765689
 21
83.8310570966
 31
0.0
  0
LINE
  5
92
330
1F
100
AcDbEntity
  8
0
  6
Continuous
 62
     7
370
    25
100
AcDbLine
 10
185.7880765689
 20
64.3310570966
 30
0.0
 11
186.0380765689
 21
64.0810570966
 31
0.0
  0
ARC
  5
93
330
1F
100
AcDbEntity
  8
0
  6
Continuous
 62
     7
370
    25
100
AcDbCircle
 10
186.7880765689
 20
65.0810570966
 30
0.0
 40
1.5
100
AcDbArc
 50
318.1896851042
 51
0.0
  0
ARC
  5
94
330
1F
100
AcDbEntity
  8
0
  6
Continuous
 62
     7
370
    25
100
AcDbCircle
 10
186.7880765689
 20
83.0810570966
 30
0.0
 40
1.5
100
AcDbArc
 50
0.0
 51
41.8103148958
  0
LINE
  5
95
330
1F
100
AcDbEntity
  8
0
  6
Continuous
 62
     7
370
    25
100
AcDbLine
 10
205.7880765689
 20
65.6359945966
 30
0.0
 11
213.7141671352
 21
65.8836849268
 31
0.0
  0
LINE
  5
96
330
1F
100
AcDbEntity
  8
0
  6
Continuous
 62
     7
370
    25
100
AcDbLine
 10
213.7141671352
 20
82.2784292664
 30
0.0
 11
205.7880765689
 21
82.5261195966
 31
0.0
  0
LINE
  5
97
330
1F
100
AcDbEntity
  8
0
  6
Continuous
 62
     7
370
    25
100
AcDbLine
 10
213.7141671352
 20
65.8836849268
 30
0.0
 11
215.7880765689
 21
67.0810570966
 31
0.0
  0
LINE
  5
98
330
1F
100
AcDbEntity
  8
0
  6
Continuous
 62
     7
370
    25
100
AcDbLine
 10
215.7880765689
 20
81.0810570966
 30
0.0
 11
213.7141671352
 21
82.2784292664
 31
0.0
  0
ARC
  5
99
330
1F
100
AcDbEntity
  8
0
  6
Continuous
 62
     7
370
    25
100
AcDbCircle
 10
202.7880765689
 20
83.0810570966
 30
0.0
 40
0.5
100
AcDbArc
 50
270.0
 51
0.0
  0
ARC
  5
9A
330
1F
100
AcDbEntity
  8
0
  6
Continuous
 62
     7
370
    25
100
AcDbCircle
 10
188.7880765689
 20
65.0810570966
 30
0.0
 40
0.5
100
AcDbArc
 50
90.0
 51
180.0
  0
ARC
  5
9B
330
1F
100
AcDbEntity
  8
0
  6
Continuous
 62
     7
370
    25
100
AcDbCircle
 10
188.7880765689
 20
83.0810570966
 30
0.0
 40
0.5
100
AcDbArc
 50
180.0
 51
270.0
  0
ARC
  5
9C
330
1F
100
AcDbEntity
  8
0
  6
Continuous
 62
     7
370
    25
100
AcDbCircle
 10
202.7880765689
 20
65.0810570966
 30
0.0
 40
0.5
100
AcDbArc
 50
0.0
 51
90.0
  0
LINE
  5
9D
330
1F
100
AcDbEntity
  8
0
  6
Continuous
 62
     7
370
    25
100
AcDbLine
 10
189.4057556939
 20
82.5810570966
 30
0.0
 11
188.7880765689
 21
82.5810570966
 31
0.0
  0
LINE
  5
9E
330
1F
100
AcDbEntity
  8
0
  6
Continuous
 62
     7
370
    25
100
AcDbLine
 10
202.7880765689
 20
82.5810570966
 30
0.0
 11
202.1880765689
 21
82.5810570966
 31
0.0
  0
LINE
  5
9F
330
1F
100
AcDbEntity
  8
0
  6
Continuous
 62
     7
370
    25
100
AcDbLine
 10
188.7880765689
 20
65.5810570966
 30
0.0
 11
202.7880765689
 21
65.5810570966
 31
0.0
  0
SPLINE
  5
A0
330
1F
100
AcDbEntity
  8
0
  6
Continuous
 62
     7
370
    25
100
AcDbSpline
210
0.0
220
0.0
230
1.0
 70
     8
 71
     3
 72
    13
 73
     9
 74
     0
 42
0.00000001
 43
0.00000001
 40
0.0
 40
0.0
 40
0.0
 40
0.0
 40
0.1627377656786063
 40
0.398601314916336
 40
0.6414622245829336
 40
0.8320186914832685
 40
0.9911301971719498
 40
1.0
 40
1.0
 40
1.0
 40
1.0
 10
189.8827352475951
 20
83.07159863402728
 30
0.0
 10
189.8812718911464
 20
83.02986205206264
 30
0.0
 10
189.8776876229083
 20
82.92763466567908
 30
0.0
 10
189.7993404461237
 20
82.7778546831108
 30
0.0
 10
189.6737828896107
 20
82.65740271430413
 30
0.0
 10
189.533962063213
 20
82.5978289017787
 30
0.0
 10
189.4426916825605
 20
82.57779101249929
 30
0.0
 10
189.4000488937093
 20
82.58104344389731
 30
0.0
 10
189.3977972555212
 20
82.5812151798212
 30
0.0
  0
SPLINE
  5
A1
330
1F
100
AcDbEntity
  8
0
  6
Continuous
 62
     7
370
    25
100
AcDbSpline
210
0.0
220
0.0
230
1.0
 70
     8
 71
     3
 72
    13
 73
     9
 74
     0
 42
0.00000001
 43
0.00000001
 40
0.0
 40
0.0
 40
0.0
 40
0.0
 40
0.0299484901065214
 40
0.2467342514162537
 40
0.4685481937378459
 40
0.6981437103503182
 40
0.9124183088330043
 40
1.0
 40
1.0
 40
1.0
 40
1.0
 10
202.1878687949481
 20
82.58343944251017
 30
0.0
 10
202.1800314751995
 20
82.58270587282394
 30
0.0
 10
202.1154627702531
 20
82.57666227040022
 30
0.0
 10
201.9925745375178
 20
82.61237092889714
 30
0.0
 10
201.8410956382015
 20
82.70512343659186
 30
0.0
 10
201.7354709382362
 20
82.8485370872742
 30
0.0
 10
201.6878621433122
 20
82.98452538033952
 30
0.0
 10
201.6916416577468
 20
83.06397641661178
 30
0.0
 10
201.6927382599291
 20
83.08702863172306
 30
0.0
  0
LINE
  5
A2
330
1F
100
AcDbEntity
  8
0
  6
Continuous
 62
     7
370
    25
100
AcDbLine
 10
201.6880765689
 20
83.0810570966
 30
0.0
 11
201.6880765689
 21
84.5810570966
 31
0.0
  0
LINE
  5
A3
330
1F
100
AcDbEntity
  8
0
  6
Continuous
 62
     7
370
    25
100
AcDbLine
 10
189.8880765689
 20
84.5810570966
 30
0.0
 11
189.8880765689
 21
83.0697863567
 31
0.0
  0
LINE
  5
A4
330
1F
100
AcDbEntity
  8
0
  6
Continuous
 62
     7
370
    25
100
AcDbLine
 10
203.2380765689
 20
92.5810570966
 30
0.0
 11
201.2880765689
 21
100.5810570966
 31
0.0
  0
LINE
  5
A5
330
1F
100
AcDbEntity
  8
0
  6
Continuous
 62
     7
370
    25
100
AcDbLine
 10
202.7880765689
 20
84.5810570966
 30
0.0
 11
203.2380765689
 21
92.5810570966
 31
0.0
  0
LINE
  5
A6
330
1F
100
AcDbEntity
  8
0
  6
Continuous
 62
     7
370
    25
100
AcDbLine
 10
188.7193311513
 20
85.8031978539
 30
0.0
 11
188.7880765689
 21
84.5810570966
 31
0.0
  0
LINE
  5
A7
330
1F
100
AcDbEntity
  8
0
  6
Continuous
 62
     7
370
    25
100
AcDbLine
 10
190.2880765689
 20
100.5810570966
 30
0.0
 11
190.0348450343
 21
99.5421584934
 31
0.0
  0
LINE
  5
A8
330
1F
100
AcDbEntity
  8
0
  6
Continuous
 62
     7
370
    25
100
AcDbLine
 10
162.0789731033
 20
69.1027850659
 30
0.0
 11
162.0789731033
 21
68.8310570966
 31
0.0
  0
LINE
  5
A9
330
1F
100
AcDbEntity
  8
0
  6
Continuous
 62
     7
370
    25
100
AcDbLine
 10
162.0789731033
 20
79.3310570966
 30
0.0
 11
162.0789731033
 21
69.1027850659
 31
0.0
  0
LINE
  5
AA
330
1F
100
AcDbEntity
  8
0
  6
Continuous
 62
     7
370
    25
100
AcDbLine
 10
150.0789731033
 20
69.1027850659
 30
0.0
 11
150.0789731033
 21
68.8310570966
 31
0.0
  0
LINE
  5
AB
330
1F
100
AcDbEntity
  8
0
  6
Continuous
 62
     7
370
    25
100
AcDbLine
 10
150.0789731033
 20
79.3310570966
 30
0.0
 11
150.0789731033
 21
69.1027850659
 31
0.0
  0
LINE
  5
AC
330
1F
100
AcDbEntity
  8
0
  6
Continuous
 62
     7
370
    25
100
AcDbLine
 10
154.0789731033
 20
69.1027850659
 30
0.0
 11
154.0789731033
 21
68.8310570966
 31
0.0
  0
LINE
  5
AD
330
1F
100
AcDbEntity
  8
0
  6
Continuous
 62
     7
370
    25
100
AcDbLine
 10
154.0789731033
 20
79.3310570966
 30
0.0
 11
154.0789731033
 21
69.1027850659
 31
0.0
  0
LINE
  5
AE
330
1F
100
AcDbEntity
  8
0
  6
Continuous
 62
     7
370
    25
100
AcDbLine
 10
146.0789731033
 20
69.1027850659
 30
0.0
 11
146.0789731033
 21
68.8310570966
 31
0.0
  0
LINE
  5
AF
330
1F
100
AcDbEntity
  8
0
  6
Continuous
 62
     7
370
    25
100
AcDbLine
 10
146.0789731033
 20
79.3310570966
 30
0.0
 11
146.0789731033
 21
69.1027850659
 31
0.0
  0
LINE
  5
B0
330
1F
100
AcDbEntity
  8
0
  6
Continuous
 62
     7
370
    25
100
AcDbLine
 10
140.5361159604
 20
78.6381999538
 30
0.0
 11
140.5361159604
 21
69.5239142395
 31
0.0
  0
LINE
  5
B1
330
1F
100
AcDbEntity
  8
0
  6
Continuous
 62
     7
370
    25
100
AcDbLine
 10
158.0789731033
 20
69.1027850659
 30
0.0
 11
158.0789731033
 21
68.8310570966
 31
0.0
  0
LINE
  5
B2
330
1F
100
AcDbEntity
  8
0
  6
Continuous
 62
     7
370
    25
100
AcDbLine
 10
158.0789731033
 20
79.3310570966
 30
0.0
 11
158.0789731033
 21
69.1027850659
 31
0.0
  0
LINE
  5
B3
330
1F
100
AcDbEntity
  8
0
  6
Continuous
 62
     7
370
    25
100
AcDbLine
 10
140.0789731033
 20
69.9810570966
 30
0.0
 11
140.0789731033
 21
78.1810570966
 31
0.0
  0
LINE
  5
B4
330
1F
100
AcDbEntity
  8
0
  6
Continuous
 62
     7
370
    25
100
AcDbLine
 10
173.4985883455
 20
79.5658846539
 30
0.0
 11
173.5789731033
 21
79.8797422635
 31
0.0
  0
LINE
  5
B5
330
1F
100
AcDbEntity
  8
0
  6
Continuous
 62
     7
370
    25
100
AcDbLine
 10
173.5789731033
 20
79.8797422635
 30
0.0
 11
173.5789731033
 21
78.9381694347
 31
0.0
  0
LINE
  5
B6
330
1F
100
AcDbEntity
  8
0
  6
Continuous
 62
     7
370
    25
100
AcDbLine
 10
173.5789731033
 20
78.9381694347
 30
0.0
 11
173.4985883455
 21
79.5658846539
 31
0.0
  0
SPLINE
  5
B7
330
1F
100
AcDbEntity
  8
0
  6
Continuous
 62
     7
370
    25
100
AcDbSpline
210
0.0
220
0.0
230
1.0
 70
     8
 71
     3
 72
    14
 73
    10
 74
     0
 42
0.00000001
 43
0.00000001
 40
0.0
 40
0.0
 40
0.0
 40
0.0
 40
0.1187857262003507
 40
0.2441770919383206
 40
0.3695364010689739
 40
0.4979903680998221
 40
0.626443895566919
 40
0.8122362427248249
 40
1.0
 40
1.0
 40
1.0
 40
1.0
 10
169.5140814196629
 20
68.59622953931628
 30
0.0
 10
169.3974329675324
 20
69.02148683237616
 30
0.0
 10
169.1576492769204
 20
69.89564985234867
 30
0.0
 10
168.8895048559063
 20
71.24202531613831
 30
0.0
 10
168.7083771712568
 20
72.63894868381789
 30
0.0
 10
168.6454975869144
 20
74.05828907802409
 30
0.0
 10
168.7150956698008
 20
75.70143910509914
 30
0.0
 10
168.9780897674961
 20
77.55141276356886
 30
0.0
 10
169.3347900506159
 20
78.8920356831981
 30
0.0
 10
169.5140814196629
 20
79.56588465391918
 30
0.0
  0
SPLINE
  5
B8
330
1F
100
AcDbEntity
  8
0
  6
Continuous
 62
     7
370
    25
100
AcDbSpline
210
0.0
220
0.0
230
1.0
 70
     8
 71
     3
 72
    14
 73
    10
 74
     0
 42
0.00000001
 43
0.00000001
 40
0.0
 40
0.0
 40
0.0
 40
0.0
 40
0.1323178218192658
 40
0.2645982322802884
 40
0.3998378333746938
 40
0.5350530300363142
 40
0.6502539940279584
 40
0.7654729281951006
 40
0.9999999999999999
 40
0.9999999999999999
 40
0.9999999999999999
 40
0.9999999999999999
 10
169.5140814196629
 20
63.11140198201484
 30
0.0
 10
169.3849165661302
 20
63.34836887768827
 30
0.0
 10
169.1266233789569
 20
63.82223566934228
 30
0.0
 10
168.8486755527138
 20
64.55195411453185
 30
0.0
 10
168.6816899066829
 20
65.29540578472664
 30
0.0
 10
168.6481777019306
 20
66.01200481116335
 30
0.0
 10
168.7353845495014
 20
66.68962802537153
 30
0.0
 10
168.9641059771655
 20
67.54596336541158
 30
0.0
 10
169.2933214103463
 20
68.17465295167202
 30
0.0
 10
169.5140814196629
 20
68.59622953931628
 30
0.0
  0
SPLINE
  5
B9
330
1F
100
AcDbEntity
  8
0
  6
Continuous
 62
     7
370
    25
100
AcDbSpline
210
0.0
220
0.0
230
1.0
 70
     8
 71
     3
 72
    14
 73
    10
 74
     0
 42
0.00000001
 43
0.00000001
 40
0.0
 40
0.0
 40
0.0
 40
0.0
 40
0.132317821819266
 40
0.2645982322802886
 40
0.399837833374694
 40
0.5350530300363144
 40
0.6502539940279585
 40
0.7654729281951008
 40
0.9999999999999999
 40
0.9999999999999999
 40
0.9999999999999999
 40
0.9999999999999999
 10
169.5140814196629
 20
79.56588465391918
 30
0.0
 10
169.3849165661302
 20
79.80285154959263
 30
0.0
 10
169.1266233789569
 20
80.27671834124662
 30
0.0
 10
168.8486755527138
 20
81.00643678643621
 30
0.0
 10
168.6816899066829
 20
81.74988845663098
 30
0.0
 10
168.6481777019306
 20
82.4664874830677
 30
0.0
 10
168.7353845495014
 20
83.14411069727589
 30
0.0
 10
168.9641059771655
 20
84.00044603731592
 30
0.0
 10
169.2933214103463
 20
84.62913562357637
 30
0.0
 10
169.5140814196629
 20
85.05071221122063
 30
0.0
  0
LINE
  5
BA
330
1F
100
AcDbEntity
  8
0
  6
Continuous
 62
     7
370
    25
100
AcDbLine
 10
168.5789731033
 20
74.0810570966
 30
0.0
 11
168.5789731033
 21
83.4310570966
 31
0.0
  0
LINE
  5
BB
330
1F
100
AcDbEntity
  8
0
  6
Continuous
 62
     7
370
    25
100
AcDbLine
 10
168.5789731033
 20
64.7310570966
 30
0.0
 11
168.5789731033
 21
74.0810570966
 31
0.0
  0
LINE
  5
BC
330
1F
100
AcDbEntity
  8
0
  6
Continuous
 62
     7
370
    25
100
AcDbLine
 10
173.659357861
 20
79.5658846539
 30
0.0
 11
177.6438647868
 21
79.5658846539
 31
0.0
  0
SPLINE
  5
BD
330
1F
100
AcDbEntity
  8
0
  6
Continuous
 62
     7
370
    25
100
AcDbSpline
210
0.0
220
0.0
230
1.0
 70
     8
 71
     3
 72
    14
 73
    10
 74
     0
 42
0.00000001
 43
0.00000001
 40
0.0
 40
0.0
 40
0.0
 40
0.0
 40
0.1866151452866857
 40
0.3749110662891218
 40
0.5002361356890618
 40
0.6255612592069744
 40
0.7542273933745188
 40
0.8829289977247436
 40
1.0
 40
1.0
 40
1.0
 40
1.0
 10
177.6438647868423
 20
79.56588465391918
 30
0.0
 10
177.8221306730798
 20
78.89618974854488
 30
0.0
 10
178.1802680224875
 20
77.55076823585598
 30
0.0
 10
178.4422710229555
 20
75.70717571208628
 30
0.0
 10
178.5115293308256
 20
74.07806522731157
 30
0.0
 10
178.452282151023
 20
72.66963762077592
 30
0.0
 10
178.2721838138901
 20
71.25942271764586
 30
0.0
 10
178.0003817212115
 20
69.89515215997794
 30
0.0
 10
177.7588944960913
 20
69.01532517542121
 30
0.0
 10
177.6438647868423
 20
68.59622953931628
 30
0.0
  0
LINE
  5
BE
330
1F
100
AcDbEntity
  8
0
  6
Continuous
 62
     7
370
    25
100
AcDbLine
 10
173.659357861
 20
68.5962295393
 30
0.0
 11
177.6438647868
 21
68.5962295393
 31
0.0
  0
LINE
  5
BF
330
1F
100
AcDbEntity
  8
0
  6
Continuous
 62
     7
370
    25
100
AcDbLine
 10
173.5789731033
 20
69.2239447586
 30
0.0
 11
173.659357861
 21
68.5962295393
 31
0.0
  0
LINE
  5
C0
330
1F
100
AcDbEntity
  8
0
  6
Continuous
 62
     7
370
    25
100
AcDbLine
 10
173.4985883455
 20
68.5962295393
 30
0.0
 11
173.5789731033
 21
69.2239447586
 31
0.0
  0
LINE
  5
C1
330
1F
100
AcDbEntity
  8
0
  6
Continuous
 62
     7
370
    25
100
AcDbLine
 10
169.5140814197
 20
68.5962295393
 30
0.0
 11
173.4985883455
 21
68.5962295393
 31
0.0
  0
LINE
  5
C2
330
1F
100
AcDbEntity
  8
0
  6
Continuous
 62
     7
370
    25
100
AcDbLine
 10
169.5140814197
 20
79.5658846539
 30
0.0
 11
173.4985883455
 21
79.5658846539
 31
0.0
  0
LINE
  5
C3
330
1F
100
AcDbEntity
  8
0
  6
Continuous
 62
     7
370
    25
100
AcDbLine
 10
173.659357861
 20
79.5658846539
 30
0.0
 11
173.5789731033
 21
78.9381694347
 31
0.0
  0
LINE
  5
C4
330
1F
100
AcDbEntity
  8
0
  6
Continuous
 62
     7
370
    25
100
AcDbLine
 10
173.5789731033
 20
79.8797422635
 30
0.0
 11
173.659357861
 21
79.5658846539
 31
0.0
  0
SPLINE
  5
C5
330
1F
100
AcDbEntity
  8
0
  6
Continuous
 62
     7
370
    25
100
AcDbSpline
210
0.0
220
0.0
230
1.0
 70
     8
 71
     3
 72
    14
 73
    10
 74
     0
 42
0.00000001
 43
0.00000001
 40
0.0
 40
0.0
 40
0.0
 40
0.0
 40
0.132317821819266
 40
0.2645982322802884
 40
0.3998378333746939
 40
0.5350530300363142
 40
0.6502539940279582
 40
0.7654729281951007
 40
0.9999999999999999
 40
0.9999999999999999
 40
0.9999999999999999
 40
0.9999999999999999
 10
177.6438647868423
 20
68.59622953931628
 30
0.0
 10
177.7730296403751
 20
68.35926264364284
 30
0.0
 10
178.0313228275484
 20
67.88539585198883
 30
0.0
 10
178.3092706537915
 20
67.15567740679926
 30
0.0
 10
178.4762562998224
 20
66.41222573660447
 30
0.0
 10
178.5097685045747
 20
65.69562671016776
 30
0.0
 10
178.4225616570039
 20
65.01800349595958
 30
0.0
 10
178.1938402293398
 20
64.16166815591954
 30
0.0
 10
177.864624796159
 20
63.53297856965909
 30
0.0
 10
177.6438647868423
 20
63.11140198201484
 30
0.0
  0
LINE
  5
C6
330
1F
100
AcDbEntity
  8
0
  6
Continuous
 62
     7
370
    25
100
AcDbLine
 10
173.659357861
 20
63.111401982
 30
0.0
 11
177.6438647868
 21
63.111401982
 31
0.0
  0
LINE
  5
C7
330
1F
100
AcDbEntity
  8
0
  6
Continuous
 62
     7
370
    25
100
AcDbLine
 10
173.5789731033
 20
63.4252595916
 30
0.0
 11
173.659357861
 21
63.111401982
 31
0.0
  0
LINE
  5
C8
330
1F
100
AcDbEntity
  8
0
  6
Continuous
 62
     7
370
    25
100
AcDbLine
 10
173.4985883455
 20
63.111401982
 30
0.0
 11
173.5789731033
 21
63.4252595916
 31
0.0
  0
LINE
  5
C9
330
1F
100
AcDbEntity
  8
0
  6
Continuous
 62
     7
370
    25
100
AcDbLine
 10
169.5140814197
 20
63.111401982
 30
0.0
 11
173.4985883455
 21
63.111401982
 31
0.0
  0
LINE
  5
CA
330
1F
100
AcDbEntity
  8
0
  6
Continuous
 62
     7
370
    25
100
AcDbLine
 10
173.5789731033
 20
68.2823719297
 30
0.0
 11
173.4985883455
 21
68.5962295393
 31
0.0
  0
LINE
  5
CB
330
1F
100
AcDbEntity
  8
0
  6
Continuous
 62
     7
370
    25
100
AcDbLine
 10
173.659357861
 20
68.5962295393
 30
0.0
 11
173.5789731033
 21
68.2823719297
 31
0.0
  0
LINE
  5
CC
330
1F
100
AcDbEntity
  8
0
  6
Continuous
 62
     7
370
    25
100
AcDbLine
 10
173.659357861
 20
85.0507122112
 30
0.0
 11
177.6438647868
 21
85.0507122112
 31
0.0
  0
SPLINE
  5
CD
330
1F
100
AcDbEntity
  8
0
  6
Continuous
 62
     7
370
    25
100
AcDbSpline
210
0.0
220
0.0
230
1.0
 70
     8
 71
     3
 72
    14
 73
    10
 74
     0
 42
0.00000001
 43
0.00000001
 40
0.0
 40
0.0
 40
0.0
 40
0.0
 40
0.132317821819266
 40
0.2645982322802887
 40
0.3998378333746943
 40
0.5350530300363148
 40
0.6502539940279588
 40
0.7654729281951009
 40
0.9999999999999999
 40
0.9999999999999999
 40
0.9999999999999999
 40
0.9999999999999999
 10
177.6438647868423
 20
85.05071221122063
 30
0.0
 10
177.7730296403751
 20
84.81374531554718
 30
0.0
 10
178.0313228275484
 20
84.33987852389319
 30
0.0
 10
178.3092706537915
 20
83.6101600787036
 30
0.0
 10
178.4762562998224
 20
82.86670840850883
 30
0.0
 10
178.5097685045747
 20
82.1501093820721
 30
0.0
 10
178.4225616570039
 20
81.4724861678639
 30
0.0
 10
178.1938402293398
 20
80.61615082782389
 30
0.0
 10
177.864624796159
 20
79.98746124156344
 30
0.0
 10
177.6438647868423
 20
79.56588465391918
 30
0.0
  0
LINE
  5
CE
330
1F
100
AcDbEntity
  8
0
  6
Continuous
 62
     7
370
    25
100
AcDbLine
 10
169.5140814197
 20
85.0507122112
 30
0.0
 11
173.4985883455
 21
85.0507122112
 31
0.0
  0
LINE
  5
CF
330
1F
100
AcDbEntity
  8
0
  6
Continuous
 62
     7
370
    25
100
AcDbLine
 10
173.5789731033
 20
84.7368546016
 30
0.0
 11
173.4985883455
 21
85.0507122112
 31
0.0
  0
LINE
  5
D0
330
1F
100
AcDbEntity
  8
0
  6
Continuous
 62
     7
370
    25
100
AcDbLine
 10
173.659357861
 20
85.0507122112
 30
0.0
 11
173.5789731033
 21
84.7368546016
 31
0.0
  0
LINE
  5
D1
330
1F
100
AcDbEntity
  8
0
  6
Continuous
 62
     7
370
    25
100
AcDbLine
 10
178.5789731033
 20
83.4310570966
 30
0.0
 11
178.5789731033
 21
64.7310570966
 31
0.0
  0
LINE
  5
D2
330
1F
100
AcDbEntity
  8
0
  6
Continuous
 62
     7
370
    25
100
AcDbLine
 10
173.5789731033
 20
69.2239447586
 30
0.0
 11
173.5789731033
 21
68.2823719297
 31
0.0
  0
LINE
  5
D3
330
1F
100
AcDbEntity
  8
0
  6
Continuous
 62
     7
370
    25
100
AcDbLine
 10
180.5789731033
 20
83.1310570966
 30
0.0
 11
180.5789731033
 21
65.0310570966
 31
0.0
  0
LINE
  5
D4
330
1F
100
AcDbEntity
  8
0
  6
Continuous
 62
     7
370
    25
100
AcDbLine
 10
166.5789731033
 20
74.0810570966
 30
0.0
 11
166.5789731033
 21
83.1310570966
 31
0.0
  0
LINE
  5
D5
330
1F
100
AcDbEntity
  8
0
  6
Continuous
 62
     7
370
    25
100
AcDbLine
 10
166.5789731033
 20
65.0310570966
 30
0.0
 11
166.5789731033
 21
74.0810570966
 31
0.0
  0
LINE
  5
D6
330
1F
100
AcDbEntity
  8
0
  6
Continuous
 62
     7
370
    25
100
AcDbLine
 10
173.5789731033
 20
84.7507122112
 30
0.0
 11
173.5789731033
 21
84.7368546016
 31
0.0
  0
LINE
  5
D7
330
1F
100
AcDbEntity
  8
0
  6
Continuous
 62
     7
370
    25
100
AcDbLine
 10
173.5789731033
 20
63.4252595916
 30
0.0
 11
173.5789731033
 21
63.411401982
 31
0.0
  0
LINE
  5
D8
330
1F
100
AcDbEntity
  8
0
  6
Continuous
 62
     7
370
    25
100
AcDbLine
 10
182.9380765689
 20
82.5810570966
 30
0.0
 11
182.9380765689
 21
65.5810570966
 31
0.0
  0
LINE
  5
D9
330
1F
100
AcDbEntity
  8
0
  6
Continuous
 62
     7
370
    25
100
AcDbLine
 10
182.7880765689
 20
82.4181426471
 30
0.0
 11
182.7880765689
 21
82.4310570966
 31
0.0
  0
LINE
  5
DA
330
1F
100
AcDbEntity
  8
0
  6
Continuous
 62
     7
370
    25
100
AcDbLine
 10
182.7880765689
 20
65.7310570966
 30
0.0
 11
182.7880765689
 21
82.4181426471
 31
0.0
  0
LINE
  5
DB
330
1F
100
AcDbEntity
  8
0
  6
Continuous
 62
     7
370
    25
100
AcDbLine
 10
203.6700425801
 20
64.0810570966
 30
0.0
 11
203.6700425801
 21
84.0810570966
 31
0.0
  0
SPLINE
  5
DC
330
1F
100
AcDbEntity
  8
0
  6
Continuous
 62
     7
370
    25
100
AcDbSpline
210
0.0
220
0.0
230
1.0
 70
     8
 71
     3
 72
     8
 73
     4
 74
     0
 42
0.00000001
 43
0.00000001
 40
0.0
 40
0.0
 40
0.0
 40
0.0
 40
1.0
 40
1.0
 40
1.0
 40
1.0
 10
203.3852776935257
 20
68.68136724512183
 30
0.0
 10
203.3174412759496
 20
68.65000430411105
 30
0.0
 10
203.2880765688717
 20
68.6165361434615
 30
0.0
 10
203.2880765688717
 20
68.58105709661773
 30
0.0
  0
SPLINE
  5
DD
330
1F
100
AcDbEntity
  8
0
  6
Continuous
 62
     7
370
    25
100
AcDbSpline
210
0.0
220
0.0
230
1.0
 70
     8
 71
     3
 72
    12
 73
     8
 74
     0
 42
0.00000001
 43
0.00000001
 40
0.0
 40
0.0
 40
0.0
 40
0.0
 40
0.5000000000000001
 40
0.5000000000000001
 40
0.75
 40
0.75
 40
1.0
 40
1.0
 40
1.0
 40
1.0
 10
203.3852776935257
 20
68.68136724512183
 30
0.0
 10
203.4531474535355
 20
68.71274560140394
 30
0.0
 10
203.5291820047892
 20
68.84645412190248
 30
0.0
 10
203.5758266031662
 20
69.12448023156826
 30
0.0
 10
203.5802655996888
 20
69.23132641557221
 30
0.0
 10
203.564534985896
 20
69.45820788962796
 30
0.0
 10
203.5446545559536
 20
69.57837686193258
 30
0.0
 10
203.5171626359738
 20
69.69982650674282
 30
0.0
  0
SPLINE
  5
DE
330
1F
100
AcDbEntity
  8
0
  6
Continuous
 62
     7
370
    25
100
AcDbSpline
210
0.0
220
0.0
230
1.0
 70
     8
 71
     3
 72
    12
 73
     8
 74
     0
 42
0.00000001
 43
0.00000001
 40
0.0
 40
0.0
 40
0.0
 40
0.0
 40
0.5
 40
0.5
 40
0.75
 40
0.75
 40
1.0
 40
1.0
 40
1.0
 40
1.0
 10
203.2880765688717
 20
74.08105709661773
 30
0.0
 10
203.2880765688717
 20
73.34710007446051
 30
0.0
 10
203.2835191738725
 20
72.61412163009771
 30
0.0
 10
203.3107028382518
 20
71.5172975171513
 30
0.0
 10
203.326152509169
 20
71.15214992858087
 30
0.0
 10
203.3890161107008
 20
70.42336191471682
 30
0.0
 10
203.4360460338691
 20
70.05817115931849
 30
0.0
 10
203.5171626359738
 20
69.69982650674282
 30
0.0
  0
SPLINE
  5
DF
330
1F
100
AcDbEntity
  8
0
  6
Continuous
 62
     7
370
    25
100
AcDbSpline
210
0.0
220
0.0
230
1.0
 70
     8
 71
     3
 72
    12
 73
     8
 74
     0
 42
0.00000001
 43
0.00000001
 40
0.0
 40
0.0
 40
0.0
 40
0.0
 40
0.25
 40
0.25
 40
0.5
 40
0.5
 40
1.0
 40
1.0
 40
1.0
 40
1.0
 10
203.5171626359738
 20
78.46228768649263
 30
0.0
 10
203.4360460338691
 20
78.10394303391696
 30
0.0
 10
203.3890161107008
 20
77.73875227851863
 30
0.0
 10
203.326152509169
 20
77.00996426465458
 30
0.0
 10
203.3107028382518
 20
76.64481667608415
 30
0.0
 10
203.2835191738725
 20
75.54799256313775
 30
0.0
 10
203.2880765688717
 20
74.81501411877495
 30
0.0
 10
203.2880765688717
 20
74.08105709661771
 30
0.0
  0
SPLINE
  5
E0
330
1F
100
AcDbEntity
  8
0
  6
Continuous
 62
     7
370
    25
100
AcDbSpline
210
0.0
220
0.0
230
1.0
 70
     8
 71
     3
 72
    14
 73
    10
 74
     0
 42
0.00000001
 43
0.00000001
 40
0.0
 40
0.0
 40
0.0
 40
0.0
 40
0.25
 40
0.25
 40
0.5
 40
0.5
 40
0.75
 40
0.75
 40
1.0
 40
1.0
 40
1.0
 40
1.0
 10
203.5171626359738
 20
78.46228768649263
 30
0.0
 10
203.5446836237188
 20
78.58386574247835
 30
0.0
 10
203.5646035455553
 20
78.70439047950347
 30
0.0
 10
203.5802705873733
 20
78.93136673861157
 30
0.0
 10
203.575778755561
 20
79.03833671617775
 30
0.0
 10
203.5445224102774
 20
79.22380226795748
 30
0.0
 10
203.5181498268956
 20
79.30268752907632
 30
0.0
 10
203.4553132757513
 20
79.42332532024942
 30
0.0
 10
203.4192736968913
 20
79.46502951069202
 30
0.0
 10
203.3852776935257
 20
79.48074694811362
 30
0.0
  0
SPLINE
  5
E1
330
1F
100
AcDbEntity
  8
0
  6
Continuous
 62
     7
370
    25
100
AcDbSpline
210
0.0
220
0.0
230
1.0
 70
     8
 71
     3
 72
     8
 73
     4
 74
     0
 42
0.00000001
 43
0.00000001
 40
0.0
 40
0.0
 40
0.0
 40
0.0
 40
1.0
 40
1.0
 40
1.0
 40
1.0
 10
203.2880765688717
 20
79.58105709661773
 30
0.0
 10
203.2880765688717
 20
79.54557804977395
 30
0.0
 10
203.3174412759496
 20
79.5121098891244
 30
0.0
 10
203.3852776935257
 20
79.48074694811362
 30
0.0
  0
LINE
  5
E2
330
1F
100
AcDbEntity
  8
0
  6
Continuous
 62
     7
370
    25
100
AcDbLine
 10
203.2880765689
 20
79.5810570966
 30
0.0
 11
203.2880765689
 21
83.0810570966
 31
0.0
  0
LINE
  5
E3
330
1F
100
AcDbEntity
  8
0
  6
Continuous
 62
     7
370
    25
100
AcDbLine
 10
203.2880765689
 20
65.0810570966
 30
0.0
 11
203.2880765689
 21
68.5810570966
 31
0.0
  0
LINE
  5
E4
330
1F
100
AcDbEntity
  8
0
  6
Continuous
 62
     7
370
    25
100
AcDbLine
 10
205.2880765689
 20
64.0810570966
 30
0.0
 11
205.2880765689
 21
84.0810570966
 31
0.0
  0
LINE
  5
E5
330
1F
100
AcDbEntity
  8
0
  6
Continuous
 62
     7
370
    25
100
AcDbLine
 10
205.7880765689
 20
83.5810570966
 30
0.0
 11
205.7880765689
 21
64.5810570966
 31
0.0
  0
LINE
  5
E6
330
1F
100
AcDbEntity
  8
0
  6
Continuous
 62
     7
370
    25
100
AcDbLine
 10
187.9061105576
 20
74.0810570966
 30
0.0
 11
187.9061105576
 21
64.0810570966
 31
0.0
  0
LINE
  5
E7
330
1F
100
AcDbEntity
  8
0
  6
Continuous
 62
     7
370
    25
100
AcDbLine
 10
187.9061105576
 20
84.0810570966
 30
0.0
 11
187.9061105576
 21
74.0810570966
 31
0.0
  0
LINE
  5
E8
330
1F
100
AcDbEntity
  8
0
  6
Continuous
 62
     7
370
    25
100
AcDbLine
 10
186.0380765689
 20
74.0810570966
 30
0.0
 11
186.0380765689
 21
64.0810570966
 31
0.0
  0
LINE
  5
E9
330
1F
100
AcDbEntity
  8
0
  6
Continuous
 62
     7
370
    25
100
AcDbLine
 10
186.0380765689
 20
84.0810570966
 30
0.0
 11
186.0380765689
 21
74.0810570966
 31
0.0
  0
LINE
  5
EA
330
1F
100
AcDbEntity
  8
0
  6
Continuous
 62
     7
370
    25
100
AcDbLine
 10
185.7880765689
 20
74.0810570966
 30
0.0
 11
185.7880765689
 21
83.8310570966
 31
0.0
  0
LINE
  5
EB
330
1F
100
AcDbEntity
  8
0
  6
Continuous
 62
     7
370
    25
100
AcDbLine
 10
185.7880765689
 20
64.3310570966
 30
0.0
 11
185.7880765689
 21
74.0810570966
 31
0.0
  0
LINE
  5
EC
330
1F
100
AcDbEntity
  8
0
  6
Continuous
 62
     7
370
    25
100
AcDbLine
 10
188.2880765689
 20
83.0810570966
 30
0.0
 11
188.2880765689
 21
79.5810570966
 31
0.0
  0
SPLINE
  5
ED
330
1F
100
AcDbEntity
  8
0
  6
Continuous
 62
     7
370
    25
100
AcDbSpline
210
0.0
220
0.0
230
1.0
 70
     8
 71
     3
 72
     8
 73
     4
 74
     0
 42
0.00000001
 43
0.00000001
 40
0.0
 40
0.0
 40
0.0
 40
0.0
 40
1.0
 40
1.0
 40
1.0
 40
1.0
 10
188.1908754442178
 20
79.48074694811362
 30
0.0
 10
188.2587118617939
 20
79.5121098891244
 30
0.0
 10
188.2880765688717
 20
79.54557804977395
 30
0.0
 10
188.2880765688717
 20
79.58105709661773
 30
0.0
  0
SPLINE
  5
EE
330
1F
100
AcDbEntity
  8
0
  6
Continuous
 62
     7
370
    25
100
AcDbSpline
210
0.0
220
0.0
230
1.0
 70
     8
 71
     3
 72
    12
 73
     8
 74
     0
 42
0.00000001
 43
0.00000001
 40
0.0
 40
0.0
 40
0.0
 40
0.0
 40
0.4999999999999992
 40
0.4999999999999992
 40
0.7499999999999996
 40
0.7499999999999996
 40
1.0
 40
1.0
 40
1.0
 40
1.0
 10
188.1908754442178
 20
79.48074694811362
 30
0.0
 10
188.123005684208
 20
79.44936859183152
 30
0.0
 10
188.0469711329543
 20
79.31566007133297
 30
0.0
 10
188.0003265345773
 20
79.03763396166718
 30
0.0
 10
187.9958875380546
 20
78.93078777766324
 30
0.0
 10
188.0116181518475
 20
78.7039063036075
 30
0.0
 10
188.0314985817898
 20
78.58373733130287
 30
0.0
 10
188.0589905017697
 20
78.46228768649263
 30
0.0
  0
SPLINE
  5
EF
330
1F
100
AcDbEntity
  8
0
  6
Continuous
 62
     7
370
    25
100
AcDbSpline
210
0.0
220
0.0
230
1.0
 70
     8
 71
     3
 72
    12
 73
     8
 74
     0
 42
0.00000001
 43
0.00000001
 40
0.0
 40
0.0
 40
0.0
 40
0.0
 40
0.4999999999999998
 40
0.4999999999999998
 40
0.7499999999999999
 40
0.7499999999999999
 40
1.0
 40
1.0
 40
1.0
 40
1.0
 10
188.2880765688717
 20
74.08105709661771
 30
0.0
 10
188.2880765688717
 20
74.81501411877494
 30
0.0
 10
188.292633963871
 20
75.54799256313774
 30
0.0
 10
188.2654502994917
 20
76.64481667608415
 30
0.0
 10
188.2500006285745
 20
77.00996426465458
 30
0.0
 10
188.1871370270426
 20
77.73875227851863
 30
0.0
 10
188.1401071038743
 20
78.10394303391696
 30
0.0
 10
188.0589905017697
 20
78.46228768649263
 30
0.0
  0
SPLINE
  5
F0
330
1F
100
AcDbEntity
  8
0
  6
Continuous
 62
     7
370
    25
100
AcDbSpline
210
0.0
220
0.0
230
1.0
 70
     8
 71
     3
 72
    12
 73
     8
 74
     0
 42
0.00000001
 43
0.00000001
 40
0.0
 40
0.0
 40
0.0
 40
0.0
 40
0.2500000000000001
 40
0.2500000000000001
 40
0.5000000000000002
 40
0.5000000000000002
 40
1.0
 40
1.0
 40
1.0
 40
1.0
 10
188.0589905017697
 20
69.69982650674282
 30
0.0
 10
188.1401071038743
 20
70.05817115931849
 30
0.0
 10
188.1871370270426
 20
70.42336191471682
 30
0.0
 10
188.2500006285745
 20
71.15214992858087
 30
0.0
 10
188.2654502994917
 20
71.5172975171513
 30
0.0
 10
188.292633963871
 20
72.61412163009771
 30
0.0
 10
188.2880765688717
 20
73.3471000744605
 30
0.0
 10
188.2880765688717
 20
74.08105709661771
 30
0.0
  0
SPLINE
  5
F1
330
1F
100
AcDbEntity
  8
0
  6
Continuous
 62
     7
370
    25
100
AcDbSpline
210
0.0
220
0.0
230
1.0
 70
     8
 71
     3
 72
    14
 73
    10
 74
     0
 42
0.00000001
 43
0.00000001
 40
0.0
 40
0.0
 40
0.0
 40
0.0
 40
0.25
 40
0.25
 40
0.5
 40
0.5
 40
0.75
 40
0.75
 40
1.0
 40
1.0
 40
1.0
 40
1.0
 10
188.0589905017697
 20
69.69982650674282
 30
0.0
 10
188.0314695140246
 20
69.5782484507571
 30
0.0
 10
188.0115495921882
 20
69.45772371373198
 30
0.0
 10
187.9958825503701
 20
69.23074745462388
 30
0.0
 10
188.0003743821825
 20
69.1237774770577
 30
0.0
 10
188.031630727466
 20
68.93831192527797
 30
0.0
 10
188.0580033108478
 20
68.85942666415913
 30
0.0
 10
188.1208398619921
 20
68.73878887298604
 30
0.0
 10
188.1568794408522
 20
68.69708468254343
 30
0.0
 10
188.1908754442178
 20
68.68136724512183
 30
0.0
  0
SPLINE
  5
F2
330
1F
100
AcDbEntity
  8
0
  6
Continuous
 62
     7
370
    25
100
AcDbSpline
210
0.0
220
0.0
230
1.0
 70
     8
 71
     3
 72
     8
 73
     4
 74
     0
 42
0.00000001
 43
0.00000001
 40
0.0
 40
0.0
 40
0.0
 40
0.0
 40
1.0
 40
1.0
 40
1.0
 40
1.0
 10
188.2880765688717
 20
68.58105709661773
 30
0.0
 10
188.2880765688717
 20
68.6165361434615
 30
0.0
 10
188.2587118617939
 20
68.65000430411105
 30
0.0
 10
188.1908754442178
 20
68.68136724512183
 30
0.0
  0
LINE
  5
F3
330
1F
100
AcDbEntity
  8
0
  6
Continuous
 62
     7
370
    25
100
AcDbLine
 10
188.2880765689
 20
68.5810570966
 30
0.0
 11
188.2880765689
 21
65.0810570966
 31
0.0
  0
SPLINE
  5
F4
330
1F
100
AcDbEntity
  8
0
  6
Continuous
 62
     7
370
    25
100
AcDbSpline
210
0.0
220
0.0
230
1.0
 70
     8
 71
     3
 72
    14
 73
    10
 74
     0
 42
0.00000001
 43
0.00000001
 40
0.0
 40
0.0
 40
0.0
 40
0.0
 40
0.2500000000000001
 40
0.2500000000000001
 40
0.5000000000000001
 40
0.5000000000000001
 40
0.7500000000000001
 40
0.7500000000000001
 40
1.0
 40
1.0
 40
1.0
 40
1.0
 10
188.7880765688717
 20
74.08105709661771
 30
0.0
 10
188.7880765688717
 20
73.70454038453076
 30
0.0
 10
188.7884858305914
 20
73.32800432690179
 30
0.0
 10
188.7851744824855
 20
72.57512742805321
 30
0.0
 10
188.7814109970208
 20
72.19878861353786
 30
0.0
 10
188.7556377412411
 20
71.44697347482273
 30
0.0
 10
188.7337196465626
 20
71.0714928171737
 30
0.0
 10
188.6485019833773
 20
70.32248757790504
 30
0.0
 10
188.5851889972265
 20
69.94687966246357
 30
0.0
 10
188.4826284794023
 20
69.58105709661773
 30
0.0
  0
LINE
  5
F5
330
1F
100
AcDbEntity
  8
0
  6
Continuous
 62
     7
370
    25
100
AcDbLine
 10
188.4826284794
 20
69.5810570966
 30
0.0
 11
188.0589905018
 21
69.6998265067
 31
0.0
  0
LINE
  5
F6
330
1F
100
AcDbEntity
  8
0
  6
Continuous
 62
     7
370
    25
100
AcDbLine
 10
188.7880765689
 20
74.0810570966
 30
0.0
 11
188.2880765689
 21
74.0810570966
 31
0.0
  0
LINE
  5
F7
330
1F
100
AcDbEntity
  8
0
  6
Continuous
 62
     7
370
    25
100
AcDbLine
 10
203.517162636
 20
69.6998265067
 30
0.0
 11
203.0935246583
 21
69.5810570966
 31
0.0
  0
SPLINE
  5
F8
330
1F
100
AcDbEntity
  8
0
  6
Continuous
 62
     7
370
    25
100
AcDbSpline
210
0.0
220
0.0
230
1.0
 70
     8
 71
     3
 72
    14
 73
    10
 74
     0
 42
0.00000001
 43
0.00000001
 40
0.0
 40
0.0
 40
0.0
 40
0.0
 40
0.2500000000000002
 40
0.2500000000000002
 40
0.5000000000000003
 40
0.5000000000000003
 40
0.7500000000000002
 40
0.7500000000000002
 40
1.0
 40
1.0
 40
1.0
 40
1.0
 10
203.0935246583411
 20
69.58105709661773
 30
0.0
 10
202.990964140517
 20
69.94687966246357
 30
0.0
 10
202.9276511543661
 20
70.32248757790504
 30
0.0
 10
202.8424334911809
 20
71.07149281717372
 30
0.0
 10
202.8205153965023
 20
71.44697347482273
 30
0.0
 10
202.7947421407226
 20
72.19878861353786
 30
0.0
 10
202.790978655258
 20
72.57512742805321
 30
0.0
 10
202.7876673071521
 20
73.3280043269018
 30
0.0
 10
202.7880765688717
 20
73.70454038453077
 30
0.0
 10
202.7880765688717
 20
74.08105709661773
 30
0.0
  0
LINE
  5
F9
330
1F
100
AcDbEntity
  8
0
  6
Continuous
 62
     7
370
    25
100
AcDbLine
 10
203.2880765689
 20
74.0810570966
 30
0.0
 11
202.7880765689
 21
74.0810570966
 31
0.0
  0
SPLINE
  5
FA
330
1F
100
AcDbEntity
  8
0
  6
Continuous
 62
     7
370
    25
100
AcDbSpline
210
0.0
220
0.0
230
1.0
 70
     8
 71
     3
 72
    14
 73
    10
 74
     0
 42
0.00000001
 43
0.00000001
 40
0.0
 40
0.0
 40
0.0
 40
0.0
 40
0.2499999999999999
 40
0.2499999999999999
 40
0.4999999999999999
 40
0.4999999999999999
 40
0.7499999999999999
 40
0.7499999999999999
 40
1.0
 40
1.0
 40
1.0
 40
1.0
 10
202.7880765688717
 20
74.08105709661771
 30
0.0
 10
202.7880765688717
 20
74.45757380870468
 30
0.0
 10
202.7876673071521
 20
74.83410986633365
 30
0.0
 10
202.790978655258
 20
75.58698676518223
 30
0.0
 10
202.7947421407226
 20
75.96332557969758
 30
0.0
 10
202.8205153965023
 20
76.71514071841273
 30
0.0
 10
202.8424334911809
 20
77.09062137606173
 30
0.0
 10
202.9276511543661
 20
77.83962661533042
 30
0.0
 10
202.990964140517
 20
78.21523453077187
 30
0.0
 10
203.0935246583411
 20
78.58105709661773
 30
0.0
  0
LINE
  5
FB
330
1F
100
AcDbEntity
  8
0
  6
Continuous
 62
     7
370
    25
100
AcDbLine
 10
203.517162636
 20
78.4622876865
 30
0.0
 11
203.0935246583
 21
78.5810570966
 31
0.0
  0
SPLINE
  5
FC
330
1F
100
AcDbEntity
  8
0
  6
Continuous
 62
     7
370
    25
100
AcDbSpline
210
0.0
220
0.0
230
1.0
 70
     8
 71
     3
 72
    14
 73
    10
 74
     0
 42
0.00000001
 43
0.00000001
 40
0.0
 40
0.0
 40
0.0
 40
0.0
 40
0.2500000000000001
 40
0.2500000000000001
 40
0.5000000000000001
 40
0.5000000000000001
 40
0.75
 40
0.75
 40
1.0
 40
1.0
 40
1.0
 40
1.0
 10
188.4826284794023
 20
78.58105709661773
 30
0.0
 10
188.5851889972265
 20
78.21523453077187
 30
0.0
 10
188.6485019833773
 20
77.83962661533042
 30
0.0
 10
188.7337196465626
 20
77.09062137606173
 30
0.0
 10
188.7556377412411
 20
76.71514071841271
 30
0.0
 10
188.7814109970208
 20
75.96332557969758
 30
0.0
 10
188.7851744824855
 20
75.58698676518223
 30
0.0
 10
188.7884858305914
 20
74.83410986633363
 30
0.0
 10
188.7880765688717
 20
74.45757380870468
 30
0.0
 10
188.7880765688717
 20
74.08105709661771
 30
0.0
  0
LINE
  5
FD
330
1F
100
AcDbEntity
  8
0
  6
Continuous
 62
     7
370
    25
100
AcDbLine
 10
188.4826284794
 20
78.5810570966
 30
0.0
 11
188.0589905018
 21
78.4622876865
 31
0.0
  0
SPLINE
  5
FE
330
1F
100
AcDbEntity
  8
0
  6
Continuous
 62
     7
370
    25
100
AcDbSpline
210
0.0
220
0.0
230
1.0
 70
     8
 71
     3
 72
    14
 73
    10
 74
     0
 42
0.00000001
 43
0.00000001
 40
0.0
 40
0.0
 40
0.0
 40
0.0
 40
0.25
 40
0.25
 40
0.5
 40
0.5
 40
0.75
 40
0.75
 40
1.0
 40
1.0
 40
1.0
 40
1.0
 10
188.6584750693332
 20
69.08105709661773
 30
0.0
 10
188.6199995857116
 20
69.08105709661773
 30
0.0
 10
188.5789106642415
 20
69.09184366760094
 30
0.0
 10
188.499627816801
 20
69.1347754546661
 30
0.0
 10
188.4623449156905
 20
69.16619296297097
 30
0.0
 10
188.4095391563788
 20
69.2575078085472
 30
0.0
 10
188.3975698962851
 20
69.31873829131145
 30
0.0
 10
188.4175716846573
 20
69.44960165196717
 30
0.0
 10
188.4470281402096
 20
69.51756576630476
 30
0.0
 10
188.4826284794023
 20
69.58105709661773
 30
0.0
  0
ARC
  5
FF
330
1F
100
AcDbEntity
  8
0
  6
Continuous
 62
     7
370
    25
100
AcDbCircle
 10
188.6670236529
 20
68.5976872859
 30
0.0
 40
0.4834453973192517
100
AcDbArc
 50
91.0131925738
 51
170.032425387
  0
SPLINE
  5
100
330
1F
100
AcDbEntity
  8
0
  6
Continuous
 62
     7
370
    25
100
AcDbSpline
210
0.0
220
0.0
230
1.0
 70
     8
 71
     3
 72
    14
 73
    10
 74
     0
 42
0.00000001
 43
0.00000001
 40
0.0
 40
0.0
 40
0.0
 40
0.0
 40
0.25
 40
0.25
 40
0.5
 40
0.5
 40
0.75
 40
0.75
 40
1.0
 40
1.0
 40
1.0
 40
1.0
 10
202.9176780684103
 20
79.08105709661773
 30
0.0
 10
202.9561535520319
 20
79.08105709661773
 30
0.0
 10
202.9972424735019
 20
79.07027052563451
 30
0.0
 10
203.0765253209425
 20
79.02733873856934
 30
0.0
 10
203.1138082220529
 20
78.99592123026447
 30
0.0
 10
203.1666139813647
 20
78.90460638468825
 30
0.0
 10
203.1785832414583
 20
78.843375901924
 30
0.0
 10
203.1585814530862
 20
78.71251254126828
 30
0.0
 10
203.1291249975339
 20
78.6445484269307
 30
0.0
 10
203.0935246583411
 20
78.58105709661773
 30
0.0
  0
ARC
  5
101
330
1F
100
AcDbEntity
  8
0
  6
Continuous
 62
     7
370
    25
100
AcDbCircle
 10
202.9091294849
 20
79.5644269073
 30
0.0
 40
0.4834453973192541
100
AcDbArc
 50
271.0131925738
 51
350.032425387
  0
SPLINE
  5
102
330
1F
100
AcDbEntity
  8
0
  6
Continuous
 62
     7
370
    25
100
AcDbSpline
210
0.0
220
0.0
230
1.0
 70
     8
 71
     3
 72
    16
 73
    12
 74
     0
 42
0.00000001
 43
0.00000001
 40
0.0
 40
0.0
 40
0.0
 40
0.0
 40
0.2500000000000049
 40
0.2500000000000049
 40
0.3750000000000051
 40
0.3750000000000051
 40
0.5000000000000052
 40
0.5000000000000052
 40
0.7500000000000026
 40
0.7500000000000026
 40
1.0
 40
1.0
 40
1.0
 40
1.0
 10
188.4826284794023
 20
78.58105709661773
 30
0.0
 10
188.4470745499537
 20
78.64446565759592
 30
0.0
 10
188.417802408725
 20
78.71173295791674
 30
0.0
 10
188.4025898585041
 20
78.81017226905908
 30
0.0
 10
188.4025291903306
 20
78.84264767541437
 30
0.0
 10
188.4127397748079
 20
78.90127288254057
 30
0.0
 10
188.4225231043331
 20
78.92689569409356
 30
0.0
 10
188.4616876528651
 20
78.995104537789
 30
0.0
 10
188.4995607261384
 20
79.02726729295479
 30
0.0
 10
188.5786336991299
 20
79.07015551207067
 30
0.0
 10
188.6200208317208
 20
79.08105709661773
 30
0.0
 10
188.6584750693332
 20
79.08105709661773
 30
0.0
  0
ARC
  5
103
330
1F
100
AcDbEntity
  8
0
  6
Continuous
 62
     7
370
    25
100
AcDbCircle
 10
188.6670236529
 20
79.5644269073
 30
0.0
 40
0.4834453973192541
100
AcDbArc
 50
189.967574613
 51
268.9868074262
  0
ARC
  5
104
330
1F
100
AcDbEntity
  8
0
  6
Continuous
 62
     7
370
    25
100
AcDbCircle
 10
202.9091294849
 20
68.5976872859
 30
0.0
 40
0.4834453973192517
100
AcDbArc
 50
9.967574613
 51
88.9868074262
  0
SPLINE
  5
105
330
1F
100
AcDbEntity
  8
0
  6
Continuous
 62
     7
370
    25
100
AcDbSpline
210
0.0
220
0.0
230
1.0
 70
     8
 71
     3
 72
    16
 73
    12
 74
     0
 42
0.00000001
 43
0.00000001
 40
0.0
 40
0.0
 40
0.0
 40
0.0
 40
0.2499999999999999
 40
0.2499999999999999
 40
0.3750000000000003
 40
0.3750000000000003
 40
0.5000000000000007
 40
0.5000000000000007
 40
0.7500000000000003
 40
0.7500000000000003
 40
1.0
 40
1.0
 40
1.0
 40
1.0
 10
203.0935246583411
 20
69.58105709661773
 30
0.0
 10
203.1290785877898
 20
69.51764853563954
 30
0.0
 10
203.1583507290185
 20
69.45038123531872
 30
0.0
 10
203.1735632792393
 20
69.35194192417637
 30
0.0
 10
203.1736239474129
 20
69.31946651782108
 30
0.0
 10
203.1634133629356
 20
69.26084131069487
 30
0.0
 10
203.1536300334103
 20
69.2352184991419
 30
0.0
 10
203.1144654848784
 20
69.16700965544645
 30
0.0
 10
203.0765924116051
 20
69.13484690028066
 30
0.0
 10
202.9975194386135
 20
69.09195868116478
 30
0.0
 10
202.9561323060227
 20
69.08105709661773
 30
0.0
 10
202.9176780684103
 20
69.08105709661773
 30
0.0
  0
ARC
  5
106
330
1F
100
AcDbEntity
  8
0
  6
Continuous
 62
     7
370
    25
100
AcDbCircle
 10
196.9777269777
 20
73.2760109561
 30
0.0
 40
0.7111999999997725
100
AcDbArc
 50
45.0
 51
315.0
  0
LINE
  5
107
330
1F
100
AcDbEntity
  8
0
  6
Continuous
 62
     7
370
    25
100
AcDbLine
 10
197.4806213204
 20
73.7789052989
 30
0.0
 11
197.8539096289
 21
74.1521936074
 31
0.0
  0
ARC
  5
108
330
1F
100
AcDbEntity
  8
0
  6
Continuous
 62
     7
370
    25
100
AcDbCircle
 10
196.9777269777
 20
73.2760109561
 30
0.0
 40
1.239109388553836
100
AcDbArc
 50
45.0
 51
315.0
  0
LINE
  5
109
330
1F
100
AcDbEntity
  8
0
  6
Continuous
 62
     7
370
    25
100
AcDbLine
 10
197.8539096289
 20
72.3998283048
 30
0.0
 11
197.4806213204
 21
72.7731166133
 31
0.0
  0
ARC
  5
10A
330
1F
100
AcDbEntity
  8
0
  6
Continuous
 62
     7
370
    25
100
AcDbCircle
 10
199.6514426547
 20
73.2760109561
 30
0.0
 40
0.7112000000000946
100
AcDbArc
 50
200.9248324276
 51
315.0
  0
LINE
  5
10B
330
1F
100
AcDbEntity
  8
0
  6
Continuous
 62
     7
370
    25
100
AcDbLine
 10
198.9871464557
 20
73.0220109561
 30
0.0
 11
200.527625306
 21
73.0220109561
 31
0.0
  0
LINE
  5
10C
330
1F
100
AcDbEntity
  8
0
  6
Continuous
 62
     7
370
    25
100
AcDbLine
 10
200.527625306
 20
73.0220109561
 30
0.0
 11
200.527625306
 21
73.5300109561
 31
0.0
  0
LINE
  5
10D
330
1F
100
AcDbEntity
  8
0
  6
Continuous
 62
     7
370
    25
100
AcDbLine
 10
200.527625306
 20
73.5300109561
 30
0.0
 11
198.9871464557
 21
73.5300109561
 31
0.0
  0
ARC
  5
10E
330
1F
100
AcDbEntity
  8
0
  6
Continuous
 62
     7
370
    25
100
AcDbCircle
 10
199.6514426547
 20
73.2760109561
 30
0.0
 40
0.7112000000000538
100
AcDbArc
 50
45.0
 51
159.0751675723
  0
LINE
  5
10F
330
1F
100
AcDbEntity
  8
0
  6
Continuous
 62
     7
370
    25
100
AcDbLine
 10
200.1543369975
 20
73.7789052989
 30
0.0
 11
200.527625306
 21
74.1521936074
 31
0.0
  0
ARC
  5
110
330
1F
100
AcDbEntity
  8
0
  6
Continuous
 62
     7
370
    25
100
AcDbCircle
 10
199.6514426547
 20
73.2760109561
 30
0.0
 40
1.239109388553857
100
AcDbArc
 50
45.0
 51
315.0
  0
LINE
  5
111
330
1F
100
AcDbEntity
  8
0
  6
Continuous
 62
     7
370
    25
100
AcDbLine
 10
200.527625306
 20
72.3998283048
 30
0.0
 11
200.1543369975
 21
72.7731166133
 31
0.0
  0
ELLIPSE
  5
112
330
1F
100
AcDbEntity
  8
0
  6
Continuous
 62
     7
370
    25
100
AcDbEllipse
 10
192.7370724312
 20
70.4345302126
 30
0.0
 11
2.293035763987604
 21
-1.080024958355352E-12
 31
0.0
210
0.0
220
0.0
230
1.0
 40
0.9533039403
 41
0.8210019969645996
 42
2.320590656625129
  0
ELLIPSE
  5
113
330
1F
100
AcDbEntity
  8
0
  6
Continuous
 62
     7
370
    25
100
AcDbEllipse
 10
194.3459824278
 20
72.081609109
 30
0.0
 11
0.06784129479237322
 21
0.0
 31
0.0
210
0.0
220
0.0
230
1.0
 40
0.9533039403
 41
3.962594650555296
 42
5.819537698174843
  0
LINE
  5
114
330
1F
100
AcDbEntity
  8
0
  6
Continuous
 62
     7
370
    25
100
AcDbLine
 10
194.4066615265
 20
72.0526862971
 30
0.0
 11
195.0436764541
 21
73.2672239782
 31
0.0
  0
LINE
  5
115
330
1F
100
AcDbEntity
  8
0
  6
Continuous
 62
     7
370
    25
100
AcDbLine
 10
195.0436764541
 20
73.2672239782
 30
0.0
 11
195.0103561987
 21
73.2481800343
 31
0.0
  0
ELLIPSE
  5
116
330
1F
100
AcDbEntity
  8
0
  6
Continuous
 62
     7
370
    25
100
AcDbEllipse
 10
194.7312816551
 20
73.6919260113
 30
0.0
 11
0.5427303583402932
 21
3.694822225952521E-13
 31
0.0
210
0.0
220
0.0
230
1.0
 40
0.9533039404
 41
3.470145824142416
 42
5.252469180527896
  0
LINE
  5
117
330
1F
100
AcDbEntity
  8
0
  6
Continuous
 62
     7
370
    25
100
AcDbLine
 10
194.2175818415
 20
73.5249787193
 30
0.0
 11
193.2098581321
 21
76.3429352027
 31
0.0
  0
ELLIPSE
  5
118
330
1F
100
AcDbEntity
  8
0
  6
Continuous
 62
     7
370
    25
100
AcDbEllipse
 10
192.7370724312
 20
76.1330628478
 30
0.0
 11
0.5215299537176463
 21
0.0
 31
0.0
210
0.0
220
0.0
230
1.0
 40
0.9533039403
 41
0.4357918987552989
 42
2.70580075483452
  0
LINE
  5
119
330
1F
100
AcDbEntity
  8
0
  6
Continuous
 62
     7
370
    25
100
AcDbLine
 10
192.2642867303
 20
76.3429352027
 30
0.0
 11
191.2567978575
 21
73.5256354064
 31
0.0
  0
ELLIPSE
  5
11A
330
1F
100
AcDbEntity
  8
0
  6
Continuous
 62
     7
370
    25
100
AcDbEllipse
 10
190.7430980439
 20
73.6925826984
 30
0.0
 11
-0.5427303583406626
 21
3.552713678800501E-13
 31
0.0
210
0.0
220
0.0
230
1.0
 40
0.9533039403
 41
1.047197551196535
 42
2.813039483039265
  0
LINE
  5
11B
330
1F
100
AcDbEntity
  8
0
  6
Continuous
 62
     7
370
    25
100
AcDbLine
 10
190.4717328647
 20
73.2445124222
 30
0.0
 11
190.4304684083
 21
73.2672239782
 31
0.0
  0
LINE
  5
11C
330
1F
100
AcDbEntity
  8
0
  6
Continuous
 62
     7
370
    25
100
AcDbLine
 10
190.4304684083
 20
73.2672239782
 30
0.0
 11
191.0674833359
 21
72.0526862971
 31
0.0
  0
ELLIPSE
  5
11D
330
1F
100
AcDbEntity
  8
0
  6
Continuous
 62
     7
370
    25
100
AcDbEllipse
 10
191.1281624346
 20
72.081609109
 30
0.0
 11
0.06784129479237322
 21
0.0
 31
0.0
210
0.0
220
0.0
230
1.0
 40
0.9533039403
 41
3.605240262580621
 42
5.462183310226822
  0
LINE
  5
11E
330
1F
100
AcDbEntity
  8
0
  6
Continuous
 62
     7
370
    25
100
AcDbLine
 10
203.0935246583
 20
78.5810570966
 30
0.0
 11
188.4826284794
 21
78.5810570966
 31
0.0
  0
LINE
  5
11F
330
1F
100
AcDbEntity
  8
0
  6
Continuous
 62
     7
370
    25
100
AcDbLine
 10
188.4826284794
 20
69.5810570966
 30
0.0
 11
203.0935246583
 21
69.5810570966
 31
0.0
  0
LINE
  5
120
330
1F
100
AcDbEntity
  8
0
  6
Continuous
 62
     7
370
    25
100
AcDbLine
 10
202.9176780684
 20
69.0810570966
 30
0.0
 11
188.6584750693
 21
69.0810570966
 31
0.0
  0
LINE
  5
121
330
1F
100
AcDbEntity
  8
0
  6
Continuous
 62
     7
370
    25
100
AcDbLine
 10
193.0439007656
 20
73.6123428558
 30
0.0
 11
192.8009614235
 21
74.2608089494
 31
0.0
  0
ELLIPSE
  5
122
330
1F
100
AcDbEntity
  8
0
  6
Continuous
 62
     7
370
    25
100
AcDbEllipse
 10
192.9800117749
 20
73.5905908464
 30
0.0
 11
-0.0678412947923448
 21
0.0
 31
0.0
210
0.0
220
0.0
230
1.0
 40
0.9533039403
 41
1.570796326794897
 42
3.484616592149523
  0
LINE
  5
123
330
1F
100
AcDbEntity
  8
0
  6
Continuous
 62
     7
370
    25
100
AcDbLine
 10
192.4941330879
 20
73.5259174728
 30
0.0
 11
192.9800117749
 21
73.5259174728
 31
0.0
  0
ELLIPSE
  5
124
330
1F
100
AcDbEntity
  8
0
  6
Continuous
 62
     7
370
    25
100
AcDbEllipse
 10
192.4941330879
 20
73.5905908464
 30
0.0
 11
0.06784129479237322
 21
0.0
 31
0.0
210
0.0
220
0.0
230
1.0
 40
0.9533039403
 41
2.798568711307392
 42
4.712388980384703
  0
ELLIPSE
  5
125
330
1F
100
AcDbEntity
  8
0
  6
Continuous
 62
     7
370
    25
100
AcDbEllipse
 10
192.7370724328
 20
74.2390569401
 30
0.0
 11
0.06784129479271428
 21
0.0
 31
0.0
210
0.0
220
0.0
230
1.0
 40
0.9533039403
 41
0.3430239385582297
 42
2.798568711308944
  0
LINE
  5
126
330
1F
100
AcDbEntity
  8
0
  6
Continuous
 62
     7
370
    25
100
AcDbLine
 10
192.6731834422
 20
74.2608089497
 30
0.0
 11
192.4302440973
 21
73.612342856
 31
0.0
  0
LINE
  5
127
330
1F
100
AcDbEntity
  8
0
  6
Continuous
 62
     7
370
    25
100
AcDbLine
 10
188.6584750693
 20
79.0810570966
 30
0.0
 11
202.9176780684
 21
79.0810570966
 31
0.0
  0
LINE
  5
128
330
1F
100
AcDbEntity
  8
0
  6
Continuous
 62
     7
370
    25
100
AcDbLine
 10
213.7141671352
 20
74.0810570966
 30
0.0
 11
213.7141671352
 21
65.8836849268
 31
0.0
  0
LINE
  5
129
330
1F
100
AcDbEntity
  8
0
  6
Continuous
 62
     7
370
    25
100
AcDbLine
 10
213.7141671352
 20
82.2784292664
 30
0.0
 11
213.7141671352
 21
74.0810570966
 31
0.0
  0
LINE
  5
12A
330
1F
100
AcDbEntity
  8
0
  6
Continuous
 62
     7
370
    25
100
AcDbLine
 10
215.7880765689
 20
81.0810570966
 30
0.0
 11
215.7880765689
 21
67.0810570966
 31
0.0
  0
ARC
  5
12B
330
1F
100
AcDbEntity
  8
0
  6
Continuous
 62
     7
370
    25
100
AcDbCircle
 10
188.7880765689
 20
68.5810570966
 30
0.0
 40
0.5
100
AcDbArc
 50
90.0
 51
180.0
  0
ARC
  5
12C
330
1F
100
AcDbEntity
  8
0
  6
Continuous
 62
     7
370
    25
100
AcDbCircle
 10
202.7880765689
 20
68.5810570966
 30
0.0
 40
0.5
100
AcDbArc
 50
0.0
 51
90.0
  0
ARC
  5
12D
330
1F
100
AcDbEntity
  8
0
  6
Continuous
 62
     7
370
    25
100
AcDbCircle
 10
188.7880765689
 20
79.5810570966
 30
0.0
 40
0.5
100
AcDbArc
 50
180.0
 51
270.0
  0
ARC
  5
12E
330
1F
100
AcDbEntity
  8
0
  6
Continuous
 62
     7
370
    25
100
AcDbCircle
 10
202.7880765689
 20
79.5810570966
 30
0.0
 40
0.5
100
AcDbArc
 50
270.0
 51
0.0
  0
LWPOLYLINE
  5
12F
330
1F
100
AcDbEntity
  8
0
  6
Continuous
 62
     7
370
    25
100
AcDbPolyline
 90
        9
 70
   128
 43
0.0
 10
202.7880765689
 20
79.2755015411
 10
202.8856217299
 20
79.2813727054
 10
202.9794182851
 20
79.2987605728
 10
203.0658616854
 20
79.3269969373
 10
203.1416299595
 20
79.3649966913
 10
203.203811375
 20
79.4112995254
 10
203.2500163351
 20
79.4641260478
 10
203.2784692091
 20
79.5214461649
 10
203.2880765689
 20
79.5810570966
  0
LINE
  5
130
330
1F
100
AcDbEntity
  8
0
  6
Continuous
 62
     7
370
    25
100
AcDbLine
 10
202.7880765689
 20
79.0810570966
 30
0.0
 11
202.7880765689
 21
79.2755015411
 31
0.0
  0
LWPOLYLINE
  5
131
330
1F
100
AcDbEntity
  8
0
  6
Continuous
 62
     7
370
    25
100
AcDbPolyline
 90
        9
 70
   128
 43
0.0
 10
188.7880765689
 20
68.8866126522
 10
188.6905314079
 20
68.8807414879
 10
188.5967348527
 20
68.8633536204
 10
188.5102914524
 20
68.8351172559
 10
188.4345231783
 20
68.797117502
 10
188.3723417627
 20
68.7508146678
 10
188.3261368026
 20
68.6979881454
 10
188.2976839287
 20
68.6406680283
 10
188.2880765689
 20
68.5810570966
  0
LWPOLYLINE
  5
132
330
1F
100
AcDbEntity
  8
0
  6
Continuous
 62
     7
370
    25
100
AcDbPolyline
 90
        9
 70
   128
 43
0.0
 10
188.2880765689
 20
79.5810570966
 10
188.2976839287
 20
79.5214461649
 10
188.3261368026
 20
79.4641260478
 10
188.3723417627
 20
79.4112995254
 10
188.4345231783
 20
79.3649966913
 10
188.5102914524
 20
79.3269969373
 10
188.5967348527
 20
79.2987605728
 10
188.6905314079
 20
79.2813727054
 10
188.7880765689
 20
79.2755015411
  0
LINE
  5
133
330
1F
100
AcDbEntity
  8
0
  6
Continuous
 62
     7
370
    25
100
AcDbLine
 10
188.7880765689
 20
68.8866126522
 30
0.0
 11
188.7880765689
 21
69.0810570966
 31
0.0
  0
LINE
  5
134
330
1F
100
AcDbEntity
  8
0
  6
Continuous
 62
     7
370
    25
100
AcDbLine
 10
202.7880765689
 20
68.8866126522
 30
0.0
 11
188.7880765689
 21
68.8866126522
 31
0.0
  0
LINE
  5
135
330
1F
100
AcDbEntity
  8
0
  6
Continuous
 62
     7
370
    25
100
AcDbLine
 10
202.7880765689
 20
68.8866126522
 30
0.0
 11
202.7880765689
 21
69.0810570966
 31
0.0
  0
LINE
  5
136
330
1F
100
AcDbEntity
  8
0
  6
Continuous
 62
     7
370
    25
100
AcDbLine
 10
188.7880765689
 20
79.0810570966
 30
0.0
 11
188.7880765689
 21
79.2755015411
 31
0.0
  0
LWPOLYLINE
  5
137
330
1F
100
AcDbEntity
  8
0
  6
Continuous
 62
     7
370
    25
100
AcDbPolyline
 90
        9
 70
   128
 43
0.0
 10
203.2880765689
 20
68.5810570966
 10
203.2784692091
 20
68.6406680283
 10
203.2500163351
 20
68.6979881454
 10
203.203811375
 20
68.7508146678
 10
203.1416299595
 20
68.797117502
 10
203.0658616854
 20
68.8351172559
 10
202.9794182851
 20
68.8633536204
 10
202.8856217299
 20
68.8807414879
 10
202.7880765689
 20
68.8866126522
  0
LINE
  5
138
330
1F
100
AcDbEntity
  8
0
  6
Continuous
 62
     7
370
    25
100
AcDbLine
 10
188.7880765689
 20
79.2755015411
 30
0.0
 11
202.7880765689
 21
79.2755015411
 31
0.0
  0
SPLINE
  5
139
330
1F
100
AcDbEntity
  8
0
  6
Continuous
 62
     7
370
    25
100
AcDbSpline
210
0.0
220
0.0
230
1.0
 70
    11
 71
     3
 72
    26
 73
    22
 74
     0
 42
0.00000001
 43
0.00000001
 40
0.0
 40
0.0
 40
0.0
 40
0.0
 40
0.125
 40
0.125
 40
0.1875
 40
0.1875
 40
0.25
 40
0.25
 40
0.3125
 40
0.3125
 40
0.375
 40
0.375
 40
0.5
 40
0.5
 40
0.625
 40
0.625
 40
0.75
 40
0.75
 40
0.875
 40
0.875
 40
1.0
 40
1.0
 40
1.0
 40
1.0
 10
196.3013955377201
 20
82.08105709661773
 30
0.0
 10
196.3013955377201
 20
82.22017612784654
 30
0.0
 10
196.2485995665712
 20
82.35590383082203
 30
0.0
 10
196.1071439766938
 20
82.5089225673178
 30
0.0
 10
196.050590040322
 20
82.55042546833833
 30
0.0
 10
195.9250458888785
 20
82.60762536213203
 30
0.0
 10
195.8558942757705
 20
82.62290935087636
 30
0.0
 10
195.7187359010271
 20
82.6226884771127
 30
0.0
 10
195.6496213182209
 20
82.60712841582506
 30
0.0
 10
195.5248615495898
 20
82.54992258133103
 30
0.0
 10
195.4682304612554
 20
82.50817115406409
 30
0.0
 10
195.3281168347324
 20
82.35633028578064
 30
0.0
 10
195.2747963007858
 20
82.22027795851278
 30
0.0
 10
195.2747189422097
 20
81.94214526480941
 30
0.0
 10
195.3284073242314
 20
81.80534325478943
 30
0.0
 10
195.5151021385391
 20
81.60327445112438
 30
0.0
 10
195.6509833479027
 20
81.53910469143882
 30
0.0
 10
195.9266144819412
 20
81.53952574423982
 30
0.0
 10
196.0615895203548
 20
81.60379442666314
 30
0.0
 10
196.2474369974208
 20
81.80507197788728
 30
0.0
 10
196.3013955377201
 20
81.94193806538891
 30
0.0
 10
196.3013955377201
 20
82.08105709661773
 30
0.0
  0
SPLINE
  5
13A
330
1F
100
AcDbEntity
  8
0
  6
Continuous
 62
     7
370
    25
100
AcDbSpline
210
0.0
220
0.0
230
1.0
 70
    11
 71
     3
 72
    38
 73
    34
 74
     0
 42
0.00000001
 43
0.00000001
 40
0.0
 40
0.0
 40
0.0
 40
0.0
 40
0.0625
 40
0.0625
 40
0.125
 40
0.125
 40
0.1874999999999999
 40
0.1874999999999999
 40
0.2499999999999999
 40
0.2499999999999999
 40
0.3125
 40
0.3125
 40
0.375
 40
0.375
 40
0.4375000000000001
 40
0.4375000000000001
 40
0.5000000000000001
 40
0.5000000000000001
 40
0.5625000000000001
 40
0.5625000000000001
 40
0.6250000000000001
 40
0.6250000000000001
 40
0.6875000000000001
 40
0.6875000000000001
 40
0.75
 40
0.75
 40
0.8125
 40
0.8125
 40
0.875
 40
0.875
 40
0.9375
 40
0.9375
 40
1.0
 40
1.0
 40
1.0
 40
1.0
 10
194.7880765688717
 20
82.08105709661771
 30
0.0
 10
194.7880765688717
 20
81.94867118170741
 30
0.0
 10
194.8142251200146
 20
81.81878385522872
 30
0.0
 10
194.9146907894724
 20
81.57670486064285
 30
0.0
 10
194.9889756558689
 20
81.46592350658682
 30
0.0
 10
195.1731248356037
 20
81.28181622648107
 30
0.0
 10
195.2845004581979
 20
81.20734755518507
 30
0.0
 10
195.5250489627318
 20
81.10752037905637
 30
0.0
 10
195.6568068587192
 20
81.08113245898306
 30
0.0
 10
195.9181955508831
 20
81.08098206529624
 30
0.0
 10
196.0493676214747
 20
81.10692188570627
 30
0.0
 10
196.2918053074745
 20
81.20728951813156
 30
0.0
 10
196.4018594756241
 20
81.28067842127679
 30
0.0
 10
196.588112793035
 20
81.46682788810634
 30
0.0
 10
196.6615391209281
 20
81.57686640550632
 30
0.0
 10
196.761903868557
 20
81.818749122595
 30
0.0
 10
196.7880251328532
 20
81.95002364110631
 30
0.0
 10
196.7881278503384
 20
82.21130429047884
 30
0.0
 10
196.7618842222447
 20
82.34311969399175
 30
0.0
 10
196.6622158654465
 20
82.58390761207323
 30
0.0
 10
196.587935073478
 20
82.69523981347122
 30
0.0
 10
196.4037483330444
 20
82.87977000866624
 30
0.0
 10
196.2933247589819
 20
82.95395633794
 30
0.0
 10
196.0509400437419
 20
83.05477759691017
 30
0.0
 10
195.9210158641755
 20
83.08095182621521
 30
0.0
 10
195.6567257546586
 20
83.08116173620212
 30
0.0
 10
195.5264919959966
 20
83.05507401383893
 30
0.0
 10
195.2845993248259
 20
82.95492556986034
 30
0.0
 10
195.1735833994193
 20
82.88063927469517
 30
0.0
 10
194.9894156634392
 20
82.6967471752584
 30
0.0
 10
194.9148169919371
 20
82.58541702470437
 30
0.0
 10
194.814766178392
 20
82.34492848489575
 30
0.0
 10
194.7880765688717
 20
82.21344301152803
 30
0.0
 10
194.7880765688717
 20
82.08105709661771
 30
0.0
  0
LINE
  5
13B
330
1F
100
AcDbEntity
  8
0
  6
Continuous
 62
     7
370
    25
100
AcDbLine
 10
191.3135296848
 20
92.5810570966
 30
0.0
 11
203.2380765689
 21
92.5810570966
 31
0.0
  0
LINE
  5
13C
330
1F
100
AcDbEntity
  8
0
  6
Continuous
 62
     7
370
    25
100
AcDbLine
 10
192.0737404406
 20
93.5758006746
 30
0.0
 11
191.3135296848
 21
92.5810570966
 31
0.0
  0
LINE
  5
13D
330
1F
100
AcDbEntity
  8
0
  6
Continuous
 62
     7
370
    25
100
AcDbLine
 10
190.5642743945
 20
100.5810570966
 30
0.0
 11
188.8361357305
 21
93.5758006746
 31
0.0
  0
LINE
  5
13E
330
1F
100
AcDbEntity
  8
0
  6
Continuous
 62
     7
370
    25
100
AcDbLine
 10
201.0271619015
 20
100.5810570966
 30
0.0
 11
190.5642743945
 21
100.5810570966
 31
0.0
  0
LINE
  5
13F
330
1F
100
AcDbEntity
  8
0
  6
Continuous
 62
     7
370
    25
100
AcDbLine
 10
193.7880765689
 20
84.5810570966
 30
0.0
 11
202.7880765689
 21
84.5810570966
 31
0.0
  0
LINE
  5
140
330
1F
100
AcDbEntity
  8
0
  6
Continuous
 62
     7
370
    25
100
AcDbLine
 10
193.7880765689
 20
84.6188740204
 30
0.0
 11
193.7880765689
 21
84.5810570966
 31
0.0
  0
SPLINE
  5
141
330
1F
100
AcDbEntity
  8
0
  6
Continuous
 62
     7
370
    25
100
AcDbSpline
210
0.0
220
0.0
230
1.0
 70
     8
 71
     3
 72
     9
 73
     5
 74
     0
 42
0.00000001
 43
0.00000001
 40
0.0
 40
0.0
 40
0.0
 40
0.0
 40
0.4875141023677128
 40
0.9999999999999999
 40
0.9999999999999999
 40
0.9999999999999999
 40
0.9999999999999999
 10
193.6321313184445
 20
84.58105709661778
 30
0.0
 10
193.6584378923671
 20
84.58278444258949
 30
0.0
 10
193.7123985343154
 20
84.58632761388097
 30
0.0
 10
193.7624340650101
 20
84.60784609983027
 30
0.0
 10
193.7880765688717
 20
84.6188740204177
 30
0.0
  0
SPLINE
  5
142
330
1F
100
AcDbEntity
  8
0
  6
Continuous
 62
     7
370
    25
100
AcDbSpline
210
0.0
220
0.0
230
1.0
 70
     8
 71
     3
 72
    17
 73
    13
 74
     0
 42
0.00000001
 43
0.00000001
 40
0.0
 40
0.0
 40
0.0
 40
0.0
 40
0.3241697628029876
 40
0.542275846362072
 40
0.689509052693928
 40
0.7894036290694506
 40
0.8577090008137827
 40
0.9049823971474139
 40
0.9551712229700868
 40
0.9753097783197817
 40
0.9919572060138849
 40
1.0
 40
1.0
 40
1.0
 40
1.0
 10
191.3135296847896
 20
92.58105709661535
 30
0.0
 10
191.4562450448067
 20
91.66844359400967
 30
0.0
 10
191.6949813537487
 20
90.14181058774834
 30
0.0
 10
192.0745685482004
 20
88.21503768546737
 30
0.0
 10
192.3837027565474
 20
86.9274022145346
 30
0.0
 10
192.6398162847476
 20
86.06825024781286
 30
0.0
 10
192.8541272876426
 20
85.49478235943546
 30
0.0
 10
193.0573615086705
 20
85.07325020540549
 30
0.0
 10
193.2419067732131
 20
84.79275766261004
 30
0.0
 10
193.4279778595812
 20
84.6372089940294
 30
0.0
 10
193.5431884588371
 20
84.58659839483188
 30
0.0
 10
193.61027726431
 20
84.58241864302727
 30
0.0
 10
193.6321313184445
 20
84.58105709661778
 30
0.0
  0
SPLINE
  5
143
330
1F
100
AcDbEntity
  8
0
  6
Continuous
 62
     7
370
    25
100
AcDbSpline
210
0.0
220
0.0
230
1.0
 70
     8
 71
     3
 72
    14
 73
    10
 74
     0
 42
0.00000001
 43
0.00000001
 40
0.0
 40
0.0
 40
0.0
 40
0.0
 40
0.1576095309202821
 40
0.3152382602707093
 40
0.4726926441579495
 40
0.6301650083177253
 40
0.7907313191165902
 40
0.9513050385928076
 40
1.0
 40
1.0
 40
1.0
 40
1.0
 10
189.2880765688717
 20
84.58105709661773
 30
0.0
 10
189.2215055540897
 20
84.79455888509513
 30
0.0
 10
189.0883554155048
 20
85.22158846872063
 30
0.0
 10
188.7597884537541
 20
85.80683554757695
 30
0.0
 10
188.3463988130221
 20
86.32899008839937
 30
0.0
 10
187.8507238940774
 20
86.77796821581923
 30
0.0
 10
187.2844341887929
 20
87.13724994762563
 30
0.0
 10
186.8081835323999
 20
87.3418161267268
 30
0.0
 10
186.5279889642071
 20
87.4226106750781
 30
0.0
 10
186.4627901794341
 20
87.44141084812487
 30
0.0
  0
LINE
  5
144
330
1F
100
AcDbEntity
  8
0
  6
Continuous
 62
     7
370
    25
100
AcDbLine
 10
186.4627901794
 20
87.4414108481
 30
0.0
 11
180.6830333296
 21
89.0100322886
 31
0.0
  0
SPLINE
  5
145
330
1F
100
AcDbEntity
  8
0
  6
Continuous
 62
     7
370
    25
100
AcDbSpline
210
0.0
220
0.0
230
1.0
 70
     8
 71
     3
 72
     9
 73
     5
 74
     0
 42
0.00000001
 43
0.00000001
 40
0.0
 40
0.0
 40
0.0
 40
0.0
 40
0.4976931370791439
 40
0.9999999999999999
 40
0.9999999999999999
 40
0.9999999999999999
 40
0.9999999999999999
 10
173.6126397073351
 20
90.33323278959327
 30
0.0
 10
174.8012766711163
 20
90.18378590859282
 30
0.0
 10
177.1895695271462
 20
89.88350674083595
 30
0.0
 10
179.5149691433341
 20
89.3020846134485
 30
0.0
 10
180.6830333295788
 20
89.01003228860775
 30
0.0
  0
LINE
  5
146
330
1F
100
AcDbEntity
  8
0
  6
Continuous
 62
     7
370
    25
100
AcDbLine
 10
173.6126397073
 20
90.3332327896
 30
0.0
 11
173.6126397073
 21
93.5758006746
 31
0.0
  0
LINE
  5
147
330
1F
100
AcDbEntity
  8
0
  6
Continuous
 62
     7
370
    25
100
AcDbLine
 10
173.6126397073
 20
93.5758006746
 30
0.0
 11
192.0737404406
 21
93.5758006746
 31
0.0
  0
LINE
  5
148
330
1F
100
AcDbEntity
  8
0
  6
Continuous
 62
     7
370
    25
100
AcDbLine
 10
193.6321313184
 20
84.5810570966
 30
0.0
 11
189.2880765689
 21
84.5810570966
 31
0.0
  0
LINE
  5
149
330
1F
100
AcDbEntity
  8
0
  6
Continuous
 62
     7
370
    25
100
AcDbLine
 10
193.7880765689
 20
84.6188740204
 30
0.0
 11
193.781277211
 21
84.5810570966
 31
0.0
  0
LINE
  5
14A
330
1F
100
AcDbEntity
  8
0
  6
Continuous
 62
     7
370
    25
100
AcDbLine
 10
193.7880765689
 20
84.5810570966
 30
0.0
 11
193.781277211
 21
84.5810570966
 31
0.0
  0
LINE
  5
14B
330
1F
100
AcDbEntity
  8
0
  6
Continuous
 62
     7
370
    25
100
AcDbLine
 10
193.781277211
 20
84.5810570966
 30
0.0
 11
193.6321313184
 21
84.5810570966
 31
0.0
  0
LINE
  5
14C
330
1F
100
AcDbEntity
  8
0
  6
Continuous
 62
     7
370
    25
100
AcDbLine
 10
155.7880765689
 20
102.5810570966
 30
0.0
 11
173.6126397073
 21
102.5810570966
 31
0.0
  0
LINE
  5
14D
330
1F
100
AcDbEntity
  8
0
  6
Continuous
 62
     7
370
    25
100
AcDbLine
 10
173.6126397073
 20
102.5810570966
 30
0.0
 11
173.6126397073
 21
93.5758006746
 31
0.0
  0
LINE
  5
14E
330
1F
100
AcDbEntity
  8
0
  6
Continuous
 62
     7
370
    25
100
AcDbLine
 10
168.8964087111
 20
90.5810570966
 30
0.0
 11
160.7880765689
 21
90.5810570966
 31
0.0
  0
ARC
  5
14F
330
1F
100
AcDbEntity
  8
0
  6
Continuous
 62
     7
370
    25
100
AcDbCircle
 10
160.7880765689
 20
95.5810570966
 30
0.0
 40
5.0
100
AcDbArc
 50
180.0
 51
270.0
  0
LINE
  5
150
330
1F
100
AcDbEntity
  8
0
  6
Continuous
 62
     7
370
    25
100
AcDbLine
 10
155.7880765689
 20
95.5810570966
 30
0.0
 11
155.7880765689
 21
102.5810570966
 31
0.0
  0
ARC
  5
151
330
1F
100
AcDbEntity
  8
0
  6
Continuous
 62
     7
370
    25
100
AcDbCircle
 10
168.8964087111
 20
45.5809278424
 30
0.0
 40
45.00012925418374
100
AcDbArc
 50
83.9840777705
 51
90.0
  0
LINE
  5
152
330
1F
100
AcDbEntity
  8
0
  6
Continuous
 62
     7
370
    25
100
AcDbLine
 10
175.7880765689
 20
102.5810570966
 30
0.0
 11
175.7880765689
 21
100.60001262
 31
0.0
  0
ARC
  5
153
330
1F
100
AcDbEntity
  8
0
  6
Continuous
 62
     7
370
    25
100
AcDbCircle
 10
181.7880765689
 20
100.60001262
 30
0.0
 40
6.000000000000003
100
AcDbArc
 50
180.0
 51
275.5801667845
  0
ARC
  5
154
330
1F
100
AcDbEntity
  8
0
  6
Continuous
 62
     7
370
    25
100
AcDbCircle
 10
181.3991230046
 20
104.5810570966
 30
0.0
 40
10.00000000000845
100
AcDbArc
 50
275.5801667845
 51
336.4218215217
  0
LINE
  5
155
330
1F
100
AcDbEntity
  8
0
  6
Continuous
 62
     7
370
    25
100
AcDbLine
 10
173.6126397073
 20
102.5810570966
 30
0.0
 11
175.7880765689
 21
102.5810570966
 31
0.0
  0
LINE
  5
156
330
1F
100
AcDbEntity
  8
0
  6
Continuous
 62
     7
370
    25
100
AcDbLine
 10
189.2880765689
 20
84.5810570966
 30
0.0
 11
188.7880765689
 21
84.5810570966
 31
0.0
  0
LINE
  5
157
330
1F
100
AcDbEntity
  8
0
  6
Continuous
 62
     7
370
    25
100
AcDbLine
 10
190.5489912362
 20
100.5810570966
 30
0.0
 11
190.5642743945
 21
100.5810570966
 31
0.0
  0
LINE
  5
158
330
1F
100
AcDbEntity
  8
0
  6
Continuous
 62
     7
370
    25
100
AcDbLine
 10
201.0271619015
 20
100.5810570966
 30
0.0
 11
201.0271619015
 21
101.1810570966
 31
0.0
  0
LINE
  5
159
330
1F
100
AcDbEntity
  8
0
  6
Continuous
 62
     7
370
    25
100
AcDbLine
 10
190.5489912362
 20
101.1810570966
 30
0.0
 11
190.5489912362
 21
100.5810570966
 31
0.0
  0
LINE
  5
15A
330
1F
100
AcDbEntity
  8
0
  6
Continuous
 62
     7
370
    25
100
AcDbLine
 10
201.0271619015
 20
101.1810570966
 30
0.0
 11
190.5489912362
 21
101.1810570966
 31
0.0
  0
LINE
  5
15B
330
1F
100
AcDbEntity
  8
0
  6
Continuous
 62
     7
370
    25
100
AcDbLine
 10
190.5489912362
 20
100.5810570966
 30
0.0
 11
201.0271619015
 21
100.5810570966
 31
0.0
  0
SPLINE
  5
15C
330
1F
100
AcDbEntity
  8
0
  6
Continuous
 62
     7
370
    25
100
AcDbSpline
210
0.0
220
0.0
230
1.0
 70
     8
 71
     3
 72
    15
 73
    11
 74
     0
 42
0.00000001
 43
0.00000001
 40
0.0
 40
0.0
 40
0.0
 40
0.0
 40
0.0090459071881971
 40
0.1032433785236816
 40
0.1542564497735189
 40
0.31331690267151
 40
0.5243720399414428
 40
0.6678060008509183
 40
0.9918332554187028
 40
1.0
 40
1.0
 40
1.0
 40
1.0
 10
201.0271619015298
 20
101.1810570966177
 30
0.0
 10
201.0271562095632
 20
101.1827381952021
 30
0.0
 10
201.0270912456124
 20
101.2019250267577
 30
0.0
 10
201.0250955591765
 20
101.2306193062776
 30
0.0
 10
201.01727856296
 20
101.2812953462496
 30
0.0
 10
201.0001087392051
 20
101.3391716458265
 30
0.0
 10
200.9735248426375
 20
101.3840371605612
 30
0.0
 10
200.9356955441489
 20
101.4213995438157
 30
0.0
 10
200.9074147641387
 20
101.4309455560852
 30
0.0
 10
200.8875836166074
 20
101.4310544202719
 30
0.0
 10
200.8870960824645
 20
101.4310570966177
 30
0.0
  0
SPLINE
  5
15D
330
1F
100
AcDbEntity
  8
0
  6
Continuous
 62
     7
370
    25
100
AcDbSpline
210
0.0
220
0.0
230
1.0
 70
     8
 71
     3
 72
    15
 73
    11
 74
     0
 42
0.00000001
 43
0.00000001
 40
0.0
 40
0.0
 40
0.0
 40
0.0
 40
0.0081667445812973
 40
0.3321939991490803
 40
0.4756279600585559
 40
0.6866830973284893
 40
0.8457435502264752
 40
0.8967566214763125
 40
0.9909540928118029
 40
1.0
 40
1.0
 40
1.0
 40
1.0
 10
190.6890570552789
 20
101.4310570966177
 30
0.0
 10
190.6885695211361
 20
101.4310544202719
 30
0.0
 10
190.6687383736048
 20
101.4309455560852
 30
0.0
 10
190.6404575935946
 20
101.4213995438157
 30
0.0
 10
190.6026282951059
 20
101.3840371605612
 30
0.0
 10
190.5760443985384
 20
101.3391716458265
 30
0.0
 10
190.5588745747834
 20
101.2812953462496
 30
0.0
 10
190.551057578567
 20
101.2306193062776
 30
0.0
 10
190.5490618921311
 20
101.2019250267577
 30
0.0
 10
190.5489969281803
 20
101.1827381952021
 30
0.0
 10
190.5489912362136
 20
101.1810570966177
 30
0.0
  0
LINE
  5
15E
330
1F
100
AcDbEntity
  8
0
  6
Continuous
 62
     7
370
    25
100
AcDbLine
 10
190.6890570553
 20
101.4310570966
 30
0.0
 11
200.8870960825
 21
101.4310570966
 31
0.0
  0
SPLINE
  5
15F
330
1F
100
AcDbEntity
  8
0
  6
Continuous
 62
     7
370
    25
100
AcDbSpline
210
0.0
220
0.0
230
1.0
 70
     8
 71
     3
 72
    15
 73
    11
 74
     0
 42
0.00000001
 43
0.00000001
 40
0.0
 40
0.0
 40
0.0
 40
0.0
 40
0.0089557228015919
 40
0.0999003359608209
 40
0.153163246058175
 40
0.3125636920784903
 40
0.524966693569506
 40
0.6689893599351777
 40
0.991915253381045
 40
1.0
 40
1.0
 40
1.0
 40
1.0
 10
190.3108509938201
 20
101.1810570966177
 30
0.0
 10
190.3108667493987
 20
101.1827382221906
 30
0.0
 10
190.3110425015552
 20
101.2014910368151
 30
0.0
 10
190.3164715175747
 20
101.2302532659226
 30
0.0
 10
190.3380070012821
 20
101.2811403393909
 30
0.0
 10
190.3857124295469
 20
101.3392759895235
 30
0.0
 10
190.4581033745388
 20
101.3839838627069
 30
0.0
 10
190.5600224865565
 20
101.4212656861687
 30
0.0
 10
190.6353775780115
 20
101.4309448410063
 30
0.0
 10
190.6877772237348
 20
101.431054420208
 30
0.0
 10
190.6890570552789
 20
101.4310570966177
 30
0.0
  0
LINE
  5
160
330
1F
100
AcDbEntity
  8
0
  6
Continuous
 62
     7
370
    25
100
AcDbLine
 10
190.3108509938
 20
101.1810570966
 30
0.0
 11
190.5489912362
 21
101.1810570966
 31
0.0
  0
SPLINE
  5
161
330
1F
100
AcDbEntity
  8
0
  6
Continuous
 62
     7
370
    25
100
AcDbSpline
210
0.0
220
0.0
230
1.0
 70
     8
 71
     3
 72
    15
 73
    11
 74
     0
 42
0.00000001
 43
0.00000001
 40
0.0
 40
0.0
 40
0.0
 40
0.0
 40
0.0080847466189582
 40
0.3310106400648243
 40
0.4750333064304948
 40
0.6874363079215142
 40
0.8468367539418303
 40
0.9000996640391847
 40
0.9910442771984082
 40
1.0
 40
1.0
 40
1.0
 40
1.0
 10
200.8870960824645
 20
101.4310570966177
 30
0.0
 10
200.8883759140086
 20
101.431054420208
 30
0.0
 10
200.9407755597319
 20
101.4309448410063
 30
0.0
 10
201.016130651187
 20
101.4212656861687
 30
0.0
 10
201.1180497632046
 20
101.3839838627069
 30
0.0
 10
201.1904407081965
 20
101.3392759895235
 30
0.0
 10
201.2381461364614
 20
101.2811403393909
 30
0.0
 10
201.2596816201687
 20
101.2302532659226
 30
0.0
 10
201.2651106361882
 20
101.2014910368151
 30
0.0
 10
201.2652863883448
 20
101.1827382221906
 30
0.0
 10
201.2653021439234
 20
101.1810570966177
 30
0.0
  0
LINE
  5
162
330
1F
100
AcDbEntity
  8
0
  6
Continuous
 62
     7
370
    25
100
AcDbLine
 10
201.0271619015
 20
101.1810570966
 30
0.0
 11
201.2653021439
 21
101.1810570966
 31
0.0
  0
LINE
  5
163
330
1F
100
AcDbEntity
  8
0
  6
Continuous
 62
     7
370
    25
100
AcDbLine
 10
190.3108509938
 20
100.5810570966
 30
0.0
 11
190.3108509938
 21
101.1810570966
 31
0.0
  0
LINE
  5
164
330
1F
100
AcDbEntity
  8
0
  6
Continuous
 62
     7
370
    25
100
AcDbLine
 10
190.5489912362
 20
100.5810570966
 30
0.0
 11
190.3108509938
 21
100.5810570966
 31
0.0
  0
LINE
  5
165
330
1F
100
AcDbEntity
  8
0
  6
Continuous
 62
     7
370
    25
100
AcDbLine
 10
201.2653021439
 20
101.1810570966
 30
0.0
 11
201.2653021439
 21
100.5810570966
 31
0.0
  0
LINE
  5
166
330
1F
100
AcDbEntity
  8
0
  6
Continuous
 62
     7
370
    25
100
AcDbLine
 10
201.2653021439
 20
100.5810570966
 30
0.0
 11
201.0271619015
 21
100.5810570966
 31
0.0
  0
LINE
  5
167
330
1F
100
AcDbEntity
  8
0
  6
Continuous
 62
     7
370
    25
100
AcDbLine
 10
189.7880765689
 20
100.5810570966
 30
0.0
 11
189.7880765689
 21
101.1810570966
 31
0.0
  0
LINE
  5
168
330
1F
100
AcDbEntity
  8
0
  6
Continuous
 62
     7
370
    25
100
AcDbLine
 10
189.7880765689
 20
101.1810570966
 30
0.0
 11
190.0380765689
 21
101.1810570966
 31
0.0
  0
LINE
  5
169
330
1F
100
AcDbEntity
  8
0
  6
Continuous
 62
     7
370
    25
100
AcDbLine
 10
190.0380765689
 20
101.1810570966
 30
0.0
 11
190.0380765689
 21
100.5810570966
 31
0.0
  0
LINE
  5
16A
330
1F
100
AcDbEntity
  8
0
  6
Continuous
 62
     7
370
    25
100
AcDbLine
 10
190.0380765689
 20
100.5810570966
 30
0.0
 11
189.7880765689
 21
100.5810570966
 31
0.0
  0
LINE
  5
16B
330
1F
100
AcDbEntity
  8
0
  6
Continuous
 62
     7
370
    25
100
AcDbLine
 10
190.3108509938
 20
101.1810570966
 30
0.0
 11
190.0380765689
 21
101.1810570966
 31
0.0
  0
LINE
  5
16C
330
1F
100
AcDbEntity
  8
0
  6
Continuous
 62
     7
370
    25
100
AcDbLine
 10
190.0380765689
 20
101.4310570966
 30
0.0
 11
190.0380765689
 21
101.1810570966
 31
0.0
  0
LINE
  5
16D
330
1F
100
AcDbEntity
  8
0
  6
Continuous
 62
     7
370
    25
100
AcDbLine
 10
190.0380765689
 20
101.4310570966
 30
0.0
 11
190.6890570553
 21
101.4310570966
 31
0.0
  0
ARC
  5
16E
330
1F
100
AcDbEntity
  8
0
  6
Continuous
 62
     7
370
    25
100
AcDbCircle
 10
190.0380765689
 20
101.1810570966
 30
0.0
 40
0.25
100
AcDbArc
 50
90.0
 51
180.0
  0
LINE
  5
16F
330
1F
100
AcDbEntity
  8
0
  6
Continuous
 62
     7
370
    25
100
AcDbLine
 10
190.0380765689
 20
100.5810570966
 30
0.0
 11
190.3108509938
 21
100.5810570966
 31
0.0
  0
LINE
  5
170
330
1F
100
AcDbEntity
  8
0
  6
Continuous
 62
     7
370
    25
100
AcDbLine
 10
201.5380765689
 20
100.5810570966
 30
0.0
 11
201.5380765689
 21
101.1810570966
 31
0.0
  0
LINE
  5
171
330
1F
100
AcDbEntity
  8
0
  6
Continuous
 62
     7
370
    25
100
AcDbLine
 10
201.5380765689
 20
101.1810570966
 30
0.0
 11
201.7880765689
 21
101.1810570966
 31
0.0
  0
LINE
  5
172
330
1F
100
AcDbEntity
  8
0
  6
Continuous
 62
     7
370
    25
100
AcDbLine
 10
201.7880765689
 20
101.1810570966
 30
0.0
 11
201.7880765689
 21
100.5810570966
 31
0.0
  0
LINE
  5
173
330
1F
100
AcDbEntity
  8
0
  6
Continuous
 62
     7
370
    25
100
AcDbLine
 10
201.7880765689
 20
100.5810570966
 30
0.0
 11
201.5380765689
 21
100.5810570966
 31
0.0
  0
LINE
  5
174
330
1F
100
AcDbEntity
  8
0
  6
Continuous
 62
     7
370
    25
100
AcDbLine
 10
201.5380765689
 20
101.1810570966
 30
0.0
 11
201.2653021439
 21
101.1810570966
 31
0.0
  0
LINE
  5
175
330
1F
100
AcDbEntity
  8
0
  6
Continuous
 62
     7
370
    25
100
AcDbLine
 10
201.2653021439
 20
100.5810570966
 30
0.0
 11
201.5380765689
 21
100.5810570966
 31
0.0
  0
LINE
  5
176
330
1F
100
AcDbEntity
  8
0
  6
Continuous
 62
     7
370
    25
100
AcDbLine
 10
201.5380765689
 20
101.1810570966
 30
0.0
 11
201.5380765689
 21
101.4310570966
 31
0.0
  0
LINE
  5
177
330
1F
100
AcDbEntity
  8
0
  6
Continuous
 62
     7
370
    25
100
AcDbLine
 10
200.8870960825
 20
101.4310570966
 30
0.0
 11
201.5380765689
 21
101.4310570966
 31
0.0
  0
ARC
  5
178
330
1F
100
AcDbEntity
  8
0
  6
Continuous
 62
     7
370
    25
100
AcDbCircle
 10
201.5380765689
 20
101.1810570966
 30
0.0
 40
0.25
100
AcDbArc
 50
0.0
 51
90.0
  0
LINE
  5
179
330
1F
100
AcDbEntity
  8
0
  6
Continuous
 62
     7
370
    25
100
AcDbLine
 10
190.7880765689
 20
101.4410570966
 30
0.0
 11
200.7880765689
 21
101.4410570966
 31
0.0
  0
LINE
  5
17A
330
1F
100
AcDbEntity
  8
0
  6
Continuous
 62
     7
370
    25
100
AcDbLine
 10
200.7880765689
 20
101.4310570966
 30
0.0
 11
200.7880765689
 21
101.4410570966
 31
0.0
  0
LINE
  5
17B
330
1F
100
AcDbEntity
  8
0
  6
Continuous
 62
     7
370
    25
100
AcDbLine
 10
190.7880765689
 20
101.4310570966
 30
0.0
 11
190.7880765689
 21
101.4410570966
 31
0.0
  0
LINE
  5
17C
330
1F
100
AcDbEntity
  8
0
  6
Continuous
 62
     7
370
    25
100
AcDbLine
 10
180.2789731033
 20
64.7310570966
 30
0.0
 11
180.2789731033
 21
83.4310570966
 31
0.0
  0
LINE
  5
17D
330
1F
100
AcDbEntity
  8
0
  6
Continuous
 62
     7
370
    25
100
AcDbLine
 10
166.8789731033
 20
74.0810570966
 30
0.0
 11
166.8789731033
 21
64.7310570966
 31
0.0
  0
LINE
  5
17E
330
1F
100
AcDbEntity
  8
0
  6
Continuous
 62
     7
370
    25
100
AcDbLine
 10
166.8789731033
 20
83.4310570966
 30
0.0
 11
166.8789731033
 21
74.0810570966
 31
0.0
  0
LINE
  5
17F
330
1F
100
AcDbEntity
  8
0
  6
Continuous
 62
     7
370
    25
100
AcDbLine
 10
202.7880765689
 20
79.2755015411
 30
0.0
 11
202.7880765689
 21
82.5810570966
 31
0.0
  0
LINE
  5
180
330
1F
100
AcDbEntity
  8
0
  6
Continuous
 62
     7
370
    25
100
AcDbLine
 10
188.7880765689
 20
68.8866126522
 30
0.0
 11
188.7880765689
 21
65.5810570966
 31
0.0
  0
LINE
  5
181
330
1F
100
AcDbEntity
  8
0
  6
Continuous
 62
     7
370
    25
100
AcDbLine
 10
188.7880765689
 20
82.5810570966
 30
0.0
 11
188.7880765689
 21
79.2755015411
 31
0.0
  0
LINE
  5
182
330
1F
100
AcDbEntity
  8
0
  6
Continuous
 62
     7
370
    25
100
AcDbLine
 10
202.7880765689
 20
65.5810570966
 30
0.0
 11
202.7880765689
 21
68.8866126522
 31
0.0
  0
SPLINE
  5
183
330
1F
100
AcDbEntity
  8
0
  6
Continuous
 62
     7
370
    25
100
AcDbSpline
210
0.0
220
0.0
230
1.0
 70
     8
 71
     3
 72
    29
 73
    25
 74
     0
 42
0.00000001
 43
0.00000001
 40
0.0
 40
0.0
 40
0.0
 40
0.0
 40
0.0401515792404008
 40
0.0815079590968809
 40
0.1230309250150663
 40
0.1655606196332731
 40
0.2131374894711959
 40
0.2617297290017827
 40
0.3187033192484791
 40
0.377204047100767
 40
0.4187680095092457
 40
0.4612853446783765
 40
0.5032057470456619
 40
0.5465118779499416
 40
0.583755144012608
 40
0.6217252421647017
 40
0.6775482801274003
 40
0.7348915676267465
 40
0.7907841922757494
 40
0.8482724945620922
 40
0.8930247851692851
 40
0.939058777351611
 40
0.9835402441844544
 40
1.0
 40
1.0
 40
1.0
 40
1.0
 10
202.1880765688717
 20
82.58105709661773
 30
0.0
 10
202.1767577864415
 20
82.57343842829364
 30
0.0
 10
202.1537805867197
 20
82.55797248354423
 30
0.0
 10
201.9691037184825
 20
82.43475299428603
 30
0.0
 10
201.6785256318542
 20
82.24472988537613
 30
0.0
 10
201.2675786343848
 20
81.98419186501054
 30
0.0
 10
200.7349749843906
 20
81.66240139813891
 30
0.0
 10
200.0464137728967
 20
81.27648481570137
 30
0.0
 10
199.2050299618842
 20
80.85798873994888
 30
0.0
 10
198.3007591839665
 20
80.49417884683857
 30
0.0
 10
197.4105992212732
 20
80.23569605659286
 30
0.0
 10
196.5804457383968
 20
80.08624365460683
 30
0.0
 10
195.7136624813655
 20
80.03866561372175
 30
0.0
 10
194.8845945908202
 20
80.10212929946482
 30
0.0
 10
194.1088072568202
 20
80.25236658001619
 30
0.0
 10
193.2917429944361
 20
80.49039909736369
 30
0.0
 10
192.4177732684839
 20
80.83732194906544
 30
0.0
 10
191.543917642521
 20
81.26752192315435
 30
0.0
 10
190.7758752936837
 20
81.69907215833705
 30
0.0
 10
190.1885985634887
 20
82.05863810560146
 30
0.0
 10
189.7631753162623
 20
82.33191934255719
 30
0.0
 10
189.5064264803879
 20
82.50159688501525
 30
0.0
 10
189.3833690609555
 20
82.58421284899924
 30
0.0
 10
189.4009950498224
 20
82.57238843235035
 30
0.0
 10
189.405755693934
 20
82.5691947483013
 30
0.0
  0
SPLINE
  5
184
330
1F
100
AcDbEntity
  8
0
  6
Continuous
 62
     7
370
    25
100
AcDbSpline
210
0.0
220
0.0
230
1.0
 70
     8
 71
     3
 72
    29
 73
    25
 74
     0
 42
0.00000001
 43
0.00000001
 40
0.0
 40
0.0
 40
0.0
 40
0.0
 40
0.0153985700271717
 40
0.0624660010180085
 40
0.1079789716801485
 40
0.1548532439937084
 40
0.2113046741535315
 40
0.2694414728960722
 40
0.3249993291445739
 40
0.3820057687437178
 40
0.4182880015045125
 40
0.4553119841479122
 40
0.4955880604709848
 40
0.537479624233569
 40
0.5778359058503916
 40
0.6193731233891187
 40
0.6760018622075351
 40
0.7342815881484265
 40
0.7823852219546723
 40
0.8314334487328447
 40
0.8736999131522579
 40
0.9169030171556619
 40
0.9578666666248389
 40
1.0
 40
1.0
 40
1.0
 40
1.0
 10
189.9028662662573
 20
83.06965933963514
 30
0.0
 10
189.8987221227055
 20
83.07285284462691
 30
0.0
 10
189.8819109464165
 20
83.0858076505417
 30
0.0
 10
189.9927970488784
 20
83.00026817557053
 30
0.0
 10
190.2304692102223
 20
82.81984464084353
 30
0.0
 10
190.6160392170686
 20
82.535135323612
 30
0.0
 10
191.158795449007
 20
82.15317756692815
 30
0.0
 10
191.8567197749313
 20
81.7016177717609
 30
0.0
 10
192.6673036741876
 20
81.24209858209456
 30
0.0
 10
193.4673079421911
 20
80.8747500547439
 30
0.0
 10
194.2317181177563
 20
80.6177535870808
 30
0.0
 10
194.9378498612581
 20
80.45925615838213
 30
0.0
 10
195.7092143011209
 20
80.38916356210723
 30
0.0
 10
196.5060527666859
 20
80.43745993143949
 30
0.0
 10
197.2820442216207
 20
80.59717533358709
 30
0.0
 10
198.0972531298569
 20
80.86868315608247
 30
0.0
 10
198.9362488820459
 20
81.25558933477525
 30
0.0
 10
199.7069073705967
 20
81.69559925612238
 30
0.0
 10
200.3464145249548
 20
82.10693114496429
 30
0.0
 10
200.8344306466676
 20
82.44550261275549
 30
0.0
 10
201.2162581712264
 20
82.72339005784352
 30
0.0
 10
201.482575783147
 20
82.92339815458968
 30
0.0
 10
201.6553528356614
 20
83.05575354666665
 30
0.0
 10
201.6770667750594
 20
83.07254379937591
 30
0.0
 10
201.6880765688717
 20
83.08105709661773
 30
0.0
  0
LINE
  5
185
330
1F
100
AcDbEntity
  8
0
  6
Continuous
 62
     7
370
    18
100
AcDbLine
 10
206.2880765689
 20
66.3739917664
 30
0.0
 11
215.0369501671
 21
66.6473940664
 31
0.0
  0
LINE
  5
186
330
1F
100
AcDbEntity
  8
0
  6
Continuous
 62
     7
370
    18
100
AcDbLine
 10
215.0369501671
 20
81.5147201269
 30
0.0
 11
206.2880765689
 21
81.7881224268
 31
0.0
  0
LINE
  5
187
330
1F
100
AcDbEntity
  8
0
  6
Continuous
 62
     7
370
    18
100
AcDbLine
 10
182.7880765689
 20
81.5310570966
 30
0.0
 11
180.5789731033
 21
81.5310570966
 31
0.0
  0
LINE
  5
188
330
1F
100
AcDbEntity
  8
0
  6
Continuous
 62
     7
370
    18
100
AcDbLine
 10
180.5789731033
 20
66.6310570966
 30
0.0
 11
182.7880765689
 21
66.6310570966
 31
0.0
  0
LINE
  5
189
330
1F
100
AcDbEntity
  8
0
  6
Continuous
 62
     7
370
    25
100
AcDbLine
 10
182.7880765689
 20
74.0810570966
 30
0.0
 11
182.7880765689
 21
73.2244553695
 31
0.0
  0
SPLINE
  5
18A
330
1F
100
AcDbEntity
  8
0
  6
Continuous
 62
     7
370
     0
100
AcDbSpline
210
0.0
220
0.0
230
1.0
 70
     8
 71
     3
 72
    22
 73
    18
 74
     0
 42
0.00000001
 43
0.00000001
 40
0.0
 40
0.0
 40
0.0
 40
0.0
 40
0.070174928382666
 40
0.1403498565810755
 40
0.2105247847794856
 40
0.2806997129778959
 40
0.3508746411763057
 40
0.4210495693747163
 40
0.4912244975731257
 40
0.5613994257715363
 40
0.631574353969946
 40
0.7017492821683563
 40
0.7719242103667662
 40
0.8420991385651765
 40
0.9122740667635865
 40
0.9824489949619966
 40
1.0
 40
1.0
 40
1.0
 40
1.0
 10
182.7880144119263
 20
73.22445536946637
 30
0.0
 10
182.7880765688718
 20
72.37693383372033
 30
0.0
 10
182.7880765688718
 20
71.54747642849716
 30
0.0
 10
182.7880765688718
 20
70.74487560863702
 30
0.0
 10
182.7880765688718
 20
69.97763914249407
 30
0.0
 10
182.7880765688718
 20
69.25389992747549
 30
0.0
 10
182.7880765688718
 20
68.58132977930568
 30
0.0
 10
182.7880765688718
 20
67.96705810887106
 30
0.0
 10
182.7880765688718
 20
67.4175963486911
 30
0.0
 10
182.7880765688718
 20
66.93876893011378
 30
0.0
 10
182.7880765688718
 20
66.5356515428943
 30
0.0
 10
182.7880765688718
 20
66.21251733162103
 30
0.0
 10
182.7880765688718
 20
65.97279159931982
 30
0.0
 10
182.7880765688718
 20
65.81901549838985
 30
0.0
 10
182.7880765688718
 20
65.75281909375596
 30
0.0
 10
182.7880765688718
 20
65.75005709661771
 30
0.0
 10
182.7880765688717
 20
65.7506360734243
 30
0.0
 10
182.7880765688718
 20
65.75005709661771
 30
0.0
  0
SPLINE
  5
18B
330
1F
100
AcDbEntity
  8
0
  6
Continuous
 62
     7
370
     0
100
AcDbSpline
210
0.0
220
0.0
230
1.0
 70
     8
 71
     3
 72
    23
 73
    19
 74
     0
 42
0.00000001
 43
0.00000001
 40
0.0
 40
0.0
 40
0.0
 40
0.0
 40
0.0164001279633934
 40
0.0819734527658344
 40
0.1475467775682756
 40
0.2131201023707166
 40
0.2786934271731575
 40
0.3442667519755985
 40
0.4098400767780399
 40
0.4754134015804809
 40
0.5409867263829217
 40
0.6065600511853628
 40
0.672133375987804
 40
0.7377067007902448
 40
0.8032800255926855
 40
0.8688533503951267
 40
0.9344266751975677
 40
1.0
 40
1.0
 40
1.0
 40
1.0
 10
182.7880144119263
 20
82.41205709661773
 30
0.0
 10
182.7880765688718
 20
82.40929509947948
 30
0.0
 10
182.7880765688718
 20
82.3430986948456
 30
0.0
 10
182.7880765688718
 20
82.18932259391559
 30
0.0
 10
182.7880765688718
 20
81.94959686161438
 30
0.0
 10
182.7880765688718
 20
81.6264626503411
 30
0.0
 10
182.7880765688718
 20
81.22334526312162
 30
0.0
 10
182.7880765688718
 20
80.74451784454428
 30
0.0
 10
182.7880765688718
 20
80.19505608436431
 30
0.0
 10
182.7880765688718
 20
79.58078441392968
 30
0.0
 10
182.7880765688718
 20
78.90821426575987
 30
0.0
 10
182.7880765688718
 20
78.18447505074127
 30
0.0
 10
182.7880765688718
 20
77.41723858459832
 30
0.0
 10
182.7880765688718
 20
76.61463776473818
 30
0.0
 10
182.7880765688718
 20
75.785180359515
 30
0.0
 10
182.7880765688718
 20
74.93765882376896
 30
0.0
 10
182.7880765688718
 20
74.08105709661771
 30
0.0
 10
182.788076568872
 20
74.36709635355342
 30
0.0
 10
182.7880765688718
 20
74.08105709661771
 30
0.0
  0
LINE
  5
18C
330
1F
100
AcDbEntity
  8
0
  6
CENTERX2
 62
     7
370
    18
100
AcDbLine
 10
217.3879435893
 20
74.0810570966
 30
0.0
 11
138.0789731033
 21
74.0810570966
 31
0.0
  0
LINE
  5
18D
330
1F
100
AcDbEntity
  8
0
  6
CENTERX2
 62
     7
370
    18
100
AcDbLine
 10
195.7880765689
 20
63.2481020166
 30
0.0
 11
195.7880765689
 21
102.7002631381
 31
0.0
  0
LINE
  5
18E
330
1F
100
AcDbEntity
  8
0
  6
Continuous
 62
     7
370
    25
100
AcDbLine
 10
247.3974046548
 20
83.0791507669
 30
0.0
 11
247.3974046548
 21
84.5810570966
 31
0.0
  0
LINE
  5
18F
330
1F
100
AcDbEntity
  8
0
  6
Continuous
 62
     7
370
    25
100
AcDbLine
 10
235.5974046548
 20
84.5810570966
 30
0.0
 11
235.5974046548
 21
82.1550895464
 31
0.0
  0
ARC
  5
190
330
1F
100
AcDbEntity
  8
0
  6
Continuous
 62
     7
370
    25
100
AcDbCircle
 10
247.1974046548
 20
82.622799527
 30
0.0
 40
0.5000000000000135
100
AcDbArc
 50
359.992141364
 51
66.3930114207
  0
LINE
  5
191
330
1F
100
AcDbEntity
  8
0
  6
Continuous
 62
     7
370
    25
100
AcDbLine
 10
248.9474046548
 20
92.5810570966
 30
0.0
 11
246.9974046548
 21
100.5810570966
 31
0.0
  0
LINE
  5
192
330
1F
100
AcDbEntity
  8
0
  6
Continuous
 62
     7
370
    25
100
AcDbLine
 10
235.9974046548
 20
100.5810570966
 30
0.0
 11
234.0474046548
 21
92.5810570966
 31
0.0
  0
LINE
  5
193
330
1F
100
AcDbEntity
  8
0
  6
Continuous
 62
     7
370
    25
100
AcDbLine
 10
234.0474046548
 20
92.5810570966
 30
0.0
 11
234.4974046548
 21
84.5810570966
 31
0.0
  0
LINE
  5
194
330
1F
100
AcDbEntity
  8
0
  6
Continuous
 62
     7
370
    25
100
AcDbLine
 10
248.4974046548
 20
84.5810570966
 30
0.0
 11
248.9474046548
 21
92.5810570966
 31
0.0
  0
ARC
  5
195
330
1F
100
AcDbEntity
  8
0
  6
Continuous
 62
     7
370
    25
100
AcDbCircle
 10
246.7474046548
 20
101.1810570966
 30
0.0
 40
0.25
100
AcDbArc
 50
0.0
 51
90.0
  0
ARC
  5
196
330
1F
100
AcDbEntity
  8
0
  6
Continuous
 62
     7
370
    25
100
AcDbCircle
 10
236.2474046548
 20
101.1810570966
 30
0.0
 40
0.25
100
AcDbArc
 50
90.0
 51
180.0
  0
LINE
  5
197
330
1F
100
AcDbEntity
  8
0
  6
Continuous
 62
     7
370
    25
100
AcDbLine
 10
235.9974046548
 20
101.1810570966
 30
0.0
 11
235.9974046548
 21
100.5810570966
 31
0.0
  0
LINE
  5
198
330
1F
100
AcDbEntity
  8
0
  6
Continuous
 62
     7
370
    25
100
AcDbLine
 10
246.9974046548
 20
100.5810570966
 30
0.0
 11
246.9974046548
 21
101.1810570966
 31
0.0
  0
CIRCLE
  5
199
330
1F
100
AcDbEntity
  8
0
  6
Continuous
 62
     7
370
    25
100
AcDbCircle
 10
241.4974046548
 20
74.0810570966
 30
0.0
 40
4.557142857142866
  0
CIRCLE
  5
19A
330
1F
100
AcDbEntity
  8
0
  6
Continuous
 62
     7
370
    25
100
AcDbCircle
 10
241.4974046548
 20
74.0810570966
 30
0.0
 40
4.100000000000007
  0
CIRCLE
  5
19B
330
1F
100
AcDbEntity
  8
0
  6
Continuous
 62
     7
370
    25
100
AcDbCircle
 10
241.4974046548
 20
74.0810570966
 30
0.0
 40
3.599999999999997
  0
CIRCLE
  5
19C
330
1F
100
AcDbEntity
  8
0
  6
Continuous
 62
     7
370
    25
100
AcDbCircle
 10
241.4974046548
 20
74.0810570966
 30
0.0
 40
3.500000000000016
  0
CIRCLE
  5
19D
330
1F
100
AcDbEntity
  8
0
  6
Continuous
 62
     7
370
    25
100
AcDbCircle
 10
241.4974046548
 20
74.0810570966
 30
0.0
 40
5.249999999999995
  0
CIRCLE
  5
19E
330
1F
100
AcDbEntity
  8
0
  6
Continuous
 62
     7
370
    25
100
AcDbCircle
 10
241.4974046548
 20
74.0810570966
 30
0.0
 40
9.050000000000011
  0
CIRCLE
  5
19F
330
1F
100
AcDbEntity
  8
0
  6
Continuous
 62
     7
370
    25
100
AcDbCircle
 10
241.4974046548
 20
74.0810570966
 30
0.0
 40
9.350000000000051
  0
CIRCLE
  5
1A0
330
1F
100
AcDbEntity
  8
0
  6
Continuous
 62
     7
370
    25
100
AcDbCircle
 10
241.4974046548
 20
74.0810570966
 30
0.0
 40
5.500000000000028
  0
CIRCLE
  5
1A1
330
1F
100
AcDbEntity
  8
0
  6
Continuous
 62
     7
370
    25
100
AcDbCircle
 10
241.4974046548
 20
74.0810570966
 30
0.0
 40
5.599999999999994
  0
SPLINE
  5
1A2
330
1F
100
AcDbEntity
  8
0
  6
Continuous
 62
     7
370
    25
100
AcDbSpline
210
0.0
220
0.0
230
1.0
 70
    24
 71
     3
 72
    14
 73
    10
 74
     0
 42
0.00000001
 43
0.00000001
 40
0.0
 40
0.0
 40
0.0
 40
0.0
 40
0.1187857262003507
 40
0.2441770919383206
 40
0.3695364010689739
 40
0.4979903680998221
 40
0.626443895566919
 40
0.8122362427248249
 40
1.0
 40
1.0
 40
1.0
 40
1.0
 10
250.9974046548195
 20
68.59622953931628
 30
0.0
 10
250.9974046548195
 20
69.02148683237616
 30
0.0
 10
250.9974046548195
 20
69.89564985234867
 30
0.0
 10
250.9974046548195
 20
71.24202531613831
 30
0.0
 10
250.9974046548195
 20
72.63894868381789
 30
0.0
 10
250.9974046548195
 20
74.05828907802409
 30
0.0
 10
250.9974046548195
 20
75.70143910509914
 30
0.0
 10
250.9974046548195
 20
77.55141276356886
 30
0.0
 10
250.9974046548195
 20
78.8920356831981
 30
0.0
 10
250.9974046548195
 20
79.56588465391918
 30
0.0
  0
SPLINE
  5
1A3
330
1F
100
AcDbEntity
  8
0
  6
Continuous
 62
     7
370
    25
100
AcDbSpline
210
0.0
220
0.0
230
1.0
 70
    24
 71
     3
 72
    14
 73
    10
 74
     0
 42
0.00000001
 43
0.00000001
 40
0.0
 40
0.0
 40
0.0
 40
0.0
 40
0.1323178218192658
 40
0.2645982322802884
 40
0.3998378333746938
 40
0.5350530300363142
 40
0.6502539940279584
 40
0.7654729281951006
 40
0.9999999999999999
 40
0.9999999999999999
 40
0.9999999999999999
 40
0.9999999999999999
 10
241.4974046548195
 20
63.11140198201484
 30
0.0
 10
241.9078433578378
 20
63.34836887768827
 30
0.0
 10
242.7286047170022
 20
63.82223566934228
 30
0.0
 10
243.9925141392907
 20
64.55195411453185
 30
0.0
 10
245.28021020504
 20
65.29540578472664
 30
0.0
 10
246.5213961274827
 20
66.01200481116335
 30
0.0
 10
247.6950739628795
 20
66.68962802537153
 30
0.0
 10
249.1782902801456
 20
67.54596336541158
 30
0.0
 10
250.2672125857382
 20
68.17465295167202
 30
0.0
 10
250.9974046548195
 20
68.59622953931628
 30
0.0
  0
SPLINE
  5
1A4
330
1F
100
AcDbEntity
  8
0
  6
Continuous
 62
     7
370
    25
100
AcDbSpline
210
0.0
220
0.0
230
1.0
 70
    24
 71
     3
 72
    14
 73
    10
 74
     0
 42
0.00000001
 43
0.00000001
 40
0.0
 40
0.0
 40
0.0
 40
0.0
 40
0.1323178218192658
 40
0.2645982322802883
 40
0.3998378333746936
 40
0.5350530300363139
 40
0.6502539940279579
 40
0.7654729281951005
 40
0.9999999999999999
 40
0.9999999999999999
 40
0.9999999999999999
 40
0.9999999999999999
 10
231.9974046548195
 20
68.59622953931628
 30
0.0
 10
232.4078433578378
 20
68.35926264364284
 30
0.0
 10
233.2286047170022
 20
67.88539585198885
 30
0.0
 10
234.4925141392907
 20
67.15567740679926
 30
0.0
 10
235.78021020504
 20
66.41222573660448
 30
0.0
 10
237.0213961274827
 20
65.69562671016776
 30
0.0
 10
238.1950739628795
 20
65.01800349595958
 30
0.0
 10
239.6782902801456
 20
64.16166815591954
 30
0.0
 10
240.7672125857381
 20
63.53297856965909
 30
0.0
 10
241.4974046548195
 20
63.11140198201484
 30
0.0
  0
SPLINE
  5
1A5
330
1F
100
AcDbEntity
  8
0
  6
Continuous
 62
     7
370
    25
100
AcDbSpline
210
0.0
220
0.0
230
1.0
 70
    24
 71
     3
 72
    14
 73
    10
 74
     0
 42
0.00000001
 43
0.00000001
 40
0.0
 40
0.0
 40
0.0
 40
0.0
 40
0.1859475788974203
 40
0.3735551319467095
 40
0.4987919046993187
 40
0.6240284507926853
 40
0.7526037297566681
 40
0.8812143399979504
 40
1.0
 40
1.0
 40
1.0
 40
1.0
 10
231.9974046548195
 20
79.56588465391917
 30
0.0
 10
231.9974046548195
 20
78.89860069249889
 30
0.0
 10
231.9974046548195
 20
77.55807585355066
 30
0.0
 10
231.9974046548195
 20
75.72001414916518
 30
0.0
 10
231.9974046548195
 20
74.09418093619519
 30
0.0
 10
231.9974046548195
 20
72.68668690823819
 30
0.0
 10
231.9974046548195
 20
71.27729121181052
 30
0.0
 10
231.9974046548195
 20
69.90717973679178
 30
0.0
 10
231.9974046548195
 20
69.0214883289365
 30
0.0
 10
231.9974046548195
 20
68.59622953931628
 30
0.0
  0
SPLINE
  5
1A6
330
1F
100
AcDbEntity
  8
0
  6
Continuous
 62
     7
370
    25
100
AcDbSpline
210
0.0
220
0.0
230
1.0
 70
    24
 71
     3
 72
    14
 73
    10
 74
     0
 42
0.00000001
 43
0.00000001
 40
0.0
 40
0.0
 40
0.0
 40
0.0
 40
0.132317821819266
 40
0.2645982322802886
 40
0.399837833374694
 40
0.5350530300363143
 40
0.6502539940279585
 40
0.7654729281951008
 40
0.9999999999999999
 40
0.9999999999999999
 40
0.9999999999999999
 40
0.9999999999999999
 10
241.4974046548195
 20
85.05071221122063
 30
0.0
 10
241.0869659518012
 20
84.81374531554718
 30
0.0
 10
240.2662045926369
 20
84.33987852389319
 30
0.0
 10
239.0022951703483
 20
83.6101600787036
 30
0.0
 10
237.714599104599
 20
82.86670840850881
 30
0.0
 10
236.4734131821563
 20
82.1501093820721
 30
0.0
 10
235.2997353467595
 20
81.47248616786392
 30
0.0
 10
233.8165190294934
 20
80.61615082782389
 30
0.0
 10
232.7275967239009
 20
79.98746124156344
 30
0.0
 10
231.9974046548195
 20
79.56588465391917
 30
0.0
  0
SPLINE
  5
1A7
330
1F
100
AcDbEntity
  8
0
  6
Continuous
 62
     7
370
    25
100
AcDbSpline
210
0.0
220
0.0
230
1.0
 70
    24
 71
     3
 72
    14
 73
    10
 74
     0
 42
0.00000001
 43
0.00000001
 40
0.0
 40
0.0
 40
0.0
 40
0.0
 40
0.132317821819266
 40
0.2645982322802886
 40
0.399837833374694
 40
0.5350530300363144
 40
0.6502539940279585
 40
0.7654729281951008
 40
0.9999999999999999
 40
0.9999999999999999
 40
0.9999999999999999
 40
0.9999999999999999
 10
250.9974046548195
 20
79.56588465391918
 30
0.0
 10
250.5869659518012
 20
79.80285154959263
 30
0.0
 10
249.7662045926369
 20
80.27671834124662
 30
0.0
 10
248.5022951703483
 20
81.00643678643621
 30
0.0
 10
247.214599104599
 20
81.74988845663098
 30
0.0
 10
245.9734131821563
 20
82.4664874830677
 30
0.0
 10
244.7997353467595
 20
83.14411069727589
 30
0.0
 10
243.3165190294934
 20
84.00044603731592
 30
0.0
 10
242.2275967239009
 20
84.62913562357637
 30
0.0
 10
241.4974046548195
 20
85.05071221122063
 30
0.0
  0
CIRCLE
  5
1A8
330
1F
100
AcDbEntity
  8
0
  6
Continuous
 62
     7
370
    25
100
AcDbCircle
 10
241.4974046548
 20
74.0810570966
 30
0.0
 40
2.89999999999999
  0
ARC
  5
1A9
330
1F
100
AcDbEntity
  8
0
  6
Continuous
 62
     7
370
    25
100
AcDbCircle
 10
241.4974046548
 20
74.0810570966
 30
0.0
 40
9.75
100
AcDbArc
 50
0.0
 51
12.5871095081
  0
ARC
  5
1AA
330
1F
100
AcDbEntity
  8
0
  6
Continuous
 62
     7
370
    25
100
AcDbCircle
 10
241.4974046548
 20
74.0810570966
 30
0.0
 40
9.75000000000003
100
AcDbArc
 50
47.542817475
 51
72.0486718195
  0
ARC
  5
1AB
330
1F
100
AcDbEntity
  8
0
  6
Continuous
 62
     7
370
    25
100
AcDbCircle
 10
241.4974046548
 20
74.0810570966
 30
0.0
 40
9.750000000000009
100
AcDbArc
 50
108.249897738
 51
131.7186653775
  0
ARC
  5
1AC
330
1F
100
AcDbEntity
  8
0
  6
Continuous
 62
     7
370
    25
100
AcDbCircle
 10
241.4974046548
 20
74.0810570966
 30
0.0
 40
9.749999999999984
100
AcDbArc
 50
168.2881687449
 51
191.7392632479
  0
ARC
  5
1AD
330
1F
100
AcDbEntity
  8
0
  6
Continuous
 62
     7
370
    25
100
AcDbCircle
 10
241.4974046548
 20
74.0810570966
 30
0.0
 40
9.74999999999999
100
AcDbArc
 50
227.9682566339
 51
252.4114317514
  0
ARC
  5
1AE
330
1F
100
AcDbEntity
  8
0
  6
Continuous
 62
     7
370
    25
100
AcDbCircle
 10
241.4974046548
 20
74.0810570966
 30
0.0
 40
9.749999999999998
100
AcDbArc
 50
287.4360548055
 51
312.6104601236
  0
ARC
  5
1AF
330
1F
100
AcDbEntity
  8
0
  6
Continuous
 62
     7
370
    25
100
AcDbCircle
 10
241.4974046548
 20
74.0810570966
 30
0.0
 40
9.750000000000014
100
AcDbArc
 50
347.4951260257
 51
0.0
  0
ARC
  5
1B0
330
1F
100
AcDbEntity
  8
0
  6
Continuous
 62
     7
370
    25
100
AcDbCircle
 10
241.4974046548
 20
74.0810570966
 30
0.0
 40
10.00000000000003
100
AcDbArc
 50
342.6911000788
 51
0.0
  0
ARC
  5
1B1
330
1F
100
AcDbEntity
  8
0
  6
Continuous
 62
     7
370
    25
100
AcDbCircle
 10
241.4974046548
 20
74.0810570966
 30
0.0
 40
10.00000000000001
100
AcDbArc
 50
282.342023652
 51
317.5053882144
  0
ARC
  5
1B2
330
1F
100
AcDbEntity
  8
0
  6
Continuous
 62
     7
370
    25
100
AcDbCircle
 10
241.4974046548
 20
74.0810570966
 30
0.0
 40
9.999999999999984
100
AcDbArc
 50
222.1105019995
 51
258.0269850454
  0
ARC
  5
1B3
330
1F
100
AcDbEntity
  8
0
  6
Continuous
 62
     7
370
    25
100
AcDbCircle
 10
241.4974046548
 20
74.0810570966
 30
0.0
 40
10.00000000000001
100
AcDbArc
 50
162.5723311985
 51
197.5150642213
  0
ARC
  5
1B4
330
1F
100
AcDbEntity
  8
0
  6
Continuous
 62
     7
370
    25
100
AcDbCircle
 10
241.4974046548
 20
74.0810570966
 30
0.0
 40
10.00000000000001
100
AcDbArc
 50
102.6714170792
 51
137.315582545
  0
ARC
  5
1B5
330
1F
100
AcDbEntity
  8
0
  6
Continuous
 62
     7
370
    25
100
AcDbCircle
 10
241.4974046548
 20
74.0810570966
 30
0.0
 40
10.00000000000003
100
AcDbArc
 50
42.1512822486
 51
77.5989482371
  0
ARC
  5
1B6
330
1F
100
AcDbEntity
  8
0
  6
Continuous
 62
     7
370
    25
100
AcDbCircle
 10
241.4974046548
 20
74.0810570966
 30
0.0
 40
10.00000000000003
100
AcDbArc
 50
0.0
 51
18.1745245631
  0
SPLINE
  5
1B7
330
1F
100
AcDbEntity
  8
0
  6
Continuous
 62
     7
370
    25
100
AcDbSpline
210
0.0
220
0.0
230
1.0
 70
     8
 71
     3
 72
    12
 73
     8
 74
     0
 42
0.00000001
 43
0.00000001
 40
0.0
 40
0.0
 40
0.0
 40
0.0
 40
0.2044300411371456
 40
0.4162300311278412
 40
0.6305582772351052
 40
0.8463529442065253
 40
1.0
 40
1.0
 40
1.0
 40
1.0
 10
247.3970893340692
 20
83.07915076694162
 30
0.0
 10
247.3954702259353
 20
83.06984724242092
 30
0.0
 10
247.3921736388718
 20
83.05090479013109
 30
0.0
 10
247.3663793057165
 20
82.88702901660689
 30
0.0
 10
247.3367240369373
 20
82.63975076681268
 30
0.0
 10
247.3154342270284
 20
82.35469337621284
 30
0.0
 10
247.3130379472537
 20
82.16143237982288
 30
0.0
 10
247.3120413588621
 20
82.08105709661773
 30
0.0
  0
SPLINE
  5
1B8
330
1F
100
AcDbEntity
  8
0
  6
Continuous
 62
     7
370
    25
100
AcDbSpline
210
0.0
220
0.0
230
1.0
 70
    24
 71
     3
 72
    14
 73
    10
 74
     0
 42
0.00000001
 43
0.00000001
 40
0.0
 40
0.0
 40
0.0
 40
0.0
 40
0.0839833201690473
 40
0.2637978783178501
 40
0.4512484498807393
 40
0.6390618942229109
 40
0.8268813579295768
 40
0.9404870496621819
 40
1.0
 40
1.0
 40
1.0
 40
1.0
 10
247.6974046548195
 20
82.6154888044259
 30
0.0
 10
247.6974046548195
 20
82.61683990021231
 30
0.0
 10
247.6974046548195
 20
82.62108379294179
 30
0.0
 10
247.6974046548195
 20
82.55795247509432
 30
0.0
 10
247.6974046548195
 20
82.4361330441491
 30
0.0
 10
247.6974046548195
 20
82.26854202869741
 30
0.0
 10
247.6974046548195
 20
82.1064232383496
 30
0.0
 10
247.6974046548195
 20
81.98443235986412
 30
0.0
 10
247.6974046548195
 20
81.93148598791876
 30
0.0
 10
247.6974046548195
 20
81.91328462747329
 30
0.0
  0
LINE
  5
1B9
330
1F
100
AcDbEntity
  8
0
  6
Continuous
 62
     7
370
    25
100
AcDbLine
 10
237.9974046548
 20
95.5810570966
 30
0.0
 11
244.9974046548
 21
95.5810570966
 31
0.0
  0
LINE
  5
1BA
330
1F
100
AcDbEntity
  8
0
  6
Continuous
 62
     7
370
    25
100
AcDbLine
 10
237.9974046548
 20
102.5810570966
 30
0.0
 11
237.9974046548
 21
95.5810570966
 31
0.0
  0
LINE
  5
1BB
330
1F
100
AcDbEntity
  8
0
  6
Continuous
 62
     7
370
    25
100
AcDbLine
 10
237.9974046548
 20
102.5810570966
 30
0.0
 11
244.9974046548
 21
102.5810570966
 31
0.0
  0
LINE
  5
1BC
330
1F
100
AcDbEntity
  8
0
  6
Continuous
 62
     7
370
    25
100
AcDbLine
 10
244.9974046548
 20
95.5810570966
 30
0.0
 11
244.9974046548
 21
102.5810570966
 31
0.0
  0
LINE
  5
1BD
330
1F
100
AcDbEntity
  8
0
  6
Continuous
 62
     7
370
    25
100
AcDbLine
 10
244.9974046548
 20
90.5810570966
 30
0.0
 11
237.9974046548
 21
90.5810570966
 31
0.0
  0
LINE
  5
1BE
330
1F
100
AcDbEntity
  8
0
  6
Continuous
 62
     7
370
    25
100
AcDbLine
 10
237.9974046548
 20
90.5810570966
 30
0.0
 11
237.9974046548
 21
95.5810570966
 31
0.0
  0
LINE
  5
1BF
330
1F
100
AcDbEntity
  8
0
  6
Continuous
 62
     7
370
    25
100
AcDbLine
 10
244.9974046548
 20
95.5810570966
 30
0.0
 11
244.9974046548
 21
90.5810570966
 31
0.0
  0
SPLINE
  5
1C0
330
1F
100
AcDbEntity
  8
0
  6
Continuous
 62
     7
370
    25
100
AcDbSpline
210
0.0
220
0.0
230
1.0
 70
     8
 71
     3
 72
     9
 73
     5
 74
     0
 42
0.00000001
 43
0.00000001
 40
0.0
 40
0.0
 40
0.0
 40
0.0
 40
0.4976931370791439
 40
0.9999999999999999
 40
0.9999999999999999
 40
0.9999999999999999
 40
0.9999999999999999
 10
244.9974046548195
 20
90.33323278959327
 30
0.0
 10
245.0140741680367
 20
90.18378590859282
 30
0.0
 10
245.0475677245583
 20
89.88350674083595
 30
0.0
 10
245.2709064081999
 20
89.3020846134485
 30
0.0
 10
245.3830909617489
 20
89.01003228860775
 30
0.0
  0
LINE
  5
1C1
330
1F
100
AcDbEntity
  8
0
  6
Continuous
 62
     7
370
    25
100
AcDbLine
 10
245.3830909617
 20
89.0100322886
 30
0.0
 11
237.6117183479
 21
89.0100322886
 31
0.0
  0
SPLINE
  5
1C2
330
1F
100
AcDbEntity
  8
0
  6
Continuous
 62
     7
370
    25
100
AcDbSpline
210
0.0
220
0.0
230
1.0
 70
     8
 71
     3
 72
     9
 73
     5
 74
     0
 42
0.00000001
 43
0.00000001
 40
0.0
 40
0.0
 40
0.0
 40
0.0
 40
0.4977232396629078
 40
1.0
 40
1.0
 40
1.0
 40
1.0
 10
237.6117183478901
 20
89.01003228860776
 30
0.0
 10
237.7230150240041
 20
89.29962468923192
 30
0.0
 10
237.9466265961487
 20
89.8814588845174
 30
0.0
 10
237.9804273311473
 20
90.18218503365551
 30
0.0
 10
237.9974046548195
 20
90.33323278959327
 30
0.0
  0
LINE
  5
1C3
330
1F
100
AcDbEntity
  8
0
  6
Continuous
 62
     7
370
    25
100
AcDbLine
 10
237.9974046548
 20
90.3332327896
 30
0.0
 11
237.9974046548
 21
90.5810570966
 31
0.0
  0
LINE
  5
1C4
330
1F
100
AcDbEntity
  8
0
  6
Continuous
 62
     7
370
    25
100
AcDbLine
 10
244.9974046548
 20
90.5810570966
 30
0.0
 11
244.9974046548
 21
90.3332327896
 31
0.0
  0
SPLINE
  5
1C5
330
1F
100
AcDbEntity
  8
0
  6
Continuous
 62
     7
370
    25
100
AcDbSpline
210
0.0
220
0.0
230
1.0
 70
     8
 71
     3
 72
    16
 73
    12
 74
     0
 42
0.00000001
 43
0.00000001
 40
0.0
 40
0.0
 40
0.0
 40
0.0
 40
0.0155634360124117
 40
0.0359329243097674
 40
0.0739120889290614
 40
0.1570057548437683
 40
0.2406581385754912
 40
0.4592958294318596
 40
0.678383918793541
 40
0.8974954344294842
 40
1.0
 40
1.0
 40
1.0
 40
1.0
 10
234.8376824325973
 20
84.58105709661781
 30
0.0
 10
234.8513760996106
 20
84.58625046839698
 30
0.0
 10
234.8829920936572
 20
84.59824094626475
 30
0.0
 10
234.9384717839673
 20
84.71656687026173
 30
0.0
 10
235.0170725944578
 20
85.02781817771066
 30
0.0
 10
235.0964127810869
 20
85.55346567907574
 30
0.0
 10
235.2016404891901
 20
86.59201184334587
 30
0.0
 10
235.3166338904093
 20
88.02708588569202
 30
0.0
 10
235.4190338908242
 20
89.86533798713145
 30
0.0
 10
235.4887827707046
 20
91.38652083595088
 30
0.0
 10
235.5282413901334
 20
92.29235287674739
 30
0.0
 10
235.5408175294464
 20
92.58105709661535
 30
0.0
  0
LINE
  5
1C6
330
1F
100
AcDbEntity
  8
0
  6
Continuous
 62
     7
370
    25
100
AcDbLine
 10
235.5408175294
 20
92.5810570966
 30
0.0
 11
235.3206568142
 21
93.5758006746
 31
0.0
  0
LINE
  5
1C7
330
1F
100
AcDbEntity
  8
0
  6
Continuous
 62
     7
370
    25
100
AcDbLine
 10
235.3206568142
 20
93.5758006746
 30
0.0
 11
237.9974046548
 21
93.5758006746
 31
0.0
  0
ELLIPSE
  5
1C8
330
1F
100
AcDbEntity
  8
0
  6
Continuous
 62
     7
370
    25
100
AcDbEllipse
 10
172.9974046548
 20
90.9289315289
 30
0.0
 11
65.0
 21
0.0
 31
0.0
210
0.0
220
0.0
230
1.0
 40
0.2713992096
 41
6.084179739699223
 42
6.174194364446292
  0
SPLINE
  5
1C9
330
1F
100
AcDbEntity
  8
0
  6
Continuous
 62
     7
370
    25
100
AcDbSpline
210
0.0
220
0.0
230
1.0
 70
     8
 71
     3
 72
    13
 73
     9
 74
     0
 42
0.00000001
 43
0.00000001
 40
0.0
 40
0.0
 40
0.0
 40
0.0
 40
0.161029400638956
 40
0.3266880383557517
 40
0.4877296220820634
 40
0.6535536198224136
 40
0.8237602734841888
 40
1.0
 40
1.0
 40
1.0
 40
1.0
 10
236.714542324715
 20
87.44141084812489
 30
0.0
 10
236.6707385572826
 20
87.37201395354764
 30
0.0
 10
236.5818717615403
 20
87.2312251580391
 30
0.0
 10
236.4528517428683
 20
86.88510034033143
 30
0.0
 10
236.331841647101
 20
86.4458936972794
 30
0.0
 10
236.2251606639763
 20
85.9122918603398
 30
0.0
 10
236.1344933766206
 20
85.28846555364011
 30
0.0
 10
236.0976745677238
 20
84.81958165543813
 30
0.0
 10
236.0789445789524
 20
84.58105709661773
 30
0.0
  0
LINE
  5
1CA
330
1F
100
AcDbEntity
  8
0
  6
Continuous
 62
     7
370
    25
100
AcDbLine
 10
236.078944579
 20
84.5810570966
 30
0.0
 11
234.8376824326
 21
84.5810570966
 31
0.0
  0
SPLINE
  5
1CB
330
1F
100
AcDbEntity
  8
0
  6
Continuous
 62
     7
370
    25
100
AcDbSpline
210
0.0
220
0.0
230
1.0
 70
     8
 71
     3
 72
    17
 73
    13
 74
     0
 42
0.00000001
 43
0.00000001
 40
0.0
 40
0.0
 40
0.0
 40
0.0
 40
0.3241697628029876
 40
0.542275846362072
 40
0.689509052693928
 40
0.7894036290694506
 40
0.8577090008137827
 40
0.9049823971474139
 40
0.9551712229700868
 40
0.9753097783197817
 40
0.9919572060138849
 40
1.0
 40
1.0
 40
1.0
 40
1.0
 10
247.4539917801926
 20
92.58105709661535
 30
0.0
 10
247.4946422189194
 20
91.66844359400967
 30
0.0
 10
247.562642858075
 20
90.14181058774834
 30
0.0
 10
247.6740757573914
 20
88.21503768546737
 30
0.0
 10
247.7665804174499
 20
86.9274022145346
 30
0.0
 10
247.8444818737673
 20
86.06825024781286
 30
0.0
 10
247.9105343731896
 20
85.49478235943546
 30
0.0
 10
247.9738909805521
 20
85.07325020540549
 30
0.0
 10
248.032017448246
 20
84.79275766261004
 30
0.0
 10
248.0913592765687
 20
84.6372089940294
 30
0.0
 10
248.1283653451915
 20
84.58659839483188
 30
0.0
 10
248.1500599120619
 20
84.58241864302727
 30
0.0
 10
248.1571268770417
 20
84.58105709661778
 30
0.0
  0
LINE
  5
1CC
330
1F
100
AcDbEntity
  8
0
  6
Continuous
 62
     7
370
    25
100
AcDbLine
 10
248.157126877
 20
84.5810570966
 30
0.0
 11
246.9158647307
 21
84.5810570966
 31
0.0
  0
SPLINE
  5
1CD
330
1F
100
AcDbEntity
  8
0
  6
Continuous
 62
     7
370
    25
100
AcDbSpline
210
0.0
220
0.0
230
1.0
 70
     8
 71
     3
 72
    14
 73
    10
 74
     0
 42
0.00000001
 43
0.00000001
 40
0.0
 40
0.0
 40
0.0
 40
0.0
 40
0.1576095309202821
 40
0.3152382602707093
 40
0.4726926441579495
 40
0.6301650083177253
 40
0.7907313191165902
 40
0.9513050385928076
 40
1.0
 40
1.0
 40
1.0
 40
1.0
 10
246.9158647306866
 20
84.58105709661773
 30
0.0
 10
246.8993593938442
 20
84.79455888509513
 30
0.0
 10
246.8663467096428
 20
85.22158846872063
 30
0.0
 10
246.7865430197309
 20
85.80683554757695
 30
0.0
 10
246.6887556122446
 20
86.32899008839937
 30
0.0
 10
246.5751657725626
 20
86.77796821581923
 30
0.0
 10
246.4506236735309
 20
87.13724994762563
 30
0.0
 10
246.3502663327544
 20
87.3418161267268
 30
0.0
 10
246.2934805351394
 20
87.4226106750781
 30
0.0
 10
246.280266984924
 20
87.44141084812487
 30
0.0
  0
ELLIPSE
  5
1CE
330
1F
100
AcDbEntity
  8
0
  6
Continuous
 62
     7
370
    25
100
AcDbEllipse
 10
309.9974046548
 20
90.9289315289
 30
0.0
 11
65.00000000000006
 21
0.0
 31
0.0
210
0.0
220
0.0
230
1.0
 40
0.2713992096
 41
3.25058359632319
 42
3.340598221070255
  0
LINE
  5
1CF
330
1F
100
AcDbEntity
  8
0
  6
Continuous
 62
     7
370
    25
100
AcDbLine
 10
247.6741524955
 20
93.5758006746
 30
0.0
 11
247.4539917802
 21
92.5810570966
 31
0.0
  0
LINE
  5
1D0
330
1F
100
AcDbEntity
  8
0
  6
Continuous
 62
     7
370
    25
100
AcDbLine
 10
244.9974046548
 20
93.5758006746
 30
0.0
 11
247.6741524955
 21
93.5758006746
 31
0.0
  0
LINE
  5
1D1
330
1F
100
AcDbEntity
  8
0
  6
Continuous
 62
     7
370
    25
100
AcDbLine
 10
236.7145423247
 20
87.4414108481
 30
0.0
 11
246.2802669849
 21
87.4414108481
 31
0.0
  0
SPLINE
  5
1D2
330
1F
100
AcDbEntity
  8
0
  6
Continuous
 62
     7
370
    25
100
AcDbSpline
210
0.0
220
0.0
230
1.0
 70
     8
 71
     3
 72
    16
 73
    12
 74
     0
 42
0.00000001
 43
0.00000001
 40
0.0
 40
0.0
 40
0.0
 40
0.0
 40
0.1082397394540287
 40
0.2409347985297594
 40
0.3278143823752723
 40
0.4147786007912547
 40
0.5911316736061376
 40
0.6905102391473411
 40
0.7897210831517909
 40
0.9112972329116561
 40
0.9999999999999999
 40
0.9999999999999999
 40
0.9999999999999999
 40
0.9999999999999999
 10
244.0954808661728
 20
84.58105709661773
 30
0.0
 10
243.9774269829455
 20
84.76411429130857
 30
0.0
 10
243.714646522511
 20
85.17158800239409
 30
0.0
 10
243.1379687614336
 20
85.51581767086803
 30
0.0
 10
242.5524111690395
 20
85.71980021498581
 30
0.0
 10
241.8453891560075
 20
85.85121424534789
 30
0.0
 10
241.0855662213922
 20
85.84819400129234
 30
0.0
 10
240.3315977151415
 20
85.69343426658402
 30
0.0
 10
239.731221512575
 20
85.45288793524081
 30
0.0
 10
239.2145674014373
 20
85.09244609681114
 30
0.0
 10
238.9928544665252
 20
84.73277749225683
 30
0.0
 10
238.8993284434662
 20
84.58105709661773
 30
0.0
  0
LINE
  5
1D3
330
1F
100
AcDbEntity
  8
0
  6
Continuous
 62
     7
370
    25
100
AcDbLine
 10
238.8993284435
 20
84.5810570966
 30
0.0
 11
236.078944579
 21
84.5810570966
 31
0.0
  0
LINE
  5
1D4
330
1F
100
AcDbEntity
  8
0
  6
Continuous
 62
     7
370
    25
100
AcDbLine
 10
246.9158647307
 20
84.5810570966
 30
0.0
 11
244.0954808662
 21
84.5810570966
 31
0.0
  0
LINE
  5
1D5
330
1F
100
AcDbEntity
  8
0
  6
Continuous
 62
     7
370
    25
100
AcDbLine
 10
244.0954808662
 20
84.5810570966
 30
0.0
 11
242.3119161677
 21
84.5810570966
 31
0.0
  0
LINE
  5
1D6
330
1F
100
AcDbEntity
  8
0
  6
Continuous
 62
     7
370
    25
100
AcDbLine
 10
240.6809899324
 20
84.5810570966
 30
0.0
 11
238.8993284435
 21
84.5810570966
 31
0.0
  0
LINE
  5
1D7
330
1F
100
AcDbEntity
  8
0
  6
Continuous
 62
     7
370
    25
100
AcDbLine
 10
247.4539917802
 20
92.5810570966
 30
0.0
 11
248.9474046548
 21
92.5810570966
 31
0.0
  0
LINE
  5
1D8
330
1F
100
AcDbEntity
  8
0
  6
Continuous
 62
     7
370
    25
100
AcDbLine
 10
234.0474046548
 20
92.5810570966
 30
0.0
 11
235.5408175294
 21
92.5810570966
 31
0.0
  0
LINE
  5
1D9
330
1F
100
AcDbEntity
  8
0
  6
Continuous
 62
     7
370
    25
100
AcDbLine
 10
237.9974046548
 20
100.5810570966
 30
0.0
 11
235.9974046548
 21
100.5810570966
 31
0.0
  0
LINE
  5
1DA
330
1F
100
AcDbEntity
  8
0
  6
Continuous
 62
     7
370
    25
100
AcDbLine
 10
246.9974046548
 20
100.5810570966
 30
0.0
 11
244.9974046548
 21
100.5810570966
 31
0.0
  0
SPLINE
  5
1DB
330
1F
100
AcDbEntity
  8
0
  6
Continuous
 62
     7
370
    25
100
AcDbSpline
210
0.0
220
0.0
230
1.0
 70
     8
 71
     3
 72
     9
 73
     5
 74
     0
 42
0.00000001
 43
0.00000001
 40
0.0
 40
0.0
 40
0.0
 40
0.0
 40
0.4875141023677128
 40
0.9999999999999999
 40
0.9999999999999999
 40
0.9999999999999999
 40
0.9999999999999999
 10
248.1571268770417
 20
84.58105709661778
 30
0.0
 10
248.1656529885775
 20
84.58278444258949
 30
0.0
 10
248.1831419422188
 20
84.58632761388097
 30
0.0
 10
248.1994636461052
 20
84.60784609983027
 30
0.0
 10
248.2078282891723
 20
84.6188740204177
 30
0.0
  0
SPLINE
  5
1DC
330
1F
100
AcDbEntity
  8
0
  6
Continuous
 62
     7
370
    25
100
AcDbSpline
210
0.0
220
0.0
230
1.0
 70
     8
 71
     3
 72
     9
 73
     5
 74
     0
 42
0.00000001
 43
0.00000001
 40
0.0
 40
0.0
 40
0.0
 40
0.0
 40
0.5124861829376838
 40
0.9999999999999999
 40
0.9999999999999999
 40
0.9999999999999999
 40
0.9999999999999999
 10
234.7869810513329
 20
84.61887397455794
 30
0.0
 10
234.7953456944566
 20
84.60784606160676
 30
0.0
 10
234.8116673893668
 20
84.58632760253735
 30
0.0
 10
234.8291563316086
 20
84.58278443819219
 30
0.0
 10
234.8376824325973
 20
84.58105709661781
 30
0.0
  0
LINE
  5
1DD
330
1F
100
AcDbEntity
  8
0
  6
Continuous
 62
     7
370
    25
100
AcDbLine
 10
248.2056085873
 20
84.5810570966
 30
0.0
 11
248.4974046548
 21
84.5810570966
 31
0.0
  0
LINE
  5
1DE
330
1F
100
AcDbEntity
  8
0
  6
Continuous
 62
     7
370
    25
100
AcDbLine
 10
234.4974046548
 20
84.5810570966
 30
0.0
 11
234.7892007223
 21
84.5810570966
 31
0.0
  0
LINE
  5
1DF
330
1F
100
AcDbEntity
  8
0
  6
Continuous
 62
     7
370
    25
100
AcDbLine
 10
248.2078282892
 20
84.6188740204
 30
0.0
 11
248.2056085873
 21
84.5810570966
 31
0.0
  0
LINE
  5
1E0
330
1F
100
AcDbEntity
  8
0
  6
Continuous
 62
     7
370
    25
100
AcDbLine
 10
248.2056085873
 20
84.5810570966
 30
0.0
 11
248.157126877
 21
84.5810570966
 31
0.0
  0
LINE
  5
1E1
330
1F
100
AcDbEntity
  8
0
  6
Continuous
 62
     7
370
    25
100
AcDbLine
 10
234.7892007223
 20
84.5810570966
 30
0.0
 11
234.7869810513
 21
84.6188739746
 31
0.0
  0
LINE
  5
1E2
330
1F
100
AcDbEntity
  8
0
  6
Continuous
 62
     7
370
    25
100
AcDbLine
 10
234.8376824326
 20
84.5810570966
 30
0.0
 11
234.7892007223
 21
84.5810570966
 31
0.0
  0
LINE
  5
1E3
330
1F
100
AcDbEntity
  8
0
  6
Continuous
 62
     7
370
    25
100
AcDbLine
 10
244.9974046548
 20
101.4310570966
 30
0.0
 11
246.7474046548
 21
101.4310570966
 31
0.0
  0
LINE
  5
1E4
330
1F
100
AcDbEntity
  8
0
  6
Continuous
 62
     7
370
    25
100
AcDbLine
 10
236.2474046548
 20
101.4310570966
 30
0.0
 11
237.9974046548
 21
101.4310570966
 31
0.0
  0
LINE
  5
1E5
330
1F
100
AcDbEntity
  8
0
  6
Continuous
 62
     7
370
    25
100
AcDbLine
 10
246.9974046548
 20
101.1810570966
 30
0.0
 11
244.9974046548
 21
101.1810570966
 31
0.0
  0
LINE
  5
1E6
330
1F
100
AcDbEntity
  8
0
  6
Continuous
 62
     7
370
    25
100
AcDbLine
 10
237.9974046548
 20
101.1810570966
 30
0.0
 11
235.9974046548
 21
101.1810570966
 31
0.0
  0
INSERT
  5
1F2
330
1F
100
AcDbEntity
  8
0
  6
Continuous
 62
     7
370
    18
100
AcDbBlockReference
  2
SW_CENTERMARKSYMBOL_0
 10
241.4974046548
 20
74.0810570966
 30
0.0
  0
LINE
  5
1F3
330
1F
100
AcDbEntity
  8
0
  6
Continuous
 62
     7
370
    25
100
AcDbLine
 10
162.0789731033
 20
136.4762317433
 30
0.0
 11
158.0789731033
 21
135.7262317433
 31
0.0
  0
LINE
  5
1F4
330
1F
100
AcDbEntity
  8
0
  6
Continuous
 62
     7
370
    25
100
AcDbLine
 10
158.0789731033
 20
126.7262317433
 30
0.0
 11
162.0789731033
 21
125.9762317433
 31
0.0
  0
LINE
  5
1F5
330
1F
100
AcDbEntity
  8
0
  6
Continuous
 62
     7
370
    25
100
AcDbLine
 10
166.5789731033
 20
136.4762317433
 30
0.0
 11
162.0789731033
 21
136.4762317433
 31
0.0
  0
LINE
  5
1F6
330
1F
100
AcDbEntity
  8
0
  6
Continuous
 62
     7
370
    25
100
AcDbLine
 10
162.0789731033
 20
125.9762317433
 30
0.0
 11
166.5789731033
 21
125.9762317433
 31
0.0
  0
LINE
  5
1F7
330
1F
100
AcDbEntity
  8
0
  6
Continuous
 62
     7
370
    25
100
AcDbLine
 10
158.0789731033
 20
136.4762317433
 30
0.0
 11
154.0789731033
 21
135.7262317433
 31
0.0
  0
LINE
  5
1F8
330
1F
100
AcDbEntity
  8
0
  6
Continuous
 62
     7
370
    25
100
AcDbLine
 10
154.0789731033
 20
126.7262317433
 30
0.0
 11
158.0789731033
 21
125.9762317433
 31
0.0
  0
LINE
  5
1F9
330
1F
100
AcDbEntity
  8
0
  6
Continuous
 62
     7
370
    25
100
AcDbLine
 10
150.0789731033
 20
136.4762317433
 30
0.0
 11
146.0789731033
 21
135.7262317433
 31
0.0
  0
LINE
  5
1FA
330
1F
100
AcDbEntity
  8
0
  6
Continuous
 62
     7
370
    25
100
AcDbLine
 10
146.0789731033
 20
126.7262317433
 30
0.0
 11
150.0789731033
 21
125.9762317433
 31
0.0
  0
LINE
  5
1FB
330
1F
100
AcDbEntity
  8
0
  6
Continuous
 62
     7
370
    25
100
AcDbLine
 10
146.0789731033
 20
136.4762317433
 30
0.0
 11
140.5361159604
 21
135.7833746004
 31
0.0
  0
LINE
  5
1FC
330
1F
100
AcDbEntity
  8
0
  6
Continuous
 62
     7
370
    25
100
AcDbLine
 10
140.5361159604
 20
126.6690888861
 30
0.0
 11
146.0789731033
 21
125.9762317433
 31
0.0
  0
LINE
  5
1FD
330
1F
100
AcDbEntity
  8
0
  6
Continuous
 62
     7
370
    25
100
AcDbLine
 10
154.0789731033
 20
136.4762317433
 30
0.0
 11
150.0789731033
 21
135.7262317433
 31
0.0
  0
LINE
  5
1FE
330
1F
100
AcDbEntity
  8
0
  6
Continuous
 62
     7
370
    25
100
AcDbLine
 10
150.0789731033
 20
126.7262317433
 30
0.0
 11
154.0789731033
 21
125.9762317433
 31
0.0
  0
LINE
  5
1FF
330
1F
100
AcDbEntity
  8
0
  6
Continuous
 62
     7
370
    25
100
AcDbLine
 10
140.5361159604
 20
135.7833746004
 30
0.0
 11
140.0789731033
 21
135.3262317433
 31
0.0
  0
LINE
  5
200
330
1F
100
AcDbEntity
  8
0
  6
Continuous
 62
     7
370
    25
100
AcDbLine
 10
140.0789731033
 20
127.1262317433
 30
0.0
 11
140.5361159604
 21
126.6690888861
 31
0.0
  0
LINE
  5
201
330
1F
100
AcDbEntity
  8
0
  6
Continuous
 62
     7
370
    25
100
AcDbLine
 10
178.4923705629
 20
121.7262317433
 30
0.0
 11
178.5789731033
 21
121.8762317433
 31
0.0
  0
LINE
  5
202
330
1F
100
AcDbEntity
  8
0
  6
Continuous
 62
     7
370
    25
100
AcDbLine
 10
178.5789731033
 20
140.5762317433
 30
0.0
 11
178.4923705629
 21
140.7262317433
 31
0.0
  0
LINE
  5
203
330
1F
100
AcDbEntity
  8
0
  6
Continuous
 62
     7
370
    25
100
AcDbLine
 10
168.6655756436
 20
140.7262317433
 30
0.0
 11
168.5789731033
 21
140.5762317433
 31
0.0
  0
LINE
  5
204
330
1F
100
AcDbEntity
  8
0
  6
Continuous
 62
     7
370
    25
100
AcDbLine
 10
168.5789731033
 20
121.8762317433
 30
0.0
 11
168.6655756436
 21
121.7262317433
 31
0.0
  0
ARC
  5
205
330
1F
100
AcDbEntity
  8
0
  6
Continuous
 62
     7
370
    25
100
AcDbCircle
 10
166.8789731033
 20
122.1762317433
 30
0.0
 40
0.2999999999999972
100
AcDbArc
 50
180.0
 51
270.0
  0
ARC
  5
206
330
1F
100
AcDbEntity
  8
0
  6
Continuous
 62
     7
370
    25
100
AcDbCircle
 10
166.8789731033
 20
140.2762317433
 30
0.0
 40
0.2999999999999829
100
AcDbArc
 50
90.0
 51
180.0
  0
LINE
  5
207
330
1F
100
AcDbEntity
  8
0
  6
Continuous
 62
     7
370
    25
100
AcDbLine
 10
168.5789731033
 20
140.5762317433
 30
0.0
 11
166.8789731033
 21
140.5762317433
 31
0.0
  0
LINE
  5
208
330
1F
100
AcDbEntity
  8
0
  6
Continuous
 62
     7
370
    25
100
AcDbLine
 10
166.8789731033
 20
121.8762317433
 30
0.0
 11
168.5789731033
 21
121.8762317433
 31
0.0
  0
ARC
  5
209
330
1F
100
AcDbEntity
  8
0
  6
Continuous
 62
     7
370
    25
100
AcDbCircle
 10
180.2789731033
 20
140.2762317433
 30
0.0
 40
0.2999999999999829
100
AcDbArc
 50
0.0
 51
90.0
  0
ARC
  5
20A
330
1F
100
AcDbEntity
  8
0
  6
Continuous
 62
     7
370
    25
100
AcDbCircle
 10
180.2789731033
 20
122.1762317433
 30
0.0
 40
0.2999999999999972
100
AcDbArc
 50
270.0
 51
0.0
  0
LINE
  5
20B
330
1F
100
AcDbEntity
  8
0
  6
Continuous
 62
     7
370
    25
100
AcDbLine
 10
178.5789731033
 20
121.8762317433
 30
0.0
 11
180.2789731033
 21
121.8762317433
 31
0.0
  0
LINE
  5
20C
330
1F
100
AcDbEntity
  8
0
  6
Continuous
 62
     7
370
    25
100
AcDbLine
 10
180.2789731033
 20
140.5762317433
 30
0.0
 11
178.5789731033
 21
140.5762317433
 31
0.0
  0
LINE
  5
20D
330
1F
100
AcDbEntity
  8
0
  6
Continuous
 62
     7
370
    25
100
AcDbLine
 10
182.9380765689
 20
139.7262317433
 30
0.0
 11
182.7880765689
 21
139.5762317433
 31
0.0
  0
LINE
  5
20E
330
1F
100
AcDbEntity
  8
0
  6
Continuous
 62
     7
370
    25
100
AcDbLine
 10
182.7880765689
 20
122.8762317433
 30
0.0
 11
182.9380765689
 21
122.7262317433
 31
0.0
  0
LINE
  5
20F
330
1F
100
AcDbEntity
  8
0
  6
Continuous
 62
     7
370
    25
100
AcDbLine
 10
185.7880765689
 20
139.7262317433
 30
0.0
 11
182.9380765689
 21
139.7262317433
 31
0.0
  0
LINE
  5
210
330
1F
100
AcDbEntity
  8
0
  6
Continuous
 62
     7
370
    25
100
AcDbLine
 10
182.9380765689
 20
122.7262317433
 30
0.0
 11
185.7880765689
 21
122.7262317433
 31
0.0
  0
LINE
  5
211
330
1F
100
AcDbEntity
  8
0
  6
Continuous
 62
     7
370
    25
100
AcDbLine
 10
182.7880765689
 20
139.5572317433
 30
0.0
 11
180.5789731033
 21
139.5572317433
 31
0.0
  0
LINE
  5
212
330
1F
100
AcDbEntity
  8
0
  6
Continuous
 62
     7
370
    25
100
AcDbLine
 10
180.5789731033
 20
122.8952317433
 30
0.0
 11
182.7880765689
 21
122.8952317433
 31
0.0
  0
ARC
  5
213
330
1F
100
AcDbEntity
  8
0
  6
Continuous
 62
     7
370
    25
100
AcDbCircle
 10
204.7880765689
 20
140.2262317433
 30
0.0
 40
1.5
100
AcDbArc
 50
138.1896851042
 51
180.0
  0
ARC
  5
214
330
1F
100
AcDbEntity
  8
0
  6
Continuous
 62
     7
370
    25
100
AcDbCircle
 10
204.7880765689
 20
122.2262317433
 30
0.0
 40
1.5
100
AcDbArc
 50
180.0
 51
221.8103148958
  0
LINE
  5
215
330
1F
100
AcDbEntity
  8
0
  6
Continuous
 62
     7
370
    25
100
AcDbLine
 10
186.0380765689
 20
121.2262317433
 30
0.0
 11
187.9061105576
 21
121.2262317433
 31
0.0
  0
LINE
  5
216
330
1F
100
AcDbEntity
  8
0
  6
Continuous
 62
     7
370
    25
100
AcDbLine
 10
187.9061105576
 20
141.2262317433
 30
0.0
 11
186.0380765689
 21
141.2262317433
 31
0.0
  0
LINE
  5
217
330
1F
100
AcDbEntity
  8
0
  6
Continuous
 62
     7
370
    25
100
AcDbLine
 10
205.2880765689
 20
141.2262317433
 30
0.0
 11
203.6700425801
 21
141.2262317433
 31
0.0
  0
LINE
  5
218
330
1F
100
AcDbEntity
  8
0
  6
Continuous
 62
     7
370
    25
100
AcDbLine
 10
203.6700425801
 20
121.2262317433
 30
0.0
 11
205.2880765689
 21
121.2262317433
 31
0.0
  0
LINE
  5
219
330
1F
100
AcDbEntity
  8
0
  6
Continuous
 62
     7
370
    25
100
AcDbLine
 10
186.0380765689
 20
141.2262317433
 30
0.0
 11
185.7880765689
 21
140.9762317433
 31
0.0
  0
LINE
  5
21A
330
1F
100
AcDbEntity
  8
0
  6
Continuous
 62
     7
370
    25
100
AcDbLine
 10
185.7880765689
 20
121.4762317433
 30
0.0
 11
186.0380765689
 21
121.2262317433
 31
0.0
  0
ARC
  5
21B
330
1F
100
AcDbEntity
  8
0
  6
Continuous
 62
     7
370
    25
100
AcDbCircle
 10
186.7880765689
 20
122.2262317433
 30
0.0
 40
1.5
100
AcDbArc
 50
318.1896851042
 51
0.0
  0
ARC
  5
21C
330
1F
100
AcDbEntity
  8
0
  6
Continuous
 62
     7
370
    25
100
AcDbCircle
 10
186.7880765689
 20
140.2262317433
 30
0.0
 40
1.5
100
AcDbArc
 50
0.0
 51
41.8103148958
  0
LINE
  5
21D
330
1F
100
AcDbEntity
  8
0
  6
Continuous
 62
     7
370
    25
100
AcDbLine
 10
205.2880765689
 20
121.2262317433
 30
0.0
 11
205.7880765689
 21
121.7262317433
 31
0.0
  0
LINE
  5
21E
330
1F
100
AcDbEntity
  8
0
  6
Continuous
 62
     7
370
    25
100
AcDbLine
 10
205.7880765689
 20
140.7262317433
 30
0.0
 11
205.2880765689
 21
141.2262317433
 31
0.0
  0
LINE
  5
21F
330
1F
100
AcDbEntity
  8
0
  6
Continuous
 62
     7
370
    25
100
AcDbLine
 10
205.7880765689
 20
122.7811692433
 30
0.0
 11
213.7141671352
 21
123.0288595735
 31
0.0
  0
LINE
  5
220
330
1F
100
AcDbEntity
  8
0
  6
Continuous
 62
     7
370
    25
100
AcDbLine
 10
213.7141671352
 20
139.4236039131
 30
0.0
 11
205.7880765689
 21
139.6712942433
 31
0.0
  0
LINE
  5
221
330
1F
100
AcDbEntity
  8
0
  6
Continuous
 62
     7
370
    25
100
AcDbLine
 10
213.7141671352
 20
123.0288595735
 30
0.0
 11
215.7880765689
 21
124.2262317433
 31
0.0
  0
LINE
  5
222
330
1F
100
AcDbEntity
  8
0
  6
Continuous
 62
     7
370
    25
100
AcDbLine
 10
215.7880765689
 20
138.2262317433
 30
0.0
 11
213.7141671352
 21
139.4236039131
 31
0.0
  0
ARC
  5
223
330
1F
100
AcDbEntity
  8
0
  6
Continuous
 62
     7
370
    25
100
AcDbCircle
 10
202.7960183052
 20
140.2261827145
 30
0.0
 40
0.4999499729555847
100
AcDbArc
 50
268.2582726631
 51
354.6234834793
  0
ARC
  5
224
330
1F
100
AcDbEntity
  8
0
  6
Continuous
 62
     7
370
    25
100
AcDbCircle
 10
202.7881884621
 20
140.2262316726
 30
0.0
 40
0.499999929357677
100
AcDbArc
 50
269.999168124
 51
358.1336811984
  0
ARC
  5
225
330
1F
100
AcDbEntity
  8
0
  6
Continuous
 62
     7
370
    25
100
AcDbCircle
 10
188.7801348065
 20
140.2261826631
 30
0.0
 40
0.4999499223317591
100
AcDbArc
 50
185.4070207077
 51
271.7417304983
  0
ARC
  5
226
330
1F
100
AcDbEntity
  8
0
  6
Continuous
 62
     7
370
    25
100
AcDbCircle
 10
188.7879646758
 20
140.2262316728
 30
0.0
 40
0.4999999295239995
100
AcDbArc
 50
181.8055459078
 51
270.0008318653
  0
ARC
  5
227
330
1F
100
AcDbEntity
  8
0
  6
Continuous
 62
     7
370
    25
100
AcDbCircle
 10
188.7801348325
 20
122.2262807721
 30
0.0
 40
0.4999499729556746
100
AcDbArc
 50
88.2582726631
 51
174.6234834793
  0
ARC
  5
228
330
1F
100
AcDbEntity
  8
0
  6
Continuous
 62
     7
370
    25
100
AcDbCircle
 10
188.7879646757
 20
122.2262318139
 30
0.0
 40
0.4999999293577481
100
AcDbArc
 50
89.9991681241
 51
178.1336811984
  0
ARC
  5
229
330
1F
100
AcDbEntity
  8
0
  6
Continuous
 62
     7
370
    25
100
AcDbCircle
 10
202.7960183313
 20
122.2262808235
 30
0.0
 40
0.4999499223317347
100
AcDbArc
 50
5.4070207077
 51
91.7417304983
  0
ARC
  5
22A
330
1F
100
AcDbEntity
  8
0
  6
Continuous
 62
     7
370
    25
100
AcDbCircle
 10
202.788188462
 20
122.2262318138
 30
0.0
 40
0.4999999295239652
100
AcDbArc
 50
1.8055459077
 51
90.0008318653
  0
LINE
  5
22B
330
1F
100
AcDbEntity
  8
0
  6
Continuous
 62
     7
370
    25
100
AcDbLine
 10
162.0789731033
 20
136.4762317433
 30
0.0
 11
162.0789731033
 21
134.7262317433
 31
0.0
  0
LINE
  5
22C
330
1F
100
AcDbEntity
  8
0
  6
Continuous
 62
     7
370
    25
100
AcDbLine
 10
162.0789731033
 20
127.7262317433
 30
0.0
 11
162.0789731033
 21
125.9762317433
 31
0.0
  0
LINE
  5
22D
330
1F
100
AcDbEntity
  8
0
  6
Continuous
 62
     7
370
    25
100
AcDbLine
 10
158.0789731033
 20
136.4762317433
 30
0.0
 11
158.0789731033
 21
134.7262317433
 31
0.0
  0
LINE
  5
22E
330
1F
100
AcDbEntity
  8
0
  6
Continuous
 62
     7
370
    25
100
AcDbLine
 10
158.0789731033
 20
127.7262317433
 30
0.0
 11
158.0789731033
 21
125.9762317433
 31
0.0
  0
LINE
  5
22F
330
1F
100
AcDbEntity
  8
0
  6
Continuous
 62
     7
370
    25
100
AcDbLine
 10
150.0789731033
 20
136.4762317433
 30
0.0
 11
150.0789731033
 21
125.9762317433
 31
0.0
  0
LINE
  5
230
330
1F
100
AcDbEntity
  8
0
  6
Continuous
 62
     7
370
    25
100
AcDbLine
 10
140.5361159604
 20
132.6733420816
 30
0.0
 11
140.5361159604
 21
126.6690888861
 31
0.0
  0
LINE
  5
231
330
1F
100
AcDbEntity
  8
0
  6
Continuous
 62
     7
370
    25
100
AcDbLine
 10
140.5361159604
 20
135.7833746004
 30
0.0
 11
140.5361159604
 21
132.6733420816
 31
0.0
  0
LINE
  5
232
330
1F
100
AcDbEntity
  8
0
  6
Continuous
 62
     7
370
    25
100
AcDbLine
 10
146.0789731033
 20
136.4762317433
 30
0.0
 11
146.0789731033
 21
125.9762317433
 31
0.0
  0
LINE
  5
233
330
1F
100
AcDbEntity
  8
0
  6
Continuous
 62
     7
370
    25
100
AcDbLine
 10
154.0789731033
 20
136.4762317433
 30
0.0
 11
154.0789731033
 21
125.9762317433
 31
0.0
  0
LINE
  5
234
330
1F
100
AcDbEntity
  8
0
  6
Continuous
 62
     7
370
    25
100
AcDbLine
 10
140.0789731033
 20
132.5281774082
 30
0.0
 11
140.0789731033
 21
135.3262317433
 31
0.0
  0
LINE
  5
235
330
1F
100
AcDbEntity
  8
0
  6
Continuous
 62
     7
370
    25
100
AcDbLine
 10
140.0789731033
 20
127.1262317433
 30
0.0
 11
140.0789731033
 21
132.5281774082
 31
0.0
  0
SPLINE
  5
236
330
1F
100
AcDbEntity
  8
0
  6
Continuous
 62
     7
370
    25
100
AcDbSpline
210
0.0
220
0.0
230
1.0
 70
     8
 71
     3
 72
    12
 73
     8
 74
     0
 42
0.00000001
 43
0.00000001
 40
0.0
 40
0.0
 40
0.0
 40
0.0
 40
0.2179023765630386
 40
0.4357431437089963
 40
0.6584571370224611
 40
0.8811309408600911
 40
1.0
 40
1.0
 40
1.0
 40
1.0
 10
177.6438647868423
 20
140.7262317432884
 30
0.0
 10
177.7729632696875
 20
140.3157966119371
 30
0.0
 10
178.0311237342511
 20
139.4950423950968
 30
0.0
 10
178.3100741846935
 20
138.2310790176684
 30
0.0
 10
178.47316789129
 20
136.9435923924419
 30
0.0
 10
178.515279733741
 20
135.8401957803588
 30
0.0
 10
178.4577755363707
 20
135.1752158434784
 30
0.0
 10
178.4377620312475
 20
134.9437791835091
 30
0.0
  0
SPLINE
  5
237
330
1F
100
AcDbEntity
  8
0
  6
Continuous
 62
     7
370
    25
100
AcDbSpline
210
0.0
220
0.0
230
1.0
 70
    24
 71
     3
 72
    10
 73
     6
 74
     0
 42
0.00000001
 43
0.00000001
 40
0.0
 40
0.0
 40
0.0
 40
0.0
 40
0.2501834909134419
 40
0.6230949936637108
 40
1.0
 40
1.0
 40
1.0
 40
1.0
 10
178.4902016540623
 20
140.7262317432884
 30
0.0
 10
178.4790486474165
 20
140.7262317432884
 30
0.0
 10
178.4512715044088
 20
140.7262317432884
 30
0.0
 10
178.1790813833052
 20
140.7262317432884
 30
0.0
 10
177.8229026519402
 20
140.7262317432884
 30
0.0
 10
177.6438647868423
 20
140.7262317432884
 30
0.0
  0
SPLINE
  5
238
330
1F
100
AcDbEntity
  8
0
  6
Continuous
 62
     7
370
    25
100
AcDbSpline
210
0.0
220
0.0
230
1.0
 70
    24
 71
     3
 72
    10
 73
     6
 74
     0
 42
0.00000001
 43
0.00000001
 40
0.0
 40
0.0
 40
0.0
 40
0.0
 40
0.373225730835882
 40
0.7498129720353437
 40
1.0
 40
1.0
 40
1.0
 40
1.0
 10
177.6438647868423
 20
121.7262317432884
 30
0.0
 10
177.8213382528659
 20
121.7262317432884
 30
0.0
 10
178.1778836248008
 20
121.7262317432884
 30
0.0
 10
178.4504393447824
 20
121.7262317432884
 30
0.0
 10
178.4799633052045
 20
121.7262317432884
 30
0.0
 10
178.4917482687474
 20
121.7262317432884
 30
0.0
  0
SPLINE
  5
239
330
1F
100
AcDbEntity
  8
0
  6
Continuous
 62
     7
370
    25
100
AcDbSpline
210
0.0
220
0.0
230
1.0
 70
     8
 71
     3
 72
    12
 73
     8
 74
     0
 42
0.00000001
 43
0.00000001
 40
0.0
 40
0.0
 40
0.0
 40
0.0
 40
0.0163972876075916
 40
0.2380007834442034
 40
0.426803055486027
 40
0.6156347787567769
 40
1.0
 40
1.0
 40
1.0
 40
1.0
 10
178.4418788315507
 20
127.5378193883736
 30
0.0
 10
178.4460531238268
 20
127.5058631744309
 30
0.0
 10
178.5066414879398
 20
127.0420301225078
 30
0.0
 10
178.5025297373521
 20
126.2016256552719
 30
0.0
 10
178.4243209594586
 20
125.0287118107044
 30
0.0
 10
178.1928431084937
 20
123.5452614563394
 30
0.0
 10
177.8642245520931
 20
122.4563898292148
 30
0.0
 10
177.6438647868423
 20
121.7262317432884
 30
0.0
  0
LINE
  5
23A
330
1F
100
AcDbEntity
  8
0
  6
Continuous
 62
     7
370
    25
100
AcDbLine
 10
178.5789731033
 20
140.5762317433
 30
0.0
 11
178.5789731033
 21
134.9162361207
 31
0.0
  0
LINE
  5
23B
330
1F
100
AcDbEntity
  8
0
  6
Continuous
 62
     7
370
    25
100
AcDbLine
 10
178.5789731033
 20
127.5362273659
 30
0.0
 11
178.5789731033
 21
121.8762317433
 31
0.0
  0
SPLINE
  5
23C
330
1F
100
AcDbEntity
  8
0
  6
Continuous
 62
     7
370
    25
100
AcDbSpline
210
0.0
220
0.0
230
1.0
 70
    24
 71
     3
 72
    10
 73
     6
 74
     0
 42
0.00000001
 43
0.00000001
 40
0.0
 40
0.0
 40
0.0
 40
0.0
 40
0.2528975785811089
 40
0.6244774049994896
 40
1.0
 40
1.0
 40
1.0
 40
1.0
 10
168.6670823958279
 20
121.7262317432884
 30
0.0
 10
168.6787549928047
 20
121.7262317432884
 30
0.0
 10
168.7075780171713
 20
121.7262317432884
 30
0.0
 10
168.9805905144841
 20
121.7262317432884
 30
0.0
 10
169.3356265605677
 20
121.7262317432884
 30
0.0
 10
169.5140814196629
 20
121.7262317432884
 30
0.0
  0
SPLINE
  5
23D
330
1F
100
AcDbEntity
  8
0
  6
Continuous
 62
     7
370
    25
100
AcDbSpline
210
0.0
220
0.0
230
1.0
 70
    24
 71
     3
 72
    11
 73
     7
 74
     0
 42
0.00000001
 43
0.00000001
 40
0.0
 40
0.0
 40
0.0
 40
0.0
 40
0.3719608945175297
 40
0.7472423241776316
 40
0.9977601437468079
 40
1.0
 40
1.0
 40
1.0
 40
1.0
 10
169.5140814196629
 20
140.7262317432884
 30
0.0
 10
169.3351106651878
 20
140.7262317432884
 30
0.0
 10
168.9755714649519
 20
140.7262317432884
 30
0.0
 10
168.7306713662058
 20
140.7262317432883
 30
0.0
 10
168.647084213606
 20
140.7262317432884
 30
0.0
 10
168.6664337094314
 20
140.7262317432884
 30
0.0
 10
168.6666051783654
 20
140.7262317432884
 30
0.0
  0
SPLINE
  5
23E
330
1F
100
AcDbEntity
  8
0
  6
Continuous
 62
     7
370
    25
100
AcDbSpline
210
0.0
220
0.0
230
1.0
 70
     8
 71
     3
 72
    12
 73
     8
 74
     0
 42
0.00000001
 43
0.00000001
 40
0.0
 40
0.0
 40
0.0
 40
0.0
 40
0.0470980859569733
 40
0.2617847604454104
 40
0.444694022627834
 40
0.6276318167897462
 40
1.0
 40
1.0
 40
1.0
 40
1.0
 10
168.7400864935089
 20
134.7262317432883
 30
0.0
 10
168.7272489480404
 20
134.820941861918
 30
0.0
 10
168.6558941637241
 20
135.3473680470476
 30
0.0
 10
168.6537683987533
 20
136.2507118485765
 30
0.0
 10
168.734025792362
 20
137.4237822945836
 30
0.0
 10
168.9648760807169
 20
138.9071846764531
 30
0.0
 10
169.2936305297252
 20
139.9960666915571
 30
0.0
 10
169.5140814196629
 20
140.7262317432884
 30
0.0
  0
SPLINE
  5
23F
330
1F
100
AcDbEntity
  8
0
  6
Continuous
 62
     7
370
    25
100
AcDbSpline
210
0.0
220
0.0
230
1.0
 70
     8
 71
     3
 72
    12
 73
     8
 74
     0
 42
0.00000001
 43
0.00000001
 40
0.0
 40
0.0
 40
0.0
 40
0.0
 40
0.2100818139499527
 40
0.4201042296578994
 40
0.6348249704103283
 40
0.8495069640957529
 40
1.0
 40
1.0
 40
1.0
 40
1.0
 10
169.5140814196629
 20
121.7262317432884
 30
0.0
 10
169.3849612516434
 20
122.1366676330162
 30
0.0
 10
169.1267574228623
 20
122.9574233663952
 30
0.0
 10
168.8481345580061
 20
124.2213752874608
 30
0.0
 10
168.6837692450967
 20
125.508906383457
 30
0.0
 10
168.6431762054934
 20
126.6849481848228
 30
0.0
 10
168.7087960536165
 20
127.4223426052232
 30
0.0
 10
168.7358387847987
 20
127.7262317432883
 30
0.0
  0
LINE
  5
240
330
1F
100
AcDbEntity
  8
0
  6
Continuous
 62
     7
370
    25
100
AcDbLine
 10
168.5789731033
 20
121.8762317433
 30
0.0
 11
168.5789731033
 21
127.7262317433
 31
0.0
  0
LINE
  5
241
330
1F
100
AcDbEntity
  8
0
  6
Continuous
 62
     7
370
    25
100
AcDbLine
 10
168.5789731033
 20
134.7262317433
 30
0.0
 11
168.5789731033
 21
140.5762317433
 31
0.0
  0
LINE
  5
242
330
1F
100
AcDbEntity
  8
0
  6
Continuous
 62
     7
370
    25
100
AcDbLine
 10
173.659357861
 20
140.7262317433
 30
0.0
 11
177.6438647868
 21
140.7262317433
 31
0.0
  0
LINE
  5
243
330
1F
100
AcDbEntity
  8
0
  6
Continuous
 62
     7
370
    25
100
AcDbLine
 10
169.5140814197
 20
140.7262317433
 30
0.0
 11
173.4985883455
 21
140.7262317433
 31
0.0
  0
LINE
  5
244
330
1F
100
AcDbEntity
  8
0
  6
Continuous
 62
     7
370
    25
100
AcDbLine
 10
173.5789731033
 20
140.1826144171
 30
0.0
 11
173.4985883455
 21
140.7262317433
 31
0.0
  0
LINE
  5
245
330
1F
100
AcDbEntity
  8
0
  6
Continuous
 62
     7
370
    25
100
AcDbLine
 10
173.659357861
 20
140.7262317433
 30
0.0
 11
173.5789731033
 21
140.1826144171
 31
0.0
  0
LINE
  5
246
330
1F
100
AcDbEntity
  8
0
  6
Continuous
 62
     7
370
    25
100
AcDbLine
 10
173.659357861
 20
121.7262317433
 30
0.0
 11
177.6438647868
 21
121.7262317433
 31
0.0
  0
LINE
  5
247
330
1F
100
AcDbEntity
  8
0
  6
Continuous
 62
     7
370
    25
100
AcDbLine
 10
173.5789731033
 20
122.2698490695
 30
0.0
 11
173.659357861
 21
121.7262317433
 31
0.0
  0
LINE
  5
248
330
1F
100
AcDbEntity
  8
0
  6
Continuous
 62
     7
370
    25
100
AcDbLine
 10
173.4985883455
 20
121.7262317433
 30
0.0
 11
173.5789731033
 21
122.2698490695
 31
0.0
  0
LINE
  5
249
330
1F
100
AcDbEntity
  8
0
  6
Continuous
 62
     7
370
    25
100
AcDbLine
 10
169.5140814197
 20
121.7262317433
 30
0.0
 11
173.4985883455
 21
121.7262317433
 31
0.0
  0
LINE
  5
24A
330
1F
100
AcDbEntity
  8
0
  6
Continuous
 62
     7
370
    25
100
AcDbLine
 10
166.5789731033
 20
122.1762317433
 30
0.0
 11
166.5789731033
 21
127.7262317433
 31
0.0
  0
LINE
  5
24B
330
1F
100
AcDbEntity
  8
0
  6
Continuous
 62
     7
370
    25
100
AcDbLine
 10
166.5789731033
 20
134.7262317433
 30
0.0
 11
166.5789731033
 21
140.2761107301
 31
0.0
  0
LINE
  5
24C
330
1F
100
AcDbEntity
  8
0
  6
Continuous
 62
     7
370
    25
100
AcDbLine
 10
180.5789731033
 20
140.2762317433
 30
0.0
 11
180.5789731033
 21
135.1006160865
 31
0.0
  0
LINE
  5
24D
330
1F
100
AcDbEntity
  8
0
  6
Continuous
 62
     7
370
    25
100
AcDbLine
 10
180.5789731033
 20
127.3518474001
 30
0.0
 11
180.5789731033
 21
122.1763527565
 31
0.0
  0
LINE
  5
24E
330
1F
100
AcDbEntity
  8
0
  6
Continuous
 62
     7
370
    25
100
AcDbLine
 10
173.4985883455
 20
140.7262317433
 30
0.0
 11
173.5789731033
 21
140.7262317433
 31
0.0
  0
LINE
  5
24F
330
1F
100
AcDbEntity
  8
0
  6
Continuous
 62
     7
370
    25
100
AcDbLine
 10
173.5789731033
 20
140.7262317433
 30
0.0
 11
173.5789731033
 21
140.1826144171
 31
0.0
  0
LINE
  5
250
330
1F
100
AcDbEntity
  8
0
  6
Continuous
 62
     7
370
    25
100
AcDbLine
 10
173.5789731033
 20
140.7262317433
 30
0.0
 11
173.659357861
 21
140.7262317433
 31
0.0
  0
LINE
  5
251
330
1F
100
AcDbEntity
  8
0
  6
Continuous
 62
     7
370
    25
100
AcDbLine
 10
173.5789731033
 20
122.2698490695
 30
0.0
 11
173.5789731033
 21
121.7262317433
 31
0.0
  0
LINE
  5
252
330
1F
100
AcDbEntity
  8
0
  6
Continuous
 62
     7
370
    25
100
AcDbLine
 10
173.5789731033
 20
121.7262317433
 30
0.0
 11
173.4985883455
 21
121.7262317433
 31
0.0
  0
LINE
  5
253
330
1F
100
AcDbEntity
  8
0
  6
Continuous
 62
     7
370
    25
100
AcDbLine
 10
173.659357861
 20
121.7262317433
 30
0.0
 11
173.5789731033
 21
121.7262317433
 31
0.0
  0
LINE
  5
254
330
1F
100
AcDbEntity
  8
0
  6
Continuous
 62
     7
370
    25
100
AcDbLine
 10
182.7880765689
 20
135.3770953202
 30
0.0
 11
182.7880765689
 21
139.5762317433
 31
0.0
  0
LINE
  5
255
330
1F
100
AcDbEntity
  8
0
  6
Continuous
 62
     7
370
    25
100
AcDbLine
 10
182.7880765689
 20
122.8762317433
 30
0.0
 11
182.7880765689
 21
127.0753681664
 31
0.0
  0
LINE
  5
256
330
1F
100
AcDbEntity
  8
0
  6
Continuous
 62
     7
370
    25
100
AcDbLine
 10
182.9380765689
 20
127.0538014731
 30
0.0
 11
182.9380765689
 21
122.7262317433
 31
0.0
  0
LINE
  5
257
330
1F
100
AcDbEntity
  8
0
  6
Continuous
 62
     7
370
    25
100
AcDbLine
 10
182.9380765689
 20
139.7262317433
 30
0.0
 11
182.9380765689
 21
135.3986620135
 31
0.0
  0
LINE
  5
258
330
1F
100
AcDbEntity
  8
0
  6
Continuous
 62
     7
370
    25
100
AcDbLine
 10
203.6700425801
 20
121.2262317433
 30
0.0
 11
203.6700425801
 21
141.2262317433
 31
0.0
  0
LINE
  5
259
330
1F
100
AcDbEntity
  8
0
  6
Continuous
 62
     7
370
    25
100
AcDbLine
 10
203.296030204
 20
122.2741192881
 30
0.0
 11
203.2908153227
 21
122.2427213347
 31
0.0
  0
SPLINE
  5
25A
330
1F
100
AcDbEntity
  8
0
  6
Continuous
 62
     7
370
    25
100
AcDbSpline
210
0.0
220
0.0
230
1.0
 70
     8
 71
     3
 72
    14
 73
    10
 74
     0
 42
0.00000001
 43
0.00000001
 40
0.0
 40
0.0
 40
0.0
 40
0.0
 40
0.25
 40
0.25
 40
0.5
 40
0.5
 40
0.75
 40
0.75
 40
1.0
 40
1.0
 40
1.0
 40
1.0
 10
203.5171626359738
 20
122.4637705635385
 30
0.0
 10
203.5446836237188
 20
122.4754773590841
 30
0.0
 10
203.5646035455553
 20
122.5075193121657
 30
0.0
 10
203.5802705873733
 20
122.6068430628307
 30
0.0
 10
203.575778755561
 20
122.6746665056114
 30
0.0
 10
203.5445224102774
 20
122.8371081230243
 30
0.0
 10
203.5181498268956
 20
122.93155351976
 30
0.0
 10
203.4553132757513
 20
123.1397826273565
 30
0.0
 10
203.4192736968913
 20
123.2523810202397
 30
0.0
 10
203.3852776935257
 20
123.3721374138398
 30
0.0
  0
SPLINE
  5
25B
330
1F
100
AcDbEntity
  8
0
  6
Continuous
 62
     7
370
    25
100
AcDbSpline
210
0.0
220
0.0
230
1.0
 70
     8
 71
     3
 72
     8
 73
     4
 74
     0
 42
0.00000001
 43
0.00000001
 40
0.0
 40
0.0
 40
0.0
 40
0.0
 40
1.0
 40
1.0
 40
1.0
 40
1.0
 10
203.2880765688717
 20
124.1023283189008
 30
0.0
 10
203.2880765688717
 20
123.8548988621058
 30
0.0
 10
203.3174412759496
 20
123.6111021131985
 30
0.0
 10
203.3852776935257
 20
123.3721374138398
 30
0.0
  0
LINE
  5
25C
330
1F
100
AcDbEntity
  8
0
  6
Continuous
 62
     7
370
    25
100
AcDbLine
 10
203.2880765689
 20
124.1023283189
 30
0.0
 11
203.2880765689
 21
138.3501351677
 31
0.0
  0
SPLINE
  5
25D
330
1F
100
AcDbEntity
  8
0
  6
Continuous
 62
     7
370
    25
100
AcDbSpline
210
0.0
220
0.0
230
1.0
 70
     8
 71
     3
 72
     8
 73
     4
 74
     0
 42
0.00000001
 43
0.00000001
 40
0.0
 40
0.0
 40
0.0
 40
0.0
 40
1.0
 40
1.0
 40
1.0
 40
1.0
 10
203.3852776935257
 20
139.0803260727369
 30
0.0
 10
203.3174412759496
 20
138.8413613733782
 30
0.0
 10
203.2880765688717
 20
138.5975646244709
 30
0.0
 10
203.2880765688717
 20
138.3501351676759
 30
0.0
  0
SPLINE
  5
25E
330
1F
100
AcDbEntity
  8
0
  6
Continuous
 62
     7
370
    25
100
AcDbSpline
210
0.0
220
0.0
230
1.0
 70
     8
 71
     3
 72
    12
 73
     8
 74
     0
 42
0.00000001
 43
0.00000001
 40
0.0
 40
0.0
 40
0.0
 40
0.0
 40
0.4999999999999992
 40
0.4999999999999992
 40
0.7499999999999996
 40
0.7499999999999996
 40
1.0
 40
1.0
 40
1.0
 40
1.0
 10
203.3852776935257
 20
139.0803260727369
 30
0.0
 10
203.4531474535355
 20
139.319408226185
 30
0.0
 10
203.5291820047892
 20
139.5351783333619
 30
0.0
 10
203.5758266031662
 20
139.7782729260658
 30
0.0
 10
203.5802655996888
 20
139.8459382015419
 30
0.0
 10
203.564534985896
 20
139.9450913176985
 30
0.0
 10
203.5446545559536
 20
139.9769984922517
 30
0.0
 10
203.5171626359738
 20
139.9886929230382
 30
0.0
  0
LINE
  5
25F
330
1F
100
AcDbEntity
  8
0
  6
Continuous
 62
     7
370
    25
100
AcDbLine
 10
203.2907595315
 20
140.209849193
 30
0.0
 11
203.2958681739
 21
140.1786550985
 31
0.0
  0
LINE
  5
260
330
1F
100
AcDbEntity
  8
0
  6
Continuous
 62
     7
370
    25
100
AcDbLine
 10
187.9061105576
 20
141.2262317433
 30
0.0
 11
187.9061105576
 21
136.3172679365
 31
0.0
  0
LINE
  5
261
330
1F
100
AcDbEntity
  8
0
  6
Continuous
 62
     7
370
    25
100
AcDbLine
 10
187.9061105576
 20
126.1351955501
 30
0.0
 11
187.9061105576
 21
121.2262317433
 31
0.0
  0
LINE
  5
262
330
1F
100
AcDbEntity
  8
0
  6
Continuous
 62
     7
370
    25
100
AcDbLine
 10
186.0380765689
 20
141.2262317433
 30
0.0
 11
186.0380765689
 21
135.9249110767
 31
0.0
  0
LINE
  5
263
330
1F
100
AcDbEntity
  8
0
  6
Continuous
 62
     7
370
    25
100
AcDbLine
 10
186.0380765689
 20
126.5275524099
 30
0.0
 11
186.0380765689
 21
121.2262317433
 31
0.0
  0
LINE
  5
264
330
1F
100
AcDbEntity
  8
0
  6
Continuous
 62
     7
370
    25
100
AcDbLine
 10
205.2880765689
 20
121.2262317433
 30
0.0
 11
205.2880765689
 21
141.2262317433
 31
0.0
  0
LINE
  5
265
330
1F
100
AcDbEntity
  8
0
  6
Continuous
 62
     7
370
    25
100
AcDbLine
 10
185.7880765689
 20
121.4762317433
 30
0.0
 11
185.7880765689
 21
126.5757324244
 31
0.0
  0
LINE
  5
266
330
1F
100
AcDbEntity
  8
0
  6
Continuous
 62
     7
370
    25
100
AcDbLine
 10
185.7880765689
 20
135.8767310621
 30
0.0
 11
185.7880765689
 21
140.9762317433
 31
0.0
  0
LINE
  5
267
330
1F
100
AcDbEntity
  8
0
  6
Continuous
 62
     7
370
    25
100
AcDbLine
 10
188.2801229337
 20
140.1783441985
 30
0.0
 11
188.2853378151
 21
140.2097421518
 31
0.0
  0
SPLINE
  5
268
330
1F
100
AcDbEntity
  8
0
  6
Continuous
 62
     7
370
    25
100
AcDbSpline
210
0.0
220
0.0
230
1.0
 70
     8
 71
     3
 72
    14
 73
    10
 74
     0
 42
0.00000001
 43
0.00000001
 40
0.0
 40
0.0
 40
0.0
 40
0.0
 40
0.25
 40
0.25
 40
0.5
 40
0.5
 40
0.75
 40
0.75
 40
1.0
 40
1.0
 40
1.0
 40
1.0
 10
188.0589905017697
 20
139.9886929230382
 30
0.0
 10
188.0314695140246
 20
139.9769861274926
 30
0.0
 10
188.0115495921882
 20
139.944944174411
 30
0.0
 10
187.9958825503701
 20
139.8456204237461
 30
0.0
 10
188.0003743821825
 20
139.7777969809653
 30
0.0
 10
188.031630727466
 20
139.6153553635524
 30
0.0
 10
188.0580033108478
 20
139.5209099668167
 30
0.0
 10
188.1208398619921
 20
139.3126808592202
 30
0.0
 10
188.1568794408522
 20
139.200082466337
 30
0.0
 10
188.1908754442178
 20
139.0803260727369
 30
0.0
  0
SPLINE
  5
269
330
1F
100
AcDbEntity
  8
0
  6
Continuous
 62
     7
370
    25
100
AcDbSpline
210
0.0
220
0.0
230
1.0
 70
     8
 71
     3
 72
     8
 73
     4
 74
     0
 42
0.00000001
 43
0.00000001
 40
0.0
 40
0.0
 40
0.0
 40
0.0
 40
1.0
 40
1.0
 40
1.0
 40
1.0
 10
188.2880765688717
 20
138.3501351676759
 30
0.0
 10
188.2880765688717
 20
138.5975646244709
 30
0.0
 10
188.2587118617939
 20
138.8413613733782
 30
0.0
 10
188.1908754442178
 20
139.0803260727369
 30
0.0
  0
LINE
  5
26A
330
1F
100
AcDbEntity
  8
0
  6
Continuous
 62
     7
370
    25
100
AcDbLine
 10
188.2880765689
 20
138.3501351677
 30
0.0
 11
188.2880765689
 21
136.4045802098
 31
0.0
  0
LINE
  5
26B
330
1F
100
AcDbEntity
  8
0
  6
Continuous
 62
     7
370
    25
100
AcDbLine
 10
188.2880765689
 20
126.0478832767
 30
0.0
 11
188.2880765689
 21
124.1023283189
 31
0.0
  0
SPLINE
  5
26C
330
1F
100
AcDbEntity
  8
0
  6
Continuous
 62
     7
370
    25
100
AcDbSpline
210
0.0
220
0.0
230
1.0
 70
     8
 71
     3
 72
     8
 73
     4
 74
     0
 42
0.00000001
 43
0.00000001
 40
0.0
 40
0.0
 40
0.0
 40
0.0
 40
1.0
 40
1.0
 40
1.0
 40
1.0
 10
188.1908754442178
 20
123.3721374138398
 30
0.0
 10
188.2587118617939
 20
123.6111021131985
 30
0.0
 10
188.2880765688717
 20
123.8548988621058
 30
0.0
 10
188.2880765688717
 20
124.1023283189008
 30
0.0
  0
SPLINE
  5
26D
330
1F
100
AcDbEntity
  8
0
  6
Continuous
 62
     7
370
    25
100
AcDbSpline
210
0.0
220
0.0
230
1.0
 70
     8
 71
     3
 72
    12
 73
     8
 74
     0
 42
0.00000001
 43
0.00000001
 40
0.0
 40
0.0
 40
0.0
 40
0.0
 40
0.4999999999999992
 40
0.4999999999999992
 40
0.7499999999999996
 40
0.7499999999999996
 40
1.0
 40
1.0
 40
1.0
 40
1.0
 10
188.1908754442178
 20
123.3721374138398
 30
0.0
 10
188.123005684208
 20
123.1330552603917
 30
0.0
 10
188.0469711329543
 20
122.9172851532148
 30
0.0
 10
188.0003265345773
 20
122.674190560511
 30
0.0
 10
187.9958875380546
 20
122.6065252850348
 30
0.0
 10
188.0116181518475
 20
122.5073721688782
 30
0.0
 10
188.0314985817898
 20
122.475464994325
 30
0.0
 10
188.0589905017697
 20
122.4637705635385
 30
0.0
  0
LINE
  5
26E
330
1F
100
AcDbEntity
  8
0
  6
Continuous
 62
     7
370
    25
100
AcDbLine
 10
188.2853936062
 20
122.2426142936
 30
0.0
 11
188.2802849639
 21
122.2738083881
 31
0.0
  0
LINE
  5
26F
330
1F
100
AcDbEntity
  8
0
  6
Continuous
 62
     7
370
    25
100
AcDbLine
 10
205.7880765689
 20
140.7262317433
 30
0.0
 11
205.7880765689
 21
121.7262317433
 31
0.0
  0
ARC
  5
270
330
1F
100
AcDbEntity
  8
0
  6
Continuous
 62
     7
370
    25
100
AcDbCircle
 10
202.8347586676
 20
138.409111106
 30
0.0
 40
0.4571381420087994
100
AcDbArc
 50
264.138844256
 51
352.5875431534
  0
ARC
  5
271
330
1F
100
AcDbEntity
  8
0
  6
Continuous
 62
     7
370
    25
100
AcDbCircle
 10
202.8347586676
 20
124.0433523806
 30
0.0
 40
0.4571381420088502
100
AcDbArc
 50
7.4124568466
 51
95.861155744
  0
ARC
  5
272
330
1F
100
AcDbEntity
  8
0
  6
Continuous
 62
     7
370
    25
100
AcDbCircle
 10
188.7413944701
 20
138.409111106
 30
0.0
 40
0.4571381420088591
100
AcDbArc
 50
187.4124568466
 51
275.861155744
  0
ARC
  5
273
330
1F
100
AcDbEntity
  8
0
  6
Continuous
 62
     7
370
    25
100
AcDbCircle
 10
188.7413944701
 20
124.0433523806
 30
0.0
 40
0.457138142008921
100
AcDbArc
 50
84.138844256
 51
172.5875431534
  0
LINE
  5
274
330
1F
100
AcDbEntity
  8
0
  6
Continuous
 62
     7
370
    25
100
AcDbLine
 10
213.7141671352
 20
139.4236039131
 30
0.0
 11
213.7141671352
 21
123.0288595735
 31
0.0
  0
LINE
  5
275
330
1F
100
AcDbEntity
  8
0
  6
Continuous
 62
     7
370
    25
100
AcDbLine
 10
215.7880765689
 20
138.2262317433
 30
0.0
 11
215.7880765689
 21
124.2262317433
 31
0.0
  0
LINE
  5
276
330
1F
100
AcDbEntity
  8
0
  6
Continuous
 62
     7
370
    25
100
AcDbLine
 10
188.1908754442
 20
139.0803260727
 30
0.0
 11
188.6584750693
 21
139.2262317433
 31
0.0
  0
SPLINE
  5
277
330
1F
100
AcDbEntity
  8
0
  6
Continuous
 62
     7
370
    25
100
AcDbSpline
210
0.0
220
0.0
230
1.0
 70
     8
 71
     3
 72
     8
 73
     4
 74
     0
 42
0.00000001
 43
0.00000001
 40
0.0
 40
0.0
 40
0.0
 40
0.0
 40
1.0
 40
1.0
 40
1.0
 40
1.0
 10
188.6584750693332
 20
139.2262317432884
 30
0.0
 10
188.7474837647216
 20
138.9409759856586
 30
0.0
 10
188.7880765688717
 20
138.6485580357766
 30
0.0
 10
188.7880765688717
 20
138.3501351676759
 30
0.0
  0
LINE
  5
278
330
1F
100
AcDbEntity
  8
0
  6
Continuous
 62
     7
370
    25
100
AcDbLine
 10
188.2880765689
 20
138.3501351677
 30
0.0
 11
188.7880765689
 21
138.3501351677
 31
0.0
  0
SPLINE
  5
279
330
1F
100
AcDbEntity
  8
0
  6
Continuous
 62
     7
370
    25
100
AcDbSpline
210
0.0
220
0.0
230
1.0
 70
     8
 71
     3
 72
     8
 73
     4
 74
     0
 42
0.00000001
 43
0.00000001
 40
0.0
 40
0.0
 40
0.0
 40
0.0
 40
1.0
 40
1.0
 40
1.0
 40
1.0
 10
202.7880765688717
 20
138.3501351676759
 30
0.0
 10
202.7880765688717
 20
138.6485580357766
 30
0.0
 10
202.8286693730219
 20
138.9409759856586
 30
0.0
 10
202.9176780684103
 20
139.2262317432884
 30
0.0
  0
LINE
  5
27A
330
1F
100
AcDbEntity
  8
0
  6
Continuous
 62
     7
370
    25
100
AcDbLine
 10
202.9176780684
 20
139.2262317433
 30
0.0
 11
203.3852776935
 21
139.0803260727
 31
0.0
  0
LINE
  5
27B
330
1F
100
AcDbEntity
  8
0
  6
Continuous
 62
     7
370
    25
100
AcDbLine
 10
202.7880765689
 20
138.3501351677
 30
0.0
 11
203.2880765689
 21
138.3501351677
 31
0.0
  0
SPLINE
  5
27C
330
1F
100
AcDbEntity
  8
0
  6
Continuous
 62
     7
370
    25
100
AcDbSpline
210
0.0
220
0.0
230
1.0
 70
     8
 71
     3
 72
     8
 73
     4
 74
     0
 42
0.00000001
 43
0.00000001
 40
0.0
 40
0.0
 40
0.0
 40
0.0
 40
1.0
 40
1.0
 40
1.0
 40
1.0
 10
188.7880765688717
 20
124.1023283189008
 30
0.0
 10
188.7880765688717
 20
123.8039054508001
 30
0.0
 10
188.7474837647216
 20
123.5114875009182
 30
0.0
 10
188.6584750693332
 20
123.2262317432884
 30
0.0
  0
LINE
  5
27D
330
1F
100
AcDbEntity
  8
0
  6
Continuous
 62
     7
370
    25
100
AcDbLine
 10
188.6584750693
 20
123.2262317433
 30
0.0
 11
188.1908754442
 21
123.3721374138
 31
0.0
  0
LINE
  5
27E
330
1F
100
AcDbEntity
  8
0
  6
Continuous
 62
     7
370
    25
100
AcDbLine
 10
188.2880765689
 20
124.1023283189
 30
0.0
 11
188.7880765689
 21
124.1023283189
 31
0.0
  0
LINE
  5
27F
330
1F
100
AcDbEntity
  8
0
  6
Continuous
 62
     7
370
    25
100
AcDbLine
 10
203.3852776935
 20
123.3721374138
 30
0.0
 11
202.9176780684
 21
123.2262317433
 31
0.0
  0
SPLINE
  5
280
330
1F
100
AcDbEntity
  8
0
  6
Continuous
 62
     7
370
    25
100
AcDbSpline
210
0.0
220
0.0
230
1.0
 70
     8
 71
     3
 72
     8
 73
     4
 74
     0
 42
0.00000001
 43
0.00000001
 40
0.0
 40
0.0
 40
0.0
 40
0.0
 40
1.0
 40
1.0
 40
1.0
 40
1.0
 10
202.9176780684103
 20
123.2262317432884
 30
0.0
 10
202.8286693730219
 20
123.5114875009182
 30
0.0
 10
202.7880765688717
 20
123.8039054508001
 30
0.0
 10
202.7880765688717
 20
124.1023283189008
 30
0.0
  0
LINE
  5
281
330
1F
100
AcDbEntity
  8
0
  6
Continuous
 62
     7
370
    25
100
AcDbLine
 10
203.2880765689
 20
124.1023283189
 30
0.0
 11
202.7880765689
 21
124.1023283189
 31
0.0
  0
LINE
  5
282
330
1F
100
AcDbEntity
  8
0
  6
Continuous
 62
     7
370
    25
100
AcDbLine
 10
202.7880765689
 20
137.9543627552
 30
0.0
 11
202.7880765689
 21
138.3501351677
 31
0.0
  0
LINE
  5
283
330
1F
100
AcDbEntity
  8
0
  6
Continuous
 62
     7
370
    25
100
AcDbLine
 10
188.7880765689
 20
137.9543627552
 30
0.0
 11
188.7880765689
 21
138.3501351677
 31
0.0
  0
LINE
  5
284
330
1F
100
AcDbEntity
  8
0
  6
Continuous
 62
     7
370
    25
100
AcDbLine
 10
188.7880765689
 20
124.1023283189
 30
0.0
 11
188.7880765689
 21
124.4981007314
 31
0.0
  0
LINE
  5
285
330
1F
100
AcDbEntity
  8
0
  6
Continuous
 62
     7
370
    25
100
AcDbLine
 10
202.7880765689
 20
124.1023283189
 30
0.0
 11
202.7880765689
 21
124.4981007314
 31
0.0
  0
ARC
  5
286
330
1F
100
AcDbEntity
  8
0
  6
Continuous
 62
     7
370
    25
100
AcDbCircle
 10
188.4864582924
 20
140.2055405608
 30
0.0
 40
0.4793241179194606
100
AcDbArc
 50
206.8979585986
 51
269.5422002632
  0
SPLINE
  5
287
330
1F
100
AcDbEntity
  8
0
  6
Continuous
 62
     7
370
    25
100
AcDbSpline
210
0.0
220
0.0
230
1.0
 70
     8
 71
     3
 72
    14
 73
    10
 74
     0
 42
0.00000001
 43
0.00000001
 40
0.0
 40
0.0
 40
0.0
 40
0.0
 40
0.25
 40
0.25
 40
0.5
 40
0.5
 40
0.75
 40
0.75
 40
1.0
 40
1.0
 40
1.0
 40
1.0
 10
188.6584750693332
 20
139.2262317432884
 30
0.0
 10
188.6199995857116
 20
139.2878850075158
 30
0.0
 10
188.5789106642415
 20
139.3460689527888
 30
0.0
 10
188.499627816801
 20
139.4597342742557
 30
0.0
 10
188.4623449156905
 20
139.5134108729555
 30
0.0
 10
188.4095391563788
 20
139.6134009054021
 30
0.0
 10
188.3975698962851
 20
139.6578054056251
 30
0.0
 10
188.4175716846573
 20
139.7138652611189
 30
0.0
 10
188.4470281402096
 20
139.7262317432884
 30
0.0
 10
188.4826284794023
 20
139.7262317432884
 30
0.0
  0
ARC
  5
288
330
1F
100
AcDbEntity
  8
0
  6
Continuous
 62
     7
370
    25
100
AcDbCircle
 10
203.0896948454
 20
122.2469229258
 30
0.0
 40
0.4793241179194559
100
AcDbArc
 50
26.8979585986
 51
89.5422002632
  0
SPLINE
  5
289
330
1F
100
AcDbEntity
  8
0
  6
Continuous
 62
     7
370
    25
100
AcDbSpline
210
0.0
220
0.0
230
1.0
 70
     8
 71
     3
 72
    14
 73
    10
 74
     0
 42
0.00000001
 43
0.00000001
 40
0.0
 40
0.0
 40
0.0
 40
0.0
 40
0.25
 40
0.25
 40
0.5
 40
0.5
 40
0.75
 40
0.75
 40
1.0
 40
1.0
 40
1.0
 40
1.0
 10
202.9176780684103
 20
123.2262317432884
 30
0.0
 10
202.9561535520319
 20
123.1645784790609
 30
0.0
 10
202.9972424735019
 20
123.1063945337879
 30
0.0
 10
203.0765253209425
 20
122.992729212321
 30
0.0
 10
203.1138082220529
 20
122.9390526136212
 30
0.0
 10
203.1666139813647
 20
122.8390625811746
 30
0.0
 10
203.1785832414583
 20
122.7946580809516
 30
0.0
 10
203.1585814530862
 20
122.7385982254578
 30
0.0
 10
203.1291249975339
 20
122.7262317432884
 30
0.0
 10
203.0935246583411
 20
122.7262317432884
 30
0.0
  0
SPLINE
  5
28A
330
1F
100
AcDbEntity
  8
0
  6
Continuous
 62
     7
370
    25
100
AcDbSpline
210
0.0
220
0.0
230
1.0
 70
     8
 71
     3
 72
    16
 73
    12
 74
     0
 42
0.00000001
 43
0.00000001
 40
0.0
 40
0.0
 40
0.0
 40
0.0
 40
0.2500000000000011
 40
0.2500000000000011
 40
0.3749999999999992
 40
0.3749999999999992
 40
0.4999999999999974
 40
0.4999999999999974
 40
0.7499999999999987
 40
0.7499999999999987
 40
1.0
 40
1.0
 40
1.0
 40
1.0
 10
203.0935246583411
 20
139.7262317432884
 30
0.0
 10
203.1290785877898
 20
139.7262317432884
 30
0.0
 10
203.1583507290185
 20
139.7140999928725
 30
0.0
 10
203.1735632792393
 20
139.6720782865931
 30
0.0
 10
203.1736239474129
 20
139.6538639170866
 30
0.0
 10
203.1634133629356
 20
139.61192690456
 30
0.0
 10
203.1536300334103
 20
139.5888993410657
 30
0.0
 10
203.1144654848784
 20
139.5144906622937
 30
0.0
 10
203.0765924116051
 20
139.4598327861112
 30
0.0
 10
202.9975194386135
 20
139.3464637129325
 30
0.0
 10
202.9561323060227
 20
139.2878509628283
 30
0.0
 10
202.9176780684103
 20
139.2262317432884
 30
0.0
  0
ARC
  5
28B
330
1F
100
AcDbEntity
  8
0
  6
Continuous
 62
     7
370
    25
100
AcDbCircle
 10
203.0896948454
 20
140.2055405608
 30
0.0
 40
0.4793241179193842
100
AcDbArc
 50
270.4577997368
 51
333.1020414014
  0
SPLINE
  5
28C
330
1F
100
AcDbEntity
  8
0
  6
Continuous
 62
     7
370
    25
100
AcDbSpline
210
0.0
220
0.0
230
1.0
 70
     8
 71
     3
 72
    16
 73
    12
 74
     0
 42
0.00000001
 43
0.00000001
 40
0.0
 40
0.0
 40
0.0
 40
0.0
 40
0.2500000000000049
 40
0.2500000000000049
 40
0.3750000000000051
 40
0.3750000000000051
 40
0.5000000000000052
 40
0.5000000000000052
 40
0.7500000000000026
 40
0.7500000000000026
 40
1.0
 40
1.0
 40
1.0
 40
1.0
 10
188.4826284794023
 20
122.7262317432884
 30
0.0
 10
188.4470745499537
 20
122.7262317432884
 30
0.0
 10
188.417802408725
 20
122.7383634937042
 30
0.0
 10
188.4025898585041
 20
122.7803851999836
 30
0.0
 10
188.4025291903306
 20
122.7985995694901
 30
0.0
 10
188.4127397748079
 20
122.8405365820167
 30
0.0
 10
188.4225231043331
 20
122.863564145511
 30
0.0
 10
188.4616876528651
 20
122.937972824283
 30
0.0
 10
188.4995607261384
 20
122.9926307004655
 30
0.0
 10
188.5786336991299
 20
123.1059997736442
 30
0.0
 10
188.6200208317208
 20
123.1646125237484
 30
0.0
 10
188.6584750693332
 20
123.2262317432884
 30
0.0
  0
ARC
  5
28D
330
1F
100
AcDbEntity
  8
0
  6
Continuous
 62
     7
370
    25
100
AcDbCircle
 10
188.4864582924
 20
122.2469229258
 30
0.0
 40
0.4793241179195131
100
AcDbArc
 50
90.4577997368
 51
153.1020414014
  0
LINE
  5
28E
330
1F
100
AcDbEntity
  8
0
  6
Continuous
 62
     7
370
    25
100
AcDbLine
 10
202.9176780684
 20
139.2262317433
 30
0.0
 11
188.6584750693
 21
139.2262317433
 31
0.0
  0
LINE
  5
28F
330
1F
100
AcDbEntity
  8
0
  6
Continuous
 62
     7
370
    25
100
AcDbLine
 10
188.4826284794
 20
139.7262317433
 30
0.0
 11
203.0935246583
 21
139.7262317433
 31
0.0
  0
LINE
  5
290
330
1F
100
AcDbEntity
  8
0
  6
Continuous
 62
     7
370
    25
100
AcDbLine
 10
188.6584750693
 20
123.2262317433
 30
0.0
 11
202.9176780684
 21
123.2262317433
 31
0.0
  0
LINE
  5
291
330
1F
100
AcDbEntity
  8
0
  6
Continuous
 62
     7
370
    25
100
AcDbLine
 10
203.0935246583
 20
122.7262317433
 30
0.0
 11
188.4826284794
 21
122.7262317433
 31
0.0
  0
LINE
  5
292
330
1F
100
AcDbEntity
  8
0
  6
Continuous
 62
     7
370
    25
100
AcDbLine
 10
175.7880765689
 20
134.4979310073
 30
0.0
 11
173.6126397073
 21
134.7262317433
 31
0.0
  0
LINE
  5
293
330
1F
100
AcDbEntity
  8
0
  6
Continuous
 62
     7
370
    25
100
AcDbLine
 10
175.7880765689
 20
127.9545324792
 30
0.0
 11
175.7880765689
 21
134.4979310073
 31
0.0
  0
LINE
  5
294
330
1F
100
AcDbEntity
  8
0
  6
Continuous
 62
     7
370
    25
100
AcDbLine
 10
173.6126397073
 20
127.7262317433
 30
0.0
 11
175.7880765689
 21
127.9545324792
 31
0.0
  0
LINE
  5
295
330
1F
100
AcDbEntity
  8
0
  6
Continuous
 62
     7
370
    25
100
AcDbLine
 10
155.7880765689
 20
127.7262317433
 30
0.0
 11
173.6126397073
 21
127.7262317433
 31
0.0
  0
LINE
  5
296
330
1F
100
AcDbEntity
  8
0
  6
Continuous
 62
     7
370
    25
100
AcDbLine
 10
155.7880765689
 20
134.7262317433
 30
0.0
 11
155.7880765689
 21
127.7262317433
 31
0.0
  0
LINE
  5
297
330
1F
100
AcDbEntity
  8
0
  6
Continuous
 62
     7
370
    25
100
AcDbLine
 10
173.6126397073
 20
134.7262317433
 30
0.0
 11
155.7880765689
 21
134.7262317433
 31
0.0
  0
LINE
  5
298
330
1F
100
AcDbEntity
  8
0
  6
Continuous
 62
     7
370
    25
100
AcDbLine
 10
190.5642743945
 20
132.9472462241
 30
0.0
 11
190.4677100772
 21
132.7878469039
 31
0.0
  0
LINE
  5
299
330
1F
100
AcDbEntity
  8
0
  6
Continuous
 62
     7
370
    25
100
AcDbLine
 10
190.4454326966
 20
129.6810140759
 30
0.0
 11
190.5642743945
 21
129.5052172625
 31
0.0
  0
LINE
  5
29A
330
1F
100
AcDbEntity
  8
0
  6
Continuous
 62
     7
370
    25
100
AcDbLine
 10
182.3715069153
 20
133.8070343789
 30
0.0
 11
182.3715069153
 21
128.6454291077
 31
0.0
  0
LINE
  5
29B
330
1F
100
AcDbEntity
  8
0
  6
Continuous
 62
     7
370
    25
100
AcDbLine
 10
190.5642743945
 20
129.5052172625
 30
0.0
 11
182.3715069153
 21
128.6454291077
 31
0.0
  0
LINE
  5
29C
330
1F
100
AcDbEntity
  8
0
  6
Continuous
 62
     7
370
    25
100
AcDbLine
 10
182.3715069153
 20
133.8070343789
 30
0.0
 11
190.5642743945
 21
132.9472462241
 31
0.0
  0
LINE
  5
29D
330
1F
100
AcDbEntity
  8
0
  6
Continuous
 62
     7
370
    25
100
AcDbLine
 10
182.3715069153
 20
128.6454291077
 30
0.0
 11
175.7880765689
 21
127.9545324792
 31
0.0
  0
LINE
  5
29E
330
1F
100
AcDbEntity
  8
0
  6
Continuous
 62
     7
370
    25
100
AcDbLine
 10
175.7880765689
 20
134.4979310073
 30
0.0
 11
182.3715069153
 21
133.8070343789
 31
0.0
  0
ARC
  5
29F
330
1F
100
AcDbEntity
  8
0
  6
Continuous
 62
     7
370
    25
100
AcDbCircle
 10
195.7880765689
 20
131.2262317433
 30
0.0
 40
7.450000000000673
100
AcDbArc
 50
233.0863788866
 51
126.9136211134
  0
ARC
  5
2A0
330
1F
100
AcDbEntity
  8
0
  6
Continuous
 62
     7
370
    25
100
AcDbCircle
 10
195.7880765689
 20
131.2262317433
 30
0.0
 40
7.207531252870791
100
AcDbArc
 50
195.3041237151
 51
238.9797515565
  0
ARC
  5
2A1
330
1F
100
AcDbEntity
  8
0
  6
Continuous
 62
     7
370
    25
100
AcDbCircle
 10
195.7880765689
 20
131.2262317433
 30
0.0
 40
7.207531252872434
100
AcDbArc
 50
121.0202484435
 51
164.6958762849
  0
ARC
  5
2A2
330
1F
100
AcDbEntity
  8
0
  6
Continuous
 62
     7
370
    25
100
AcDbCircle
 10
173.6126397073
 20
199.7262317433
 30
0.0
 40
64.99999999999997
100
AcDbArc
 50
270.0
 51
286.5000949923
  0
ARC
  5
2A3
330
1F
100
AcDbEntity
  8
0
  6
Continuous
 62
     7
370
    25
100
AcDbCircle
 10
173.6126397073
 20
62.7262317433
 30
0.0
 40
64.99999999999999
100
AcDbArc
 50
73.4999050077
 51
90.0
  0
SPLINE
  5
2A4
330
1F
100
AcDbEntity
  8
0
  6
Continuous
 62
     7
370
    25
100
AcDbSpline
210
0.0
220
0.0
230
1.0
 70
     8
 71
     3
 72
    15
 73
    11
 74
     0
 42
0.00000001
 43
0.00000001
 40
0.0
 40
0.0
 40
0.0
 40
0.0
 40
0.0081667445812695
 40
0.3321939991490083
 40
0.4756279600585602
 40
0.6866830973284899
 40
0.8457435502264811
 40
0.8967566214763185
 40
0.9909540928118029
 40
1.0
 40
1.0
 40
1.0
 40
1.0
 10
200.8870960824645
 20
132.4762317432883
 30
0.0
 10
200.8875836166074
 20
132.4776692062273
 30
0.0
 10
200.9074147641395
 20
132.5361400641791
 30
0.0
 10
200.9356955441488
 20
132.6205652418986
 30
0.0
 10
200.9735248426376
 20
132.735144313921
 30
0.0
 10
201.0001087392051
 20
132.8165152011176
 30
0.0
 10
201.01727856296
 20
132.8695341931193
 30
0.0
 10
201.0250955591765
 20
132.8937361249634
 30
0.0
 10
201.0270912456124
 20
132.8999257456296
 30
0.0
 10
201.0271562095632
 20
132.9001271410422
 30
0.0
 10
201.0271619015298
 20
132.9001447867666
 30
0.0
  0
ARC
  5
2A5
330
1F
100
AcDbEntity
  8
0
  6
Continuous
 62
     7
370
    25
100
AcDbCircle
 10
195.7880765689
 20
131.2262317433
 30
0.0
 40
5.250000000000009
100
AcDbArc
 50
13.774146998
 51
166.225853002
  0
SPLINE
  5
2A6
330
1F
100
AcDbEntity
  8
0
  6
Continuous
 62
     7
370
    25
100
AcDbSpline
210
0.0
220
0.0
230
1.0
 70
     8
 71
     3
 72
    15
 73
    11
 74
     0
 42
0.00000001
 43
0.00000001
 40
0.0
 40
0.0
 40
0.0
 40
0.0
 40
0.0090459071881971
 40
0.1032433785236874
 40
0.1542564497735246
 40
0.3133169026715111
 40
0.5243720399414425
 40
0.6678060008509903
 40
0.9918332554187292
 40
1.0
 40
1.0
 40
1.0
 40
1.0
 10
190.5489912362136
 20
132.9001447867666
 30
0.0
 10
190.5489969281803
 20
132.9001271410421
 30
0.0
 10
190.5490618921311
 20
132.8999257456296
 30
0.0
 10
190.551057578567
 20
132.8937361249634
 30
0.0
 10
190.5588745747834
 20
132.8695341931193
 30
0.0
 10
190.5760443985384
 20
132.8165152011176
 30
0.0
 10
190.6026282951059
 20
132.735144313921
 30
0.0
 10
190.6404575935947
 20
132.6205652418986
 30
0.0
 10
190.668738373604
 20
132.5361400641791
 30
0.0
 10
190.6885695211361
 20
132.4776692062273
 30
0.0
 10
190.6890570552789
 20
132.4762317432883
 30
0.0
  0
ARC
  5
2A7
330
1F
100
AcDbEntity
  8
0
  6
Continuous
 62
     7
370
    25
100
AcDbCircle
 10
195.7880765689
 20
131.2262317433
 30
0.0
 40
5.50000000000002
100
AcDbArc
 50
17.7189318734
 51
162.2810681266
  0
ARC
  5
2A8
330
1F
100
AcDbEntity
  8
0
  6
Continuous
 62
     7
370
    25
100
AcDbCircle
 10
201.2653021439
 20
132.9762317433
 30
0.0
 40
0.25
100
AcDbArc
 50
197.7189318734
 51
270.0
  0
SPLINE
  5
2A9
330
1F
100
AcDbEntity
  8
0
  6
Continuous
 62
     7
370
    25
100
AcDbSpline
210
0.0
220
0.0
230
1.0
 70
     8
 71
     3
 72
    15
 73
    11
 74
     0
 42
0.00000001
 43
0.00000001
 40
0.0
 40
0.0
 40
0.0
 40
0.0
 40
0.0089557228015919
 40
0.0999003359608148
 40
0.153163246058169
 40
0.3125636920784848
 40
0.5249666935694999
 40
0.6689893599352451
 40
0.9919152533810159
 40
1.0
 40
1.0
 40
1.0
 40
1.0
 10
201.2653021439234
 20
132.7262317432883
 30
0.0
 10
201.2652863883448
 20
132.7262209589252
 30
0.0
 10
201.2651106361882
 20
132.7261006602597
 30
0.0
 10
201.2596816201687
 20
132.7223822093416
 30
0.0
 10
201.2381461364614
 20
132.7076711682753
 30
0.0
 10
201.1904407081965
 20
132.6752223068167
 30
0.0
 10
201.1180497632047
 20
132.6266382664733
 30
0.0
 10
201.0161306511869
 20
132.5592677942051
 30
0.0
 10
200.9407755597324
 20
132.5104542294703
 30
0.0
 10
200.8883759140087
 20
132.4770476792766
 30
0.0
 10
200.8870960824645
 20
132.4762317432883
 30
0.0
  0
ARC
  5
2AA
330
1F
100
AcDbEntity
  8
0
  6
Continuous
 62
     7
370
    25
100
AcDbCircle
 10
190.3108509938
 20
132.9762317433
 30
0.0
 40
0.25
100
AcDbArc
 50
270.0
 51
342.2810681266
  0
SPLINE
  5
2AB
330
1F
100
AcDbEntity
  8
0
  6
Continuous
 62
     7
370
    25
100
AcDbSpline
210
0.0
220
0.0
230
1.0
 70
     8
 71
     3
 72
    15
 73
    11
 74
     0
 42
0.00000001
 43
0.00000001
 40
0.0
 40
0.0
 40
0.0
 40
0.0
 40
0.0080847466189818
 40
0.3310106400647567
 40
0.4750333064304971
 40
0.6874363079215136
 40
0.8468367539418252
 40
0.9000996640391793
 40
0.9910442771984082
 40
1.0
 40
1.0
 40
1.0
 40
1.0
 10
190.6890570552789
 20
132.4762317432883
 30
0.0
 10
190.6877772237348
 20
132.4770476792766
 30
0.0
 10
190.635377578011
 20
132.5104542294702
 30
0.0
 10
190.5600224865566
 20
132.5592677942051
 30
0.0
 10
190.4581033745388
 20
132.6266382664733
 30
0.0
 10
190.3857124295469
 20
132.6752223068167
 30
0.0
 10
190.3380070012821
 20
132.7076711682753
 30
0.0
 10
190.3164715175747
 20
132.7223822093416
 30
0.0
 10
190.3110425015552
 20
132.7261006602597
 30
0.0
 10
190.3108667493987
 20
132.7262209589252
 30
0.0
 10
190.3108509938201
 20
132.7262317432883
 30
0.0
  0
SPLINE
  5
2AC
330
1F
100
AcDbEntity
  8
0
  6
Continuous
 62
     7
370
    25
100
AcDbSpline
210
0.0
220
0.0
230
1.0
 70
     8
 71
     3
 72
    15
 73
    11
 74
     0
 42
0.00000001
 43
0.00000001
 40
0.0
 40
0.0
 40
0.0
 40
0.0
 40
0.0090459071881971
 40
0.1032433785236816
 40
0.1542564497735189
 40
0.31331690267151
 40
0.5243720399414428
 40
0.6678060008509183
 40
0.9918332554187028
 40
1.0
 40
1.0
 40
1.0
 40
1.0
 10
201.0271619015298
 20
129.5523186998101
 30
0.0
 10
201.0271562095632
 20
129.5523363455345
 30
0.0
 10
201.0270912456124
 20
129.5525377409471
 30
0.0
 10
201.0250955591765
 20
129.5587273616133
 30
0.0
 10
201.01727856296
 20
129.5829292934574
 30
0.0
 10
201.0001087392051
 20
129.6359482854591
 30
0.0
 10
200.9735248426375
 20
129.7173191726557
 30
0.0
 10
200.9356955441489
 20
129.8318982446782
 30
0.0
 10
200.9074147641387
 20
129.9163234223973
 30
0.0
 10
200.8875836166074
 20
129.9747942803493
 30
0.0
 10
200.8870960824645
 20
129.9762317432883
 30
0.0
  0
ARC
  5
2AD
330
1F
100
AcDbEntity
  8
0
  6
Continuous
 62
     7
370
    25
100
AcDbCircle
 10
195.7880765689
 20
131.2262317433
 30
0.0
 40
5.500000000000029
100
AcDbArc
 50
197.7189318734
 51
342.2810681266
  0
SPLINE
  5
2AE
330
1F
100
AcDbEntity
  8
0
  6
Continuous
 62
     7
370
    25
100
AcDbSpline
210
0.0
220
0.0
230
1.0
 70
     8
 71
     3
 72
    15
 73
    11
 74
     0
 42
0.00000001
 43
0.00000001
 40
0.0
 40
0.0
 40
0.0
 40
0.0
 40
0.0081667445812973
 40
0.3321939991490803
 40
0.4756279600585559
 40
0.6866830973284893
 40
0.8457435502264752
 40
0.8967566214763125
 40
0.9909540928118029
 40
1.0
 40
1.0
 40
1.0
 40
1.0
 10
190.6890570552789
 20
129.9762317432883
 30
0.0
 10
190.6885695211361
 20
129.9747942803493
 30
0.0
 10
190.6687383736048
 20
129.9163234223973
 30
0.0
 10
190.6404575935946
 20
129.8318982446782
 30
0.0
 10
190.6026282951059
 20
129.7173191726557
 30
0.0
 10
190.5760443985384
 20
129.6359482854591
 30
0.0
 10
190.5588745747834
 20
129.5829292934574
 30
0.0
 10
190.551057578567
 20
129.5587273616133
 30
0.0
 10
190.5490618921311
 20
129.5525377409471
 30
0.0
 10
190.5489969281803
 20
129.5523363455345
 30
0.0
 10
190.5489912362136
 20
129.5523186998101
 30
0.0
  0
ARC
  5
2AF
330
1F
100
AcDbEntity
  8
0
  6
Continuous
 62
     7
370
    25
100
AcDbCircle
 10
195.7880765689
 20
131.2262317433
 30
0.0
 40
5.250000000000009
100
AcDbArc
 50
193.774146998
 51
346.225853002
  0
SPLINE
  5
2B0
330
1F
100
AcDbEntity
  8
0
  6
Continuous
 62
     7
370
    25
100
AcDbSpline
210
0.0
220
0.0
230
1.0
 70
     8
 71
     3
 72
    15
 73
    11
 74
     0
 42
0.00000001
 43
0.00000001
 40
0.0
 40
0.0
 40
0.0
 40
0.0
 40
0.0080847466189582
 40
0.3310106400648243
 40
0.4750333064304948
 40
0.6874363079215142
 40
0.8468367539418303
 40
0.9000996640391847
 40
0.9910442771984082
 40
1.0
 40
1.0
 40
1.0
 40
1.0
 10
200.8870960824645
 20
129.9762317432883
 30
0.0
 10
200.8883759140086
 20
129.9754158073
 30
0.0
 10
200.9407755597319
 20
129.9420092571055
 30
0.0
 10
201.016130651187
 20
129.8931956923717
 30
0.0
 10
201.1180497632046
 20
129.8258252201034
 30
0.0
 10
201.1904407081965
 20
129.77724117976
 30
0.0
 10
201.2381461364614
 20
129.7447923183014
 30
0.0
 10
201.2596816201687
 20
129.7300812772351
 30
0.0
 10
201.2651106361882
 20
129.726362826317
 30
0.0
 10
201.2652863883448
 20
129.7262425276515
 30
0.0
 10
201.2653021439234
 20
129.7262317432883
 30
0.0
  0
ARC
  5
2B1
330
1F
100
AcDbEntity
  8
0
  6
Continuous
 62
     7
370
    25
100
AcDbCircle
 10
201.2653021439
 20
129.4762317433
 30
0.0
 40
0.25
100
AcDbArc
 50
90.0
 51
162.2810681266
  0
SPLINE
  5
2B2
330
1F
100
AcDbEntity
  8
0
  6
Continuous
 62
     7
370
    25
100
AcDbSpline
210
0.0
220
0.0
230
1.0
 70
     8
 71
     3
 72
    15
 73
    11
 74
     0
 42
0.00000001
 43
0.00000001
 40
0.0
 40
0.0
 40
0.0
 40
0.0
 40
0.0089557228015919
 40
0.0999003359608209
 40
0.153163246058175
 40
0.3125636920784903
 40
0.524966693569506
 40
0.6689893599351777
 40
0.991915253381045
 40
1.0
 40
1.0
 40
1.0
 40
1.0
 10
190.3108509938201
 20
129.7262317432883
 30
0.0
 10
190.3108667493987
 20
129.7262425276515
 30
0.0
 10
190.3110425015552
 20
129.726362826317
 30
0.0
 10
190.3164715175747
 20
129.7300812772351
 30
0.0
 10
190.3380070012821
 20
129.7447923183014
 30
0.0
 10
190.3857124295469
 20
129.77724117976
 30
0.0
 10
190.4581033745388
 20
129.8258252201034
 30
0.0
 10
190.5600224865565
 20
129.8931956923717
 30
0.0
 10
190.6353775780115
 20
129.9420092571056
 30
0.0
 10
190.6877772237348
 20
129.9754158073
 30
0.0
 10
190.6890570552789
 20
129.9762317432883
 30
0.0
  0
ARC
  5
2B3
330
1F
100
AcDbEntity
  8
0
  6
Continuous
 62
     7
370
    25
100
AcDbCircle
 10
190.3108509938
 20
129.4762317433
 30
0.0
 40
0.25
100
AcDbArc
 50
17.7189318734
 51
90.0
  0
LINE
  5
2B4
330
1F
100
AcDbEntity
  8
0
  6
Continuous
 62
     7
370
    25
100
AcDbLine
 10
190.7880765689
 20
130.6262317433
 30
0.0
 11
200.7880765689
 21
130.6262317433
 31
0.0
  0
LINE
  5
2B5
330
1F
100
AcDbEntity
  8
0
  6
Continuous
 62
     7
370
    25
100
AcDbLine
 10
200.7880765689
 20
131.8262317433
 30
0.0
 11
190.7880765689
 21
131.8262317433
 31
0.0
  0
LINE
  5
2B6
330
1F
100
AcDbEntity
  8
0
  6
Continuous
 62
     7
370
    25
100
AcDbLine
 10
200.7880765689
 20
130.6262317433
 30
0.0
 11
200.7880765689
 21
131.8262317433
 31
0.0
  0
LINE
  5
2B7
330
1F
100
AcDbEntity
  8
0
  6
Continuous
 62
     7
370
    25
100
AcDbLine
 10
190.7880765689
 20
131.8262317433
 30
0.0
 11
190.7880765689
 21
130.6262317433
 31
0.0
  0
LINE
  5
2B8
330
1F
100
AcDbEntity
  8
0
  6
Continuous
 62
     7
370
    25
100
AcDbLine
 10
201.5380765689
 20
132.4762317433
 30
0.0
 11
200.8870960825
 21
132.4762317433
 31
0.0
  0
LINE
  5
2B9
330
1F
100
AcDbEntity
  8
0
  6
Continuous
 62
     7
370
    25
100
AcDbLine
 10
201.5380765689
 20
129.9762317433
 30
0.0
 11
201.5380765689
 21
132.4762317433
 31
0.0
  0
LINE
  5
2BA
330
1F
100
AcDbEntity
  8
0
  6
Continuous
 62
     7
370
    25
100
AcDbLine
 10
200.8870960825
 20
129.9762317433
 30
0.0
 11
201.5380765689
 21
129.9762317433
 31
0.0
  0
LINE
  5
2BB
330
1F
100
AcDbEntity
  8
0
  6
Continuous
 62
     7
370
    25
100
AcDbLine
 10
190.0380765689
 20
129.9762317433
 30
0.0
 11
190.6890570553
 21
129.9762317433
 31
0.0
  0
LINE
  5
2BC
330
1F
100
AcDbEntity
  8
0
  6
Continuous
 62
     7
370
    25
100
AcDbLine
 10
190.0380765689
 20
132.4762317433
 30
0.0
 11
190.0380765689
 21
129.9762317433
 31
0.0
  0
LINE
  5
2BD
330
1F
100
AcDbEntity
  8
0
  6
Continuous
 62
     7
370
    25
100
AcDbLine
 10
190.6890570553
 20
132.4762317433
 30
0.0
 11
190.0380765689
 21
132.4762317433
 31
0.0
  0
LINE
  5
2BE
330
1F
100
AcDbEntity
  8
0
  6
Continuous
 62
     7
370
    25
100
AcDbLine
 10
190.0380765689
 20
132.7262317433
 30
0.0
 11
190.0380765689
 21
132.4762317433
 31
0.0
  0
LINE
  5
2BF
330
1F
100
AcDbEntity
  8
0
  6
Continuous
 62
     7
370
    25
100
AcDbLine
 10
190.0380765689
 20
132.4762317433
 30
0.0
 11
189.7880765689
 21
132.4762317433
 31
0.0
  0
ARC
  5
2C0
330
1F
100
AcDbEntity
  8
0
  6
Continuous
 62
     7
370
    25
100
AcDbCircle
 10
190.0380765689
 20
132.4762317433
 30
0.0
 40
0.25
100
AcDbArc
 50
90.0
 51
180.0
  0
ARC
  5
2C1
330
1F
100
AcDbEntity
  8
0
  6
Continuous
 62
     7
370
    25
100
AcDbCircle
 10
201.5380765689
 20
132.4762317433
 30
0.0
 40
0.25
100
AcDbArc
 50
0.0
 51
90.0
  0
LINE
  5
2C2
330
1F
100
AcDbEntity
  8
0
  6
Continuous
 62
     7
370
    25
100
AcDbLine
 10
201.7880765689
 20
132.4762317433
 30
0.0
 11
201.5380765689
 21
132.4762317433
 31
0.0
  0
LINE
  5
2C3
330
1F
100
AcDbEntity
  8
0
  6
Continuous
 62
     7
370
    25
100
AcDbLine
 10
201.5380765689
 20
132.4762317433
 30
0.0
 11
201.5380765689
 21
132.7262317433
 31
0.0
  0
LINE
  5
2C4
330
1F
100
AcDbEntity
  8
0
  6
Continuous
 62
     7
370
    25
100
AcDbLine
 10
201.2653021439
 20
132.7262317433
 30
0.0
 11
201.5380765689
 21
132.7262317433
 31
0.0
  0
LINE
  5
2C5
330
1F
100
AcDbEntity
  8
0
  6
Continuous
 62
     7
370
    25
100
AcDbLine
 10
190.0380765689
 20
132.7262317433
 30
0.0
 11
190.3108509938
 21
132.7262317433
 31
0.0
  0
LINE
  5
2C6
330
1F
100
AcDbEntity
  8
0
  6
Continuous
 62
     7
370
    25
100
AcDbLine
 10
201.7880765689
 20
132.4762317433
 30
0.0
 11
201.7880765689
 21
129.9762317433
 31
0.0
  0
LINE
  5
2C7
330
1F
100
AcDbEntity
  8
0
  6
Continuous
 62
     7
370
    25
100
AcDbLine
 10
201.5380765689
 20
129.9762317433
 30
0.0
 11
201.7880765689
 21
129.9762317433
 31
0.0
  0
LINE
  5
2C8
330
1F
100
AcDbEntity
  8
0
  6
Continuous
 62
     7
370
    25
100
AcDbLine
 10
189.7880765689
 20
129.9762317433
 30
0.0
 11
190.0380765689
 21
129.9762317433
 31
0.0
  0
LINE
  5
2C9
330
1F
100
AcDbEntity
  8
0
  6
Continuous
 62
     7
370
    25
100
AcDbLine
 10
189.7880765689
 20
129.9762317433
 30
0.0
 11
189.7880765689
 21
132.4762317433
 31
0.0
  0
ARC
  5
2CA
330
1F
100
AcDbEntity
  8
0
  6
Continuous
 62
     7
370
    25
100
AcDbCircle
 10
201.5380765689
 20
129.9762317433
 30
0.0
 40
0.25
100
AcDbArc
 50
270.0
 51
0.0
  0
LINE
  5
2CB
330
1F
100
AcDbEntity
  8
0
  6
Continuous
 62
     7
370
    25
100
AcDbLine
 10
201.5380765689
 20
129.7262317433
 30
0.0
 11
201.5380765689
 21
129.9762317433
 31
0.0
  0
LINE
  5
2CC
330
1F
100
AcDbEntity
  8
0
  6
Continuous
 62
     7
370
    25
100
AcDbLine
 10
190.3108509938
 20
129.7262317433
 30
0.0
 11
190.0380765689
 21
129.7262317433
 31
0.0
  0
LINE
  5
2CD
330
1F
100
AcDbEntity
  8
0
  6
Continuous
 62
     7
370
    25
100
AcDbLine
 10
190.0380765689
 20
129.9762317433
 30
0.0
 11
190.0380765689
 21
129.7262317433
 31
0.0
  0
LINE
  5
2CE
330
1F
100
AcDbEntity
  8
0
  6
Continuous
 62
     7
370
    25
100
AcDbLine
 10
201.5380765689
 20
129.7262317433
 30
0.0
 11
201.2653021439
 21
129.7262317433
 31
0.0
  0
ARC
  5
2CF
330
1F
100
AcDbEntity
  8
0
  6
Continuous
 62
     7
370
    25
100
AcDbCircle
 10
190.0380765689
 20
129.9762317433
 30
0.0
 40
0.25
100
AcDbArc
 50
180.0
 51
270.0
  0
LINE
  5
2D0
330
1F
100
AcDbEntity
  8
0
  6
Continuous
 62
     7
370
    25
100
AcDbLine
 10
166.8789731033
 20
140.5762317433
 30
0.0
 11
166.8789731033
 21
134.7262317433
 31
0.0
  0
LINE
  5
2D1
330
1F
100
AcDbEntity
  8
0
  6
Continuous
 62
     7
370
    25
100
AcDbLine
 10
166.8789731033
 20
127.7262317433
 30
0.0
 11
166.8789731033
 21
121.8762317433
 31
0.0
  0
LINE
  5
2D2
330
1F
100
AcDbEntity
  8
0
  6
Continuous
 62
     7
370
    25
100
AcDbLine
 10
180.2789731033
 20
121.8762317433
 30
0.0
 11
180.2789731033
 21
127.3834819095
 31
0.0
  0
LINE
  5
2D3
330
1F
100
AcDbEntity
  8
0
  6
Continuous
 62
     7
370
    25
100
AcDbLine
 10
180.2789731033
 20
135.0689815771
 30
0.0
 11
180.2789731033
 21
140.5762317433
 31
0.0
  0
SPLINE
  5
2D4
330
1F
100
AcDbEntity
  8
0
  6
Continuous
 62
     7
370
    25
100
AcDbSpline
210
0.0
220
0.0
230
1.0
 70
     8
 71
     3
 72
    11
 73
     7
 74
     0
 42
0.00000001
 43
0.00000001
 40
0.0
 40
0.0
 40
0.0
 40
0.0
 40
0.182945098365438
 40
0.5571371855744949
 40
0.9317062879569865
 40
1.0
 40
1.0
 40
1.0
 40
1.0
 10
203.5171626359738
 20
122.4637705635385
 30
0.0
 10
203.4861387918767
 20
122.4489724069054
 30
0.0
 10
203.3916594243484
 20
122.4039064094452
 30
0.0
 10
203.3235162408425
 20
122.3406343438741
 30
0.0
 10
203.2972185283355
 20
122.2847470396572
 30
0.0
 10
203.2961889716041
 20
122.2755392222223
 30
0.0
 10
203.2960302040385
 20
122.2741192880757
 30
0.0
  0
SPLINE
  5
2D5
330
1F
100
AcDbEntity
  8
0
  6
Continuous
 62
     7
370
    25
100
AcDbSpline
210
0.0
220
0.0
230
1.0
 70
     8
 71
     3
 72
    11
 73
     7
 74
     0
 42
0.00000001
 43
0.00000001
 40
0.0
 40
0.0
 40
0.0
 40
0.0
 40
0.0631451044874329
 40
0.4402924664315869
 40
0.8170552935895093
 40
0.9999999999999999
 40
0.9999999999999999
 40
0.9999999999999999
 40
0.9999999999999999
 10
203.2958681738508
 20
140.178655098456
 30
0.0
 10
203.2960182306654
 20
140.1773407887162
 30
0.0
 10
203.2970645332335
 20
140.1681764887804
 30
0.0
 10
203.3230150378749
 20
140.1123051702103
 30
0.0
 10
203.3912346591134
 20
140.0487678373688
 30
0.0
 10
203.4861415799325
 20
140.0034917575036
 30
0.0
 10
203.5171626359738
 20
139.9886929230382
 30
0.0
  0
SPLINE
  5
2D6
330
1F
100
AcDbEntity
  8
0
  6
Continuous
 62
     7
370
    25
100
AcDbSpline
210
0.0
220
0.0
230
1.0
 70
     8
 71
     3
 72
    11
 73
     7
 74
     0
 42
0.00000001
 43
0.00000001
 40
0.0
 40
0.0
 40
0.0
 40
0.0
 40
0.1829450983654378
 40
0.5571371855744948
 40
0.9317062879569865
 40
1.0
 40
1.0
 40
1.0
 40
1.0
 10
188.0589905017697
 20
139.9886929230382
 30
0.0
 10
188.0900143458668
 20
140.0034910796713
 30
0.0
 10
188.1844937133951
 20
140.0485570771315
 30
0.0
 10
188.252636896901
 20
140.1118291427026
 30
0.0
 10
188.2789346094079
 20
140.1677164469195
 30
0.0
 10
188.2799641661393
 20
140.1769242643544
 30
0.0
 10
188.2801229337049
 20
140.178344198501
 30
0.0
  0
SPLINE
  5
2D7
330
1F
100
AcDbEntity
  8
0
  6
Continuous
 62
     7
370
    25
100
AcDbSpline
210
0.0
220
0.0
230
1.0
 70
     8
 71
     3
 72
    11
 73
     7
 74
     0
 42
0.00000001
 43
0.00000001
 40
0.0
 40
0.0
 40
0.0
 40
0.0
 40
0.0631451044874329
 40
0.4402924664315868
 40
0.8170552935895091
 40
1.0
 40
1.0
 40
1.0
 40
1.0
 10
188.2802849638926
 20
122.2738083881207
 30
0.0
 10
188.2801349070781
 20
122.2751226978605
 30
0.0
 10
188.27908860451
 20
122.2842869977963
 30
0.0
 10
188.2531380998686
 20
122.3401583163664
 30
0.0
 10
188.1849184786301
 20
122.4036956492079
 30
0.0
 10
188.090011557811
 20
122.4489717290731
 30
0.0
 10
188.0589905017697
 20
122.4637705635385
 30
0.0
  0
LINE
  5
2D8
330
1F
100
AcDbEntity
  8
0
  6
Continuous
 62
     7
370
    25
100
AcDbLine
 10
202.7880765689
 20
124.4981007314
 30
0.0
 11
202.7880765689
 21
128.6762317433
 31
0.0
  0
LINE
  5
2D9
330
1F
100
AcDbEntity
  8
0
  6
Continuous
 62
     7
370
    25
100
AcDbLine
 10
202.7880765689
 20
133.7762317433
 30
0.0
 11
202.7880765689
 21
137.9543627552
 31
0.0
  0
LINE
  5
2DA
330
1F
100
AcDbEntity
  8
0
  6
Continuous
 62
     7
370
    25
100
AcDbLine
 10
188.7880765689
 20
137.9543627552
 30
0.0
 11
188.7880765689
 21
136.5225442238
 31
0.0
  0
LINE
  5
2DB
330
1F
100
AcDbEntity
  8
0
  6
Continuous
 62
     7
370
    25
100
AcDbLine
 10
188.7880765689
 20
125.9299192628
 30
0.0
 11
188.7880765689
 21
124.4981007314
 31
0.0
  0
LINE
  5
2DC
330
1F
100
AcDbEntity
  8
0
  6
Continuous
 62
     7
370
    25
100
AcDbLine
 10
202.7880765689
 20
137.9543627552
 30
0.0
 11
198.9872566336
 21
137.9543627552
 31
0.0
  0
LINE
  5
2DD
330
1F
100
AcDbEntity
  8
0
  6
Continuous
 62
     7
370
    25
100
AcDbLine
 10
192.5888965042
 20
137.9543627552
 30
0.0
 11
188.7880765689
 21
137.9543627552
 31
0.0
  0
LINE
  5
2DE
330
1F
100
AcDbEntity
  8
0
  6
Continuous
 62
     7
370
    25
100
AcDbLine
 10
188.7880765689
 20
124.4981007314
 30
0.0
 11
192.5888965042
 21
124.4981007314
 31
0.0
  0
LINE
  5
2DF
330
1F
100
AcDbEntity
  8
0
  6
Continuous
 62
     7
370
    25
100
AcDbLine
 10
198.9872566336
 20
124.4981007314
 30
0.0
 11
202.7880765689
 21
124.4981007314
 31
0.0
  0
LINE
  5
2E0
330
1F
100
AcDbEntity
  8
0
  6
Continuous
 62
     7
370
    25
100
AcDbLine
 10
188.7880765689
 20
138.3501351677
 30
0.0
 11
193.6080536332
 21
138.3501351677
 31
0.0
  0
LINE
  5
2E1
330
1F
100
AcDbEntity
  8
0
  6
Continuous
 62
     7
370
    25
100
AcDbLine
 10
197.9680995046
 20
138.3501351677
 30
0.0
 11
202.7880765689
 21
138.3501351677
 31
0.0
  0
LINE
  5
2E2
330
1F
100
AcDbEntity
  8
0
  6
Continuous
 62
     7
370
    25
100
AcDbLine
 10
202.7880765689
 20
124.1023283189
 30
0.0
 11
197.9680995046
 21
124.1023283189
 31
0.0
  0
LINE
  5
2E3
330
1F
100
AcDbEntity
  8
0
  6
Continuous
 62
     7
370
    25
100
AcDbLine
 10
193.6080536332
 20
124.1023283189
 30
0.0
 11
188.7880765689
 21
124.1023283189
 31
0.0
  0
INSERT
  5
2EF
330
1F
100
AcDbEntity
  8
0
  6
Continuous
 62
     7
370
    18
100
AcDbBlockReference
  2
SW_CENTERMARKSYMBOL_1
 10
195.7880765689
 20
131.2262317433
 30
0.0
  0
LINE
  5
2F0
330
1F
100
AcDbEntity
  8
0
  6
Continuous
 62
     7
370
    18
100
AcDbLine
 10
206.2880765689
 20
123.5191664131
 30
0.0
 11
215.0369501671
 21
123.792568713
 31
0.0
  0
LINE
  5
2F1
330
1F
100
AcDbEntity
  8
0
  6
Continuous
 62
     7
370
    18
100
AcDbLine
 10
215.0369501671
 20
138.6598947735
 30
0.0
 11
206.2880765689
 21
138.9332970735
 31
0.0
  0
LINE
  5
2F2
330
1F
100
AcDbEntity
  8
0
  6
Continuous
 62
     7
370
    18
100
AcDbLine
 10
182.7880765689
 20
138.6762317433
 30
0.0
 11
180.5789731033
 21
138.6762317433
 31
0.0
  0
LINE
  5
2F3
330
1F
100
AcDbEntity
  8
0
  6
Continuous
 62
     7
370
    18
100
AcDbLine
 10
180.5789731033
 20
123.7762317433
 30
0.0
 11
182.7880765689
 21
123.7762317433
 31
0.0
  0
LINE
  5
2F4
330
1F
100
AcDbEntity
  8
0
  6
Continuous
 62
     7
370
    25
100
AcDbLine
 10
182.7880765689
 20
139.5572317433
 30
0.0
 11
182.7880765689
 21
139.5461855861
 31
0.0
  0
SPLINE
  5
2F5
330
1F
100
AcDbEntity
  8
0
  6
Continuous
 62
     7
370
     0
100
AcDbSpline
210
0.0
220
0.0
230
1.0
 70
     8
 71
     3
 72
    17
 73
    13
 74
     0
 42
0.00000001
 43
0.00000001
 40
0.0
 40
0.0
 40
0.0
 40
0.0
 40
0.1032363489516597
 40
0.2064726976322556
 40
0.3097090463128516
 40
0.4129453949934475
 40
0.516181743674045
 40
0.6194180923546401
 40
0.7226544410352364
 40
0.8258907897158307
 40
0.9291271383964267
 40
1.0
 40
1.0
 40
1.0
 40
1.0
 10
182.7880144119263
 20
139.5461855861189
 30
0.0
 10
182.7880765688718
 20
139.4579920056231
 30
0.0
 10
182.7880765688718
 20
139.2825397185248
 30
0.0
 10
182.7880765688718
 20
139.0216885627147
 30
0.0
 10
182.7880765688718
 20
138.6782036253364
 30
0.0
 10
182.7880765688718
 20
138.2557259321752
 30
0.0
 10
182.7880765688718
 20
137.7587338518789
 30
0.0
 10
182.7880765688718
 20
137.1924956241355
 30
0.0
 10
182.7880765688718
 20
136.5630135150228
 30
0.0
 10
182.7880765688718
 20
135.8769601914941
 30
0.0
 10
182.7880765688718
 20
135.3770953201788
 30
0.0
 10
182.7880765689494
 20
135.5452560339538
 30
0.0
 10
182.7880765688718
 20
135.3770953201788
 30
0.0
  0
SPLINE
  5
2F6
330
1F
100
AcDbEntity
  8
0
  6
Continuous
 62
     7
370
     0
100
AcDbSpline
210
0.0
220
0.0
230
1.0
 70
     8
 71
     3
 72
    18
 73
    14
 74
     0
 42
0.00000001
 43
0.00000001
 40
0.0
 40
0.0
 40
0.0
 40
0.0
 40
0.0183017773758336
 40
0.1164715996382506
 40
0.2146414219006678
 40
0.3128112441630863
 40
0.4109810664255044
 40
0.509150888687923
 40
0.607320710950341
 40
0.7054905332127592
 40
0.8036603554751771
 40
0.9018301777375952
 40
1.0
 40
1.0
 40
1.0
 40
1.0
 10
182.7880144119263
 20
127.0753681663978
 30
0.0
 10
182.7880765688718
 20
126.9374929139098
 30
0.0
 10
182.7880765688718
 20
126.2258465720398
 30
0.0
 10
182.7880765688718
 20
125.5672055569349
 30
0.0
 10
182.7880765688718
 20
124.968551627206
 30
0.0
 10
182.7880765688718
 20
124.4362306634357
 30
0.0
 10
182.7880765688718
 20
123.975885400266
 30
0.0
 10
182.7880765688718
 20
123.592395612007
 30
0.0
 10
182.7880765688718
 20
123.2898263858153
 30
0.0
 10
182.7880765688718
 20
123.0713850307589
 30
0.0
 10
182.7880765688718
 20
122.9393870795432
 30
0.0
 10
182.7880765688718
 20
122.8952317432883
 30
0.0
 10
182.7880765685228
 20
122.9037444823337
 30
0.0
 10
182.7880765688718
 20
122.8952317432883
 30
0.0
  0
ENDSEC
  0
SECTION
  2
OBJECTS
  0
DICTIONARY
  5
C
330
0
100
AcDbDictionary
281
     1
  3
ACAD_GROUP
350
D
  3
ACAD_LAYOUT
350
1A
  3
ACAD_MLINESTYLE
350
17
  3
ACAD_PLOTSETTINGS
350
19
  3
ACAD_PLOTSTYLENAME
350
E
  3
ACAD_SCALELIST
350
47
  3
DWGPROPS
350
2F7
  0
DICTIONARY
  5
D
102
{ACAD_REACTORS
330
C
102
}
330
C
100
AcDbDictionary
281
     1
  0
DICTIONARY
  5
1A
102
{ACAD_REACTORS
330
C
102
}
330
C
100
AcDbDictionary
281
     1
  3
Layout1
350
1E
  3
Layout2
350
26
  3
Model
350
22
  0
DICTIONARY
  5
17
102
{ACAD_REACTORS
330
C
102
}
330
C
100
AcDbDictionary
281
     1
  3
Standard
350
18
  0
DICTIONARY
  5
19
102
{ACAD_REACTORS
330
C
102
}
330
C
100
AcDbDictionary
281
     1
  0
ACDBDICTIONARYWDFLT
  5
E
102
{ACAD_REACTORS
330
C
102
}
330
C
100
AcDbDictionary
281
     1
  3
Normal
350
F
100
AcDbDictionaryWithDefault
340
F
  0
DICTIONARY
  5
47
102
{ACAD_REACTORS
330
C
102
}
330
C
100
AcDbDictionary
281
     1
  3
A0
350
48
  3
A1
350
49
  3
A2
350
4A
  3
A3
350
4B
  3
A4
350
4C
  3
A5
350
4D
  3
A6
350
4E
  3
A7
350
4F
  3
A8
350
50
  3
A9
350
51
  3
B0
350
52
  3
B1
350
53
  3
B2
350
54
  3
B3
350
55
  3
B4
350
56
  3
B5
350
57
  3
B6
350
58
  0
XRECORD
  5
2F7
102
{ACAD_REACTORS
330
C
102
}
330
C
100
AcDbXrecord
280
     1
  1
DWGPROPS COOKIE
  2

  3

  4

  6

  7

  8
user28
  9

300
=
301
=
302
=
303
=
304
=
305
=
306
=
307
=
308
=
309
=
 40
0.0
 41
2460159.307344607
 42
2460159.307345301
  1

 90
        0
  0
LAYOUT
  5
1E
102
{ACAD_REACTORS
330
1A
102
}
330
1A
100
AcDbPlotSettings
  1

  2
none_device
  4

  6

 40
0.0
 41
0.0
 42
0.0
 43
0.0
 44
0.0
 45
0.0
 46
0.0
 47
0.0
 48
0.0
 49
0.0
140
0.0
141
0.0
142
1.0
143
1.0
 70
   688
 72
     1
 73
     0
 74
     5
  7

 75
    16
147
1.0
148
0.0
149
0.0
100
AcDbLayout
  1
Layout1
 70
     1
 71
     1
 10
0.0
 20
0.0
 11
420.0
 21
297.0
 12
0.0
 22
0.0
 32
0.0
 14
1.0000000000E+20
 24
1.0000000000E+20
 34
1.0000000000E+20
 15
-1.0000000000E+20
 25
-1.0000000000E+20
 35
-1.0000000000E+20
146
0.0
 13
0.0
 23
0.0
 33
0.0
 16
1.0
 26
0.0
 36
0.0
 17
0.0
 27
1.0
 37
0.0
 76
     0
330
1B
  0
LAYOUT
  5
26
102
{ACAD_REACTORS
330
1A
102
}
330
1A
100
AcDbPlotSettings
  1

  2
none_device
  4

  6

 40
0.0
 41
0.0
 42
0.0
 43
0.0
 44
0.0
 45
0.0
 46
0.0
 47
0.0
 48
0.0
 49
0.0
140
0.0
141
0.0
142
1.0
143
1.0
 70
   688
 72
     1
 73
     0
 74
     5
  7

 75
    16
147
1.0
148
0.0
149
0.0
100
AcDbLayout
  1
Layout2
 70
     1
 71
     2
 10
0.0
 20
0.0
 11
0.0
 21
0.0
 12
0.0
 22
0.0
 32
0.0
 14
0.0
 24
0.0
 34
0.0
 15
0.0
 25
0.0
 35
0.0
146
0.0
 13
0.0
 23
0.0
 33
0.0
 16
1.0
 26
0.0
 36
0.0
 17
0.0
 27
1.0
 37
0.0
 76
     0
330
23
  0
LAYOUT
  5
22
102
{ACAD_REACTORS
330
1A
102
}
330
1A
100
AcDbPlotSettings
  1

  2
none_device
  4
Letter_(8.50_x_11.00_Inches)
  6

 40
6.35
 41
6.35
 42
6.35000508
 43
6.35000508
 44
215.9
 45
279.4
 46
0.0
 47
0.0
 48
0.0
 49
0.0
140
0.0
141
0.0
142
1.0
143
1.0
 70
  1712
 72
     1
 73
     0
 74
     0
  7

 75
     0
147
1.0
148
0.0
149
0.0
100
AcDbLayout
  1
Model
 70
     1
 71
     0
 10
0.0
 20
0.0
 11
431.8
 21
279.4
 12
0.0
 22
0.0
 32
0.0
 14
0.0
 24
0.0
 34
0.0
 15
431.8
 25
279.4
 35
0.0
146
0.0
 13
0.0
 23
0.0
 33
0.0
 16
1.0
 26
0.0
 36
0.0
 17
0.0
 27
1.0
 37
0.0
 76
     0
330
1F
331
29
  0
MLINESTYLE
  5
18
102
{ACAD_REACTORS
330
17
102
}
330
17
100
AcDbMlineStyle
  2
Standard
 70
     0
  3

 62
   256
 51
90.0
 52
90.0
 71
     2
 49
0.5
 62
   256
  6
BYLAYER
 49
-0.5
 62
   256
  6
BYLAYER
  0
ACDBPLACEHOLDER
  5
F
102
{ACAD_REACTORS
330
E
102
}
330
E
  0
SCALE
  5
48
102
{ACAD_REACTORS
330
47
102
}
330
47
100
AcDbScale
 70
     0
300
1:1
140
1.0
141
1.0
290
     1
  0
SCALE
  5
49
102
{ACAD_REACTORS
330
47
102
}
330
47
100
AcDbScale
 70
     0
300
1:2
140
1.0
141
2.0
290
     0
  0
SCALE
  5
4A
102
{ACAD_REACTORS
330
47
102
}
330
47
100
AcDbScale
 70
     0
300
1:4
140
1.0
141
4.0
290
     0
  0
SCALE
  5
4B
102
{ACAD_REACTORS
330
47
102
}
330
47
100
AcDbScale
 70
     0
300
1:5
140
1.0
141
5.0
290
     0
  0
SCALE
  5
4C
102
{ACAD_REACTORS
330
47
102
}
330
47
100
AcDbScale
 70
     0
300
1:8
140
1.0
141
8.0
290
     0
  0
SCALE
  5
4D
102
{ACAD_REACTORS
330
47
102
}
330
47
100
AcDbScale
 70
     0
300
1:10
140
1.0
141
10.0
290
     0
  0
SCALE
  5
4E
102
{ACAD_REACTORS
330
47
102
}
330
47
100
AcDbScale
 70
     0
300
1:16
140
1.0
141
16.0
290
     0
  0
SCALE
  5
4F
102
{ACAD_REACTORS
330
47
102
}
330
47
100
AcDbScale
 70
     0
300
1:20
140
1.0
141
20.0
290
     0
  0
SCALE
  5
50
102
{ACAD_REACTORS
330
47
102
}
330
47
100
AcDbScale
 70
     0
300
1:30
140
1.0
141
30.0
290
     0
  0
SCALE
  5
51
102
{ACAD_REACTORS
330
47
102
}
330
47
100
AcDbScale
 70
     0
300
1:40
140
1.0
141
40.0
290
     0
  0
SCALE
  5
52
102
{ACAD_REACTORS
330
47
102
}
330
47
100
AcDbScale
 70
     0
300
1:50
140
1.0
141
50.0
290
     0
  0
SCALE
  5
53
102
{ACAD_REACTORS
330
47
102
}
330
47
100
AcDbScale
 70
     0
300
1:100
140
1.0
141
100.0
290
     0
  0
SCALE
  5
54
102
{ACAD_REACTORS
330
47
102
}
330
47
100
AcDbScale
 70
     0
300
2:1
140
2.0
141
1.0
290
     0
  0
SCALE
  5
55
102
{ACAD_REACTORS
330
47
102
}
330
47
100
AcDbScale
 70
     0
300
4:1
140
4.0
141
1.0
290
     0
  0
SCALE
  5
56
102
{ACAD_REACTORS
330
47
102
}
330
47
100
AcDbScale
 70
     0
300
8:1
140
8.0
141
1.0
290
     0
  0
SCALE
  5
57
102
{ACAD_REACTORS
330
47
102
}
330
47
100
AcDbScale
 70
     0
300
10:1
140
10.0
141
1.0
290
     0
  0
SCALE
  5
58
102
{ACAD_REACTORS
330
47
102
}
330
47
100
AcDbScale
 70
     0
300
100:1
140
100.0
141
1.0
290
     0
  0
ENDSEC
  0
EOF
