  0
SECTION
  2
HEADER
  9
$ACADVER
  1
AC1015
  9
$ACADMAINTVER
 70
     6
  9
$DWGCODEPAGE
  3
DOS932
  9
$INSBASE
 10
0.0
 20
0.0
 30
0.0
  9
$EXTMIN
 10
0.0
 20
0.0
 30
0.0
  9
$EXTMAX
 10
431.8
 20
279.4
 30
0.0
  9
$LIMMIN
 10
0.0
 20
0.0
  9
$LIMMAX
 10
431.8
 20
279.4
  9
$ORTHOMODE
 70
     0
  9
$REGENMODE
 70
     1
  9
$FILLMODE
 70
     1
  9
$QTEXTMODE
 70
     0
  9
$MIRRTEXT
 70
     1
  9
$LTSCALE
 40
1.0
  9
$ATTMODE
 70
     1
  9
$TEXTSIZE
 40
3.5
  9
$TRACEWID
 40
1.0
  9
$TEXTSTYLE
  7
Standard
  9
$CLAYER
  8
0
  9
$CELTYPE
  6
ByLayer
  9
$CECOLOR
 62
   256
  9
$CELTSCALE
 40
1.0
  9
$DISPSILH
 70
     0
  9
$DIMSCALE
 40
1.0
  9
$DIMASZ
 40
3.556
  9
$DIMEXO
 40
1.0
  9
$DIMDLI
 40
3.75
  9
$DIMRND
 40
0.0
  9
$DIMDLE
 40
0.0
  9
$DIMEXE
 40
1.0
  9
$DIMTP
 40
0.0
  9
$DIMTM
 40
0.0
  9
$DIMTXT
 40
3.5
  9
$DIMCEN
 40
2.5
  9
$DIMTSZ
 40
0.0
  9
$DIMTOL
 70
     0
  9
$DIMLIM
 70
     0
  9
$DIMTIH
 70
     1
  9
$DIMTOH
 70
     1
  9
$DIMSE1
 70
     0
  9
$DIMSE2
 70
     0
  9
$DIMTAD
 70
     1
  9
$DIMZIN
 70
     0
  9
$DIMBLK
  1

  9
$DIMASO
 70
     1
  9
$DIMSHO
 70
     1
  9
$DIMPOST
  1

  9
$DIMAPOST
  1

  9
$DIMALT
 70
     0
  9
$DIMALTD
 70
     3
  9
$DIMALTF
 40
0.0393700787
  9
$DIMLFAC
 40
1.0
  9
$DIMTOFL
 70
     1
  9
$DIMTVP
 40
0.0
  9
$DIMTIX
 70
     0
  9
$DIMSOXD
 70
     0
  9
$DIMSAH
 70
     0
  9
$DIMBLK1
  1

  9
$DIMBLK2
  1

  9
$DIMSTYLE
  2
ISO-25
  9
$DIMCLRD
 70
     0
  9
$DIMCLRE
 70
     0
  9
$DIMCLRT
 70
     0
  9
$DIMTFAC
 40
1.0
  9
$DIMGAP
 40
1.524
  9
$DIMJUST
 70
     0
  9
$DIMSD1
 70
     0
  9
$DIMSD2
 70
     0
  9
$DIMTOLJ
 70
     0
  9
$DIMTZIN
 70
     0
  9
$DIMALTZ
 70
     0
  9
$DIMALTTZ
 70
     0
  9
$DIMUPT
 70
     0
  9
$DIMDEC
 70
     3
  9
$DIMTDEC
 70
     3
  9
$DIMALTU
 70
     2
  9
$DIMALTTD
 70
     3
  9
$DIMTXSTY
  7
Standard
  9
$DIMAUNIT
 70
     0
  9
$DIMADEC
 70
     2
  9
$DIMALTRND
 40
0.0
  9
$DIMAZIN
 70
     0
  9
$DIMDSEP
 70
    44
  9
$DIMATFIT
 70
     3
  9
$DIMFRAC
 70
     0
  9
$DIMLDRBLK
  1

  9
$DIMLUNIT
 70
     2
  9
$DIMLWD
 70
    -2
  9
$DIMLWE
 70
    -2
  9
$DIMTMOVE
 70
     0
  9
$LUNITS
 70
     2
  9
$LUPREC
 70
     3
  9
$SKETCHINC
 40
1.0
  9
$FILLETRAD
 40
0.0
  9
$AUNITS
 70
     0
  9
$AUPREC
 70
     2
  9
$MENU
  1
.
  9
$ELEVATION
 40
0.0
  9
$PELEVATION
 40
0.0
  9
$THICKNESS
 40
0.0
  9
$LIMCHECK
 70
     0
  9
$CHAMFERA
 40
0.0
  9
$CHAMFERB
 40
0.0
  9
$CHAMFERC
 40
0.0
  9
$CHAMFERD
 40
0.0
  9
$SKPOLY
 70
     0
  9
$TDCREATE
 40
2460159.680928553
  9
$TDUCREATE
 40
2460159.305928553
  9
$TDUPDATE
 40
2460159.680929444
  9
$TDUUPDATE
 40
2460159.305929444
  9
$TDINDWG
 40
0.0000000116
  9
$TDUSRTIMER
 40
0.0000000116
  9
$USRTIMER
 70
     1
  9
$ANGBASE
 50
0.0
  9
$ANGDIR
 70
     0
  9
$PDMODE
 70
     0
  9
$PDSIZE
 40
-1.0
  9
$PLINEWID
 40
0.0
  9
$SPLFRAME
 70
     0
  9
$SPLINETYPE
 70
     6
  9
$SPLINESEGS
 70
     8
  9
$HANDSEED
  5
2F0
  9
$SURFTAB1
 70
     6
  9
$SURFTAB2
 70
     6
  9
$SURFTYPE
 70
     6
  9
$SURFU
 70
     6
  9
$SURFV
 70
     6
  9
$UCSBASE
  2

  9
$UCSNAME
  2

  9
$UCSORG
 10
0.0
 20
0.0
 30
0.0
  9
$UCSXDIR
 10
1.0
 20
0.0
 30
0.0
  9
$UCSYDIR
 10
0.0
 20
1.0
 30
0.0
  9
$UCSORTHOREF
  2

  9
$UCSORTHOVIEW
 70
     0
  9
$UCSORGTOP
 10
0.0
 20
0.0
 30
0.0
  9
$UCSORGBOTTOM
 10
0.0
 20
0.0
 30
0.0
  9
$UCSORGLEFT
 10
0.0
 20
0.0
 30
0.0
  9
$UCSORGRIGHT
 10
0.0
 20
0.0
 30
0.0
  9
$UCSORGFRONT
 10
0.0
 20
0.0
 30
0.0
  9
$UCSORGBACK
 10
0.0
 20
0.0
 30
0.0
  9
$PUCSBASE
  2

  9
$PUCSNAME
  2

  9
$PUCSORG
 10
0.0
 20
0.0
 30
0.0
  9
$PUCSXDIR
 10
1.0
 20
0.0
 30
0.0
  9
$PUCSYDIR
 10
0.0
 20
1.0
 30
0.0
  9
$PUCSORTHOREF
  2

  9
$PUCSORTHOVIEW
 70
     0
  9
$PUCSORGTOP
 10
0.0
 20
0.0
 30
0.0
  9
$PUCSORGBOTTOM
 10
0.0
 20
0.0
 30
0.0
  9
$PUCSORGLEFT
 10
0.0
 20
0.0
 30
0.0
  9
$PUCSORGRIGHT
 10
0.0
 20
0.0
 30
0.0
  9
$PUCSORGFRONT
 10
0.0
 20
0.0
 30
0.0
  9
$PUCSORGBACK
 10
0.0
 20
0.0
 30
0.0
  9
$USERI1
 70
     0
  9
$USERI2
 70
     0
  9
$USERI3
 70
     0
  9
$USERI4
 70
     0
  9
$USERI5
 70
     0
  9
$USERR1
 40
0.0
  9
$USERR2
 40
0.0
  9
$USERR3
 40
0.0
  9
$USERR4
 40
0.0
  9
$USERR5
 40
0.0
  9
$WORLDVIEW
 70
     1
  9
$SHADEDGE
 70
     3
  9
$SHADEDIF
 70
    70
  9
$TILEMODE
 70
     1
  9
$MAXACTVP
 70
    64
  9
$PINSBASE
 10
0.0
 20
0.0
 30
0.0
  9
$PLIMCHECK
 70
     0
  9
$PEXTMIN
 10
1.0000000000E+20
 20
1.0000000000E+20
 30
1.0000000000E+20
  9
$PEXTMAX
 10
-1.0000000000E+20
 20
-1.0000000000E+20
 30
-1.0000000000E+20
  9
$PLIMMIN
 10
0.0
 20
0.0
  9
$PLIMMAX
 10
420.0
 20
297.0
  9
$UNITMODE
 70
     0
  9
$VISRETAIN
 70
     1
  9
$PLINEGEN
 70
     0
  9
$PSLTSCALE
 70
     1
  9
$TREEDEPTH
 70
  3020
  9
$CMLSTYLE
  2
Standard
  9
$CMLJUST
 70
     0
  9
$CMLSCALE
 40
20.0
  9
$PROXYGRAPHICS
 70
     1
  9
$MEASUREMENT
 70
     1
  9
$CELWEIGHT
370
    -1
  9
$ENDCAPS
280
     0
  9
$JOINSTYLE
280
     0
  9
$LWDISPLAY
290
     1
  9
$INSUNITS
 70
     4
  9
$HYPERLINKBASE
  1

  9
$STYLESHEET
  1

  9
$XEDIT
290
     1
  9
$CEPSNTYPE
380
     0
  9
$PSTYLEMODE
290
     1
  9
$FINGERPRINTGUID
  2
{52418efc-6310-4eee-b61b-a009cd4bd793}
  9
$VERSIONGUID
  2
{FAEB1C32-E019-11D5-929B-00C0DF256EC4}
  9
$EXTNAMES
290
     1
  9
$PSVPSCALE
 40
0.0
  9
$OLESTARTUP
290
     0
  0
ENDSEC
  0
SECTION
  2
CLASSES
  0
CLASS
  1
ACDBDICTIONARYWDFLT
  2
AcDbDictionaryWithDefault
  3
ObjectDBX Classes
 90
        0
280
     0
281
     0
  0
CLASS
  1
VISUALSTYLE
  2
AcDbVisualStyle
  3
ObjectDBX Classes
 90
     4095
280
     0
281
     0
  0
CLASS
  1
MATERIAL
  2
AcDbMaterial
  3
ObjectDBX Classes
 90
     1153
280
     0
281
     0
  0
CLASS
  1
SCALE
  2
AcDbScale
  3
ObjectDBX Classes
 90
     1153
280
     0
281
     0
  0
CLASS
  1
TABLESTYLE
  2
AcDbTableStyle
  3
ObjectDBX Classes
 90
     4095
280
     0
281
     0
  0
CLASS
  1
MLEADERSTYLE
  2
AcDbMLeaderStyle
  3
ACDB_MLEADERSTYLE_CLASS
 90
     4095
280
     0
281
     0
  0
CLASS
  1
SUN
  2
AcDbSun
  3
SCENEOE
 90
     1153
280
     0
281
     0
  0
CLASS
  1
ACDBPLACEHOLDER
  2
AcDbPlaceHolder
  3
ObjectDBX Classes
 90
        0
280
     0
281
     0
  0
CLASS
  1
LAYOUT
  2
AcDbLayout
  3
ObjectDBX Classes
 90
        0
280
     0
281
     0
  0
ENDSEC
  0
SECTION
  2
TABLES
  0
TABLE
  2
VPORT
  5
8
330
0
100
AcDbSymbolTable
 70
     1
  0
VPORT
  5
29
330
8
100
AcDbSymbolTableRecord
100
AcDbViewportTableRecord
  2
*Active
 70
     0
 10
0.0
 20
0.0
 11
1.0
 21
1.0
 12
215.9
 22
139.7
 13
0.0
 23
0.0
 14
10.0
 24
10.0
 15
10.0
 25
10.0
 16
0.0
 26
0.0
 36
1.0
 17
0.0
 27
0.0
 37
0.0
 40
279.4
 41
1.5454545455
 42
50.0
 43
0.0
 44
0.0
 50
0.0
 51
0.0
 71
     0
 72
  2000
 73
     1
 74
     3
 75
     0
 76
     0
 77
     0
 78
     0
281
     0
 65
     1
110
0.0
120
0.0
130
0.0
111
1.0
121
0.0
131
0.0
112
0.0
122
1.0
132
0.0
 79
     0
146
0.0
  0
ENDTAB
  0
TABLE
  2
LTYPE
  5
5
330
0
100
AcDbSymbolTable
 70
     6
  0
LTYPE
  5
14
330
5
100
AcDbSymbolTableRecord
100
AcDbLinetypeTableRecord
  2
ByBlock
 70
     0
  3

 72
    65
 73
     0
 40
0.0
  0
LTYPE
  5
15
330
5
100
AcDbSymbolTableRecord
100
AcDbLinetypeTableRecord
  2
ByLayer
 70
     0
  3

 72
    65
 73
     0
 40
0.0
  0
LTYPE
  5
16
330
5
100
AcDbSymbolTableRecord
100
AcDbLinetypeTableRecord
  2
Continuous
 70
     0
  3
Solid line
 72
    65
 73
     0
 40
0.0
  0
LTYPE
  5
5E
330
5
100
AcDbSymbolTableRecord
100
AcDbLinetypeTableRecord
  2
HIDDEN
 70
     0
  3
Hidden __ __ __ __ __ __ __ __ __ __ __ __ __ __
 72
    65
 73
     2
 40
1.905
 49
1.27
 74
     0
 49
-0.635
 74
     0
  0
LTYPE
  5
5F
330
5
100
AcDbSymbolTableRecord
100
AcDbLinetypeTableRecord
  2
PHANTOM
 70
     0
  3
Phantom ______  __  __  ______  __  __  ______
 72
    65
 73
     6
 40
12.7
 49
6.35
 74
     0
 49
-1.27
 74
     0
 49
1.27
 74
     0
 49
-1.27
 74
     0
 49
1.27
 74
     0
 49
-1.27
 74
     0
  0
LTYPE
  5
60
330
5
100
AcDbSymbolTableRecord
100
AcDbLinetypeTableRecord
  2
CENTER
 70
     0
  3
Center ____ _ ____ _ ____ _ ____ _ ____ _ ____
 72
    65
 73
     4
 40
10.16
 49
6.35
 74
     0
 49
-1.27
 74
     0
 49
1.27
 74
     0
 49
-1.27
 74
     0
  0
LTYPE
  5
61
330
5
100
AcDbSymbolTableRecord
100
AcDbLinetypeTableRecord
  2
CENTERX2
 70
     0
  3
Center (2x) ________  __  ________  __  _____
 72
    65
 73
     4
 40
20.32
 49
12.7
 74
     0
 49
-2.54
 74
     0
 49
2.54
 74
     0
 49
-2.54
 74
     0
  0
LTYPE
  5
62
330
5
100
AcDbSymbolTableRecord
100
AcDbLinetypeTableRecord
  2
DOT2
 70
     0
  3
Dot (.5x) ........................................
 72
    65
 73
     2
 40
0.635
 49
0.0
 74
     0
 49
-0.635
 74
     0
  0
ENDTAB
  0
TABLE
  2
LAYER
  5
2
330
0
100
AcDbSymbolTable
 70
     1
  0
LAYER
  5
10
330
2
100
AcDbSymbolTableRecord
100
AcDbLayerTableRecord
  2
0
 70
     0
 62
     7
  6
Continuous
370
    -3
390
F
  0
ENDTAB
  0
TABLE
  2
STYLE
  5
3
330
0
100
AcDbSymbolTable
 70
     2
  0
STYLE
  5
11
330
3
100
AcDbSymbolTableRecord
100
AcDbTextStyleTableRecord
  2
Standard
 70
     0
 40
0.0
 41
1.0
 50
0.0
 71
     0
 42
3.5
  3
txt
  4
bigfont
  0
STYLE
  5
63
330
3
100
AcDbSymbolTableRecord
100
AcDbTextStyleTableRecord
  2
SLDTEXTSTYLE0
 70
     0
 40
0.0
 41
0.7
 50
0.0
 71
     0
 42
3.5
  3
TXT
  4
bigfont
  0
ENDTAB
  0
TABLE
  2
VIEW
  5
6
330
0
100
AcDbSymbolTable
 70
     0
  0
ENDTAB
  0
TABLE
  2
UCS
  5
7
330
0
100
AcDbSymbolTable
 70
     0
  0
ENDTAB
  0
TABLE
  2
APPID
  5
9
330
0
100
AcDbSymbolTable
 70
     1
  0
APPID
  5
12
330
9
100
AcDbSymbolTableRecord
100
AcDbRegAppTableRecord
  2
ACAD
 70
     0
  0
ENDTAB
  0
TABLE
  2
DIMSTYLE
  5
A
330
0
100
AcDbSymbolTable
 70
     1
100
AcDbDimStyleTable
  0
DIMSTYLE
105
27
330
A
100
AcDbSymbolTableRecord
100
AcDbDimStyleTableRecord
  2
ISO-25
 70
     0
 41
2.5
 42
0.625
 43
3.75
 44
1.25
 73
     0
 74
     0
 77
     1
 78
     8
140
2.5
141
2.5
143
0.0393700787
147
0.625
171
     3
172
     1
178
     0
271
     2
272
     2
274
     3
278
    44
283
     0
284
     8
340
11
  0
ENDTAB
  0
TABLE
  2
BLOCK_RECORD
  5
1
330
0
100
AcDbSymbolTable
 70
     3
  0
BLOCK_RECORD
  5
1F
330
1
100
AcDbSymbolTableRecord
100
AcDbBlockTableRecord
  2
*Model_Space
340
22
  0
BLOCK_RECORD
  5
1B
330
1
100
AcDbSymbolTableRecord
100
AcDbBlockTableRecord
  2
*Paper_Space
340
1E
  0
BLOCK_RECORD
  5
23
330
1
100
AcDbSymbolTableRecord
100
AcDbBlockTableRecord
  2
*Paper_Space0
340
26
  0
BLOCK_RECORD
  5
1DC
330
1
100
AcDbSymbolTableRecord
100
AcDbBlockTableRecord
  2
SW_CENTERMARKSYMBOL_0
340
0
102
{BLKREFS
331
1E7
102
}
  0
BLOCK_RECORD
  5
2DC
330
1
100
AcDbSymbolTableRecord
100
AcDbBlockTableRecord
  2
SW_CENTERMARKSYMBOL_1
340
0
102
{BLKREFS
331
2E7
102
}
  0
ENDTAB
  0
ENDSEC
  0
SECTION
  2
BLOCKS
  0
BLOCK
  5
20
330
1F
100
AcDbEntity
  8
0
100
AcDbBlockBegin
  2
*Model_Space
 70
     0
 10
0.0
 20
0.0
 30
0.0
  3
*Model_Space
  1

  0
ENDBLK
  5
21
330
1F
100
AcDbEntity
  8
0
100
AcDbBlockEnd
  0
BLOCK
  5
1C
330
1B
100
AcDbEntity
 67
     1
  8
0
100
AcDbBlockBegin
  2
*Paper_Space
 70
     0
 10
0.0
 20
0.0
 30
0.0
  3
*Paper_Space
  1

  0
ENDBLK
  5
1D
330
1B
100
AcDbEntity
 67
     1
  8
0
100
AcDbBlockEnd
  0
BLOCK
  5
24
330
23
100
AcDbEntity
  8
0
100
AcDbBlockBegin
  2
*Paper_Space0
 70
     0
 10
0.0
 20
0.0
 30
0.0
  3
*Paper_Space0
  1

  0
ENDBLK
  5
25
330
23
100
AcDbEntity
  8
0
100
AcDbBlockEnd
  0
BLOCK
  5
1DD
330
1DC
100
AcDbEntity
  8
0
100
AcDbBlockBegin
  2
SW_CENTERMARKSYMBOL_0
 70
     0
 10
0.0
 20
0.0
 30
0.0
  3
SW_CENTERMARKSYMBOL_0
  1

  0
LINE
  5
1DF
330
1DC
100
AcDbEntity
  8
0
  6
Continuous
 62
     0
370
    18
100
AcDbLine
 10
0.0
 20
0.0
 30
0.0
 11
0.0
 21
2.5
 31
0.0
  0
LINE
  5
1E0
330
1DC
100
AcDbEntity
  8
0
  6
Continuous
 62
     0
370
    18
100
AcDbLine
 10
0.0
 20
0.0
 30
0.0
 11
-2.5
 21
0.0
 31
0.0
  0
LINE
  5
1E1
330
1DC
100
AcDbEntity
  8
0
  6
Continuous
 62
     0
370
    18
100
AcDbLine
 10
0.0
 20
0.0
 30
0.0
 11
0.0
 21
-2.5
 31
0.0
  0
LINE
  5
1E2
330
1DC
100
AcDbEntity
  8
0
  6
Continuous
 62
     0
370
    18
100
AcDbLine
 10
0.0
 20
0.0
 30
0.0
 11
2.5
 21
0.0
 31
0.0
  0
LINE
  5
1E3
330
1DC
100
AcDbEntity
  8
0
  6
Continuous
 62
     0
370
    18
100
AcDbLine
 10
0.0
 20
5.0
 30
0.0
 11
0.0
 21
30.1079178641
 31
0.0
  0
LINE
  5
1E4
330
1DC
100
AcDbEntity
  8
0
  6
Continuous
 62
     0
370
    18
100
AcDbLine
 10
-5.0
 20
0.0
 30
0.0
 11
-12.5
 21
0.0
 31
0.0
  0
LINE
  5
1E5
330
1DC
100
AcDbEntity
  8
0
  6
Continuous
 62
     0
370
    18
100
AcDbLine
 10
0.0
 20
-5.0
 30
0.0
 11
0.0
 21
-12.5
 31
0.0
  0
LINE
  5
1E6
330
1DC
100
AcDbEntity
  8
0
  6
Continuous
 62
     0
370
    18
100
AcDbLine
 10
5.0
 20
0.0
 30
0.0
 11
12.5
 21
0.0
 31
0.0
  0
ENDBLK
  5
1DE
330
1DC
100
AcDbEntity
  8
0
100
AcDbBlockEnd
  0
BLOCK
  5
2DD
330
2DC
100
AcDbEntity
  8
0
100
AcDbBlockBegin
  2
SW_CENTERMARKSYMBOL_1
 70
     0
 10
0.0
 20
0.0
 30
0.0
  3
SW_CENTERMARKSYMBOL_1
  1

  0
LINE
  5
2DF
330
2DC
100
AcDbEntity
  8
0
  6
Continuous
 62
     0
370
    18
100
AcDbLine
 10
0.0
 20
0.0
 30
0.0
 11
0.0
 21
2.5
 31
0.0
  0
LINE
  5
2E0
330
2DC
100
AcDbEntity
  8
0
  6
Continuous
 62
     0
370
    18
100
AcDbLine
 10
0.0
 20
0.0
 30
0.0
 11
-2.5
 21
0.0
 31
0.0
  0
LINE
  5
2E1
330
2DC
100
AcDbEntity
  8
0
  6
Continuous
 62
     0
370
    18
100
AcDbLine
 10
0.0
 20
0.0
 30
0.0
 11
0.0
 21
-2.5
 31
0.0
  0
LINE
  5
2E2
330
2DC
100
AcDbEntity
  8
0
  6
Continuous
 62
     0
370
    18
100
AcDbLine
 10
0.0
 20
0.0
 30
0.0
 11
2.5
 21
0.0
 31
0.0
  0
LINE
  5
2E3
330
2DC
100
AcDbEntity
  8
0
  6
Continuous
 62
     0
370
    18
100
AcDbLine
 10
0.0
 20
5.0
 30
0.0
 11
0.0
 21
9.95
 31
0.0
  0
LINE
  5
2E4
330
2DC
100
AcDbEntity
  8
0
  6
Continuous
 62
     0
370
    18
100
AcDbLine
 10
-5.0
 20
0.0
 30
0.0
 11
-56.2894654759
 21
0.0
 31
0.0
  0
LINE
  5
2E5
330
2DC
100
AcDbEntity
  8
0
  6
Continuous
 62
     0
370
    18
100
AcDbLine
 10
0.0
 20
-5.0
 30
0.0
 11
0.0
 21
-9.95
 31
0.0
  0
LINE
  5
2E6
330
2DC
100
AcDbEntity
  8
0
  6
Continuous
 62
     0
370
    18
100
AcDbLine
 10
5.0
 20
0.0
 30
0.0
 11
21.2990842007
 21
0.0
 31
0.0
  0
ENDBLK
  5
2DE
330
2DC
100
AcDbEntity
  8
0
100
AcDbBlockEnd
  0
ENDSEC
  0
SECTION
  2
ENTITIES
  0
MTEXT
  5
64
330
1F
100
AcDbEntity
  8
0
  6
Continuous
 62
     7
370
     0
100
AcDbMText
 10
204.8557614839
 20
114.6514467108
 30
0.0
 40
3.5
 41
0.0
 71
     1
 72
     1
  1
エースボール　BY-1209R
  7
SLDTEXTSTYLE0
 73
     1
 44
1.0
  0
LINE
  5
65
330
1F
100
AcDbEntity
  8
0
  6
Continuous
 62
     7
370
    25
100
AcDbLine
 10
150.9045751223
 20
77.3100758856
 30
0.0
 11
146.9045751223
 21
76.6600758856
 31
0.0
  0
LINE
  5
66
330
1F
100
AcDbEntity
  8
0
  6
Continuous
 62
     7
370
    25
100
AcDbLine
 10
146.9045751223
 20
68.9600758856
 30
0.0
 11
150.9045751223
 21
68.3100758856
 31
0.0
  0
LINE
  5
67
330
1F
100
AcDbEntity
  8
0
  6
Continuous
 62
     7
370
    25
100
AcDbLine
 10
142.9045751223
 20
77.3100758856
 30
0.0
 11
138.1106830864
 21
76.7435250086
 31
0.0
  0
LINE
  5
68
330
1F
100
AcDbEntity
  8
0
  6
Continuous
 62
     7
370
    25
100
AcDbLine
 10
138.1106830864
 20
68.8766267626
 30
0.0
 11
142.9045751223
 21
68.3100758856
 31
0.0
  0
LINE
  5
69
330
1F
100
AcDbEntity
  8
0
  6
Continuous
 62
     7
370
    25
100
AcDbLine
 10
146.9045751223
 20
77.3100758856
 30
0.0
 11
142.9045751223
 21
76.6600758856
 31
0.0
  0
LINE
  5
6A
330
1F
100
AcDbEntity
  8
0
  6
Continuous
 62
     7
370
    25
100
AcDbLine
 10
142.9045751223
 20
68.9600758856
 30
0.0
 11
146.9045751223
 21
68.3100758856
 31
0.0
  0
LINE
  5
6B
330
1F
100
AcDbEntity
  8
0
  6
Continuous
 62
     7
370
    25
100
AcDbLine
 10
154.9045751223
 20
77.3100758856
 30
0.0
 11
150.9045751223
 21
76.6600758856
 31
0.0
  0
LINE
  5
6C
330
1F
100
AcDbEntity
  8
0
  6
Continuous
 62
     7
370
    25
100
AcDbLine
 10
150.9045751223
 20
68.9600758856
 30
0.0
 11
154.9045751223
 21
68.3100758856
 31
0.0
  0
LINE
  5
6D
330
1F
100
AcDbEntity
  8
0
  6
Continuous
 62
     7
370
    25
100
AcDbLine
 10
163.3241903645
 20
77.3100758856
 30
0.0
 11
158.9045751223
 21
77.3100758856
 31
0.0
  0
LINE
  5
6E
330
1F
100
AcDbEntity
  8
0
  6
Continuous
 62
     7
370
    25
100
AcDbLine
 10
158.9045751223
 20
68.3100758856
 30
0.0
 11
163.3241903645
 21
68.3100758856
 31
0.0
  0
LINE
  5
6F
330
1F
100
AcDbEntity
  8
0
  6
Continuous
 62
     7
370
    25
100
AcDbLine
 10
163.3241903645
 20
68.3100758856
 30
0.0
 11
163.4045751223
 21
68.6100758856
 31
0.0
  0
LINE
  5
70
330
1F
100
AcDbEntity
  8
0
  6
Continuous
 62
     7
370
    25
100
AcDbLine
 10
163.4045751223
 20
77.0100758856
 30
0.0
 11
163.3241903645
 21
77.3100758856
 31
0.0
  0
LINE
  5
71
330
1F
100
AcDbEntity
  8
0
  6
Continuous
 62
     7
370
    25
100
AcDbLine
 10
158.9045751223
 20
77.3100758856
 30
0.0
 11
154.9045751223
 21
76.6600758856
 31
0.0
  0
LINE
  5
72
330
1F
100
AcDbEntity
  8
0
  6
Continuous
 62
     7
370
    25
100
AcDbLine
 10
154.9045751223
 20
68.9600758856
 30
0.0
 11
158.9045751223
 21
68.3100758856
 31
0.0
  0
ARC
  5
73
330
1F
100
AcDbEntity
  8
0
  6
Continuous
 62
     7
370
    25
100
AcDbCircle
 10
138.2045751223
 20
75.9490539358
 30
0.0
 40
0.7999999999999993
100
AcDbArc
 50
96.7400560979
 51
180.0
  0
ARC
  5
74
330
1F
100
AcDbEntity
  8
0
  6
Continuous
 62
     7
370
    25
100
AcDbCircle
 10
138.2045751223
 20
69.6710978354
 30
0.0
 40
0.7999999999999993
100
AcDbArc
 50
180.0
 51
263.2599439021
  0
LINE
  5
75
330
1F
100
AcDbEntity
  8
0
  6
Continuous
 62
     7
370
    25
100
AcDbLine
 10
173.6034414021
 20
63.5724715786
 30
0.0
 11
174.4045751223
 21
64.9600758856
 31
0.0
  0
LINE
  5
76
330
1F
100
AcDbEntity
  8
0
  6
Continuous
 62
     7
370
    25
100
AcDbLine
 10
174.4045751223
 20
80.6600758856
 30
0.0
 11
173.6034414021
 21
82.0476801926
 31
0.0
  0
LINE
  5
77
330
1F
100
AcDbEntity
  8
0
  6
Continuous
 62
     7
370
    25
100
AcDbLine
 10
166.2057088425
 20
82.0476801926
 30
0.0
 11
165.4045751223
 21
80.6600758856
 31
0.0
  0
LINE
  5
78
330
1F
100
AcDbEntity
  8
0
  6
Continuous
 62
     7
370
    25
100
AcDbLine
 10
165.4045751223
 20
64.9600758856
 30
0.0
 11
166.2057088425
 21
63.5724715786
 31
0.0
  0
LINE
  5
79
330
1F
100
AcDbEntity
  8
0
  6
Continuous
 62
     7
370
    25
100
AcDbLine
 10
174.4045751223
 20
64.9600758856
 30
0.0
 11
176.1045751223
 21
64.9600758856
 31
0.0
  0
LINE
  5
7A
330
1F
100
AcDbEntity
  8
0
  6
Continuous
 62
     7
370
    25
100
AcDbLine
 10
176.1045751223
 20
80.6600758856
 30
0.0
 11
174.4045751223
 21
80.6600758856
 31
0.0
  0
LINE
  5
7B
330
1F
100
AcDbEntity
  8
0
  6
Continuous
 62
     7
370
    25
100
AcDbLine
 10
165.4045751223
 20
80.6600758856
 30
0.0
 11
163.7045751223
 21
80.6600758856
 31
0.0
  0
LINE
  5
7C
330
1F
100
AcDbEntity
  8
0
  6
Continuous
 62
     7
370
    25
100
AcDbLine
 10
163.7045751223
 20
64.9600758856
 30
0.0
 11
165.4045751223
 21
64.9600758856
 31
0.0
  0
ARC
  5
7D
330
1F
100
AcDbEntity
  8
0
  6
Continuous
 62
     7
370
    25
100
AcDbCircle
 10
176.1045751223
 20
80.3600758856
 30
0.0
 40
0.3000000000000114
100
AcDbArc
 50
0.0
 51
90.0
  0
ARC
  5
7E
330
1F
100
AcDbEntity
  8
0
  6
Continuous
 62
     7
370
    25
100
AcDbCircle
 10
176.1045751223
 20
65.2600758856
 30
0.0
 40
0.3000000000000114
100
AcDbArc
 50
270.0
 51
0.0
  0
ARC
  5
7F
330
1F
100
AcDbEntity
  8
0
  6
Continuous
 62
     7
370
    25
100
AcDbCircle
 10
163.7045751223
 20
65.2600758856
 30
0.0
 40
0.3000000000000114
100
AcDbArc
 50
180.0
 51
270.0
  0
ARC
  5
80
330
1F
100
AcDbEntity
  8
0
  6
Continuous
 62
     7
370
    25
100
AcDbCircle
 10
163.7045751223
 20
80.3600758856
 30
0.0
 40
0.3000000000000114
100
AcDbArc
 50
90.0
 51
180.0
  0
LINE
  5
81
330
1F
100
AcDbEntity
  8
0
  6
Continuous
 62
     7
370
    25
100
AcDbLine
 10
169.9581649608
 20
82.0476801926
 30
0.0
 11
169.9045751223
 21
81.8476801926
 31
0.0
  0
LINE
  5
82
330
1F
100
AcDbEntity
  8
0
  6
Continuous
 62
     7
370
    25
100
AcDbLine
 10
169.9045751223
 20
81.8476801926
 30
0.0
 11
169.8509852838
 21
82.0476801926
 31
0.0
  0
LINE
  5
83
330
1F
100
AcDbEntity
  8
0
  6
Continuous
 62
     7
370
    25
100
AcDbLine
 10
169.9045751223
 20
63.7724715786
 30
0.0
 11
169.9581649608
 21
63.5724715786
 31
0.0
  0
LINE
  5
84
330
1F
100
AcDbEntity
  8
0
  6
Continuous
 62
     7
370
    25
100
AcDbLine
 10
169.8509852838
 20
63.5724715786
 30
0.0
 11
169.9045751223
 21
63.7724715786
 31
0.0
  0
LINE
  5
85
330
1F
100
AcDbEntity
  8
0
  6
Continuous
 62
     7
370
    25
100
AcDbLine
 10
199.60808871
 20
83.3100758856
 30
0.0
 11
200.05808871
 21
91.3100758856
 31
0.0
  0
LINE
  5
86
330
1F
100
AcDbEntity
  8
0
  6
Continuous
 62
     7
370
    25
100
AcDbLine
 10
200.05808871
 20
91.3100758856
 30
0.0
 11
198.10808871
 21
99.3100758856
 31
0.0
  0
LINE
  5
87
330
1F
100
AcDbEntity
  8
0
  6
Continuous
 62
     7
370
    25
100
AcDbLine
 10
185.5393432924
 20
84.5322166429
 30
0.0
 11
185.60808871
 21
83.3100758856
 31
0.0
  0
LINE
  5
88
330
1F
100
AcDbEntity
  8
0
  6
Continuous
 62
     7
370
    25
100
AcDbLine
 10
187.10808871
 20
99.3100758856
 30
0.0
 11
186.8548571755
 21
98.2711772824
 31
0.0
  0
LINE
  5
89
330
1F
100
AcDbEntity
  8
0
  6
Continuous
 62
     7
370
    25
100
AcDbLine
 10
182.60808871
 20
80.8100758856
 30
0.0
 11
179.80808871
 21
80.8100758856
 31
0.0
  0
LINE
  5
8A
330
1F
100
AcDbEntity
  8
0
  6
Continuous
 62
     7
370
    25
100
AcDbLine
 10
179.80808871
 20
64.8100758856
 30
0.0
 11
182.60808871
 21
64.8100758856
 31
0.0
  0
LINE
  5
8B
330
1F
100
AcDbEntity
  8
0
  6
Continuous
 62
     7
370
    25
100
AcDbLine
 10
179.80808871
 20
80.8100758856
 30
0.0
 11
179.60808871
 21
80.6100758856
 31
0.0
  0
LINE
  5
8C
330
1F
100
AcDbEntity
  8
0
  6
Continuous
 62
     7
370
    25
100
AcDbLine
 10
179.60808871
 20
65.0100758856
 30
0.0
 11
179.80808871
 21
64.8100758856
 31
0.0
  0
LINE
  5
8D
330
1F
100
AcDbEntity
  8
0
  6
Continuous
 62
     7
370
    25
100
AcDbLine
 10
179.60808871
 20
79.3885758856
 30
0.0
 11
176.4045751223
 21
79.3885758856
 31
0.0
  0
LINE
  5
8E
330
1F
100
AcDbEntity
  8
0
  6
Continuous
 62
     7
370
    25
100
AcDbLine
 10
176.4045751223
 20
66.2315758856
 30
0.0
 11
179.60808871
 21
66.2315758856
 31
0.0
  0
LINE
  5
8F
330
1F
100
AcDbEntity
  8
0
  6
Continuous
 62
     7
370
    25
100
AcDbLine
 10
182.85808871
 20
82.8100758856
 30
0.0
 11
182.60808871
 21
82.5600758856
 31
0.0
  0
LINE
  5
90
330
1F
100
AcDbEntity
  8
0
  6
Continuous
 62
     7
370
    25
100
AcDbLine
 10
182.60808871
 20
63.0600758856
 30
0.0
 11
182.85808871
 21
62.8100758856
 31
0.0
  0
LINE
  5
91
330
1F
100
AcDbEntity
  8
0
  6
Continuous
 62
     7
370
    25
100
AcDbLine
 10
202.10808871
 20
62.8100758856
 30
0.0
 11
202.60808871
 21
63.3100758856
 31
0.0
  0
LINE
  5
92
330
1F
100
AcDbEntity
  8
0
  6
Continuous
 62
     7
370
    25
100
AcDbLine
 10
202.60808871
 20
82.3100758856
 30
0.0
 11
202.10808871
 21
82.8100758856
 31
0.0
  0
ARC
  5
93
330
1F
100
AcDbEntity
  8
0
  6
Continuous
 62
     7
370
    25
100
AcDbCircle
 10
183.60808871
 20
63.8100758856
 30
0.0
 40
1.500000000000005
100
AcDbArc
 50
318.1896851042
 51
0.0
  0
ARC
  5
94
330
1F
100
AcDbEntity
  8
0
  6
Continuous
 62
     7
370
    25
100
AcDbCircle
 10
183.60808871
 20
81.8100758856
 30
0.0
 40
1.500000000000014
100
AcDbArc
 50
0.0
 51
41.8103148958
  0
ARC
  5
95
330
1F
100
AcDbEntity
  8
0
  6
Continuous
 62
     7
370
    25
100
AcDbCircle
 10
201.60808871
 20
81.8100758856
 30
0.0
 40
1.500000000000014
100
AcDbArc
 50
138.1896851042
 51
180.0
  0
ARC
  5
96
330
1F
100
AcDbEntity
  8
0
  6
Continuous
 62
     7
370
    25
100
AcDbCircle
 10
201.60808871
 20
63.8100758856
 30
0.0
 40
1.500000000000005
100
AcDbArc
 50
180.0
 51
221.8103148958
  0
LINE
  5
97
330
1F
100
AcDbEntity
  8
0
  6
Continuous
 62
     7
370
    25
100
AcDbLine
 10
182.85808871
 20
62.8100758856
 30
0.0
 11
184.7261226988
 21
62.8100758856
 31
0.0
  0
LINE
  5
98
330
1F
100
AcDbEntity
  8
0
  6
Continuous
 62
     7
370
    25
100
AcDbLine
 10
184.7261226988
 20
82.8100758856
 30
0.0
 11
182.85808871
 21
82.8100758856
 31
0.0
  0
LINE
  5
99
330
1F
100
AcDbEntity
  8
0
  6
Continuous
 62
     7
370
    25
100
AcDbLine
 10
202.10808871
 20
82.8100758856
 30
0.0
 11
200.4900547213
 21
82.8100758856
 31
0.0
  0
LINE
  5
9A
330
1F
100
AcDbEntity
  8
0
  6
Continuous
 62
     7
370
    25
100
AcDbLine
 10
200.4900547213
 20
62.8100758856
 30
0.0
 11
202.10808871
 21
62.8100758856
 31
0.0
  0
ARC
  5
9B
330
1F
100
AcDbEntity
  8
0
  6
Continuous
 62
     7
370
    25
100
AcDbCircle
 10
199.60808871
 20
81.8100758856
 30
0.0
 40
0.5
100
AcDbArc
 50
270.0
 51
0.0
  0
ARC
  5
9C
330
1F
100
AcDbEntity
  8
0
  6
Continuous
 62
     7
370
    25
100
AcDbCircle
 10
185.60808871
 20
81.8100758856
 30
0.0
 40
0.5
100
AcDbArc
 50
180.0
 51
270.0
  0
ARC
  5
9D
330
1F
100
AcDbEntity
  8
0
  6
Continuous
 62
     7
370
    25
100
AcDbCircle
 10
185.60808871
 20
63.8100758856
 30
0.0
 40
0.5
100
AcDbArc
 50
90.0
 51
180.0
  0
ARC
  5
9E
330
1F
100
AcDbEntity
  8
0
  6
Continuous
 62
     7
370
    25
100
AcDbCircle
 10
199.60808871
 20
63.8100758856
 30
0.0
 40
0.5
100
AcDbArc
 50
360.0
 51
90.0
  0
LINE
  5
9F
330
1F
100
AcDbEntity
  8
0
  6
Continuous
 62
     7
370
    25
100
AcDbLine
 10
202.60808871
 20
66.0431383856
 30
0.0
 11
210.4025642524
 21
66.2867157463
 31
0.0
  0
LINE
  5
A0
330
1F
100
AcDbEntity
  8
0
  6
Continuous
 62
     7
370
    25
100
AcDbLine
 10
210.4025642524
 20
79.3334360249
 30
0.0
 11
202.60808871
 21
79.5770133856
 31
0.0
  0
LINE
  5
A1
330
1F
100
AcDbEntity
  8
0
  6
Continuous
 62
     7
370
    25
100
AcDbLine
 10
186.2257678351
 20
81.3100758856
 30
0.0
 11
185.60808871
 21
81.3100758856
 31
0.0
  0
LINE
  5
A2
330
1F
100
AcDbEntity
  8
0
  6
Continuous
 62
     7
370
    25
100
AcDbLine
 10
199.60808871
 20
81.3100758856
 30
0.0
 11
199.00808871
 21
81.3100758856
 31
0.0
  0
LINE
  5
A3
330
1F
100
AcDbEntity
  8
0
  6
Continuous
 62
     7
370
    25
100
AcDbLine
 10
185.60808871
 20
64.3100758856
 30
0.0
 11
199.60808871
 21
64.3100758856
 31
0.0
  0
LINE
  5
A4
330
1F
100
AcDbEntity
  8
0
  6
Continuous
 62
     7
370
    25
100
AcDbLine
 10
210.4025642524
 20
66.2867157463
 30
0.0
 11
212.60808871
 21
67.5600758856
 31
0.0
  0
LINE
  5
A5
330
1F
100
AcDbEntity
  8
0
  6
Continuous
 62
     7
370
    25
100
AcDbLine
 10
212.60808871
 20
78.0600758856
 30
0.0
 11
210.4025642524
 21
79.3334360249
 31
0.0
  0
SPLINE
  5
A6
330
1F
100
AcDbEntity
  8
0
  6
Continuous
 62
     7
370
    25
100
AcDbSpline
210
0.0
220
0.0
230
1.0
 70
     8
 71
     3
 72
    13
 73
     9
 74
     0
 42
0.00000001
 43
0.00000001
 40
0.0
 40
0.0
 40
0.0
 40
0.0
 40
0.0876580556435543
 40
0.3238542216365106
 40
0.5631701619762098
 40
0.7726654580130766
 40
0.9443478964395817
 40
1.0
 40
1.0
 40
1.0
 40
1.0
 10
186.7015665517434
 20
81.79830383367427
 30
0.0
 10
186.7028679724718
 20
81.77620702143797
 30
0.0
 10
186.707676094143
 20
81.69456996167318
 30
0.0
 10
186.6509857149956
 20
81.55816635619132
 30
0.0
 10
186.5414780785951
 20
81.4223322359027
 30
0.0
 10
186.4044331713164
 20
81.34332977428443
 30
0.0
 10
186.297065896956
 20
81.3114780413516
 30
0.0
 10
186.2398461147961
 20
81.31240836367273
 30
0.0
 10
186.2258385591706
 20
81.31263610906376
 30
0.0
  0
SPLINE
  5
A7
330
1F
100
AcDbEntity
  8
0
  6
Continuous
 62
     7
370
    25
100
AcDbSpline
210
0.0
220
0.0
230
1.0
 70
     8
 71
     3
 72
    13
 73
     9
 74
     0
 42
0.00000001
 43
0.00000001
 40
0.0
 40
0.0
 40
0.0
 40
0.0
 40
0.049937090033774
 40
0.2655235848156325
 40
0.4853408901769013
 40
0.7120295809115694
 40
0.9214391267282208
 40
1.0
 40
1.0
 40
1.0
 40
1.0
 10
199.0180182313566
 20
81.3136186923148
 30
0.0
 10
199.0047701913825
 20
81.31240988454746
 30
0.0
 10
198.9343282200276
 20
81.30598245812914
 30
0.0
 10
198.8058678112729
 20
81.34371261324131
 30
0.0
 10
198.6552601467991
 20
81.43966015140735
 30
0.0
 10
198.5522980342666
 20
81.58430299205193
 30
0.0
 10
198.5071408817625
 20
81.71824810782284
 30
0.0
 10
198.5114737349943
 20
81.79494807614677
 30
0.0
 10
198.5126557756176
 20
81.81587250481037
 30
0.0
  0
LINE
  5
A8
330
1F
100
AcDbEntity
  8
0
  6
Continuous
 62
     7
370
    25
100
AcDbLine
 10
198.50808871
 20
81.8100758856
 30
0.0
 11
198.50808871
 21
83.3100758856
 31
0.0
  0
LINE
  5
A9
330
1F
100
AcDbEntity
  8
0
  6
Continuous
 62
     7
370
    25
100
AcDbLine
 10
186.70808871
 20
83.3100758856
 30
0.0
 11
186.70808871
 21
81.7988051457
 31
0.0
  0
LINE
  5
AA
330
1F
100
AcDbEntity
  8
0
  6
Continuous
 62
     7
370
    25
100
AcDbLine
 10
150.9045751223
 20
71.084450761
 30
0.0
 11
150.9045751223
 21
68.3100758856
 31
0.0
  0
LINE
  5
AB
330
1F
100
AcDbEntity
  8
0
  6
Continuous
 62
     7
370
    25
100
AcDbLine
 10
150.9045751223
 20
77.3100758856
 30
0.0
 11
150.9045751223
 21
71.084450761
 31
0.0
  0
LINE
  5
AC
330
1F
100
AcDbEntity
  8
0
  6
Continuous
 62
     7
370
    25
100
AcDbLine
 10
142.9045751223
 20
71.084450761
 30
0.0
 11
142.9045751223
 21
68.3100758856
 31
0.0
  0
LINE
  5
AD
330
1F
100
AcDbEntity
  8
0
  6
Continuous
 62
     7
370
    25
100
AcDbLine
 10
142.9045751223
 20
77.3100758856
 30
0.0
 11
142.9045751223
 21
71.084450761
 31
0.0
  0
LINE
  5
AE
330
1F
100
AcDbEntity
  8
0
  6
Continuous
 62
     7
370
    25
100
AcDbLine
 10
146.9045751223
 20
71.084450761
 30
0.0
 11
146.9045751223
 21
68.3100758856
 31
0.0
  0
LINE
  5
AF
330
1F
100
AcDbEntity
  8
0
  6
Continuous
 62
     7
370
    25
100
AcDbLine
 10
146.9045751223
 20
77.3100758856
 30
0.0
 11
146.9045751223
 21
71.084450761
 31
0.0
  0
LINE
  5
B0
330
1F
100
AcDbEntity
  8
0
  6
Continuous
 62
     7
370
    25
100
AcDbLine
 10
154.9045751223
 20
71.084450761
 30
0.0
 11
154.9045751223
 21
68.3100758856
 31
0.0
  0
LINE
  5
B1
330
1F
100
AcDbEntity
  8
0
  6
Continuous
 62
     7
370
    25
100
AcDbLine
 10
154.9045751223
 20
77.3100758856
 30
0.0
 11
154.9045751223
 21
71.084450761
 31
0.0
  0
LINE
  5
B2
330
1F
100
AcDbEntity
  8
0
  6
Continuous
 62
     7
370
    25
100
AcDbLine
 10
158.9045751223
 20
71.084450761
 30
0.0
 11
158.9045751223
 21
68.3100758856
 31
0.0
  0
LINE
  5
B3
330
1F
100
AcDbEntity
  8
0
  6
Continuous
 62
     7
370
    25
100
AcDbLine
 10
158.9045751223
 20
77.3100758856
 30
0.0
 11
158.9045751223
 21
71.084450761
 31
0.0
  0
LINE
  5
B4
330
1F
100
AcDbEntity
  8
0
  6
Continuous
 62
     7
370
    25
100
AcDbLine
 10
163.3241903645
 20
71.084450761
 30
0.0
 11
163.3241903645
 21
68.3100758856
 31
0.0
  0
LINE
  5
B5
330
1F
100
AcDbEntity
  8
0
  6
Continuous
 62
     7
370
    25
100
AcDbLine
 10
163.3241903645
 20
77.3100758856
 30
0.0
 11
163.3241903645
 21
71.084450761
 31
0.0
  0
LINE
  5
B6
330
1F
100
AcDbEntity
  8
0
  6
Continuous
 62
     7
370
    25
100
AcDbLine
 10
137.4045751223
 20
71.6063649103
 30
0.0
 11
137.4045751223
 21
75.9490539358
 31
0.0
  0
LINE
  5
B7
330
1F
100
AcDbEntity
  8
0
  6
Continuous
 62
     7
370
    25
100
AcDbLine
 10
137.4045751223
 20
69.6710978354
 30
0.0
 11
137.4045751223
 21
71.6063649103
 31
0.0
  0
LINE
  5
B8
330
1F
100
AcDbEntity
  8
0
  6
Continuous
 62
     7
370
    25
100
AcDbLine
 10
169.9045751223
 20
77.6360010889
 30
0.0
 11
169.9581649608
 21
77.4288780391
 31
0.0
  0
LINE
  5
B9
330
1F
100
AcDbEntity
  8
0
  6
Continuous
 62
     7
370
    25
100
AcDbLine
 10
169.9581649608
 20
77.4288780391
 30
0.0
 11
169.9045751223
 21
77.0146319395
 31
0.0
  0
LINE
  5
BA
330
1F
100
AcDbEntity
  8
0
  6
Continuous
 62
     7
370
    25
100
AcDbLine
 10
169.9045751223
 20
77.6360010889
 30
0.0
 11
169.9045751223
 21
77.0146319395
 31
0.0
  0
LINE
  5
BB
330
1F
100
AcDbEntity
  8
0
  6
Continuous
 62
     7
370
    25
100
AcDbLine
 10
169.8509852838
 20
68.1912737321
 30
0.0
 11
169.9045751223
 21
68.6055198317
 31
0.0
  0
LINE
  5
BC
330
1F
100
AcDbEntity
  8
0
  6
Continuous
 62
     7
370
    25
100
AcDbLine
 10
169.9045751223
 20
68.6055198317
 30
0.0
 11
169.9045751223
 21
67.9841506823
 31
0.0
  0
LINE
  5
BD
330
1F
100
AcDbEntity
  8
0
  6
Continuous
 62
     7
370
    25
100
AcDbLine
 10
169.9045751223
 20
67.9841506823
 30
0.0
 11
169.8509852838
 21
68.1912737321
 31
0.0
  0
LINE
  5
BE
330
1F
100
AcDbEntity
  8
0
  6
Continuous
 62
     7
370
    25
100
AcDbLine
 10
173.6034414021
 20
77.4288780391
 30
0.0
 11
169.9581649608
 21
77.4288780391
 31
0.0
  0
SPLINE
  5
BF
330
1F
100
AcDbEntity
  8
0
  6
Continuous
 62
     7
370
    25
100
AcDbSpline
210
0.0
220
0.0
230
1.0
 70
     8
 71
     3
 72
    14
 73
    10
 74
     0
 42
0.00000001
 43
0.00000001
 40
0.0
 40
0.0
 40
0.0
 40
0.0
 40
0.1912156890565411
 40
0.3842607734904396
 40
0.5102055247845747
 40
0.6361523096967547
 40
0.765454570798929
 40
0.8947932191925942
 40
1.0
 40
1.0
 40
1.0
 40
1.0
 10
173.6034414020762
 20
77.4288780391325
 30
0.0
 10
173.7569739574233
 20
76.85093051393031
 30
0.0
 10
174.0655079420807
 20
75.68950613412743
 30
0.0
 10
174.2839238061042
 20
74.10483607450222
 30
0.0
 10
174.333926215512
 20
72.7138767643639
 30
0.0
 10
174.2754965710097
 20
71.52235025385453
 30
0.0
 10
174.1151170171017
 20
70.32998419210715
 30
0.0
 10
173.8858045322801
 20
69.21507762426772
 30
0.0
 10
173.6908772305192
 20
68.50830216782381
 30
0.0
 10
173.6034414020762
 20
68.19127373209847
 30
0.0
  0
LINE
  5
C0
330
1F
100
AcDbEntity
  8
0
  6
Continuous
 62
     7
370
    25
100
AcDbLine
 10
173.6034414021
 20
68.1912737321
 30
0.0
 11
169.9581649608
 21
68.1912737321
 31
0.0
  0
LINE
  5
C1
330
1F
100
AcDbEntity
  8
0
  6
Continuous
 62
     7
370
    25
100
AcDbLine
 10
169.9045751223
 20
68.6055198317
 30
0.0
 11
169.9581649608
 21
68.1912737321
 31
0.0
  0
LINE
  5
C2
330
1F
100
AcDbEntity
  8
0
  6
Continuous
 62
     7
370
    25
100
AcDbLine
 10
169.8509852838
 20
68.1912737321
 30
0.0
 11
166.2057088425
 21
68.1912737321
 31
0.0
  0
SPLINE
  5
C3
330
1F
100
AcDbEntity
  8
0
  6
Continuous
 62
     7
370
    25
100
AcDbSpline
210
0.0
220
0.0
230
1.0
 70
     8
 71
     3
 72
    14
 73
    10
 74
     0
 42
0.00000001
 43
0.00000001
 40
0.0
 40
0.0
 40
0.0
 40
0.0
 40
0.1912156890565411
 40
0.3842607734904397
 40
0.5102055247845747
 40
0.6361523096967547
 40
0.765454570798929
 40
0.8947932191925942
 40
1.0
 40
1.0
 40
1.0
 40
1.0
 10
166.2057088424657
 20
77.4288780391325
 30
0.0
 10
166.0521762871186
 20
76.85093051393031
 30
0.0
 10
165.7436423024612
 20
75.68950613412743
 30
0.0
 10
165.5252264384377
 20
74.10483607450222
 30
0.0
 10
165.4752240290299
 20
72.7138767643639
 30
0.0
 10
165.5336536735322
 20
71.52235025385453
 30
0.0
 10
165.6940332274403
 20
70.32998419210715
 30
0.0
 10
165.9233457122618
 20
69.21507762426772
 30
0.0
 10
166.1182730140227
 20
68.50830216782381
 30
0.0
 10
166.2057088424657
 20
68.19127373209847
 30
0.0
  0
LINE
  5
C4
330
1F
100
AcDbEntity
  8
0
  6
Continuous
 62
     7
370
    25
100
AcDbLine
 10
169.8509852838
 20
77.4288780391
 30
0.0
 11
166.2057088425
 21
77.4288780391
 31
0.0
  0
LINE
  5
C5
330
1F
100
AcDbEntity
  8
0
  6
Continuous
 62
     7
370
    25
100
AcDbLine
 10
169.9045751223
 20
77.0146319395
 30
0.0
 11
169.8509852838
 21
77.4288780391
 31
0.0
  0
LINE
  5
C6
330
1F
100
AcDbEntity
  8
0
  6
Continuous
 62
     7
370
    25
100
AcDbLine
 10
169.8509852838
 20
77.4288780391
 30
0.0
 11
169.9045751223
 21
77.6360010889
 31
0.0
  0
LINE
  5
C7
330
1F
100
AcDbEntity
  8
0
  6
Continuous
 62
     7
370
    25
100
AcDbLine
 10
169.9581649608
 20
68.1912737321
 30
0.0
 11
169.9045751223
 21
67.9841506823
 31
0.0
  0
SPLINE
  5
C8
330
1F
100
AcDbEntity
  8
0
  6
Continuous
 62
     7
370
    25
100
AcDbSpline
210
0.0
220
0.0
230
1.0
 70
     8
 71
     3
 72
    12
 73
     8
 74
     0
 42
0.00000001
 43
0.00000001
 40
0.0
 40
0.0
 40
0.0
 40
0.0
 40
0.2645357324841768
 40
0.3998137210612349
 40
0.535067298215458
 40
0.7654034360362891
 40
1.0
 40
1.0
 40
1.0
 40
1.0
 10
173.6034414020762
 20
68.19127373209847
 30
0.0
 10
173.8105388246694
 20
67.79043911376648
 30
0.0
 10
174.1235414968288
 20
67.1846261342475
 30
0.0
 10
174.3035666350156
 20
66.35188243247045
 30
0.0
 10
174.3400747249331
 20
65.56903461810693
 30
0.0
 10
174.1551789626988
 20
64.63106485630178
 30
0.0
 10
173.7884740265416
 20
63.92748509659724
 30
0.0
 10
173.6034414020762
 20
63.57247157858148
 30
0.0
  0
SPLINE
  5
C9
330
1F
100
AcDbEntity
  8
0
  6
Continuous
 62
     7
370
    25
100
AcDbSpline
210
0.0
220
0.0
230
1.0
 70
     8
 71
     3
 72
    12
 73
     8
 74
     0
 42
0.00000001
 43
0.00000001
 40
0.0
 40
0.0
 40
0.0
 40
0.0
 40
0.2645357324841768
 40
0.3998137210612349
 40
0.5350672982154578
 40
0.7654034360362892
 40
1.0
 40
1.0
 40
1.0
 40
1.0
 10
173.6034414020762
 20
82.04768019264954
 30
0.0
 10
173.8105388246694
 20
81.64684557431754
 30
0.0
 10
174.1235414968288
 20
81.04103259479855
 30
0.0
 10
174.3035666350156
 20
80.20828889302149
 30
0.0
 10
174.3400747249331
 20
79.42544107865795
 30
0.0
 10
174.1551789626988
 20
78.4874713168528
 30
0.0
 10
173.7884740265416
 20
77.78389155714825
 30
0.0
 10
173.6034414020762
 20
77.4288780391325
 30
0.0
  0
LINE
  5
CA
330
1F
100
AcDbEntity
  8
0
  6
Continuous
 62
     7
370
    25
100
AcDbLine
 10
174.4045751223
 20
80.6600758856
 30
0.0
 11
174.4045751223
 21
64.9600758856
 31
0.0
  0
SPLINE
  5
CB
330
1F
100
AcDbEntity
  8
0
  6
Continuous
 62
     7
370
    25
100
AcDbSpline
210
0.0
220
0.0
230
1.0
 70
     8
 71
     3
 72
    12
 73
     8
 74
     0
 42
0.00000001
 43
0.00000001
 40
0.0
 40
0.0
 40
0.0
 40
0.0
 40
0.2645357324841768
 40
0.3998137210612349
 40
0.5350672982154578
 40
0.7654034360362892
 40
1.0
 40
1.0
 40
1.0
 40
1.0
 10
166.2057088424657
 20
82.04768019264954
 30
0.0
 10
165.9986114198725
 20
81.64684557431754
 30
0.0
 10
165.6856087477131
 20
81.04103259479855
 30
0.0
 10
165.5055836095263
 20
80.20828889302149
 30
0.0
 10
165.4690755196088
 20
79.42544107865795
 30
0.0
 10
165.6539712818432
 20
78.4874713168528
 30
0.0
 10
166.0206762180003
 20
77.78389155714825
 30
0.0
 10
166.2057088424657
 20
77.4288780391325
 30
0.0
  0
SPLINE
  5
CC
330
1F
100
AcDbEntity
  8
0
  6
Continuous
 62
     7
370
    25
100
AcDbSpline
210
0.0
220
0.0
230
1.0
 70
     8
 71
     3
 72
    12
 73
     8
 74
     0
 42
0.00000001
 43
0.00000001
 40
0.0
 40
0.0
 40
0.0
 40
0.0
 40
0.2645357324841768
 40
0.3998137210612349
 40
0.535067298215458
 40
0.7654034360362891
 40
1.0
 40
1.0
 40
1.0
 40
1.0
 10
166.2057088424657
 20
68.19127373209847
 30
0.0
 10
165.9986114198725
 20
67.79043911376648
 30
0.0
 10
165.6856087477131
 20
67.1846261342475
 30
0.0
 10
165.5055836095263
 20
66.35188243247045
 30
0.0
 10
165.4690755196088
 20
65.56903461810693
 30
0.0
 10
165.6539712818432
 20
64.63106485630178
 30
0.0
 10
166.0206762180003
 20
63.92748509659724
 30
0.0
 10
166.2057088424657
 20
63.57247157858148
 30
0.0
  0
LINE
  5
CD
330
1F
100
AcDbEntity
  8
0
  6
Continuous
 62
     7
370
    25
100
AcDbLine
 10
165.4045751223
 20
80.6600758856
 30
0.0
 11
165.4045751223
 21
64.9600758856
 31
0.0
  0
LINE
  5
CE
330
1F
100
AcDbEntity
  8
0
  6
Continuous
 62
     7
370
    25
100
AcDbLine
 10
173.6034414021
 20
82.0476801926
 30
0.0
 11
169.9581649608
 21
82.0476801926
 31
0.0
  0
LINE
  5
CF
330
1F
100
AcDbEntity
  8
0
  6
Continuous
 62
     7
370
    25
100
AcDbLine
 10
169.8509852838
 20
82.0476801926
 30
0.0
 11
166.2057088425
 21
82.0476801926
 31
0.0
  0
LINE
  5
D0
330
1F
100
AcDbEntity
  8
0
  6
Continuous
 62
     7
370
    25
100
AcDbLine
 10
169.9045751223
 20
81.8405571428
 30
0.0
 11
169.8509852838
 21
82.0476801926
 31
0.0
  0
LINE
  5
D1
330
1F
100
AcDbEntity
  8
0
  6
Continuous
 62
     7
370
    25
100
AcDbLine
 10
169.9581649608
 20
82.0476801926
 30
0.0
 11
169.9045751223
 21
81.8405571428
 31
0.0
  0
LINE
  5
D2
330
1F
100
AcDbEntity
  8
0
  6
Continuous
 62
     7
370
    25
100
AcDbLine
 10
173.6034414021
 20
63.5724715786
 30
0.0
 11
169.9581649608
 21
63.5724715786
 31
0.0
  0
LINE
  5
D3
330
1F
100
AcDbEntity
  8
0
  6
Continuous
 62
     7
370
    25
100
AcDbLine
 10
169.9045751223
 20
63.7795946284
 30
0.0
 11
169.9581649608
 21
63.5724715786
 31
0.0
  0
LINE
  5
D4
330
1F
100
AcDbEntity
  8
0
  6
Continuous
 62
     7
370
    25
100
AcDbLine
 10
169.8509852838
 20
63.5724715786
 30
0.0
 11
169.9045751223
 21
63.7795946284
 31
0.0
  0
LINE
  5
D5
330
1F
100
AcDbEntity
  8
0
  6
Continuous
 62
     7
370
    25
100
AcDbLine
 10
169.8509852838
 20
63.5724715786
 30
0.0
 11
166.2057088425
 21
63.5724715786
 31
0.0
  0
LINE
  5
D6
330
1F
100
AcDbEntity
  8
0
  6
Continuous
 62
     7
370
    25
100
AcDbLine
 10
176.4045751223
 20
80.3600758856
 30
0.0
 11
176.4045751223
 21
65.2600758856
 31
0.0
  0
LINE
  5
D7
330
1F
100
AcDbEntity
  8
0
  6
Continuous
 62
     7
370
    25
100
AcDbLine
 10
163.4045751223
 20
72.8100758856
 30
0.0
 11
163.4045751223
 21
80.3600758856
 31
0.0
  0
LINE
  5
D8
330
1F
100
AcDbEntity
  8
0
  6
Continuous
 62
     7
370
    25
100
AcDbLine
 10
163.4045751223
 20
65.2600758856
 30
0.0
 11
163.4045751223
 21
72.8100758856
 31
0.0
  0
LINE
  5
D9
330
1F
100
AcDbEntity
  8
0
  6
Continuous
 62
     7
370
    25
100
AcDbLine
 10
169.9045751223
 20
81.8476801926
 30
0.0
 11
169.9045751223
 21
81.8405571428
 31
0.0
  0
LINE
  5
DA
330
1F
100
AcDbEntity
  8
0
  6
Continuous
 62
     7
370
    25
100
AcDbLine
 10
169.9045751223
 20
63.7795946284
 30
0.0
 11
169.9045751223
 21
63.7724715786
 31
0.0
  0
LINE
  5
DB
330
1F
100
AcDbEntity
  8
0
  6
Continuous
 62
     7
370
    25
100
AcDbLine
 10
190.60808871
 20
83.3100758856
 30
0.0
 11
199.60808871
 21
83.3100758856
 31
0.0
  0
LINE
  5
DC
330
1F
100
AcDbEntity
  8
0
  6
Continuous
 62
     7
370
    25
100
AcDbLine
 10
190.60808871
 20
83.3478928094
 30
0.0
 11
190.60808871
 21
83.3100758856
 31
0.0
  0
SPLINE
  5
DD
330
1F
100
AcDbEntity
  8
0
  6
Continuous
 62
     7
370
    25
100
AcDbSpline
210
0.0
220
0.0
230
1.0
 70
     8
 71
     3
 72
     9
 73
     5
 74
     0
 42
0.00000001
 43
0.00000001
 40
0.0
 40
0.0
 40
0.0
 40
0.0
 40
0.4875141023677128
 40
0.9999999999999999
 40
0.9999999999999999
 40
0.9999999999999999
 40
0.9999999999999999
 10
190.4521434595738
 20
83.3100758856155
 30
0.0
 10
190.4784500334964
 20
83.3118032315872
 30
0.0
 10
190.5324106754447
 20
83.31534640287869
 30
0.0
 10
190.5824462061394
 20
83.33686488882799
 30
0.0
 10
190.608088710001
 20
83.34789280941543
 30
0.0
  0
SPLINE
  5
DE
330
1F
100
AcDbEntity
  8
0
  6
Continuous
 62
     7
370
    25
100
AcDbSpline
210
0.0
220
0.0
230
1.0
 70
     8
 71
     3
 72
    17
 73
    13
 74
     0
 42
0.00000001
 43
0.00000001
 40
0.0
 40
0.0
 40
0.0
 40
0.0
 40
0.3241697628029873
 40
0.5422758463620719
 40
0.689509052693928
 40
0.7894036290694505
 40
0.8577090008137825
 40
0.9049823971474137
 40
0.9551712229700868
 40
0.9753097783197817
 40
0.9919572060138848
 40
1.0
 40
1.0
 40
1.0
 40
1.0
 10
188.1335418259189
 20
91.31007588561307
 30
0.0
 10
188.2762571859361
 20
90.39746238300741
 30
0.0
 10
188.514993494878
 20
88.87082937674606
 30
0.0
 10
188.8945806893296
 20
86.94405647446509
 30
0.0
 10
189.2037148976767
 20
85.65642100353233
 30
0.0
 10
189.4598284258769
 20
84.79726903681058
 30
0.0
 10
189.6741394287718
 20
84.22380114843318
 30
0.0
 10
189.8773736497998
 20
83.8022689944032
 30
0.0
 10
190.0619189143424
 20
83.52177645160778
 30
0.0
 10
190.2479900007105
 20
83.36622778302711
 30
0.0
 10
190.3632005999664
 20
83.31561718382962
 30
0.0
 10
190.4302894054393
 20
83.31143743202499
 30
0.0
 10
190.4521434595738
 20
83.3100758856155
 30
0.0
  0
LINE
  5
DF
330
1F
100
AcDbEntity
  8
0
  6
Continuous
 62
     7
370
    25
100
AcDbLine
 10
188.1335418259
 20
91.3100758856
 30
0.0
 11
200.05808871
 21
91.3100758856
 31
0.0
  0
LINE
  5
E0
330
1F
100
AcDbEntity
  8
0
  6
Continuous
 62
     7
370
    25
100
AcDbLine
 10
188.8937525817
 20
92.3048194636
 30
0.0
 11
188.1335418259
 21
91.3100758856
 31
0.0
  0
LINE
  5
E1
330
1F
100
AcDbEntity
  8
0
  6
Continuous
 62
     7
370
    25
100
AcDbLine
 10
187.3842865356
 20
99.3100758856
 30
0.0
 11
185.6561478717
 21
92.3048194636
 31
0.0
  0
LINE
  5
E2
330
1F
100
AcDbEntity
  8
0
  6
Continuous
 62
     7
370
    25
100
AcDbLine
 10
197.8471740427
 20
99.3100758856
 30
0.0
 11
187.3842865356
 21
99.3100758856
 31
0.0
  0
SPLINE
  5
E3
330
1F
100
AcDbEntity
  8
0
  6
Continuous
 62
     7
370
    25
100
AcDbSpline
210
0.0
220
0.0
230
1.0
 70
     8
 71
     3
 72
    14
 73
    10
 74
     0
 42
0.00000001
 43
0.00000001
 40
0.0
 40
0.0
 40
0.0
 40
0.0
 40
0.1576095309202821
 40
0.3152382602707094
 40
0.4726926441579496
 40
0.6301650083177253
 40
0.7907313191165902
 40
0.9513050385928076
 40
1.0
 40
1.0
 40
1.0
 40
1.0
 10
186.108088710001
 20
83.31007588561545
 30
0.0
 10
186.041517695219
 20
83.52357767409285
 30
0.0
 10
185.9083675566341
 20
83.95060725771836
 30
0.0
 10
185.5798005948834
 20
84.53585433657466
 30
0.0
 10
185.1664109541513
 20
85.05800887739709
 30
0.0
 10
184.6707360352067
 20
85.50698700481696
 30
0.0
 10
184.1044463299222
 20
85.86626873662334
 30
0.0
 10
183.6281956735292
 20
86.07083491572452
 30
0.0
 10
183.3480011053364
 20
86.15162946407582
 30
0.0
 10
183.2828023205634
 20
86.1704296371226
 30
0.0
  0
LINE
  5
E4
330
1F
100
AcDbEntity
  8
0
  6
Continuous
 62
     7
370
    25
100
AcDbLine
 10
183.2828023206
 20
86.1704296371
 30
0.0
 11
177.5030454707
 21
87.7390510776
 31
0.0
  0
SPLINE
  5
E5
330
1F
100
AcDbEntity
  8
0
  6
Continuous
 62
     7
370
    25
100
AcDbSpline
210
0.0
220
0.0
230
1.0
 70
     8
 71
     3
 72
     9
 73
     5
 74
     0
 42
0.00000001
 43
0.00000001
 40
0.0
 40
0.0
 40
0.0
 40
0.0
 40
0.497693137079144
 40
1.0
 40
1.0
 40
1.0
 40
1.0
 10
170.4326518484644
 20
89.06225157859099
 30
0.0
 10
171.6212888122456
 20
88.91280469759056
 30
0.0
 10
174.0095816682755
 20
88.61252552983368
 30
0.0
 10
176.3349812844634
 20
88.03110340244623
 30
0.0
 10
177.5030454707081
 20
87.73905107760548
 30
0.0
  0
LINE
  5
E6
330
1F
100
AcDbEntity
  8
0
  6
Continuous
 62
     7
370
    25
100
AcDbLine
 10
170.4326518485
 20
89.0622515786
 30
0.0
 11
170.4326518485
 21
92.3048194636
 31
0.0
  0
LINE
  5
E7
330
1F
100
AcDbEntity
  8
0
  6
Continuous
 62
     7
370
    25
100
AcDbLine
 10
170.4326518485
 20
92.3048194636
 30
0.0
 11
188.8937525817
 21
92.3048194636
 31
0.0
  0
LINE
  5
E8
330
1F
100
AcDbEntity
  8
0
  6
Continuous
 62
     7
370
    25
100
AcDbLine
 10
190.4521434596
 20
83.3100758856
 30
0.0
 11
186.10808871
 21
83.3100758856
 31
0.0
  0
LINE
  5
E9
330
1F
100
AcDbEntity
  8
0
  6
Continuous
 62
     7
370
    25
100
AcDbLine
 10
190.60808871
 20
83.3478928094
 30
0.0
 11
190.6012893521
 21
83.3100758856
 31
0.0
  0
LINE
  5
EA
330
1F
100
AcDbEntity
  8
0
  6
Continuous
 62
     7
370
    25
100
AcDbLine
 10
190.6012893521
 20
83.3100758856
 30
0.0
 11
190.4521434596
 21
83.3100758856
 31
0.0
  0
LINE
  5
EB
330
1F
100
AcDbEntity
  8
0
  6
Continuous
 62
     7
370
    25
100
AcDbLine
 10
190.60808871
 20
83.3100758856
 30
0.0
 11
190.6012893521
 21
83.3100758856
 31
0.0
  0
LINE
  5
EC
330
1F
100
AcDbEntity
  8
0
  6
Continuous
 62
     7
370
    25
100
AcDbLine
 10
152.60808871
 20
101.3100758856
 30
0.0
 11
170.4326518485
 21
101.3100758856
 31
0.0
  0
LINE
  5
ED
330
1F
100
AcDbEntity
  8
0
  6
Continuous
 62
     7
370
    25
100
AcDbLine
 10
170.4326518485
 20
101.3100758856
 30
0.0
 11
170.4326518485
 21
92.3048194636
 31
0.0
  0
LINE
  5
EE
330
1F
100
AcDbEntity
  8
0
  6
Continuous
 62
     7
370
    25
100
AcDbLine
 10
165.7164208522
 20
89.3100758856
 30
0.0
 11
157.60808871
 21
89.3100758856
 31
0.0
  0
ARC
  5
EF
330
1F
100
AcDbEntity
  8
0
  6
Continuous
 62
     7
370
    25
100
AcDbCircle
 10
157.60808871
 20
94.3100758856
 30
0.0
 40
5.0
100
AcDbArc
 50
180.0
 51
270.0
  0
LINE
  5
F0
330
1F
100
AcDbEntity
  8
0
  6
Continuous
 62
     7
370
    25
100
AcDbLine
 10
152.60808871
 20
94.3100758856
 30
0.0
 11
152.60808871
 21
101.3100758856
 31
0.0
  0
ARC
  5
F1
330
1F
100
AcDbEntity
  8
0
  6
Continuous
 62
     7
370
    25
100
AcDbCircle
 10
165.7164208522
 20
44.3099466314
 30
0.0
 40
45.00012925418374
100
AcDbArc
 50
83.9840777705
 51
90.0
  0
LINE
  5
F2
330
1F
100
AcDbEntity
  8
0
  6
Continuous
 62
     7
370
    25
100
AcDbLine
 10
170.4326518485
 20
101.3100758856
 30
0.0
 11
172.60808871
 21
101.3100758856
 31
0.0
  0
LINE
  5
F3
330
1F
100
AcDbEntity
  8
0
  6
Continuous
 62
     7
370
    25
100
AcDbLine
 10
172.60808871
 20
101.3100758856
 30
0.0
 11
172.60808871
 21
99.329031409
 31
0.0
  0
ARC
  5
F4
330
1F
100
AcDbEntity
  8
0
  6
Continuous
 62
     7
370
    25
100
AcDbCircle
 10
178.60808871
 20
99.329031409
 30
0.0
 40
6.000000000000003
100
AcDbArc
 50
180.0
 51
275.5801667845
  0
ARC
  5
F5
330
1F
100
AcDbEntity
  8
0
  6
Continuous
 62
     7
370
    25
100
AcDbCircle
 10
178.2191351457
 20
103.3100758856
 30
0.0
 40
10.00000000000848
100
AcDbArc
 50
275.5801667845
 51
336.4218215217
  0
LINE
  5
F6
330
1F
100
AcDbEntity
  8
0
  6
Continuous
 62
     7
370
    25
100
AcDbLine
 10
186.10808871
 20
83.3100758856
 30
0.0
 11
185.60808871
 21
83.3100758856
 31
0.0
  0
LINE
  5
F7
330
1F
100
AcDbEntity
  8
0
  6
Continuous
 62
     7
370
    25
100
AcDbLine
 10
187.3690033773
 20
99.3100758856
 30
0.0
 11
187.3842865356
 21
99.3100758856
 31
0.0
  0
LINE
  5
F8
330
1F
100
AcDbEntity
  8
0
  6
Continuous
 62
     7
370
    25
100
AcDbLine
 10
179.80808871
 20
80.8100758856
 30
0.0
 11
179.80808871
 21
64.8100758856
 31
0.0
  0
LINE
  5
F9
330
1F
100
AcDbEntity
  8
0
  6
Continuous
 62
     7
370
    25
100
AcDbLine
 10
179.60808871
 20
65.0100758856
 30
0.0
 11
179.60808871
 21
80.6100758856
 31
0.0
  0
LINE
  5
FA
330
1F
100
AcDbEntity
  8
0
  6
Continuous
 62
     7
370
    25
100
AcDbLine
 10
182.60808871
 20
72.8100758856
 30
0.0
 11
182.60808871
 21
82.5600758856
 31
0.0
  0
LINE
  5
FB
330
1F
100
AcDbEntity
  8
0
  6
Continuous
 62
     7
370
    25
100
AcDbLine
 10
182.60808871
 20
63.0600758856
 30
0.0
 11
182.60808871
 21
72.8100758856
 31
0.0
  0
LINE
  5
FC
330
1F
100
AcDbEntity
  8
0
  6
Continuous
 62
     7
370
    25
100
AcDbLine
 10
182.85808871
 20
72.8100758856
 30
0.0
 11
182.85808871
 21
62.8100758856
 31
0.0
  0
LINE
  5
FD
330
1F
100
AcDbEntity
  8
0
  6
Continuous
 62
     7
370
    25
100
AcDbLine
 10
182.85808871
 20
82.8100758856
 30
0.0
 11
182.85808871
 21
72.8100758856
 31
0.0
  0
LINE
  5
FE
330
1F
100
AcDbEntity
  8
0
  6
Continuous
 62
     7
370
    25
100
AcDbLine
 10
202.10808871
 20
62.8100758856
 30
0.0
 11
202.10808871
 21
82.8100758856
 31
0.0
  0
LINE
  5
FF
330
1F
100
AcDbEntity
  8
0
  6
Continuous
 62
     7
370
    25
100
AcDbLine
 10
202.60808871
 20
82.3100758856
 30
0.0
 11
202.60808871
 21
63.3100758856
 31
0.0
  0
LINE
  5
100
330
1F
100
AcDbEntity
  8
0
  6
Continuous
 62
     7
370
    25
100
AcDbLine
 10
184.7261226988
 20
72.8100758856
 30
0.0
 11
184.7261226988
 21
62.8100758856
 31
0.0
  0
LINE
  5
101
330
1F
100
AcDbEntity
  8
0
  6
Continuous
 62
     7
370
    25
100
AcDbLine
 10
184.7261226988
 20
82.8100758856
 30
0.0
 11
184.7261226988
 21
72.8100758856
 31
0.0
  0
LINE
  5
102
330
1F
100
AcDbEntity
  8
0
  6
Continuous
 62
     7
370
    25
100
AcDbLine
 10
185.10808871
 20
81.8100758856
 30
0.0
 11
185.10808871
 21
78.3100758856
 31
0.0
  0
SPLINE
  5
103
330
1F
100
AcDbEntity
  8
0
  6
Continuous
 62
     7
370
    25
100
AcDbSpline
210
0.0
220
0.0
230
1.0
 70
     8
 71
     3
 72
     8
 73
     4
 74
     0
 42
0.00000001
 43
0.00000001
 40
0.0
 40
0.0
 40
0.0
 40
0.0
 40
1.0
 40
1.0
 40
1.0
 40
1.0
 10
185.0108875853471
 20
78.2097657371114
 30
0.0
 10
185.0787240029232
 20
78.2411286781222
 30
0.0
 10
185.108088710001
 20
78.27459683877173
 30
0.0
 10
185.108088710001
 20
78.3100758856155
 30
0.0
  0
SPLINE
  5
104
330
1F
100
AcDbEntity
  8
0
  6
Continuous
 62
     7
370
    25
100
AcDbSpline
210
0.0
220
0.0
230
1.0
 70
     8
 71
     3
 72
    12
 73
     8
 74
     0
 42
0.00000001
 43
0.00000001
 40
0.0
 40
0.0
 40
0.0
 40
0.0
 40
0.4999999999999992
 40
0.4999999999999992
 40
0.7499999999999996
 40
0.7499999999999996
 40
1.0
 40
1.0
 40
1.0
 40
1.0
 10
185.0108875853471
 20
78.2097657371114
 30
0.0
 10
184.9430178253373
 20
78.17838738082932
 30
0.0
 10
184.8669832740836
 20
78.04467886033076
 30
0.0
 10
184.8203386757066
 20
77.76665275066497
 30
0.0
 10
184.8158996791839
 20
77.65980656666102
 30
0.0
 10
184.8316302929767
 20
77.43292509260527
 30
0.0
 10
184.8515107229191
 20
77.31275612030065
 30
0.0
 10
184.879002642899
 20
77.1913064754904
 30
0.0
  0
SPLINE
  5
105
330
1F
100
AcDbEntity
  8
0
  6
Continuous
 62
     7
370
    25
100
AcDbSpline
210
0.0
220
0.0
230
1.0
 70
     8
 71
     3
 72
    12
 73
     8
 74
     0
 42
0.00000001
 43
0.00000001
 40
0.0
 40
0.0
 40
0.0
 40
0.0
 40
0.4999999999999998
 40
0.4999999999999998
 40
0.7499999999999999
 40
0.7499999999999999
 40
1.0
 40
1.0
 40
1.0
 40
1.0
 10
185.108088710001
 20
72.8100758856155
 30
0.0
 10
185.108088710001
 20
73.54403290777272
 30
0.0
 10
185.1126461050002
 20
74.27701135213553
 30
0.0
 10
185.085462440621
 20
75.37383546508194
 30
0.0
 10
185.0700127697038
 20
75.73898305365238
 30
0.0
 10
185.0071491681719
 20
76.46777106751641
 30
0.0
 10
184.9601192450036
 20
76.83296182291474
 30
0.0
 10
184.879002642899
 20
77.1913064754904
 30
0.0
  0
SPLINE
  5
106
330
1F
100
AcDbEntity
  8
0
  6
Continuous
 62
     7
370
    25
100
AcDbSpline
210
0.0
220
0.0
230
1.0
 70
     8
 71
     3
 72
    12
 73
     8
 74
     0
 42
0.00000001
 43
0.00000001
 40
0.0
 40
0.0
 40
0.0
 40
0.0
 40
0.2500000000000001
 40
0.2500000000000001
 40
0.5000000000000002
 40
0.5000000000000002
 40
1.0
 40
1.0
 40
1.0
 40
1.0
 10
184.879002642899
 20
68.4288452957406
 30
0.0
 10
184.9601192450036
 20
68.78718994831628
 30
0.0
 10
185.0071491681719
 20
69.1523807037146
 30
0.0
 10
185.0700127697038
 20
69.88116871757865
 30
0.0
 10
185.085462440621
 20
70.24631630614908
 30
0.0
 10
185.1126461050002
 20
71.34314041909549
 30
0.0
 10
185.108088710001
 20
72.0761188634583
 30
0.0
 10
185.108088710001
 20
72.81007588561552
 30
0.0
  0
SPLINE
  5
107
330
1F
100
AcDbEntity
  8
0
  6
Continuous
 62
     7
370
    25
100
AcDbSpline
210
0.0
220
0.0
230
1.0
 70
     8
 71
     3
 72
    14
 73
    10
 74
     0
 42
0.00000001
 43
0.00000001
 40
0.0
 40
0.0
 40
0.0
 40
0.0
 40
0.25
 40
0.25
 40
0.5
 40
0.5
 40
0.75
 40
0.75
 40
1.0
 40
1.0
 40
1.0
 40
1.0
 10
184.879002642899
 20
68.4288452957406
 30
0.0
 10
184.8514816551539
 20
68.30726723975489
 30
0.0
 10
184.8315617333175
 20
68.18674250272977
 30
0.0
 10
184.8158946914994
 20
67.95976624362166
 30
0.0
 10
184.8203865233118
 20
67.85279626605548
 30
0.0
 10
184.8516428685953
 20
67.66733071427575
 30
0.0
 10
184.8780154519771
 20
67.58844545315692
 30
0.0
 10
184.9408520031214
 20
67.46780766198383
 30
0.0
 10
184.9768915819815
 20
67.42610347154121
 30
0.0
 10
185.0108875853471
 20
67.41038603411961
 30
0.0
  0
SPLINE
  5
108
330
1F
100
AcDbEntity
  8
0
  6
Continuous
 62
     7
370
    25
100
AcDbSpline
210
0.0
220
0.0
230
1.0
 70
     8
 71
     3
 72
     8
 73
     4
 74
     0
 42
0.00000001
 43
0.00000001
 40
0.0
 40
0.0
 40
0.0
 40
0.0
 40
1.0
 40
1.0
 40
1.0
 40
1.0
 10
185.108088710001
 20
67.3100758856155
 30
0.0
 10
185.108088710001
 20
67.34555493245928
 30
0.0
 10
185.0787240029232
 20
67.37902309310884
 30
0.0
 10
185.0108875853471
 20
67.41038603411961
 30
0.0
  0
LINE
  5
109
330
1F
100
AcDbEntity
  8
0
  6
Continuous
 62
     7
370
    25
100
AcDbLine
 10
185.10808871
 20
67.3100758856
 30
0.0
 11
185.10808871
 21
63.8100758856
 31
0.0
  0
LINE
  5
10A
330
1F
100
AcDbEntity
  8
0
  6
Continuous
 62
     7
370
    25
100
AcDbLine
 10
200.4900547213
 20
62.8100758856
 30
0.0
 11
200.4900547213
 21
82.8100758856
 31
0.0
  0
SPLINE
  5
10B
330
1F
100
AcDbEntity
  8
0
  6
Continuous
 62
     7
370
    25
100
AcDbSpline
210
0.0
220
0.0
230
1.0
 70
     8
 71
     3
 72
     8
 73
     4
 74
     0
 42
0.00000001
 43
0.00000001
 40
0.0
 40
0.0
 40
0.0
 40
0.0
 40
1.0
 40
1.0
 40
1.0
 40
1.0
 10
200.2052898346549
 20
67.41038603411961
 30
0.0
 10
200.1374534170789
 20
67.37902309310884
 30
0.0
 10
200.108088710001
 20
67.34555493245928
 30
0.0
 10
200.108088710001
 20
67.3100758856155
 30
0.0
  0
SPLINE
  5
10C
330
1F
100
AcDbEntity
  8
0
  6
Continuous
 62
     7
370
    25
100
AcDbSpline
210
0.0
220
0.0
230
1.0
 70
     8
 71
     3
 72
    12
 73
     8
 74
     0
 42
0.00000001
 43
0.00000001
 40
0.0
 40
0.0
 40
0.0
 40
0.0
 40
0.5000000000000001
 40
0.5000000000000001
 40
0.75
 40
0.75
 40
1.0
 40
1.0
 40
1.0
 40
1.0
 10
200.2052898346549
 20
67.41038603411961
 30
0.0
 10
200.2731595946647
 20
67.44176439040172
 30
0.0
 10
200.3491941459185
 20
67.57547291090026
 30
0.0
 10
200.3958387442955
 20
67.85349902056605
 30
0.0
 10
200.4002777408181
 20
67.96034520457
 30
0.0
 10
200.3845471270253
 20
68.18722667862575
 30
0.0
 10
200.3646666970829
 20
68.30739565093036
 30
0.0
 10
200.3371747771031
 20
68.4288452957406
 30
0.0
  0
SPLINE
  5
10D
330
1F
100
AcDbEntity
  8
0
  6
Continuous
 62
     7
370
    25
100
AcDbSpline
210
0.0
220
0.0
230
1.0
 70
     8
 71
     3
 72
    12
 73
     8
 74
     0
 42
0.00000001
 43
0.00000001
 40
0.0
 40
0.0
 40
0.0
 40
0.0
 40
0.5
 40
0.5
 40
0.75
 40
0.75
 40
1.0
 40
1.0
 40
1.0
 40
1.0
 10
200.108088710001
 20
72.81007588561552
 30
0.0
 10
200.108088710001
 20
72.0761188634583
 30
0.0
 10
200.1035313150018
 20
71.34314041909549
 30
0.0
 10
200.1307149793811
 20
70.24631630614908
 30
0.0
 10
200.1461646502983
 20
69.88116871757866
 30
0.0
 10
200.2090282518301
 20
69.1523807037146
 30
0.0
 10
200.2560581749984
 20
68.78718994831628
 30
0.0
 10
200.3371747771031
 20
68.4288452957406
 30
0.0
  0
SPLINE
  5
10E
330
1F
100
AcDbEntity
  8
0
  6
Continuous
 62
     7
370
    25
100
AcDbSpline
210
0.0
220
0.0
230
1.0
 70
     8
 71
     3
 72
    12
 73
     8
 74
     0
 42
0.00000001
 43
0.00000001
 40
0.0
 40
0.0
 40
0.0
 40
0.0
 40
0.25
 40
0.25
 40
0.5
 40
0.5
 40
1.0
 40
1.0
 40
1.0
 40
1.0
 10
200.3371747771031
 20
77.1913064754904
 30
0.0
 10
200.2560581749984
 20
76.83296182291474
 30
0.0
 10
200.2090282518301
 20
76.46777106751641
 30
0.0
 10
200.1461646502983
 20
75.73898305365238
 30
0.0
 10
200.1307149793811
 20
75.37383546508194
 30
0.0
 10
200.1035313150018
 20
74.27701135213553
 30
0.0
 10
200.108088710001
 20
73.54403290777273
 30
0.0
 10
200.108088710001
 20
72.8100758856155
 30
0.0
  0
SPLINE
  5
10F
330
1F
100
AcDbEntity
  8
0
  6
Continuous
 62
     7
370
    25
100
AcDbSpline
210
0.0
220
0.0
230
1.0
 70
     8
 71
     3
 72
    14
 73
    10
 74
     0
 42
0.00000001
 43
0.00000001
 40
0.0
 40
0.0
 40
0.0
 40
0.0
 40
0.25
 40
0.25
 40
0.5
 40
0.5
 40
0.75
 40
0.75
 40
1.0
 40
1.0
 40
1.0
 40
1.0
 10
200.3371747771031
 20
77.1913064754904
 30
0.0
 10
200.3646957648481
 20
77.31288453147613
 30
0.0
 10
200.3846156866845
 20
77.43340926850125
 30
0.0
 10
200.4002827285026
 20
77.66038552760936
 30
0.0
 10
200.3957908966903
 20
77.76735550517553
 30
0.0
 10
200.3645345514067
 20
77.95282105695526
 30
0.0
 10
200.3381619680249
 20
78.0317063180741
 30
0.0
 10
200.2753254168806
 20
78.1523441092472
 30
0.0
 10
200.2392858380205
 20
78.1940482996898
 30
0.0
 10
200.2052898346549
 20
78.20976573711141
 30
0.0
  0
SPLINE
  5
110
330
1F
100
AcDbEntity
  8
0
  6
Continuous
 62
     7
370
    25
100
AcDbSpline
210
0.0
220
0.0
230
1.0
 70
     8
 71
     3
 72
     8
 73
     4
 74
     0
 42
0.00000001
 43
0.00000001
 40
0.0
 40
0.0
 40
0.0
 40
0.0
 40
1.0
 40
1.0
 40
1.0
 40
1.0
 10
200.108088710001
 20
78.3100758856155
 30
0.0
 10
200.108088710001
 20
78.27459683877173
 30
0.0
 10
200.1374534170789
 20
78.2411286781222
 30
0.0
 10
200.2052898346549
 20
78.2097657371114
 30
0.0
  0
LINE
  5
111
330
1F
100
AcDbEntity
  8
0
  6
Continuous
 62
     7
370
    25
100
AcDbLine
 10
200.10808871
 20
78.3100758856
 30
0.0
 11
200.10808871
 21
81.8100758856
 31
0.0
  0
LINE
  5
112
330
1F
100
AcDbEntity
  8
0
  6
Continuous
 62
     7
370
    25
100
AcDbLine
 10
200.10808871
 20
63.8100758856
 30
0.0
 11
200.10808871
 21
67.3100758856
 31
0.0
  0
LINE
  5
113
330
1F
100
AcDbEntity
  8
0
  6
Continuous
 62
     7
370
    25
100
AcDbLine
 10
200.10808871
 20
72.8100758856
 30
0.0
 11
199.60808871
 21
72.8100758856
 31
0.0
  0
SPLINE
  5
114
330
1F
100
AcDbEntity
  8
0
  6
Continuous
 62
     7
370
    25
100
AcDbSpline
210
0.0
220
0.0
230
1.0
 70
     8
 71
     3
 72
    14
 73
    10
 74
     0
 42
0.00000001
 43
0.00000001
 40
0.0
 40
0.0
 40
0.0
 40
0.0
 40
0.2499999999999999
 40
0.2499999999999999
 40
0.4999999999999999
 40
0.4999999999999999
 40
0.7499999999999999
 40
0.7499999999999999
 40
1.0
 40
1.0
 40
1.0
 40
1.0
 10
199.608088710001
 20
72.8100758856155
 30
0.0
 10
199.608088710001
 20
73.18659259770249
 30
0.0
 10
199.6076794482814
 20
73.56312865533144
 30
0.0
 10
199.6109907963873
 20
74.31600555418002
 30
0.0
 10
199.6147542818519
 20
74.69234436869537
 30
0.0
 10
199.6405275376316
 20
75.44415950741052
 30
0.0
 10
199.6624456323102
 20
75.81964016505951
 30
0.0
 10
199.7476632954954
 20
76.5686454043282
 30
0.0
 10
199.8109762816463
 20
76.94425331976966
 30
0.0
 10
199.9135367994704
 20
77.3100758856155
 30
0.0
  0
LINE
  5
115
330
1F
100
AcDbEntity
  8
0
  6
Continuous
 62
     7
370
    25
100
AcDbLine
 10
200.3371747771
 20
77.1913064755
 30
0.0
 11
199.9135367995
 21
77.3100758856
 31
0.0
  0
SPLINE
  5
116
330
1F
100
AcDbEntity
  8
0
  6
Continuous
 62
     7
370
    25
100
AcDbSpline
210
0.0
220
0.0
230
1.0
 70
     8
 71
     3
 72
    14
 73
    10
 74
     0
 42
0.00000001
 43
0.00000001
 40
0.0
 40
0.0
 40
0.0
 40
0.0
 40
0.2500000000000001
 40
0.2500000000000001
 40
0.5000000000000001
 40
0.5000000000000001
 40
0.7500000000000001
 40
0.7500000000000001
 40
1.0
 40
1.0
 40
1.0
 40
1.0
 10
185.608088710001
 20
72.81007588561552
 30
0.0
 10
185.608088710001
 20
72.43355917352855
 30
0.0
 10
185.6084979717207
 20
72.05702311589957
 30
0.0
 10
185.6051866236148
 20
71.30414621705098
 30
0.0
 10
185.6014231381501
 20
70.92780740253563
 30
0.0
 10
185.5756498823704
 20
70.1759922638205
 30
0.0
 10
185.5537317876919
 20
69.8005116061715
 30
0.0
 10
185.4685141245066
 20
69.05150636690281
 30
0.0
 10
185.4052011383557
 20
68.67589845146136
 30
0.0
 10
185.3026406205316
 20
68.3100758856155
 30
0.0
  0
LINE
  5
117
330
1F
100
AcDbEntity
  8
0
  6
Continuous
 62
     7
370
    25
100
AcDbLine
 10
185.3026406205
 20
68.3100758856
 30
0.0
 11
184.8790026429
 21
68.4288452957
 31
0.0
  0
LINE
  5
118
330
1F
100
AcDbEntity
  8
0
  6
Continuous
 62
     7
370
    25
100
AcDbLine
 10
185.60808871
 20
72.8100758856
 30
0.0
 11
185.10808871
 21
72.8100758856
 31
0.0
  0
LINE
  5
119
330
1F
100
AcDbEntity
  8
0
  6
Continuous
 62
     7
370
    25
100
AcDbLine
 10
200.3371747771
 20
68.4288452957
 30
0.0
 11
199.9135367995
 21
68.3100758856
 31
0.0
  0
SPLINE
  5
11A
330
1F
100
AcDbEntity
  8
0
  6
Continuous
 62
     7
370
    25
100
AcDbSpline
210
0.0
220
0.0
230
1.0
 70
     8
 71
     3
 72
    14
 73
    10
 74
     0
 42
0.00000001
 43
0.00000001
 40
0.0
 40
0.0
 40
0.0
 40
0.0
 40
0.2500000000000002
 40
0.2500000000000002
 40
0.5000000000000003
 40
0.5000000000000003
 40
0.7500000000000002
 40
0.7500000000000002
 40
1.0
 40
1.0
 40
1.0
 40
1.0
 10
199.9135367994704
 20
68.3100758856155
 30
0.0
 10
199.8109762816463
 20
68.67589845146136
 30
0.0
 10
199.7476632954954
 20
69.05150636690281
 30
0.0
 10
199.6624456323102
 20
69.8005116061715
 30
0.0
 10
199.6405275376316
 20
70.1759922638205
 30
0.0
 10
199.6147542818519
 20
70.92780740253565
 30
0.0
 10
199.6109907963873
 20
71.304146217051
 30
0.0
 10
199.6076794482814
 20
72.05702311589958
 30
0.0
 10
199.608088710001
 20
72.43355917352855
 30
0.0
 10
199.608088710001
 20
72.81007588561552
 30
0.0
  0
SPLINE
  5
11B
330
1F
100
AcDbEntity
  8
0
  6
Continuous
 62
     7
370
    25
100
AcDbSpline
210
0.0
220
0.0
230
1.0
 70
     8
 71
     3
 72
    14
 73
    10
 74
     0
 42
0.00000001
 43
0.00000001
 40
0.0
 40
0.0
 40
0.0
 40
0.0
 40
0.2500000000000001
 40
0.2500000000000001
 40
0.5000000000000001
 40
0.5000000000000001
 40
0.75
 40
0.75
 40
1.0
 40
1.0
 40
1.0
 40
1.0
 10
185.3026406205316
 20
77.3100758856155
 30
0.0
 10
185.4052011383557
 20
76.94425331976966
 30
0.0
 10
185.4685141245066
 20
76.5686454043282
 30
0.0
 10
185.5537317876919
 20
75.81964016505951
 30
0.0
 10
185.5756498823704
 20
75.44415950741052
 30
0.0
 10
185.6014231381501
 20
74.69234436869536
 30
0.0
 10
185.6051866236148
 20
74.31600555418001
 30
0.0
 10
185.6084979717207
 20
73.56312865533144
 30
0.0
 10
185.608088710001
 20
73.18659259770247
 30
0.0
 10
185.608088710001
 20
72.8100758856155
 30
0.0
  0
LINE
  5
11C
330
1F
100
AcDbEntity
  8
0
  6
Continuous
 62
     7
370
    25
100
AcDbLine
 10
185.3026406205
 20
77.3100758856
 30
0.0
 11
184.8790026429
 21
77.1913064755
 31
0.0
  0
SPLINE
  5
11D
330
1F
100
AcDbEntity
  8
0
  6
Continuous
 62
     7
370
    25
100
AcDbSpline
210
0.0
220
0.0
230
1.0
 70
     8
 71
     3
 72
    14
 73
    10
 74
     0
 42
0.00000001
 43
0.00000001
 40
0.0
 40
0.0
 40
0.0
 40
0.0
 40
0.25
 40
0.25
 40
0.5
 40
0.5
 40
0.75
 40
0.75
 40
1.0
 40
1.0
 40
1.0
 40
1.0
 10
185.4784872104624
 20
67.8100758856155
 30
0.0
 10
185.4400117268409
 20
67.8100758856155
 30
0.0
 10
185.3989228053709
 20
67.82086245659873
 30
0.0
 10
185.3196399579303
 20
67.86379424366389
 30
0.0
 10
185.2823570568198
 20
67.89521175196876
 30
0.0
 10
185.229551297508
 20
67.98652659754498
 30
0.0
 10
185.2175820374144
 20
68.04775708030922
 30
0.0
 10
185.2375838257866
 20
68.17862044096495
 30
0.0
 10
185.2670402813389
 20
68.24658455530253
 30
0.0
 10
185.3026406205316
 20
68.3100758856155
 30
0.0
  0
ARC
  5
11E
330
1F
100
AcDbEntity
  8
0
  6
Continuous
 62
     7
370
    25
100
AcDbCircle
 10
185.487035794
 20
67.3267060749
 30
0.0
 40
0.4834453973191567
100
AcDbArc
 50
91.0131925738
 51
170.032425387
  0
SPLINE
  5
11F
330
1F
100
AcDbEntity
  8
0
  6
Continuous
 62
     7
370
    25
100
AcDbSpline
210
0.0
220
0.0
230
1.0
 70
     8
 71
     3
 72
    14
 73
    10
 74
     0
 42
0.00000001
 43
0.00000001
 40
0.0
 40
0.0
 40
0.0
 40
0.0
 40
0.25
 40
0.25
 40
0.5
 40
0.5
 40
0.75
 40
0.75
 40
1.0
 40
1.0
 40
1.0
 40
1.0
 10
199.7376902095396
 20
77.8100758856155
 30
0.0
 10
199.7761656931612
 20
77.8100758856155
 30
0.0
 10
199.8172546146312
 20
77.79928931463229
 30
0.0
 10
199.8965374620718
 20
77.75635752756715
 30
0.0
 10
199.9338203631822
 20
77.72494001926226
 30
0.0
 10
199.986626122494
 20
77.63362517368606
 30
0.0
 10
199.9985953825876
 20
77.57239469092178
 30
0.0
 10
199.9785935942155
 20
77.44153133026606
 30
0.0
 10
199.9491371386632
 20
77.37356721592847
 30
0.0
 10
199.9135367994704
 20
77.3100758856155
 30
0.0
  0
ARC
  5
120
330
1F
100
AcDbEntity
  8
0
  6
Continuous
 62
     7
370
    25
100
AcDbCircle
 10
199.729141626
 20
78.2934456963
 30
0.0
 40
0.4834453973192212
100
AcDbArc
 50
271.0131925738
 51
350.032425387
  0
ARC
  5
121
330
1F
100
AcDbEntity
  8
0
  6
Continuous
 62
     7
370
    25
100
AcDbCircle
 10
199.729141626
 20
67.3267060749
 30
0.0
 40
0.4834453973191425
100
AcDbArc
 50
9.967574613
 51
88.9868074262
  0
SPLINE
  5
122
330
1F
100
AcDbEntity
  8
0
  6
Continuous
 62
     7
370
    25
100
AcDbSpline
210
0.0
220
0.0
230
1.0
 70
     8
 71
     3
 72
    16
 73
    12
 74
     0
 42
0.00000001
 43
0.00000001
 40
0.0
 40
0.0
 40
0.0
 40
0.0
 40
0.2499999999999999
 40
0.2499999999999999
 40
0.3750000000000003
 40
0.3750000000000003
 40
0.5000000000000007
 40
0.5000000000000007
 40
0.7500000000000003
 40
0.7500000000000003
 40
1.0
 40
1.0
 40
1.0
 40
1.0
 10
199.9135367994704
 20
68.3100758856155
 30
0.0
 10
199.9490907289191
 20
68.24666732463731
 30
0.0
 10
199.9783628701477
 20
68.1794000243165
 30
0.0
 10
199.9935754203686
 20
68.08096071317415
 30
0.0
 10
199.9936360885422
 20
68.04848530681886
 30
0.0
 10
199.9834255040648
 20
67.98986009969266
 30
0.0
 10
199.9736421745396
 20
67.96423728813969
 30
0.0
 10
199.9344776260077
 20
67.89602844444423
 30
0.0
 10
199.8966045527344
 20
67.86386568927847
 30
0.0
 10
199.8175315797428
 20
67.82097747016256
 30
0.0
 10
199.776144447152
 20
67.8100758856155
 30
0.0
 10
199.7376902095396
 20
67.8100758856155
 30
0.0
  0
SPLINE
  5
123
330
1F
100
AcDbEntity
  8
0
  6
Continuous
 62
     7
370
    25
100
AcDbSpline
210
0.0
220
0.0
230
1.0
 70
     8
 71
     3
 72
    16
 73
    12
 74
     0
 42
0.00000001
 43
0.00000001
 40
0.0
 40
0.0
 40
0.0
 40
0.0
 40
0.2500000000000049
 40
0.2500000000000049
 40
0.3750000000000051
 40
0.3750000000000051
 40
0.5000000000000052
 40
0.5000000000000052
 40
0.7500000000000026
 40
0.7500000000000026
 40
1.0
 40
1.0
 40
1.0
 40
1.0
 10
185.3026406205316
 20
77.3100758856155
 30
0.0
 10
185.267086691083
 20
77.3734844465937
 30
0.0
 10
185.2378145498543
 20
77.44075174691451
 30
0.0
 10
185.2226019996334
 20
77.53919105805686
 30
0.0
 10
185.2225413314599
 20
77.57166646441215
 30
0.0
 10
185.2327519159372
 20
77.63029167153834
 30
0.0
 10
185.2425352454624
 20
77.65591448309134
 30
0.0
 10
185.2816997939944
 20
77.72412332678678
 30
0.0
 10
185.3195728672676
 20
77.75628608195257
 30
0.0
 10
185.3986458402592
 20
77.79917430106845
 30
0.0
 10
185.44003297285
 20
77.8100758856155
 30
0.0
 10
185.4784872104624
 20
77.8100758856155
 30
0.0
  0
ARC
  5
124
330
1F
100
AcDbEntity
  8
0
  6
Continuous
 62
     7
370
    25
100
AcDbCircle
 10
185.487035794
 20
78.2934456963
 30
0.0
 40
0.4834453973192293
100
AcDbArc
 50
189.967574613
 51
268.9868074262
  0
LINE
  5
125
330
1F
100
AcDbEntity
  8
0
  6
Continuous
 62
     7
370
    25
100
AcDbLine
 10
189.314145229
 20
72.2549362618
 30
0.0
 11
189.800023916
 21
72.2549362618
 31
0.0
  0
ELLIPSE
  5
126
330
1F
100
AcDbEntity
  8
0
  6
Continuous
 62
     7
370
    25
100
AcDbEllipse
 10
189.314145229
 20
72.3196096354
 30
0.0
 11
0.0678412947923448
 21
0.0
 31
0.0
210
0.0
220
0.0
230
1.0
 40
0.9533039403
 41
2.798568711307251
 42
4.712388980384703
  0
LINE
  5
127
330
1F
100
AcDbEntity
  8
0
  6
Continuous
 62
     7
370
    25
100
AcDbLine
 10
189.4931955833
 20
72.9898277387
 30
0.0
 11
189.2502562384
 21
72.341361645
 31
0.0
  0
LINE
  5
128
330
1F
100
AcDbEntity
  8
0
  6
Continuous
 62
     7
370
    25
100
AcDbLine
 10
189.8639129067
 20
72.3413616448
 30
0.0
 11
189.6209735646
 21
72.9898277384
 31
0.0
  0
ELLIPSE
  5
129
330
1F
100
AcDbEntity
  8
0
  6
Continuous
 62
     7
370
    25
100
AcDbEllipse
 10
189.800023916
 20
72.3196096354
 30
0.0
 11
-0.0678412947923448
 21
0.0
 31
0.0
210
0.0
220
0.0
230
1.0
 40
0.9533039403
 41
1.570796326794897
 42
3.484616592149589
  0
ELLIPSE
  5
12A
330
1F
100
AcDbEntity
  8
0
  6
Continuous
 62
     7
370
    25
100
AcDbEllipse
 10
189.5570845739
 20
72.9680757291
 30
0.0
 11
0.06784129479271428
 21
0.0
 31
0.0
210
0.0
220
0.0
230
1.0
 40
0.9533039403
 41
0.3430239385580192
 42
2.798568711308873
  0
LINE
  5
12B
330
1F
100
AcDbEntity
  8
0
  6
Continuous
 62
     7
370
    25
100
AcDbLine
 10
199.7376902095
 20
67.8100758856
 30
0.0
 11
185.4784872105
 21
67.8100758856
 31
0.0
  0
LINE
  5
12C
330
1F
100
AcDbEntity
  8
0
  6
Continuous
 62
     7
370
    25
100
AcDbLine
 10
185.3026406205
 20
68.3100758856
 30
0.0
 11
199.9135367995
 21
68.3100758856
 31
0.0
  0
LINE
  5
12D
330
1F
100
AcDbEntity
  8
0
  6
Continuous
 62
     7
370
    25
100
AcDbLine
 10
199.9135367995
 20
77.3100758856
 30
0.0
 11
185.3026406205
 21
77.3100758856
 31
0.0
  0
LINE
  5
12E
330
1F
100
AcDbEntity
  8
0
  6
Continuous
 62
     7
370
    25
100
AcDbLine
 10
185.4784872105
 20
77.8100758856
 30
0.0
 11
199.7376902095
 21
77.8100758856
 31
0.0
  0
LINE
  5
12F
330
1F
100
AcDbEntity
  8
0
  6
Continuous
 62
     7
370
    25
100
AcDbLine
 10
194.3006334616
 20
72.5079240879
 30
0.0
 11
194.6739217701
 21
72.8812123964
 31
0.0
  0
ARC
  5
130
330
1F
100
AcDbEntity
  8
0
  6
Continuous
 62
     7
370
    25
100
AcDbCircle
 10
196.4714547959
 20
72.0050297451
 30
0.0
 40
0.7112000000000998
100
AcDbArc
 50
200.9248324276
 51
315.0
  0
ARC
  5
131
330
1F
100
AcDbEntity
  8
0
  6
Continuous
 62
     7
370
    25
100
AcDbCircle
 10
193.7977391188
 20
72.0050297451
 30
0.0
 40
0.7111999999997523
100
AcDbArc
 50
45.0
 51
315.0
  0
LINE
  5
132
330
1F
100
AcDbEntity
  8
0
  6
Continuous
 62
     7
370
    25
100
AcDbLine
 10
194.6739217701
 20
71.1288470938
 30
0.0
 11
194.3006334616
 21
71.5021354023
 31
0.0
  0
LINE
  5
133
330
1F
100
AcDbEntity
  8
0
  6
Continuous
 62
     7
370
    25
100
AcDbLine
 10
189.0842988715
 20
75.0719539917
 30
0.0
 11
188.0768099986
 21
72.2546541954
 31
0.0
  0
LINE
  5
134
330
1F
100
AcDbEntity
  8
0
  6
Continuous
 62
     7
370
    25
100
AcDbLine
 10
195.8071585969
 20
71.7510297451
 30
0.0
 11
197.3476374472
 21
71.7510297451
 31
0.0
  0
ELLIPSE
  5
135
330
1F
100
AcDbEntity
  8
0
  6
Continuous
 62
     7
370
    25
100
AcDbEllipse
 10
187.563110185
 20
72.4216014874
 30
0.0
 11
-0.5427303583406342
 21
3.694822225952521E-13
 31
0.0
210
0.0
220
0.0
230
1.0
 40
0.9533039403
 41
1.047197551196628
 42
2.813039483039351
  0
ELLIPSE
  5
136
330
1F
100
AcDbEntity
  8
0
  6
Continuous
 62
     7
370
    25
100
AcDbEllipse
 10
187.9481745757
 20
70.810627898
 30
0.0
 11
0.0678412947923448
 21
0.0
 31
0.0
210
0.0
220
0.0
230
1.0
 40
0.9533039403
 41
3.605240262580738
 42
5.462183310226772
  0
LINE
  5
137
330
1F
100
AcDbEntity
  8
0
  6
Continuous
 62
     7
370
    25
100
AcDbLine
 10
187.2504805494
 20
71.9962427672
 30
0.0
 11
187.887495477
 21
70.7817050861
 31
0.0
  0
LINE
  5
138
330
1F
100
AcDbEntity
  8
0
  6
Continuous
 62
     7
370
    25
100
AcDbLine
 10
191.0375939826
 20
72.2539975083
 30
0.0
 11
190.0298702732
 21
75.0719539917
 31
0.0
  0
LINE
  5
139
330
1F
100
AcDbEntity
  8
0
  6
Continuous
 62
     7
370
    25
100
AcDbLine
 10
197.3476374472
 20
71.7510297451
 30
0.0
 11
197.3476374472
 21
72.2590297451
 31
0.0
  0
LINE
  5
13A
330
1F
100
AcDbEntity
  8
0
  6
Continuous
 62
     7
370
    25
100
AcDbLine
 10
197.3476374472
 20
71.1288470938
 30
0.0
 11
196.9743491387
 21
71.5021354023
 31
0.0
  0
ELLIPSE
  5
13B
330
1F
100
AcDbEntity
  8
0
  6
Continuous
 62
     7
370
    25
100
AcDbEllipse
 10
189.5570845723
 20
69.1635490016
 30
0.0
 11
2.293035763987632
 21
-1.065814103640150E-12
 31
0.0
210
0.0
220
0.0
230
1.0
 40
0.9533039403
 41
0.821001996964592
 42
2.320590656625115
  0
ARC
  5
13C
330
1F
100
AcDbEntity
  8
0
  6
Continuous
 62
     7
370
    25
100
AcDbCircle
 10
196.4714547959
 20
72.0050297451
 30
0.0
 40
1.239109388553826
100
AcDbArc
 50
45.0
 51
315.0
  0
ELLIPSE
  5
13D
330
1F
100
AcDbEntity
  8
0
  6
Continuous
 62
     7
370
    25
100
AcDbEllipse
 10
189.5570845723
 20
74.8620816368
 30
0.0
 11
0.5215299537176747
 21
0.0
 31
0.0
210
0.0
220
0.0
230
1.0
 40
0.9533039403
 41
0.4357918987553118
 42
2.705800754834438
  0
LINE
  5
13E
330
1F
100
AcDbEntity
  8
0
  6
Continuous
 62
     7
370
    25
100
AcDbLine
 10
196.9743491387
 20
72.5079240879
 30
0.0
 11
197.3476374472
 21
72.8812123964
 31
0.0
  0
ELLIPSE
  5
13F
330
1F
100
AcDbEntity
  8
0
  6
Continuous
 62
     7
370
    25
100
AcDbEllipse
 10
191.5512937962
 20
72.4209448003
 30
0.0
 11
0.5427303583402932
 21
3.552713678800501E-13
 31
0.0
210
0.0
220
0.0
230
1.0
 40
0.9533039404
 41
3.470145824142409
 42
5.252469180527863
  0
ARC
  5
140
330
1F
100
AcDbEntity
  8
0
  6
Continuous
 62
     7
370
    25
100
AcDbCircle
 10
193.7977391188
 20
72.0050297451
 30
0.0
 40
1.239109388553836
100
AcDbArc
 50
45.0
 51
315.0
  0
ELLIPSE
  5
141
330
1F
100
AcDbEntity
  8
0
  6
Continuous
 62
     7
370
    25
100
AcDbEllipse
 10
191.1659945689
 20
70.810627898
 30
0.0
 11
0.0678412947923448
 21
0.0
 31
0.0
210
0.0
220
0.0
230
1.0
 40
0.9533039403
 41
3.962594650555039
 42
5.819537698174913
  0
LINE
  5
142
330
1F
100
AcDbEntity
  8
0
  6
Continuous
 62
     7
370
    25
100
AcDbLine
 10
187.2917450058
 20
71.9735312112
 30
0.0
 11
187.2504805494
 21
71.9962427672
 31
0.0
  0
LINE
  5
143
330
1F
100
AcDbEntity
  8
0
  6
Continuous
 62
     7
370
    25
100
AcDbLine
 10
197.3476374472
 20
72.2590297451
 30
0.0
 11
195.8071585969
 21
72.2590297451
 31
0.0
  0
ARC
  5
144
330
1F
100
AcDbEntity
  8
0
  6
Continuous
 62
     7
370
    25
100
AcDbCircle
 10
196.4714547959
 20
72.0050297451
 30
0.0
 40
0.7112000000000278
100
AcDbArc
 50
45.0
 51
159.0751675723
  0
LINE
  5
145
330
1F
100
AcDbEntity
  8
0
  6
Continuous
 62
     7
370
    25
100
AcDbLine
 10
191.2266736676
 20
70.7817050861
 30
0.0
 11
191.8636885953
 21
71.9962427672
 31
0.0
  0
LINE
  5
146
330
1F
100
AcDbEntity
  8
0
  6
Continuous
 62
     7
370
    25
100
AcDbLine
 10
191.8636885953
 20
71.9962427672
 30
0.0
 11
191.8303683398
 21
71.9771988233
 31
0.0
  0
ARC
  5
147
330
1F
100
AcDbEntity
  8
0
  6
Continuous
 62
     7
370
    25
100
AcDbCircle
 10
199.60808871
 20
67.3100758856
 30
0.0
 40
0.5
100
AcDbArc
 50
0.0
 51
90.0
  0
ARC
  5
148
330
1F
100
AcDbEntity
  8
0
  6
Continuous
 62
     7
370
    25
100
AcDbCircle
 10
185.60808871
 20
67.3100758856
 30
0.0
 40
0.5
100
AcDbArc
 50
90.0
 51
180.0
  0
ARC
  5
149
330
1F
100
AcDbEntity
  8
0
  6
Continuous
 62
     7
370
    25
100
AcDbCircle
 10
185.60808871
 20
78.3100758856
 30
0.0
 40
0.5
100
AcDbArc
 50
180.0
 51
270.0
  0
ARC
  5
14A
330
1F
100
AcDbEntity
  8
0
  6
Continuous
 62
     7
370
    25
100
AcDbCircle
 10
199.60808871
 20
78.3100758856
 30
0.0
 40
0.5
100
AcDbArc
 50
270.0
 51
0.0
  0
LWPOLYLINE
  5
14B
330
1F
100
AcDbEntity
  8
0
  6
Continuous
 62
     7
370
    25
100
AcDbPolyline
 90
        9
 70
   128
 43
0.0
 10
199.60808871
 20
78.0045203301
 10
199.705633871
 20
78.0103914944
 10
199.7994304262
 20
78.0277793618
 10
199.8858738265
 20
78.0560157263
 10
199.9616421006
 20
78.0940154803
 10
200.0238235162
 20
78.1403183144
 10
200.0700284763
 20
78.1931448368
 10
200.0984813502
 20
78.2504649539
 10
200.10808871
 20
78.3100758856
  0
LINE
  5
14C
330
1F
100
AcDbEntity
  8
0
  6
Continuous
 62
     7
370
    25
100
AcDbLine
 10
199.60808871
 20
77.8100758856
 30
0.0
 11
199.60808871
 21
78.0045203301
 31
0.0
  0
LWPOLYLINE
  5
14D
330
1F
100
AcDbEntity
  8
0
  6
Continuous
 62
     7
370
    25
100
AcDbPolyline
 90
        9
 70
   128
 43
0.0
 10
185.10808871
 20
78.3100758856
 10
185.1176960698
 20
78.2504649539
 10
185.1461489437
 20
78.1931448368
 10
185.1923539038
 20
78.1403183144
 10
185.2545353194
 20
78.0940154803
 10
185.3303035935
 20
78.0560157263
 10
185.4167469938
 20
78.0277793618
 10
185.510543549
 20
78.0103914944
 10
185.60808871
 20
78.0045203301
  0
LINE
  5
14E
330
1F
100
AcDbEntity
  8
0
  6
Continuous
 62
     7
370
    25
100
AcDbLine
 10
185.60808871
 20
77.8100758856
 30
0.0
 11
185.60808871
 21
78.0045203301
 31
0.0
  0
LWPOLYLINE
  5
14F
330
1F
100
AcDbEntity
  8
0
  6
Continuous
 62
     7
370
    25
100
AcDbPolyline
 90
        9
 70
   128
 43
0.0
 10
185.60808871
 20
67.6156314412
 10
185.510543549
 20
67.6097602768
 10
185.4167469938
 20
67.5923724094
 10
185.3303035935
 20
67.5641360449
 10
185.2545353194
 20
67.526136291
 10
185.1923539038
 20
67.4798334568
 10
185.1461489437
 20
67.4270069344
 10
185.1176960698
 20
67.3696868173
 10
185.10808871
 20
67.3100758856
  0
LINE
  5
150
330
1F
100
AcDbEntity
  8
0
  6
Continuous
 62
     7
370
    25
100
AcDbLine
 10
185.60808871
 20
67.6156314412
 30
0.0
 11
185.60808871
 21
67.8100758856
 31
0.0
  0
LINE
  5
151
330
1F
100
AcDbEntity
  8
0
  6
Continuous
 62
     7
370
    25
100
AcDbLine
 10
199.60808871
 20
67.6156314412
 30
0.0
 11
185.60808871
 21
67.6156314412
 31
0.0
  0
LINE
  5
152
330
1F
100
AcDbEntity
  8
0
  6
Continuous
 62
     7
370
    25
100
AcDbLine
 10
199.60808871
 20
67.6156314412
 30
0.0
 11
199.60808871
 21
67.8100758856
 31
0.0
  0
LWPOLYLINE
  5
153
330
1F
100
AcDbEntity
  8
0
  6
Continuous
 62
     7
370
    25
100
AcDbPolyline
 90
        9
 70
   128
 43
0.0
 10
200.10808871
 20
67.3100758856
 10
200.0984813502
 20
67.3696868173
 10
200.0700284763
 20
67.4270069344
 10
200.0238235162
 20
67.4798334568
 10
199.9616421006
 20
67.526136291
 10
199.8858738265
 20
67.5641360449
 10
199.7994304262
 20
67.5923724094
 10
199.705633871
 20
67.6097602768
 10
199.60808871
 20
67.6156314412
  0
LINE
  5
154
330
1F
100
AcDbEntity
  8
0
  6
Continuous
 62
     7
370
    25
100
AcDbLine
 10
185.60808871
 20
78.0045203301
 30
0.0
 11
199.60808871
 21
78.0045203301
 31
0.0
  0
LINE
  5
155
330
1F
100
AcDbEntity
  8
0
  6
Continuous
 62
     7
370
    25
100
AcDbLine
 10
210.4025642524
 20
72.8100758856
 30
0.0
 11
210.4025642524
 21
66.2867157463
 31
0.0
  0
LINE
  5
156
330
1F
100
AcDbEntity
  8
0
  6
Continuous
 62
     7
370
    25
100
AcDbLine
 10
210.4025642524
 20
79.3334360249
 30
0.0
 11
210.4025642524
 21
72.8100758856
 31
0.0
  0
LINE
  5
157
330
1F
100
AcDbEntity
  8
0
  6
Continuous
 62
     7
370
    25
100
AcDbLine
 10
212.60808871
 20
78.0600758856
 30
0.0
 11
212.60808871
 21
67.5600758856
 31
0.0
  0
SPLINE
  5
158
330
1F
100
AcDbEntity
  8
0
  6
Continuous
 62
     7
370
    25
100
AcDbSpline
210
0.0
220
0.0
230
1.0
 70
    11
 71
     3
 72
    26
 73
    22
 74
     0
 42
0.00000001
 43
0.00000001
 40
0.0
 40
0.0
 40
0.0
 40
0.0
 40
0.125
 40
0.125
 40
0.1875
 40
0.1875
 40
0.25
 40
0.25
 40
0.3125
 40
0.3125
 40
0.375
 40
0.375
 40
0.5
 40
0.5
 40
0.625
 40
0.625
 40
0.75
 40
0.75
 40
0.875
 40
0.875
 40
1.0
 40
1.0
 40
1.0
 40
1.0
 10
193.1214076788494
 20
80.8100758856155
 30
0.0
 10
193.1214076788494
 20
80.94919491684432
 30
0.0
 10
193.0686117077004
 20
81.0849226198198
 30
0.0
 10
192.9271561178231
 20
81.23794135631559
 30
0.0
 10
192.8706021814512
 20
81.27944425733614
 30
0.0
 10
192.7450580300078
 20
81.3366441511298
 30
0.0
 10
192.6759064168998
 20
81.35192813987413
 30
0.0
 10
192.5387480421564
 20
81.3517072661105
 30
0.0
 10
192.4696334593502
 20
81.33614720482284
 30
0.0
 10
192.3448736907191
 20
81.27894137032884
 30
0.0
 10
192.2882426023847
 20
81.23718994306186
 30
0.0
 10
192.1481289758618
 20
81.08534907477842
 30
0.0
 10
192.0948084419151
 20
80.94929674751056
 30
0.0
 10
192.094731083339
 20
80.6711640538072
 30
0.0
 10
192.1484194653607
 20
80.53436204378723
 30
0.0
 10
192.3351142796684
 20
80.33229324012215
 30
0.0
 10
192.470995489032
 20
80.2681234804366
 30
0.0
 10
192.7466266230705
 20
80.26854453323762
 30
0.0
 10
192.8816016614841
 20
80.33281321566092
 30
0.0
 10
193.0674491385501
 20
80.53409076688506
 30
0.0
 10
193.1214076788494
 20
80.67095685438669
 30
0.0
 10
193.1214076788494
 20
80.8100758856155
 30
0.0
  0
SPLINE
  5
159
330
1F
100
AcDbEntity
  8
0
  6
Continuous
 62
     7
370
    25
100
AcDbSpline
210
0.0
220
0.0
230
1.0
 70
    11
 71
     3
 72
    38
 73
    34
 74
     0
 42
0.00000001
 43
0.00000001
 40
0.0
 40
0.0
 40
0.0
 40
0.0
 40
0.0625
 40
0.0625
 40
0.125
 40
0.125
 40
0.1874999999999999
 40
0.1874999999999999
 40
0.2499999999999999
 40
0.2499999999999999
 40
0.3125
 40
0.3125
 40
0.375
 40
0.375
 40
0.4375000000000001
 40
0.4375000000000001
 40
0.5000000000000001
 40
0.5000000000000001
 40
0.5625000000000001
 40
0.5625000000000001
 40
0.6250000000000001
 40
0.6250000000000001
 40
0.6875000000000001
 40
0.6875000000000001
 40
0.75
 40
0.75
 40
0.8125
 40
0.8125
 40
0.875
 40
0.875
 40
0.9375
 40
0.9375
 40
1.0
 40
1.0
 40
1.0
 40
1.0
 10
191.608088710001
 20
80.8100758856155
 30
0.0
 10
191.608088710001
 20
80.6776899707052
 30
0.0
 10
191.6342372611439
 20
80.54780264422651
 30
0.0
 10
191.7347029306017
 20
80.30572364964063
 30
0.0
 10
191.8089877969982
 20
80.19494229558461
 30
0.0
 10
191.993136976733
 20
80.01083501547885
 30
0.0
 10
192.1045125993272
 20
79.93636634418284
 30
0.0
 10
192.3450611038611
 20
79.83653916805414
 30
0.0
 10
192.4768189998485
 20
79.81015124798084
 30
0.0
 10
192.7382076920124
 20
79.81000085429402
 30
0.0
 10
192.869379762604
 20
79.83594067470406
 30
0.0
 10
193.1118174486037
 20
79.93630830712934
 30
0.0
 10
193.2218716167534
 20
80.00969721027457
 30
0.0
 10
193.4081249341642
 20
80.19584667710411
 30
0.0
 10
193.4815512620574
 20
80.30588519450411
 30
0.0
 10
193.5819160096863
 20
80.54776791159279
 30
0.0
 10
193.6080372739825
 20
80.6790424301041
 30
0.0
 10
193.6081399914677
 20
80.94032307947663
 30
0.0
 10
193.581896363374
 20
81.07213848298954
 30
0.0
 10
193.4822280065759
 20
81.31292640107102
 30
0.0
 10
193.4079472146073
 20
81.42425860246902
 30
0.0
 10
193.2237604741738
 20
81.60878879766402
 30
0.0
 10
193.1133369001111
 20
81.68297512693779
 30
0.0
 10
192.8709521848712
 20
81.78379638590795
 30
0.0
 10
192.7410280053048
 20
81.80997061521299
 30
0.0
 10
192.4767378957879
 20
81.8101805251999
 30
0.0
 10
192.3465041371259
 20
81.78409280283671
 30
0.0
 10
192.1046114659551
 20
81.68394435885811
 30
0.0
 10
191.9935955405485
 20
81.60965806369296
 30
0.0
 10
191.8094278045685
 20
81.42576596425617
 30
0.0
 10
191.7348291330664
 20
81.31443581370215
 30
0.0
 10
191.6347783195213
 20
81.07394727389352
 30
0.0
 10
191.608088710001
 20
80.9424618005258
 30
0.0
 10
191.608088710001
 20
80.8100758856155
 30
0.0
  0
LINE
  5
15A
330
1F
100
AcDbEntity
  8
0
  6
Continuous
 62
     7
370
    25
100
AcDbLine
 10
187.3690033773
 20
99.9100758856
 30
0.0
 11
187.3690033773
 21
99.3100758856
 31
0.0
  0
LINE
  5
15B
330
1F
100
AcDbEntity
  8
0
  6
Continuous
 62
     7
370
    25
100
AcDbLine
 10
197.8471740427
 20
99.9100758856
 30
0.0
 11
187.3690033773
 21
99.9100758856
 31
0.0
  0
LINE
  5
15C
330
1F
100
AcDbEntity
  8
0
  6
Continuous
 62
     7
370
    25
100
AcDbLine
 10
197.8471740427
 20
99.3100758856
 30
0.0
 11
197.8471740427
 21
99.9100758856
 31
0.0
  0
LINE
  5
15D
330
1F
100
AcDbEntity
  8
0
  6
Continuous
 62
     7
370
    25
100
AcDbLine
 10
187.3690033773
 20
99.3100758856
 30
0.0
 11
197.8471740427
 21
99.3100758856
 31
0.0
  0
SPLINE
  5
15E
330
1F
100
AcDbEntity
  8
0
  6
Continuous
 62
     7
370
    25
100
AcDbSpline
210
0.0
220
0.0
230
1.0
 70
     8
 71
     3
 72
    15
 73
    11
 74
     0
 42
0.00000001
 43
0.00000001
 40
0.0
 40
0.0
 40
0.0
 40
0.0
 40
0.0081667445812695
 40
0.3321939991490083
 40
0.4756279600585602
 40
0.6866830973284899
 40
0.8457435502264811
 40
0.8967566214763185
 40
0.9909540928118029
 40
1.0
 40
1.0
 40
1.0
 40
1.0
 10
187.5090691964082
 20
100.1600758856154
 30
0.0
 10
187.5085816622653
 20
100.1600732092697
 30
0.0
 10
187.4887505147333
 20
100.1599643450828
 30
0.0
 10
187.460469734724
 20
100.1504183328134
 30
0.0
 10
187.4226404362352
 20
100.1130559495589
 30
0.0
 10
187.3960565396677
 20
100.0681904348242
 30
0.0
 10
187.3788867159127
 20
100.0103141352473
 30
0.0
 10
187.3710697196962
 20
99.95963809527538
 30
0.0
 10
187.3690740332604
 20
99.93094381575536
 30
0.0
 10
187.3690090693096
 20
99.91175698419985
 30
0.0
 10
187.3690033773429
 20
99.91007588561544
 30
0.0
  0
LINE
  5
15F
330
1F
100
AcDbEntity
  8
0
  6
Continuous
 62
     7
370
    25
100
AcDbLine
 10
187.5090691964
 20
100.1600758856
 30
0.0
 11
197.7071082236
 21
100.1600758856
 31
0.0
  0
SPLINE
  5
160
330
1F
100
AcDbEntity
  8
0
  6
Continuous
 62
     7
370
    25
100
AcDbSpline
210
0.0
220
0.0
230
1.0
 70
     8
 71
     3
 72
    15
 73
    11
 74
     0
 42
0.00000001
 43
0.00000001
 40
0.0
 40
0.0
 40
0.0
 40
0.0
 40
0.0090459071881971
 40
0.1032433785236874
 40
0.1542564497735246
 40
0.3133169026715112
 40
0.5243720399414429
 40
0.6678060008509904
 40
0.9918332554187292
 40
1.0
 40
1.0
 40
1.0
 40
1.0
 10
197.8471740426591
 20
99.91007588561546
 30
0.0
 10
197.8471683506925
 20
99.91175698419988
 30
0.0
 10
197.8471033867417
 20
99.9309438157554
 30
0.0
 10
197.8451077003058
 20
99.95963809527538
 30
0.0
 10
197.8372907040894
 20
100.0103141352473
 30
0.0
 10
197.8201208803343
 20
100.0681904348242
 30
0.0
 10
197.7935369837669
 20
100.1130559495589
 30
0.0
 10
197.755707685278
 20
100.1504183328134
 30
0.0
 10
197.7274269052688
 20
100.1599643450829
 30
0.0
 10
197.7075957577367
 20
100.1600732092697
 30
0.0
 10
197.7071082235938
 20
100.1600758856155
 30
0.0
  0
LINE
  5
161
330
1F
100
AcDbEntity
  8
0
  6
Continuous
 62
     7
370
    25
100
AcDbLine
 10
197.8471740427
 20
99.9100758856
 30
0.0
 11
198.0853142851
 21
99.9100758856
 31
0.0
  0
SPLINE
  5
162
330
1F
100
AcDbEntity
  8
0
  6
Continuous
 62
     7
370
    25
100
AcDbSpline
210
0.0
220
0.0
230
1.0
 70
     8
 71
     3
 72
    15
 73
    11
 74
     0
 42
0.00000001
 43
0.00000001
 40
0.0
 40
0.0
 40
0.0
 40
0.0
 40
0.0080847466189818
 40
0.3310106400647566
 40
0.4750333064304973
 40
0.6874363079215137
 40
0.8468367539418253
 40
0.9000996640391794
 40
0.9910442771984082
 40
1.0
 40
1.0
 40
1.0
 40
1.0
 10
197.7071082235938
 20
100.1600758856155
 30
0.0
 10
197.7083880551379
 20
100.1600732092058
 30
0.0
 10
197.7607877008617
 20
100.159963630004
 30
0.0
 10
197.8361427923161
 20
100.1502844751664
 30
0.0
 10
197.9380619043339
 20
100.1130026517047
 30
0.0
 10
198.0104528493258
 20
100.0682947785212
 30
0.0
 10
198.0581582775907
 20
100.0101591283886
 30
0.0
 10
198.079693761298
 20
99.95927205492029
 30
0.0
 10
198.0851227773175
 20
99.93050982581283
 30
0.0
 10
198.0852985294741
 20
99.91175701118836
 30
0.0
 10
198.0853142850527
 20
99.91007588561546
 30
0.0
  0
LINE
  5
163
330
1F
100
AcDbEntity
  8
0
  6
Continuous
 62
     7
370
    25
100
AcDbLine
 10
187.1308631349
 20
99.9100758856
 30
0.0
 11
187.3690033773
 21
99.9100758856
 31
0.0
  0
SPLINE
  5
164
330
1F
100
AcDbEntity
  8
0
  6
Continuous
 62
     7
370
    25
100
AcDbSpline
210
0.0
220
0.0
230
1.0
 70
     8
 71
     3
 72
    15
 73
    11
 74
     0
 42
0.00000001
 43
0.00000001
 40
0.0
 40
0.0
 40
0.0
 40
0.0
 40
0.0089557228015919
 40
0.0999003359608149
 40
0.153163246058169
 40
0.3125636920784849
 40
0.5249666935694998
 40
0.668989359935245
 40
0.9919152533810159
 40
1.0
 40
1.0
 40
1.0
 40
1.0
 10
187.1308631349494
 20
99.91007588561544
 30
0.0
 10
187.130878890528
 20
99.91175701118834
 30
0.0
 10
187.1310546426845
 20
99.93050982581278
 30
0.0
 10
187.1364836587041
 20
99.95927205492026
 30
0.0
 10
187.1580191424114
 20
100.0101591283886
 30
0.0
 10
187.2057245706762
 20
100.0682947785212
 30
0.0
 10
187.2781155156681
 20
100.1130026517047
 30
0.0
 10
187.3800346276859
 20
100.1502844751664
 30
0.0
 10
187.4553897191403
 20
100.159963630004
 30
0.0
 10
187.5077893648641
 20
100.1600732092057
 30
0.0
 10
187.5090691964082
 20
100.1600758856154
 30
0.0
  0
LINE
  5
165
330
1F
100
AcDbEntity
  8
0
  6
Continuous
 62
     7
370
    25
100
AcDbLine
 10
198.0853142851
 20
99.9100758856
 30
0.0
 11
198.0853142851
 21
99.3100758856
 31
0.0
  0
LINE
  5
166
330
1F
100
AcDbEntity
  8
0
  6
Continuous
 62
     7
370
    25
100
AcDbLine
 10
198.0853142851
 20
99.3100758856
 30
0.0
 11
197.8471740427
 21
99.3100758856
 31
0.0
  0
LINE
  5
167
330
1F
100
AcDbEntity
  8
0
  6
Continuous
 62
     7
370
    25
100
AcDbLine
 10
187.1308631349
 20
99.3100758856
 30
0.0
 11
187.1308631349
 21
99.9100758856
 31
0.0
  0
LINE
  5
168
330
1F
100
AcDbEntity
  8
0
  6
Continuous
 62
     7
370
    25
100
AcDbLine
 10
187.3690033773
 20
99.3100758856
 30
0.0
 11
187.1308631349
 21
99.3100758856
 31
0.0
  0
LINE
  5
169
330
1F
100
AcDbEntity
  8
0
  6
Continuous
 62
     7
370
    25
100
AcDbLine
 10
198.35808871
 20
99.9100758856
 30
0.0
 11
198.35808871
 21
100.1600758856
 31
0.0
  0
LINE
  5
16A
330
1F
100
AcDbEntity
  8
0
  6
Continuous
 62
     7
370
    25
100
AcDbLine
 10
198.35808871
 20
99.9100758856
 30
0.0
 11
198.0853142851
 21
99.9100758856
 31
0.0
  0
LINE
  5
16B
330
1F
100
AcDbEntity
  8
0
  6
Continuous
 62
     7
370
    25
100
AcDbLine
 10
197.7071082236
 20
100.1600758856
 30
0.0
 11
198.35808871
 21
100.1600758856
 31
0.0
  0
LINE
  5
16C
330
1F
100
AcDbEntity
  8
0
  6
Continuous
 62
     7
370
    25
100
AcDbLine
 10
198.35808871
 20
99.3100758856
 30
0.0
 11
198.35808871
 21
99.9100758856
 31
0.0
  0
LINE
  5
16D
330
1F
100
AcDbEntity
  8
0
  6
Continuous
 62
     7
370
    25
100
AcDbLine
 10
198.35808871
 20
99.9100758856
 30
0.0
 11
198.60808871
 21
99.9100758856
 31
0.0
  0
LINE
  5
16E
330
1F
100
AcDbEntity
  8
0
  6
Continuous
 62
     7
370
    25
100
AcDbLine
 10
198.60808871
 20
99.9100758856
 30
0.0
 11
198.60808871
 21
99.3100758856
 31
0.0
  0
LINE
  5
16F
330
1F
100
AcDbEntity
  8
0
  6
Continuous
 62
     7
370
    25
100
AcDbLine
 10
198.60808871
 20
99.3100758856
 30
0.0
 11
198.35808871
 21
99.3100758856
 31
0.0
  0
LINE
  5
170
330
1F
100
AcDbEntity
  8
0
  6
Continuous
 62
     7
370
    25
100
AcDbLine
 10
198.35808871
 20
99.3100758856
 30
0.0
 11
198.0853142851
 21
99.3100758856
 31
0.0
  0
ARC
  5
171
330
1F
100
AcDbEntity
  8
0
  6
Continuous
 62
     7
370
    25
100
AcDbCircle
 10
198.35808871
 20
99.9100758856
 30
0.0
 40
0.25
100
AcDbArc
 50
0.0
 51
90.0
  0
LINE
  5
172
330
1F
100
AcDbEntity
  8
0
  6
Continuous
 62
     7
370
    25
100
AcDbLine
 10
186.60808871
 20
99.3100758856
 30
0.0
 11
186.60808871
 21
99.9100758856
 31
0.0
  0
LINE
  5
173
330
1F
100
AcDbEntity
  8
0
  6
Continuous
 62
     7
370
    25
100
AcDbLine
 10
186.60808871
 20
99.9100758856
 30
0.0
 11
186.85808871
 21
99.9100758856
 31
0.0
  0
LINE
  5
174
330
1F
100
AcDbEntity
  8
0
  6
Continuous
 62
     7
370
    25
100
AcDbLine
 10
186.85808871
 20
99.9100758856
 30
0.0
 11
186.85808871
 21
99.3100758856
 31
0.0
  0
LINE
  5
175
330
1F
100
AcDbEntity
  8
0
  6
Continuous
 62
     7
370
    25
100
AcDbLine
 10
186.85808871
 20
99.3100758856
 30
0.0
 11
186.60808871
 21
99.3100758856
 31
0.0
  0
LINE
  5
176
330
1F
100
AcDbEntity
  8
0
  6
Continuous
 62
     7
370
    25
100
AcDbLine
 10
186.85808871
 20
100.1600758856
 30
0.0
 11
186.85808871
 21
99.9100758856
 31
0.0
  0
LINE
  5
177
330
1F
100
AcDbEntity
  8
0
  6
Continuous
 62
     7
370
    25
100
AcDbLine
 10
187.1308631349
 20
99.9100758856
 30
0.0
 11
186.85808871
 21
99.9100758856
 31
0.0
  0
LINE
  5
178
330
1F
100
AcDbEntity
  8
0
  6
Continuous
 62
     7
370
    25
100
AcDbLine
 10
186.85808871
 20
100.1600758856
 30
0.0
 11
187.5090691964
 21
100.1600758856
 31
0.0
  0
LINE
  5
179
330
1F
100
AcDbEntity
  8
0
  6
Continuous
 62
     7
370
    25
100
AcDbLine
 10
187.1308631349
 20
99.3100758856
 30
0.0
 11
186.85808871
 21
99.3100758856
 31
0.0
  0
ARC
  5
17A
330
1F
100
AcDbEntity
  8
0
  6
Continuous
 62
     7
370
    25
100
AcDbCircle
 10
186.85808871
 20
99.9100758856
 30
0.0
 40
0.25
100
AcDbArc
 50
90.0
 51
180.0
  0
LINE
  5
17B
330
1F
100
AcDbEntity
  8
0
  6
Continuous
 62
     7
370
    25
100
AcDbLine
 10
187.60808871
 20
100.1600758856
 30
0.0
 11
187.60808871
 21
100.1700758856
 31
0.0
  0
LINE
  5
17C
330
1F
100
AcDbEntity
  8
0
  6
Continuous
 62
     7
370
    25
100
AcDbLine
 10
187.60808871
 20
100.1700758856
 30
0.0
 11
197.60808871
 21
100.1700758856
 31
0.0
  0
LINE
  5
17D
330
1F
100
AcDbEntity
  8
0
  6
Continuous
 62
     7
370
    25
100
AcDbLine
 10
197.60808871
 20
100.1600758856
 30
0.0
 11
197.60808871
 21
100.1700758856
 31
0.0
  0
LINE
  5
17E
330
1F
100
AcDbEntity
  8
0
  6
Continuous
 62
     7
370
    25
100
AcDbLine
 10
138.1106830864
 20
76.7435250086
 30
0.0
 11
138.1106830864
 21
68.8766267626
 31
0.0
  0
LINE
  5
17F
330
1F
100
AcDbEntity
  8
0
  6
Continuous
 62
     7
370
    25
100
AcDbLine
 10
176.1045751223
 20
64.9600758856
 30
0.0
 11
176.1045751223
 21
80.6600758856
 31
0.0
  0
LINE
  5
180
330
1F
100
AcDbEntity
  8
0
  6
Continuous
 62
     7
370
    25
100
AcDbLine
 10
163.7045751223
 20
72.8100758856
 30
0.0
 11
163.7045751223
 21
64.9600758856
 31
0.0
  0
LINE
  5
181
330
1F
100
AcDbEntity
  8
0
  6
Continuous
 62
     7
370
    25
100
AcDbLine
 10
163.7045751223
 20
80.6600758856
 30
0.0
 11
163.7045751223
 21
72.8100758856
 31
0.0
  0
LINE
  5
182
330
1F
100
AcDbEntity
  8
0
  6
Continuous
 62
     7
370
    25
100
AcDbLine
 10
199.60808871
 20
78.0045203301
 30
0.0
 11
199.60808871
 21
81.3100758856
 31
0.0
  0
LINE
  5
183
330
1F
100
AcDbEntity
  8
0
  6
Continuous
 62
     7
370
    25
100
AcDbLine
 10
185.60808871
 20
81.3100758856
 30
0.0
 11
185.60808871
 21
78.0045203301
 31
0.0
  0
LINE
  5
184
330
1F
100
AcDbEntity
  8
0
  6
Continuous
 62
     7
370
    25
100
AcDbLine
 10
185.60808871
 20
67.6156314412
 30
0.0
 11
185.60808871
 21
64.3100758856
 31
0.0
  0
LINE
  5
185
330
1F
100
AcDbEntity
  8
0
  6
Continuous
 62
     7
370
    25
100
AcDbLine
 10
199.60808871
 20
64.3100758856
 30
0.0
 11
199.60808871
 21
67.6156314412
 31
0.0
  0
SPLINE
  5
186
330
1F
100
AcDbEntity
  8
0
  6
Continuous
 62
     7
370
    25
100
AcDbSpline
210
0.0
220
0.0
230
1.0
 70
     8
 71
     3
 72
    29
 73
    25
 74
     0
 42
0.00000001
 43
0.00000001
 40
0.0
 40
0.0
 40
0.0
 40
0.0
 40
0.0401515792404008
 40
0.0815079590968809
 40
0.1230309250150663
 40
0.1655606196332731
 40
0.2131374894711959
 40
0.2617297290017827
 40
0.3187033192484791
 40
0.377204047100767
 40
0.4187680095092457
 40
0.4612853446783765
 40
0.5032057470456619
 40
0.5465118779499416
 40
0.583755144012608
 40
0.6217252421647017
 40
0.6775482801274003
 40
0.7348915676267465
 40
0.7907841922757494
 40
0.8482724945620922
 40
0.8930247851692851
 40
0.939058777351611
 40
0.9835402441844544
 40
1.0
 40
1.0
 40
1.0
 40
1.0
 10
199.008088710001
 20
81.3100758856155
 30
0.0
 10
198.9967699275708
 20
81.30245721729142
 30
0.0
 10
198.973792727849
 20
81.28699127254202
 30
0.0
 10
198.7891158596118
 20
81.1637717832838
 30
0.0
 10
198.4985377729835
 20
80.97374867437394
 30
0.0
 10
198.0875907755141
 20
80.71321065400834
 30
0.0
 10
197.5549871255199
 20
80.39142018713669
 30
0.0
 10
196.866425914026
 20
80.00550360469914
 30
0.0
 10
196.0250421030135
 20
79.58700752894667
 30
0.0
 10
195.1207713250958
 20
79.22319763583636
 30
0.0
 10
194.2306113624025
 20
78.96471484559065
 30
0.0
 10
193.4004578795261
 20
78.81526244360461
 30
0.0
 10
192.5336746224948
 20
78.76768440271954
 30
0.0
 10
191.7046067319495
 20
78.83114808846261
 30
0.0
 10
190.9288193979495
 20
78.98138536901396
 30
0.0
 10
190.1117551355653
 20
79.21941788636148
 30
0.0
 10
189.2377854096131
 20
79.56634073806323
 30
0.0
 10
188.3639297836503
 20
79.99654071215214
 30
0.0
 10
187.595887434813
 20
80.42809094733482
 30
0.0
 10
187.008610704618
 20
80.78765689459924
 30
0.0
 10
186.5831874573916
 20
81.06093813155496
 30
0.0
 10
186.3264386215172
 20
81.23061567401304
 30
0.0
 10
186.2033812020848
 20
81.31323163799703
 30
0.0
 10
186.2210071909517
 20
81.30140722134813
 30
0.0
 10
186.2257678350633
 20
81.29821353729908
 30
0.0
  0
SPLINE
  5
187
330
1F
100
AcDbEntity
  8
0
  6
Continuous
 62
     7
370
    25
100
AcDbSpline
210
0.0
220
0.0
230
1.0
 70
     8
 71
     3
 72
    29
 73
    25
 74
     0
 42
0.00000001
 43
0.00000001
 40
0.0
 40
0.0
 40
0.0
 40
0.0
 40
0.0153990996596827
 40
0.0624665053322122
 40
0.1079794515122133
 40
0.1548536986113689
 40
0.2113050984050846
 40
0.2694418658749319
 40
0.3249996922379936
 40
0.382006101172482
 40
0.4182883144164961
 40
0.4553122771441164
 40
0.4955883318020575
 40
0.5374798730305143
 40
0.5778361329390617
 40
0.6193733281342697
 40
0.6760020364912017
 40
0.7342817310825168
 40
0.7823853390130656
 40
0.8314335394074295
 40
0.8736999810910503
 40
0.9169030618548288
 40
0.957866689289018
 40
1.0
 40
1.0
 40
1.0
 40
1.0
 10
186.7228786698278
 20
81.79867792650433
 30
0.0
 10
186.7187343399542
 20
81.80187157510365
 30
0.0
 10
186.7019228503303
 20
81.81482662258476
 30
0.0
 10
186.812809076358
 20
81.72928705222058
 30
0.0
 10
187.050481382184
 20
81.5488634060618
 30
0.0
 10
187.436051347922
 20
81.26415412053503
 30
0.0
 10
187.978807593205
 20
80.88219635355912
 30
0.0
 10
188.6767319152689
 20
80.43063656136927
 30
0.0
 10
189.4873158155341
 20
79.97111737092483
 30
0.0
 10
190.2873200832848
 20
79.6037688437691
 30
0.0
 10
191.0517302588935
 20
79.34677237607255
 30
0.0
 10
191.7578620023851
 20
79.18827494738171
 30
0.0
 10
192.5292264422508
 20
79.1181823511045
 30
0.0
 10
193.326064907815
 20
79.16647872043741
 30
0.0
 10
194.10205636275
 20
79.32619412258485
 30
0.0
 10
194.9172652709861
 20
79.59770194508026
 30
0.0
 10
195.7562610231752
 20
79.98460812377303
 30
0.0
 10
196.5269195117259
 20
80.42461804512016
 30
0.0
 10
197.1664266660841
 20
80.8359499339621
 30
0.0
 10
197.6544427877969
 20
81.17452140175327
 30
0.0
 10
198.0362703123557
 20
81.4524088468413
 30
0.0
 10
198.3025879242763
 20
81.65241694358748
 30
0.0
 10
198.4753649767907
 20
81.78477233566443
 30
0.0
 10
198.4970789161887
 20
81.80156258837368
 30
0.0
 10
198.508088710001
 20
81.8100758856155
 30
0.0
  0
LINE
  5
188
330
1F
100
AcDbEntity
  8
0
  6
Continuous
 62
     7
370
    18
100
AcDbLine
 10
203.10808871
 20
66.8132008856
 30
0.0
 11
211.7840642123
 21
67.0843251201
 31
0.0
  0
LINE
  5
189
330
1F
100
AcDbEntity
  8
0
  6
Continuous
 62
     7
370
    18
100
AcDbLine
 10
211.7840642123
 20
78.5358266512
 30
0.0
 11
203.10808871
 21
78.8069508856
 31
0.0
  0
LINE
  5
18A
330
1F
100
AcDbEntity
  8
0
  6
Continuous
 62
     7
370
    18
100
AcDbLine
 10
179.60808871
 20
78.5100758856
 30
0.0
 11
176.4045751223
 21
78.5100758856
 31
0.0
  0
LINE
  5
18B
330
1F
100
AcDbEntity
  8
0
  6
Continuous
 62
     7
370
    18
100
AcDbLine
 10
176.4045751223
 20
67.1100758856
 30
0.0
 11
179.60808871
 21
67.1100758856
 31
0.0
  0
LINE
  5
18C
330
1F
100
AcDbEntity
  8
0
  6
Continuous
 62
     7
370
    25
100
AcDbLine
 10
179.60808871
 20
72.8100758856
 30
0.0
 11
179.60808871
 21
72.04635865
 31
0.0
  0
SPLINE
  5
18D
330
1F
100
AcDbEntity
  8
0
  6
Continuous
 62
     7
370
     0
100
AcDbSpline
210
0.0
220
0.0
230
1.0
 70
     8
 71
     3
 72
    20
 73
    16
 74
     0
 42
0.00000001
 43
0.00000001
 40
0.0
 40
0.0
 40
0.0
 40
0.0
 40
0.0799986463355626
 40
0.159997291969689
 40
0.2399959376038156
 40
0.3199945832379412
 40
0.3999932288720675
 40
0.479991874506194
 40
0.5599905201403206
 40
0.6399891657744462
 40
0.7199878114085728
 40
0.799986457042699
 40
0.8799851026768253
 40
0.9599837483109515
 40
1.0
 40
1.0
 40
1.0
 40
1.0
 10
179.6079874038696
 20
72.0463586500427
 30
0.0
 10
179.608088710001
 20
71.29296937993638
 30
0.0
 10
179.608088710001
 20
70.56009637274761
 30
0.0
 10
179.608088710001
 20
69.85765047866678
 30
0.0
 10
179.608088710001
 20
69.19513107337673
 30
0.0
 10
179.608088710001
 20
68.58149759529263
 30
0.0
 10
179.608088710001
 20
68.02504838452722
 30
0.0
 10
179.608088710001
 20
67.53330846207646
 30
0.0
 10
179.608088710001
 20
67.1129277668196
 30
0.0
 10
179.608088710001
 20
66.76959122650364
 30
0.0
 10
179.608088710001
 20
66.50794187884807
 30
0.0
 10
179.608088710001
 20
66.33151808242471
 30
0.0
 10
179.608088710001
 20
66.242705666428
 30
0.0
 10
179.608088710001
 20
66.23157588561553
 30
0.0
 10
179.6080887099995
 20
66.23382215654425
 30
0.0
 10
179.608088710001
 20
66.23157588561553
 30
0.0
  0
SPLINE
  5
18E
330
1F
100
AcDbEntity
  8
0
  6
Continuous
 62
     7
370
     0
100
AcDbSpline
210
0.0
220
0.0
230
1.0
 70
     8
 71
     3
 72
    21
 73
    17
 74
     0
 42
0.00000001
 43
0.00000001
 40
0.0
 40
0.0
 40
0.0
 40
0.0
 40
0.037052132636586
 40
0.1111250455106954
 40
0.185197958384805
 40
0.2592708712589142
 40
0.3333437841330241
 40
0.4074166970071334
 40
0.4814896098812427
 40
0.5555625227553519
 40
0.629635435629462
 40
0.7037083485035706
 40
0.77778126137768
 40
0.8518541742517894
 40
0.9259270871258991
 40
1.0
 40
1.0
 40
1.0
 40
1.0
 10
179.6079874038696
 20
79.38857588561552
 30
0.0
 10
179.608088710001
 20
79.37744610480304
 30
0.0
 10
179.608088710001
 20
79.28863368880631
 30
0.0
 10
179.608088710001
 20
79.11220989238294
 30
0.0
 10
179.608088710001
 20
78.85056054472737
 30
0.0
 10
179.608088710001
 20
78.5072240044114
 30
0.0
 10
179.608088710001
 20
78.08684330915453
 30
0.0
 10
179.608088710001
 20
77.59510338670377
 30
0.0
 10
179.608088710001
 20
77.03865417593836
 30
0.0
 10
179.608088710001
 20
76.42502069785424
 30
0.0
 10
179.608088710001
 20
75.7625012925642
 30
0.0
 10
179.608088710001
 20
75.06005539848336
 30
0.0
 10
179.608088710001
 20
74.32718239129458
 30
0.0
 10
179.608088710001
 20
73.57379312118826
 30
0.0
 10
179.608088710001
 20
72.81007588561553
 30
0.0
 10
179.6080887100041
 20
73.06522336959107
 30
0.0
 10
179.608088710001
 20
72.81007588561553
 30
0.0
  0
LINE
  5
18F
330
1F
100
AcDbEntity
  8
0
  6
CENTERX2
 62
     7
370
    18
100
AcDbLine
 10
214.0683995449
 20
72.8100758856
 30
0.0
 11
135.4045751223
 21
72.8100758856
 31
0.0
  0
LINE
  5
190
330
1F
100
AcDbEntity
  8
0
  6
CENTERX2
 62
     7
370
    18
100
AcDbLine
 10
192.60808871
 20
61.5697780914
 30
0.0
 11
192.60808871
 21
102.2216749435
 31
0.0
  0
LINE
  5
191
330
1F
100
AcDbEntity
  8
0
  6
Continuous
 62
     7
370
    25
100
AcDbLine
 10
249.8665558855
 20
91.3100758856
 30
0.0
 11
247.9165558855
 21
99.3100758856
 31
0.0
  0
LINE
  5
192
330
1F
100
AcDbEntity
  8
0
  6
Continuous
 62
     7
370
    25
100
AcDbLine
 10
236.9165558855
 20
99.3100758856
 30
0.0
 11
234.9665558855
 21
91.3100758856
 31
0.0
  0
LINE
  5
193
330
1F
100
AcDbEntity
  8
0
  6
Continuous
 62
     7
370
    25
100
AcDbLine
 10
234.9665558855
 20
91.3100758856
 30
0.0
 11
235.4165558855
 21
83.3100758856
 31
0.0
  0
LINE
  5
194
330
1F
100
AcDbEntity
  8
0
  6
Continuous
 62
     7
370
    25
100
AcDbLine
 10
249.4165558855
 20
83.3100758856
 30
0.0
 11
249.8665558855
 21
91.3100758856
 31
0.0
  0
LINE
  5
195
330
1F
100
AcDbEntity
  8
0
  6
Continuous
 62
     7
370
    25
100
AcDbLine
 10
248.3165558855
 20
81.8081695559
 30
0.0
 11
248.3165558855
 21
83.3100758856
 31
0.0
  0
LINE
  5
196
330
1F
100
AcDbEntity
  8
0
  6
Continuous
 62
     7
370
    25
100
AcDbLine
 10
236.5165558855
 20
83.3100758856
 30
0.0
 11
236.5165558855
 21
80.8841083354
 31
0.0
  0
ARC
  5
197
330
1F
100
AcDbEntity
  8
0
  6
Continuous
 62
     7
370
    25
100
AcDbCircle
 10
248.1165558855
 20
81.351818316
 30
0.0
 40
0.5000000000000135
100
AcDbArc
 50
359.992141364
 51
66.3930114207
  0
ARC
  5
198
330
1F
100
AcDbEntity
  8
0
  6
Continuous
 62
     7
370
    25
100
AcDbCircle
 10
237.1665558855
 20
99.9100758856
 30
0.0
 40
0.25
100
AcDbArc
 50
90.0
 51
180.0
  0
ARC
  5
199
330
1F
100
AcDbEntity
  8
0
  6
Continuous
 62
     7
370
    25
100
AcDbCircle
 10
247.6665558855
 20
99.9100758856
 30
0.0
 40
0.25
100
AcDbArc
 50
0.0
 51
90.0
  0
LINE
  5
19A
330
1F
100
AcDbEntity
  8
0
  6
Continuous
 62
     7
370
    25
100
AcDbLine
 10
247.9165558855
 20
99.3100758856
 30
0.0
 11
247.9165558855
 21
99.9100758856
 31
0.0
  0
LINE
  5
19B
330
1F
100
AcDbEntity
  8
0
  6
Continuous
 62
     7
370
    25
100
AcDbLine
 10
236.9165558855
 20
99.9100758856
 30
0.0
 11
236.9165558855
 21
99.3100758856
 31
0.0
  0
CIRCLE
  5
19C
330
1F
100
AcDbEntity
  8
0
  6
Continuous
 62
     7
370
    25
100
AcDbCircle
 10
242.4165558855
 20
72.8100758856
 30
0.0
 40
3.933449123032056
  0
CIRCLE
  5
19D
330
1F
100
AcDbEntity
  8
0
  6
Continuous
 62
     7
370
    25
100
AcDbCircle
 10
242.4165558855
 20
72.8100758856
 30
0.0
 40
3.138978050180571
  0
CIRCLE
  5
19E
330
1F
100
AcDbEntity
  8
0
  6
Continuous
 62
     7
370
    25
100
AcDbCircle
 10
242.4165558855
 20
72.8100758856
 30
0.0
 40
2.700000000000017
  0
CIRCLE
  5
19F
330
1F
100
AcDbEntity
  8
0
  6
Continuous
 62
     7
370
    25
100
AcDbCircle
 10
242.4165558855
 20
72.8100758856
 30
0.0
 40
2.499999999999993
  0
CIRCLE
  5
1A0
330
1F
100
AcDbEntity
  8
0
  6
Continuous
 62
     7
370
    25
100
AcDbCircle
 10
242.4165558855
 20
72.8100758856
 30
0.0
 40
4.499999999999996
  0
CIRCLE
  5
1A1
330
1F
100
AcDbEntity
  8
0
  6
Continuous
 62
     7
370
    25
100
AcDbCircle
 10
242.4165558855
 20
72.8100758856
 30
0.0
 40
4.849999999999994
  0
CIRCLE
  5
1A2
330
1F
100
AcDbEntity
  8
0
  6
Continuous
 62
     7
370
    25
100
AcDbCircle
 10
242.4165558855
 20
72.8100758856
 30
0.0
 40
7.550000000000011
  0
CIRCLE
  5
1A3
330
1F
100
AcDbEntity
  8
0
  6
Continuous
 62
     7
370
    25
100
AcDbCircle
 10
242.4165558855
 20
72.8100758856
 30
0.0
 40
4.750000000000028
  0
CIRCLE
  5
1A4
330
1F
100
AcDbEntity
  8
0
  6
Continuous
 62
     7
370
    25
100
AcDbCircle
 10
242.4165558855
 20
72.8100758856
 30
0.0
 40
7.850000000000023
  0
SPLINE
  5
1A5
330
1F
100
AcDbEntity
  8
0
  6
Continuous
 62
     7
370
    25
100
AcDbSpline
210
0.0
220
0.0
230
1.0
 70
    24
 71
     3
 72
    12
 73
     8
 74
     0
 42
0.00000001
 43
0.00000001
 40
0.0
 40
0.0
 40
0.0
 40
0.0
 40
0.2645357324841802
 40
0.3998137210612399
 40
0.5350672982154645
 40
0.7654034360362928
 40
1.0
 40
1.0
 40
1.0
 40
1.0
 10
234.4165558854999
 20
77.42887803913261
 30
0.0
 10
235.1108218098834
 20
77.82971265746461
 30
0.0
 10
236.160120670295
 20
78.43552563698358
 30
0.0
 10
237.6024750714558
 20
79.26826933876063
 30
0.0
 10
238.9584072605277
 20
80.05111715312414
 30
0.0
 10
240.5830185439375
 20
80.98908691492926
 30
0.0
 10
241.8016544349228
 20
81.69266667463378
 30
0.0
 10
242.4165558854999
 20
82.04768019264954
 30
0.0
  0
SPLINE
  5
1A6
330
1F
100
AcDbEntity
  8
0
  6
Continuous
 62
     7
370
    25
100
AcDbSpline
210
0.0
220
0.0
230
1.0
 70
    24
 71
     3
 72
    12
 73
     8
 74
     0
 42
0.00000001
 43
0.00000001
 40
0.0
 40
0.0
 40
0.0
 40
0.0
 40
0.2645357324841768
 40
0.3998137210612349
 40
0.5350672982154578
 40
0.7654034360362892
 40
1.0
 40
1.0
 40
1.0
 40
1.0
 10
242.4165558854999
 20
82.04768019264954
 30
0.0
 10
243.1108218098834
 20
81.64684557431754
 30
0.0
 10
244.1601206702949
 20
81.04103259479855
 30
0.0
 10
245.6024750714558
 20
80.20828889302149
 30
0.0
 10
246.9584072605277
 20
79.42544107865795
 30
0.0
 10
248.5830185439374
 20
78.4874713168528
 30
0.0
 10
249.8016544349228
 20
77.78389155714825
 30
0.0
 10
250.4165558854999
 20
77.4288780391325
 30
0.0
  0
SPLINE
  5
1A7
330
1F
100
AcDbEntity
  8
0
  6
Continuous
 62
     7
370
    25
100
AcDbSpline
210
0.0
220
0.0
230
1.0
 70
    24
 71
     3
 72
    14
 73
    10
 74
     0
 42
0.00000001
 43
0.00000001
 40
0.0
 40
0.0
 40
0.0
 40
0.0
 40
0.1912156890565411
 40
0.3842607734904397
 40
0.5102055247845747
 40
0.6361523096967547
 40
0.765454570798929
 40
0.8947932191925942
 40
1.0
 40
1.0
 40
1.0
 40
1.0
 10
250.4165558854999
 20
77.4288780391325
 30
0.0
 10
250.4165558854999
 20
76.85093051393031
 30
0.0
 10
250.4165558854999
 20
75.68950613412743
 30
0.0
 10
250.4165558854999
 20
74.10483607450222
 30
0.0
 10
250.4165558854999
 20
72.7138767643639
 30
0.0
 10
250.4165558854999
 20
71.52235025385453
 30
0.0
 10
250.4165558854999
 20
70.32998419210715
 30
0.0
 10
250.4165558854999
 20
69.21507762426772
 30
0.0
 10
250.4165558854999
 20
68.50830216782381
 30
0.0
 10
250.4165558854999
 20
68.19127373209847
 30
0.0
  0
SPLINE
  5
1A8
330
1F
100
AcDbEntity
  8
0
  6
Continuous
 62
     7
370
    25
100
AcDbSpline
210
0.0
220
0.0
230
1.0
 70
    24
 71
     3
 72
    12
 73
     8
 74
     0
 42
0.00000001
 43
0.00000001
 40
0.0
 40
0.0
 40
0.0
 40
0.0
 40
0.2645357324841768
 40
0.3998137210612349
 40
0.535067298215458
 40
0.7654034360362891
 40
1.0
 40
1.0
 40
1.0
 40
1.0
 10
250.4165558854999
 20
68.19127373209847
 30
0.0
 10
249.7222899611164
 20
67.79043911376648
 30
0.0
 10
248.6729911007048
 20
67.1846261342475
 30
0.0
 10
247.2306366995439
 20
66.35188243247045
 30
0.0
 10
245.874704510472
 20
65.56903461810693
 30
0.0
 10
244.2500932270623
 20
64.63106485630178
 30
0.0
 10
243.0314573360769
 20
63.92748509659724
 30
0.0
 10
242.4165558854998
 20
63.57247157858148
 30
0.0
  0
SPLINE
  5
1A9
330
1F
100
AcDbEntity
  8
0
  6
Continuous
 62
     7
370
    25
100
AcDbSpline
210
0.0
220
0.0
230
1.0
 70
    24
 71
     3
 72
    12
 73
     8
 74
     0
 42
0.00000001
 43
0.00000001
 40
0.0
 40
0.0
 40
0.0
 40
0.0
 40
0.2645357324841768
 40
0.3998137210612349
 40
0.5350672982154578
 40
0.7654034360362891
 40
1.0
 40
1.0
 40
1.0
 40
1.0
 10
242.4165558854998
 20
63.57247157858149
 30
0.0
 10
241.7222899611163
 20
63.97330619691349
 30
0.0
 10
240.6729911007048
 20
64.57911917643249
 30
0.0
 10
239.2306366995439
 20
65.41186287820955
 30
0.0
 10
237.874704510472
 20
66.1947106925731
 30
0.0
 10
236.2500932270623
 20
67.13268045437826
 30
0.0
 10
235.0314573360769
 20
67.83626021408281
 30
0.0
 10
234.4165558854998
 20
68.19127373209858
 30
0.0
  0
SPLINE
  5
1AA
330
1F
100
AcDbEntity
  8
0
  6
Continuous
 62
     7
370
    25
100
AcDbSpline
210
0.0
220
0.0
230
1.0
 70
    24
 71
     3
 72
    13
 73
     9
 74
     0
 42
0.00000001
 43
0.00000001
 40
0.0
 40
0.0
 40
0.0
 40
0.0
 40
0.105223324965629
 40
0.3573016070345048
 40
0.486491217401796
 40
0.6156778809274955
 40
0.806749718209131
 40
1.0
 40
1.0
 40
1.0
 40
1.0
 10
234.4165558854998
 20
68.19127373209858
 30
0.0
 10
234.4165558854998
 20
68.50828453265815
 30
0.0
 10
234.4165558854998
 20
69.58474232872413
 30
0.0
 10
234.4165558854999
 20
71.0889032763258
 30
0.0
 10
234.4165558854999
 20
72.6835117292348
 30
0.0
 10
234.4165558854999
 20
74.08861676142664
 30
0.0
 10
234.4165558854999
 20
75.6832966999289
 30
0.0
 10
234.4165558854999
 20
76.84482297489176
 30
0.0
 10
234.4165558854999
 20
77.42887803913261
 30
0.0
  0
LINE
  5
1AB
330
1F
100
AcDbEntity
  8
0
  6
Continuous
 62
     7
370
    25
100
AcDbLine
 10
238.9165558855
 20
94.3100758856
 30
0.0
 11
245.9165558855
 21
94.3100758856
 31
0.0
  0
LINE
  5
1AC
330
1F
100
AcDbEntity
  8
0
  6
Continuous
 62
     7
370
    25
100
AcDbLine
 10
238.9165558855
 20
101.3100758856
 30
0.0
 11
245.9165558855
 21
101.3100758856
 31
0.0
  0
LINE
  5
1AD
330
1F
100
AcDbEntity
  8
0
  6
Continuous
 62
     7
370
    25
100
AcDbLine
 10
245.9165558855
 20
94.3100758856
 30
0.0
 11
245.9165558855
 21
101.3100758856
 31
0.0
  0
LINE
  5
1AE
330
1F
100
AcDbEntity
  8
0
  6
Continuous
 62
     7
370
    25
100
AcDbLine
 10
238.9165558855
 20
101.3100758856
 30
0.0
 11
238.9165558855
 21
94.3100758856
 31
0.0
  0
LINE
  5
1AF
330
1F
100
AcDbEntity
  8
0
  6
Continuous
 62
     7
370
    25
100
AcDbLine
 10
245.9165558855
 20
89.3100758856
 30
0.0
 11
238.9165558855
 21
89.3100758856
 31
0.0
  0
LINE
  5
1B0
330
1F
100
AcDbEntity
  8
0
  6
Continuous
 62
     7
370
    25
100
AcDbLine
 10
245.9165558855
 20
94.3100758856
 30
0.0
 11
245.9165558855
 21
89.3100758856
 31
0.0
  0
LINE
  5
1B1
330
1F
100
AcDbEntity
  8
0
  6
Continuous
 62
     7
370
    25
100
AcDbLine
 10
238.9165558855
 20
89.3100758856
 30
0.0
 11
238.9165558855
 21
94.3100758856
 31
0.0
  0
SPLINE
  5
1B2
330
1F
100
AcDbEntity
  8
0
  6
Continuous
 62
     7
370
    25
100
AcDbSpline
210
0.0
220
0.0
230
1.0
 70
     8
 71
     3
 72
     9
 73
     5
 74
     0
 42
0.00000001
 43
0.00000001
 40
0.0
 40
0.0
 40
0.0
 40
0.0
 40
0.497693137079144
 40
1.0
 40
1.0
 40
1.0
 40
1.0
 10
245.9165558854999
 20
89.06225157859099
 30
0.0
 10
245.9332253987171
 20
88.91280469759056
 30
0.0
 10
245.9667189552387
 20
88.61252552983368
 30
0.0
 10
246.1900576388803
 20
88.03110340244623
 30
0.0
 10
246.3022421924292
 20
87.73905107760548
 30
0.0
  0
LINE
  5
1B3
330
1F
100
AcDbEntity
  8
0
  6
Continuous
 62
     7
370
    25
100
AcDbLine
 10
246.3022421924
 20
87.7390510776
 30
0.0
 11
238.5308695786
 21
87.7390510776
 31
0.0
  0
SPLINE
  5
1B4
330
1F
100
AcDbEntity
  8
0
  6
Continuous
 62
     7
370
    25
100
AcDbSpline
210
0.0
220
0.0
230
1.0
 70
     8
 71
     3
 72
     9
 73
     5
 74
     0
 42
0.00000001
 43
0.00000001
 40
0.0
 40
0.0
 40
0.0
 40
0.0
 40
0.4977232396629077
 40
1.0
 40
1.0
 40
1.0
 40
1.0
 10
238.5308695785705
 20
87.7390510776055
 30
0.0
 10
238.6421662546844
 20
88.02864347822963
 30
0.0
 10
238.865777826829
 20
88.6104776735151
 30
0.0
 10
238.8995785618277
 20
88.91120382265325
 30
0.0
 10
238.9165558854998
 20
89.06225157859099
 30
0.0
  0
LINE
  5
1B5
330
1F
100
AcDbEntity
  8
0
  6
Continuous
 62
     7
370
    25
100
AcDbLine
 10
245.9165558855
 20
89.3100758856
 30
0.0
 11
245.9165558855
 21
89.0622515786
 31
0.0
  0
LINE
  5
1B6
330
1F
100
AcDbEntity
  8
0
  6
Continuous
 62
     7
370
    25
100
AcDbLine
 10
238.9165558855
 20
89.0622515786
 30
0.0
 11
238.9165558855
 21
89.3100758856
 31
0.0
  0
SPLINE
  5
1B7
330
1F
100
AcDbEntity
  8
0
  6
Continuous
 62
     7
370
    25
100
AcDbSpline
210
0.0
220
0.0
230
1.0
 70
     8
 71
     3
 72
    16
 73
    12
 74
     0
 42
0.00000001
 43
0.00000001
 40
0.0
 40
0.0
 40
0.0
 40
0.0
 40
0.0155634360124117
 40
0.0359329243097674
 40
0.0739120889290614
 40
0.1570057548437684
 40
0.2406581385754913
 40
0.4592958294318598
 40
0.6783839187935417
 40
0.8974954344294845
 40
1.0
 40
1.0
 40
1.0
 40
1.0
 10
235.7568336632776
 20
83.31007588561553
 30
0.0
 10
235.770527330291
 20
83.31526925739472
 30
0.0
 10
235.8021433243376
 20
83.32725973526249
 30
0.0
 10
235.8576230146477
 20
83.44558565925944
 30
0.0
 10
235.9362238251382
 20
83.75683696670839
 30
0.0
 10
236.0155640117673
 20
84.28248446807346
 30
0.0
 10
236.1207917198704
 20
85.32103063234361
 30
0.0
 10
236.2357851210897
 20
86.75610467468972
 30
0.0
 10
236.3381851215046
 20
88.59435677612916
 30
0.0
 10
236.407934001385
 20
90.1155396249486
 30
0.0
 10
236.4473926208138
 20
91.02137166574512
 30
0.0
 10
236.4599687601268
 20
91.31007588561307
 30
0.0
  0
LINE
  5
1B8
330
1F
100
AcDbEntity
  8
0
  6
Continuous
 62
     7
370
    25
100
AcDbLine
 10
236.4599687601
 20
91.3100758856
 30
0.0
 11
236.2398080449
 21
92.3048194636
 31
0.0
  0
LINE
  5
1B9
330
1F
100
AcDbEntity
  8
0
  6
Continuous
 62
     7
370
    25
100
AcDbLine
 10
236.2398080449
 20
92.3048194636
 30
0.0
 11
238.9165558855
 21
92.3048194636
 31
0.0
  0
ELLIPSE
  5
1BA
330
1F
100
AcDbEntity
  8
0
  6
Continuous
 62
     7
370
    25
100
AcDbEllipse
 10
173.9165558855
 20
89.6579503179
 30
0.0
 11
65.0
 21
0.0
 31
0.0
210
0.0
220
0.0
230
1.0
 40
0.2713992096
 41
6.084179739699223
 42
6.174194364446292
  0
SPLINE
  5
1BB
330
1F
100
AcDbEntity
  8
0
  6
Continuous
 62
     7
370
    25
100
AcDbSpline
210
0.0
220
0.0
230
1.0
 70
     8
 71
     3
 72
    13
 73
     9
 74
     0
 42
0.00000001
 43
0.00000001
 40
0.0
 40
0.0
 40
0.0
 40
0.0
 40
0.161029400638956
 40
0.3266880383557516
 40
0.4877296220820636
 40
0.6535536198224137
 40
0.8237602734841889
 40
1.0
 40
1.0
 40
1.0
 40
1.0
 10
237.6336935553953
 20
86.17042963712261
 30
0.0
 10
237.5898897879629
 20
86.10103274254537
 30
0.0
 10
237.5010229922207
 20
85.96024394703682
 30
0.0
 10
237.3720029735487
 20
85.61411912932915
 30
0.0
 10
237.2509928777814
 20
85.17491248627712
 30
0.0
 10
237.1443118946567
 20
84.64131064933753
 30
0.0
 10
237.0536446073009
 20
84.01748434263784
 30
0.0
 10
237.0168257984041
 20
83.54860044443585
 30
0.0
 10
236.9980958096328
 20
83.31007588561545
 30
0.0
  0
LINE
  5
1BC
330
1F
100
AcDbEntity
  8
0
  6
Continuous
 62
     7
370
    25
100
AcDbLine
 10
236.9980958096
 20
83.3100758856
 30
0.0
 11
235.7568336633
 21
83.3100758856
 31
0.0
  0
SPLINE
  5
1BD
330
1F
100
AcDbEntity
  8
0
  6
Continuous
 62
     7
370
    25
100
AcDbSpline
210
0.0
220
0.0
230
1.0
 70
     8
 71
     3
 72
    17
 73
    13
 74
     0
 42
0.00000001
 43
0.00000001
 40
0.0
 40
0.0
 40
0.0
 40
0.0
 40
0.3241697628029873
 40
0.5422758463620719
 40
0.689509052693928
 40
0.7894036290694505
 40
0.8577090008137825
 40
0.9049823971474137
 40
0.9551712229700868
 40
0.9753097783197817
 40
0.9919572060138848
 40
1.0
 40
1.0
 40
1.0
 40
1.0
 10
248.373143010873
 20
91.31007588561307
 30
0.0
 10
248.4137934495997
 20
90.39746238300741
 30
0.0
 10
248.4817940887554
 20
88.87082937674606
 30
0.0
 10
248.5932269880718
 20
86.94405647446509
 30
0.0
 10
248.6857316481303
 20
85.65642100353233
 30
0.0
 10
248.7636331044477
 20
84.79726903681058
 30
0.0
 10
248.82968560387
 20
84.22380114843318
 30
0.0
 10
248.8930422112325
 20
83.8022689944032
 30
0.0
 10
248.9511686789263
 20
83.52177645160778
 30
0.0
 10
249.0105105072491
 20
83.36622778302711
 30
0.0
 10
249.0475165758718
 20
83.31561718382962
 30
0.0
 10
249.0692111427423
 20
83.31143743202499
 30
0.0
 10
249.0762781077221
 20
83.3100758856155
 30
0.0
  0
LINE
  5
1BE
330
1F
100
AcDbEntity
  8
0
  6
Continuous
 62
     7
370
    25
100
AcDbLine
 10
249.0762781077
 20
83.3100758856
 30
0.0
 11
247.8350159614
 21
83.3100758856
 31
0.0
  0
SPLINE
  5
1BF
330
1F
100
AcDbEntity
  8
0
  6
Continuous
 62
     7
370
    25
100
AcDbSpline
210
0.0
220
0.0
230
1.0
 70
     8
 71
     3
 72
    14
 73
    10
 74
     0
 42
0.00000001
 43
0.00000001
 40
0.0
 40
0.0
 40
0.0
 40
0.0
 40
0.1576095309202821
 40
0.3152382602707094
 40
0.4726926441579496
 40
0.6301650083177253
 40
0.7907313191165902
 40
0.9513050385928076
 40
1.0
 40
1.0
 40
1.0
 40
1.0
 10
247.835015961367
 20
83.31007588561545
 30
0.0
 10
247.8185106245245
 20
83.52357767409285
 30
0.0
 10
247.7854979403232
 20
83.95060725771836
 30
0.0
 10
247.7056942504112
 20
84.53585433657466
 30
0.0
 10
247.607906842925
 20
85.05800887739709
 30
0.0
 10
247.494317003243
 20
85.50698700481696
 30
0.0
 10
247.3697749042113
 20
85.86626873662334
 30
0.0
 10
247.2694175634348
 20
86.07083491572452
 30
0.0
 10
247.2126317658197
 20
86.15162946407582
 30
0.0
 10
247.1994182156044
 20
86.1704296371226
 30
0.0
  0
ELLIPSE
  5
1C0
330
1F
100
AcDbEntity
  8
0
  6
Continuous
 62
     7
370
    25
100
AcDbEllipse
 10
310.9165558855
 20
89.6579503179
 30
0.0
 11
65.0
 21
0.0
 31
0.0
210
0.0
220
0.0
230
1.0
 40
0.2713992096
 41
3.250583596323188
 42
3.340598221070255
  0
LINE
  5
1C1
330
1F
100
AcDbEntity
  8
0
  6
Continuous
 62
     7
370
    25
100
AcDbLine
 10
245.9165558855
 20
92.3048194636
 30
0.0
 11
248.5933037261
 21
92.3048194636
 31
0.0
  0
LINE
  5
1C2
330
1F
100
AcDbEntity
  8
0
  6
Continuous
 62
     7
370
    25
100
AcDbLine
 10
248.5933037261
 20
92.3048194636
 30
0.0
 11
248.3731430109
 21
91.3100758856
 31
0.0
  0
LINE
  5
1C3
330
1F
100
AcDbEntity
  8
0
  6
Continuous
 62
     7
370
    25
100
AcDbLine
 10
237.6336935554
 20
86.1704296371
 30
0.0
 11
247.1994182156
 21
86.1704296371
 31
0.0
  0
SPLINE
  5
1C4
330
1F
100
AcDbEntity
  8
0
  6
Continuous
 62
     7
370
    25
100
AcDbSpline
210
0.0
220
0.0
230
1.0
 70
     8
 71
     3
 72
    16
 73
    12
 74
     0
 42
0.00000001
 43
0.00000001
 40
0.0
 40
0.0
 40
0.0
 40
0.0
 40
0.1082397394540287
 40
0.2409347985297594
 40
0.3278143823752723
 40
0.4147786007912547
 40
0.5911316736061376
 40
0.6905102391473411
 40
0.7897210831517909
 40
0.9112972329116561
 40
0.9999999999999999
 40
0.9999999999999999
 40
0.9999999999999999
 40
0.9999999999999999
 10
245.0146320968532
 20
83.31007588561545
 30
0.0
 10
244.8965782136258
 20
83.4931330803063
 30
0.0
 10
244.6337977531914
 20
83.90060679139181
 30
0.0
 10
244.057119992114
 20
84.24483645986577
 30
0.0
 10
243.4715623997199
 20
84.44881900398353
 30
0.0
 10
242.7645403866879
 20
84.58023303434561
 30
0.0
 10
242.0047174520725
 20
84.57721279029006
 30
0.0
 10
241.2507489458219
 20
84.42245305558174
 30
0.0
 10
240.6503727432554
 20
84.18190672423853
 30
0.0
 10
240.1337186321176
 20
83.82146488580887
 30
0.0
 10
239.9120056972056
 20
83.46179628125455
 30
0.0
 10
239.8184796741465
 20
83.31007588561545
 30
0.0
  0
LINE
  5
1C5
330
1F
100
AcDbEntity
  8
0
  6
Continuous
 62
     7
370
    25
100
AcDbLine
 10
239.8184796741
 20
83.3100758856
 30
0.0
 11
236.9980958096
 21
83.3100758856
 31
0.0
  0
LINE
  5
1C6
330
1F
100
AcDbEntity
  8
0
  6
Continuous
 62
     7
370
    25
100
AcDbLine
 10
247.8350159614
 20
83.3100758856
 30
0.0
 11
245.0146320969
 21
83.3100758856
 31
0.0
  0
LINE
  5
1C7
330
1F
100
AcDbEntity
  8
0
  6
Continuous
 62
     7
370
    25
100
AcDbLine
 10
245.0146320969
 20
83.3100758856
 30
0.0
 11
239.8184796741
 21
83.3100758856
 31
0.0
  0
LINE
  5
1C8
330
1F
100
AcDbEntity
  8
0
  6
Continuous
 62
     7
370
    25
100
AcDbLine
 10
248.3731430109
 20
91.3100758856
 30
0.0
 11
249.8665558855
 21
91.3100758856
 31
0.0
  0
LINE
  5
1C9
330
1F
100
AcDbEntity
  8
0
  6
Continuous
 62
     7
370
    25
100
AcDbLine
 10
234.9665558855
 20
91.3100758856
 30
0.0
 11
236.4599687601
 21
91.3100758856
 31
0.0
  0
LINE
  5
1CA
330
1F
100
AcDbEntity
  8
0
  6
Continuous
 62
     7
370
    25
100
AcDbLine
 10
238.9165558855
 20
99.3100758856
 30
0.0
 11
236.9165558855
 21
99.3100758856
 31
0.0
  0
LINE
  5
1CB
330
1F
100
AcDbEntity
  8
0
  6
Continuous
 62
     7
370
    25
100
AcDbLine
 10
247.9165558855
 20
99.3100758856
 30
0.0
 11
245.9165558855
 21
99.3100758856
 31
0.0
  0
SPLINE
  5
1CC
330
1F
100
AcDbEntity
  8
0
  6
Continuous
 62
     7
370
    25
100
AcDbSpline
210
0.0
220
0.0
230
1.0
 70
     8
 71
     3
 72
     9
 73
     5
 74
     0
 42
0.00000001
 43
0.00000001
 40
0.0
 40
0.0
 40
0.0
 40
0.0
 40
0.4875141023677128
 40
0.9999999999999999
 40
0.9999999999999999
 40
0.9999999999999999
 40
0.9999999999999999
 10
249.0762781077221
 20
83.3100758856155
 30
0.0
 10
249.0848042192579
 20
83.3118032315872
 30
0.0
 10
249.1022931728992
 20
83.31534640287869
 30
0.0
 10
249.1186148767856
 20
83.33686488882799
 30
0.0
 10
249.1269795198527
 20
83.34789280941543
 30
0.0
  0
SPLINE
  5
1CD
330
1F
100
AcDbEntity
  8
0
  6
Continuous
 62
     7
370
    25
100
AcDbSpline
210
0.0
220
0.0
230
1.0
 70
     8
 71
     3
 72
     9
 73
     5
 74
     0
 42
0.00000001
 43
0.00000001
 40
0.0
 40
0.0
 40
0.0
 40
0.0
 40
0.5124861829376838
 40
0.9999999999999999
 40
0.9999999999999999
 40
0.9999999999999999
 40
0.9999999999999999
 10
235.7061322820133
 20
83.34789276355566
 30
0.0
 10
235.7144969251369
 20
83.33686485060448
 30
0.0
 10
235.7308186200472
 20
83.31534639153509
 30
0.0
 10
235.7483075622889
 20
83.31180322718993
 30
0.0
 10
235.7568336632776
 20
83.31007588561553
 30
0.0
  0
LINE
  5
1CE
330
1F
100
AcDbEntity
  8
0
  6
Continuous
 62
     7
370
    25
100
AcDbLine
 10
249.124759818
 20
83.3100758856
 30
0.0
 11
249.4165558855
 21
83.3100758856
 31
0.0
  0
LINE
  5
1CF
330
1F
100
AcDbEntity
  8
0
  6
Continuous
 62
     7
370
    25
100
AcDbLine
 10
235.4165558855
 20
83.3100758856
 30
0.0
 11
235.708351953
 21
83.3100758856
 31
0.0
  0
LINE
  5
1D0
330
1F
100
AcDbEntity
  8
0
  6
Continuous
 62
     7
370
    25
100
AcDbLine
 10
249.1269795199
 20
83.3478928094
 30
0.0
 11
249.124759818
 21
83.3100758856
 31
0.0
  0
LINE
  5
1D1
330
1F
100
AcDbEntity
  8
0
  6
Continuous
 62
     7
370
    25
100
AcDbLine
 10
249.124759818
 20
83.3100758856
 30
0.0
 11
249.0762781077
 21
83.3100758856
 31
0.0
  0
LINE
  5
1D2
330
1F
100
AcDbEntity
  8
0
  6
Continuous
 62
     7
370
    25
100
AcDbLine
 10
235.708351953
 20
83.3100758856
 30
0.0
 11
235.706132282
 21
83.3478927636
 31
0.0
  0
LINE
  5
1D3
330
1F
100
AcDbEntity
  8
0
  6
Continuous
 62
     7
370
    25
100
AcDbLine
 10
235.7568336633
 20
83.3100758856
 30
0.0
 11
235.708351953
 21
83.3100758856
 31
0.0
  0
CIRCLE
  5
1D4
330
1F
100
AcDbEntity
  8
0
  6
Continuous
 62
     7
370
    25
100
AcDbCircle
 10
242.4165558855
 20
72.8100758856
 30
0.0
 40
9.75
  0
CIRCLE
  5
1D5
330
1F
100
AcDbEntity
  8
0
  6
Continuous
 62
     7
370
    25
100
AcDbCircle
 10
242.4165558855
 20
72.8100758856
 30
0.0
 40
10.00000000000003
  0
SPLINE
  5
1D6
330
1F
100
AcDbEntity
  8
0
  6
Continuous
 62
     7
370
    25
100
AcDbSpline
210
0.0
220
0.0
230
1.0
 70
     8
 71
     3
 72
    12
 73
     8
 74
     0
 42
0.00000001
 43
0.00000001
 40
0.0
 40
0.0
 40
0.0
 40
0.0
 40
0.2219162953575107
 40
0.4518329400641512
 40
0.6844940993635733
 40
0.9187471122076032
 40
1.0
 40
1.0
 40
1.0
 40
1.0
 10
248.3162405647496
 20
81.8081695559394
 30
0.0
 10
248.3146277087579
 20
81.79885877238841
 30
0.0
 10
248.3113438513763
 20
81.77990154034123
 30
0.0
 10
248.2854510098096
 20
81.61614013970095
 30
0.0
 10
248.2561779838684
 20
81.3684180880511
 30
0.0
 10
248.2366353476885
 20
81.12314534755846
 30
0.0
 10
248.2343078462699
 20
80.97161769699183
 30
0.0
 10
248.2337084400108
 20
80.9325944674291
 30
0.0
  0
SPLINE
  5
1D7
330
1F
100
AcDbEntity
  8
0
  6
Continuous
 62
     7
370
    25
100
AcDbSpline
210
0.0
220
0.0
230
1.0
 70
    24
 71
     3
 72
    14
 73
    10
 74
     0
 42
0.00000001
 43
0.00000001
 40
0.0
 40
0.0
 40
0.0
 40
0.0
 40
0.0816565924656661
 40
0.2564894529026625
 40
0.4387467737463362
 40
0.6213569141093516
 40
0.8039729070725311
 40
0.9144311939432663
 40
1.0
 40
1.0
 40
1.0
 40
1.0
 10
248.6165558854999
 20
81.34450759342367
 30
0.0
 10
248.6165558854999
 20
81.34585859709944
 30
0.0
 10
248.6165558854999
 20
81.35010220050242
 30
0.0
 10
248.6165558854999
 20
81.28697505145415
 30
0.0
 10
248.6165558854999
 20
81.1651373140273
 30
0.0
 10
248.6165558854999
 20
80.9976149686298
 30
0.0
 10
248.6165558854998
 20
80.8352737245154
 30
0.0
 10
248.6165558854999
 20
80.70414760279827
 30
0.0
 10
248.6165558854999
 20
80.64267745333622
 30
0.0
 10
248.6165558854999
 20
80.61584479862996
 30
0.0
  0
LINE
  5
1D8
330
1F
100
AcDbEntity
  8
0
  6
Continuous
 62
     7
370
    25
100
AcDbLine
 10
237.1665558855
 20
100.1600758856
 30
0.0
 11
238.9165558855
 21
100.1600758856
 31
0.0
  0
LINE
  5
1D9
330
1F
100
AcDbEntity
  8
0
  6
Continuous
 62
     7
370
    25
100
AcDbLine
 10
245.9165558855
 20
100.1600758856
 30
0.0
 11
247.6665558855
 21
100.1600758856
 31
0.0
  0
LINE
  5
1DA
330
1F
100
AcDbEntity
  8
0
  6
Continuous
 62
     7
370
    25
100
AcDbLine
 10
238.9165558855
 20
99.9100758856
 30
0.0
 11
236.9165558855
 21
99.9100758856
 31
0.0
  0
LINE
  5
1DB
330
1F
100
AcDbEntity
  8
0
  6
Continuous
 62
     7
370
    25
100
AcDbLine
 10
247.9165558855
 20
99.9100758856
 30
0.0
 11
245.9165558855
 21
99.9100758856
 31
0.0
  0
INSERT
  5
1E7
330
1F
100
AcDbEntity
  8
0
  6
Continuous
 62
     7
370
    18
100
AcDbBlockReference
  2
SW_CENTERMARKSYMBOL_0
 10
242.4165558855
 20
72.8100758856
 30
0.0
  0
LINE
  5
1E8
330
1F
100
AcDbEntity
  8
0
  6
Continuous
 62
     7
370
    25
100
AcDbLine
 10
142.9045751223
 20
133.9899841632
 30
0.0
 11
138.1106830864
 21
133.4234332863
 31
0.0
  0
LINE
  5
1E9
330
1F
100
AcDbEntity
  8
0
  6
Continuous
 62
     7
370
    25
100
AcDbLine
 10
138.1106830864
 20
125.5565350402
 30
0.0
 11
142.9045751223
 21
124.9899841632
 31
0.0
  0
LINE
  5
1EA
330
1F
100
AcDbEntity
  8
0
  6
Continuous
 62
     7
370
    25
100
AcDbLine
 10
154.9045751223
 20
133.9899841632
 30
0.0
 11
150.9045751223
 21
133.3399841632
 31
0.0
  0
LINE
  5
1EB
330
1F
100
AcDbEntity
  8
0
  6
Continuous
 62
     7
370
    25
100
AcDbLine
 10
150.9045751223
 20
125.6399841632
 30
0.0
 11
154.9045751223
 21
124.9899841632
 31
0.0
  0
LINE
  5
1EC
330
1F
100
AcDbEntity
  8
0
  6
Continuous
 62
     7
370
    25
100
AcDbLine
 10
150.9045751223
 20
133.9899841632
 30
0.0
 11
146.9045751223
 21
133.3399841632
 31
0.0
  0
LINE
  5
1ED
330
1F
100
AcDbEntity
  8
0
  6
Continuous
 62
     7
370
    25
100
AcDbLine
 10
146.9045751223
 20
125.6399841632
 30
0.0
 11
150.9045751223
 21
124.9899841632
 31
0.0
  0
LINE
  5
1EE
330
1F
100
AcDbEntity
  8
0
  6
Continuous
 62
     7
370
    25
100
AcDbLine
 10
146.9045751223
 20
133.9899841632
 30
0.0
 11
142.9045751223
 21
133.3399841632
 31
0.0
  0
LINE
  5
1EF
330
1F
100
AcDbEntity
  8
0
  6
Continuous
 62
     7
370
    25
100
AcDbLine
 10
142.9045751223
 20
125.6399841632
 30
0.0
 11
146.9045751223
 21
124.9899841632
 31
0.0
  0
LINE
  5
1F0
330
1F
100
AcDbEntity
  8
0
  6
Continuous
 62
     7
370
    25
100
AcDbLine
 10
158.9045751223
 20
133.9899841632
 30
0.0
 11
154.9045751223
 21
133.3399841632
 31
0.0
  0
LINE
  5
1F1
330
1F
100
AcDbEntity
  8
0
  6
Continuous
 62
     7
370
    25
100
AcDbLine
 10
154.9045751223
 20
125.6399841632
 30
0.0
 11
158.9045751223
 21
124.9899841632
 31
0.0
  0
LINE
  5
1F2
330
1F
100
AcDbEntity
  8
0
  6
Continuous
 62
     7
370
    25
100
AcDbLine
 10
163.3241903645
 20
124.9899841632
 30
0.0
 11
163.4045751223
 21
125.2899841632
 31
0.0
  0
LINE
  5
1F3
330
1F
100
AcDbEntity
  8
0
  6
Continuous
 62
     7
370
    25
100
AcDbLine
 10
163.4045751223
 20
133.6899841632
 30
0.0
 11
163.3241903645
 21
133.9899841632
 31
0.0
  0
LINE
  5
1F4
330
1F
100
AcDbEntity
  8
0
  6
Continuous
 62
     7
370
    25
100
AcDbLine
 10
163.3241903645
 20
133.9899841632
 30
0.0
 11
158.9045751223
 21
133.9899841632
 31
0.0
  0
LINE
  5
1F5
330
1F
100
AcDbEntity
  8
0
  6
Continuous
 62
     7
370
    25
100
AcDbLine
 10
158.9045751223
 20
124.9899841632
 30
0.0
 11
163.3241903645
 21
124.9899841632
 31
0.0
  0
ARC
  5
1F6
330
1F
100
AcDbEntity
  8
0
  6
Continuous
 62
     7
370
    25
100
AcDbCircle
 10
138.2045751223
 20
132.6289622134
 30
0.0
 40
0.7999999999999853
100
AcDbArc
 50
96.7400560979
 51
180.0
  0
ARC
  5
1F7
330
1F
100
AcDbEntity
  8
0
  6
Continuous
 62
     7
370
    25
100
AcDbCircle
 10
138.2045751223
 20
126.351006113
 30
0.0
 40
0.7999999999999993
100
AcDbArc
 50
180.0
 51
263.2599439021
  0
LINE
  5
1F8
330
1F
100
AcDbEntity
  8
0
  6
Continuous
 62
     7
370
    25
100
AcDbLine
 10
174.3179725819
 20
121.4899841632
 30
0.0
 11
174.4045751223
 21
121.6399841632
 31
0.0
  0
LINE
  5
1F9
330
1F
100
AcDbEntity
  8
0
  6
Continuous
 62
     7
370
    25
100
AcDbLine
 10
174.4045751223
 20
137.3399841632
 30
0.0
 11
174.3179725819
 21
137.4899841632
 31
0.0
  0
LINE
  5
1FA
330
1F
100
AcDbEntity
  8
0
  6
Continuous
 62
     7
370
    25
100
AcDbLine
 10
165.4911776626
 20
137.4899841632
 30
0.0
 11
165.4045751223
 21
137.3399841632
 31
0.0
  0
LINE
  5
1FB
330
1F
100
AcDbEntity
  8
0
  6
Continuous
 62
     7
370
    25
100
AcDbLine
 10
165.4045751223
 20
121.6399841632
 30
0.0
 11
165.4911776626
 21
121.4899841632
 31
0.0
  0
ARC
  5
1FC
330
1F
100
AcDbEntity
  8
0
  6
Continuous
 62
     7
370
    25
100
AcDbCircle
 10
163.7045751223
 20
121.9399841632
 30
0.0
 40
0.3000000000000114
100
AcDbArc
 50
180.0
 51
270.0
  0
ARC
  5
1FD
330
1F
100
AcDbEntity
  8
0
  6
Continuous
 62
     7
370
    25
100
AcDbCircle
 10
163.7045751223
 20
137.0399841632
 30
0.0
 40
0.3000000000000114
100
AcDbArc
 50
90.0
 51
180.0
  0
LINE
  5
1FE
330
1F
100
AcDbEntity
  8
0
  6
Continuous
 62
     7
370
    25
100
AcDbLine
 10
165.4045751223
 20
137.3399841632
 30
0.0
 11
163.7045751223
 21
137.3399841632
 31
0.0
  0
LINE
  5
1FF
330
1F
100
AcDbEntity
  8
0
  6
Continuous
 62
     7
370
    25
100
AcDbLine
 10
163.7045751223
 20
121.6399841632
 30
0.0
 11
165.4045751223
 21
121.6399841632
 31
0.0
  0
ARC
  5
200
330
1F
100
AcDbEntity
  8
0
  6
Continuous
 62
     7
370
    25
100
AcDbCircle
 10
176.1045751223
 20
137.0399841632
 30
0.0
 40
0.3000000000000114
100
AcDbArc
 50
0.0
 51
90.0
  0
ARC
  5
201
330
1F
100
AcDbEntity
  8
0
  6
Continuous
 62
     7
370
    25
100
AcDbCircle
 10
176.1045751223
 20
121.9399841632
 30
0.0
 40
0.3000000000000114
100
AcDbArc
 50
270.0
 51
0.0
  0
LINE
  5
202
330
1F
100
AcDbEntity
  8
0
  6
Continuous
 62
     7
370
    25
100
AcDbLine
 10
174.4045751223
 20
121.6399841632
 30
0.0
 11
176.1045751223
 21
121.6399841632
 31
0.0
  0
LINE
  5
203
330
1F
100
AcDbEntity
  8
0
  6
Continuous
 62
     7
370
    25
100
AcDbLine
 10
176.1045751223
 20
137.3399841632
 30
0.0
 11
174.4045751223
 21
137.3399841632
 31
0.0
  0
LINE
  5
204
330
1F
100
AcDbEntity
  8
0
  6
Continuous
 62
     7
370
    25
100
AcDbLine
 10
179.80808871
 20
137.4899841632
 30
0.0
 11
179.60808871
 21
137.2899841632
 31
0.0
  0
LINE
  5
205
330
1F
100
AcDbEntity
  8
0
  6
Continuous
 62
     7
370
    25
100
AcDbLine
 10
179.60808871
 20
121.6899841632
 30
0.0
 11
179.80808871
 21
121.4899841632
 31
0.0
  0
LINE
  5
206
330
1F
100
AcDbEntity
  8
0
  6
Continuous
 62
     7
370
    25
100
AcDbLine
 10
182.60808871
 20
137.4899841632
 30
0.0
 11
179.80808871
 21
137.4899841632
 31
0.0
  0
LINE
  5
207
330
1F
100
AcDbEntity
  8
0
  6
Continuous
 62
     7
370
    25
100
AcDbLine
 10
179.80808871
 20
121.4899841632
 30
0.0
 11
182.60808871
 21
121.4899841632
 31
0.0
  0
LINE
  5
208
330
1F
100
AcDbEntity
  8
0
  6
Continuous
 62
     7
370
    25
100
AcDbLine
 10
179.60808871
 20
136.0684841632
 30
0.0
 11
176.4045751223
 21
136.0684841632
 31
0.0
  0
LINE
  5
209
330
1F
100
AcDbEntity
  8
0
  6
Continuous
 62
     7
370
    25
100
AcDbLine
 10
176.4045751223
 20
122.9114841632
 30
0.0
 11
179.60808871
 21
122.9114841632
 31
0.0
  0
ARC
  5
20A
330
1F
100
AcDbEntity
  8
0
  6
Continuous
 62
     7
370
    25
100
AcDbCircle
 10
183.60808871
 20
120.4899841632
 30
0.0
 40
1.500000000000014
100
AcDbArc
 50
318.1896851042
 51
0.0
  0
ARC
  5
20B
330
1F
100
AcDbEntity
  8
0
  6
Continuous
 62
     7
370
    25
100
AcDbCircle
 10
183.60808871
 20
138.4899841632
 30
0.0
 40
1.500000000000014
100
AcDbArc
 50
0.0
 51
41.8103148958
  0
LINE
  5
20C
330
1F
100
AcDbEntity
  8
0
  6
Continuous
 62
     7
370
    25
100
AcDbLine
 10
182.85808871
 20
139.4899841632
 30
0.0
 11
182.60808871
 21
139.2399841632
 31
0.0
  0
LINE
  5
20D
330
1F
100
AcDbEntity
  8
0
  6
Continuous
 62
     7
370
    25
100
AcDbLine
 10
182.60808871
 20
119.7399841632
 30
0.0
 11
182.85808871
 21
119.4899841632
 31
0.0
  0
LINE
  5
20E
330
1F
100
AcDbEntity
  8
0
  6
Continuous
 62
     7
370
    25
100
AcDbLine
 10
182.85808871
 20
119.4899841632
 30
0.0
 11
184.7261226988
 21
119.4899841632
 31
0.0
  0
LINE
  5
20F
330
1F
100
AcDbEntity
  8
0
  6
Continuous
 62
     7
370
    25
100
AcDbLine
 10
184.7261226988
 20
139.4899841632
 30
0.0
 11
182.85808871
 21
139.4899841632
 31
0.0
  0
LINE
  5
210
330
1F
100
AcDbEntity
  8
0
  6
Continuous
 62
     7
370
    25
100
AcDbLine
 10
202.10808871
 20
119.4899841632
 30
0.0
 11
202.60808871
 21
119.9899841632
 31
0.0
  0
LINE
  5
211
330
1F
100
AcDbEntity
  8
0
  6
Continuous
 62
     7
370
    25
100
AcDbLine
 10
202.60808871
 20
138.9899841632
 30
0.0
 11
202.10808871
 21
139.4899841632
 31
0.0
  0
LINE
  5
212
330
1F
100
AcDbEntity
  8
0
  6
Continuous
 62
     7
370
    25
100
AcDbLine
 10
202.10808871
 20
139.4899841632
 30
0.0
 11
200.4900547213
 21
139.4899841632
 31
0.0
  0
LINE
  5
213
330
1F
100
AcDbEntity
  8
0
  6
Continuous
 62
     7
370
    25
100
AcDbLine
 10
200.4900547213
 20
119.4899841632
 30
0.0
 11
202.10808871
 21
119.4899841632
 31
0.0
  0
ARC
  5
214
330
1F
100
AcDbEntity
  8
0
  6
Continuous
 62
     7
370
    25
100
AcDbCircle
 10
201.60808871
 20
138.4899841632
 30
0.0
 40
1.500000000000014
100
AcDbArc
 50
138.1896851042
 51
180.0
  0
ARC
  5
215
330
1F
100
AcDbEntity
  8
0
  6
Continuous
 62
     7
370
    25
100
AcDbCircle
 10
201.60808871
 20
120.4899841632
 30
0.0
 40
1.500000000000014
100
AcDbArc
 50
180.0
 51
221.8103148958
  0
LINE
  5
216
330
1F
100
AcDbEntity
  8
0
  6
Continuous
 62
     7
370
    25
100
AcDbLine
 10
202.60808871
 20
122.7230466632
 30
0.0
 11
210.4025642524
 21
122.9666240239
 31
0.0
  0
LINE
  5
217
330
1F
100
AcDbEntity
  8
0
  6
Continuous
 62
     7
370
    25
100
AcDbLine
 10
210.4025642524
 20
136.0133443025
 30
0.0
 11
202.60808871
 21
136.2569216632
 31
0.0
  0
LINE
  5
218
330
1F
100
AcDbEntity
  8
0
  6
Continuous
 62
     7
370
    25
100
AcDbLine
 10
210.4025642524
 20
122.9666240239
 30
0.0
 11
212.60808871
 21
124.2399841632
 31
0.0
  0
LINE
  5
219
330
1F
100
AcDbEntity
  8
0
  6
Continuous
 62
     7
370
    25
100
AcDbLine
 10
212.60808871
 20
134.7399841632
 30
0.0
 11
210.4025642524
 21
136.0133443025
 31
0.0
  0
ARC
  5
21A
330
1F
100
AcDbEntity
  8
0
  6
Continuous
 62
     7
370
    25
100
AcDbCircle
 10
185.6001469476
 20
138.489935083
 30
0.0
 40
0.4999499223316541
100
AcDbArc
 50
185.4070207077
 51
271.7417304983
  0
ARC
  5
21B
330
1F
100
AcDbEntity
  8
0
  6
Continuous
 62
     7
370
    25
100
AcDbCircle
 10
185.6079768169
 20
138.4899840928
 30
0.0
 40
0.4999999295238858
100
AcDbArc
 50
181.8055459077
 51
270.0008318653
  0
ARC
  5
21C
330
1F
100
AcDbEntity
  8
0
  6
Continuous
 62
     7
370
    25
100
AcDbCircle
 10
199.6160304464
 20
138.4899351345
 30
0.0
 40
0.4999499729556733
100
AcDbArc
 50
268.2582726631
 51
354.6234834793
  0
ARC
  5
21D
330
1F
100
AcDbEntity
  8
0
  6
Continuous
 62
     7
370
    25
100
AcDbCircle
 10
199.6082006032
 20
138.4899840926
 30
0.0
 40
0.4999999293576953
100
AcDbArc
 50
269.999168124
 51
358.1336831482
  0
ARC
  5
21E
330
1F
100
AcDbEntity
  8
0
  6
Continuous
 62
     7
370
    25
100
AcDbCircle
 10
185.6001469736
 20
120.490033192
 30
0.0
 40
0.4999499729556114
100
AcDbArc
 50
88.2582726631
 51
174.6234834793
  0
ARC
  5
21F
330
1F
100
AcDbEntity
  8
0
  6
Continuous
 62
     7
370
    25
100
AcDbCircle
 10
185.6079768168
 20
120.4899842339
 30
0.0
 40
0.499999929357781
100
AcDbArc
 50
89.9991681241
 51
178.1336831482
  0
ARC
  5
220
330
1F
100
AcDbEntity
  8
0
  6
Continuous
 62
     7
370
    25
100
AcDbCircle
 10
199.6160304724
 20
120.4900332434
 30
0.0
 40
0.4999499223316559
100
AcDbArc
 50
5.4070207077
 51
91.7417304983
  0
ARC
  5
221
330
1F
100
AcDbEntity
  8
0
  6
Continuous
 62
     7
370
    25
100
AcDbCircle
 10
199.6082006031
 20
120.4899842337
 30
0.0
 40
0.4999999295239568
100
AcDbArc
 50
1.8055459077
 51
90.0008318653
  0
LINE
  5
222
330
1F
100
AcDbEntity
  8
0
  6
Continuous
 62
     7
370
    25
100
AcDbLine
 10
142.9045751223
 20
133.9899841632
 30
0.0
 11
142.9045751223
 21
124.9899841632
 31
0.0
  0
LINE
  5
223
330
1F
100
AcDbEntity
  8
0
  6
Continuous
 62
     7
370
    25
100
AcDbLine
 10
154.9045751223
 20
133.9899841632
 30
0.0
 11
154.9045751223
 21
132.9899841632
 31
0.0
  0
LINE
  5
224
330
1F
100
AcDbEntity
  8
0
  6
Continuous
 62
     7
370
    25
100
AcDbLine
 10
154.9045751223
 20
125.9899841632
 30
0.0
 11
154.9045751223
 21
124.9899841632
 31
0.0
  0
LINE
  5
225
330
1F
100
AcDbEntity
  8
0
  6
Continuous
 62
     7
370
    25
100
AcDbLine
 10
150.9045751223
 20
133.9899841632
 30
0.0
 11
150.9045751223
 21
124.9899841632
 31
0.0
  0
LINE
  5
226
330
1F
100
AcDbEntity
  8
0
  6
Continuous
 62
     7
370
    25
100
AcDbLine
 10
146.9045751223
 20
133.9899841632
 30
0.0
 11
146.9045751223
 21
124.9899841632
 31
0.0
  0
LINE
  5
227
330
1F
100
AcDbEntity
  8
0
  6
Continuous
 62
     7
370
    25
100
AcDbLine
 10
158.9045751223
 20
133.9899841632
 30
0.0
 11
158.9045751223
 21
132.9899841632
 31
0.0
  0
LINE
  5
228
330
1F
100
AcDbEntity
  8
0
  6
Continuous
 62
     7
370
    25
100
AcDbLine
 10
158.9045751223
 20
125.9899841632
 30
0.0
 11
158.9045751223
 21
124.9899841632
 31
0.0
  0
LINE
  5
229
330
1F
100
AcDbEntity
  8
0
  6
Continuous
 62
     7
370
    25
100
AcDbLine
 10
163.3241903645
 20
133.9899841632
 30
0.0
 11
163.3241903645
 21
132.9899841632
 31
0.0
  0
LINE
  5
22A
330
1F
100
AcDbEntity
  8
0
  6
Continuous
 62
     7
370
    25
100
AcDbLine
 10
163.3241903645
 20
125.9899841632
 30
0.0
 11
163.3241903645
 21
124.9899841632
 31
0.0
  0
LINE
  5
22B
330
1F
100
AcDbEntity
  8
0
  6
Continuous
 62
     7
370
    25
100
AcDbLine
 10
137.4045751223
 20
126.351006113
 30
0.0
 11
137.4045751223
 21
132.6289622134
 31
0.0
  0
LINE
  5
22C
330
1F
100
AcDbEntity
  8
0
  6
Continuous
 62
     7
370
    25
100
AcDbLine
 10
173.6034414021
 20
137.4899841632
 30
0.0
 11
169.9581649608
 21
137.4899841632
 31
0.0
  0
SPLINE
  5
22D
330
1F
100
AcDbEntity
  8
0
  6
Continuous
 62
     7
370
    25
100
AcDbSpline
210
0.0
220
0.0
230
1.0
 70
     8
 71
     3
 72
    11
 73
     7
 74
     0
 42
0.00000001
 43
0.00000001
 40
0.0
 40
0.0
 40
0.0
 40
0.0
 40
0.4843527706399887
 40
0.732040551638807
 40
0.9796836364441305
 40
1.0
 40
1.0
 40
1.0
 40
1.0
 10
173.6034414020762
 20
137.4899841632288
 30
0.0
 10
173.8133202260937
 20
136.7955467048469
 30
0.0
 10
174.1305266496433
 20
135.7459885915717
 30
0.0
 10
174.2906692838617
 20
134.3048603799762
 30
0.0
 10
174.3544315325765
 20
133.5397812199816
 30
0.0
 10
174.3074128259414
 20
133.1457884405698
 30
0.0
 10
174.3038479240737
 20
133.1159163812195
 30
0.0
  0
SPLINE
  5
22E
330
1F
100
AcDbEntity
  8
0
  6
Continuous
 62
     7
370
    25
100
AcDbSpline
210
0.0
220
0.0
230
1.0
 70
     8
 71
     3
 72
    11
 73
     7
 74
     0
 42
0.00000001
 43
0.00000001
 40
0.0
 40
0.0
 40
0.0
 40
0.0
 40
0.4709116352817385
 40
0.7117259034345567
 40
0.9524967157451759
 40
1.0
 40
1.0
 40
1.0
 40
1.0
 10
166.2057088424657
 20
137.4899841632288
 30
0.0
 10
165.9962464916337
 20
136.7955653355018
 30
0.0
 10
165.6796695168639
 20
135.7460353802051
 30
0.0
 10
165.5165497756046
 20
134.3047739896782
 30
0.0
 10
165.4560901338052
 20
133.4976507692135
 30
0.0
 10
165.5106839176154
 20
133.0618050554874
 30
0.0
 10
165.5196801613355
 20
132.9899841632288
 30
0.0
  0
LINE
  5
22F
330
1F
100
AcDbEntity
  8
0
  6
Continuous
 62
     7
370
    25
100
AcDbLine
 10
169.8509852838
 20
137.4899841632
 30
0.0
 11
166.2057088425
 21
137.4899841632
 31
0.0
  0
LINE
  5
230
330
1F
100
AcDbEntity
  8
0
  6
Continuous
 62
     7
370
    25
100
AcDbLine
 10
169.9045751223
 20
137.1312365176
 30
0.0
 11
169.8509852838
 21
137.4899841632
 31
0.0
  0
LINE
  5
231
330
1F
100
AcDbEntity
  8
0
  6
Continuous
 62
     7
370
    25
100
AcDbLine
 10
169.9581649608
 20
137.4899841632
 30
0.0
 11
169.9045751223
 21
137.1312365176
 31
0.0
  0
SPLINE
  5
232
330
1F
100
AcDbEntity
  8
0
  6
Continuous
 62
     7
370
    25
100
AcDbSpline
210
0.0
220
0.0
230
1.0
 70
    24
 71
     3
 72
    10
 73
     6
 74
     0
 42
0.00000001
 43
0.00000001
 40
0.0
 40
0.0
 40
0.0
 40
0.0
 40
0.2314771185790771
 40
0.6135604587221133
 40
1.0
 40
1.0
 40
1.0
 40
1.0
 10
174.3126311581199
 20
137.4899841632289
 30
0.0
 10
174.3060497154496
 20
137.4899841632289
 30
0.0
 10
174.288604738561
 20
137.4899841632289
 30
0.0
 10
174.0641167163699
 20
137.4899841632289
 30
0.0
 10
173.7575790204393
 20
137.4899841632288
 30
0.0
 10
173.6034414020762
 20
137.4899841632288
 30
0.0
  0
SPLINE
  5
233
330
1F
100
AcDbEntity
  8
0
  6
Continuous
 62
     7
370
    25
100
AcDbSpline
210
0.0
220
0.0
230
1.0
 70
    24
 71
     3
 72
    10
 73
     6
 74
     0
 42
0.00000001
 43
0.00000001
 40
0.0
 40
0.0
 40
0.0
 40
0.0
 40
0.3824298570797017
 40
0.7685184903621144
 40
1.0
 40
1.0
 40
1.0
 40
1.0
 10
173.6034414020762
 20
121.4899841632289
 30
0.0
 10
173.7561507248069
 20
121.4899841632289
 30
0.0
 10
174.0630303682151
 20
121.4899841632289
 30
0.0
 10
174.2879031292711
 20
121.4899841632289
 30
0.0
 10
174.306768822367
 20
121.4899841632289
 30
0.0
 10
174.3138401796344
 20
121.4899841632289
 30
0.0
  0
SPLINE
  5
234
330
1F
100
AcDbEntity
  8
0
  6
Continuous
 62
     7
370
    25
100
AcDbSpline
210
0.0
220
0.0
230
1.0
 70
     8
 71
     3
 72
    10
 73
     6
 74
     0
 42
0.00000001
 43
0.00000001
 40
0.0
 40
0.0
 40
0.0
 40
0.0
 40
0.1439301557059762
 40
0.568042765730436
 40
1.0
 40
1.0
 40
1.0
 40
1.0
 10
174.2977054301516
 20
125.8399405602081
 30
0.0
 10
174.3061986553475
 20
125.6284968846177
 30
0.0
 10
174.3397184907606
 20
124.7940015025384
 30
0.0
 10
174.1491113734224
 20
123.3233846087847
 30
0.0
 10
173.7864391787297
 20
122.1048397038857
 30
0.0
 10
173.6034414020762
 20
121.4899841632289
 30
0.0
  0
LINE
  5
235
330
1F
100
AcDbEntity
  8
0
  6
Continuous
 62
     7
370
    25
100
AcDbLine
 10
174.4045751223
 20
137.3399841632
 30
0.0
 11
174.4045751223
 21
133.1114528489
 31
0.0
  0
LINE
  5
236
330
1F
100
AcDbEntity
  8
0
  6
Continuous
 62
     7
370
    25
100
AcDbLine
 10
174.4045751223
 20
125.8685154776
 30
0.0
 11
174.4045751223
 21
121.6399841632
 31
0.0
  0
SPLINE
  5
237
330
1F
100
AcDbEntity
  8
0
  6
Continuous
 62
     7
370
    25
100
AcDbSpline
210
0.0
220
0.0
230
1.0
 70
     8
 71
     3
 72
    10
 73
     6
 74
     0
 42
0.00000001
 43
0.00000001
 40
0.0
 40
0.0
 40
0.0
 40
0.0
 40
0.1721130615207062
 40
0.5822633461311506
 40
1.0
 40
1.0
 40
1.0
 40
1.0
 10
165.5153181259829
 20
125.9899841632288
 30
0.0
 10
165.5042160624226
 20
125.7285341120074
 30
0.0
 10
165.4666574679702
 20
124.8440412076032
 30
0.0
 10
165.6587883785803
 20
123.3233923511676
 30
0.0
 10
166.0222916962914
 20
122.1048423003981
 30
0.0
 10
166.2057088424657
 20
121.4899841632289
 30
0.0
  0
SPLINE
  5
238
330
1F
100
AcDbEntity
  8
0
  6
Continuous
 62
     7
370
    25
100
AcDbSpline
210
0.0
220
0.0
230
1.0
 70
    24
 71
     3
 72
    10
 73
     6
 74
     0
 42
0.00000001
 43
0.00000001
 40
0.0
 40
0.0
 40
0.0
 40
0.0
 40
0.3824298570797017
 40
0.7685184903621145
 40
1.0
 40
1.0
 40
1.0
 40
1.0
 10
166.2057088424657
 20
121.4899841632289
 30
0.0
 10
166.052999519735
 20
121.4899841632289
 30
0.0
 10
165.7461198763268
 20
121.4899841632289
 30
0.0
 10
165.5212471152708
 20
121.4899841632289
 30
0.0
 10
165.5023814221749
 20
121.4899841632289
 30
0.0
 10
165.4953100649075
 20
121.4899841632289
 30
0.0
  0
SPLINE
  5
239
330
1F
100
AcDbEntity
  8
0
  6
Continuous
 62
     7
370
    25
100
AcDbSpline
210
0.0
220
0.0
230
1.0
 70
    24
 71
     3
 72
    10
 73
     6
 74
     0
 42
0.00000001
 43
0.00000001
 40
0.0
 40
0.0
 40
0.0
 40
0.0
 40
0.2314771185790771
 40
0.6135604587221133
 40
1.0
 40
1.0
 40
1.0
 40
1.0
 10
165.496519086422
 20
137.4899841632289
 30
0.0
 10
165.5031005290923
 20
137.4899841632289
 30
0.0
 10
165.5205455059809
 20
137.4899841632289
 30
0.0
 10
165.745033528172
 20
137.4899841632289
 30
0.0
 10
166.0515712241026
 20
137.4899841632288
 30
0.0
 10
166.2057088424657
 20
137.4899841632288
 30
0.0
  0
LINE
  5
23A
330
1F
100
AcDbEntity
  8
0
  6
Continuous
 62
     7
370
    25
100
AcDbLine
 10
165.4045751223
 20
137.3399841632
 30
0.0
 11
165.4045751223
 21
132.9899841632
 31
0.0
  0
LINE
  5
23B
330
1F
100
AcDbEntity
  8
0
  6
Continuous
 62
     7
370
    25
100
AcDbLine
 10
165.4045751223
 20
125.9899841632
 30
0.0
 11
165.4045751223
 21
121.6399841632
 31
0.0
  0
LINE
  5
23C
330
1F
100
AcDbEntity
  8
0
  6
Continuous
 62
     7
370
    25
100
AcDbLine
 10
173.6034414021
 20
121.4899841632
 30
0.0
 11
169.9581649608
 21
121.4899841632
 31
0.0
  0
LINE
  5
23D
330
1F
100
AcDbEntity
  8
0
  6
Continuous
 62
     7
370
    25
100
AcDbLine
 10
169.9045751223
 20
121.8487318089
 30
0.0
 11
169.9581649608
 21
121.4899841632
 31
0.0
  0
LINE
  5
23E
330
1F
100
AcDbEntity
  8
0
  6
Continuous
 62
     7
370
    25
100
AcDbLine
 10
169.8509852838
 20
121.4899841632
 30
0.0
 11
169.9045751223
 21
121.8487318089
 31
0.0
  0
LINE
  5
23F
330
1F
100
AcDbEntity
  8
0
  6
Continuous
 62
     7
370
    25
100
AcDbLine
 10
169.8509852838
 20
121.4899841632
 30
0.0
 11
166.2057088425
 21
121.4899841632
 31
0.0
  0
LINE
  5
240
330
1F
100
AcDbEntity
  8
0
  6
Continuous
 62
     7
370
    25
100
AcDbLine
 10
163.4045751223
 20
121.9399841632
 30
0.0
 11
163.4045751223
 21
125.9899841632
 31
0.0
  0
LINE
  5
241
330
1F
100
AcDbEntity
  8
0
  6
Continuous
 62
     7
370
    25
100
AcDbLine
 10
163.4045751223
 20
132.9899841632
 30
0.0
 11
163.4045751223
 21
137.0399841292
 31
0.0
  0
LINE
  5
242
330
1F
100
AcDbEntity
  8
0
  6
Continuous
 62
     7
370
    25
100
AcDbLine
 10
176.4045751223
 20
137.0399841632
 30
0.0
 11
176.4045751223
 21
133.2649029936
 31
0.0
  0
LINE
  5
243
330
1F
100
AcDbEntity
  8
0
  6
Continuous
 62
     7
370
    25
100
AcDbLine
 10
176.4045751223
 20
125.7150653328
 30
0.0
 11
176.4045751223
 21
121.9399841972
 31
0.0
  0
LINE
  5
244
330
1F
100
AcDbEntity
  8
0
  6
Continuous
 62
     7
370
    25
100
AcDbLine
 10
169.8509852838
 20
137.4899841632
 30
0.0
 11
169.9045751223
 21
137.4899841632
 31
0.0
  0
LINE
  5
245
330
1F
100
AcDbEntity
  8
0
  6
Continuous
 62
     7
370
    25
100
AcDbLine
 10
169.9045751223
 20
137.4899841632
 30
0.0
 11
169.9045751223
 21
137.1312365176
 31
0.0
  0
LINE
  5
246
330
1F
100
AcDbEntity
  8
0
  6
Continuous
 62
     7
370
    25
100
AcDbLine
 10
169.9045751223
 20
137.4899841632
 30
0.0
 11
169.9581649608
 21
137.4899841632
 31
0.0
  0
LINE
  5
247
330
1F
100
AcDbEntity
  8
0
  6
Continuous
 62
     7
370
    25
100
AcDbLine
 10
169.9045751223
 20
121.8487318089
 30
0.0
 11
169.9045751223
 21
121.4899841632
 31
0.0
  0
LINE
  5
248
330
1F
100
AcDbEntity
  8
0
  6
Continuous
 62
     7
370
    25
100
AcDbLine
 10
169.9045751223
 20
121.4899841632
 30
0.0
 11
169.8509852838
 21
121.4899841632
 31
0.0
  0
LINE
  5
249
330
1F
100
AcDbEntity
  8
0
  6
Continuous
 62
     7
370
    25
100
AcDbLine
 10
169.9581649608
 20
121.4899841632
 30
0.0
 11
169.9045751223
 21
121.4899841632
 31
0.0
  0
LINE
  5
24A
330
1F
100
AcDbEntity
  8
0
  6
Continuous
 62
     7
370
    25
100
AcDbLine
 10
172.60808871
 20
132.7616834273
 30
0.0
 11
170.4326518485
 21
132.9899841632
 31
0.0
  0
LINE
  5
24B
330
1F
100
AcDbEntity
  8
0
  6
Continuous
 62
     7
370
    25
100
AcDbLine
 10
172.60808871
 20
126.2182848992
 30
0.0
 11
172.60808871
 21
132.7616834273
 31
0.0
  0
LINE
  5
24C
330
1F
100
AcDbEntity
  8
0
  6
Continuous
 62
     7
370
    25
100
AcDbLine
 10
170.4326518485
 20
125.9899841632
 30
0.0
 11
172.60808871
 21
126.2182848992
 31
0.0
  0
LINE
  5
24D
330
1F
100
AcDbEntity
  8
0
  6
Continuous
 62
     7
370
    25
100
AcDbLine
 10
152.60808871
 20
125.9899841632
 30
0.0
 11
170.4326518485
 21
125.9899841632
 31
0.0
  0
LINE
  5
24E
330
1F
100
AcDbEntity
  8
0
  6
Continuous
 62
     7
370
    25
100
AcDbLine
 10
170.4326518485
 20
132.9899841632
 30
0.0
 11
152.60808871
 21
132.9899841632
 31
0.0
  0
LINE
  5
24F
330
1F
100
AcDbEntity
  8
0
  6
Continuous
 62
     7
370
    25
100
AcDbLine
 10
152.60808871
 20
132.9899841632
 30
0.0
 11
152.60808871
 21
125.9899841632
 31
0.0
  0
LINE
  5
250
330
1F
100
AcDbEntity
  8
0
  6
Continuous
 62
     7
370
    25
100
AcDbLine
 10
187.3842865356
 20
131.210998644
 30
0.0
 11
187.2877222183
 21
131.0515993238
 31
0.0
  0
LINE
  5
251
330
1F
100
AcDbEntity
  8
0
  6
Continuous
 62
     7
370
    25
100
AcDbLine
 10
187.2654448377
 20
127.9447664959
 30
0.0
 11
187.3842865356
 21
127.7689696824
 31
0.0
  0
LINE
  5
252
330
1F
100
AcDbEntity
  8
0
  6
Continuous
 62
     7
370
    25
100
AcDbLine
 10
179.1915190564
 20
132.0707867988
 30
0.0
 11
179.1915190564
 21
126.9091815277
 31
0.0
  0
LINE
  5
253
330
1F
100
AcDbEntity
  8
0
  6
Continuous
 62
     7
370
    25
100
AcDbLine
 10
187.3842865356
 20
127.7689696824
 30
0.0
 11
179.1915190564
 21
126.9091815277
 31
0.0
  0
LINE
  5
254
330
1F
100
AcDbEntity
  8
0
  6
Continuous
 62
     7
370
    25
100
AcDbLine
 10
179.1915190564
 20
132.0707867988
 30
0.0
 11
187.3842865356
 21
131.2109986441
 31
0.0
  0
LINE
  5
255
330
1F
100
AcDbEntity
  8
0
  6
Continuous
 62
     7
370
    25
100
AcDbLine
 10
179.1915190564
 20
126.9091815277
 30
0.0
 11
172.60808871
 21
126.2182848992
 31
0.0
  0
LINE
  5
256
330
1F
100
AcDbEntity
  8
0
  6
Continuous
 62
     7
370
    25
100
AcDbLine
 10
172.60808871
 20
132.7616834273
 30
0.0
 11
179.1915190564
 21
132.0707867988
 31
0.0
  0
ARC
  5
257
330
1F
100
AcDbEntity
  8
0
  6
Continuous
 62
     7
370
    25
100
AcDbCircle
 10
192.60808871
 20
129.4899841632
 30
0.0
 40
7.450000000000656
100
AcDbArc
 50
233.0863788866
 51
126.9136211134
  0
ARC
  5
258
330
1F
100
AcDbEntity
  8
0
  6
Continuous
 62
     7
370
    25
100
AcDbCircle
 10
192.60808871
 20
129.4899841632
 30
0.0
 40
7.207531252870803
100
AcDbArc
 50
195.3041237151
 51
238.9797515565
  0
ARC
  5
259
330
1F
100
AcDbEntity
  8
0
  6
Continuous
 62
     7
370
    25
100
AcDbCircle
 10
192.60808871
 20
129.4899841632
 30
0.0
 40
7.207531252872426
100
AcDbArc
 50
121.0202484435
 51
164.6958762849
  0
ARC
  5
25A
330
1F
100
AcDbEntity
  8
0
  6
Continuous
 62
     7
370
    25
100
AcDbCircle
 10
170.4326518485
 20
197.9899841632
 30
0.0
 40
64.99999999999997
100
AcDbArc
 50
270.0
 51
286.5000949923
  0
ARC
  5
25B
330
1F
100
AcDbEntity
  8
0
  6
Continuous
 62
     7
370
    25
100
AcDbCircle
 10
170.4326518485
 20
60.9899841632
 30
0.0
 40
65.0
100
AcDbArc
 50
73.4999050077
 51
90.0
  0
LINE
  5
25C
330
1F
100
AcDbEntity
  8
0
  6
Continuous
 62
     7
370
    25
100
AcDbLine
 10
179.60808871
 20
121.6899841632
 30
0.0
 11
179.60808871
 21
125.3391205863
 31
0.0
  0
LINE
  5
25D
330
1F
100
AcDbEntity
  8
0
  6
Continuous
 62
     7
370
    25
100
AcDbLine
 10
179.60808871
 20
133.6408477401
 30
0.0
 11
179.60808871
 21
137.2899841632
 31
0.0
  0
LINE
  5
25E
330
1F
100
AcDbEntity
  8
0
  6
Continuous
 62
     7
370
    25
100
AcDbLine
 10
179.80808871
 20
137.4899841632
 30
0.0
 11
179.80808871
 21
133.6696826741
 31
0.0
  0
LINE
  5
25F
330
1F
100
AcDbEntity
  8
0
  6
Continuous
 62
     7
370
    25
100
AcDbLine
 10
179.80808871
 20
125.3102856524
 30
0.0
 11
179.80808871
 21
121.4899841632
 31
0.0
  0
LINE
  5
260
330
1F
100
AcDbEntity
  8
0
  6
Continuous
 62
     7
370
    25
100
AcDbLine
 10
184.7261226988
 20
139.4899841632
 30
0.0
 11
184.7261226988
 21
134.5810203564
 31
0.0
  0
LINE
  5
261
330
1F
100
AcDbEntity
  8
0
  6
Continuous
 62
     7
370
    25
100
AcDbLine
 10
184.7261226988
 20
124.39894797
 30
0.0
 11
184.7261226988
 21
119.4899841632
 31
0.0
  0
LINE
  5
262
330
1F
100
AcDbEntity
  8
0
  6
Continuous
 62
     7
370
    25
100
AcDbLine
 10
185.1001350748
 20
138.4420966184
 30
0.0
 11
185.1053499562
 21
138.4734945718
 31
0.0
  0
SPLINE
  5
263
330
1F
100
AcDbEntity
  8
0
  6
Continuous
 62
     7
370
    25
100
AcDbSpline
210
0.0
220
0.0
230
1.0
 70
     8
 71
     3
 72
    14
 73
    10
 74
     0
 42
0.00000001
 43
0.00000001
 40
0.0
 40
0.0
 40
0.0
 40
0.0
 40
0.25
 40
0.25
 40
0.5
 40
0.5
 40
0.75
 40
0.75
 40
1.0
 40
1.0
 40
1.0
 40
1.0
 10
184.879002642899
 20
138.2524453429787
 30
0.0
 10
184.8514816551539
 20
138.2407385474331
 30
0.0
 10
184.8315617333175
 20
138.2086965943516
 30
0.0
 10
184.8158946914994
 20
138.1093728436866
 30
0.0
 10
184.8203865233118
 20
138.0415494009058
 30
0.0
 10
184.8516428685953
 20
137.879107783493
 30
0.0
 10
184.8780154519771
 20
137.7846623867572
 30
0.0
 10
184.9408520031214
 20
137.5764332791607
 30
0.0
 10
184.9768915819815
 20
137.4638348862776
 30
0.0
 10
185.0108875853471
 20
137.3440784926775
 30
0.0
  0
SPLINE
  5
264
330
1F
100
AcDbEntity
  8
0
  6
Continuous
 62
     7
370
    25
100
AcDbSpline
210
0.0
220
0.0
230
1.0
 70
     8
 71
     3
 72
     8
 73
     4
 74
     0
 42
0.00000001
 43
0.00000001
 40
0.0
 40
0.0
 40
0.0
 40
0.0
 40
1.0
 40
1.0
 40
1.0
 40
1.0
 10
185.108088710001
 20
136.6138875876164
 30
0.0
 10
185.108088710001
 20
136.8613170444114
 30
0.0
 10
185.0787240029232
 20
137.1051137933187
 30
0.0
 10
185.0108875853471
 20
137.3440784926775
 30
0.0
  0
LINE
  5
265
330
1F
100
AcDbEntity
  8
0
  6
Continuous
 62
     7
370
    25
100
AcDbLine
 10
185.10808871
 20
136.6138875876
 30
0.0
 11
185.10808871
 21
134.6683326298
 31
0.0
  0
LINE
  5
266
330
1F
100
AcDbEntity
  8
0
  6
Continuous
 62
     7
370
    25
100
AcDbLine
 10
185.10808871
 20
124.3116356967
 30
0.0
 11
185.10808871
 21
122.3660807388
 31
0.0
  0
SPLINE
  5
267
330
1F
100
AcDbEntity
  8
0
  6
Continuous
 62
     7
370
    25
100
AcDbSpline
210
0.0
220
0.0
230
1.0
 70
     8
 71
     3
 72
     8
 73
     4
 74
     0
 42
0.00000001
 43
0.00000001
 40
0.0
 40
0.0
 40
0.0
 40
0.0
 40
1.0
 40
1.0
 40
1.0
 40
1.0
 10
185.0108875853471
 20
121.6358898337803
 30
0.0
 10
185.0787240029232
 20
121.874854533139
 30
0.0
 10
185.108088710001
 20
122.1186512820464
 30
0.0
 10
185.108088710001
 20
122.3660807388414
 30
0.0
  0
SPLINE
  5
268
330
1F
100
AcDbEntity
  8
0
  6
Continuous
 62
     7
370
    25
100
AcDbSpline
210
0.0
220
0.0
230
1.0
 70
     8
 71
     3
 72
    12
 73
     8
 74
     0
 42
0.00000001
 43
0.00000001
 40
0.0
 40
0.0
 40
0.0
 40
0.0
 40
0.4999999999999992
 40
0.4999999999999992
 40
0.7499999999999996
 40
0.7499999999999996
 40
1.0
 40
1.0
 40
1.0
 40
1.0
 10
185.0108875853471
 20
121.6358898337803
 30
0.0
 10
184.9430178253373
 20
121.3968076803322
 30
0.0
 10
184.8669832740836
 20
121.1810375731554
 30
0.0
 10
184.8203386757066
 20
120.9379429804515
 30
0.0
 10
184.8158996791839
 20
120.8702777049754
 30
0.0
 10
184.8316302929767
 20
120.7711245888187
 30
0.0
 10
184.8515107229191
 20
120.7392174142655
 30
0.0
 10
184.879002642899
 20
120.7275229834791
 30
0.0
  0
LINE
  5
269
330
1F
100
AcDbEntity
  8
0
  6
Continuous
 62
     7
370
    25
100
AcDbLine
 10
185.1054057455
 20
120.5063667251
 30
0.0
 11
185.100297105
 21
120.5375608081
 31
0.0
  0
LINE
  5
26A
330
1F
100
AcDbEntity
  8
0
  6
Continuous
 62
     7
370
    25
100
AcDbLine
 10
182.60808871
 20
119.7399841632
 30
0.0
 11
182.60808871
 21
124.8394848444
 31
0.0
  0
LINE
  5
26B
330
1F
100
AcDbEntity
  8
0
  6
Continuous
 62
     7
370
    25
100
AcDbLine
 10
182.60808871
 20
134.1404834821
 30
0.0
 11
182.60808871
 21
139.2399841632
 31
0.0
  0
LINE
  5
26C
330
1F
100
AcDbEntity
  8
0
  6
Continuous
 62
     7
370
    25
100
AcDbLine
 10
182.85808871
 20
139.4899841632
 30
0.0
 11
182.85808871
 21
134.1886634966
 31
0.0
  0
LINE
  5
26D
330
1F
100
AcDbEntity
  8
0
  6
Continuous
 62
     7
370
    25
100
AcDbLine
 10
182.85808871
 20
124.7913048298
 30
0.0
 11
182.85808871
 21
119.4899841632
 31
0.0
  0
LINE
  5
26E
330
1F
100
AcDbEntity
  8
0
  6
Continuous
 62
     7
370
    25
100
AcDbLine
 10
202.10808871
 20
119.4899841632
 30
0.0
 11
202.10808871
 21
139.4899841632
 31
0.0
  0
LINE
  5
26F
330
1F
100
AcDbEntity
  8
0
  6
Continuous
 62
     7
370
    25
100
AcDbLine
 10
202.60808871
 20
138.9899841632
 30
0.0
 11
202.60808871
 21
119.9899841632
 31
0.0
  0
LINE
  5
270
330
1F
100
AcDbEntity
  8
0
  6
Continuous
 62
     7
370
    25
100
AcDbLine
 10
200.4900547213
 20
119.4899841632
 30
0.0
 11
200.4900547213
 21
139.4899841632
 31
0.0
  0
LINE
  5
271
330
1F
100
AcDbEntity
  8
0
  6
Continuous
 62
     7
370
    25
100
AcDbLine
 10
200.1160423452
 20
120.537871708
 30
0.0
 11
200.1108274638
 21
120.5064737547
 31
0.0
  0
SPLINE
  5
272
330
1F
100
AcDbEntity
  8
0
  6
Continuous
 62
     7
370
    25
100
AcDbSpline
210
0.0
220
0.0
230
1.0
 70
     8
 71
     3
 72
    14
 73
    10
 74
     0
 42
0.00000001
 43
0.00000001
 40
0.0
 40
0.0
 40
0.0
 40
0.0
 40
0.25
 40
0.25
 40
0.5
 40
0.5
 40
0.75
 40
0.75
 40
1.0
 40
1.0
 40
1.0
 40
1.0
 10
200.3371747771031
 20
120.7275229834791
 30
0.0
 10
200.3646957648481
 20
120.7392297790246
 30
0.0
 10
200.3846156866845
 20
120.7712717321062
 30
0.0
 10
200.4002827285026
 20
120.8705954827712
 30
0.0
 10
200.3957908966903
 20
120.938418925552
 30
0.0
 10
200.3645345514067
 20
121.1008605429648
 30
0.0
 10
200.3381619680249
 20
121.1953059397005
 30
0.0
 10
200.2753254168806
 20
121.4035350472971
 30
0.0
 10
200.2392858380205
 20
121.5161334401802
 30
0.0
 10
200.2052898346549
 20
121.6358898337803
 30
0.0
  0
SPLINE
  5
273
330
1F
100
AcDbEntity
  8
0
  6
Continuous
 62
     7
370
    25
100
AcDbSpline
210
0.0
220
0.0
230
1.0
 70
     8
 71
     3
 72
     8
 73
     4
 74
     0
 42
0.00000001
 43
0.00000001
 40
0.0
 40
0.0
 40
0.0
 40
0.0
 40
1.0
 40
1.0
 40
1.0
 40
1.0
 10
200.108088710001
 20
122.3660807388414
 30
0.0
 10
200.108088710001
 20
122.1186512820464
 30
0.0
 10
200.1374534170789
 20
121.874854533139
 30
0.0
 10
200.2052898346549
 20
121.6358898337803
 30
0.0
  0
LINE
  5
274
330
1F
100
AcDbEntity
  8
0
  6
Continuous
 62
     7
370
    25
100
AcDbLine
 10
200.10808871
 20
122.3660807388
 30
0.0
 11
200.10808871
 21
136.6138875876
 31
0.0
  0
SPLINE
  5
275
330
1F
100
AcDbEntity
  8
0
  6
Continuous
 62
     7
370
    25
100
AcDbSpline
210
0.0
220
0.0
230
1.0
 70
     8
 71
     3
 72
     8
 73
     4
 74
     0
 42
0.00000001
 43
0.00000001
 40
0.0
 40
0.0
 40
0.0
 40
0.0
 40
1.0
 40
1.0
 40
1.0
 40
1.0
 10
200.2052898346549
 20
137.3440784926775
 30
0.0
 10
200.1374534170789
 20
137.1051137933187
 30
0.0
 10
200.108088710001
 20
136.8613170444114
 30
0.0
 10
200.108088710001
 20
136.6138875876164
 30
0.0
  0
SPLINE
  5
276
330
1F
100
AcDbEntity
  8
0
  6
Continuous
 62
     7
370
    25
100
AcDbSpline
210
0.0
220
0.0
230
1.0
 70
     8
 71
     3
 72
    12
 73
     8
 74
     0
 42
0.00000001
 43
0.00000001
 40
0.0
 40
0.0
 40
0.0
 40
0.0
 40
0.4999999999999992
 40
0.4999999999999992
 40
0.7499999999999996
 40
0.7499999999999996
 40
1.0
 40
1.0
 40
1.0
 40
1.0
 10
200.2052898346549
 20
137.3440784926775
 30
0.0
 10
200.2731595946647
 20
137.5831606461255
 30
0.0
 10
200.3491941459185
 20
137.7989307533024
 30
0.0
 10
200.3958387442955
 20
138.0420253460063
 30
0.0
 10
200.4002777408181
 20
138.1096906214824
 30
0.0
 10
200.3845471270253
 20
138.208843737639
 30
0.0
 10
200.3646666970829
 20
138.2407509121923
 30
0.0
 10
200.3371747771031
 20
138.2524453429787
 30
0.0
  0
LINE
  5
277
330
1F
100
AcDbEntity
  8
0
  6
Continuous
 62
     7
370
    25
100
AcDbLine
 10
200.1107716745
 20
138.4736016014
 30
0.0
 11
200.115880315
 21
138.4424075184
 31
0.0
  0
ARC
  5
278
330
1F
100
AcDbEntity
  8
0
  6
Continuous
 62
     7
370
    25
100
AcDbCircle
 10
185.5614066112
 20
136.6728635259
 30
0.0
 40
0.4571381420089265
100
AcDbArc
 50
187.4124568466
 51
275.861155744
  0
ARC
  5
279
330
1F
100
AcDbEntity
  8
0
  6
Continuous
 62
     7
370
    25
100
AcDbCircle
 10
185.5614066112
 20
122.3071048005
 30
0.0
 40
0.4571381420089547
100
AcDbArc
 50
84.138844256
 51
172.5875431534
  0
ARC
  5
27A
330
1F
100
AcDbEntity
  8
0
  6
Continuous
 62
     7
370
    25
100
AcDbCircle
 10
199.6547708088
 20
136.6728635259
 30
0.0
 40
0.4571381420089265
100
AcDbArc
 50
264.138844256
 51
352.5875431534
  0
ARC
  5
27B
330
1F
100
AcDbEntity
  8
0
  6
Continuous
 62
     7
370
    25
100
AcDbCircle
 10
199.6547708088
 20
122.3071048005
 30
0.0
 40
0.4571381420089228
100
AcDbArc
 50
7.4124568466
 51
95.861155744
  0
LINE
  5
27C
330
1F
100
AcDbEntity
  8
0
  6
Continuous
 62
     7
370
    25
100
AcDbLine
 10
210.4025642524
 20
136.0133443025
 30
0.0
 11
210.4025642524
 21
122.9666240239
 31
0.0
  0
LINE
  5
27D
330
1F
100
AcDbEntity
  8
0
  6
Continuous
 62
     7
370
    25
100
AcDbLine
 10
212.60808871
 20
134.7399841632
 30
0.0
 11
212.60808871
 21
124.2399841632
 31
0.0
  0
LINE
  5
27E
330
1F
100
AcDbEntity
  8
0
  6
Continuous
 62
     7
370
    25
100
AcDbLine
 10
185.0108875853
 20
137.3440784927
 30
0.0
 11
185.4784872105
 21
137.4899841632
 31
0.0
  0
SPLINE
  5
27F
330
1F
100
AcDbEntity
  8
0
  6
Continuous
 62
     7
370
    25
100
AcDbSpline
210
0.0
220
0.0
230
1.0
 70
     8
 71
     3
 72
     8
 73
     4
 74
     0
 42
0.00000001
 43
0.00000001
 40
0.0
 40
0.0
 40
0.0
 40
0.0
 40
1.0
 40
1.0
 40
1.0
 40
1.0
 10
185.4784872104624
 20
137.4899841632289
 30
0.0
 10
185.5674959058509
 20
137.2047284055991
 30
0.0
 10
185.608088710001
 20
136.9123104557171
 30
0.0
 10
185.608088710001
 20
136.6138875876164
 30
0.0
  0
LINE
  5
280
330
1F
100
AcDbEntity
  8
0
  6
Continuous
 62
     7
370
    25
100
AcDbLine
 10
185.10808871
 20
136.6138875876
 30
0.0
 11
185.60808871
 21
136.6138875876
 31
0.0
  0
SPLINE
  5
281
330
1F
100
AcDbEntity
  8
0
  6
Continuous
 62
     7
370
    25
100
AcDbSpline
210
0.0
220
0.0
230
1.0
 70
     8
 71
     3
 72
     8
 73
     4
 74
     0
 42
0.00000001
 43
0.00000001
 40
0.0
 40
0.0
 40
0.0
 40
0.0
 40
1.0
 40
1.0
 40
1.0
 40
1.0
 10
199.608088710001
 20
136.6138875876164
 30
0.0
 10
199.608088710001
 20
136.9123104557171
 30
0.0
 10
199.6486815141511
 20
137.2047284055991
 30
0.0
 10
199.7376902095396
 20
137.4899841632289
 30
0.0
  0
LINE
  5
282
330
1F
100
AcDbEntity
  8
0
  6
Continuous
 62
     7
370
    25
100
AcDbLine
 10
199.7376902095
 20
137.4899841632
 30
0.0
 11
200.2052898347
 21
137.3440784927
 31
0.0
  0
LINE
  5
283
330
1F
100
AcDbEntity
  8
0
  6
Continuous
 62
     7
370
    25
100
AcDbLine
 10
199.60808871
 20
136.6138875876
 30
0.0
 11
200.10808871
 21
136.6138875876
 31
0.0
  0
SPLINE
  5
284
330
1F
100
AcDbEntity
  8
0
  6
Continuous
 62
     7
370
    25
100
AcDbSpline
210
0.0
220
0.0
230
1.0
 70
     8
 71
     3
 72
     8
 73
     4
 74
     0
 42
0.00000001
 43
0.00000001
 40
0.0
 40
0.0
 40
0.0
 40
0.0
 40
1.0
 40
1.0
 40
1.0
 40
1.0
 10
185.608088710001
 20
122.3660807388414
 30
0.0
 10
185.608088710001
 20
122.0676578707406
 30
0.0
 10
185.5674959058509
 20
121.7752399208587
 30
0.0
 10
185.4784872104624
 20
121.4899841632289
 30
0.0
  0
LINE
  5
285
330
1F
100
AcDbEntity
  8
0
  6
Continuous
 62
     7
370
    25
100
AcDbLine
 10
185.4784872105
 20
121.4899841632
 30
0.0
 11
185.0108875853
 21
121.6358898338
 31
0.0
  0
LINE
  5
286
330
1F
100
AcDbEntity
  8
0
  6
Continuous
 62
     7
370
    25
100
AcDbLine
 10
185.10808871
 20
122.3660807388
 30
0.0
 11
185.60808871
 21
122.3660807388
 31
0.0
  0
LINE
  5
287
330
1F
100
AcDbEntity
  8
0
  6
Continuous
 62
     7
370
    25
100
AcDbLine
 10
200.2052898347
 20
121.6358898338
 30
0.0
 11
199.7376902095
 21
121.4899841632
 31
0.0
  0
SPLINE
  5
288
330
1F
100
AcDbEntity
  8
0
  6
Continuous
 62
     7
370
    25
100
AcDbSpline
210
0.0
220
0.0
230
1.0
 70
     8
 71
     3
 72
     8
 73
     4
 74
     0
 42
0.00000001
 43
0.00000001
 40
0.0
 40
0.0
 40
0.0
 40
0.0
 40
1.0
 40
1.0
 40
1.0
 40
1.0
 10
199.7376902095396
 20
121.4899841632289
 30
0.0
 10
199.6486815141511
 20
121.7752399208587
 30
0.0
 10
199.608088710001
 20
122.0676578707406
 30
0.0
 10
199.608088710001
 20
122.3660807388414
 30
0.0
  0
LINE
  5
289
330
1F
100
AcDbEntity
  8
0
  6
Continuous
 62
     7
370
    25
100
AcDbLine
 10
200.10808871
 20
122.3660807388
 30
0.0
 11
199.60808871
 21
122.3660807388
 31
0.0
  0
LINE
  5
28A
330
1F
100
AcDbEntity
  8
0
  6
Continuous
 62
     7
370
    25
100
AcDbLine
 10
199.60808871
 20
136.2181151752
 30
0.0
 11
199.60808871
 21
136.6138875876
 31
0.0
  0
LINE
  5
28B
330
1F
100
AcDbEntity
  8
0
  6
Continuous
 62
     7
370
    25
100
AcDbLine
 10
185.60808871
 20
136.2181151752
 30
0.0
 11
185.60808871
 21
136.6138875876
 31
0.0
  0
LINE
  5
28C
330
1F
100
AcDbEntity
  8
0
  6
Continuous
 62
     7
370
    25
100
AcDbLine
 10
185.60808871
 20
122.3660807388
 30
0.0
 11
185.60808871
 21
122.7618531513
 31
0.0
  0
LINE
  5
28D
330
1F
100
AcDbEntity
  8
0
  6
Continuous
 62
     7
370
    25
100
AcDbLine
 10
199.60808871
 20
122.3660807388
 30
0.0
 11
199.60808871
 21
122.7618531513
 31
0.0
  0
ARC
  5
28E
330
1F
100
AcDbEntity
  8
0
  6
Continuous
 62
     7
370
    25
100
AcDbCircle
 10
185.3064704335
 20
138.4692929807
 30
0.0
 40
0.4793241179196391
100
AcDbArc
 50
206.8979585986
 51
269.5422002632
  0
SPLINE
  5
28F
330
1F
100
AcDbEntity
  8
0
  6
Continuous
 62
     7
370
    25
100
AcDbSpline
210
0.0
220
0.0
230
1.0
 70
     8
 71
     3
 72
    14
 73
    10
 74
     0
 42
0.00000001
 43
0.00000001
 40
0.0
 40
0.0
 40
0.0
 40
0.0
 40
0.25
 40
0.25
 40
0.5
 40
0.5
 40
0.75
 40
0.75
 40
1.0
 40
1.0
 40
1.0
 40
1.0
 10
185.4784872104624
 20
137.4899841632289
 30
0.0
 10
185.4400117268409
 20
137.5516374274563
 30
0.0
 10
185.3989228053709
 20
137.6098213727293
 30
0.0
 10
185.3196399579303
 20
137.7234866941962
 30
0.0
 10
185.2823570568198
 20
137.777163292896
 30
0.0
 10
185.229551297508
 20
137.8771533253426
 30
0.0
 10
185.2175820374144
 20
137.9215578255656
 30
0.0
 10
185.2375838257866
 20
137.9776176810594
 30
0.0
 10
185.2670402813389
 20
137.9899841632289
 30
0.0
 10
185.3026406205316
 20
137.9899841632289
 30
0.0
  0
ARC
  5
290
330
1F
100
AcDbEntity
  8
0
  6
Continuous
 62
     7
370
    25
100
AcDbCircle
 10
199.9097069865
 20
120.5106753457
 30
0.0
 40
0.4793241179194849
100
AcDbArc
 50
26.8979585986
 51
89.5422002632
  0
SPLINE
  5
291
330
1F
100
AcDbEntity
  8
0
  6
Continuous
 62
     7
370
    25
100
AcDbSpline
210
0.0
220
0.0
230
1.0
 70
     8
 71
     3
 72
    14
 73
    10
 74
     0
 42
0.00000001
 43
0.00000001
 40
0.0
 40
0.0
 40
0.0
 40
0.0
 40
0.25
 40
0.25
 40
0.5
 40
0.5
 40
0.75
 40
0.75
 40
1.0
 40
1.0
 40
1.0
 40
1.0
 10
199.7376902095396
 20
121.4899841632289
 30
0.0
 10
199.7761656931612
 20
121.4283308990014
 30
0.0
 10
199.8172546146312
 20
121.3701469537285
 30
0.0
 10
199.8965374620718
 20
121.2564816322615
 30
0.0
 10
199.9338203631822
 20
121.2028050335618
 30
0.0
 10
199.986626122494
 20
121.1028150011151
 30
0.0
 10
199.9985953825876
 20
121.0584105008922
 30
0.0
 10
199.9785935942155
 20
121.0023506453984
 30
0.0
 10
199.9491371386632
 20
120.9899841632289
 30
0.0
 10
199.9135367994704
 20
120.9899841632289
 30
0.0
  0
SPLINE
  5
292
330
1F
100
AcDbEntity
  8
0
  6
Continuous
 62
     7
370
    25
100
AcDbSpline
210
0.0
220
0.0
230
1.0
 70
     8
 71
     3
 72
    16
 73
    12
 74
     0
 42
0.00000001
 43
0.00000001
 40
0.0
 40
0.0
 40
0.0
 40
0.0
 40
0.2500000000000011
 40
0.2500000000000011
 40
0.3749999999999992
 40
0.3749999999999992
 40
0.4999999999999974
 40
0.4999999999999974
 40
0.7499999999999987
 40
0.7499999999999987
 40
1.0
 40
1.0
 40
1.0
 40
1.0
 10
199.9135367994704
 20
137.9899841632289
 30
0.0
 10
199.9490907289191
 20
137.9899841632289
 30
0.0
 10
199.9783628701477
 20
137.9778524128131
 30
0.0
 10
199.9935754203686
 20
137.9358307065337
 30
0.0
 10
199.9936360885422
 20
137.9176163370271
 30
0.0
 10
199.9834255040648
 20
137.8756793245006
 30
0.0
 10
199.9736421745396
 20
137.8526517610063
 30
0.0
 10
199.9344776260077
 20
137.7782430822342
 30
0.0
 10
199.8966045527344
 20
137.7235852060518
 30
0.0
 10
199.8175315797428
 20
137.610216132873
 30
0.0
 10
199.776144447152
 20
137.5516033827688
 30
0.0
 10
199.7376902095396
 20
137.4899841632289
 30
0.0
  0
ARC
  5
293
330
1F
100
AcDbEntity
  8
0
  6
Continuous
 62
     7
370
    25
100
AcDbCircle
 10
199.9097069865
 20
138.4692929807
 30
0.0
 40
0.4793241179195499
100
AcDbArc
 50
270.4577997368
 51
333.1020414014
  0
SPLINE
  5
294
330
1F
100
AcDbEntity
  8
0
  6
Continuous
 62
     7
370
    25
100
AcDbSpline
210
0.0
220
0.0
230
1.0
 70
     8
 71
     3
 72
    16
 73
    12
 74
     0
 42
0.00000001
 43
0.00000001
 40
0.0
 40
0.0
 40
0.0
 40
0.0
 40
0.2500000000000049
 40
0.2500000000000049
 40
0.3750000000000051
 40
0.3750000000000051
 40
0.5000000000000052
 40
0.5000000000000052
 40
0.7500000000000026
 40
0.7500000000000026
 40
1.0
 40
1.0
 40
1.0
 40
1.0
 10
185.3026406205316
 20
120.9899841632289
 30
0.0
 10
185.267086691083
 20
120.9899841632289
 30
0.0
 10
185.2378145498543
 20
121.0021159136447
 30
0.0
 10
185.2226019996334
 20
121.0441376199241
 30
0.0
 10
185.2225413314599
 20
121.0623519894307
 30
0.0
 10
185.2327519159372
 20
121.1042890019572
 30
0.0
 10
185.2425352454624
 20
121.1273165654515
 30
0.0
 10
185.2816997939944
 20
121.2017252442235
 30
0.0
 10
185.3195728672676
 20
121.256383120406
 30
0.0
 10
185.3986458402592
 20
121.3697521935847
 30
0.0
 10
185.44003297285
 20
121.4283649436889
 30
0.0
 10
185.4784872104624
 20
121.4899841632289
 30
0.0
  0
ARC
  5
295
330
1F
100
AcDbEntity
  8
0
  6
Continuous
 62
     7
370
    25
100
AcDbCircle
 10
185.3064704335
 20
120.5106753457
 30
0.0
 40
0.4793241179195306
100
AcDbArc
 50
90.4577997368
 51
153.1020414014
  0
LINE
  5
296
330
1F
100
AcDbEntity
  8
0
  6
Continuous
 62
     7
370
    25
100
AcDbLine
 10
199.7376902095
 20
137.4899841632
 30
0.0
 11
185.4784872105
 21
137.4899841632
 31
0.0
  0
LINE
  5
297
330
1F
100
AcDbEntity
  8
0
  6
Continuous
 62
     7
370
    25
100
AcDbLine
 10
185.3026406205
 20
137.9899841632
 30
0.0
 11
199.9135367995
 21
137.9899841632
 31
0.0
  0
LINE
  5
298
330
1F
100
AcDbEntity
  8
0
  6
Continuous
 62
     7
370
    25
100
AcDbLine
 10
185.4784872105
 20
121.4899841632
 30
0.0
 11
199.7376902095
 21
121.4899841632
 31
0.0
  0
LINE
  5
299
330
1F
100
AcDbEntity
  8
0
  6
Continuous
 62
     7
370
    25
100
AcDbLine
 10
199.9135367995
 20
120.9899841632
 30
0.0
 11
185.3026406205
 21
120.9899841632
 31
0.0
  0
SPLINE
  5
29A
330
1F
100
AcDbEntity
  8
0
  6
Continuous
 62
     7
370
    25
100
AcDbSpline
210
0.0
220
0.0
230
1.0
 70
     8
 71
     3
 72
    15
 73
    11
 74
     0
 42
0.00000001
 43
0.00000001
 40
0.0
 40
0.0
 40
0.0
 40
0.0
 40
0.0090459071881971
 40
0.1032433785236816
 40
0.1542564497735189
 40
0.31331690267151
 40
0.5243720399414428
 40
0.6678060008509183
 40
0.9918332554187028
 40
1.0
 40
1.0
 40
1.0
 40
1.0
 10
187.3690033773429
 20
131.1638972067071
 30
0.0
 10
187.3690090693096
 20
131.1638795609827
 30
0.0
 10
187.3690740332604
 20
131.1636781655701
 30
0.0
 10
187.3710697196962
 20
131.1574885449039
 30
0.0
 10
187.3788867159127
 20
131.1332866130598
 30
0.0
 10
187.3960565396677
 20
131.0802676210581
 30
0.0
 10
187.4226404362352
 20
130.9988967338616
 30
0.0
 10
187.4604697347239
 20
130.884317661839
 30
0.0
 10
187.4887505147341
 20
130.7998924841199
 30
0.0
 10
187.5085816622654
 20
130.7414216261679
 30
0.0
 10
187.5090691964082
 20
130.7399841632289
 30
0.0
  0
ARC
  5
29B
330
1F
100
AcDbEntity
  8
0
  6
Continuous
 62
     7
370
    25
100
AcDbCircle
 10
192.60808871
 20
129.4899841632
 30
0.0
 40
5.499999999999993
100
AcDbArc
 50
17.7189318734
 51
162.2810681266
  0
SPLINE
  5
29C
330
1F
100
AcDbEntity
  8
0
  6
Continuous
 62
     7
370
    25
100
AcDbSpline
210
0.0
220
0.0
230
1.0
 70
     8
 71
     3
 72
    15
 73
    11
 74
     0
 42
0.00000001
 43
0.00000001
 40
0.0
 40
0.0
 40
0.0
 40
0.0
 40
0.0081667445812973
 40
0.3321939991490805
 40
0.4756279600585561
 40
0.6866830973284893
 40
0.8457435502264751
 40
0.8967566214763123
 40
0.9909540928118028
 40
1.0
 40
1.0
 40
1.0
 40
1.0
 10
197.7071082235938
 20
130.7399841632289
 30
0.0
 10
197.7075957577367
 20
130.7414216261679
 30
0.0
 10
197.7274269052679
 20
130.7998924841199
 30
0.0
 10
197.7557076852782
 20
130.884317661839
 30
0.0
 10
197.7935369837668
 20
130.9988967338616
 30
0.0
 10
197.8201208803343
 20
131.0802676210581
 30
0.0
 10
197.8372907040894
 20
131.1332866130598
 30
0.0
 10
197.8451077003058
 20
131.1574885449039
 30
0.0
 10
197.8471033867417
 20
131.1636781655701
 30
0.0
 10
197.8471683506925
 20
131.1638795609827
 30
0.0
 10
197.8471740426591
 20
131.1638972067071
 30
0.0
  0
ARC
  5
29D
330
1F
100
AcDbEntity
  8
0
  6
Continuous
 62
     7
370
    25
100
AcDbCircle
 10
192.60808871
 20
129.4899841632
 30
0.0
 40
5.250000000000009
100
AcDbArc
 50
13.774146998
 51
166.225853002
  0
SPLINE
  5
29E
330
1F
100
AcDbEntity
  8
0
  6
Continuous
 62
     7
370
    25
100
AcDbSpline
210
0.0
220
0.0
230
1.0
 70
     8
 71
     3
 72
    15
 73
    11
 74
     0
 42
0.00000001
 43
0.00000001
 40
0.0
 40
0.0
 40
0.0
 40
0.0
 40
0.0089557228015919
 40
0.0999003359608209
 40
0.1531632460581751
 40
0.3125636920784904
 40
0.5249666935695062
 40
0.6689893599351776
 40
0.991915253381045
 40
1.0
 40
1.0
 40
1.0
 40
1.0
 10
198.0853142850527
 20
130.9899841632289
 30
0.0
 10
198.0852985294741
 20
130.9899733788657
 30
0.0
 10
198.0851227773175
 20
130.9898530802002
 30
0.0
 10
198.079693761298
 20
130.9861346292821
 30
0.0
 10
198.0581582775907
 20
130.9714235882158
 30
0.0
 10
198.0104528493259
 20
130.9389747267573
 30
0.0
 10
197.9380619043339
 20
130.8903906864138
 30
0.0
 10
197.8361427923163
 20
130.8230202141455
 30
0.0
 10
197.7607877008612
 20
130.7742066494116
 30
0.0
 10
197.7083880551379
 20
130.7408000992172
 30
0.0
 10
197.7071082235938
 20
130.7399841632289
 30
0.0
  0
ARC
  5
29F
330
1F
100
AcDbEntity
  8
0
  6
Continuous
 62
     7
370
    25
100
AcDbCircle
 10
198.0853142851
 20
131.2399841632
 30
0.0
 40
0.25
100
AcDbArc
 50
197.7189318734
 51
270.0
  0
SPLINE
  5
2A0
330
1F
100
AcDbEntity
  8
0
  6
Continuous
 62
     7
370
    25
100
AcDbSpline
210
0.0
220
0.0
230
1.0
 70
     8
 71
     3
 72
    15
 73
    11
 74
     0
 42
0.00000001
 43
0.00000001
 40
0.0
 40
0.0
 40
0.0
 40
0.0
 40
0.0080847466189582
 40
0.3310106400648242
 40
0.4750333064304946
 40
0.6874363079215142
 40
0.8468367539418302
 40
0.9000996640391846
 40
0.991044277198408
 40
1.0
 40
1.0
 40
1.0
 40
1.0
 10
187.5090691964082
 20
130.7399841632289
 30
0.0
 10
187.5077893648641
 20
130.7408000992172
 30
0.0
 10
187.4553897191409
 20
130.7742066494117
 30
0.0
 10
187.3800346276858
 20
130.8230202141455
 30
0.0
 10
187.2781155156681
 20
130.8903906864139
 30
0.0
 10
187.2057245706762
 20
130.9389747267573
 30
0.0
 10
187.1580191424114
 20
130.9714235882158
 30
0.0
 10
187.1364836587041
 20
130.9861346292821
 30
0.0
 10
187.1310546426845
 20
130.9898530802002
 30
0.0
 10
187.130878890528
 20
130.9899733788657
 30
0.0
 10
187.1308631349494
 20
130.9899841632289
 30
0.0
  0
ARC
  5
2A1
330
1F
100
AcDbEntity
  8
0
  6
Continuous
 62
     7
370
    25
100
AcDbCircle
 10
187.1308631349
 20
131.2399841632
 30
0.0
 40
0.25
100
AcDbArc
 50
270.0
 51
342.2810681266
  0
SPLINE
  5
2A2
330
1F
100
AcDbEntity
  8
0
  6
Continuous
 62
     7
370
    25
100
AcDbSpline
210
0.0
220
0.0
230
1.0
 70
     8
 71
     3
 72
    15
 73
    11
 74
     0
 42
0.00000001
 43
0.00000001
 40
0.0
 40
0.0
 40
0.0
 40
0.0
 40
0.0081667445812695
 40
0.3321939991490083
 40
0.4756279600585602
 40
0.6866830973284899
 40
0.8457435502264811
 40
0.8967566214763185
 40
0.9909540928118029
 40
1.0
 40
1.0
 40
1.0
 40
1.0
 10
187.5090691964082
 20
128.2399841632289
 30
0.0
 10
187.5085816622653
 20
128.2385467002899
 30
0.0
 10
187.4887505147333
 20
128.1800758423381
 30
0.0
 10
187.460469734724
 20
128.0956506646187
 30
0.0
 10
187.4226404362352
 20
127.9810715925962
 30
0.0
 10
187.3960565396677
 20
127.8997007053996
 30
0.0
 10
187.3788867159127
 20
127.846681713398
 30
0.0
 10
187.3710697196962
 20
127.8224797815538
 30
0.0
 10
187.3690740332604
 20
127.8162901608876
 30
0.0
 10
187.3690090693096
 20
127.8160887654751
 30
0.0
 10
187.3690033773429
 20
127.8160711197506
 30
0.0
  0
ARC
  5
2A3
330
1F
100
AcDbEntity
  8
0
  6
Continuous
 62
     7
370
    25
100
AcDbCircle
 10
192.60808871
 20
129.4899841632
 30
0.0
 40
5.250000000000009
100
AcDbArc
 50
193.774146998
 51
346.225853002
  0
SPLINE
  5
2A4
330
1F
100
AcDbEntity
  8
0
  6
Continuous
 62
     7
370
    25
100
AcDbSpline
210
0.0
220
0.0
230
1.0
 70
     8
 71
     3
 72
    15
 73
    11
 74
     0
 42
0.00000001
 43
0.00000001
 40
0.0
 40
0.0
 40
0.0
 40
0.0
 40
0.0090459071881971
 40
0.1032433785236874
 40
0.1542564497735246
 40
0.3133169026715112
 40
0.5243720399414429
 40
0.6678060008509904
 40
0.9918332554187292
 40
1.0
 40
1.0
 40
1.0
 40
1.0
 10
197.8471740426591
 20
127.8160711197506
 30
0.0
 10
197.8471683506925
 20
127.8160887654751
 30
0.0
 10
197.8471033867417
 20
127.8162901608876
 30
0.0
 10
197.8451077003058
 20
127.8224797815538
 30
0.0
 10
197.8372907040894
 20
127.846681713398
 30
0.0
 10
197.8201208803343
 20
127.8997007053996
 30
0.0
 10
197.7935369837669
 20
127.9810715925962
 30
0.0
 10
197.755707685278
 20
128.0956506646187
 30
0.0
 10
197.7274269052688
 20
128.1800758423381
 30
0.0
 10
197.7075957577367
 20
128.2385467002899
 30
0.0
 10
197.7071082235938
 20
128.2399841632289
 30
0.0
  0
ARC
  5
2A5
330
1F
100
AcDbEntity
  8
0
  6
Continuous
 62
     7
370
    25
100
AcDbCircle
 10
192.60808871
 20
129.4899841632
 30
0.0
 40
5.500000000000002
100
AcDbArc
 50
197.7189318734
 51
342.2810681266
  0
ARC
  5
2A6
330
1F
100
AcDbEntity
  8
0
  6
Continuous
 62
     7
370
    25
100
AcDbCircle
 10
198.0853142851
 20
127.7399841632
 30
0.0
 40
0.25
100
AcDbArc
 50
90.0
 51
162.2810681266
  0
SPLINE
  5
2A7
330
1F
100
AcDbEntity
  8
0
  6
Continuous
 62
     7
370
    25
100
AcDbSpline
210
0.0
220
0.0
230
1.0
 70
     8
 71
     3
 72
    15
 73
    11
 74
     0
 42
0.00000001
 43
0.00000001
 40
0.0
 40
0.0
 40
0.0
 40
0.0
 40
0.0080847466189818
 40
0.3310106400647566
 40
0.4750333064304973
 40
0.6874363079215137
 40
0.8468367539418253
 40
0.9000996640391794
 40
0.9910442771984082
 40
1.0
 40
1.0
 40
1.0
 40
1.0
 10
197.7071082235938
 20
128.2399841632289
 30
0.0
 10
197.7083880551379
 20
128.2391682272406
 30
0.0
 10
197.7607877008617
 20
128.205761677047
 30
0.0
 10
197.8361427923161
 20
128.1569481123121
 30
0.0
 10
197.9380619043339
 20
128.089577640044
 30
0.0
 10
198.0104528493258
 20
128.0409935997005
 30
0.0
 10
198.0581582775907
 20
128.0085447382419
 30
0.0
 10
198.079693761298
 20
127.9938336971756
 30
0.0
 10
198.0851227773175
 20
127.9901152462575
 30
0.0
 10
198.0852985294741
 20
127.989994947592
 30
0.0
 10
198.0853142850527
 20
127.9899841632289
 30
0.0
  0
ARC
  5
2A8
330
1F
100
AcDbEntity
  8
0
  6
Continuous
 62
     7
370
    25
100
AcDbCircle
 10
187.1308631349
 20
127.7399841632
 30
0.0
 40
0.25
100
AcDbArc
 50
17.7189318734
 51
90.0
  0
SPLINE
  5
2A9
330
1F
100
AcDbEntity
  8
0
  6
Continuous
 62
     7
370
    25
100
AcDbSpline
210
0.0
220
0.0
230
1.0
 70
     8
 71
     3
 72
    15
 73
    11
 74
     0
 42
0.00000001
 43
0.00000001
 40
0.0
 40
0.0
 40
0.0
 40
0.0
 40
0.0089557228015919
 40
0.0999003359608149
 40
0.153163246058169
 40
0.3125636920784849
 40
0.5249666935694998
 40
0.668989359935245
 40
0.9919152533810159
 40
1.0
 40
1.0
 40
1.0
 40
1.0
 10
187.1308631349494
 20
127.9899841632289
 30
0.0
 10
187.130878890528
 20
127.989994947592
 30
0.0
 10
187.1310546426845
 20
127.9901152462575
 30
0.0
 10
187.1364836587041
 20
127.9938336971756
 30
0.0
 10
187.1580191424114
 20
128.0085447382419
 30
0.0
 10
187.2057245706762
 20
128.0409935997005
 30
0.0
 10
187.2781155156681
 20
128.089577640044
 30
0.0
 10
187.3800346276859
 20
128.1569481123121
 30
0.0
 10
187.4553897191403
 20
128.2057616770469
 30
0.0
 10
187.5077893648641
 20
128.2391682272406
 30
0.0
 10
187.5090691964082
 20
128.2399841632289
 30
0.0
  0
LINE
  5
2AA
330
1F
100
AcDbEntity
  8
0
  6
Continuous
 62
     7
370
    25
100
AcDbLine
 10
187.60808871
 20
128.8899841632
 30
0.0
 11
197.60808871
 21
128.8899841632
 31
0.0
  0
LINE
  5
2AB
330
1F
100
AcDbEntity
  8
0
  6
Continuous
 62
     7
370
    25
100
AcDbLine
 10
187.60808871
 20
130.0899841632
 30
0.0
 11
187.60808871
 21
128.8899841632
 31
0.0
  0
LINE
  5
2AC
330
1F
100
AcDbEntity
  8
0
  6
Continuous
 62
     7
370
    25
100
AcDbLine
 10
197.60808871
 20
130.0899841632
 30
0.0
 11
187.60808871
 21
130.0899841632
 31
0.0
  0
LINE
  5
2AD
330
1F
100
AcDbEntity
  8
0
  6
Continuous
 62
     7
370
    25
100
AcDbLine
 10
197.60808871
 20
128.8899841632
 30
0.0
 11
197.60808871
 21
130.0899841632
 31
0.0
  0
LINE
  5
2AE
330
1F
100
AcDbEntity
  8
0
  6
Continuous
 62
     7
370
    25
100
AcDbLine
 10
186.85808871
 20
128.2399841632
 30
0.0
 11
187.5090691964
 21
128.2399841632
 31
0.0
  0
LINE
  5
2AF
330
1F
100
AcDbEntity
  8
0
  6
Continuous
 62
     7
370
    25
100
AcDbLine
 10
186.85808871
 20
130.7399841632
 30
0.0
 11
186.85808871
 21
128.2399841632
 31
0.0
  0
LINE
  5
2B0
330
1F
100
AcDbEntity
  8
0
  6
Continuous
 62
     7
370
    25
100
AcDbLine
 10
187.5090691964
 20
130.7399841632
 30
0.0
 11
186.85808871
 21
130.7399841632
 31
0.0
  0
LINE
  5
2B1
330
1F
100
AcDbEntity
  8
0
  6
Continuous
 62
     7
370
    25
100
AcDbLine
 10
198.35808871
 20
130.7399841632
 30
0.0
 11
197.7071082236
 21
130.7399841632
 31
0.0
  0
LINE
  5
2B2
330
1F
100
AcDbEntity
  8
0
  6
Continuous
 62
     7
370
    25
100
AcDbLine
 10
198.35808871
 20
128.2399841632
 30
0.0
 11
198.35808871
 21
130.7399841632
 31
0.0
  0
LINE
  5
2B3
330
1F
100
AcDbEntity
  8
0
  6
Continuous
 62
     7
370
    25
100
AcDbLine
 10
197.7071082236
 20
128.2399841632
 30
0.0
 11
198.35808871
 21
128.2399841632
 31
0.0
  0
LINE
  5
2B4
330
1F
100
AcDbEntity
  8
0
  6
Continuous
 62
     7
370
    25
100
AcDbLine
 10
198.0853142851
 20
130.9899841632
 30
0.0
 11
198.35808871
 21
130.9899841632
 31
0.0
  0
LINE
  5
2B5
330
1F
100
AcDbEntity
  8
0
  6
Continuous
 62
     7
370
    25
100
AcDbLine
 10
198.35808871
 20
130.7399841632
 30
0.0
 11
198.35808871
 21
130.9899841632
 31
0.0
  0
LINE
  5
2B6
330
1F
100
AcDbEntity
  8
0
  6
Continuous
 62
     7
370
    25
100
AcDbLine
 10
198.60808871
 20
130.7399841632
 30
0.0
 11
198.35808871
 21
130.7399841632
 31
0.0
  0
ARC
  5
2B7
330
1F
100
AcDbEntity
  8
0
  6
Continuous
 62
     7
370
    25
100
AcDbCircle
 10
198.35808871
 20
130.7399841632
 30
0.0
 40
0.25
100
AcDbArc
 50
0.0
 51
90.0
  0
LINE
  5
2B8
330
1F
100
AcDbEntity
  8
0
  6
Continuous
 62
     7
370
    25
100
AcDbLine
 10
198.60808871
 20
130.7399841632
 30
0.0
 11
198.60808871
 21
128.2399841632
 31
0.0
  0
LINE
  5
2B9
330
1F
100
AcDbEntity
  8
0
  6
Continuous
 62
     7
370
    25
100
AcDbLine
 10
198.35808871
 20
128.2399841632
 30
0.0
 11
198.60808871
 21
128.2399841632
 31
0.0
  0
LINE
  5
2BA
330
1F
100
AcDbEntity
  8
0
  6
Continuous
 62
     7
370
    25
100
AcDbLine
 10
198.35808871
 20
127.9899841632
 30
0.0
 11
198.35808871
 21
128.2399841632
 31
0.0
  0
LINE
  5
2BB
330
1F
100
AcDbEntity
  8
0
  6
Continuous
 62
     7
370
    25
100
AcDbLine
 10
198.35808871
 20
127.9899841632
 30
0.0
 11
198.0853142851
 21
127.9899841632
 31
0.0
  0
ARC
  5
2BC
330
1F
100
AcDbEntity
  8
0
  6
Continuous
 62
     7
370
    25
100
AcDbCircle
 10
198.35808871
 20
128.2399841632
 30
0.0
 40
0.25
100
AcDbArc
 50
270.0
 51
0.0
  0
ARC
  5
2BD
330
1F
100
AcDbEntity
  8
0
  6
Continuous
 62
     7
370
    25
100
AcDbCircle
 10
186.85808871
 20
130.7399841632
 30
0.0
 40
0.25
100
AcDbArc
 50
90.0
 51
180.0
  0
LINE
  5
2BE
330
1F
100
AcDbEntity
  8
0
  6
Continuous
 62
     7
370
    25
100
AcDbLine
 10
186.85808871
 20
130.9899841632
 30
0.0
 11
186.85808871
 21
130.7399841632
 31
0.0
  0
LINE
  5
2BF
330
1F
100
AcDbEntity
  8
0
  6
Continuous
 62
     7
370
    25
100
AcDbLine
 10
186.85808871
 20
130.7399841632
 30
0.0
 11
186.60808871
 21
130.7399841632
 31
0.0
  0
LINE
  5
2C0
330
1F
100
AcDbEntity
  8
0
  6
Continuous
 62
     7
370
    25
100
AcDbLine
 10
186.85808871
 20
130.9899841632
 30
0.0
 11
187.1308631349
 21
130.9899841632
 31
0.0
  0
LINE
  5
2C1
330
1F
100
AcDbEntity
  8
0
  6
Continuous
 62
     7
370
    25
100
AcDbLine
 10
186.60808871
 20
128.2399841632
 30
0.0
 11
186.85808871
 21
128.2399841632
 31
0.0
  0
LINE
  5
2C2
330
1F
100
AcDbEntity
  8
0
  6
Continuous
 62
     7
370
    25
100
AcDbLine
 10
186.60808871
 20
128.2399841632
 30
0.0
 11
186.60808871
 21
130.7399841632
 31
0.0
  0
LINE
  5
2C3
330
1F
100
AcDbEntity
  8
0
  6
Continuous
 62
     7
370
    25
100
AcDbLine
 10
186.85808871
 20
128.2399841632
 30
0.0
 11
186.85808871
 21
127.9899841632
 31
0.0
  0
LINE
  5
2C4
330
1F
100
AcDbEntity
  8
0
  6
Continuous
 62
     7
370
    25
100
AcDbLine
 10
187.1308631349
 20
127.9899841632
 30
0.0
 11
186.85808871
 21
127.9899841632
 31
0.0
  0
ARC
  5
2C5
330
1F
100
AcDbEntity
  8
0
  6
Continuous
 62
     7
370
    25
100
AcDbCircle
 10
186.85808871
 20
128.2399841632
 30
0.0
 40
0.25
100
AcDbArc
 50
180.0
 51
270.0
  0
LINE
  5
2C6
330
1F
100
AcDbEntity
  8
0
  6
Continuous
 62
     7
370
    25
100
AcDbLine
 10
138.1106830864
 20
133.1227305368
 30
0.0
 11
138.1106830864
 21
125.5565350402
 31
0.0
  0
LINE
  5
2C7
330
1F
100
AcDbEntity
  8
0
  6
Continuous
 62
     7
370
    25
100
AcDbLine
 10
138.1106830864
 20
133.4234332863
 30
0.0
 11
138.1106830864
 21
133.1227305368
 31
0.0
  0
LINE
  5
2C8
330
1F
100
AcDbEntity
  8
0
  6
Continuous
 62
     7
370
    25
100
AcDbLine
 10
163.7045751223
 20
137.3399841632
 30
0.0
 11
163.7045751223
 21
132.9899841632
 31
0.0
  0
LINE
  5
2C9
330
1F
100
AcDbEntity
  8
0
  6
Continuous
 62
     7
370
    25
100
AcDbLine
 10
163.7045751223
 20
125.9899841632
 30
0.0
 11
163.7045751223
 21
121.6399841632
 31
0.0
  0
LINE
  5
2CA
330
1F
100
AcDbEntity
  8
0
  6
Continuous
 62
     7
370
    25
100
AcDbLine
 10
176.1045751223
 20
121.6399841632
 30
0.0
 11
176.1045751223
 21
125.7420442569
 31
0.0
  0
LINE
  5
2CB
330
1F
100
AcDbEntity
  8
0
  6
Continuous
 62
     7
370
    25
100
AcDbLine
 10
176.1045751223
 20
133.2379240695
 30
0.0
 11
176.1045751223
 21
137.3399841632
 31
0.0
  0
SPLINE
  5
2CC
330
1F
100
AcDbEntity
  8
0
  6
Continuous
 62
     7
370
    25
100
AcDbSpline
210
0.0
220
0.0
230
1.0
 70
     8
 71
     3
 72
    11
 73
     7
 74
     0
 42
0.00000001
 43
0.00000001
 40
0.0
 40
0.0
 40
0.0
 40
0.0
 40
0.1829450983654378
 40
0.5571371855744948
 40
0.9317062879569865
 40
1.0
 40
1.0
 40
1.0
 40
1.0
 10
184.879002642899
 20
138.2524453429787
 30
0.0
 10
184.9100264869961
 20
138.2672434996119
 30
0.0
 10
185.0045058545244
 20
138.3123094970721
 30
0.0
 10
185.0726490380303
 20
138.3755815626431
 30
0.0
 10
185.0989467505372
 20
138.43146886686
 30
0.0
 10
185.0999763072686
 20
138.4406766842949
 30
0.0
 10
185.1001350748342
 20
138.4420966184415
 30
0.0
  0
SPLINE
  5
2CD
330
1F
100
AcDbEntity
  8
0
  6
Continuous
 62
     7
370
    25
100
AcDbSpline
210
0.0
220
0.0
230
1.0
 70
     8
 71
     3
 72
    11
 73
     7
 74
     0
 42
0.00000001
 43
0.00000001
 40
0.0
 40
0.0
 40
0.0
 40
0.0
 40
0.0631451044874329
 40
0.4402924664315868
 40
0.8170552935895091
 40
1.0
 40
1.0
 40
1.0
 40
1.0
 10
185.1002971050219
 20
120.5375608080612
 30
0.0
 10
185.1001470482074
 20
120.5388751178011
 30
0.0
 10
185.0991007456393
 20
120.5480394177368
 30
0.0
 10
185.0731502409979
 20
120.6039107363069
 30
0.0
 10
185.0049306197594
 20
120.6674480691485
 30
0.0
 10
184.9100236989403
 20
120.7127241490136
 30
0.0
 10
184.879002642899
 20
120.7275229834791
 30
0.0
  0
SPLINE
  5
2CE
330
1F
100
AcDbEntity
  8
0
  6
Continuous
 62
     7
370
    25
100
AcDbSpline
210
0.0
220
0.0
230
1.0
 70
     8
 71
     3
 72
    11
 73
     7
 74
     0
 42
0.00000001
 43
0.00000001
 40
0.0
 40
0.0
 40
0.0
 40
0.0
 40
0.182945098365438
 40
0.5571371855744949
 40
0.9317062879569865
 40
1.0
 40
1.0
 40
1.0
 40
1.0
 10
200.3371747771031
 20
120.7275229834791
 30
0.0
 10
200.3061509330059
 20
120.7127248268459
 30
0.0
 10
200.2116715654777
 20
120.6676588293857
 30
0.0
 10
200.1435283819718
 20
120.6043867638146
 30
0.0
 10
200.1172306694648
 20
120.5484994595978
 30
0.0
 10
200.1162011127334
 20
120.5392916421628
 30
0.0
 10
200.1160423451678
 20
120.5378717080163
 30
0.0
  0
SPLINE
  5
2CF
330
1F
100
AcDbEntity
  8
0
  6
Continuous
 62
     7
370
    25
100
AcDbSpline
210
0.0
220
0.0
230
1.0
 70
     8
 71
     3
 72
    11
 73
     7
 74
     0
 42
0.00000001
 43
0.00000001
 40
0.0
 40
0.0
 40
0.0
 40
0.0
 40
0.0631451044874329
 40
0.4402924664315869
 40
0.8170552935895093
 40
0.9999999999999999
 40
0.9999999999999999
 40
0.9999999999999999
 40
0.9999999999999999
 10
200.1158803149801
 20
138.4424075183965
 30
0.0
 10
200.1160303717947
 20
138.4410932086567
 30
0.0
 10
200.1170766743627
 20
138.4319289087209
 30
0.0
 10
200.1430271790042
 20
138.3760575901509
 30
0.0
 10
200.2112468002426
 20
138.3125202573093
 30
0.0
 10
200.3061537210617
 20
138.2672441774442
 30
0.0
 10
200.3371747771031
 20
138.2524453429787
 30
0.0
  0
LINE
  5
2D0
330
1F
100
AcDbEntity
  8
0
  6
Continuous
 62
     7
370
    25
100
AcDbLine
 10
185.60808871
 20
136.2181151752
 30
0.0
 11
185.60808871
 21
134.7862966437
 31
0.0
  0
LINE
  5
2D1
330
1F
100
AcDbEntity
  8
0
  6
Continuous
 62
     7
370
    25
100
AcDbLine
 10
185.60808871
 20
124.1936716827
 30
0.0
 11
185.60808871
 21
122.7618531513
 31
0.0
  0
LINE
  5
2D2
330
1F
100
AcDbEntity
  8
0
  6
Continuous
 62
     7
370
    25
100
AcDbLine
 10
199.60808871
 20
122.7618531513
 30
0.0
 11
199.60808871
 21
126.9399841632
 31
0.0
  0
LINE
  5
2D3
330
1F
100
AcDbEntity
  8
0
  6
Continuous
 62
     7
370
    25
100
AcDbLine
 10
199.60808871
 20
132.0399841632
 30
0.0
 11
199.60808871
 21
136.2181151752
 31
0.0
  0
LINE
  5
2D4
330
1F
100
AcDbEntity
  8
0
  6
Continuous
 62
     7
370
    25
100
AcDbLine
 10
199.60808871
 20
136.2181151752
 30
0.0
 11
195.8072687747
 21
136.2181151752
 31
0.0
  0
LINE
  5
2D5
330
1F
100
AcDbEntity
  8
0
  6
Continuous
 62
     7
370
    25
100
AcDbLine
 10
189.4089086453
 20
136.2181151752
 30
0.0
 11
185.60808871
 21
136.2181151752
 31
0.0
  0
LINE
  5
2D6
330
1F
100
AcDbEntity
  8
0
  6
Continuous
 62
     7
370
    25
100
AcDbLine
 10
185.60808871
 20
122.7618531513
 30
0.0
 11
189.4089086453
 21
122.7618531513
 31
0.0
  0
LINE
  5
2D7
330
1F
100
AcDbEntity
  8
0
  6
Continuous
 62
     7
370
    25
100
AcDbLine
 10
195.8072687747
 20
122.7618531513
 30
0.0
 11
199.60808871
 21
122.7618531513
 31
0.0
  0
LINE
  5
2D8
330
1F
100
AcDbEntity
  8
0
  6
Continuous
 62
     7
370
    25
100
AcDbLine
 10
185.60808871
 20
136.6138875876
 30
0.0
 11
190.4280657743
 21
136.6138875876
 31
0.0
  0
LINE
  5
2D9
330
1F
100
AcDbEntity
  8
0
  6
Continuous
 62
     7
370
    25
100
AcDbLine
 10
194.7881116457
 20
136.6138875876
 30
0.0
 11
199.60808871
 21
136.6138875876
 31
0.0
  0
LINE
  5
2DA
330
1F
100
AcDbEntity
  8
0
  6
Continuous
 62
     7
370
    25
100
AcDbLine
 10
199.60808871
 20
122.3660807388
 30
0.0
 11
194.7881116457
 21
122.3660807388
 31
0.0
  0
LINE
  5
2DB
330
1F
100
AcDbEntity
  8
0
  6
Continuous
 62
     7
370
    25
100
AcDbLine
 10
190.4280657743
 20
122.3660807388
 30
0.0
 11
185.60808871
 21
122.3660807388
 31
0.0
  0
INSERT
  5
2E7
330
1F
100
AcDbEntity
  8
0
  6
Continuous
 62
     7
370
    18
100
AcDbBlockReference
  2
SW_CENTERMARKSYMBOL_1
 10
192.60808871
 20
129.4899841632
 30
0.0
  0
LINE
  5
2E8
330
1F
100
AcDbEntity
  8
0
  6
Continuous
 62
     7
370
    18
100
AcDbLine
 10
203.10808871
 20
123.4931091632
 30
0.0
 11
211.7840642123
 21
123.7642333977
 31
0.0
  0
LINE
  5
2E9
330
1F
100
AcDbEntity
  8
0
  6
Continuous
 62
     7
370
    18
100
AcDbLine
 10
211.7840642123
 20
135.2157349288
 30
0.0
 11
203.10808871
 21
135.4868591632
 31
0.0
  0
LINE
  5
2EA
330
1F
100
AcDbEntity
  8
0
  6
Continuous
 62
     7
370
    18
100
AcDbLine
 10
179.60808871
 20
135.1899841632
 30
0.0
 11
176.4045751223
 21
135.1899841632
 31
0.0
  0
LINE
  5
2EB
330
1F
100
AcDbEntity
  8
0
  6
Continuous
 62
     7
370
    18
100
AcDbLine
 10
176.4045751223
 20
123.7899841632
 30
0.0
 11
179.60808871
 21
123.7899841632
 31
0.0
  0
LINE
  5
2EC
330
1F
100
AcDbEntity
  8
0
  6
Continuous
 62
     7
370
    18
100
AcDbLine
 10
179.60808871
 20
135.1899841632
 30
0.0
 11
179.60808871
 21
135.188857061
 31
0.0
  0
SPLINE
  5
2ED
330
1F
100
AcDbEntity
  8
0
  6
Continuous
 62
     7
370
     0
100
AcDbSpline
210
0.0
220
0.0
230
1.0
 70
     8
 71
     3
 72
    13
 73
     9
 74
     0
 42
0.00000001
 43
0.00000001
 40
0.0
 40
0.0
 40
0.0
 40
0.0
 40
0.1709232740475878
 40
0.3418465463834074
 40
0.5127698187192294
 40
0.6836930910550476
 40
0.8546163633908702
 40
1.0
 40
1.0
 40
1.0
 40
1.0
 10
179.6079874038696
 20
135.1888570609778
 30
0.0
 10
179.608088710001
 20
135.1297135154529
 30
0.0
 10
179.608088710001
 20
134.9816280690324
 30
0.0
 10
179.608088710001
 20
134.7469361176683
 30
0.0
 10
179.608088710001
 20
134.4293388936318
 30
0.0
 10
179.608088710001
 20
134.0338450948694
 30
0.0
 10
179.608088710001
 20
133.6408477401194
 30
0.0
 10
179.6080887440494
 20
133.7753862907846
 30
0.0
 10
179.608088710001
 20
133.6408477401194
 30
0.0
  0
SPLINE
  5
2EE
330
1F
100
AcDbEntity
  8
0
  6
Continuous
 62
     7
370
     0
100
AcDbSpline
210
0.0
220
0.0
230
1.0
 70
     8
 71
     3
 72
    14
 73
    10
 74
     0
 42
0.00000001
 43
0.00000001
 40
0.0
 40
0.0
 40
0.0
 40
0.0
 40
0.0277984922534243
 40
0.1942170159996909
 40
0.3606355397459585
 40
0.5270540634922266
 40
0.6934725872384935
 40
0.859891110984761
 40
1.0
 40
1.0
 40
1.0
 40
1.0
 10
179.6079874038696
 20
125.3391205863383
 30
0.0
 10
179.608088710001
 20
125.2580927866018
 30
0.0
 10
179.608088710001
 20
124.812875048746
 30
0.0
 10
179.608088710001
 20
124.4414181155951
 30
0.0
 10
179.608088710001
 20
124.1495800848827
 30
0.0
 10
179.608088710001
 20
123.9419634166885
 30
0.0
 10
179.608088710001
 20
123.8218423498941
 30
0.0
 10
179.608088710001
 20
123.7899841632289
 30
0.0
 10
179.6080886128566
 20
123.7962007615571
 30
0.0
 10
179.608088710001
 20
123.7899841632289
 30
0.0
  0
ENDSEC
  0
SECTION
  2
OBJECTS
  0
DICTIONARY
  5
C
330
0
100
AcDbDictionary
281
     1
  3
ACAD_GROUP
350
D
  3
ACAD_LAYOUT
350
1A
  3
ACAD_MLINESTYLE
350
17
  3
ACAD_PLOTSETTINGS
350
19
  3
ACAD_PLOTSTYLENAME
350
E
  3
ACAD_SCALELIST
350
47
  3
DWGPROPS
350
2EF
  0
DICTIONARY
  5
D
102
{ACAD_REACTORS
330
C
102
}
330
C
100
AcDbDictionary
281
     1
  0
DICTIONARY
  5
1A
102
{ACAD_REACTORS
330
C
102
}
330
C
100
AcDbDictionary
281
     1
  3
Layout1
350
1E
  3
Layout2
350
26
  3
Model
350
22
  0
DICTIONARY
  5
17
102
{ACAD_REACTORS
330
C
102
}
330
C
100
AcDbDictionary
281
     1
  3
Standard
350
18
  0
DICTIONARY
  5
19
102
{ACAD_REACTORS
330
C
102
}
330
C
100
AcDbDictionary
281
     1
  0
ACDBDICTIONARYWDFLT
  5
E
102
{ACAD_REACTORS
330
C
102
}
330
C
100
AcDbDictionary
281
     1
  3
Normal
350
F
100
AcDbDictionaryWithDefault
340
F
  0
DICTIONARY
  5
47
102
{ACAD_REACTORS
330
C
102
}
330
C
100
AcDbDictionary
281
     1
  3
A0
350
48
  3
A1
350
49
  3
A2
350
4A
  3
A3
350
4B
  3
A4
350
4C
  3
A5
350
4D
  3
A6
350
4E
  3
A7
350
4F
  3
A8
350
50
  3
A9
350
51
  3
B0
350
52
  3
B1
350
53
  3
B2
350
54
  3
B3
350
55
  3
B4
350
56
  3
B5
350
57
  3
B6
350
58
  0
XRECORD
  5
2EF
102
{ACAD_REACTORS
330
C
102
}
330
C
100
AcDbXrecord
280
     1
  1
DWGPROPS COOKIE
  2

  3

  4

  6

  7

  8
user28
  9

300
=
301
=
302
=
303
=
304
=
305
=
306
=
307
=
308
=
309
=
 40
0.0
 41
2460159.305928553
 42
2460159.305929444
  1

 90
        0
  0
LAYOUT
  5
1E
102
{ACAD_REACTORS
330
1A
102
}
330
1A
100
AcDbPlotSettings
  1

  2
none_device
  4

  6

 40
0.0
 41
0.0
 42
0.0
 43
0.0
 44
0.0
 45
0.0
 46
0.0
 47
0.0
 48
0.0
 49
0.0
140
0.0
141
0.0
142
1.0
143
1.0
 70
   688
 72
     1
 73
     0
 74
     5
  7

 75
    16
147
1.0
148
0.0
149
0.0
100
AcDbLayout
  1
Layout1
 70
     1
 71
     1
 10
0.0
 20
0.0
 11
420.0
 21
297.0
 12
0.0
 22
0.0
 32
0.0
 14
1.0000000000E+20
 24
1.0000000000E+20
 34
1.0000000000E+20
 15
-1.0000000000E+20
 25
-1.0000000000E+20
 35
-1.0000000000E+20
146
0.0
 13
0.0
 23
0.0
 33
0.0
 16
1.0
 26
0.0
 36
0.0
 17
0.0
 27
1.0
 37
0.0
 76
     0
330
1B
  0
LAYOUT
  5
26
102
{ACAD_REACTORS
330
1A
102
}
330
1A
100
AcDbPlotSettings
  1

  2
none_device
  4

  6

 40
0.0
 41
0.0
 42
0.0
 43
0.0
 44
0.0
 45
0.0
 46
0.0
 47
0.0
 48
0.0
 49
0.0
140
0.0
141
0.0
142
1.0
143
1.0
 70
   688
 72
     1
 73
     0
 74
     5
  7

 75
    16
147
1.0
148
0.0
149
0.0
100
AcDbLayout
  1
Layout2
 70
     1
 71
     2
 10
0.0
 20
0.0
 11
0.0
 21
0.0
 12
0.0
 22
0.0
 32
0.0
 14
0.0
 24
0.0
 34
0.0
 15
0.0
 25
0.0
 35
0.0
146
0.0
 13
0.0
 23
0.0
 33
0.0
 16
1.0
 26
0.0
 36
0.0
 17
0.0
 27
1.0
 37
0.0
 76
     0
330
23
  0
LAYOUT
  5
22
102
{ACAD_REACTORS
330
1A
102
}
330
1A
100
AcDbPlotSettings
  1

  2
none_device
  4
Letter_(8.50_x_11.00_Inches)
  6

 40
6.35
 41
6.35
 42
6.35000508
 43
6.35000508
 44
215.9
 45
279.4
 46
0.0
 47
0.0
 48
0.0
 49
0.0
140
0.0
141
0.0
142
1.0
143
1.0
 70
  1712
 72
     1
 73
     0
 74
     0
  7

 75
     0
147
1.0
148
0.0
149
0.0
100
AcDbLayout
  1
Model
 70
     1
 71
     0
 10
0.0
 20
0.0
 11
431.8
 21
279.4
 12
0.0
 22
0.0
 32
0.0
 14
0.0
 24
0.0
 34
0.0
 15
431.8
 25
279.4
 35
0.0
146
0.0
 13
0.0
 23
0.0
 33
0.0
 16
1.0
 26
0.0
 36
0.0
 17
0.0
 27
1.0
 37
0.0
 76
     0
330
1F
331
29
  0
MLINESTYLE
  5
18
102
{ACAD_REACTORS
330
17
102
}
330
17
100
AcDbMlineStyle
  2
Standard
 70
     0
  3

 62
   256
 51
90.0
 52
90.0
 71
     2
 49
0.5
 62
   256
  6
BYLAYER
 49
-0.5
 62
   256
  6
BYLAYER
  0
ACDBPLACEHOLDER
  5
F
102
{ACAD_REACTORS
330
E
102
}
330
E
  0
SCALE
  5
48
102
{ACAD_REACTORS
330
47
102
}
330
47
100
AcDbScale
 70
     0
300
1:1
140
1.0
141
1.0
290
     1
  0
SCALE
  5
49
102
{ACAD_REACTORS
330
47
102
}
330
47
100
AcDbScale
 70
     0
300
1:2
140
1.0
141
2.0
290
     0
  0
SCALE
  5
4A
102
{ACAD_REACTORS
330
47
102
}
330
47
100
AcDbScale
 70
     0
300
1:4
140
1.0
141
4.0
290
     0
  0
SCALE
  5
4B
102
{ACAD_REACTORS
330
47
102
}
330
47
100
AcDbScale
 70
     0
300
1:5
140
1.0
141
5.0
290
     0
  0
SCALE
  5
4C
102
{ACAD_REACTORS
330
47
102
}
330
47
100
AcDbScale
 70
     0
300
1:8
140
1.0
141
8.0
290
     0
  0
SCALE
  5
4D
102
{ACAD_REACTORS
330
47
102
}
330
47
100
AcDbScale
 70
     0
300
1:10
140
1.0
141
10.0
290
     0
  0
SCALE
  5
4E
102
{ACAD_REACTORS
330
47
102
}
330
47
100
AcDbScale
 70
     0
300
1:16
140
1.0
141
16.0
290
     0
  0
SCALE
  5
4F
102
{ACAD_REACTORS
330
47
102
}
330
47
100
AcDbScale
 70
     0
300
1:20
140
1.0
141
20.0
290
     0
  0
SCALE
  5
50
102
{ACAD_REACTORS
330
47
102
}
330
47
100
AcDbScale
 70
     0
300
1:30
140
1.0
141
30.0
290
     0
  0
SCALE
  5
51
102
{ACAD_REACTORS
330
47
102
}
330
47
100
AcDbScale
 70
     0
300
1:40
140
1.0
141
40.0
290
     0
  0
SCALE
  5
52
102
{ACAD_REACTORS
330
47
102
}
330
47
100
AcDbScale
 70
     0
300
1:50
140
1.0
141
50.0
290
     0
  0
SCALE
  5
53
102
{ACAD_REACTORS
330
47
102
}
330
47
100
AcDbScale
 70
     0
300
1:100
140
1.0
141
100.0
290
     0
  0
SCALE
  5
54
102
{ACAD_REACTORS
330
47
102
}
330
47
100
AcDbScale
 70
     0
300
2:1
140
2.0
141
1.0
290
     0
  0
SCALE
  5
55
102
{ACAD_REACTORS
330
47
102
}
330
47
100
AcDbScale
 70
     0
300
4:1
140
4.0
141
1.0
290
     0
  0
SCALE
  5
56
102
{ACAD_REACTORS
330
47
102
}
330
47
100
AcDbScale
 70
     0
300
8:1
140
8.0
141
1.0
290
     0
  0
SCALE
  5
57
102
{ACAD_REACTORS
330
47
102
}
330
47
100
AcDbScale
 70
     0
300
10:1
140
10.0
141
1.0
290
     0
  0
SCALE
  5
58
102
{ACAD_REACTORS
330
47
102
}
330
47
100
AcDbScale
 70
     0
300
100:1
140
100.0
141
1.0
290
     0
  0
ENDSEC
  0
EOF
