  0
SECTION
  2
HEADER
  9
$ACADVER
  1
AC1015
  9
$ACADMAINTVER
 70
     6
  9
$DWGCODEPAGE
  3
DOS932
  9
$INSBASE
 10
0.0
 20
0.0
 30
0.0
  9
$EXTMIN
 10
0.0
 20
0.0
 30
0.0
  9
$EXTMAX
 10
431.8
 20
279.4
 30
0.0
  9
$LIMMIN
 10
0.0
 20
0.0
  9
$LIMMAX
 10
431.8
 20
279.4
  9
$ORTHOMODE
 70
     0
  9
$REGENMODE
 70
     1
  9
$FILLMODE
 70
     1
  9
$QTEXTMODE
 70
     0
  9
$MIRRTEXT
 70
     1
  9
$LTSCALE
 40
1.0
  9
$ATTMODE
 70
     1
  9
$TEXTSIZE
 40
3.5
  9
$TRACEWID
 40
1.0
  9
$TEXTSTYLE
  7
Standard
  9
$CLAYER
  8
0
  9
$CELTYPE
  6
ByLayer
  9
$CECOLOR
 62
   256
  9
$CELTSCALE
 40
1.0
  9
$DISPSILH
 70
     0
  9
$DIMSCALE
 40
1.0
  9
$DIMASZ
 40
3.556
  9
$DIMEXO
 40
1.0
  9
$DIMDLI
 40
3.75
  9
$DIMRND
 40
0.0
  9
$DIMDLE
 40
0.0
  9
$DIMEXE
 40
1.0
  9
$DIMTP
 40
0.0
  9
$DIMTM
 40
0.0
  9
$DIMTXT
 40
3.5
  9
$DIMCEN
 40
2.5
  9
$DIMTSZ
 40
0.0
  9
$DIMTOL
 70
     0
  9
$DIMLIM
 70
     0
  9
$DIMTIH
 70
     1
  9
$DIMTOH
 70
     1
  9
$DIMSE1
 70
     0
  9
$DIMSE2
 70
     0
  9
$DIMTAD
 70
     1
  9
$DIMZIN
 70
     0
  9
$DIMBLK
  1

  9
$DIMASO
 70
     1
  9
$DIMSHO
 70
     1
  9
$DIMPOST
  1

  9
$DIMAPOST
  1

  9
$DIMALT
 70
     0
  9
$DIMALTD
 70
     3
  9
$DIMALTF
 40
0.0393700787
  9
$DIMLFAC
 40
1.0
  9
$DIMTOFL
 70
     1
  9
$DIMTVP
 40
0.0
  9
$DIMTIX
 70
     0
  9
$DIMSOXD
 70
     0
  9
$DIMSAH
 70
     0
  9
$DIMBLK1
  1

  9
$DIMBLK2
  1

  9
$DIMSTYLE
  2
ISO-25
  9
$DIMCLRD
 70
     0
  9
$DIMCLRE
 70
     0
  9
$DIMCLRT
 70
     0
  9
$DIMTFAC
 40
1.0
  9
$DIMGAP
 40
1.524
  9
$DIMJUST
 70
     0
  9
$DIMSD1
 70
     0
  9
$DIMSD2
 70
     0
  9
$DIMTOLJ
 70
     0
  9
$DIMTZIN
 70
     0
  9
$DIMALTZ
 70
     0
  9
$DIMALTTZ
 70
     0
  9
$DIMUPT
 70
     0
  9
$DIMDEC
 70
     3
  9
$DIMTDEC
 70
     3
  9
$DIMALTU
 70
     2
  9
$DIMALTTD
 70
     3
  9
$DIMTXSTY
  7
Standard
  9
$DIMAUNIT
 70
     0
  9
$DIMADEC
 70
     2
  9
$DIMALTRND
 40
0.0
  9
$DIMAZIN
 70
     0
  9
$DIMDSEP
 70
    44
  9
$DIMATFIT
 70
     3
  9
$DIMFRAC
 70
     0
  9
$DIMLDRBLK
  1

  9
$DIMLUNIT
 70
     2
  9
$DIMLWD
 70
    -2
  9
$DIMLWE
 70
    -2
  9
$DIMTMOVE
 70
     0
  9
$LUNITS
 70
     2
  9
$LUPREC
 70
     3
  9
$SKETCHINC
 40
1.0
  9
$FILLETRAD
 40
0.0
  9
$AUNITS
 70
     0
  9
$AUPREC
 70
     2
  9
$MENU
  1
.
  9
$ELEVATION
 40
0.0
  9
$PELEVATION
 40
0.0
  9
$THICKNESS
 40
0.0
  9
$LIMCHECK
 70
     0
  9
$CHAMFERA
 40
0.0
  9
$CHAMFERB
 40
0.0
  9
$CHAMFERC
 40
0.0
  9
$CHAMFERD
 40
0.0
  9
$SKPOLY
 70
     0
  9
$TDCREATE
 40
2460159.679215915
  9
$TDUCREATE
 40
2460159.304215915
  9
$TDUPDATE
 40
2460159.679216667
  9
$TDUUPDATE
 40
2460159.304216667
  9
$TDINDWG
 40
0.0000000116
  9
$TDUSRTIMER
 40
0.0000000116
  9
$USRTIMER
 70
     1
  9
$ANGBASE
 50
0.0
  9
$ANGDIR
 70
     0
  9
$PDMODE
 70
     0
  9
$PDSIZE
 40
-1.0
  9
$PLINEWID
 40
0.0
  9
$SPLFRAME
 70
     0
  9
$SPLINETYPE
 70
     6
  9
$SPLINESEGS
 70
     8
  9
$HANDSEED
  5
2F9
  9
$SURFTAB1
 70
     6
  9
$SURFTAB2
 70
     6
  9
$SURFTYPE
 70
     6
  9
$SURFU
 70
     6
  9
$SURFV
 70
     6
  9
$UCSBASE
  2

  9
$UCSNAME
  2

  9
$UCSORG
 10
0.0
 20
0.0
 30
0.0
  9
$UCSXDIR
 10
1.0
 20
0.0
 30
0.0
  9
$UCSYDIR
 10
0.0
 20
1.0
 30
0.0
  9
$UCSORTHOREF
  2

  9
$UCSORTHOVIEW
 70
     0
  9
$UCSORGTOP
 10
0.0
 20
0.0
 30
0.0
  9
$UCSORGBOTTOM
 10
0.0
 20
0.0
 30
0.0
  9
$UCSORGLEFT
 10
0.0
 20
0.0
 30
0.0
  9
$UCSORGRIGHT
 10
0.0
 20
0.0
 30
0.0
  9
$UCSORGFRONT
 10
0.0
 20
0.0
 30
0.0
  9
$UCSORGBACK
 10
0.0
 20
0.0
 30
0.0
  9
$PUCSBASE
  2

  9
$PUCSNAME
  2

  9
$PUCSORG
 10
0.0
 20
0.0
 30
0.0
  9
$PUCSXDIR
 10
1.0
 20
0.0
 30
0.0
  9
$PUCSYDIR
 10
0.0
 20
1.0
 30
0.0
  9
$PUCSORTHOREF
  2

  9
$PUCSORTHOVIEW
 70
     0
  9
$PUCSORGTOP
 10
0.0
 20
0.0
 30
0.0
  9
$PUCSORGBOTTOM
 10
0.0
 20
0.0
 30
0.0
  9
$PUCSORGLEFT
 10
0.0
 20
0.0
 30
0.0
  9
$PUCSORGRIGHT
 10
0.0
 20
0.0
 30
0.0
  9
$PUCSORGFRONT
 10
0.0
 20
0.0
 30
0.0
  9
$PUCSORGBACK
 10
0.0
 20
0.0
 30
0.0
  9
$USERI1
 70
     0
  9
$USERI2
 70
     0
  9
$USERI3
 70
     0
  9
$USERI4
 70
     0
  9
$USERI5
 70
     0
  9
$USERR1
 40
0.0
  9
$USERR2
 40
0.0
  9
$USERR3
 40
0.0
  9
$USERR4
 40
0.0
  9
$USERR5
 40
0.0
  9
$WORLDVIEW
 70
     1
  9
$SHADEDGE
 70
     3
  9
$SHADEDIF
 70
    70
  9
$TILEMODE
 70
     1
  9
$MAXACTVP
 70
    64
  9
$PINSBASE
 10
0.0
 20
0.0
 30
0.0
  9
$PLIMCHECK
 70
     0
  9
$PEXTMIN
 10
1.0000000000E+20
 20
1.0000000000E+20
 30
1.0000000000E+20
  9
$PEXTMAX
 10
-1.0000000000E+20
 20
-1.0000000000E+20
 30
-1.0000000000E+20
  9
$PLIMMIN
 10
0.0
 20
0.0
  9
$PLIMMAX
 10
420.0
 20
297.0
  9
$UNITMODE
 70
     0
  9
$VISRETAIN
 70
     1
  9
$PLINEGEN
 70
     0
  9
$PSLTSCALE
 70
     1
  9
$TREEDEPTH
 70
  3020
  9
$CMLSTYLE
  2
Standard
  9
$CMLJUST
 70
     0
  9
$CMLSCALE
 40
20.0
  9
$PROXYGRAPHICS
 70
     1
  9
$MEASUREMENT
 70
     1
  9
$CELWEIGHT
370
    -1
  9
$ENDCAPS
280
     0
  9
$JOINSTYLE
280
     0
  9
$LWDISPLAY
290
     1
  9
$INSUNITS
 70
     4
  9
$HYPERLINKBASE
  1

  9
$STYLESHEET
  1

  9
$XEDIT
290
     1
  9
$CEPSNTYPE
380
     0
  9
$PSTYLEMODE
290
     1
  9
$FINGERPRINTGUID
  2
{d1b8c0f3-14e7-4935-b4a8-bf3fc9c9c735}
  9
$VERSIONGUID
  2
{FAEB1C32-E019-11D5-929B-00C0DF256EC4}
  9
$EXTNAMES
290
     1
  9
$PSVPSCALE
 40
0.0
  9
$OLESTARTUP
290
     0
  0
ENDSEC
  0
SECTION
  2
CLASSES
  0
CLASS
  1
ACDBDICTIONARYWDFLT
  2
AcDbDictionaryWithDefault
  3
ObjectDBX Classes
 90
        0
280
     0
281
     0
  0
CLASS
  1
VISUALSTYLE
  2
AcDbVisualStyle
  3
ObjectDBX Classes
 90
     4095
280
     0
281
     0
  0
CLASS
  1
MATERIAL
  2
AcDbMaterial
  3
ObjectDBX Classes
 90
     1153
280
     0
281
     0
  0
CLASS
  1
SCALE
  2
AcDbScale
  3
ObjectDBX Classes
 90
     1153
280
     0
281
     0
  0
CLASS
  1
TABLESTYLE
  2
AcDbTableStyle
  3
ObjectDBX Classes
 90
     4095
280
     0
281
     0
  0
CLASS
  1
MLEADERSTYLE
  2
AcDbMLeaderStyle
  3
ACDB_MLEADERSTYLE_CLASS
 90
     4095
280
     0
281
     0
  0
CLASS
  1
SUN
  2
AcDbSun
  3
SCENEOE
 90
     1153
280
     0
281
     0
  0
CLASS
  1
ACDBPLACEHOLDER
  2
AcDbPlaceHolder
  3
ObjectDBX Classes
 90
        0
280
     0
281
     0
  0
CLASS
  1
LAYOUT
  2
AcDbLayout
  3
ObjectDBX Classes
 90
        0
280
     0
281
     0
  0
ENDSEC
  0
SECTION
  2
TABLES
  0
TABLE
  2
VPORT
  5
8
330
0
100
AcDbSymbolTable
 70
     1
  0
VPORT
  5
29
330
8
100
AcDbSymbolTableRecord
100
AcDbViewportTableRecord
  2
*Active
 70
     0
 10
0.0
 20
0.0
 11
1.0
 21
1.0
 12
215.9
 22
139.7
 13
0.0
 23
0.0
 14
10.0
 24
10.0
 15
10.0
 25
10.0
 16
0.0
 26
0.0
 36
1.0
 17
0.0
 27
0.0
 37
0.0
 40
279.4
 41
1.5454545455
 42
50.0
 43
0.0
 44
0.0
 50
0.0
 51
0.0
 71
     0
 72
  2000
 73
     1
 74
     3
 75
     0
 76
     0
 77
     0
 78
     0
281
     0
 65
     1
110
0.0
120
0.0
130
0.0
111
1.0
121
0.0
131
0.0
112
0.0
122
1.0
132
0.0
 79
     0
146
0.0
  0
ENDTAB
  0
TABLE
  2
LTYPE
  5
5
330
0
100
AcDbSymbolTable
 70
     6
  0
LTYPE
  5
14
330
5
100
AcDbSymbolTableRecord
100
AcDbLinetypeTableRecord
  2
ByBlock
 70
     0
  3

 72
    65
 73
     0
 40
0.0
  0
LTYPE
  5
15
330
5
100
AcDbSymbolTableRecord
100
AcDbLinetypeTableRecord
  2
ByLayer
 70
     0
  3

 72
    65
 73
     0
 40
0.0
  0
LTYPE
  5
16
330
5
100
AcDbSymbolTableRecord
100
AcDbLinetypeTableRecord
  2
Continuous
 70
     0
  3
Solid line
 72
    65
 73
     0
 40
0.0
  0
LTYPE
  5
5E
330
5
100
AcDbSymbolTableRecord
100
AcDbLinetypeTableRecord
  2
HIDDEN
 70
     0
  3
Hidden __ __ __ __ __ __ __ __ __ __ __ __ __ __
 72
    65
 73
     2
 40
1.905
 49
1.27
 74
     0
 49
-0.635
 74
     0
  0
LTYPE
  5
5F
330
5
100
AcDbSymbolTableRecord
100
AcDbLinetypeTableRecord
  2
PHANTOM
 70
     0
  3
Phantom ______  __  __  ______  __  __  ______
 72
    65
 73
     6
 40
12.7
 49
6.35
 74
     0
 49
-1.27
 74
     0
 49
1.27
 74
     0
 49
-1.27
 74
     0
 49
1.27
 74
     0
 49
-1.27
 74
     0
  0
LTYPE
  5
60
330
5
100
AcDbSymbolTableRecord
100
AcDbLinetypeTableRecord
  2
CENTER
 70
     0
  3
Center ____ _ ____ _ ____ _ ____ _ ____ _ ____
 72
    65
 73
     4
 40
10.16
 49
6.35
 74
     0
 49
-1.27
 74
     0
 49
1.27
 74
     0
 49
-1.27
 74
     0
  0
LTYPE
  5
61
330
5
100
AcDbSymbolTableRecord
100
AcDbLinetypeTableRecord
  2
CENTERX2
 70
     0
  3
Center (2x) ________  __  ________  __  _____
 72
    65
 73
     4
 40
20.32
 49
12.7
 74
     0
 49
-2.54
 74
     0
 49
2.54
 74
     0
 49
-2.54
 74
     0
  0
LTYPE
  5
62
330
5
100
AcDbSymbolTableRecord
100
AcDbLinetypeTableRecord
  2
DOT2
 70
     0
  3
Dot (.5x) ........................................
 72
    65
 73
     2
 40
0.635
 49
0.0
 74
     0
 49
-0.635
 74
     0
  0
ENDTAB
  0
TABLE
  2
LAYER
  5
2
330
0
100
AcDbSymbolTable
 70
     1
  0
LAYER
  5
10
330
2
100
AcDbSymbolTableRecord
100
AcDbLayerTableRecord
  2
0
 70
     0
 62
     7
  6
Continuous
370
    -3
390
F
  0
ENDTAB
  0
TABLE
  2
STYLE
  5
3
330
0
100
AcDbSymbolTable
 70
     2
  0
STYLE
  5
11
330
3
100
AcDbSymbolTableRecord
100
AcDbTextStyleTableRecord
  2
Standard
 70
     0
 40
0.0
 41
1.0
 50
0.0
 71
     0
 42
3.5
  3
txt
  4
bigfont
  0
STYLE
  5
63
330
3
100
AcDbSymbolTableRecord
100
AcDbTextStyleTableRecord
  2
SLDTEXTSTYLE0
 70
     0
 40
0.0
 41
0.7
 50
0.0
 71
     0
 42
3.5
  3
TXT
  4
bigfont
  0
ENDTAB
  0
TABLE
  2
VIEW
  5
6
330
0
100
AcDbSymbolTable
 70
     0
  0
ENDTAB
  0
TABLE
  2
UCS
  5
7
330
0
100
AcDbSymbolTable
 70
     0
  0
ENDTAB
  0
TABLE
  2
APPID
  5
9
330
0
100
AcDbSymbolTable
 70
     1
  0
APPID
  5
12
330
9
100
AcDbSymbolTableRecord
100
AcDbRegAppTableRecord
  2
ACAD
 70
     0
  0
ENDTAB
  0
TABLE
  2
DIMSTYLE
  5
A
330
0
100
AcDbSymbolTable
 70
     1
100
AcDbDimStyleTable
  0
DIMSTYLE
105
27
330
A
100
AcDbSymbolTableRecord
100
AcDbDimStyleTableRecord
  2
ISO-25
 70
     0
 41
2.5
 42
0.625
 43
3.75
 44
1.25
 73
     0
 74
     0
 77
     1
 78
     8
140
2.5
141
2.5
143
0.0393700787
147
0.625
171
     3
172
     1
178
     0
271
     2
272
     2
274
     3
278
    44
283
     0
284
     8
340
11
  0
ENDTAB
  0
TABLE
  2
BLOCK_RECORD
  5
1
330
0
100
AcDbSymbolTable
 70
     3
  0
BLOCK_RECORD
  5
1F
330
1
100
AcDbSymbolTableRecord
100
AcDbBlockTableRecord
  2
*Model_Space
340
22
  0
BLOCK_RECORD
  5
1B
330
1
100
AcDbSymbolTableRecord
100
AcDbBlockTableRecord
  2
*Paper_Space
340
1E
  0
BLOCK_RECORD
  5
23
330
1
100
AcDbSymbolTableRecord
100
AcDbBlockTableRecord
  2
*Paper_Space0
340
26
  0
BLOCK_RECORD
  5
1E0
330
1
100
AcDbSymbolTableRecord
100
AcDbBlockTableRecord
  2
SW_CENTERMARKSYMBOL_0
340
0
102
{BLKREFS
331
1EB
102
}
  0
BLOCK_RECORD
  5
2E5
330
1
100
AcDbSymbolTableRecord
100
AcDbBlockTableRecord
  2
SW_CENTERMARKSYMBOL_1
340
0
102
{BLKREFS
331
2F0
102
}
  0
ENDTAB
  0
ENDSEC
  0
SECTION
  2
BLOCKS
  0
BLOCK
  5
20
330
1F
100
AcDbEntity
  8
0
100
AcDbBlockBegin
  2
*Model_Space
 70
     0
 10
0.0
 20
0.0
 30
0.0
  3
*Model_Space
  1

  0
ENDBLK
  5
21
330
1F
100
AcDbEntity
  8
0
100
AcDbBlockEnd
  0
BLOCK
  5
1C
330
1B
100
AcDbEntity
 67
     1
  8
0
100
AcDbBlockBegin
  2
*Paper_Space
 70
     0
 10
0.0
 20
0.0
 30
0.0
  3
*Paper_Space
  1

  0
ENDBLK
  5
1D
330
1B
100
AcDbEntity
 67
     1
  8
0
100
AcDbBlockEnd
  0
BLOCK
  5
24
330
23
100
AcDbEntity
  8
0
100
AcDbBlockBegin
  2
*Paper_Space0
 70
     0
 10
0.0
 20
0.0
 30
0.0
  3
*Paper_Space0
  1

  0
ENDBLK
  5
25
330
23
100
AcDbEntity
  8
0
100
AcDbBlockEnd
  0
BLOCK
  5
1E1
330
1E0
100
AcDbEntity
  8
0
100
AcDbBlockBegin
  2
SW_CENTERMARKSYMBOL_0
 70
     0
 10
0.0
 20
0.0
 30
0.0
  3
SW_CENTERMARKSYMBOL_0
  1

  0
LINE
  5
1E3
330
1E0
100
AcDbEntity
  8
0
  6
Continuous
 62
     0
370
    18
100
AcDbLine
 10
0.0
 20
0.0
 30
0.0
 11
0.0
 21
2.5
 31
0.0
  0
LINE
  5
1E4
330
1E0
100
AcDbEntity
  8
0
  6
Continuous
 62
     0
370
    18
100
AcDbLine
 10
0.0
 20
0.0
 30
0.0
 11
-2.5
 21
0.0
 31
0.0
  0
LINE
  5
1E5
330
1E0
100
AcDbEntity
  8
0
  6
Continuous
 62
     0
370
    18
100
AcDbLine
 10
0.0
 20
0.0
 30
0.0
 11
0.0
 21
-2.5
 31
0.0
  0
LINE
  5
1E6
330
1E0
100
AcDbEntity
  8
0
  6
Continuous
 62
     0
370
    18
100
AcDbLine
 10
0.0
 20
0.0
 30
0.0
 11
2.5
 21
0.0
 31
0.0
  0
LINE
  5
1E7
330
1E0
100
AcDbEntity
  8
0
  6
Continuous
 62
     0
370
    18
100
AcDbLine
 10
0.0
 20
5.0
 30
0.0
 11
0.0
 21
29.9510627897
 31
0.0
  0
LINE
  5
1E8
330
1E0
100
AcDbEntity
  8
0
  6
Continuous
 62
     0
370
    18
100
AcDbLine
 10
-5.0
 20
0.0
 30
0.0
 11
-12.5
 21
0.0
 31
0.0
  0
LINE
  5
1E9
330
1E0
100
AcDbEntity
  8
0
  6
Continuous
 62
     0
370
    18
100
AcDbLine
 10
0.0
 20
-5.0
 30
0.0
 11
0.0
 21
-12.5
 31
0.0
  0
LINE
  5
1EA
330
1E0
100
AcDbEntity
  8
0
  6
Continuous
 62
     0
370
    18
100
AcDbLine
 10
5.0
 20
0.0
 30
0.0
 11
12.5
 21
0.0
 31
0.0
  0
ENDBLK
  5
1E2
330
1E0
100
AcDbEntity
  8
0
100
AcDbBlockEnd
  0
BLOCK
  5
2E6
330
2E5
100
AcDbEntity
  8
0
100
AcDbBlockBegin
  2
SW_CENTERMARKSYMBOL_1
 70
     0
 10
0.0
 20
0.0
 30
0.0
  3
SW_CENTERMARKSYMBOL_1
  1

  0
LINE
  5
2E8
330
2E5
100
AcDbEntity
  8
0
  6
Continuous
 62
     0
370
    18
100
AcDbLine
 10
0.0
 20
0.0
 30
0.0
 11
0.0
 21
2.5
 31
0.0
  0
LINE
  5
2E9
330
2E5
100
AcDbEntity
  8
0
  6
Continuous
 62
     0
370
    18
100
AcDbLine
 10
0.0
 20
0.0
 30
0.0
 11
-2.5
 21
0.0
 31
0.0
  0
LINE
  5
2EA
330
2E5
100
AcDbEntity
  8
0
  6
Continuous
 62
     0
370
    18
100
AcDbLine
 10
0.0
 20
0.0
 30
0.0
 11
0.0
 21
-2.5
 31
0.0
  0
LINE
  5
2EB
330
2E5
100
AcDbEntity
  8
0
  6
Continuous
 62
     0
370
    18
100
AcDbLine
 10
0.0
 20
0.0
 30
0.0
 11
2.5
 21
0.0
 31
0.0
  0
LINE
  5
2EC
330
2E5
100
AcDbEntity
  8
0
  6
Continuous
 62
     0
370
    18
100
AcDbLine
 10
0.0
 20
5.0
 30
0.0
 11
0.0
 21
9.95
 31
0.0
  0
LINE
  5
2ED
330
2E5
100
AcDbEntity
  8
0
  6
Continuous
 62
     0
370
    18
100
AcDbLine
 10
-5.0
 20
0.0
 30
0.0
 11
-56.5081186233
 21
0.0
 31
0.0
  0
LINE
  5
2EE
330
2E5
100
AcDbEntity
  8
0
  6
Continuous
 62
     0
370
    18
100
AcDbLine
 10
0.0
 20
-5.0
 30
0.0
 11
0.0
 21
-9.95
 31
0.0
  0
LINE
  5
2EF
330
2E5
100
AcDbEntity
  8
0
  6
Continuous
 62
     0
370
    18
100
AcDbLine
 10
5.0
 20
0.0
 30
0.0
 11
21.2383326674
 21
0.0
 31
0.0
  0
ENDBLK
  5
2E7
330
2E5
100
AcDbEntity
  8
0
100
AcDbBlockEnd
  0
ENDSEC
  0
SECTION
  2
ENTITIES
  0
MTEXT
  5
64
330
1F
100
AcDbEntity
  8
0
  6
Continuous
 62
     7
370
     0
100
AcDbMText
 10
204.8557614839
 20
114.6514467108
 30
0.0
 40
3.5
 41
0.0
 71
     1
 72
     1
  1
エースボール　BY-1208R
  7
SLDTEXTSTYLE0
 73
     1
 44
1.0
  0
LINE
  5
65
330
1F
100
AcDbEntity
  8
0
  6
Continuous
 62
     7
370
    25
100
AcDbLine
 10
163.8674243792
 20
69.3485335301
 30
0.0
 11
163.8942192984
 21
69.4485335301
 31
0.0
  0
LINE
  5
66
330
1F
100
AcDbEntity
  8
0
  6
Continuous
 62
     7
370
    25
100
AcDbLine
 10
163.8942192984
 20
78.2485335301
 30
0.0
 11
163.8674243792
 21
78.3485335301
 31
0.0
  0
LINE
  5
67
330
1F
100
AcDbEntity
  8
0
  6
Continuous
 62
     7
370
    25
100
AcDbLine
 10
163.8674243792
 20
78.3485335301
 30
0.0
 11
163.3942192984
 21
78.3485335301
 31
0.0
  0
LINE
  5
68
330
1F
100
AcDbEntity
  8
0
  6
Continuous
 62
     7
370
    25
100
AcDbLine
 10
163.3942192984
 20
69.3485335301
 30
0.0
 11
163.8674243792
 21
69.3485335301
 31
0.0
  0
LINE
  5
69
330
1F
100
AcDbEntity
  8
0
  6
Continuous
 62
     7
370
    25
100
AcDbLine
 10
163.3942192984
 20
77.8485335301
 30
0.0
 11
159.3942192984
 21
77.8485335301
 31
0.0
  0
LINE
  5
6A
330
1F
100
AcDbEntity
  8
0
  6
Continuous
 62
     7
370
    25
100
AcDbLine
 10
159.3942192984
 20
69.8485335301
 30
0.0
 11
163.3942192984
 21
69.8485335301
 31
0.0
  0
LINE
  5
6B
330
1F
100
AcDbEntity
  8
0
  6
Continuous
 62
     7
370
    25
100
AcDbLine
 10
159.3942192984
 20
77.8485335301
 30
0.0
 11
155.3942192984
 21
77.1985335301
 31
0.0
  0
LINE
  5
6C
330
1F
100
AcDbEntity
  8
0
  6
Continuous
 62
     7
370
    25
100
AcDbLine
 10
155.3942192984
 20
70.4985335301
 30
0.0
 11
159.3942192984
 21
69.8485335301
 31
0.0
  0
LINE
  5
6D
330
1F
100
AcDbEntity
  8
0
  6
Continuous
 62
     7
370
    25
100
AcDbLine
 10
143.3942192984
 20
77.8485335301
 30
0.0
 11
138.6003272625
 21
77.2819826531
 31
0.0
  0
LINE
  5
6E
330
1F
100
AcDbEntity
  8
0
  6
Continuous
 62
     7
370
    25
100
AcDbLine
 10
138.6003272625
 20
70.4150844071
 30
0.0
 11
143.3942192984
 21
69.8485335301
 31
0.0
  0
LINE
  5
6F
330
1F
100
AcDbEntity
  8
0
  6
Continuous
 62
     7
370
    25
100
AcDbLine
 10
155.3942192984
 20
77.8485335301
 30
0.0
 11
151.3942192984
 21
77.1985335301
 31
0.0
  0
LINE
  5
70
330
1F
100
AcDbEntity
  8
0
  6
Continuous
 62
     7
370
    25
100
AcDbLine
 10
151.3942192984
 20
70.4985335301
 30
0.0
 11
155.3942192984
 21
69.8485335301
 31
0.0
  0
LINE
  5
71
330
1F
100
AcDbEntity
  8
0
  6
Continuous
 62
     7
370
    25
100
AcDbLine
 10
151.3942192984
 20
77.8485335301
 30
0.0
 11
147.3942192984
 21
77.1985335301
 31
0.0
  0
LINE
  5
72
330
1F
100
AcDbEntity
  8
0
  6
Continuous
 62
     7
370
    25
100
AcDbLine
 10
147.3942192984
 20
70.4985335301
 30
0.0
 11
151.3942192984
 21
69.8485335301
 31
0.0
  0
LINE
  5
73
330
1F
100
AcDbEntity
  8
0
  6
Continuous
 62
     7
370
    25
100
AcDbLine
 10
147.3942192984
 20
77.8485335301
 30
0.0
 11
143.3942192984
 21
77.1985335301
 31
0.0
  0
LINE
  5
74
330
1F
100
AcDbEntity
  8
0
  6
Continuous
 62
     7
370
    25
100
AcDbLine
 10
143.3942192984
 20
70.4985335301
 30
0.0
 11
147.3942192984
 21
69.8485335301
 31
0.0
  0
ARC
  5
75
330
1F
100
AcDbEntity
  8
0
  6
Continuous
 62
     7
370
    25
100
AcDbCircle
 10
138.6942192984
 20
76.4875115803
 30
0.0
 40
0.7999999999999993
100
AcDbArc
 50
96.7400560979
 51
180.0
  0
ARC
  5
76
330
1F
100
AcDbEntity
  8
0
  6
Continuous
 62
     7
370
    25
100
AcDbCircle
 10
138.6942192984
 20
71.2095554799
 30
0.0
 40
0.7999999999999993
100
AcDbArc
 50
180.0
 51
263.2599439021
  0
LINE
  5
77
330
1F
100
AcDbEntity
  8
0
  6
Continuous
 62
     7
370
    25
100
AcDbLine
 10
174.0930855782
 20
64.6109292231
 30
0.0
 11
174.8942192984
 21
65.9985335301
 31
0.0
  0
LINE
  5
78
330
1F
100
AcDbEntity
  8
0
  6
Continuous
 62
     7
370
    25
100
AcDbLine
 10
174.8942192984
 20
81.6985335301
 30
0.0
 11
174.0930855782
 21
83.0861378371
 31
0.0
  0
LINE
  5
79
330
1F
100
AcDbEntity
  8
0
  6
Continuous
 62
     7
370
    25
100
AcDbLine
 10
166.6953530186
 20
83.0861378371
 30
0.0
 11
165.8942192984
 21
81.6985335301
 31
0.0
  0
LINE
  5
7A
330
1F
100
AcDbEntity
  8
0
  6
Continuous
 62
     7
370
    25
100
AcDbLine
 10
165.8942192984
 20
65.9985335301
 30
0.0
 11
166.6953530186
 21
64.6109292231
 31
0.0
  0
ARC
  5
7B
330
1F
100
AcDbEntity
  8
0
  6
Continuous
 62
     7
370
    25
100
AcDbCircle
 10
176.5942192984
 20
81.3985335301
 30
0.0
 40
0.2999999999999972
100
AcDbArc
 50
0.0
 51
90.0
  0
ARC
  5
7C
330
1F
100
AcDbEntity
  8
0
  6
Continuous
 62
     7
370
    25
100
AcDbCircle
 10
176.5942192984
 20
66.2985335301
 30
0.0
 40
0.3000000000000114
100
AcDbArc
 50
270.0
 51
0.0
  0
LINE
  5
7D
330
1F
100
AcDbEntity
  8
0
  6
Continuous
 62
     7
370
    25
100
AcDbLine
 10
165.8942192984
 20
81.6985335301
 30
0.0
 11
164.1942192984
 21
81.6985335301
 31
0.0
  0
LINE
  5
7E
330
1F
100
AcDbEntity
  8
0
  6
Continuous
 62
     7
370
    25
100
AcDbLine
 10
164.1942192984
 20
65.9985335301
 30
0.0
 11
165.8942192984
 21
65.9985335301
 31
0.0
  0
LINE
  5
7F
330
1F
100
AcDbEntity
  8
0
  6
Continuous
 62
     7
370
    25
100
AcDbLine
 10
174.8942192984
 20
65.9985335301
 30
0.0
 11
176.5942192984
 21
65.9985335301
 31
0.0
  0
LINE
  5
80
330
1F
100
AcDbEntity
  8
0
  6
Continuous
 62
     7
370
    25
100
AcDbLine
 10
176.5942192984
 20
81.6985335301
 30
0.0
 11
174.8942192984
 21
81.6985335301
 31
0.0
  0
ARC
  5
81
330
1F
100
AcDbEntity
  8
0
  6
Continuous
 62
     7
370
    25
100
AcDbCircle
 10
164.1942192984
 20
66.2985335301
 30
0.0
 40
0.3000000000000114
100
AcDbArc
 50
180.0
 51
270.0
  0
ARC
  5
82
330
1F
100
AcDbEntity
  8
0
  6
Continuous
 62
     7
370
    25
100
AcDbCircle
 10
164.1942192984
 20
81.3985335301
 30
0.0
 40
0.2999999999999972
100
AcDbArc
 50
90.0
 51
180.0
  0
LINE
  5
83
330
1F
100
AcDbEntity
  8
0
  6
Continuous
 62
     7
370
    25
100
AcDbLine
 10
170.3942192984
 20
82.8861378371
 30
0.0
 11
170.3406294599
 21
83.0861378371
 31
0.0
  0
LINE
  5
84
330
1F
100
AcDbEntity
  8
0
  6
Continuous
 62
     7
370
    25
100
AcDbLine
 10
170.4478091369
 20
83.0861378371
 30
0.0
 11
170.3942192984
 21
82.8861378371
 31
0.0
  0
LINE
  5
85
330
1F
100
AcDbEntity
  8
0
  6
Continuous
 62
     7
370
    25
100
AcDbLine
 10
170.3406294599
 20
64.6109292231
 30
0.0
 11
170.3942192984
 21
64.8109292231
 31
0.0
  0
LINE
  5
86
330
1F
100
AcDbEntity
  8
0
  6
Continuous
 62
     7
370
    25
100
AcDbLine
 10
170.3942192984
 20
64.8109292231
 30
0.0
 11
170.4478091369
 21
64.6109292231
 31
0.0
  0
LINE
  5
87
330
1F
100
AcDbEntity
  8
0
  6
Continuous
 62
     7
370
    25
100
AcDbLine
 10
200.0977328862
 20
84.3485335301
 30
0.0
 11
200.5477328862
 21
92.3485335301
 31
0.0
  0
LINE
  5
88
330
1F
100
AcDbEntity
  8
0
  6
Continuous
 62
     7
370
    25
100
AcDbLine
 10
200.5477328862
 20
92.3485335301
 30
0.0
 11
198.5977328862
 21
100.3485335301
 31
0.0
  0
LINE
  5
89
330
1F
100
AcDbEntity
  8
0
  6
Continuous
 62
     7
370
    25
100
AcDbLine
 10
186.0289874686
 20
85.5706742874
 30
0.0
 11
186.0977328862
 21
84.3485335301
 31
0.0
  0
LINE
  5
8A
330
1F
100
AcDbEntity
  8
0
  6
Continuous
 62
     7
370
    25
100
AcDbLine
 10
187.5977328862
 20
100.3485335301
 30
0.0
 11
187.3445013516
 21
99.3096349269
 31
0.0
  0
LINE
  5
8B
330
1F
100
AcDbEntity
  8
0
  6
Continuous
 62
     7
370
    25
100
AcDbLine
 10
180.2977328862
 20
81.8485335301
 30
0.0
 11
180.0977328862
 21
81.6485335301
 31
0.0
  0
LINE
  5
8C
330
1F
100
AcDbEntity
  8
0
  6
Continuous
 62
     7
370
    25
100
AcDbLine
 10
180.0977328862
 20
66.0485335301
 30
0.0
 11
180.2977328862
 21
65.8485335301
 31
0.0
  0
LINE
  5
8D
330
1F
100
AcDbEntity
  8
0
  6
Continuous
 62
     7
370
    25
100
AcDbLine
 10
183.0977328862
 20
81.8485335301
 30
0.0
 11
180.2977328862
 21
81.8485335301
 31
0.0
  0
LINE
  5
8E
330
1F
100
AcDbEntity
  8
0
  6
Continuous
 62
     7
370
    25
100
AcDbLine
 10
180.2977328862
 20
65.8485335301
 30
0.0
 11
183.0977328862
 21
65.8485335301
 31
0.0
  0
LINE
  5
8F
330
1F
100
AcDbEntity
  8
0
  6
Continuous
 62
     7
370
    25
100
AcDbLine
 10
180.0977328862
 20
80.4270335301
 30
0.0
 11
176.8942192984
 21
80.4270335301
 31
0.0
  0
LINE
  5
90
330
1F
100
AcDbEntity
  8
0
  6
Continuous
 62
     7
370
    25
100
AcDbLine
 10
176.8942192984
 20
67.2700335301
 30
0.0
 11
180.0977328862
 21
67.2700335301
 31
0.0
  0
LINE
  5
91
330
1F
100
AcDbEntity
  8
0
  6
Continuous
 62
     7
370
    25
100
AcDbLine
 10
183.3477328862
 20
63.8485335301
 30
0.0
 11
185.2157668749
 21
63.8485335301
 31
0.0
  0
LINE
  5
92
330
1F
100
AcDbEntity
  8
0
  6
Continuous
 62
     7
370
    25
100
AcDbLine
 10
185.2157668749
 20
83.8485335301
 30
0.0
 11
183.3477328862
 21
83.8485335301
 31
0.0
  0
LINE
  5
93
330
1F
100
AcDbEntity
  8
0
  6
Continuous
 62
     7
370
    25
100
AcDbLine
 10
183.3477328862
 20
83.8485335301
 30
0.0
 11
183.0977328862
 21
83.5985335301
 31
0.0
  0
LINE
  5
94
330
1F
100
AcDbEntity
  8
0
  6
Continuous
 62
     7
370
    25
100
AcDbLine
 10
183.0977328862
 20
64.0985335301
 30
0.0
 11
183.3477328862
 21
63.8485335301
 31
0.0
  0
LINE
  5
95
330
1F
100
AcDbEntity
  8
0
  6
Continuous
 62
     7
370
    25
100
AcDbLine
 10
202.5977328862
 20
63.8485335301
 30
0.0
 11
203.0977328862
 21
64.3485335301
 31
0.0
  0
LINE
  5
96
330
1F
100
AcDbEntity
  8
0
  6
Continuous
 62
     7
370
    25
100
AcDbLine
 10
203.0977328862
 20
83.3485335301
 30
0.0
 11
202.5977328862
 21
83.8485335301
 31
0.0
  0
ARC
  5
97
330
1F
100
AcDbEntity
  8
0
  6
Continuous
 62
     7
370
    25
100
AcDbCircle
 10
184.0977328862
 20
64.8485335301
 30
0.0
 40
1.5
100
AcDbArc
 50
318.1896851042
 51
0.0
  0
ARC
  5
98
330
1F
100
AcDbEntity
  8
0
  6
Continuous
 62
     7
370
    25
100
AcDbCircle
 10
184.0977328862
 20
82.8485335301
 30
0.0
 40
1.5
100
AcDbArc
 50
0.0
 51
41.8103148958
  0
LINE
  5
99
330
1F
100
AcDbEntity
  8
0
  6
Continuous
 62
     7
370
    25
100
AcDbLine
 10
202.5977328862
 20
83.8485335301
 30
0.0
 11
200.9796988974
 21
83.8485335301
 31
0.0
  0
LINE
  5
9A
330
1F
100
AcDbEntity
  8
0
  6
Continuous
 62
     7
370
    25
100
AcDbLine
 10
200.9796988974
 20
63.8485335301
 30
0.0
 11
202.5977328862
 21
63.8485335301
 31
0.0
  0
ARC
  5
9B
330
1F
100
AcDbEntity
  8
0
  6
Continuous
 62
     7
370
    25
100
AcDbCircle
 10
202.0977328862
 20
82.8485335301
 30
0.0
 40
1.5
100
AcDbArc
 50
138.1896851042
 51
180.0
  0
ARC
  5
9C
330
1F
100
AcDbEntity
  8
0
  6
Continuous
 62
     7
370
    25
100
AcDbCircle
 10
202.0977328862
 20
64.8485335301
 30
0.0
 40
1.5
100
AcDbArc
 50
180.0
 51
221.8103148958
  0
ARC
  5
9D
330
1F
100
AcDbEntity
  8
0
  6
Continuous
 62
     7
370
    25
100
AcDbCircle
 10
200.0977328862
 20
82.8485335301
 30
0.0
 40
0.5
100
AcDbArc
 50
270.0
 51
0.0
  0
ARC
  5
9E
330
1F
100
AcDbEntity
  8
0
  6
Continuous
 62
     7
370
    25
100
AcDbCircle
 10
186.0977328862
 20
82.8485335301
 30
0.0
 40
0.5
100
AcDbArc
 50
180.0
 51
270.0
  0
ARC
  5
9F
330
1F
100
AcDbEntity
  8
0
  6
Continuous
 62
     7
370
    25
100
AcDbCircle
 10
186.0977328862
 20
64.8485335301
 30
0.0
 40
0.5
100
AcDbArc
 50
90.0
 51
180.0
  0
ARC
  5
A0
330
1F
100
AcDbEntity
  8
0
  6
Continuous
 62
     7
370
    25
100
AcDbCircle
 10
200.0977328862
 20
64.8485335301
 30
0.0
 40
0.5
100
AcDbArc
 50
360.0
 51
90.0
  0
LINE
  5
A1
330
1F
100
AcDbEntity
  8
0
  6
Continuous
 62
     7
370
    25
100
AcDbLine
 10
203.0977328862
 20
67.0815960301
 30
0.0
 11
210.8922084286
 21
67.3251733908
 31
0.0
  0
LINE
  5
A2
330
1F
100
AcDbEntity
  8
0
  6
Continuous
 62
     7
370
    25
100
AcDbLine
 10
210.8922084286
 20
80.3718936694
 30
0.0
 11
203.0977328862
 21
80.6154710301
 31
0.0
  0
LINE
  5
A3
330
1F
100
AcDbEntity
  8
0
  6
Continuous
 62
     7
370
    25
100
AcDbLine
 10
186.7154120112
 20
82.3485335301
 30
0.0
 11
186.0977328862
 21
82.3485335301
 31
0.0
  0
LINE
  5
A4
330
1F
100
AcDbEntity
  8
0
  6
Continuous
 62
     7
370
    25
100
AcDbLine
 10
200.0977328862
 20
82.3485335301
 30
0.0
 11
199.4977328862
 21
82.3485335301
 31
0.0
  0
LINE
  5
A5
330
1F
100
AcDbEntity
  8
0
  6
Continuous
 62
     7
370
    25
100
AcDbLine
 10
186.0977328862
 20
65.3485335301
 30
0.0
 11
200.0977328862
 21
65.3485335301
 31
0.0
  0
LINE
  5
A6
330
1F
100
AcDbEntity
  8
0
  6
Continuous
 62
     7
370
    25
100
AcDbLine
 10
210.8922084286
 20
67.3251733908
 30
0.0
 11
213.0977328862
 21
68.5985335301
 31
0.0
  0
LINE
  5
A7
330
1F
100
AcDbEntity
  8
0
  6
Continuous
 62
     7
370
    25
100
AcDbLine
 10
213.0977328862
 20
79.0985335301
 30
0.0
 11
210.8922084286
 21
80.3718936694
 31
0.0
  0
SPLINE
  5
A8
330
1F
100
AcDbEntity
  8
0
  6
Continuous
 62
     7
370
    25
100
AcDbSpline
210
0.0
220
0.0
230
1.0
 70
     8
 71
     3
 72
    13
 73
     9
 74
     0
 42
0.00000001
 43
0.00000001
 40
0.0
 40
0.0
 40
0.0
 40
0.0
 40
0.0876580989961712
 40
0.3238542672340669
 40
0.5631702067375577
 40
0.772665493795179
 40
0.9443479266009319
 40
1.0
 40
1.0
 40
1.0
 40
1.0
 10
187.1912107262555
 20
82.83676147938154
 30
0.0
 10
187.1925121466669
 20
82.81466465609675
 30
0.0
 10
187.1973202654663
 20
82.7330275843938
 30
0.0
 10
187.1406298753321
 20
82.59662397141784
 30
0.0
 10
187.0311222301459
 20
82.46078985982362
 30
0.0
 10
186.8940773218391
 20
82.38178740894209
 30
0.0
 10
186.7867100570487
 20
82.3499356831987
 30
0.0
 10
186.7294902839513
 20
82.35086600714024
 30
0.0
 10
186.7154827359312
 20
82.35109375284036
 30
0.0
  0
SPLINE
  5
A9
330
1F
100
AcDbEntity
  8
0
  6
Continuous
 62
     7
370
    25
100
AcDbSpline
210
0.0
220
0.0
230
1.0
 70
     8
 71
     3
 72
    13
 73
     9
 74
     0
 42
0.00000001
 43
0.00000001
 40
0.0
 40
0.0
 40
0.0
 40
0.0
 40
0.0499370904513124
 40
0.2655235853398217
 40
0.4853408907708088
 40
0.7120295815258652
 40
0.9214391271806922
 40
1.0
 40
1.0
 40
1.0
 40
1.0
 10
199.5076624074275
 20
82.3520763368206
 30
0.0
 10
199.4944143673432
 20
82.35086752905073
 30
0.0
 10
199.4239723958522
 20
82.34444010266006
 30
0.0
 10
199.2955119869857
 20
82.38217025790993
 30
0.0
 10
199.1449043225774
 20
82.47811779625354
 30
0.0
 10
199.041942210227
 20
82.6227606369728
 30
0.0
 10
198.9967850578776
 20
82.75670575260655
 30
0.0
 10
199.0011179111411
 20
82.83340572075463
 30
0.0
 10
199.0022999517687
 20
82.85433014929437
 30
0.0
  0
LINE
  5
AA
330
1F
100
AcDbEntity
  8
0
  6
Continuous
 62
     7
370
    25
100
AcDbLine
 10
198.9977328862
 20
82.8485335301
 30
0.0
 11
198.9977328862
 21
84.3485335301
 31
0.0
  0
LINE
  5
AB
330
1F
100
AcDbEntity
  8
0
  6
Continuous
 62
     7
370
    25
100
AcDbLine
 10
187.1977328862
 20
84.3485335301
 30
0.0
 11
187.1977328862
 21
82.8372627901
 31
0.0
  0
LINE
  5
AC
330
1F
100
AcDbEntity
  8
0
  6
Continuous
 62
     7
370
    25
100
AcDbLine
 10
163.8674243792
 20
73.3477829448
 30
0.0
 11
163.8674243792
 21
69.3485335301
 31
0.0
  0
LINE
  5
AD
330
1F
100
AcDbEntity
  8
0
  6
Continuous
 62
     7
370
    25
100
AcDbLine
 10
163.8674243792
 20
78.3485335301
 30
0.0
 11
163.8674243792
 21
73.3477829448
 31
0.0
  0
LINE
  5
AE
330
1F
100
AcDbEntity
  8
0
  6
Continuous
 62
     7
370
    25
100
AcDbLine
 10
163.3942192984
 20
69.3485335301
 30
0.0
 11
163.3942192984
 21
78.3485335301
 31
0.0
  0
LINE
  5
AF
330
1F
100
AcDbEntity
  8
0
  6
Continuous
 62
     7
370
    25
100
AcDbLine
 10
159.3942192984
 20
73.4034218987
 30
0.0
 11
159.3942192984
 21
69.8485335301
 31
0.0
  0
LINE
  5
B0
330
1F
100
AcDbEntity
  8
0
  6
Continuous
 62
     7
370
    25
100
AcDbLine
 10
159.3942192984
 20
77.8485335301
 30
0.0
 11
159.3942192984
 21
73.4034218987
 31
0.0
  0
LINE
  5
B1
330
1F
100
AcDbEntity
  8
0
  6
Continuous
 62
     7
370
    25
100
AcDbLine
 10
143.3942192984
 20
73.4034218987
 30
0.0
 11
143.3942192984
 21
69.8485335301
 31
0.0
  0
LINE
  5
B2
330
1F
100
AcDbEntity
  8
0
  6
Continuous
 62
     7
370
    25
100
AcDbLine
 10
143.3942192984
 20
77.8485335301
 30
0.0
 11
143.3942192984
 21
73.4034218987
 31
0.0
  0
LINE
  5
B3
330
1F
100
AcDbEntity
  8
0
  6
Continuous
 62
     7
370
    25
100
AcDbLine
 10
155.3942192984
 20
73.4034218987
 30
0.0
 11
155.3942192984
 21
69.8485335301
 31
0.0
  0
LINE
  5
B4
330
1F
100
AcDbEntity
  8
0
  6
Continuous
 62
     7
370
    25
100
AcDbLine
 10
155.3942192984
 20
77.8485335301
 30
0.0
 11
155.3942192984
 21
73.4034218987
 31
0.0
  0
LINE
  5
B5
330
1F
100
AcDbEntity
  8
0
  6
Continuous
 62
     7
370
    25
100
AcDbLine
 10
151.3942192984
 20
73.4034218987
 30
0.0
 11
151.3942192984
 21
69.8485335301
 31
0.0
  0
LINE
  5
B6
330
1F
100
AcDbEntity
  8
0
  6
Continuous
 62
     7
370
    25
100
AcDbLine
 10
151.3942192984
 20
77.8485335301
 30
0.0
 11
151.3942192984
 21
73.4034218987
 31
0.0
  0
LINE
  5
B7
330
1F
100
AcDbEntity
  8
0
  6
Continuous
 62
     7
370
    25
100
AcDbLine
 10
147.3942192984
 20
73.4034218987
 30
0.0
 11
147.3942192984
 21
69.8485335301
 31
0.0
  0
LINE
  5
B8
330
1F
100
AcDbEntity
  8
0
  6
Continuous
 62
     7
370
    25
100
AcDbLine
 10
147.3942192984
 20
77.8485335301
 30
0.0
 11
147.3942192984
 21
73.4034218987
 31
0.0
  0
LINE
  5
B9
330
1F
100
AcDbEntity
  8
0
  6
Continuous
 62
     7
370
    25
100
AcDbLine
 10
137.8942192984
 20
73.5548735738
 30
0.0
 11
137.8942192984
 21
76.4875115803
 31
0.0
  0
LINE
  5
BA
330
1F
100
AcDbEntity
  8
0
  6
Continuous
 62
     7
370
    25
100
AcDbLine
 10
137.8942192984
 20
71.2095554799
 30
0.0
 11
137.8942192984
 21
73.5548735738
 31
0.0
  0
LINE
  5
BB
330
1F
100
AcDbEntity
  8
0
  6
Continuous
 62
     7
370
    25
100
AcDbLine
 10
170.3406294599
 20
69.2297313766
 30
0.0
 11
170.3942192984
 21
69.6439774762
 31
0.0
  0
LINE
  5
BC
330
1F
100
AcDbEntity
  8
0
  6
Continuous
 62
     7
370
    25
100
AcDbLine
 10
170.3942192984
 20
69.6439774762
 30
0.0
 11
170.3942192984
 21
69.0226083268
 31
0.0
  0
LINE
  5
BD
330
1F
100
AcDbEntity
  8
0
  6
Continuous
 62
     7
370
    25
100
AcDbLine
 10
170.3942192984
 20
69.0226083268
 30
0.0
 11
170.3406294599
 21
69.2297313766
 31
0.0
  0
SPLINE
  5
BE
330
1F
100
AcDbEntity
  8
0
  6
Continuous
 62
     7
370
    25
100
AcDbSpline
210
0.0
220
0.0
230
1.0
 70
     8
 71
     3
 72
    12
 73
     8
 74
     0
 42
0.00000001
 43
0.00000001
 40
0.0
 40
0.0
 40
0.0
 40
0.0
 40
0.2645357324841767
 40
0.3998137210612348
 40
0.5350672982154578
 40
0.7654034360362891
 40
1.0
 40
1.0
 40
1.0
 40
1.0
 10
174.0930855782341
 20
69.22973137658627
 30
0.0
 10
174.3001830008273
 20
68.82889675825429
 30
0.0
 10
174.6131856729868
 20
68.22308377873532
 30
0.0
 10
174.7932108111735
 20
67.39034007695827
 30
0.0
 10
174.829718901091
 20
66.60749226259475
 30
0.0
 10
174.6448231388567
 20
65.6695225007896
 30
0.0
 10
174.2781182026995
 20
64.96594274108506
 30
0.0
 10
174.0930855782341
 20
64.61092922306929
 30
0.0
  0
SPLINE
  5
BF
330
1F
100
AcDbEntity
  8
0
  6
Continuous
 62
     7
370
    25
100
AcDbSpline
210
0.0
220
0.0
230
1.0
 70
     8
 71
     3
 72
    14
 73
    10
 74
     0
 42
0.00000001
 43
0.00000001
 40
0.0
 40
0.0
 40
0.0
 40
0.0
 40
0.191215689056541
 40
0.3842607734904396
 40
0.5102055247845747
 40
0.6361523096967547
 40
0.765454570798929
 40
0.8947932191925942
 40
1.0
 40
1.0
 40
1.0
 40
1.0
 10
174.0930855782341
 20
78.4673356836203
 30
0.0
 10
174.2466181335812
 20
77.88938815841814
 30
0.0
 10
174.5551521182387
 20
76.72796377861523
 30
0.0
 10
174.7735679822622
 20
75.14329371899004
 30
0.0
 10
174.8235703916699
 20
73.75233440885172
 30
0.0
 10
174.7651407471676
 20
72.56080789834235
 30
0.0
 10
174.6047611932596
 20
71.36844183659497
 30
0.0
 10
174.375448708438
 20
70.25353526875554
 30
0.0
 10
174.1805214066772
 20
69.54675981231163
 30
0.0
 10
174.0930855782341
 20
69.22973137658627
 30
0.0
  0
SPLINE
  5
C0
330
1F
100
AcDbEntity
  8
0
  6
Continuous
 62
     7
370
    25
100
AcDbSpline
210
0.0
220
0.0
230
1.0
 70
     8
 71
     3
 72
    12
 73
     8
 74
     0
 42
0.00000001
 43
0.00000001
 40
0.0
 40
0.0
 40
0.0
 40
0.0
 40
0.2645357324841768
 40
0.3998137210612349
 40
0.5350672982154578
 40
0.7654034360362892
 40
1.0
 40
1.0
 40
1.0
 40
1.0
 10
174.0930855782341
 20
83.08613783713734
 30
0.0
 10
174.3001830008273
 20
82.68530321880534
 30
0.0
 10
174.6131856729868
 20
82.07949023928637
 30
0.0
 10
174.7932108111735
 20
81.24674653750931
 30
0.0
 10
174.829718901091
 20
80.46389872314577
 30
0.0
 10
174.6448231388567
 20
79.52592896134063
 30
0.0
 10
174.2781182026995
 20
78.82234920163607
 30
0.0
 10
174.0930855782341
 20
78.4673356836203
 30
0.0
  0
LINE
  5
C1
330
1F
100
AcDbEntity
  8
0
  6
Continuous
 62
     7
370
    25
100
AcDbLine
 10
174.8942192984
 20
81.6985335301
 30
0.0
 11
174.8942192984
 21
65.9985335301
 31
0.0
  0
LINE
  5
C2
330
1F
100
AcDbEntity
  8
0
  6
Continuous
 62
     7
370
    25
100
AcDbLine
 10
170.3942192984
 20
69.6439774762
 30
0.0
 11
170.4478091369
 21
69.2297313766
 31
0.0
  0
LINE
  5
C3
330
1F
100
AcDbEntity
  8
0
  6
Continuous
 62
     7
370
    25
100
AcDbLine
 10
170.4478091369
 20
69.2297313766
 30
0.0
 11
170.3942192984
 21
69.0226083268
 31
0.0
  0
LINE
  5
C4
330
1F
100
AcDbEntity
  8
0
  6
Continuous
 62
     7
370
    25
100
AcDbLine
 10
174.0930855782
 20
83.0861378371
 30
0.0
 11
170.4478091369
 21
83.0861378371
 31
0.0
  0
LINE
  5
C5
330
1F
100
AcDbEntity
  8
0
  6
Continuous
 62
     7
370
    25
100
AcDbLine
 10
174.0930855782
 20
78.4673356836
 30
0.0
 11
170.4478091369
 21
78.4673356836
 31
0.0
  0
LINE
  5
C6
330
1F
100
AcDbEntity
  8
0
  6
Continuous
 62
     7
370
    25
100
AcDbLine
 10
170.3942192984
 20
78.6744587334
 30
0.0
 11
170.4478091369
 21
78.4673356836
 31
0.0
  0
LINE
  5
C7
330
1F
100
AcDbEntity
  8
0
  6
Continuous
 62
     7
370
    25
100
AcDbLine
 10
170.3406294599
 20
78.4673356836
 30
0.0
 11
170.3942192984
 21
78.6744587334
 31
0.0
  0
LINE
  5
C8
330
1F
100
AcDbEntity
  8
0
  6
Continuous
 62
     7
370
    25
100
AcDbLine
 10
170.3406294599
 20
78.4673356836
 30
0.0
 11
166.6953530186
 21
78.4673356836
 31
0.0
  0
SPLINE
  5
C9
330
1F
100
AcDbEntity
  8
0
  6
Continuous
 62
     7
370
    25
100
AcDbSpline
210
0.0
220
0.0
230
1.0
 70
     8
 71
     3
 72
    12
 73
     8
 74
     0
 42
0.00000001
 43
0.00000001
 40
0.0
 40
0.0
 40
0.0
 40
0.0
 40
0.2645357324841768
 40
0.3998137210612349
 40
0.5350672982154578
 40
0.7654034360362892
 40
1.0
 40
1.0
 40
1.0
 40
1.0
 10
166.6953530186236
 20
83.08613783713734
 30
0.0
 10
166.4882555960304
 20
82.68530321880534
 30
0.0
 10
166.175252923871
 20
82.07949023928637
 30
0.0
 10
165.9952277856842
 20
81.24674653750931
 30
0.0
 10
165.9587196957667
 20
80.46389872314577
 30
0.0
 10
166.1436154580011
 20
79.52592896134063
 30
0.0
 10
166.5103203941582
 20
78.82234920163607
 30
0.0
 10
166.6953530186236
 20
78.4673356836203
 30
0.0
  0
LINE
  5
CA
330
1F
100
AcDbEntity
  8
0
  6
Continuous
 62
     7
370
    25
100
AcDbLine
 10
170.3406294599
 20
83.0861378371
 30
0.0
 11
166.6953530186
 21
83.0861378371
 31
0.0
  0
LINE
  5
CB
330
1F
100
AcDbEntity
  8
0
  6
Continuous
 62
     7
370
    25
100
AcDbLine
 10
170.3942192984
 20
82.8790147873
 30
0.0
 11
170.3406294599
 21
83.0861378371
 31
0.0
  0
LINE
  5
CC
330
1F
100
AcDbEntity
  8
0
  6
Continuous
 62
     7
370
    25
100
AcDbLine
 10
170.4478091369
 20
83.0861378371
 30
0.0
 11
170.3942192984
 21
82.8790147873
 31
0.0
  0
LINE
  5
CD
330
1F
100
AcDbEntity
  8
0
  6
Continuous
 62
     7
370
    25
100
AcDbLine
 10
170.4478091369
 20
78.4673356836
 30
0.0
 11
170.3942192984
 21
78.053089584
 31
0.0
  0
LINE
  5
CE
330
1F
100
AcDbEntity
  8
0
  6
Continuous
 62
     7
370
    25
100
AcDbLine
 10
170.3942192984
 20
78.6744587334
 30
0.0
 11
170.3942192984
 21
78.053089584
 31
0.0
  0
LINE
  5
CF
330
1F
100
AcDbEntity
  8
0
  6
Continuous
 62
     7
370
    25
100
AcDbLine
 10
170.3942192984
 20
78.053089584
 30
0.0
 11
170.3406294599
 21
78.4673356836
 31
0.0
  0
LINE
  5
D0
330
1F
100
AcDbEntity
  8
0
  6
Continuous
 62
     7
370
    25
100
AcDbLine
 10
174.0930855782
 20
69.2297313766
 30
0.0
 11
170.4478091369
 21
69.2297313766
 31
0.0
  0
LINE
  5
D1
330
1F
100
AcDbEntity
  8
0
  6
Continuous
 62
     7
370
    25
100
AcDbLine
 10
170.3406294599
 20
69.2297313766
 30
0.0
 11
166.6953530186
 21
69.2297313766
 31
0.0
  0
SPLINE
  5
D2
330
1F
100
AcDbEntity
  8
0
  6
Continuous
 62
     7
370
    25
100
AcDbSpline
210
0.0
220
0.0
230
1.0
 70
     8
 71
     3
 72
    14
 73
    10
 74
     0
 42
0.00000001
 43
0.00000001
 40
0.0
 40
0.0
 40
0.0
 40
0.0
 40
0.191215689056541
 40
0.3842607734904396
 40
0.5102055247845747
 40
0.6361523096967547
 40
0.765454570798929
 40
0.8947932191925942
 40
1.0
 40
1.0
 40
1.0
 40
1.0
 10
166.6953530186236
 20
78.4673356836203
 30
0.0
 10
166.5418204632766
 20
77.88938815841814
 30
0.0
 10
166.2332864786191
 20
76.72796377861523
 30
0.0
 10
166.0148706145956
 20
75.14329371899004
 30
0.0
 10
165.9648682051878
 20
73.75233440885172
 30
0.0
 10
166.0232978496901
 20
72.56080789834235
 30
0.0
 10
166.1836774035982
 20
71.36844183659497
 30
0.0
 10
166.4129898884198
 20
70.25353526875554
 30
0.0
 10
166.6079171901806
 20
69.54675981231163
 30
0.0
 10
166.6953530186236
 20
69.22973137658627
 30
0.0
  0
SPLINE
  5
D3
330
1F
100
AcDbEntity
  8
0
  6
Continuous
 62
     7
370
    25
100
AcDbSpline
210
0.0
220
0.0
230
1.0
 70
     8
 71
     3
 72
    12
 73
     8
 74
     0
 42
0.00000001
 43
0.00000001
 40
0.0
 40
0.0
 40
0.0
 40
0.0
 40
0.2645357324841767
 40
0.3998137210612348
 40
0.5350672982154578
 40
0.7654034360362891
 40
1.0
 40
1.0
 40
1.0
 40
1.0
 10
166.6953530186236
 20
69.22973137658627
 30
0.0
 10
166.4882555960304
 20
68.82889675825429
 30
0.0
 10
166.175252923871
 20
68.22308377873532
 30
0.0
 10
165.9952277856842
 20
67.39034007695827
 30
0.0
 10
165.9587196957667
 20
66.60749226259475
 30
0.0
 10
166.1436154580011
 20
65.6695225007896
 30
0.0
 10
166.5103203941582
 20
64.96594274108506
 30
0.0
 10
166.6953530186236
 20
64.61092922306929
 30
0.0
  0
LINE
  5
D4
330
1F
100
AcDbEntity
  8
0
  6
Continuous
 62
     7
370
    25
100
AcDbLine
 10
165.8942192984
 20
81.6985335301
 30
0.0
 11
165.8942192984
 21
65.9985335301
 31
0.0
  0
LINE
  5
D5
330
1F
100
AcDbEntity
  8
0
  6
Continuous
 62
     7
370
    25
100
AcDbLine
 10
174.0930855782
 20
64.6109292231
 30
0.0
 11
170.4478091369
 21
64.6109292231
 31
0.0
  0
LINE
  5
D6
330
1F
100
AcDbEntity
  8
0
  6
Continuous
 62
     7
370
    25
100
AcDbLine
 10
170.3942192984
 20
64.8180522729
 30
0.0
 11
170.4478091369
 21
64.6109292231
 31
0.0
  0
LINE
  5
D7
330
1F
100
AcDbEntity
  8
0
  6
Continuous
 62
     7
370
    25
100
AcDbLine
 10
170.3406294599
 20
64.6109292231
 30
0.0
 11
170.3942192984
 21
64.8180522729
 31
0.0
  0
LINE
  5
D8
330
1F
100
AcDbEntity
  8
0
  6
Continuous
 62
     7
370
    25
100
AcDbLine
 10
170.3406294599
 20
64.6109292231
 30
0.0
 11
166.6953530186
 21
64.6109292231
 31
0.0
  0
LINE
  5
D9
330
1F
100
AcDbEntity
  8
0
  6
Continuous
 62
     7
370
    25
100
AcDbLine
 10
176.8942192984
 20
81.3985335301
 30
0.0
 11
176.8942192984
 21
66.2985335301
 31
0.0
  0
LINE
  5
DA
330
1F
100
AcDbEntity
  8
0
  6
Continuous
 62
     7
370
    25
100
AcDbLine
 10
163.8942192984
 20
73.8485335301
 30
0.0
 11
163.8942192984
 21
81.3985335301
 31
0.0
  0
LINE
  5
DB
330
1F
100
AcDbEntity
  8
0
  6
Continuous
 62
     7
370
    25
100
AcDbLine
 10
163.8942192984
 20
66.2985335301
 30
0.0
 11
163.8942192984
 21
73.8485335301
 31
0.0
  0
LINE
  5
DC
330
1F
100
AcDbEntity
  8
0
  6
Continuous
 62
     7
370
    25
100
AcDbLine
 10
170.3942192984
 20
82.8861378371
 30
0.0
 11
170.3942192984
 21
82.8790147873
 31
0.0
  0
LINE
  5
DD
330
1F
100
AcDbEntity
  8
0
  6
Continuous
 62
     7
370
    25
100
AcDbLine
 10
170.3942192984
 20
64.8180522729
 30
0.0
 11
170.3942192984
 21
64.8109292231
 31
0.0
  0
LINE
  5
DE
330
1F
100
AcDbEntity
  8
0
  6
Continuous
 62
     7
370
    25
100
AcDbLine
 10
191.0977328862
 20
84.3485335301
 30
0.0
 11
200.0977328862
 21
84.3485335301
 31
0.0
  0
LINE
  5
DF
330
1F
100
AcDbEntity
  8
0
  6
Continuous
 62
     7
370
    25
100
AcDbLine
 10
191.0977328862
 20
84.3863504539
 30
0.0
 11
191.0977328862
 21
84.3485335301
 31
0.0
  0
SPLINE
  5
E0
330
1F
100
AcDbEntity
  8
0
  6
Continuous
 62
     7
370
    25
100
AcDbSpline
210
0.0
220
0.0
230
1.0
 70
     8
 71
     3
 72
     9
 73
     5
 74
     0
 42
0.00000001
 43
0.00000001
 40
0.0
 40
0.0
 40
0.0
 40
0.0
 40
0.4875141023677128
 40
0.9999999999999999
 40
0.9999999999999999
 40
0.9999999999999999
 40
0.9999999999999999
 10
190.9417876357317
 20
84.34853353010332
 30
0.0
 10
190.9680942096544
 20
84.35026087607503
 30
0.0
 10
191.0220548516026
 20
84.35380404736651
 30
0.0
 10
191.0720903822973
 20
84.37532253331581
 30
0.0
 10
191.097732886159
 20
84.38635045390325
 30
0.0
  0
SPLINE
  5
E1
330
1F
100
AcDbEntity
  8
0
  6
Continuous
 62
     7
370
    25
100
AcDbSpline
210
0.0
220
0.0
230
1.0
 70
     8
 71
     3
 72
    17
 73
    13
 74
     0
 42
0.00000001
 43
0.00000001
 40
0.0
 40
0.0
 40
0.0
 40
0.0
 40
0.3241697628029873
 40
0.5422758463620719
 40
0.689509052693928
 40
0.7894036290694505
 40
0.8577090008137825
 40
0.9049823971474137
 40
0.9551712229700868
 40
0.9753097783197817
 40
0.9919572060138848
 40
1.0
 40
1.0
 40
1.0
 40
1.0
 10
188.6231860020768
 20
92.3485335301009
 30
0.0
 10
188.765901362094
 20
91.43592002749521
 30
0.0
 10
189.004637671036
 20
89.90928702123388
 30
0.0
 10
189.3842248654876
 20
87.9825141189529
 30
0.0
 10
189.6933590738347
 20
86.69487864802014
 30
0.0
 10
189.9494726020348
 20
85.8357266812984
 30
0.0
 10
190.1637836049298
 20
85.262258792921
 30
0.0
 10
190.3670178259577
 20
84.84072663889103
 30
0.0
 10
190.5515630905003
 20
84.5602340960956
 30
0.0
 10
190.7376341768684
 20
84.40468542751493
 30
0.0
 10
190.8528447761244
 20
84.35407482831744
 30
0.0
 10
190.9199335815972
 20
84.34989507651281
 30
0.0
 10
190.9417876357317
 20
84.34853353010332
 30
0.0
  0
LINE
  5
E2
330
1F
100
AcDbEntity
  8
0
  6
Continuous
 62
     7
370
    25
100
AcDbLine
 10
188.6231860021
 20
92.3485335301
 30
0.0
 11
200.5477328862
 21
92.3485335301
 31
0.0
  0
LINE
  5
E3
330
1F
100
AcDbEntity
  8
0
  6
Continuous
 62
     7
370
    25
100
AcDbLine
 10
189.3833967578
 20
93.3432771081
 30
0.0
 11
188.6231860021
 21
92.3485335301
 31
0.0
  0
LINE
  5
E4
330
1F
100
AcDbEntity
  8
0
  6
Continuous
 62
     7
370
    25
100
AcDbLine
 10
187.8739307118
 20
100.3485335301
 30
0.0
 11
186.1457920478
 21
93.3432771081
 31
0.0
  0
LINE
  5
E5
330
1F
100
AcDbEntity
  8
0
  6
Continuous
 62
     7
370
    25
100
AcDbLine
 10
198.3368182188
 20
100.3485335301
 30
0.0
 11
187.8739307118
 21
100.3485335301
 31
0.0
  0
SPLINE
  5
E6
330
1F
100
AcDbEntity
  8
0
  6
Continuous
 62
     7
370
    25
100
AcDbSpline
210
0.0
220
0.0
230
1.0
 70
     8
 71
     3
 72
    14
 73
    10
 74
     0
 42
0.00000001
 43
0.00000001
 40
0.0
 40
0.0
 40
0.0
 40
0.0
 40
0.1576095309202821
 40
0.3152382602707094
 40
0.4726926441579496
 40
0.6301650083177253
 40
0.7907313191165902
 40
0.9513050385928076
 40
1.0
 40
1.0
 40
1.0
 40
1.0
 10
186.597732886159
 20
84.34853353010327
 30
0.0
 10
186.531161871377
 20
84.56203531858067
 30
0.0
 10
186.398011732792
 20
84.98906490220618
 30
0.0
 10
186.0694447710413
 20
85.57431198106248
 30
0.0
 10
185.6560551303093
 20
86.0964665218849
 30
0.0
 10
185.1603802113646
 20
86.54544464930477
 30
0.0
 10
184.5940905060801
 20
86.90472638111116
 30
0.0
 10
184.1178398496871
 20
87.10929256021234
 30
0.0
 10
183.8376452814943
 20
87.19008710856365
 30
0.0
 10
183.7724464967213
 20
87.20888728161042
 30
0.0
  0
LINE
  5
E7
330
1F
100
AcDbEntity
  8
0
  6
Continuous
 62
     7
370
    25
100
AcDbLine
 10
183.7724464967
 20
87.2088872816
 30
0.0
 11
177.9926896469
 21
88.7775087221
 31
0.0
  0
SPLINE
  5
E8
330
1F
100
AcDbEntity
  8
0
  6
Continuous
 62
     7
370
    25
100
AcDbSpline
210
0.0
220
0.0
230
1.0
 70
     8
 71
     3
 72
     9
 73
     5
 74
     0
 42
0.00000001
 43
0.00000001
 40
0.0
 40
0.0
 40
0.0
 40
0.0
 40
0.497693137079144
 40
1.0
 40
1.0
 40
1.0
 40
1.0
 10
170.9222960246223
 20
90.10070922307881
 30
0.0
 10
172.1109329884036
 20
89.95126234207837
 30
0.0
 10
174.4992258444334
 20
89.6509831743215
 30
0.0
 10
176.8246254606213
 20
89.06956104693404
 30
0.0
 10
177.992689646866
 20
88.77750872209329
 30
0.0
  0
LINE
  5
E9
330
1F
100
AcDbEntity
  8
0
  6
Continuous
 62
     7
370
    25
100
AcDbLine
 10
170.9222960246
 20
90.1007092231
 30
0.0
 11
170.9222960246
 21
93.3432771081
 31
0.0
  0
LINE
  5
EA
330
1F
100
AcDbEntity
  8
0
  6
Continuous
 62
     7
370
    25
100
AcDbLine
 10
170.9222960246
 20
93.3432771081
 30
0.0
 11
189.3833967578
 21
93.3432771081
 31
0.0
  0
LINE
  5
EB
330
1F
100
AcDbEntity
  8
0
  6
Continuous
 62
     7
370
    25
100
AcDbLine
 10
190.9417876357
 20
84.3485335301
 30
0.0
 11
186.5977328862
 21
84.3485335301
 31
0.0
  0
LINE
  5
EC
330
1F
100
AcDbEntity
  8
0
  6
Continuous
 62
     7
370
    25
100
AcDbLine
 10
191.0977328862
 20
84.3863504539
 30
0.0
 11
191.0909335282
 21
84.3485335301
 31
0.0
  0
LINE
  5
ED
330
1F
100
AcDbEntity
  8
0
  6
Continuous
 62
     7
370
    25
100
AcDbLine
 10
191.0977328862
 20
84.3485335301
 30
0.0
 11
191.0909335282
 21
84.3485335301
 31
0.0
  0
LINE
  5
EE
330
1F
100
AcDbEntity
  8
0
  6
Continuous
 62
     7
370
    25
100
AcDbLine
 10
191.0909335282
 20
84.3485335301
 30
0.0
 11
190.9417876357
 21
84.3485335301
 31
0.0
  0
LINE
  5
EF
330
1F
100
AcDbEntity
  8
0
  6
Continuous
 62
     7
370
    25
100
AcDbLine
 10
153.0977328862
 20
102.3485335301
 30
0.0
 11
170.9222960246
 21
102.3485335301
 31
0.0
  0
LINE
  5
F0
330
1F
100
AcDbEntity
  8
0
  6
Continuous
 62
     7
370
    25
100
AcDbLine
 10
170.9222960246
 20
102.3485335301
 30
0.0
 11
170.9222960246
 21
93.3432771081
 31
0.0
  0
LINE
  5
F1
330
1F
100
AcDbEntity
  8
0
  6
Continuous
 62
     7
370
    25
100
AcDbLine
 10
166.2060650284
 20
90.3485335301
 30
0.0
 11
158.0977328862
 21
90.3485335301
 31
0.0
  0
ARC
  5
F2
330
1F
100
AcDbEntity
  8
0
  6
Continuous
 62
     7
370
    25
100
AcDbCircle
 10
158.0977328862
 20
95.3485335301
 30
0.0
 40
5.0
100
AcDbArc
 50
180.0
 51
270.0
  0
LINE
  5
F3
330
1F
100
AcDbEntity
  8
0
  6
Continuous
 62
     7
370
    25
100
AcDbLine
 10
153.0977328862
 20
95.3485335301
 30
0.0
 11
153.0977328862
 21
102.3485335301
 31
0.0
  0
ARC
  5
F4
330
1F
100
AcDbEntity
  8
0
  6
Continuous
 62
     7
370
    25
100
AcDbCircle
 10
166.2060650284
 20
45.3484042759
 30
0.0
 40
45.00012925418374
100
AcDbArc
 50
83.9840777705
 51
90.0
  0
LINE
  5
F5
330
1F
100
AcDbEntity
  8
0
  6
Continuous
 62
     7
370
    25
100
AcDbLine
 10
170.9222960246
 20
102.3485335301
 30
0.0
 11
173.0977328862
 21
102.3485335301
 31
0.0
  0
LINE
  5
F6
330
1F
100
AcDbEntity
  8
0
  6
Continuous
 62
     7
370
    25
100
AcDbLine
 10
173.0977328862
 20
102.3485335301
 30
0.0
 11
173.0977328862
 21
100.3674890535
 31
0.0
  0
ARC
  5
F7
330
1F
100
AcDbEntity
  8
0
  6
Continuous
 62
     7
370
    25
100
AcDbCircle
 10
179.0977328862
 20
100.3674890535
 30
0.0
 40
6.000000000000005
100
AcDbArc
 50
180.0
 51
275.5801667845
  0
ARC
  5
F8
330
1F
100
AcDbEntity
  8
0
  6
Continuous
 62
     7
370
    25
100
AcDbCircle
 10
178.7087793219
 20
104.3485335301
 30
0.0
 40
10.00000000000847
100
AcDbArc
 50
275.5801667845
 51
336.4218215217
  0
LINE
  5
F9
330
1F
100
AcDbEntity
  8
0
  6
Continuous
 62
     7
370
    25
100
AcDbLine
 10
186.5977328862
 20
84.3485335301
 30
0.0
 11
186.0977328862
 21
84.3485335301
 31
0.0
  0
LINE
  5
FA
330
1F
100
AcDbEntity
  8
0
  6
Continuous
 62
     7
370
    25
100
AcDbLine
 10
187.8586475535
 20
100.3485335301
 30
0.0
 11
187.8739307118
 21
100.3485335301
 31
0.0
  0
LINE
  5
FB
330
1F
100
AcDbEntity
  8
0
  6
Continuous
 62
     7
370
    25
100
AcDbLine
 10
180.0977328862
 20
66.0485335301
 30
0.0
 11
180.0977328862
 21
81.6485335301
 31
0.0
  0
LINE
  5
FC
330
1F
100
AcDbEntity
  8
0
  6
Continuous
 62
     7
370
    25
100
AcDbLine
 10
180.2977328862
 20
81.8485335301
 30
0.0
 11
180.2977328862
 21
65.8485335301
 31
0.0
  0
LINE
  5
FD
330
1F
100
AcDbEntity
  8
0
  6
Continuous
 62
     7
370
    25
100
AcDbLine
 10
185.2157668749
 20
73.8485335301
 30
0.0
 11
185.2157668749
 21
63.8485335301
 31
0.0
  0
LINE
  5
FE
330
1F
100
AcDbEntity
  8
0
  6
Continuous
 62
     7
370
    25
100
AcDbLine
 10
185.2157668749
 20
83.8485335301
 30
0.0
 11
185.2157668749
 21
73.8485335301
 31
0.0
  0
LINE
  5
FF
330
1F
100
AcDbEntity
  8
0
  6
Continuous
 62
     7
370
    25
100
AcDbLine
 10
183.3477328862
 20
73.8485335301
 30
0.0
 11
183.3477328862
 21
63.8485335301
 31
0.0
  0
LINE
  5
100
330
1F
100
AcDbEntity
  8
0
  6
Continuous
 62
     7
370
    25
100
AcDbLine
 10
183.3477328862
 20
83.8485335301
 30
0.0
 11
183.3477328862
 21
73.8485335301
 31
0.0
  0
LINE
  5
101
330
1F
100
AcDbEntity
  8
0
  6
Continuous
 62
     7
370
    25
100
AcDbLine
 10
183.0977328862
 20
73.8485335301
 30
0.0
 11
183.0977328862
 21
83.5985335301
 31
0.0
  0
LINE
  5
102
330
1F
100
AcDbEntity
  8
0
  6
Continuous
 62
     7
370
    25
100
AcDbLine
 10
183.0977328862
 20
64.0985335301
 30
0.0
 11
183.0977328862
 21
73.8485335301
 31
0.0
  0
LINE
  5
103
330
1F
100
AcDbEntity
  8
0
  6
Continuous
 62
     7
370
    25
100
AcDbLine
 10
202.5977328862
 20
63.8485335301
 30
0.0
 11
202.5977328862
 21
83.8485335301
 31
0.0
  0
LINE
  5
104
330
1F
100
AcDbEntity
  8
0
  6
Continuous
 62
     7
370
    25
100
AcDbLine
 10
203.0977328862
 20
83.3485335301
 30
0.0
 11
203.0977328862
 21
64.3485335301
 31
0.0
  0
LINE
  5
105
330
1F
100
AcDbEntity
  8
0
  6
Continuous
 62
     7
370
    25
100
AcDbLine
 10
185.5977328862
 20
82.8485335301
 30
0.0
 11
185.5977328862
 21
79.3485335301
 31
0.0
  0
SPLINE
  5
106
330
1F
100
AcDbEntity
  8
0
  6
Continuous
 62
     7
370
    25
100
AcDbSpline
210
0.0
220
0.0
230
1.0
 70
     8
 71
     3
 72
     8
 73
     4
 74
     0
 42
0.00000001
 43
0.00000001
 40
0.0
 40
0.0
 40
0.0
 40
0.0
 40
1.0
 40
1.0
 40
1.0
 40
1.0
 10
185.500531761505
 20
79.24822338159922
 30
0.0
 10
185.5683681790811
 20
79.27958632261
 30
0.0
 10
185.597732886159
 20
79.31305448325955
 30
0.0
 10
185.597732886159
 20
79.34853353010332
 30
0.0
  0
SPLINE
  5
107
330
1F
100
AcDbEntity
  8
0
  6
Continuous
 62
     7
370
    25
100
AcDbSpline
210
0.0
220
0.0
230
1.0
 70
     8
 71
     3
 72
    12
 73
     8
 74
     0
 42
0.00000001
 43
0.00000001
 40
0.0
 40
0.0
 40
0.0
 40
0.0
 40
0.4999999999999992
 40
0.4999999999999992
 40
0.7499999999999996
 40
0.7499999999999996
 40
1.0
 40
1.0
 40
1.0
 40
1.0
 10
185.500531761505
 20
79.24822338159922
 30
0.0
 10
185.4326620014953
 20
79.21684502531713
 30
0.0
 10
185.3566274502415
 20
79.08313650481857
 30
0.0
 10
185.3099828518645
 20
78.8051103951528
 30
0.0
 10
185.3055438553419
 20
78.69826421114884
 30
0.0
 10
185.3212744691347
 20
78.47138273709308
 30
0.0
 10
185.3411548990771
 20
78.35121376478847
 30
0.0
 10
185.3686468190569
 20
78.22976411997823
 30
0.0
  0
SPLINE
  5
108
330
1F
100
AcDbEntity
  8
0
  6
Continuous
 62
     7
370
    25
100
AcDbSpline
210
0.0
220
0.0
230
1.0
 70
     8
 71
     3
 72
    12
 73
     8
 74
     0
 42
0.00000001
 43
0.00000001
 40
0.0
 40
0.0
 40
0.0
 40
0.0
 40
0.4999999999999998
 40
0.4999999999999998
 40
0.7499999999999999
 40
0.7499999999999999
 40
1.0
 40
1.0
 40
1.0
 40
1.0
 10
185.597732886159
 20
73.84853353010331
 30
0.0
 10
185.597732886159
 20
74.58249055226052
 30
0.0
 10
185.6022902811582
 20
75.31546899662335
 30
0.0
 10
185.5751066167789
 20
76.41229310956976
 30
0.0
 10
185.5596569458617
 20
76.77744069814018
 30
0.0
 10
185.4967933443299
 20
77.50622871200423
 30
0.0
 10
185.4497634211616
 20
77.87141946740256
 30
0.0
 10
185.3686468190569
 20
78.22976411997823
 30
0.0
  0
SPLINE
  5
109
330
1F
100
AcDbEntity
  8
0
  6
Continuous
 62
     7
370
    25
100
AcDbSpline
210
0.0
220
0.0
230
1.0
 70
     8
 71
     3
 72
    12
 73
     8
 74
     0
 42
0.00000001
 43
0.00000001
 40
0.0
 40
0.0
 40
0.0
 40
0.0
 40
0.2500000000000001
 40
0.2500000000000001
 40
0.5000000000000002
 40
0.5000000000000002
 40
1.0
 40
1.0
 40
1.0
 40
1.0
 10
185.3686468190569
 20
69.46730294022842
 30
0.0
 10
185.4497634211616
 20
69.8256475928041
 30
0.0
 10
185.4967933443299
 20
70.19083834820242
 30
0.0
 10
185.5596569458617
 20
70.91962636206647
 30
0.0
 10
185.5751066167789
 20
71.2847739506369
 30
0.0
 10
185.6022902811582
 20
72.38159806358331
 30
0.0
 10
185.597732886159
 20
73.11457650794611
 30
0.0
 10
185.597732886159
 20
73.84853353010332
 30
0.0
  0
SPLINE
  5
10A
330
1F
100
AcDbEntity
  8
0
  6
Continuous
 62
     7
370
    25
100
AcDbSpline
210
0.0
220
0.0
230
1.0
 70
     8
 71
     3
 72
    14
 73
    10
 74
     0
 42
0.00000001
 43
0.00000001
 40
0.0
 40
0.0
 40
0.0
 40
0.0
 40
0.25
 40
0.25
 40
0.5
 40
0.5
 40
0.75
 40
0.75
 40
1.0
 40
1.0
 40
1.0
 40
1.0
 10
185.3686468190569
 20
69.46730294022842
 30
0.0
 10
185.3411258313118
 20
69.3457248842427
 30
0.0
 10
185.3212059094754
 20
69.22520014721759
 30
0.0
 10
185.3055388676574
 20
68.99822388810948
 30
0.0
 10
185.3100306994697
 20
68.8912539105433
 30
0.0
 10
185.3412870447533
 20
68.70578835876357
 30
0.0
 10
185.367659628135
 20
68.62690309764474
 30
0.0
 10
185.4304961792793
 20
68.50626530647163
 30
0.0
 10
185.4665357581394
 20
68.46456111602903
 30
0.0
 10
185.500531761505
 20
68.44884367860743
 30
0.0
  0
SPLINE
  5
10B
330
1F
100
AcDbEntity
  8
0
  6
Continuous
 62
     7
370
    25
100
AcDbSpline
210
0.0
220
0.0
230
1.0
 70
     8
 71
     3
 72
     8
 73
     4
 74
     0
 42
0.00000001
 43
0.00000001
 40
0.0
 40
0.0
 40
0.0
 40
0.0
 40
1.0
 40
1.0
 40
1.0
 40
1.0
 10
185.597732886159
 20
68.34853353010332
 30
0.0
 10
185.597732886159
 20
68.3840125769471
 30
0.0
 10
185.5683681790811
 20
68.41748073759665
 30
0.0
 10
185.500531761505
 20
68.44884367860743
 30
0.0
  0
LINE
  5
10C
330
1F
100
AcDbEntity
  8
0
  6
Continuous
 62
     7
370
    25
100
AcDbLine
 10
185.5977328862
 20
68.3485335301
 30
0.0
 11
185.5977328862
 21
64.8485335301
 31
0.0
  0
LINE
  5
10D
330
1F
100
AcDbEntity
  8
0
  6
Continuous
 62
     7
370
    25
100
AcDbLine
 10
200.9796988974
 20
63.8485335301
 30
0.0
 11
200.9796988974
 21
83.8485335301
 31
0.0
  0
SPLINE
  5
10E
330
1F
100
AcDbEntity
  8
0
  6
Continuous
 62
     7
370
    25
100
AcDbSpline
210
0.0
220
0.0
230
1.0
 70
     8
 71
     3
 72
     8
 73
     4
 74
     0
 42
0.00000001
 43
0.00000001
 40
0.0
 40
0.0
 40
0.0
 40
0.0
 40
1.0
 40
1.0
 40
1.0
 40
1.0
 10
200.6949340108129
 20
68.44884367860743
 30
0.0
 10
200.6270975932368
 20
68.41748073759665
 30
0.0
 10
200.597732886159
 20
68.3840125769471
 30
0.0
 10
200.597732886159
 20
68.34853353010332
 30
0.0
  0
SPLINE
  5
10F
330
1F
100
AcDbEntity
  8
0
  6
Continuous
 62
     7
370
    25
100
AcDbSpline
210
0.0
220
0.0
230
1.0
 70
     8
 71
     3
 72
    12
 73
     8
 74
     0
 42
0.00000001
 43
0.00000001
 40
0.0
 40
0.0
 40
0.0
 40
0.0
 40
0.5000000000000001
 40
0.5000000000000001
 40
0.75
 40
0.75
 40
1.0
 40
1.0
 40
1.0
 40
1.0
 10
200.6949340108129
 20
68.44884367860743
 30
0.0
 10
200.7628037708227
 20
68.48022203488954
 30
0.0
 10
200.8388383220764
 20
68.61393055538807
 30
0.0
 10
200.8854829204534
 20
68.89195666505387
 30
0.0
 10
200.8899219169761
 20
68.99880284905782
 30
0.0
 10
200.8741913031832
 20
69.22568432311355
 30
0.0
 10
200.8543108732408
 20
69.34585329541818
 30
0.0
 10
200.826818953261
 20
69.46730294022842
 30
0.0
  0
SPLINE
  5
110
330
1F
100
AcDbEntity
  8
0
  6
Continuous
 62
     7
370
    25
100
AcDbSpline
210
0.0
220
0.0
230
1.0
 70
     8
 71
     3
 72
    12
 73
     8
 74
     0
 42
0.00000001
 43
0.00000001
 40
0.0
 40
0.0
 40
0.0
 40
0.0
 40
0.5
 40
0.5
 40
0.75
 40
0.75
 40
1.0
 40
1.0
 40
1.0
 40
1.0
 10
200.597732886159
 20
73.84853353010332
 30
0.0
 10
200.597732886159
 20
73.11457650794611
 30
0.0
 10
200.5931754911597
 20
72.38159806358331
 30
0.0
 10
200.620359155539
 20
71.2847739506369
 30
0.0
 10
200.6358088264562
 20
70.91962636206647
 30
0.0
 10
200.698672427988
 20
70.19083834820242
 30
0.0
 10
200.7457023511564
 20
69.8256475928041
 30
0.0
 10
200.826818953261
 20
69.46730294022842
 30
0.0
  0
SPLINE
  5
111
330
1F
100
AcDbEntity
  8
0
  6
Continuous
 62
     7
370
    25
100
AcDbSpline
210
0.0
220
0.0
230
1.0
 70
     8
 71
     3
 72
    12
 73
     8
 74
     0
 42
0.00000001
 43
0.00000001
 40
0.0
 40
0.0
 40
0.0
 40
0.0
 40
0.25
 40
0.25
 40
0.5
 40
0.5
 40
1.0
 40
1.0
 40
1.0
 40
1.0
 10
200.826818953261
 20
78.22976411997823
 30
0.0
 10
200.7457023511564
 20
77.87141946740256
 30
0.0
 10
200.698672427988
 20
77.50622871200423
 30
0.0
 10
200.6358088264562
 20
76.77744069814018
 30
0.0
 10
200.620359155539
 20
76.41229310956976
 30
0.0
 10
200.5931754911597
 20
75.31546899662335
 30
0.0
 10
200.597732886159
 20
74.58249055226054
 30
0.0
 10
200.597732886159
 20
73.84853353010331
 30
0.0
  0
SPLINE
  5
112
330
1F
100
AcDbEntity
  8
0
  6
Continuous
 62
     7
370
    25
100
AcDbSpline
210
0.0
220
0.0
230
1.0
 70
     8
 71
     3
 72
    14
 73
    10
 74
     0
 42
0.00000001
 43
0.00000001
 40
0.0
 40
0.0
 40
0.0
 40
0.0
 40
0.25
 40
0.25
 40
0.5
 40
0.5
 40
0.75
 40
0.75
 40
1.0
 40
1.0
 40
1.0
 40
1.0
 10
200.826818953261
 20
78.22976411997823
 30
0.0
 10
200.8543399410061
 20
78.35134217596394
 30
0.0
 10
200.8742598628425
 20
78.47186691298907
 30
0.0
 10
200.8899269046605
 20
78.69884317209717
 30
0.0
 10
200.8854350728482
 20
78.80581314966335
 30
0.0
 10
200.8541787275646
 20
78.99127870144308
 30
0.0
 10
200.8278061441829
 20
79.07016396256192
 30
0.0
 10
200.7649695930386
 20
79.19080175373502
 30
0.0
 10
200.7289300141785
 20
79.23250594417762
 30
0.0
 10
200.6949340108129
 20
79.24822338159923
 30
0.0
  0
SPLINE
  5
113
330
1F
100
AcDbEntity
  8
0
  6
Continuous
 62
     7
370
    25
100
AcDbSpline
210
0.0
220
0.0
230
1.0
 70
     8
 71
     3
 72
     8
 73
     4
 74
     0
 42
0.00000001
 43
0.00000001
 40
0.0
 40
0.0
 40
0.0
 40
0.0
 40
1.0
 40
1.0
 40
1.0
 40
1.0
 10
200.597732886159
 20
79.34853353010332
 30
0.0
 10
200.597732886159
 20
79.31305448325955
 30
0.0
 10
200.6270975932368
 20
79.27958632261
 30
0.0
 10
200.6949340108129
 20
79.24822338159922
 30
0.0
  0
LINE
  5
114
330
1F
100
AcDbEntity
  8
0
  6
Continuous
 62
     7
370
    25
100
AcDbLine
 10
200.5977328862
 20
79.3485335301
 30
0.0
 11
200.5977328862
 21
82.8485335301
 31
0.0
  0
LINE
  5
115
330
1F
100
AcDbEntity
  8
0
  6
Continuous
 62
     7
370
    25
100
AcDbLine
 10
200.5977328862
 20
64.8485335301
 30
0.0
 11
200.5977328862
 21
68.3485335301
 31
0.0
  0
LINE
  5
116
330
1F
100
AcDbEntity
  8
0
  6
Continuous
 62
     7
370
    25
100
AcDbLine
 10
200.5977328862
 20
73.8485335301
 30
0.0
 11
200.0977328862
 21
73.8485335301
 31
0.0
  0
SPLINE
  5
117
330
1F
100
AcDbEntity
  8
0
  6
Continuous
 62
     7
370
    25
100
AcDbSpline
210
0.0
220
0.0
230
1.0
 70
     8
 71
     3
 72
    14
 73
    10
 74
     0
 42
0.00000001
 43
0.00000001
 40
0.0
 40
0.0
 40
0.0
 40
0.0
 40
0.2499999999999999
 40
0.2499999999999999
 40
0.4999999999999999
 40
0.4999999999999999
 40
0.7499999999999999
 40
0.7499999999999999
 40
1.0
 40
1.0
 40
1.0
 40
1.0
 10
200.097732886159
 20
73.84853353010331
 30
0.0
 10
200.097732886159
 20
74.22505024219029
 30
0.0
 10
200.0973236244393
 20
74.60158629981925
 30
0.0
 10
200.1006349725452
 20
75.35446319866784
 30
0.0
 10
200.1043984580099
 20
75.7308020131832
 30
0.0
 10
200.1301717137896
 20
76.48261715189832
 30
0.0
 10
200.1520898084681
 20
76.85809780954733
 30
0.0
 10
200.2373074716534
 20
77.60710304881601
 30
0.0
 10
200.3006204578043
 20
77.98271096425748
 30
0.0
 10
200.4031809756283
 20
78.34853353010332
 30
0.0
  0
LINE
  5
118
330
1F
100
AcDbEntity
  8
0
  6
Continuous
 62
     7
370
    25
100
AcDbLine
 10
200.8268189533
 20
78.22976412
 30
0.0
 11
200.4031809756
 21
78.3485335301
 31
0.0
  0
SPLINE
  5
119
330
1F
100
AcDbEntity
  8
0
  6
Continuous
 62
     7
370
    25
100
AcDbSpline
210
0.0
220
0.0
230
1.0
 70
     8
 71
     3
 72
    14
 73
    10
 74
     0
 42
0.00000001
 43
0.00000001
 40
0.0
 40
0.0
 40
0.0
 40
0.0
 40
0.2500000000000001
 40
0.2500000000000001
 40
0.5000000000000001
 40
0.5000000000000001
 40
0.7500000000000001
 40
0.7500000000000001
 40
1.0
 40
1.0
 40
1.0
 40
1.0
 10
186.097732886159
 20
73.84853353010332
 30
0.0
 10
186.097732886159
 20
73.47201681801637
 30
0.0
 10
186.0981421478786
 20
73.09548076038739
 30
0.0
 10
186.0948307997728
 20
72.3426038615388
 30
0.0
 10
186.0910673143081
 20
71.96626504702346
 30
0.0
 10
186.0652940585283
 20
71.21444990830831
 30
0.0
 10
186.0433759638499
 20
70.83896925065932
 30
0.0
 10
185.9581583006646
 20
70.08996401139063
 30
0.0
 10
185.8948453145137
 20
69.71435609594919
 30
0.0
 10
185.7922847966896
 20
69.34853353010332
 30
0.0
  0
LINE
  5
11A
330
1F
100
AcDbEntity
  8
0
  6
Continuous
 62
     7
370
    25
100
AcDbLine
 10
185.7922847967
 20
69.3485335301
 30
0.0
 11
185.3686468191
 21
69.4673029402
 31
0.0
  0
LINE
  5
11B
330
1F
100
AcDbEntity
  8
0
  6
Continuous
 62
     7
370
    25
100
AcDbLine
 10
186.0977328862
 20
73.8485335301
 30
0.0
 11
185.5977328862
 21
73.8485335301
 31
0.0
  0
LINE
  5
11C
330
1F
100
AcDbEntity
  8
0
  6
Continuous
 62
     7
370
    25
100
AcDbLine
 10
200.8268189533
 20
69.4673029402
 30
0.0
 11
200.4031809756
 21
69.3485335301
 31
0.0
  0
SPLINE
  5
11D
330
1F
100
AcDbEntity
  8
0
  6
Continuous
 62
     7
370
    25
100
AcDbSpline
210
0.0
220
0.0
230
1.0
 70
     8
 71
     3
 72
    14
 73
    10
 74
     0
 42
0.00000001
 43
0.00000001
 40
0.0
 40
0.0
 40
0.0
 40
0.0
 40
0.2500000000000002
 40
0.2500000000000002
 40
0.5000000000000003
 40
0.5000000000000003
 40
0.7500000000000002
 40
0.7500000000000002
 40
1.0
 40
1.0
 40
1.0
 40
1.0
 10
200.4031809756283
 20
69.34853353010332
 30
0.0
 10
200.3006204578042
 20
69.71435609594919
 30
0.0
 10
200.2373074716534
 20
70.08996401139063
 30
0.0
 10
200.1520898084681
 20
70.83896925065932
 30
0.0
 10
200.1301717137896
 20
71.21444990830831
 30
0.0
 10
200.1043984580099
 20
71.96626504702347
 30
0.0
 10
200.1006349725452
 20
72.34260386153882
 30
0.0
 10
200.0973236244393
 20
73.0954807603874
 30
0.0
 10
200.097732886159
 20
73.47201681801637
 30
0.0
 10
200.097732886159
 20
73.84853353010332
 30
0.0
  0
SPLINE
  5
11E
330
1F
100
AcDbEntity
  8
0
  6
Continuous
 62
     7
370
    25
100
AcDbSpline
210
0.0
220
0.0
230
1.0
 70
     8
 71
     3
 72
    14
 73
    10
 74
     0
 42
0.00000001
 43
0.00000001
 40
0.0
 40
0.0
 40
0.0
 40
0.0
 40
0.2500000000000001
 40
0.2500000000000001
 40
0.5000000000000001
 40
0.5000000000000001
 40
0.75
 40
0.75
 40
1.0
 40
1.0
 40
1.0
 40
1.0
 10
185.7922847966896
 20
78.34853353010332
 30
0.0
 10
185.8948453145137
 20
77.98271096425748
 30
0.0
 10
185.9581583006646
 20
77.60710304881601
 30
0.0
 10
186.0433759638499
 20
76.85809780954733
 30
0.0
 10
186.0652940585283
 20
76.48261715189832
 30
0.0
 10
186.0910673143081
 20
75.73080201318318
 30
0.0
 10
186.0948307997728
 20
75.35446319866783
 30
0.0
 10
186.0981421478786
 20
74.60158629981925
 30
0.0
 10
186.097732886159
 20
74.22505024219028
 30
0.0
 10
186.097732886159
 20
73.84853353010331
 30
0.0
  0
LINE
  5
11F
330
1F
100
AcDbEntity
  8
0
  6
Continuous
 62
     7
370
    25
100
AcDbLine
 10
185.7922847967
 20
78.3485335301
 30
0.0
 11
185.3686468191
 21
78.22976412
 31
0.0
  0
SPLINE
  5
120
330
1F
100
AcDbEntity
  8
0
  6
Continuous
 62
     7
370
    25
100
AcDbSpline
210
0.0
220
0.0
230
1.0
 70
     8
 71
     3
 72
    14
 73
    10
 74
     0
 42
0.00000001
 43
0.00000001
 40
0.0
 40
0.0
 40
0.0
 40
0.0
 40
0.25
 40
0.25
 40
0.5
 40
0.5
 40
0.75
 40
0.75
 40
1.0
 40
1.0
 40
1.0
 40
1.0
 10
185.9681313866204
 20
68.84853353010332
 30
0.0
 10
185.9296559029988
 20
68.84853353010332
 30
0.0
 10
185.8885669815288
 20
68.85932010108654
 30
0.0
 10
185.8092841340882
 20
68.9022518881517
 30
0.0
 10
185.7720012329778
 20
68.93366939645658
 30
0.0
 10
185.719195473666
 20
69.0249842420328
 30
0.0
 10
185.7072262135724
 20
69.08621472479705
 30
0.0
 10
185.7272280019445
 20
69.21707808545277
 30
0.0
 10
185.7566844574968
 20
69.28504219979035
 30
0.0
 10
185.7922847966896
 20
69.34853353010332
 30
0.0
  0
ARC
  5
121
330
1F
100
AcDbEntity
  8
0
  6
Continuous
 62
     7
370
    25
100
AcDbCircle
 10
185.9766799702
 20
68.3651637194
 30
0.0
 40
0.4834453973191176
100
AcDbArc
 50
91.0131925738
 51
170.0324253871
  0
SPLINE
  5
122
330
1F
100
AcDbEntity
  8
0
  6
Continuous
 62
     7
370
    25
100
AcDbSpline
210
0.0
220
0.0
230
1.0
 70
     8
 71
     3
 72
    14
 73
    10
 74
     0
 42
0.00000001
 43
0.00000001
 40
0.0
 40
0.0
 40
0.0
 40
0.0
 40
0.25
 40
0.25
 40
0.5
 40
0.5
 40
0.75
 40
0.75
 40
1.0
 40
1.0
 40
1.0
 40
1.0
 10
200.2273343856975
 20
78.84853353010332
 30
0.0
 10
200.2658098693191
 20
78.84853353010332
 30
0.0
 10
200.3068987907891
 20
78.8377469591201
 30
0.0
 10
200.3861816382297
 20
78.79481517205495
 30
0.0
 10
200.4234645393402
 20
78.76339766375008
 30
0.0
 10
200.4762702986519
 20
78.67208281817386
 30
0.0
 10
200.4882395587456
 20
78.6108523354096
 30
0.0
 10
200.4682377703734
 20
78.47998897475388
 30
0.0
 10
200.4387813148211
 20
78.4120248604163
 30
0.0
 10
200.4031809756283
 20
78.34853353010332
 30
0.0
  0
ARC
  5
123
330
1F
100
AcDbEntity
  8
0
  6
Continuous
 62
     7
370
    25
100
AcDbCircle
 10
200.2187858021
 20
79.3319033408
 30
0.0
 40
0.4834453973192135
100
AcDbArc
 50
271.0131925738
 51
350.032425387
  0
ARC
  5
124
330
1F
100
AcDbEntity
  8
0
  6
Continuous
 62
     7
370
    25
100
AcDbCircle
 10
200.2187858021
 20
68.3651637194
 30
0.0
 40
0.4834453973191851
100
AcDbArc
 50
9.967574613
 51
88.9868074262
  0
SPLINE
  5
125
330
1F
100
AcDbEntity
  8
0
  6
Continuous
 62
     7
370
    25
100
AcDbSpline
210
0.0
220
0.0
230
1.0
 70
     8
 71
     3
 72
    16
 73
    12
 74
     0
 42
0.00000001
 43
0.00000001
 40
0.0
 40
0.0
 40
0.0
 40
0.0
 40
0.2499999999999999
 40
0.2499999999999999
 40
0.3750000000000003
 40
0.3750000000000003
 40
0.5000000000000007
 40
0.5000000000000007
 40
0.7500000000000003
 40
0.7500000000000003
 40
1.0
 40
1.0
 40
1.0
 40
1.0
 10
200.4031809756283
 20
69.34853353010332
 30
0.0
 10
200.438734905077
 20
69.28512496912514
 30
0.0
 10
200.4680070463057
 20
69.21785766880431
 30
0.0
 10
200.4832195965266
 20
69.11941835766197
 30
0.0
 10
200.4832802647001
 20
69.08694295130668
 30
0.0
 10
200.4730696802228
 20
69.02831774418048
 30
0.0
 10
200.4632863506976
 20
69.0026949326275
 30
0.0
 10
200.4241218021656
 20
68.93448608893205
 30
0.0
 10
200.3862487288924
 20
68.90232333376628
 30
0.0
 10
200.3071757559008
 20
68.85943511465038
 30
0.0
 10
200.2657886233099
 20
68.84853353010332
 30
0.0
 10
200.2273343856975
 20
68.84853353010332
 30
0.0
  0
SPLINE
  5
126
330
1F
100
AcDbEntity
  8
0
  6
Continuous
 62
     7
370
    25
100
AcDbSpline
210
0.0
220
0.0
230
1.0
 70
     8
 71
     3
 72
    16
 73
    12
 74
     0
 42
0.00000001
 43
0.00000001
 40
0.0
 40
0.0
 40
0.0
 40
0.0
 40
0.2500000000000049
 40
0.2500000000000049
 40
0.3750000000000051
 40
0.3750000000000051
 40
0.5000000000000052
 40
0.5000000000000052
 40
0.7500000000000026
 40
0.7500000000000026
 40
1.0
 40
1.0
 40
1.0
 40
1.0
 10
185.7922847966896
 20
78.34853353010332
 30
0.0
 10
185.7567308672409
 20
78.41194209108151
 30
0.0
 10
185.7274587260122
 20
78.47920939140234
 30
0.0
 10
185.7122461757914
 20
78.57764870254468
 30
0.0
 10
185.7121855076178
 20
78.61012410889997
 30
0.0
 10
185.7223960920951
 20
78.66874931602617
 30
0.0
 10
185.7321794216204
 20
78.69437212757916
 30
0.0
 10
185.7713439701523
 20
78.7625809712746
 30
0.0
 10
185.8092170434256
 20
78.79474372644039
 30
0.0
 10
185.8882900164172
 20
78.83763194555627
 30
0.0
 10
185.929677149008
 20
78.84853353010332
 30
0.0
 10
185.9681313866204
 20
78.84853353010332
 30
0.0
  0
ARC
  5
127
330
1F
100
AcDbEntity
  8
0
  6
Continuous
 62
     7
370
    25
100
AcDbCircle
 10
185.9766799702
 20
79.3319033408
 30
0.0
 40
0.4834453973191288
100
AcDbArc
 50
189.967574613
 51
268.9868074262
  0
LINE
  5
128
330
1F
100
AcDbEntity
  8
0
  6
Continuous
 62
     7
370
    25
100
AcDbLine
 10
200.4031809756
 20
78.3485335301
 30
0.0
 11
185.7922847967
 21
78.3485335301
 31
0.0
  0
LINE
  5
129
330
1F
100
AcDbEntity
  8
0
  6
Continuous
 62
     7
370
    25
100
AcDbLine
 10
185.9681313866
 20
78.8485335301
 30
0.0
 11
200.2273343857
 21
78.8485335301
 31
0.0
  0
LINE
  5
12A
330
1F
100
AcDbEntity
  8
0
  6
Continuous
 62
     7
370
    25
100
AcDbLine
 10
189.9828397595
 20
74.0282853831
 30
0.0
 11
189.7399004146
 21
73.3798192895
 31
0.0
  0
ELLIPSE
  5
12B
330
1F
100
AcDbEntity
  8
0
  6
Continuous
 62
     7
370
    25
100
AcDbEllipse
 10
190.2896680922
 20
73.3580672799
 30
0.0
 11
-0.06784129479237322
 21
0.0
 31
0.0
210
0.0
220
0.0
230
1.0
 40
0.9533039403
 41
1.570796326794897
 42
3.484616592149655
  0
LINE
  5
12C
330
1F
100
AcDbEntity
  8
0
  6
Continuous
 62
     7
370
    25
100
AcDbLine
 10
189.8037894052
 20
73.2933939063
 30
0.0
 11
190.2896680922
 21
73.2933939063
 31
0.0
  0
ELLIPSE
  5
12D
330
1F
100
AcDbEntity
  8
0
  6
Continuous
 62
     7
370
    25
100
AcDbEllipse
 10
190.0467287501
 20
74.0065333736
 30
0.0
 11
0.06784129479271428
 21
0.0
 31
0.0
210
0.0
220
0.0
230
1.0
 40
0.9533039403
 41
0.3430239385581601
 42
2.798568711308873
  0
LINE
  5
12E
330
1F
100
AcDbEntity
  8
0
  6
Continuous
 62
     7
370
    25
100
AcDbLine
 10
190.3535570829
 20
73.3798192893
 30
0.0
 11
190.1106177408
 21
74.0282853829
 31
0.0
  0
ELLIPSE
  5
12F
330
1F
100
AcDbEntity
  8
0
  6
Continuous
 62
     7
370
    25
100
AcDbEllipse
 10
189.8037894052
 20
73.3580672799
 30
0.0
 11
0.0678412947923448
 21
0.0
 31
0.0
210
0.0
220
0.0
230
1.0
 40
0.9533039403
 41
2.798568711307318
 42
4.712388980384703
  0
LINE
  5
130
330
1F
100
AcDbEntity
  8
0
  6
Continuous
 62
     7
370
    25
100
AcDbLine
 10
200.2273343857
 20
68.8485335301
 30
0.0
 11
185.9681313866
 21
68.8485335301
 31
0.0
  0
LINE
  5
131
330
1F
100
AcDbEntity
  8
0
  6
Continuous
 62
     7
370
    25
100
AcDbLine
 10
185.7922847967
 20
69.3485335301
 30
0.0
 11
200.4031809756
 21
69.3485335301
 31
0.0
  0
ARC
  5
132
330
1F
100
AcDbEntity
  8
0
  6
Continuous
 62
     7
370
    25
100
AcDbCircle
 10
194.2873832949
 20
73.0434873896
 30
0.0
 40
0.7111999999997725
100
AcDbArc
 50
45.0
 51
315.0
  0
LINE
  5
133
330
1F
100
AcDbEntity
  8
0
  6
Continuous
 62
     7
370
    25
100
AcDbLine
 10
194.7902776377
 20
73.5463817324
 30
0.0
 11
195.1635659462
 21
73.9196700409
 31
0.0
  0
LINE
  5
134
330
1F
100
AcDbEntity
  8
0
  6
Continuous
 62
     7
370
    25
100
AcDbLine
 10
195.1635659462
 20
72.1673047383
 30
0.0
 11
194.7902776377
 21
72.5405930468
 31
0.0
  0
ARC
  5
135
330
1F
100
AcDbEntity
  8
0
  6
Continuous
 62
     7
370
    25
100
AcDbCircle
 10
196.961098972
 20
73.0434873896
 30
0.0
 40
0.7112000000000998
100
AcDbArc
 50
200.9248324276
 51
315.0
  0
ARC
  5
136
330
1F
100
AcDbEntity
  8
0
  6
Continuous
 62
     7
370
    25
100
AcDbCircle
 10
196.961098972
 20
73.0434873896
 30
0.0
 40
1.239109388553847
100
AcDbArc
 50
45.0
 51
315.0
  0
LINE
  5
137
330
1F
100
AcDbEntity
  8
0
  6
Continuous
 62
     7
370
    25
100
AcDbLine
 10
189.5739430476
 20
76.1104116362
 30
0.0
 11
188.5664541747
 21
73.2931118399
 31
0.0
  0
ELLIPSE
  5
138
330
1F
100
AcDbEntity
  8
0
  6
Continuous
 62
     7
370
    25
100
AcDbEllipse
 10
188.0527543611
 20
73.4600591319
 30
0.0
 11
-0.5427303583406626
 21
3.694822225952521E-13
 31
0.0
210
0.0
220
0.0
230
1.0
 40
0.9533039403
 41
1.047197551196606
 42
2.813039483039309
  0
LINE
  5
139
330
1F
100
AcDbEntity
  8
0
  6
Continuous
 62
     7
370
    25
100
AcDbLine
 10
197.8372816233
 20
72.1673047383
 30
0.0
 11
197.4639933148
 21
72.5405930468
 31
0.0
  0
LINE
  5
13A
330
1F
100
AcDbEntity
  8
0
  6
Continuous
 62
     7
370
    25
100
AcDbLine
 10
191.5272381588
 20
73.2924551528
 30
0.0
 11
190.5195144494
 21
76.1104116362
 31
0.0
  0
LINE
  5
13B
330
1F
100
AcDbEntity
  8
0
  6
Continuous
 62
     7
370
    25
100
AcDbLine
 10
187.7401247255
 20
73.0347004117
 30
0.0
 11
188.3771396532
 21
71.8201627306
 31
0.0
  0
LINE
  5
13C
330
1F
100
AcDbEntity
  8
0
  6
Continuous
 62
     7
370
    25
100
AcDbLine
 10
196.296802773
 20
72.7894873896
 30
0.0
 11
197.8372816233
 21
72.7894873896
 31
0.0
  0
LINE
  5
13D
330
1F
100
AcDbEntity
  8
0
  6
Continuous
 62
     7
370
    25
100
AcDbLine
 10
187.781389182
 20
73.0119888557
 30
0.0
 11
187.7401247255
 21
73.0347004117
 31
0.0
  0
ELLIPSE
  5
13E
330
1F
100
AcDbEntity
  8
0
  6
Continuous
 62
     7
370
    25
100
AcDbEllipse
 10
188.4378187519
 20
71.8490855425
 30
0.0
 11
0.0678412947923448
 21
0.0
 31
0.0
210
0.0
220
0.0
230
1.0
 40
0.9533039403
 41
3.605240262580266
 42
5.462183310227031
  0
ELLIPSE
  5
13F
330
1F
100
AcDbEntity
  8
0
  6
Continuous
 62
     7
370
    25
100
AcDbEllipse
 10
190.0467287485
 20
75.9005392813
 30
0.0
 11
0.5215299537176747
 21
0.0
 31
0.0
210
0.0
220
0.0
230
1.0
 40
0.9533039403
 41
0.4357918987553268
 42
2.705800754834446
  0
LINE
  5
140
330
1F
100
AcDbEntity
  8
0
  6
Continuous
 62
     7
370
    25
100
AcDbLine
 10
197.4639933148
 20
73.5463817324
 30
0.0
 11
197.8372816233
 21
73.9196700409
 31
0.0
  0
ELLIPSE
  5
141
330
1F
100
AcDbEntity
  8
0
  6
Continuous
 62
     7
370
    25
100
AcDbEllipse
 10
192.0409379724
 20
73.4594024448
 30
0.0
 11
0.5427303583402932
 21
3.694822225952521E-13
 31
0.0
210
0.0
220
0.0
230
1.0
 40
0.9533039404
 41
3.470145824142365
 42
5.252469180527839
  0
ARC
  5
142
330
1F
100
AcDbEntity
  8
0
  6
Continuous
 62
     7
370
    25
100
AcDbCircle
 10
194.2873832949
 20
73.0434873896
 30
0.0
 40
1.239109388553857
100
AcDbArc
 50
45.0
 51
315.0
  0
ELLIPSE
  5
143
330
1F
100
AcDbEntity
  8
0
  6
Continuous
 62
     7
370
    25
100
AcDbEllipse
 10
191.6556387451
 20
71.8490855425
 30
0.0
 11
0.0678412947923448
 21
0.0
 31
0.0
210
0.0
220
0.0
230
1.0
 40
0.9533039403
 41
3.962594650555039
 42
5.819537698174726
  0
ELLIPSE
  5
144
330
1F
100
AcDbEntity
  8
0
  6
Continuous
 62
     7
370
    25
100
AcDbEllipse
 10
190.0467287485
 20
70.2020066461
 30
0.0
 11
2.293035763987575
 21
-1.080024958355352E-12
 31
0.0
210
0.0
220
0.0
230
1.0
 40
0.9533039403
 41
0.8210019969645949
 42
2.320590656625143
  0
ARC
  5
145
330
1F
100
AcDbEntity
  8
0
  6
Continuous
 62
     7
370
    25
100
AcDbCircle
 10
196.961098972
 20
73.0434873896
 30
0.0
 40
0.7112000000000236
100
AcDbArc
 50
45.0
 51
159.0751675724
  0
LINE
  5
146
330
1F
100
AcDbEntity
  8
0
  6
Continuous
 62
     7
370
    25
100
AcDbLine
 10
197.8372816233
 20
72.7894873896
 30
0.0
 11
197.8372816233
 21
73.2974873896
 31
0.0
  0
LINE
  5
147
330
1F
100
AcDbEntity
  8
0
  6
Continuous
 62
     7
370
    25
100
AcDbLine
 10
191.7163178438
 20
71.8201627306
 30
0.0
 11
192.3533327714
 21
73.0347004117
 31
0.0
  0
LINE
  5
148
330
1F
100
AcDbEntity
  8
0
  6
Continuous
 62
     7
370
    25
100
AcDbLine
 10
192.3533327714
 20
73.0347004117
 30
0.0
 11
192.320012516
 21
73.0156564678
 31
0.0
  0
LINE
  5
149
330
1F
100
AcDbEntity
  8
0
  6
Continuous
 62
     7
370
    25
100
AcDbLine
 10
197.8372816233
 20
73.2974873896
 30
0.0
 11
196.296802773
 21
73.2974873896
 31
0.0
  0
ARC
  5
14A
330
1F
100
AcDbEntity
  8
0
  6
Continuous
 62
     7
370
    25
100
AcDbCircle
 10
186.0977328862
 20
68.3485335301
 30
0.0
 40
0.5
100
AcDbArc
 50
90.0
 51
180.0
  0
ARC
  5
14B
330
1F
100
AcDbEntity
  8
0
  6
Continuous
 62
     7
370
    25
100
AcDbCircle
 10
200.0977328862
 20
68.3485335301
 30
0.0
 40
0.5
100
AcDbArc
 50
0.0
 51
90.0
  0
ARC
  5
14C
330
1F
100
AcDbEntity
  8
0
  6
Continuous
 62
     7
370
    25
100
AcDbCircle
 10
186.0977328862
 20
79.3485335301
 30
0.0
 40
0.5
100
AcDbArc
 50
180.0
 51
270.0
  0
ARC
  5
14D
330
1F
100
AcDbEntity
  8
0
  6
Continuous
 62
     7
370
    25
100
AcDbCircle
 10
200.0977328862
 20
79.3485335301
 30
0.0
 40
0.5
100
AcDbArc
 50
270.0
 51
0.0
  0
LWPOLYLINE
  5
14E
330
1F
100
AcDbEntity
  8
0
  6
Continuous
 62
     7
370
    25
100
AcDbPolyline
 90
        9
 70
   128
 43
0.0
 10
200.0977328862
 20
79.0429779745
 10
200.1952780472
 20
79.0488491389
 10
200.2890746023
 20
79.0662370063
 10
200.3755180027
 20
79.0944733708
 10
200.4512862768
 20
79.1324731247
 10
200.5134676923
 20
79.1787759589
 10
200.5596726524
 20
79.2316024813
 10
200.5881255264
 20
79.2889225984
 10
200.5977328862
 20
79.3485335301
  0
LINE
  5
14F
330
1F
100
AcDbEntity
  8
0
  6
Continuous
 62
     7
370
    25
100
AcDbLine
 10
200.0977328862
 20
78.8485335301
 30
0.0
 11
200.0977328862
 21
79.0429779745
 31
0.0
  0
LWPOLYLINE
  5
150
330
1F
100
AcDbEntity
  8
0
  6
Continuous
 62
     7
370
    25
100
AcDbPolyline
 90
        9
 70
   128
 43
0.0
 10
185.5977328862
 20
79.3485335301
 10
185.607340246
 20
79.2889225984
 10
185.6357931199
 20
79.2316024813
 10
185.68199808
 20
79.1787759589
 10
185.7441794956
 20
79.1324731247
 10
185.8199477696
 20
79.0944733708
 10
185.90639117
 20
79.0662370063
 10
186.0001877252
 20
79.0488491389
 10
186.0977328862
 20
79.0429779745
  0
LINE
  5
151
330
1F
100
AcDbEntity
  8
0
  6
Continuous
 62
     7
370
    25
100
AcDbLine
 10
186.0977328862
 20
78.8485335301
 30
0.0
 11
186.0977328862
 21
79.0429779745
 31
0.0
  0
LWPOLYLINE
  5
152
330
1F
100
AcDbEntity
  8
0
  6
Continuous
 62
     7
370
    25
100
AcDbPolyline
 90
        9
 70
   128
 43
0.0
 10
186.0977328862
 20
68.6540890857
 10
186.0001877252
 20
68.6482179213
 10
185.90639117
 20
68.6308300539
 10
185.8199477696
 20
68.6025936894
 10
185.7441794956
 20
68.5645939355
 10
185.68199808
 20
68.5182911013
 10
185.6357931199
 20
68.4654645789
 10
185.607340246
 20
68.4081444618
 10
185.5977328862
 20
68.3485335301
  0
LINE
  5
153
330
1F
100
AcDbEntity
  8
0
  6
Continuous
 62
     7
370
    25
100
AcDbLine
 10
186.0977328862
 20
68.6540890857
 30
0.0
 11
186.0977328862
 21
68.8485335301
 31
0.0
  0
LINE
  5
154
330
1F
100
AcDbEntity
  8
0
  6
Continuous
 62
     7
370
    25
100
AcDbLine
 10
200.0977328862
 20
68.6540890857
 30
0.0
 11
186.0977328862
 21
68.6540890857
 31
0.0
  0
LINE
  5
155
330
1F
100
AcDbEntity
  8
0
  6
Continuous
 62
     7
370
    25
100
AcDbLine
 10
200.0977328862
 20
68.6540890857
 30
0.0
 11
200.0977328862
 21
68.8485335301
 31
0.0
  0
LWPOLYLINE
  5
156
330
1F
100
AcDbEntity
  8
0
  6
Continuous
 62
     7
370
    25
100
AcDbPolyline
 90
        9
 70
   128
 43
0.0
 10
200.5977328862
 20
68.3485335301
 10
200.5881255264
 20
68.4081444618
 10
200.5596726524
 20
68.4654645789
 10
200.5134676923
 20
68.5182911013
 10
200.4512862768
 20
68.5645939355
 10
200.3755180027
 20
68.6025936894
 10
200.2890746023
 20
68.6308300539
 10
200.1952780472
 20
68.6482179213
 10
200.0977328862
 20
68.6540890857
  0
LINE
  5
157
330
1F
100
AcDbEntity
  8
0
  6
Continuous
 62
     7
370
    25
100
AcDbLine
 10
186.0977328862
 20
79.0429779745
 30
0.0
 11
200.0977328862
 21
79.0429779745
 31
0.0
  0
LINE
  5
158
330
1F
100
AcDbEntity
  8
0
  6
Continuous
 62
     7
370
    25
100
AcDbLine
 10
210.8922084286
 20
73.8485335301
 30
0.0
 11
210.8922084286
 21
67.3251733908
 31
0.0
  0
LINE
  5
159
330
1F
100
AcDbEntity
  8
0
  6
Continuous
 62
     7
370
    25
100
AcDbLine
 10
210.8922084286
 20
80.3718936694
 30
0.0
 11
210.8922084286
 21
73.8485335301
 31
0.0
  0
LINE
  5
15A
330
1F
100
AcDbEntity
  8
0
  6
Continuous
 62
     7
370
    25
100
AcDbLine
 10
213.0977328862
 20
79.0985335301
 30
0.0
 11
213.0977328862
 21
68.5985335301
 31
0.0
  0
SPLINE
  5
15B
330
1F
100
AcDbEntity
  8
0
  6
Continuous
 62
     7
370
    25
100
AcDbSpline
210
0.0
220
0.0
230
1.0
 70
    11
 71
     3
 72
    26
 73
    22
 74
     0
 42
0.00000001
 43
0.00000001
 40
0.0
 40
0.0
 40
0.0
 40
0.0
 40
0.125
 40
0.125
 40
0.1875
 40
0.1875
 40
0.25
 40
0.25
 40
0.3125
 40
0.3125
 40
0.375
 40
0.375
 40
0.5
 40
0.5
 40
0.625
 40
0.625
 40
0.75
 40
0.75
 40
0.875
 40
0.875
 40
1.0
 40
1.0
 40
1.0
 40
1.0
 10
193.6110518550074
 20
81.84853353010332
 30
0.0
 10
193.6110518550073
 20
81.98765256133214
 30
0.0
 10
193.5582558838584
 20
82.12338026430763
 30
0.0
 10
193.4168002939811
 20
82.2763990008034
 30
0.0
 10
193.3602463576092
 20
82.31790190182394
 30
0.0
 10
193.2347022061658
 20
82.37510179561762
 30
0.0
 10
193.1655505930578
 20
82.39038578436195
 30
0.0
 10
193.0283922183143
 20
82.3901649105983
 30
0.0
 10
192.9592776355082
 20
82.37460484931066
 30
0.0
 10
192.8345178668771
 20
82.31739901481664
 30
0.0
 10
192.7778867785426
 20
82.27564758754968
 30
0.0
 10
192.6377731520197
 20
82.12380671926624
 30
0.0
 10
192.584452618073
 20
81.98775439199838
 30
0.0
 10
192.584375259497
 20
81.70962169829501
 30
0.0
 10
192.6380636415186
 20
81.57281968827503
 30
0.0
 10
192.8247584558263
 20
81.37075088460998
 30
0.0
 10
192.9606396651899
 20
81.30658112492442
 30
0.0
 10
193.2362707992284
 20
81.30700217772544
 30
0.0
 10
193.371245837642
 20
81.37127086014874
 30
0.0
 10
193.5570933147081
 20
81.57254841137288
 30
0.0
 10
193.6110518550074
 20
81.70941449887451
 30
0.0
 10
193.6110518550074
 20
81.84853353010332
 30
0.0
  0
SPLINE
  5
15C
330
1F
100
AcDbEntity
  8
0
  6
Continuous
 62
     7
370
    25
100
AcDbSpline
210
0.0
220
0.0
230
1.0
 70
    11
 71
     3
 72
    38
 73
    34
 74
     0
 42
0.00000001
 43
0.00000001
 40
0.0
 40
0.0
 40
0.0
 40
0.0
 40
0.0625
 40
0.0625
 40
0.125
 40
0.125
 40
0.1874999999999999
 40
0.1874999999999999
 40
0.2499999999999999
 40
0.2499999999999999
 40
0.3125
 40
0.3125
 40
0.375
 40
0.375
 40
0.4375000000000001
 40
0.4375000000000001
 40
0.5000000000000001
 40
0.5000000000000001
 40
0.5625000000000001
 40
0.5625000000000001
 40
0.6250000000000001
 40
0.6250000000000001
 40
0.6875000000000001
 40
0.6875000000000001
 40
0.75
 40
0.75
 40
0.8125
 40
0.8125
 40
0.875
 40
0.875
 40
0.9375
 40
0.9375
 40
1.0
 40
1.0
 40
1.0
 40
1.0
 10
192.097732886159
 20
81.84853353010331
 30
0.0
 10
192.097732886159
 20
81.71614761519302
 30
0.0
 10
192.1238814373018
 20
81.58626028871433
 30
0.0
 10
192.2243471067596
 20
81.34418129412845
 30
0.0
 10
192.2986319731562
 20
81.23339994007242
 30
0.0
 10
192.4827811528909
 20
81.04929265996665
 30
0.0
 10
192.5941567754851
 20
80.97482398867066
 30
0.0
 10
192.834705280019
 20
80.87499681254197
 30
0.0
 10
192.9664631760064
 20
80.84860889246866
 30
0.0
 10
193.2278518681703
 20
80.84845849878184
 30
0.0
 10
193.359023938762
 20
80.87439831919188
 30
0.0
 10
193.6014616247617
 20
80.97476595161714
 30
0.0
 10
193.7115157929113
 20
81.04815485476239
 30
0.0
 10
193.8977691103222
 20
81.23430432159192
 30
0.0
 10
193.9711954382153
 20
81.34434283899193
 30
0.0
 10
194.0715601858442
 20
81.58622555608059
 30
0.0
 10
194.0976814501404
 20
81.71750007459191
 30
0.0
 10
194.0977841676256
 20
81.97878072396445
 30
0.0
 10
194.0715405395319
 20
82.11059612747735
 30
0.0
 10
193.9718721827338
 20
82.35138404555883
 30
0.0
 10
193.8975913907653
 20
82.46271624695683
 30
0.0
 10
193.7134046503317
 20
82.64724644215184
 30
0.0
 10
193.6029810762691
 20
82.7214327714256
 30
0.0
 10
193.3605963610291
 20
82.82225403039577
 30
0.0
 10
193.2306721814627
 20
82.84842825970081
 30
0.0
 10
192.9663820719458
 20
82.84863816968772
 30
0.0
 10
192.8361483132838
 20
82.82255044732453
 30
0.0
 10
192.5942556421131
 20
82.72240200334593
 30
0.0
 10
192.4832397167065
 20
82.64811570818077
 30
0.0
 10
192.2990719807265
 20
82.46422360874399
 30
0.0
 10
192.2244733092244
 20
82.35289345818997
 30
0.0
 10
192.1244224956792
 20
82.11240491838134
 30
0.0
 10
192.097732886159
 20
81.98091944501363
 30
0.0
 10
192.097732886159
 20
81.84853353010332
 30
0.0
  0
LINE
  5
15D
330
1F
100
AcDbEntity
  8
0
  6
Continuous
 62
     7
370
    25
100
AcDbLine
 10
187.8586475535
 20
100.9485335301
 30
0.0
 11
187.8586475535
 21
100.3485335301
 31
0.0
  0
LINE
  5
15E
330
1F
100
AcDbEntity
  8
0
  6
Continuous
 62
     7
370
    25
100
AcDbLine
 10
198.3368182188
 20
100.9485335301
 30
0.0
 11
187.8586475535
 21
100.9485335301
 31
0.0
  0
LINE
  5
15F
330
1F
100
AcDbEntity
  8
0
  6
Continuous
 62
     7
370
    25
100
AcDbLine
 10
198.3368182188
 20
100.3485335301
 30
0.0
 11
198.3368182188
 21
100.9485335301
 31
0.0
  0
LINE
  5
160
330
1F
100
AcDbEntity
  8
0
  6
Continuous
 62
     7
370
    25
100
AcDbLine
 10
187.8586475535
 20
100.3485335301
 30
0.0
 11
198.3368182188
 21
100.3485335301
 31
0.0
  0
SPLINE
  5
161
330
1F
100
AcDbEntity
  8
0
  6
Continuous
 62
     7
370
    25
100
AcDbSpline
210
0.0
220
0.0
230
1.0
 70
     8
 71
     3
 72
    15
 73
    11
 74
     0
 42
0.00000001
 43
0.00000001
 40
0.0
 40
0.0
 40
0.0
 40
0.0
 40
0.0081667445812695
 40
0.3321939991490083
 40
0.4756279600585602
 40
0.6866830973284899
 40
0.8457435502264811
 40
0.8967566214763185
 40
0.9909540928118029
 40
1.0
 40
1.0
 40
1.0
 40
1.0
 10
187.9987133725662
 20
101.1985335301033
 30
0.0
 10
187.9982258384233
 20
101.1985308537575
 30
0.0
 10
187.9783946908912
 20
101.1984219895706
 30
0.0
 10
187.950113910882
 20
101.1888759773013
 30
0.0
 10
187.9122846123931
 20
101.1515135940467
 30
0.0
 10
187.8857007158256
 20
101.106648079312
 30
0.0
 10
187.8685308920707
 20
101.0487717797351
 30
0.0
 10
187.8607138958542
 20
100.9980957397632
 30
0.0
 10
187.8587182094183
 20
100.9694014602432
 30
0.0
 10
187.8586532454675
 20
100.9502146286877
 30
0.0
 10
187.8586475535008
 20
100.9485335301033
 30
0.0
  0
LINE
  5
162
330
1F
100
AcDbEntity
  8
0
  6
Continuous
 62
     7
370
    25
100
AcDbLine
 10
187.9987133726
 20
101.1985335301
 30
0.0
 11
198.1967523998
 21
101.1985335301
 31
0.0
  0
SPLINE
  5
163
330
1F
100
AcDbEntity
  8
0
  6
Continuous
 62
     7
370
    25
100
AcDbSpline
210
0.0
220
0.0
230
1.0
 70
     8
 71
     3
 72
    15
 73
    11
 74
     0
 42
0.00000001
 43
0.00000001
 40
0.0
 40
0.0
 40
0.0
 40
0.0
 40
0.0090459071881971
 40
0.1032433785236874
 40
0.1542564497735246
 40
0.3133169026715112
 40
0.5243720399414429
 40
0.6678060008509904
 40
0.9918332554187292
 40
1.0
 40
1.0
 40
1.0
 40
1.0
 10
198.3368182188171
 20
100.9485335301033
 30
0.0
 10
198.3368125268504
 20
100.9502146286877
 30
0.0
 10
198.3367475628996
 20
100.9694014602432
 30
0.0
 10
198.3347518764637
 20
100.9980957397632
 30
0.0
 10
198.3269348802473
 20
101.0487717797351
 30
0.0
 10
198.3097650564923
 20
101.106648079312
 30
0.0
 10
198.2831811599248
 20
101.1515135940467
 30
0.0
 10
198.245351861436
 20
101.1888759773012
 30
0.0
 10
198.2170710814267
 20
101.1984219895708
 30
0.0
 10
198.1972399338946
 20
101.1985308537575
 30
0.0
 10
198.1967523997517
 20
101.1985335301033
 30
0.0
  0
LINE
  5
164
330
1F
100
AcDbEntity
  8
0
  6
Continuous
 62
     7
370
    25
100
AcDbLine
 10
198.3368182188
 20
100.9485335301
 30
0.0
 11
198.5749584612
 21
100.9485335301
 31
0.0
  0
SPLINE
  5
165
330
1F
100
AcDbEntity
  8
0
  6
Continuous
 62
     7
370
    25
100
AcDbSpline
210
0.0
220
0.0
230
1.0
 70
     8
 71
     3
 72
    15
 73
    11
 74
     0
 42
0.00000001
 43
0.00000001
 40
0.0
 40
0.0
 40
0.0
 40
0.0
 40
0.0080847466189818
 40
0.3310106400647566
 40
0.4750333064304973
 40
0.6874363079215137
 40
0.8468367539418253
 40
0.9000996640391794
 40
0.9910442771984082
 40
1.0
 40
1.0
 40
1.0
 40
1.0
 10
198.1967523997517
 20
101.1985335301033
 30
0.0
 10
198.1980322312959
 20
101.1985308536936
 30
0.0
 10
198.2504318770197
 20
101.1984212744918
 30
0.0
 10
198.3257869684741
 20
101.1887421196542
 30
0.0
 10
198.4277060804919
 20
101.1514602961925
 30
0.0
 10
198.5000970254838
 20
101.1067524230091
 30
0.0
 10
198.5478024537486
 20
101.0486167728764
 30
0.0
 10
198.5693379374559
 20
100.9977296994081
 30
0.0
 10
198.5747669534755
 20
100.9689674703007
 30
0.0
 10
198.574942705632
 20
100.9502146556762
 30
0.0
 10
198.5749584612106
 20
100.9485335301033
 30
0.0
  0
LINE
  5
166
330
1F
100
AcDbEntity
  8
0
  6
Continuous
 62
     7
370
    25
100
AcDbLine
 10
187.6205073111
 20
100.9485335301
 30
0.0
 11
187.8586475535
 21
100.9485335301
 31
0.0
  0
SPLINE
  5
167
330
1F
100
AcDbEntity
  8
0
  6
Continuous
 62
     7
370
    25
100
AcDbSpline
210
0.0
220
0.0
230
1.0
 70
     8
 71
     3
 72
    15
 73
    11
 74
     0
 42
0.00000001
 43
0.00000001
 40
0.0
 40
0.0
 40
0.0
 40
0.0
 40
0.0089557228015919
 40
0.0999003359608149
 40
0.153163246058169
 40
0.3125636920784849
 40
0.5249666935694998
 40
0.668989359935245
 40
0.9919152533810159
 40
1.0
 40
1.0
 40
1.0
 40
1.0
 10
187.6205073111073
 20
100.9485335301033
 30
0.0
 10
187.6205230666859
 20
100.9502146556762
 30
0.0
 10
187.6206988188425
 20
100.9689674703006
 30
0.0
 10
187.626127834862
 20
100.9977296994081
 30
0.0
 10
187.6476633185693
 20
101.0486167728764
 30
0.0
 10
187.6953687468341
 20
101.1067524230091
 30
0.0
 10
187.767759691826
 20
101.1514602961925
 30
0.0
 10
187.8696788038438
 20
101.1887421196542
 30
0.0
 10
187.9450338952983
 20
101.1984212744918
 30
0.0
 10
187.997433541022
 20
101.1985308536936
 30
0.0
 10
187.9987133725662
 20
101.1985335301033
 30
0.0
  0
LINE
  5
168
330
1F
100
AcDbEntity
  8
0
  6
Continuous
 62
     7
370
    25
100
AcDbLine
 10
198.5749584612
 20
100.9485335301
 30
0.0
 11
198.5749584612
 21
100.3485335301
 31
0.0
  0
LINE
  5
169
330
1F
100
AcDbEntity
  8
0
  6
Continuous
 62
     7
370
    25
100
AcDbLine
 10
198.5749584612
 20
100.3485335301
 30
0.0
 11
198.3368182188
 21
100.3485335301
 31
0.0
  0
LINE
  5
16A
330
1F
100
AcDbEntity
  8
0
  6
Continuous
 62
     7
370
    25
100
AcDbLine
 10
187.6205073111
 20
100.3485335301
 30
0.0
 11
187.6205073111
 21
100.9485335301
 31
0.0
  0
LINE
  5
16B
330
1F
100
AcDbEntity
  8
0
  6
Continuous
 62
     7
370
    25
100
AcDbLine
 10
187.8586475535
 20
100.3485335301
 30
0.0
 11
187.6205073111
 21
100.3485335301
 31
0.0
  0
LINE
  5
16C
330
1F
100
AcDbEntity
  8
0
  6
Continuous
 62
     7
370
    25
100
AcDbLine
 10
198.8477328862
 20
100.9485335301
 30
0.0
 11
198.8477328862
 21
101.1985335301
 31
0.0
  0
LINE
  5
16D
330
1F
100
AcDbEntity
  8
0
  6
Continuous
 62
     7
370
    25
100
AcDbLine
 10
198.8477328862
 20
100.9485335301
 30
0.0
 11
198.5749584612
 21
100.9485335301
 31
0.0
  0
LINE
  5
16E
330
1F
100
AcDbEntity
  8
0
  6
Continuous
 62
     7
370
    25
100
AcDbLine
 10
198.1967523998
 20
101.1985335301
 30
0.0
 11
198.8477328862
 21
101.1985335301
 31
0.0
  0
LINE
  5
16F
330
1F
100
AcDbEntity
  8
0
  6
Continuous
 62
     7
370
    25
100
AcDbLine
 10
198.8477328862
 20
100.3485335301
 30
0.0
 11
198.8477328862
 21
100.9485335301
 31
0.0
  0
LINE
  5
170
330
1F
100
AcDbEntity
  8
0
  6
Continuous
 62
     7
370
    25
100
AcDbLine
 10
198.8477328862
 20
100.9485335301
 30
0.0
 11
199.0977328862
 21
100.9485335301
 31
0.0
  0
LINE
  5
171
330
1F
100
AcDbEntity
  8
0
  6
Continuous
 62
     7
370
    25
100
AcDbLine
 10
199.0977328862
 20
100.9485335301
 30
0.0
 11
199.0977328862
 21
100.3485335301
 31
0.0
  0
LINE
  5
172
330
1F
100
AcDbEntity
  8
0
  6
Continuous
 62
     7
370
    25
100
AcDbLine
 10
199.0977328862
 20
100.3485335301
 30
0.0
 11
198.8477328862
 21
100.3485335301
 31
0.0
  0
LINE
  5
173
330
1F
100
AcDbEntity
  8
0
  6
Continuous
 62
     7
370
    25
100
AcDbLine
 10
198.8477328862
 20
100.3485335301
 30
0.0
 11
198.5749584612
 21
100.3485335301
 31
0.0
  0
ARC
  5
174
330
1F
100
AcDbEntity
  8
0
  6
Continuous
 62
     7
370
    25
100
AcDbCircle
 10
198.8477328862
 20
100.9485335301
 30
0.0
 40
0.25
100
AcDbArc
 50
0.0
 51
90.0
  0
LINE
  5
175
330
1F
100
AcDbEntity
  8
0
  6
Continuous
 62
     7
370
    25
100
AcDbLine
 10
187.3477328862
 20
101.1985335301
 30
0.0
 11
187.3477328862
 21
100.9485335301
 31
0.0
  0
LINE
  5
176
330
1F
100
AcDbEntity
  8
0
  6
Continuous
 62
     7
370
    25
100
AcDbLine
 10
187.6205073111
 20
100.9485335301
 30
0.0
 11
187.3477328862
 21
100.9485335301
 31
0.0
  0
LINE
  5
177
330
1F
100
AcDbEntity
  8
0
  6
Continuous
 62
     7
370
    25
100
AcDbLine
 10
187.3477328862
 20
101.1985335301
 30
0.0
 11
187.9987133726
 21
101.1985335301
 31
0.0
  0
LINE
  5
178
330
1F
100
AcDbEntity
  8
0
  6
Continuous
 62
     7
370
    25
100
AcDbLine
 10
187.0977328862
 20
100.3485335301
 30
0.0
 11
187.0977328862
 21
100.9485335301
 31
0.0
  0
LINE
  5
179
330
1F
100
AcDbEntity
  8
0
  6
Continuous
 62
     7
370
    25
100
AcDbLine
 10
187.0977328862
 20
100.9485335301
 30
0.0
 11
187.3477328862
 21
100.9485335301
 31
0.0
  0
LINE
  5
17A
330
1F
100
AcDbEntity
  8
0
  6
Continuous
 62
     7
370
    25
100
AcDbLine
 10
187.3477328862
 20
100.9485335301
 30
0.0
 11
187.3477328862
 21
100.3485335301
 31
0.0
  0
LINE
  5
17B
330
1F
100
AcDbEntity
  8
0
  6
Continuous
 62
     7
370
    25
100
AcDbLine
 10
187.3477328862
 20
100.3485335301
 30
0.0
 11
187.0977328862
 21
100.3485335301
 31
0.0
  0
LINE
  5
17C
330
1F
100
AcDbEntity
  8
0
  6
Continuous
 62
     7
370
    25
100
AcDbLine
 10
187.6205073111
 20
100.3485335301
 30
0.0
 11
187.3477328862
 21
100.3485335301
 31
0.0
  0
ARC
  5
17D
330
1F
100
AcDbEntity
  8
0
  6
Continuous
 62
     7
370
    25
100
AcDbCircle
 10
187.3477328862
 20
100.9485335301
 30
0.0
 40
0.25
100
AcDbArc
 50
90.0
 51
180.0
  0
LINE
  5
17E
330
1F
100
AcDbEntity
  8
0
  6
Continuous
 62
     7
370
    25
100
AcDbLine
 10
198.0977328862
 20
101.1985335301
 30
0.0
 11
198.0977328862
 21
101.2085335301
 31
0.0
  0
LINE
  5
17F
330
1F
100
AcDbEntity
  8
0
  6
Continuous
 62
     7
370
    25
100
AcDbLine
 10
188.0977328862
 20
101.1985335301
 30
0.0
 11
188.0977328862
 21
101.2085335301
 31
0.0
  0
LINE
  5
180
330
1F
100
AcDbEntity
  8
0
  6
Continuous
 62
     7
370
    25
100
AcDbLine
 10
188.0977328862
 20
101.2085335301
 30
0.0
 11
198.0977328862
 21
101.2085335301
 31
0.0
  0
LINE
  5
181
330
1F
100
AcDbEntity
  8
0
  6
Continuous
 62
     7
370
    25
100
AcDbLine
 10
138.6003272625
 20
77.2819826531
 30
0.0
 11
138.6003272625
 21
70.4150844071
 31
0.0
  0
LINE
  5
182
330
1F
100
AcDbEntity
  8
0
  6
Continuous
 62
     7
370
    25
100
AcDbLine
 10
176.5942192984
 20
65.9985335301
 30
0.0
 11
176.5942192984
 21
81.6985335301
 31
0.0
  0
LINE
  5
183
330
1F
100
AcDbEntity
  8
0
  6
Continuous
 62
     7
370
    25
100
AcDbLine
 10
164.1942192984
 20
73.8485335301
 30
0.0
 11
164.1942192984
 21
65.9985335301
 31
0.0
  0
LINE
  5
184
330
1F
100
AcDbEntity
  8
0
  6
Continuous
 62
     7
370
    25
100
AcDbLine
 10
164.1942192984
 20
81.6985335301
 30
0.0
 11
164.1942192984
 21
73.8485335301
 31
0.0
  0
LINE
  5
185
330
1F
100
AcDbEntity
  8
0
  6
Continuous
 62
     7
370
    25
100
AcDbLine
 10
200.0977328862
 20
79.0429779745
 30
0.0
 11
200.0977328862
 21
82.3485335301
 31
0.0
  0
LINE
  5
186
330
1F
100
AcDbEntity
  8
0
  6
Continuous
 62
     7
370
    25
100
AcDbLine
 10
186.0977328862
 20
82.3485335301
 30
0.0
 11
186.0977328862
 21
79.0429779745
 31
0.0
  0
LINE
  5
187
330
1F
100
AcDbEntity
  8
0
  6
Continuous
 62
     7
370
    25
100
AcDbLine
 10
186.0977328862
 20
68.6540890857
 30
0.0
 11
186.0977328862
 21
65.3485335301
 31
0.0
  0
LINE
  5
188
330
1F
100
AcDbEntity
  8
0
  6
Continuous
 62
     7
370
    25
100
AcDbLine
 10
200.0977328862
 20
65.3485335301
 30
0.0
 11
200.0977328862
 21
68.6540890857
 31
0.0
  0
SPLINE
  5
189
330
1F
100
AcDbEntity
  8
0
  6
Continuous
 62
     7
370
    25
100
AcDbSpline
210
0.0
220
0.0
230
1.0
 70
     8
 71
     3
 72
    29
 73
    25
 74
     0
 42
0.00000001
 43
0.00000001
 40
0.0
 40
0.0
 40
0.0
 40
0.0
 40
0.0401515792404008
 40
0.0815079590968809
 40
0.1230309250150663
 40
0.1655606196332731
 40
0.2131374894711959
 40
0.2617297290017827
 40
0.3187033192484791
 40
0.377204047100767
 40
0.4187680095092457
 40
0.4612853446783765
 40
0.5032057470456619
 40
0.5465118779499416
 40
0.583755144012608
 40
0.6217252421647017
 40
0.6775482801274003
 40
0.7348915676267465
 40
0.7907841922757494
 40
0.8482724945620922
 40
0.8930247851692851
 40
0.939058777351611
 40
0.9835402441844544
 40
1.0
 40
1.0
 40
1.0
 40
1.0
 10
199.497732886159
 20
82.34853353010332
 30
0.0
 10
199.4864141037287
 20
82.34091486177923
 30
0.0
 10
199.463436904007
 20
82.32544891702983
 30
0.0
 10
199.2787600357697
 20
82.20222942777163
 30
0.0
 10
198.9881819491414
 20
82.01220631886174
 30
0.0
 10
198.5772349516721
 20
81.75166829849616
 30
0.0
 10
198.0446313016778
 20
81.42987783162451
 30
0.0
 10
197.356070090184
 20
81.04396124918696
 30
0.0
 10
196.5146862791714
 20
80.62546517343448
 30
0.0
 10
195.6104155012538
 20
80.26165528032416
 30
0.0
 10
194.7202555385605
 20
80.00317249007846
 30
0.0
 10
193.8901020556841
 20
79.85372008809243
 30
0.0
 10
193.0233187986528
 20
79.80614204720736
 30
0.0
 10
192.1942509081074
 20
79.86960573295043
 30
0.0
 10
191.4184635741074
 20
80.01984301350177
 30
0.0
 10
190.6013993117233
 20
80.2578755308493
 30
0.0
 10
189.7274295857711
 20
80.60479838255105
 30
0.0
 10
188.8535739598082
 20
81.03499835663995
 30
0.0
 10
188.085531610971
 20
81.46654859182264
 30
0.0
 10
187.498254880776
 20
81.82611453908706
 30
0.0
 10
187.0728316335496
 20
82.09939577604278
 30
0.0
 10
186.8160827976751
 20
82.26907331850084
 30
0.0
 10
186.6930253782428
 20
82.35168928248484
 30
0.0
 10
186.7106513671096
 20
82.33986486583595
 30
0.0
 10
186.7154120112212
 20
82.3366711817869
 30
0.0
  0
SPLINE
  5
18A
330
1F
100
AcDbEntity
  8
0
  6
Continuous
 62
     7
370
    25
100
AcDbSpline
210
0.0
220
0.0
230
1.0
 70
     8
 71
     3
 72
    29
 73
    25
 74
     0
 42
0.00000001
 43
0.00000001
 40
0.0
 40
0.0
 40
0.0
 40
0.0
 40
0.0153990996561591
 40
0.062466505328857
 40
0.107979451509021
 40
0.1548536986083443
 40
0.2113050984022621
 40
0.2694418658723173
 40
0.3249996922355779
 40
0.3820061011702703
 40
0.4182883144144143
 40
0.4553122771421671
 40
0.4955883318002524
 40
0.537479873028859
 40
0.5778361329375509
 40
0.6193733281329076
 40
0.6760020364900422
 40
0.7342817310815659
 40
0.7823853390122868
 40
0.8314335394068262
 40
0.8736999810905982
 40
0.9169030618545315
 40
0.9578666892888672
 40
1.0
 40
1.0
 40
1.0
 40
1.0
 10
187.212522845984
 20
82.8371355709935
 30
0.0
 10
187.2083785161116
 20
82.84032921959185
 30
0.0
 10
187.1915670264898
 20
82.85328426707134
 30
0.0
 10
187.3024532525166
 20
82.76774469670781
 30
0.0
 10
187.5401255583417
 20
82.58732105054978
 30
0.0
 10
187.92569552408
 20
82.30261176502279
 30
0.0
 10
188.468451769363
 20
81.92065399804696
 30
0.0
 10
189.1663760914269
 20
81.46909420585708
 30
0.0
 10
189.976959991692
 20
81.00957501541265
 30
0.0
 10
190.7769642594428
 20
80.64222648825692
 30
0.0
 10
191.5413744350514
 20
80.38523002056036
 30
0.0
 10
192.2475061785431
 20
80.22673259186953
 30
0.0
 10
193.0188706184088
 20
80.1566399955923
 30
0.0
 10
193.815709083973
 20
80.20493636492523
 30
0.0
 10
194.591700538908
 20
80.36465176707266
 30
0.0
 10
195.4069094471441
 20
80.63615958956808
 30
0.0
 10
196.2459051993331
 20
81.02306576826085
 30
0.0
 10
197.0165636878839
 20
81.46307568960798
 30
0.0
 10
197.656070842242
 20
81.8744075784499
 30
0.0
 10
198.1440869639548
 20
82.21297904624109
 30
0.0
 10
198.5259144885137
 20
82.49086649132911
 30
0.0
 10
198.7922321004343
 20
82.69087458807529
 30
0.0
 10
198.9650091529486
 20
82.82322998015225
 30
0.0
 10
198.9867230923466
 20
82.8400202328615
 30
0.0
 10
198.997732886159
 20
82.84853353010332
 30
0.0
  0
LINE
  5
18B
330
1F
100
AcDbEntity
  8
0
  6
Continuous
 62
     7
370
    18
100
AcDbLine
 10
203.5977328862
 20
67.8516585301
 30
0.0
 11
212.2737083885
 21
68.1227827646
 31
0.0
  0
LINE
  5
18C
330
1F
100
AcDbEntity
  8
0
  6
Continuous
 62
     7
370
    18
100
AcDbLine
 10
212.2737083885
 20
79.5742842957
 30
0.0
 11
203.5977328862
 21
79.8454085301
 31
0.0
  0
LINE
  5
18D
330
1F
100
AcDbEntity
  8
0
  6
Continuous
 62
     7
370
    18
100
AcDbLine
 10
180.0977328862
 20
79.5485335301
 30
0.0
 11
176.8942192984
 21
79.5485335301
 31
0.0
  0
LINE
  5
18E
330
1F
100
AcDbEntity
  8
0
  6
Continuous
 62
     7
370
    18
100
AcDbLine
 10
176.8942192984
 20
68.1485335301
 30
0.0
 11
180.0977328862
 21
68.1485335301
 31
0.0
  0
LINE
  5
18F
330
1F
100
AcDbEntity
  8
0
  6
Continuous
 62
     7
370
    25
100
AcDbLine
 10
180.0977328862
 20
73.8485335301
 30
0.0
 11
180.0977328862
 21
73.0848162945
 31
0.0
  0
SPLINE
  5
190
330
1F
100
AcDbEntity
  8
0
  6
Continuous
 62
     7
370
     0
100
AcDbSpline
210
0.0
220
0.0
230
1.0
 70
     8
 71
     3
 72
    20
 73
    16
 74
     0
 42
0.00000001
 43
0.00000001
 40
0.0
 40
0.0
 40
0.0
 40
0.0
 40
0.0799986457617396
 40
0.1599972914457628
 40
0.2399959371297861
 40
0.3199945828138085
 40
0.3999932284978315
 40
0.4799918741818547
 40
0.559990519865878
 40
0.6399891655499004
 40
0.7199878112339237
 40
0.7999864569179467
 40
0.8799851026019697
 40
0.9599837482859925
 40
1.0
 40
1.0
 40
1.0
 40
1.0
 10
180.0976991653442
 20
73.08481629453053
 30
0.0
 10
180.0977328861589
 20
72.3314270244242
 30
0.0
 10
180.0977328861589
 20
71.59855401723543
 30
0.0
 10
180.0977328861589
 20
70.89610812315459
 30
0.0
 10
180.0977328861589
 20
70.23358871786455
 30
0.0
 10
180.0977328861589
 20
69.61995523978044
 30
0.0
 10
180.0977328861589
 20
69.06350602901503
 30
0.0
 10
180.0977328861589
 20
68.57176610656428
 30
0.0
 10
180.0977328861589
 20
68.15138541130742
 30
0.0
 10
180.0977328861589
 20
67.80804887099146
 30
0.0
 10
180.0977328861589
 20
67.5463995233359
 30
0.0
 10
180.0977328861589
 20
67.36997572691253
 30
0.0
 10
180.0977328861589
 20
67.28116331091582
 30
0.0
 10
180.0977328861589
 20
67.27003353010335
 30
0.0
 10
180.0977328861584
 20
67.27227980103206
 30
0.0
 10
180.0977328861589
 20
67.27003353010335
 30
0.0
  0
SPLINE
  5
191
330
1F
100
AcDbEntity
  8
0
  6
Continuous
 62
     7
370
     0
100
AcDbSpline
210
0.0
220
0.0
230
1.0
 70
     8
 71
     3
 72
    21
 73
    17
 74
     0
 42
0.00000001
 43
0.00000001
 40
0.0
 40
0.0
 40
0.0
 40
0.0
 40
0.0370521315248151
 40
0.1111250444844454
 40
0.1851979574440758
 40
0.2592708704037058
 40
0.3333437833633366
 40
0.4074166963229666
 40
0.4814896092825968
 40
0.5555625222422268
 40
0.6296354352018577
 40
0.7037083481614872
 40
0.7777812611211175
 40
0.8518541740807477
 40
0.9259270870403782
 40
1.0
 40
1.0
 40
1.0
 40
1.0
 10
180.0976991653442
 20
80.42703353010334
 30
0.0
 10
180.0977328861589
 20
80.41590374929086
 30
0.0
 10
180.0977328861589
 20
80.32709133329413
 30
0.0
 10
180.0977328861589
 20
80.15066753687076
 30
0.0
 10
180.0977328861589
 20
79.8890181892152
 30
0.0
 10
180.0977328861589
 20
79.54568164889922
 30
0.0
 10
180.0977328861589
 20
79.12530095364234
 30
0.0
 10
180.0977328861589
 20
78.63356103119158
 30
0.0
 10
180.0977328861589
 20
78.07711182042618
 30
0.0
 10
180.0977328861589
 20
77.46347834234206
 30
0.0
 10
180.0977328861589
 20
76.800958937052
 30
0.0
 10
180.0977328861589
 20
76.09851304297118
 30
0.0
 10
180.0977328861589
 20
75.3656400357824
 30
0.0
 10
180.0977328861589
 20
74.61225076567608
 30
0.0
 10
180.0977328861589
 20
73.84853353010334
 30
0.0
 10
180.09773288616
 20
74.1036810140789
 30
0.0
 10
180.0977328861589
 20
73.84853353010334
 30
0.0
  0
LINE
  5
192
330
1F
100
AcDbEntity
  8
0
  6
CENTERX2
 62
     7
370
    18
100
AcDbLine
 10
214.3360655535
 20
73.8485335301
 30
0.0
 11
135.8942192984
 21
73.8485335301
 31
0.0
  0
LINE
  5
193
330
1F
100
AcDbEntity
  8
0
  6
CENTERX2
 62
     7
370
    18
100
AcDbLine
 10
193.0977328862
 20
63.3944208953
 30
0.0
 11
193.0977328862
 21
102.6506339855
 31
0.0
  0
LINE
  5
194
330
1F
100
AcDbEntity
  8
0
  6
Continuous
 62
     7
370
    25
100
AcDbLine
 10
245.2942950645
 20
92.3485335301
 30
0.0
 11
243.3442950645
 21
100.3485335301
 31
0.0
  0
LINE
  5
195
330
1F
100
AcDbEntity
  8
0
  6
Continuous
 62
     7
370
    25
100
AcDbLine
 10
232.3442950645
 20
100.3485335301
 30
0.0
 11
230.3942950645
 21
92.3485335301
 31
0.0
  0
LINE
  5
196
330
1F
100
AcDbEntity
  8
0
  6
Continuous
 62
     7
370
    25
100
AcDbLine
 10
230.3942950645
 20
92.3485335301
 30
0.0
 11
230.8442950645
 21
84.3485335301
 31
0.0
  0
LINE
  5
197
330
1F
100
AcDbEntity
  8
0
  6
Continuous
 62
     7
370
    25
100
AcDbLine
 10
244.8442950645
 20
84.3485335301
 30
0.0
 11
245.2942950645
 21
92.3485335301
 31
0.0
  0
LINE
  5
198
330
1F
100
AcDbEntity
  8
0
  6
Continuous
 62
     7
370
    25
100
AcDbLine
 10
243.7442950645
 20
82.8466272004
 30
0.0
 11
243.7442950645
 21
84.3485335301
 31
0.0
  0
LINE
  5
199
330
1F
100
AcDbEntity
  8
0
  6
Continuous
 62
     7
370
    25
100
AcDbLine
 10
231.9442950645
 20
84.3485335301
 30
0.0
 11
231.9442950645
 21
81.9225659799
 31
0.0
  0
ARC
  5
19A
330
1F
100
AcDbEntity
  8
0
  6
Continuous
 62
     7
370
    25
100
AcDbCircle
 10
243.5442950645
 20
82.3902759604
 30
0.0
 40
0.5000000000000135
100
AcDbArc
 50
359.992141364
 51
66.3930114207
  0
ARC
  5
19B
330
1F
100
AcDbEntity
  8
0
  6
Continuous
 62
     7
370
    25
100
AcDbCircle
 10
232.5942950645
 20
100.9485335301
 30
0.0
 40
0.25
100
AcDbArc
 50
90.0
 51
180.0
  0
ARC
  5
19C
330
1F
100
AcDbEntity
  8
0
  6
Continuous
 62
     7
370
    25
100
AcDbCircle
 10
243.0942950645
 20
100.9485335301
 30
0.0
 40
0.25
100
AcDbArc
 50
0.0
 51
90.0
  0
LINE
  5
19D
330
1F
100
AcDbEntity
  8
0
  6
Continuous
 62
     7
370
    25
100
AcDbLine
 10
243.3442950645
 20
100.3485335301
 30
0.0
 11
243.3442950645
 21
100.9485335301
 31
0.0
  0
LINE
  5
19E
330
1F
100
AcDbEntity
  8
0
  6
Continuous
 62
     7
370
    25
100
AcDbLine
 10
232.3442950645
 20
100.9485335301
 30
0.0
 11
232.3442950645
 21
100.3485335301
 31
0.0
  0
CIRCLE
  5
19F
330
1F
100
AcDbEntity
  8
0
  6
Continuous
 62
     7
370
    25
100
AcDbCircle
 10
237.8442950645
 20
73.8485335301
 30
0.0
 40
3.433449123032073
  0
CIRCLE
  5
1A0
330
1F
100
AcDbEntity
  8
0
  6
Continuous
 62
     7
370
    25
100
AcDbCircle
 10
237.8442950645
 20
73.8485335301
 30
0.0
 40
2.638978050180555
  0
CIRCLE
  5
1A1
330
1F
100
AcDbEntity
  8
0
  6
Continuous
 62
     7
370
    25
100
AcDbCircle
 10
237.8442950645
 20
73.8485335301
 30
0.0
 40
2.450000000000003
  0
CIRCLE
  5
1A2
330
1F
100
AcDbEntity
  8
0
  6
Continuous
 62
     7
370
    25
100
AcDbCircle
 10
237.8442950645
 20
73.8485335301
 30
0.0
 40
2.249999999999993
  0
CIRCLE
  5
1A3
330
1F
100
AcDbEntity
  8
0
  6
Continuous
 62
     7
370
    25
100
AcDbCircle
 10
237.8442950645
 20
73.8485335301
 30
0.0
 40
3.999999999999996
  0
CIRCLE
  5
1A4
330
1F
100
AcDbEntity
  8
0
  6
Continuous
 62
     7
370
    25
100
AcDbCircle
 10
237.8442950645
 20
73.8485335301
 30
0.0
 40
4.499999999999991
  0
CIRCLE
  5
1A5
330
1F
100
AcDbEntity
  8
0
  6
Continuous
 62
     7
370
    25
100
AcDbCircle
 10
237.8442950645
 20
73.8485335301
 30
0.0
 40
7.849999999999994
  0
CIRCLE
  5
1A6
330
1F
100
AcDbEntity
  8
0
  6
Continuous
 62
     7
370
    25
100
AcDbCircle
 10
237.8442950645
 20
73.8485335301
 30
0.0
 40
7.550000000000011
  0
CIRCLE
  5
1A7
330
1F
100
AcDbEntity
  8
0
  6
Continuous
 62
     7
370
    25
100
AcDbCircle
 10
237.8442950645
 20
73.8485335301
 30
0.0
 40
4.75
  0
CIRCLE
  5
1A8
330
1F
100
AcDbEntity
  8
0
  6
Continuous
 62
     7
370
    25
100
AcDbCircle
 10
237.8442950645
 20
73.8485335301
 30
0.0
 40
4.849999999999994
  0
SPLINE
  5
1A9
330
1F
100
AcDbEntity
  8
0
  6
Continuous
 62
     7
370
    25
100
AcDbSpline
210
0.0
220
0.0
230
1.0
 70
    24
 71
     3
 72
    12
 73
     8
 74
     0
 42
0.00000001
 43
0.00000001
 40
0.0
 40
0.0
 40
0.0
 40
0.0
 40
0.2645357324841802
 40
0.39981372106124
 40
0.5350672982154646
 40
0.7654034360362928
 40
1.0
 40
1.0
 40
1.0
 40
1.0
 10
229.8442950644671
 20
78.46733568362042
 30
0.0
 10
230.5385609888505
 20
78.86817030195242
 30
0.0
 10
231.5878598492621
 20
79.4739832814714
 30
0.0
 10
233.030214250423
 20
80.30672698324845
 30
0.0
 10
234.3861464394949
 20
81.08957479761196
 30
0.0
 10
236.0107577229046
 20
82.02754455941708
 30
0.0
 10
237.22939361389
 20
82.7311243191216
 30
0.0
 10
237.844295064467
 20
83.08613783713734
 30
0.0
  0
SPLINE
  5
1AA
330
1F
100
AcDbEntity
  8
0
  6
Continuous
 62
     7
370
    25
100
AcDbSpline
210
0.0
220
0.0
230
1.0
 70
    24
 71
     3
 72
    12
 73
     8
 74
     0
 42
0.00000001
 43
0.00000001
 40
0.0
 40
0.0
 40
0.0
 40
0.0
 40
0.2645357324841768
 40
0.3998137210612349
 40
0.5350672982154578
 40
0.7654034360362892
 40
1.0
 40
1.0
 40
1.0
 40
1.0
 10
237.844295064467
 20
83.08613783713734
 30
0.0
 10
238.5385609888505
 20
82.68530321880534
 30
0.0
 10
239.5878598492621
 20
82.07949023928637
 30
0.0
 10
241.0302142504229
 20
81.24674653750931
 30
0.0
 10
242.3861464394948
 20
80.46389872314577
 30
0.0
 10
244.0107577229046
 20
79.52592896134063
 30
0.0
 10
245.22939361389
 20
78.82234920163607
 30
0.0
 10
245.844295064467
 20
78.4673356836203
 30
0.0
  0
SPLINE
  5
1AB
330
1F
100
AcDbEntity
  8
0
  6
Continuous
 62
     7
370
    25
100
AcDbSpline
210
0.0
220
0.0
230
1.0
 70
    24
 71
     3
 72
    14
 73
    10
 74
     0
 42
0.00000001
 43
0.00000001
 40
0.0
 40
0.0
 40
0.0
 40
0.0
 40
0.191215689056541
 40
0.3842607734904396
 40
0.5102055247845747
 40
0.6361523096967547
 40
0.765454570798929
 40
0.8947932191925942
 40
1.0
 40
1.0
 40
1.0
 40
1.0
 10
245.844295064467
 20
78.4673356836203
 30
0.0
 10
245.844295064467
 20
77.88938815841814
 30
0.0
 10
245.844295064467
 20
76.72796377861523
 30
0.0
 10
245.844295064467
 20
75.14329371899004
 30
0.0
 10
245.844295064467
 20
73.75233440885172
 30
0.0
 10
245.844295064467
 20
72.56080789834235
 30
0.0
 10
245.844295064467
 20
71.36844183659497
 30
0.0
 10
245.844295064467
 20
70.25353526875554
 30
0.0
 10
245.844295064467
 20
69.54675981231163
 30
0.0
 10
245.844295064467
 20
69.22973137658627
 30
0.0
  0
SPLINE
  5
1AC
330
1F
100
AcDbEntity
  8
0
  6
Continuous
 62
     7
370
    25
100
AcDbSpline
210
0.0
220
0.0
230
1.0
 70
    24
 71
     3
 72
    12
 73
     8
 74
     0
 42
0.00000001
 43
0.00000001
 40
0.0
 40
0.0
 40
0.0
 40
0.0
 40
0.2645357324841767
 40
0.3998137210612348
 40
0.5350672982154578
 40
0.7654034360362891
 40
1.0
 40
1.0
 40
1.0
 40
1.0
 10
245.844295064467
 20
69.22973137658627
 30
0.0
 10
245.1500291400835
 20
68.82889675825429
 30
0.0
 10
244.100730279672
 20
68.22308377873532
 30
0.0
 10
242.6583758785111
 20
67.39034007695827
 30
0.0
 10
241.3024436894392
 20
66.60749226259475
 30
0.0
 10
239.6778324060294
 20
65.6695225007896
 30
0.0
 10
238.459196515044
 20
64.96594274108506
 30
0.0
 10
237.844295064467
 20
64.61092922306929
 30
0.0
  0
SPLINE
  5
1AD
330
1F
100
AcDbEntity
  8
0
  6
Continuous
 62
     7
370
    25
100
AcDbSpline
210
0.0
220
0.0
230
1.0
 70
    24
 71
     3
 72
    12
 73
     8
 74
     0
 42
0.00000001
 43
0.00000001
 40
0.0
 40
0.0
 40
0.0
 40
0.0
 40
0.2645357324841767
 40
0.3998137210612349
 40
0.5350672982154578
 40
0.7654034360362891
 40
1.0
 40
1.0
 40
1.0
 40
1.0
 10
237.844295064467
 20
64.6109292230693
 30
0.0
 10
237.1500291400835
 20
65.0117638414013
 30
0.0
 10
236.1007302796719
 20
65.6175768209203
 30
0.0
 10
234.6583758785111
 20
66.45032052269737
 30
0.0
 10
233.3024436894392
 20
67.23316833706092
 30
0.0
 10
231.6778324060294
 20
68.17113809886608
 30
0.0
 10
230.459196515044
 20
68.87471785857063
 30
0.0
 10
229.844295064467
 20
69.22973137658639
 30
0.0
  0
SPLINE
  5
1AE
330
1F
100
AcDbEntity
  8
0
  6
Continuous
 62
     7
370
    25
100
AcDbSpline
210
0.0
220
0.0
230
1.0
 70
    24
 71
     3
 72
    13
 73
     9
 74
     0
 42
0.00000001
 43
0.00000001
 40
0.0
 40
0.0
 40
0.0
 40
0.0
 40
0.105223324965629
 40
0.3573016070345048
 40
0.486491217401796
 40
0.6156778809274955
 40
0.806749718209131
 40
1.0
 40
1.0
 40
1.0
 40
1.0
 10
229.844295064467
 20
69.22973137658639
 30
0.0
 10
229.844295064467
 20
69.54674217714597
 30
0.0
 10
229.844295064467
 20
70.62319997321195
 30
0.0
 10
229.844295064467
 20
72.1273609208136
 30
0.0
 10
229.844295064467
 20
73.7219693737226
 30
0.0
 10
229.844295064467
 20
75.12707440591446
 30
0.0
 10
229.844295064467
 20
76.72175434441672
 30
0.0
 10
229.8442950644671
 20
77.88328061937958
 30
0.0
 10
229.8442950644671
 20
78.46733568362042
 30
0.0
  0
LINE
  5
1AF
330
1F
100
AcDbEntity
  8
0
  6
Continuous
 62
     7
370
    25
100
AcDbLine
 10
241.3442950645
 20
90.3485335301
 30
0.0
 11
234.3442950645
 21
90.3485335301
 31
0.0
  0
LINE
  5
1B0
330
1F
100
AcDbEntity
  8
0
  6
Continuous
 62
     7
370
    25
100
AcDbLine
 10
234.3442950645
 20
90.3485335301
 30
0.0
 11
234.3442950645
 21
95.3485335301
 31
0.0
  0
LINE
  5
1B1
330
1F
100
AcDbEntity
  8
0
  6
Continuous
 62
     7
370
    25
100
AcDbLine
 10
234.3442950645
 20
95.3485335301
 30
0.0
 11
241.3442950645
 21
95.3485335301
 31
0.0
  0
LINE
  5
1B2
330
1F
100
AcDbEntity
  8
0
  6
Continuous
 62
     7
370
    25
100
AcDbLine
 10
241.3442950645
 20
95.3485335301
 30
0.0
 11
241.3442950645
 21
90.3485335301
 31
0.0
  0
LINE
  5
1B3
330
1F
100
AcDbEntity
  8
0
  6
Continuous
 62
     7
370
    25
100
AcDbLine
 10
234.3442950645
 20
102.3485335301
 30
0.0
 11
234.3442950645
 21
95.3485335301
 31
0.0
  0
LINE
  5
1B4
330
1F
100
AcDbEntity
  8
0
  6
Continuous
 62
     7
370
    25
100
AcDbLine
 10
234.3442950645
 20
102.3485335301
 30
0.0
 11
241.3442950645
 21
102.3485335301
 31
0.0
  0
LINE
  5
1B5
330
1F
100
AcDbEntity
  8
0
  6
Continuous
 62
     7
370
    25
100
AcDbLine
 10
241.3442950645
 20
95.3485335301
 30
0.0
 11
241.3442950645
 21
102.3485335301
 31
0.0
  0
SPLINE
  5
1B6
330
1F
100
AcDbEntity
  8
0
  6
Continuous
 62
     7
370
    25
100
AcDbSpline
210
0.0
220
0.0
230
1.0
 70
     8
 71
     3
 72
     9
 73
     5
 74
     0
 42
0.00000001
 43
0.00000001
 40
0.0
 40
0.0
 40
0.0
 40
0.0
 40
0.497693137079144
 40
1.0
 40
1.0
 40
1.0
 40
1.0
 10
241.344295064467
 20
90.10070922307881
 30
0.0
 10
241.3609645776842
 20
89.95126234207837
 30
0.0
 10
241.3944581342058
 20
89.6509831743215
 30
0.0
 10
241.6177968178475
 20
89.06956104693404
 30
0.0
 10
241.7299813713964
 20
88.77750872209329
 30
0.0
  0
LINE
  5
1B7
330
1F
100
AcDbEntity
  8
0
  6
Continuous
 62
     7
370
    25
100
AcDbLine
 10
241.7299813714
 20
88.7775087221
 30
0.0
 11
233.9586087575
 21
88.7775087221
 31
0.0
  0
SPLINE
  5
1B8
330
1F
100
AcDbEntity
  8
0
  6
Continuous
 62
     7
370
    25
100
AcDbSpline
210
0.0
220
0.0
230
1.0
 70
     8
 71
     3
 72
     9
 73
     5
 74
     0
 42
0.00000001
 43
0.00000001
 40
0.0
 40
0.0
 40
0.0
 40
0.0
 40
0.4977232396629077
 40
1.0
 40
1.0
 40
1.0
 40
1.0
 10
233.9586087575377
 20
88.7775087220933
 30
0.0
 10
234.0699054336516
 20
89.06710112271745
 30
0.0
 10
234.2935170057962
 20
89.64893531800293
 30
0.0
 10
234.3273177407949
 20
89.94966146714106
 30
0.0
 10
234.344295064467
 20
90.10070922307881
 30
0.0
  0
LINE
  5
1B9
330
1F
100
AcDbEntity
  8
0
  6
Continuous
 62
     7
370
    25
100
AcDbLine
 10
234.3442950645
 20
90.1007092231
 30
0.0
 11
234.3442950645
 21
90.3485335301
 31
0.0
  0
LINE
  5
1BA
330
1F
100
AcDbEntity
  8
0
  6
Continuous
 62
     7
370
    25
100
AcDbLine
 10
241.3442950645
 20
90.3485335301
 30
0.0
 11
241.3442950645
 21
90.1007092231
 31
0.0
  0
SPLINE
  5
1BB
330
1F
100
AcDbEntity
  8
0
  6
Continuous
 62
     7
370
    25
100
AcDbSpline
210
0.0
220
0.0
230
1.0
 70
     8
 71
     3
 72
    16
 73
    12
 74
     0
 42
0.00000001
 43
0.00000001
 40
0.0
 40
0.0
 40
0.0
 40
0.0
 40
0.0155634360124117
 40
0.0359329243097674
 40
0.0739120889290614
 40
0.1570057548437684
 40
0.2406581385754913
 40
0.4592958294318598
 40
0.6783839187935417
 40
0.8974954344294845
 40
1.0
 40
1.0
 40
1.0
 40
1.0
 10
231.1845728422448
 20
84.34853353010335
 30
0.0
 10
231.1982665092581
 20
84.35372690188252
 30
0.0
 10
231.2298825033048
 20
84.36571737975031
 30
0.0
 10
231.2853621936148
 20
84.48404330374726
 30
0.0
 10
231.3639630041054
 20
84.79529461119621
 30
0.0
 10
231.4433031907344
 20
85.32094211256128
 30
0.0
 10
231.5485308988376
 20
86.35948827683143
 30
0.0
 10
231.6635243000568
 20
87.79456231917754
 30
0.0
 10
231.7659243004718
 20
89.63281442061698
 30
0.0
 10
231.8356731803521
 20
91.15399726943642
 30
0.0
 10
231.8751317997809
 20
92.05982931023293
 30
0.0
 10
231.8877079390939
 20
92.3485335301009
 30
0.0
  0
LINE
  5
1BC
330
1F
100
AcDbEntity
  8
0
  6
Continuous
 62
     7
370
    25
100
AcDbLine
 10
231.8877079391
 20
92.3485335301
 30
0.0
 11
231.6675472238
 21
93.3432771081
 31
0.0
  0
ELLIPSE
  5
1BD
330
1F
100
AcDbEntity
  8
0
  6
Continuous
 62
     7
370
    25
100
AcDbEllipse
 10
169.3442950645
 20
90.6964079624
 30
0.0
 11
65.0
 21
0.0
 31
0.0
210
0.0
220
0.0
230
1.0
 40
0.2713992096
 41
6.084179739699223
 42
6.174194364446292
  0
SPLINE
  5
1BE
330
1F
100
AcDbEntity
  8
0
  6
Continuous
 62
     7
370
    25
100
AcDbSpline
210
0.0
220
0.0
230
1.0
 70
     8
 71
     3
 72
    13
 73
     9
 74
     0
 42
0.00000001
 43
0.00000001
 40
0.0
 40
0.0
 40
0.0
 40
0.0
 40
0.161029400638956
 40
0.3266880383557516
 40
0.4877296220820636
 40
0.6535536198224137
 40
0.8237602734841889
 40
1.0
 40
1.0
 40
1.0
 40
1.0
 10
233.0614327343625
 20
87.20888728161043
 30
0.0
 10
233.0176289669301
 20
87.13949038703318
 30
0.0
 10
232.9287621711878
 20
86.99870159152464
 30
0.0
 10
232.7997421525159
 20
86.65257677381697
 30
0.0
 10
232.6787320567485
 20
86.21337013076494
 30
0.0
 10
232.5720510736239
 20
85.67976829382535
 30
0.0
 10
232.4813837862681
 20
85.05594198712565
 30
0.0
 10
232.4445649773713
 20
84.58705808892367
 30
0.0
 10
232.4258349885999
 20
84.34853353010327
 30
0.0
  0
LINE
  5
1BF
330
1F
100
AcDbEntity
  8
0
  6
Continuous
 62
     7
370
    25
100
AcDbLine
 10
232.4258349886
 20
84.3485335301
 30
0.0
 11
231.1845728422
 21
84.3485335301
 31
0.0
  0
LINE
  5
1C0
330
1F
100
AcDbEntity
  8
0
  6
Continuous
 62
     7
370
    25
100
AcDbLine
 10
231.6675472238
 20
93.3432771081
 30
0.0
 11
234.3442950645
 21
93.3432771081
 31
0.0
  0
SPLINE
  5
1C1
330
1F
100
AcDbEntity
  8
0
  6
Continuous
 62
     7
370
    25
100
AcDbSpline
210
0.0
220
0.0
230
1.0
 70
     8
 71
     3
 72
    17
 73
    13
 74
     0
 42
0.00000001
 43
0.00000001
 40
0.0
 40
0.0
 40
0.0
 40
0.0
 40
0.3241697628029873
 40
0.5422758463620719
 40
0.689509052693928
 40
0.7894036290694505
 40
0.8577090008137825
 40
0.9049823971474137
 40
0.9551712229700868
 40
0.9753097783197817
 40
0.9919572060138848
 40
1.0
 40
1.0
 40
1.0
 40
1.0
 10
243.8008821898401
 20
92.3485335301009
 30
0.0
 10
243.8415326285669
 20
91.43592002749521
 30
0.0
 10
243.9095332677225
 20
89.90928702123388
 30
0.0
 10
244.0209661670389
 20
87.9825141189529
 30
0.0
 10
244.1134708270974
 20
86.69487864802014
 30
0.0
 10
244.1913722834148
 20
85.8357266812984
 30
0.0
 10
244.2574247828371
 20
85.262258792921
 30
0.0
 10
244.3207813901996
 20
84.84072663889103
 30
0.0
 10
244.3789078578935
 20
84.5602340960956
 30
0.0
 10
244.4382496862162
 20
84.40468542751493
 30
0.0
 10
244.475255754839
 20
84.35407482831744
 30
0.0
 10
244.4969503217095
 20
84.34989507651281
 30
0.0
 10
244.5040172866892
 20
84.34853353010332
 30
0.0
  0
LINE
  5
1C2
330
1F
100
AcDbEntity
  8
0
  6
Continuous
 62
     7
370
    25
100
AcDbLine
 10
244.5040172867
 20
84.3485335301
 30
0.0
 11
243.2627551403
 21
84.3485335301
 31
0.0
  0
SPLINE
  5
1C3
330
1F
100
AcDbEntity
  8
0
  6
Continuous
 62
     7
370
    25
100
AcDbSpline
210
0.0
220
0.0
230
1.0
 70
     8
 71
     3
 72
    14
 73
    10
 74
     0
 42
0.00000001
 43
0.00000001
 40
0.0
 40
0.0
 40
0.0
 40
0.0
 40
0.1576095309202821
 40
0.3152382602707094
 40
0.4726926441579496
 40
0.6301650083177253
 40
0.7907313191165902
 40
0.9513050385928076
 40
1.0
 40
1.0
 40
1.0
 40
1.0
 10
243.2627551403341
 20
84.34853353010327
 30
0.0
 10
243.2462498034917
 20
84.56203531858067
 30
0.0
 10
243.2132371192903
 20
84.98906490220618
 30
0.0
 10
243.1334334293784
 20
85.57431198106248
 30
0.0
 10
243.0356460218921
 20
86.0964665218849
 30
0.0
 10
242.9220561822102
 20
86.54544464930477
 30
0.0
 10
242.7975140831784
 20
86.90472638111116
 30
0.0
 10
242.697156742402
 20
87.10929256021234
 30
0.0
 10
242.6403709447869
 20
87.19008710856365
 30
0.0
 10
242.6271573945716
 20
87.20888728161042
 30
0.0
  0
ELLIPSE
  5
1C4
330
1F
100
AcDbEntity
  8
0
  6
Continuous
 62
     7
370
    25
100
AcDbEllipse
 10
306.3442950645
 20
90.6964079624
 30
0.0
 11
65.00000000000006
 21
0.0
 31
0.0
210
0.0
220
0.0
230
1.0
 40
0.2713992096
 41
3.25058359632319
 42
3.340598221070255
  0
LINE
  5
1C5
330
1F
100
AcDbEntity
  8
0
  6
Continuous
 62
     7
370
    25
100
AcDbLine
 10
244.0210429051
 20
93.3432771081
 30
0.0
 11
243.8008821898
 21
92.3485335301
 31
0.0
  0
LINE
  5
1C6
330
1F
100
AcDbEntity
  8
0
  6
Continuous
 62
     7
370
    25
100
AcDbLine
 10
241.3442950645
 20
93.3432771081
 30
0.0
 11
244.0210429051
 21
93.3432771081
 31
0.0
  0
LINE
  5
1C7
330
1F
100
AcDbEntity
  8
0
  6
Continuous
 62
     7
370
    25
100
AcDbLine
 10
233.0614327344
 20
87.2088872816
 30
0.0
 11
242.6271573946
 21
87.2088872816
 31
0.0
  0
SPLINE
  5
1C8
330
1F
100
AcDbEntity
  8
0
  6
Continuous
 62
     7
370
    25
100
AcDbSpline
210
0.0
220
0.0
230
1.0
 70
     8
 71
     3
 72
    16
 73
    12
 74
     0
 42
0.00000001
 43
0.00000001
 40
0.0
 40
0.0
 40
0.0
 40
0.0
 40
0.1082397394540287
 40
0.2409347985297594
 40
0.3278143823752723
 40
0.4147786007912547
 40
0.5911316736061376
 40
0.6905102391473411
 40
0.7897210831517909
 40
0.9112972329116561
 40
0.9999999999999999
 40
0.9999999999999999
 40
0.9999999999999999
 40
0.9999999999999999
 10
240.4423712758204
 20
84.34853353010327
 30
0.0
 10
240.324317392593
 20
84.53159072479411
 30
0.0
 10
240.0615369321585
 20
84.93906443587963
 30
0.0
 10
239.4848591710812
 20
85.28329410435357
 30
0.0
 10
238.8993015786871
 20
85.48727664847135
 30
0.0
 10
238.1922795656551
 20
85.61869067883343
 30
0.0
 10
237.4324566310397
 20
85.61567043477788
 30
0.0
 10
236.678488124789
 20
85.46091070006956
 30
0.0
 10
236.0781119222225
 20
85.22036436872635
 30
0.0
 10
235.5614578110848
 20
84.85992253029669
 30
0.0
 10
235.3397448761728
 20
84.50025392574237
 30
0.0
 10
235.2462188531137
 20
84.34853353010327
 30
0.0
  0
LINE
  5
1C9
330
1F
100
AcDbEntity
  8
0
  6
Continuous
 62
     7
370
    25
100
AcDbLine
 10
235.2462188531
 20
84.3485335301
 30
0.0
 11
232.4258349886
 21
84.3485335301
 31
0.0
  0
LINE
  5
1CA
330
1F
100
AcDbEntity
  8
0
  6
Continuous
 62
     7
370
    25
100
AcDbLine
 10
243.2627551403
 20
84.3485335301
 30
0.0
 11
240.4423712758
 21
84.3485335301
 31
0.0
  0
LINE
  5
1CB
330
1F
100
AcDbEntity
  8
0
  6
Continuous
 62
     7
370
    25
100
AcDbLine
 10
240.4423712758
 20
84.3485335301
 30
0.0
 11
235.2462188531
 21
84.3485335301
 31
0.0
  0
LINE
  5
1CC
330
1F
100
AcDbEntity
  8
0
  6
Continuous
 62
     7
370
    25
100
AcDbLine
 10
243.8008821898
 20
92.3485335301
 30
0.0
 11
245.2942950645
 21
92.3485335301
 31
0.0
  0
LINE
  5
1CD
330
1F
100
AcDbEntity
  8
0
  6
Continuous
 62
     7
370
    25
100
AcDbLine
 10
230.3942950645
 20
92.3485335301
 30
0.0
 11
231.8877079391
 21
92.3485335301
 31
0.0
  0
LINE
  5
1CE
330
1F
100
AcDbEntity
  8
0
  6
Continuous
 62
     7
370
    25
100
AcDbLine
 10
234.3442950645
 20
100.3485335301
 30
0.0
 11
232.3442950645
 21
100.3485335301
 31
0.0
  0
LINE
  5
1CF
330
1F
100
AcDbEntity
  8
0
  6
Continuous
 62
     7
370
    25
100
AcDbLine
 10
243.3442950645
 20
100.3485335301
 30
0.0
 11
241.3442950645
 21
100.3485335301
 31
0.0
  0
SPLINE
  5
1D0
330
1F
100
AcDbEntity
  8
0
  6
Continuous
 62
     7
370
    25
100
AcDbSpline
210
0.0
220
0.0
230
1.0
 70
     8
 71
     3
 72
     9
 73
     5
 74
     0
 42
0.00000001
 43
0.00000001
 40
0.0
 40
0.0
 40
0.0
 40
0.0
 40
0.4875141023677128
 40
0.9999999999999999
 40
0.9999999999999999
 40
0.9999999999999999
 40
0.9999999999999999
 10
244.5040172866892
 20
84.34853353010332
 30
0.0
 10
244.512543398225
 20
84.35026087607503
 30
0.0
 10
244.5300323518663
 20
84.35380404736651
 30
0.0
 10
244.5463540557527
 20
84.37532253331581
 30
0.0
 10
244.5547186988198
 20
84.38635045390325
 30
0.0
  0
SPLINE
  5
1D1
330
1F
100
AcDbEntity
  8
0
  6
Continuous
 62
     7
370
    25
100
AcDbSpline
210
0.0
220
0.0
230
1.0
 70
     8
 71
     3
 72
     9
 73
     5
 74
     0
 42
0.00000001
 43
0.00000001
 40
0.0
 40
0.0
 40
0.0
 40
0.0
 40
0.5124861829376838
 40
0.9999999999999999
 40
0.9999999999999999
 40
0.9999999999999999
 40
0.9999999999999999
 10
231.1338714609805
 20
84.38635040804348
 30
0.0
 10
231.1422361041041
 20
84.3753224950923
 30
0.0
 10
231.1585577990143
 20
84.3538040360229
 30
0.0
 10
231.1760467412561
 20
84.35026087167773
 30
0.0
 10
231.1845728422448
 20
84.34853353010335
 30
0.0
  0
LINE
  5
1D2
330
1F
100
AcDbEntity
  8
0
  6
Continuous
 62
     7
370
    25
100
AcDbLine
 10
244.552498997
 20
84.3485335301
 30
0.0
 11
244.8442950645
 21
84.3485335301
 31
0.0
  0
LINE
  5
1D3
330
1F
100
AcDbEntity
  8
0
  6
Continuous
 62
     7
370
    25
100
AcDbLine
 10
230.8442950645
 20
84.3485335301
 30
0.0
 11
231.136091132
 21
84.3485335301
 31
0.0
  0
LINE
  5
1D4
330
1F
100
AcDbEntity
  8
0
  6
Continuous
 62
     7
370
    25
100
AcDbLine
 10
244.5547186988
 20
84.3863504539
 30
0.0
 11
244.552498997
 21
84.3485335301
 31
0.0
  0
LINE
  5
1D5
330
1F
100
AcDbEntity
  8
0
  6
Continuous
 62
     7
370
    25
100
AcDbLine
 10
244.552498997
 20
84.3485335301
 30
0.0
 11
244.5040172867
 21
84.3485335301
 31
0.0
  0
LINE
  5
1D6
330
1F
100
AcDbEntity
  8
0
  6
Continuous
 62
     7
370
    25
100
AcDbLine
 10
231.136091132
 20
84.3485335301
 30
0.0
 11
231.133871461
 21
84.386350408
 31
0.0
  0
LINE
  5
1D7
330
1F
100
AcDbEntity
  8
0
  6
Continuous
 62
     7
370
    25
100
AcDbLine
 10
231.1845728422
 20
84.3485335301
 30
0.0
 11
231.136091132
 21
84.3485335301
 31
0.0
  0
CIRCLE
  5
1D8
330
1F
100
AcDbEntity
  8
0
  6
Continuous
 62
     7
370
    25
100
AcDbCircle
 10
237.8442950645
 20
73.8485335301
 30
0.0
 40
9.750000000000028
  0
CIRCLE
  5
1D9
330
1F
100
AcDbEntity
  8
0
  6
Continuous
 62
     7
370
    25
100
AcDbCircle
 10
237.8442950645
 20
73.8485335301
 30
0.0
 40
10.00000000000003
  0
SPLINE
  5
1DA
330
1F
100
AcDbEntity
  8
0
  6
Continuous
 62
     7
370
    25
100
AcDbSpline
210
0.0
220
0.0
230
1.0
 70
     8
 71
     3
 72
    12
 73
     8
 74
     0
 42
0.00000001
 43
0.00000001
 40
0.0
 40
0.0
 40
0.0
 40
0.0
 40
0.2219162953575107
 40
0.4518329400641512
 40
0.6844940993635733
 40
0.9187471122076032
 40
1.0
 40
1.0
 40
1.0
 40
1.0
 10
243.7439797437167
 20
82.84662720042722
 30
0.0
 10
243.7423668877251
 20
82.83731641687623
 30
0.0
 10
243.7390830303434
 20
82.81835918482905
 30
0.0
 10
243.7131901887768
 20
82.65459778418877
 30
0.0
 10
243.6839171628355
 20
82.40687573253892
 30
0.0
 10
243.6643745266557
 20
82.16160299204628
 30
0.0
 10
243.662047025237
 20
82.01007534147965
 30
0.0
 10
243.661447618978
 20
81.9710521119169
 30
0.0
  0
SPLINE
  5
1DB
330
1F
100
AcDbEntity
  8
0
  6
Continuous
 62
     7
370
    25
100
AcDbSpline
210
0.0
220
0.0
230
1.0
 70
    24
 71
     3
 72
    14
 73
    10
 74
     0
 42
0.00000001
 43
0.00000001
 40
0.0
 40
0.0
 40
0.0
 40
0.0
 40
0.0816565924656661
 40
0.2564894529026625
 40
0.4387467737463362
 40
0.6213569141093516
 40
0.8039729070725311
 40
0.9144311939432663
 40
1.0
 40
1.0
 40
1.0
 40
1.0
 10
244.044295064467
 20
82.38296523791148
 30
0.0
 10
244.044295064467
 20
82.38431624158724
 30
0.0
 10
244.044295064467
 20
82.38855984499023
 30
0.0
 10
244.044295064467
 20
82.32543269594196
 30
0.0
 10
244.044295064467
 20
82.20359495851513
 30
0.0
 10
244.044295064467
 20
82.03607261311762
 30
0.0
 10
244.044295064467
 20
81.87373136900322
 30
0.0
 10
244.044295064467
 20
81.7426052472861
 30
0.0
 10
244.044295064467
 20
81.68113509782404
 30
0.0
 10
244.044295064467
 20
81.65430244311777
 30
0.0
  0
LINE
  5
1DC
330
1F
100
AcDbEntity
  8
0
  6
Continuous
 62
     7
370
    25
100
AcDbLine
 10
232.5942950645
 20
101.1985335301
 30
0.0
 11
234.3442950645
 21
101.1985335301
 31
0.0
  0
LINE
  5
1DD
330
1F
100
AcDbEntity
  8
0
  6
Continuous
 62
     7
370
    25
100
AcDbLine
 10
241.3442950645
 20
101.1985335301
 30
0.0
 11
243.0942950645
 21
101.1985335301
 31
0.0
  0
LINE
  5
1DE
330
1F
100
AcDbEntity
  8
0
  6
Continuous
 62
     7
370
    25
100
AcDbLine
 10
234.3442950645
 20
100.9485335301
 30
0.0
 11
232.3442950645
 21
100.9485335301
 31
0.0
  0
LINE
  5
1DF
330
1F
100
AcDbEntity
  8
0
  6
Continuous
 62
     7
370
    25
100
AcDbLine
 10
243.3442950645
 20
100.9485335301
 30
0.0
 11
241.3442950645
 21
100.9485335301
 31
0.0
  0
INSERT
  5
1EB
330
1F
100
AcDbEntity
  8
0
  6
Continuous
 62
     7
370
    18
100
AcDbBlockReference
  2
SW_CENTERMARKSYMBOL_0
 10
237.8442950645
 20
73.8485335301
 30
0.0
  0
LINE
  5
1EC
330
1F
100
AcDbEntity
  8
0
  6
Continuous
 62
     7
370
    25
100
AcDbLine
 10
163.8674243792
 20
126.852457661
 30
0.0
 11
163.8942192984
 21
126.952457661
 31
0.0
  0
LINE
  5
1ED
330
1F
100
AcDbEntity
  8
0
  6
Continuous
 62
     7
370
    25
100
AcDbLine
 10
163.8942192984
 20
135.752457661
 30
0.0
 11
163.8674243792
 21
135.852457661
 31
0.0
  0
LINE
  5
1EE
330
1F
100
AcDbEntity
  8
0
  6
Continuous
 62
     7
370
    25
100
AcDbLine
 10
163.8674243792
 20
135.852457661
 30
0.0
 11
163.3942192984
 21
135.852457661
 31
0.0
  0
LINE
  5
1EF
330
1F
100
AcDbEntity
  8
0
  6
Continuous
 62
     7
370
    25
100
AcDbLine
 10
163.3942192984
 20
126.852457661
 30
0.0
 11
163.8674243792
 21
126.852457661
 31
0.0
  0
LINE
  5
1F0
330
1F
100
AcDbEntity
  8
0
  6
Continuous
 62
     7
370
    25
100
AcDbLine
 10
163.3942192984
 20
135.352457661
 30
0.0
 11
159.3942192984
 21
135.352457661
 31
0.0
  0
LINE
  5
1F1
330
1F
100
AcDbEntity
  8
0
  6
Continuous
 62
     7
370
    25
100
AcDbLine
 10
159.3942192984
 20
127.352457661
 30
0.0
 11
163.3942192984
 21
127.352457661
 31
0.0
  0
LINE
  5
1F2
330
1F
100
AcDbEntity
  8
0
  6
Continuous
 62
     7
370
    25
100
AcDbLine
 10
159.3942192984
 20
135.352457661
 30
0.0
 11
156.3172962215
 21
134.852457661
 31
0.0
  0
LINE
  5
1F3
330
1F
100
AcDbEntity
  8
0
  6
Continuous
 62
     7
370
    25
100
AcDbLine
 10
156.3172962215
 20
127.852457661
 30
0.0
 11
159.3942192984
 21
127.352457661
 31
0.0
  0
LINE
  5
1F4
330
1F
100
AcDbEntity
  8
0
  6
Continuous
 62
     7
370
    25
100
AcDbLine
 10
155.3942192984
 20
135.352457661
 30
0.0
 11
151.3942192984
 21
134.702457661
 31
0.0
  0
LINE
  5
1F5
330
1F
100
AcDbEntity
  8
0
  6
Continuous
 62
     7
370
    25
100
AcDbLine
 10
151.3942192984
 20
128.002457661
 30
0.0
 11
155.3942192984
 21
127.352457661
 31
0.0
  0
LINE
  5
1F6
330
1F
100
AcDbEntity
  8
0
  6
Continuous
 62
     7
370
    25
100
AcDbLine
 10
147.3942192984
 20
135.352457661
 30
0.0
 11
143.3942192984
 21
134.702457661
 31
0.0
  0
LINE
  5
1F7
330
1F
100
AcDbEntity
  8
0
  6
Continuous
 62
     7
370
    25
100
AcDbLine
 10
143.3942192984
 20
128.002457661
 30
0.0
 11
147.3942192984
 21
127.352457661
 31
0.0
  0
LINE
  5
1F8
330
1F
100
AcDbEntity
  8
0
  6
Continuous
 62
     7
370
    25
100
AcDbLine
 10
151.3942192984
 20
135.352457661
 30
0.0
 11
147.3942192984
 21
134.702457661
 31
0.0
  0
LINE
  5
1F9
330
1F
100
AcDbEntity
  8
0
  6
Continuous
 62
     7
370
    25
100
AcDbLine
 10
147.3942192984
 20
128.002457661
 30
0.0
 11
151.3942192984
 21
127.352457661
 31
0.0
  0
LINE
  5
1FA
330
1F
100
AcDbEntity
  8
0
  6
Continuous
 62
     7
370
    25
100
AcDbLine
 10
143.3942192984
 20
135.352457661
 30
0.0
 11
138.6003272625
 21
134.785906784
 31
0.0
  0
LINE
  5
1FB
330
1F
100
AcDbEntity
  8
0
  6
Continuous
 62
     7
370
    25
100
AcDbLine
 10
138.6003272625
 20
127.919008538
 30
0.0
 11
143.3942192984
 21
127.352457661
 31
0.0
  0
ARC
  5
1FC
330
1F
100
AcDbEntity
  8
0
  6
Continuous
 62
     7
370
    25
100
AcDbCircle
 10
138.6942192984
 20
133.9914357112
 30
0.0
 40
0.8000000000000135
100
AcDbArc
 50
96.7400560979
 51
180.0
  0
ARC
  5
1FD
330
1F
100
AcDbEntity
  8
0
  6
Continuous
 62
     7
370
    25
100
AcDbCircle
 10
138.6942192984
 20
128.7134796108
 30
0.0
 40
0.7999999999999853
100
AcDbArc
 50
180.0
 51
263.2599439021
  0
LINE
  5
1FE
330
1F
100
AcDbEntity
  8
0
  6
Continuous
 62
     7
370
    25
100
AcDbLine
 10
165.9808218388
 20
139.352457661
 30
0.0
 11
165.8942192984
 21
139.202457661
 31
0.0
  0
LINE
  5
1FF
330
1F
100
AcDbEntity
  8
0
  6
Continuous
 62
     7
370
    25
100
AcDbLine
 10
165.8942192984
 20
123.502457661
 30
0.0
 11
165.9808218388
 21
123.352457661
 31
0.0
  0
LINE
  5
200
330
1F
100
AcDbEntity
  8
0
  6
Continuous
 62
     7
370
    25
100
AcDbLine
 10
174.8076167581
 20
123.352457661
 30
0.0
 11
174.8942192984
 21
123.502457661
 31
0.0
  0
LINE
  5
201
330
1F
100
AcDbEntity
  8
0
  6
Continuous
 62
     7
370
    25
100
AcDbLine
 10
174.8942192984
 20
139.202457661
 30
0.0
 11
174.8076167581
 21
139.352457661
 31
0.0
  0
LINE
  5
202
330
1F
100
AcDbEntity
  8
0
  6
Continuous
 62
     7
370
    25
100
AcDbLine
 10
174.8942192984
 20
123.502457661
 30
0.0
 11
176.5942192984
 21
123.502457661
 31
0.0
  0
LINE
  5
203
330
1F
100
AcDbEntity
  8
0
  6
Continuous
 62
     7
370
    25
100
AcDbLine
 10
176.5942192984
 20
139.202457661
 30
0.0
 11
174.8942192984
 21
139.202457661
 31
0.0
  0
LINE
  5
204
330
1F
100
AcDbEntity
  8
0
  6
Continuous
 62
     7
370
    25
100
AcDbLine
 10
165.8942192984
 20
139.202457661
 30
0.0
 11
164.1942192984
 21
139.202457661
 31
0.0
  0
LINE
  5
205
330
1F
100
AcDbEntity
  8
0
  6
Continuous
 62
     7
370
    25
100
AcDbLine
 10
164.1942192984
 20
123.502457661
 30
0.0
 11
165.8942192984
 21
123.502457661
 31
0.0
  0
ARC
  5
206
330
1F
100
AcDbEntity
  8
0
  6
Continuous
 62
     7
370
    25
100
AcDbCircle
 10
164.1942192984
 20
123.802457661
 30
0.0
 40
0.2999999999999972
100
AcDbArc
 50
180.0
 51
270.0
  0
ARC
  5
207
330
1F
100
AcDbEntity
  8
0
  6
Continuous
 62
     7
370
    25
100
AcDbCircle
 10
164.1942192984
 20
138.902457661
 30
0.0
 40
0.2999999999999829
100
AcDbArc
 50
90.0
 51
180.0
  0
ARC
  5
208
330
1F
100
AcDbEntity
  8
0
  6
Continuous
 62
     7
370
    25
100
AcDbCircle
 10
176.5942192984
 20
138.902457661
 30
0.0
 40
0.3000000000000114
100
AcDbArc
 50
0.0
 51
90.0
  0
ARC
  5
209
330
1F
100
AcDbEntity
  8
0
  6
Continuous
 62
     7
370
    25
100
AcDbCircle
 10
176.5942192984
 20
123.802457661
 30
0.0
 40
0.3000000000000114
100
AcDbArc
 50
270.0
 51
0.0
  0
LINE
  5
20A
330
1F
100
AcDbEntity
  8
0
  6
Continuous
 62
     7
370
    25
100
AcDbLine
 10
180.2977328862
 20
139.352457661
 30
0.0
 11
180.0977328862
 21
139.152457661
 31
0.0
  0
LINE
  5
20B
330
1F
100
AcDbEntity
  8
0
  6
Continuous
 62
     7
370
    25
100
AcDbLine
 10
180.0977328862
 20
123.552457661
 30
0.0
 11
180.2977328862
 21
123.352457661
 31
0.0
  0
LINE
  5
20C
330
1F
100
AcDbEntity
  8
0
  6
Continuous
 62
     7
370
    25
100
AcDbLine
 10
183.0977328862
 20
139.352457661
 30
0.0
 11
180.2977328862
 21
139.352457661
 31
0.0
  0
LINE
  5
20D
330
1F
100
AcDbEntity
  8
0
  6
Continuous
 62
     7
370
    25
100
AcDbLine
 10
180.2977328862
 20
123.352457661
 30
0.0
 11
183.0977328862
 21
123.352457661
 31
0.0
  0
LINE
  5
20E
330
1F
100
AcDbEntity
  8
0
  6
Continuous
 62
     7
370
    25
100
AcDbLine
 10
180.0977328862
 20
137.930957661
 30
0.0
 11
176.8942192984
 21
137.930957661
 31
0.0
  0
LINE
  5
20F
330
1F
100
AcDbEntity
  8
0
  6
Continuous
 62
     7
370
    25
100
AcDbLine
 10
176.8942192984
 20
124.773957661
 30
0.0
 11
180.0977328862
 21
124.773957661
 31
0.0
  0
ARC
  5
210
330
1F
100
AcDbEntity
  8
0
  6
Continuous
 62
     7
370
    25
100
AcDbCircle
 10
202.0977328862
 20
140.352457661
 30
0.0
 40
1.5
100
AcDbArc
 50
138.1896851042
 51
180.0
  0
ARC
  5
211
330
1F
100
AcDbEntity
  8
0
  6
Continuous
 62
     7
370
    25
100
AcDbCircle
 10
202.0977328862
 20
122.352457661
 30
0.0
 40
1.5
100
AcDbArc
 50
180.0
 51
221.8103148958
  0
LINE
  5
212
330
1F
100
AcDbEntity
  8
0
  6
Continuous
 62
     7
370
    25
100
AcDbLine
 10
202.5977328862
 20
121.352457661
 30
0.0
 11
203.0977328862
 21
121.852457661
 31
0.0
  0
LINE
  5
213
330
1F
100
AcDbEntity
  8
0
  6
Continuous
 62
     7
370
    25
100
AcDbLine
 10
203.0977328862
 20
140.852457661
 30
0.0
 11
202.5977328862
 21
141.352457661
 31
0.0
  0
LINE
  5
214
330
1F
100
AcDbEntity
  8
0
  6
Continuous
 62
     7
370
    25
100
AcDbLine
 10
202.5977328862
 20
141.352457661
 30
0.0
 11
200.9796988974
 21
141.352457661
 31
0.0
  0
LINE
  5
215
330
1F
100
AcDbEntity
  8
0
  6
Continuous
 62
     7
370
    25
100
AcDbLine
 10
200.9796988974
 20
121.352457661
 30
0.0
 11
202.5977328862
 21
121.352457661
 31
0.0
  0
LINE
  5
216
330
1F
100
AcDbEntity
  8
0
  6
Continuous
 62
     7
370
    25
100
AcDbLine
 10
183.3477328862
 20
141.352457661
 30
0.0
 11
183.0977328862
 21
141.102457661
 31
0.0
  0
LINE
  5
217
330
1F
100
AcDbEntity
  8
0
  6
Continuous
 62
     7
370
    25
100
AcDbLine
 10
183.0977328862
 20
121.602457661
 30
0.0
 11
183.3477328862
 21
121.352457661
 31
0.0
  0
LINE
  5
218
330
1F
100
AcDbEntity
  8
0
  6
Continuous
 62
     7
370
    25
100
AcDbLine
 10
183.3477328862
 20
121.352457661
 30
0.0
 11
185.2157668749
 21
121.352457661
 31
0.0
  0
LINE
  5
219
330
1F
100
AcDbEntity
  8
0
  6
Continuous
 62
     7
370
    25
100
AcDbLine
 10
185.2157668749
 20
141.352457661
 30
0.0
 11
183.3477328862
 21
141.352457661
 31
0.0
  0
ARC
  5
21A
330
1F
100
AcDbEntity
  8
0
  6
Continuous
 62
     7
370
    25
100
AcDbCircle
 10
184.0977328862
 20
122.352457661
 30
0.0
 40
1.5
100
AcDbArc
 50
318.1896851042
 51
0.0
  0
ARC
  5
21B
330
1F
100
AcDbEntity
  8
0
  6
Continuous
 62
     7
370
    25
100
AcDbCircle
 10
184.0977328862
 20
140.352457661
 30
0.0
 40
1.5
100
AcDbArc
 50
0.0
 51
41.8103148958
  0
LINE
  5
21C
330
1F
100
AcDbEntity
  8
0
  6
Continuous
 62
     7
370
    25
100
AcDbLine
 10
203.0977328862
 20
124.585520161
 30
0.0
 11
210.8922084286
 21
124.8290975217
 31
0.0
  0
LINE
  5
21D
330
1F
100
AcDbEntity
  8
0
  6
Continuous
 62
     7
370
    25
100
AcDbLine
 10
210.8922084286
 20
137.8758178003
 30
0.0
 11
203.0977328862
 21
138.119395161
 31
0.0
  0
LINE
  5
21E
330
1F
100
AcDbEntity
  8
0
  6
Continuous
 62
     7
370
    25
100
AcDbLine
 10
210.8922084286
 20
124.8290975217
 30
0.0
 11
213.0977328862
 21
126.102457661
 31
0.0
  0
LINE
  5
21F
330
1F
100
AcDbEntity
  8
0
  6
Continuous
 62
     7
370
    25
100
AcDbLine
 10
213.0977328862
 20
136.602457661
 30
0.0
 11
210.8922084286
 21
137.8758178003
 31
0.0
  0
ARC
  5
220
330
1F
100
AcDbEntity
  8
0
  6
Continuous
 62
     7
370
    25
100
AcDbCircle
 10
186.0897911238
 20
140.3524085808
 30
0.0
 40
0.4999499223317652
100
AcDbArc
 50
185.4070207077
 51
271.7417304983
  0
ARC
  5
221
330
1F
100
AcDbEntity
  8
0
  6
Continuous
 62
     7
370
    25
100
AcDbCircle
 10
186.097620993
 20
140.3524575905
 30
0.0
 40
0.4999999295239142
100
AcDbArc
 50
181.8055459077
 51
270.0008318653
  0
ARC
  5
222
330
1F
100
AcDbEntity
  8
0
  6
Continuous
 62
     7
370
    25
100
AcDbCircle
 10
200.1056746225
 20
140.3524086322
 30
0.0
 40
0.4999499729556131
100
AcDbArc
 50
268.2582726631
 51
354.6234834793
  0
ARC
  5
223
330
1F
100
AcDbEntity
  8
0
  6
Continuous
 62
     7
370
    25
100
AcDbCircle
 10
200.0978447794
 20
140.3524575904
 30
0.0
 40
0.4999999293577339
100
AcDbArc
 50
269.9991681241
 51
358.1336831482
  0
ARC
  5
224
330
1F
100
AcDbEntity
  8
0
  6
Continuous
 62
     7
370
    25
100
AcDbCircle
 10
186.0897911498
 20
122.3525066898
 30
0.0
 40
0.4999499729556131
100
AcDbArc
 50
88.2582726631
 51
174.6234834793
  0
ARC
  5
225
330
1F
100
AcDbEntity
  8
0
  6
Continuous
 62
     7
370
    25
100
AcDbCircle
 10
186.0976209929
 20
122.3524577316
 30
0.0
 40
0.4999999293577196
100
AcDbArc
 50
89.999168124
 51
178.1336831482
  0
ARC
  5
226
330
1F
100
AcDbEntity
  8
0
  6
Continuous
 62
     7
370
    25
100
AcDbCircle
 10
200.1056746485
 20
122.3525067412
 30
0.0
 40
0.4999499223317527
100
AcDbArc
 50
5.4070207077
 51
91.7417304983
  0
ARC
  5
227
330
1F
100
AcDbEntity
  8
0
  6
Continuous
 62
     7
370
    25
100
AcDbCircle
 10
200.0978447793
 20
122.3524577315
 30
0.0
 40
0.4999999295239936
100
AcDbArc
 50
1.8055459077
 51
90.0008318653
  0
LINE
  5
228
330
1F
100
AcDbEntity
  8
0
  6
Continuous
 62
     7
370
    25
100
AcDbLine
 10
163.8674243792
 20
135.852457661
 30
0.0
 11
163.8674243792
 21
134.852457661
 31
0.0
  0
LINE
  5
229
330
1F
100
AcDbEntity
  8
0
  6
Continuous
 62
     7
370
    25
100
AcDbLine
 10
163.8674243792
 20
127.852457661
 30
0.0
 11
163.8674243792
 21
126.852457661
 31
0.0
  0
LINE
  5
22A
330
1F
100
AcDbEntity
  8
0
  6
Continuous
 62
     7
370
    25
100
AcDbLine
 10
163.3942192984
 20
135.8245096342
 30
0.0
 11
163.3942192984
 21
135.852457661
 31
0.0
  0
LINE
  5
22B
330
1F
100
AcDbEntity
  8
0
  6
Continuous
 62
     7
370
    25
100
AcDbLine
 10
163.3942192984
 20
126.852457661
 30
0.0
 11
163.3942192984
 21
127.852457661
 31
0.0
  0
LINE
  5
22C
330
1F
100
AcDbEntity
  8
0
  6
Continuous
 62
     7
370
    25
100
AcDbLine
 10
163.3942192984
 20
134.852457661
 30
0.0
 11
163.3942192984
 21
135.8245096342
 31
0.0
  0
LINE
  5
22D
330
1F
100
AcDbEntity
  8
0
  6
Continuous
 62
     7
370
    25
100
AcDbLine
 10
159.3942192984
 20
135.352457661
 30
0.0
 11
159.3942192984
 21
134.852457661
 31
0.0
  0
LINE
  5
22E
330
1F
100
AcDbEntity
  8
0
  6
Continuous
 62
     7
370
    25
100
AcDbLine
 10
159.3942192984
 20
127.852457661
 30
0.0
 11
159.3942192984
 21
127.352457661
 31
0.0
  0
LINE
  5
22F
330
1F
100
AcDbEntity
  8
0
  6
Continuous
 62
     7
370
    25
100
AcDbLine
 10
155.3942192984
 20
135.352457661
 30
0.0
 11
155.3942192984
 21
134.852457661
 31
0.0
  0
LINE
  5
230
330
1F
100
AcDbEntity
  8
0
  6
Continuous
 62
     7
370
    25
100
AcDbLine
 10
155.3942192984
 20
127.852457661
 30
0.0
 11
155.3942192984
 21
127.352457661
 31
0.0
  0
LINE
  5
231
330
1F
100
AcDbEntity
  8
0
  6
Continuous
 62
     7
370
    25
100
AcDbLine
 10
147.3942192984
 20
135.352457661
 30
0.0
 11
147.3942192984
 21
127.352457661
 31
0.0
  0
LINE
  5
232
330
1F
100
AcDbEntity
  8
0
  6
Continuous
 62
     7
370
    25
100
AcDbLine
 10
151.3942192984
 20
135.352457661
 30
0.0
 11
151.3942192984
 21
127.352457661
 31
0.0
  0
LINE
  5
233
330
1F
100
AcDbEntity
  8
0
  6
Continuous
 62
     7
370
    25
100
AcDbLine
 10
143.3942192984
 20
135.352457661
 30
0.0
 11
143.3942192984
 21
127.352457661
 31
0.0
  0
LINE
  5
234
330
1F
100
AcDbEntity
  8
0
  6
Continuous
 62
     7
370
    25
100
AcDbLine
 10
137.8942192984
 20
128.7134796108
 30
0.0
 11
137.8942192984
 21
133.9914357112
 31
0.0
  0
SPLINE
  5
235
330
1F
100
AcDbEntity
  8
0
  6
Continuous
 62
     7
370
    25
100
AcDbSpline
210
0.0
220
0.0
230
1.0
 70
     8
 71
     3
 72
    11
 73
     7
 74
     0
 42
0.00000001
 43
0.00000001
 40
0.0
 40
0.0
 40
0.0
 40
0.0
 40
0.4709116352817384
 40
0.7117259034345566
 40
0.9524967157451758
 40
0.9999999999999999
 40
0.9999999999999999
 40
0.9999999999999999
 40
0.9999999999999999
 10
166.6953530186236
 20
139.3524576609914
 30
0.0
 10
166.4858906677917
 20
138.6580388332644
 30
0.0
 10
166.1693136930218
 20
137.6085088779677
 30
0.0
 10
166.0061939517624
 20
136.1672474874408
 30
0.0
 10
165.9457343099631
 20
135.3601242669762
 30
0.0
 10
166.0003280937733
 20
134.92427855325
 30
0.0
 10
166.0093243374934
 20
134.8524576609914
 30
0.0
  0
SPLINE
  5
236
330
1F
100
AcDbEntity
  8
0
  6
Continuous
 62
     7
370
    25
100
AcDbSpline
210
0.0
220
0.0
230
1.0
 70
     8
 71
     3
 72
    10
 73
     6
 74
     0
 42
0.00000001
 43
0.00000001
 40
0.0
 40
0.0
 40
0.0
 40
0.0
 40
0.1721130615207062
 40
0.5822633461311506
 40
1.0
 40
1.0
 40
1.0
 40
1.0
 10
166.0049623021408
 20
127.8524576609914
 30
0.0
 10
165.9938602385805
 20
127.59100760977
 30
0.0
 10
165.956301644128
 20
126.7065147053659
 30
0.0
 10
166.1484325547382
 20
125.1858658489301
 30
0.0
 10
166.5119358724493
 20
123.9673157981607
 30
0.0
 10
166.6953530186236
 20
123.3524576609915
 30
0.0
  0
SPLINE
  5
237
330
1F
100
AcDbEntity
  8
0
  6
Continuous
 62
     7
370
    25
100
AcDbSpline
210
0.0
220
0.0
230
1.0
 70
    24
 71
     3
 72
    10
 73
     6
 74
     0
 42
0.00000001
 43
0.00000001
 40
0.0
 40
0.0
 40
0.0
 40
0.0
 40
0.3824298570797015
 40
0.7685184903621144
 40
1.0
 40
1.0
 40
1.0
 40
1.0
 10
166.6953530186236
 20
123.3524576609915
 30
0.0
 10
166.5426436958929
 20
123.3524576609915
 30
0.0
 10
166.2357640524847
 20
123.3524576609915
 30
0.0
 10
166.0108912914287
 20
123.3524576609915
 30
0.0
 10
165.9920255983328
 20
123.3524576609915
 30
0.0
 10
165.9849542410654
 20
123.3524576609915
 30
0.0
  0
SPLINE
  5
238
330
1F
100
AcDbEntity
  8
0
  6
Continuous
 62
     7
370
    25
100
AcDbSpline
210
0.0
220
0.0
230
1.0
 70
    24
 71
     3
 72
    10
 73
     6
 74
     0
 42
0.00000001
 43
0.00000001
 40
0.0
 40
0.0
 40
0.0
 40
0.0
 40
0.2314771185790771
 40
0.6135604587221133
 40
1.0
 40
1.0
 40
1.0
 40
1.0
 10
165.9861632625799
 20
139.3524576609915
 30
0.0
 10
165.9927447052502
 20
139.3524576609915
 30
0.0
 10
166.0101896821388
 20
139.3524576609915
 30
0.0
 10
166.2346777043299
 20
139.3524576609915
 30
0.0
 10
166.5412154002605
 20
139.3524576609914
 30
0.0
 10
166.6953530186236
 20
139.3524576609914
 30
0.0
  0
LINE
  5
239
330
1F
100
AcDbEntity
  8
0
  6
Continuous
 62
     7
370
    25
100
AcDbLine
 10
165.8942192984
 20
139.202457661
 30
0.0
 11
165.8942192984
 21
134.852457661
 31
0.0
  0
LINE
  5
23A
330
1F
100
AcDbEntity
  8
0
  6
Continuous
 62
     7
370
    25
100
AcDbLine
 10
165.8942192984
 20
127.852457661
 30
0.0
 11
165.8942192984
 21
123.502457661
 31
0.0
  0
LINE
  5
23B
330
1F
100
AcDbEntity
  8
0
  6
Continuous
 62
     7
370
    25
100
AcDbLine
 10
174.0930855782
 20
139.352457661
 30
0.0
 11
170.4478091369
 21
139.352457661
 31
0.0
  0
SPLINE
  5
23C
330
1F
100
AcDbEntity
  8
0
  6
Continuous
 62
     7
370
    25
100
AcDbSpline
210
0.0
220
0.0
230
1.0
 70
     8
 71
     3
 72
    11
 73
     7
 74
     0
 42
0.00000001
 43
0.00000001
 40
0.0
 40
0.0
 40
0.0
 40
0.0
 40
0.4843527706399885
 40
0.7320405516388068
 40
0.9796836364441301
 40
1.0
 40
1.0
 40
1.0
 40
1.0
 10
174.0930855782341
 20
139.3524576609914
 30
0.0
 10
174.3029644022516
 20
138.6580202026095
 30
0.0
 10
174.6201708258012
 20
137.6084620893344
 30
0.0
 10
174.7803134600196
 20
136.1673338777389
 30
0.0
 10
174.8440757087343
 20
135.4022547177442
 30
0.0
 10
174.7970570020993
 20
135.0082619383324
 30
0.0
 10
174.7934921002316
 20
134.9783898789821
 30
0.0
  0
LINE
  5
23D
330
1F
100
AcDbEntity
  8
0
  6
Continuous
 62
     7
370
    25
100
AcDbLine
 10
170.3406294599
 20
139.352457661
 30
0.0
 11
166.6953530186
 21
139.352457661
 31
0.0
  0
LINE
  5
23E
330
1F
100
AcDbEntity
  8
0
  6
Continuous
 62
     7
370
    25
100
AcDbLine
 10
170.3942192984
 20
138.9937100153
 30
0.0
 11
170.3406294599
 21
139.352457661
 31
0.0
  0
LINE
  5
23F
330
1F
100
AcDbEntity
  8
0
  6
Continuous
 62
     7
370
    25
100
AcDbLine
 10
170.4478091369
 20
139.352457661
 30
0.0
 11
170.3942192984
 21
138.9937100153
 31
0.0
  0
SPLINE
  5
240
330
1F
100
AcDbEntity
  8
0
  6
Continuous
 62
     7
370
    25
100
AcDbSpline
210
0.0
220
0.0
230
1.0
 70
    24
 71
     3
 72
    10
 73
     6
 74
     0
 42
0.00000001
 43
0.00000001
 40
0.0
 40
0.0
 40
0.0
 40
0.0
 40
0.2314771185790771
 40
0.6135604587221133
 40
1.0
 40
1.0
 40
1.0
 40
1.0
 10
174.8022753342778
 20
139.3524576609915
 30
0.0
 10
174.7956938916075
 20
139.3524576609915
 30
0.0
 10
174.7782489147189
 20
139.3524576609915
 30
0.0
 10
174.5537608925278
 20
139.3524576609915
 30
0.0
 10
174.2472231965972
 20
139.3524576609914
 30
0.0
 10
174.0930855782341
 20
139.3524576609914
 30
0.0
  0
SPLINE
  5
241
330
1F
100
AcDbEntity
  8
0
  6
Continuous
 62
     7
370
    25
100
AcDbSpline
210
0.0
220
0.0
230
1.0
 70
    24
 71
     3
 72
    10
 73
     6
 74
     0
 42
0.00000001
 43
0.00000001
 40
0.0
 40
0.0
 40
0.0
 40
0.0
 40
0.3824298570797015
 40
0.7685184903621144
 40
1.0
 40
1.0
 40
1.0
 40
1.0
 10
174.0930855782341
 20
123.3524576609915
 30
0.0
 10
174.2457949009648
 20
123.3524576609915
 30
0.0
 10
174.552674544373
 20
123.3524576609915
 30
0.0
 10
174.777547305429
 20
123.3524576609915
 30
0.0
 10
174.7964129985249
 20
123.3524576609915
 30
0.0
 10
174.8034843557922
 20
123.3524576609915
 30
0.0
  0
SPLINE
  5
242
330
1F
100
AcDbEntity
  8
0
  6
Continuous
 62
     7
370
    25
100
AcDbSpline
210
0.0
220
0.0
230
1.0
 70
     8
 71
     3
 72
    10
 73
     6
 74
     0
 42
0.00000001
 43
0.00000001
 40
0.0
 40
0.0
 40
0.0
 40
0.0
 40
0.1439301557059762
 40
0.568042765730436
 40
1.0
 40
1.0
 40
1.0
 40
1.0
 10
174.7873496063094
 20
127.7024140579708
 30
0.0
 10
174.7958428315054
 20
127.4909703823803
 30
0.0
 10
174.8293626669185
 20
126.656475000301
 30
0.0
 10
174.6387555495803
 20
125.1858581065473
 30
0.0
 10
174.2760833548876
 20
123.9673132016483
 30
0.0
 10
174.0930855782341
 20
123.3524576609915
 30
0.0
  0
LINE
  5
243
330
1F
100
AcDbEntity
  8
0
  6
Continuous
 62
     7
370
    25
100
AcDbLine
 10
174.8942192984
 20
139.202457661
 30
0.0
 11
174.8942192984
 21
134.9739263466
 31
0.0
  0
LINE
  5
244
330
1F
100
AcDbEntity
  8
0
  6
Continuous
 62
     7
370
    25
100
AcDbLine
 10
174.8942192984
 20
127.7309889753
 30
0.0
 11
174.8942192984
 21
123.502457661
 31
0.0
  0
LINE
  5
245
330
1F
100
AcDbEntity
  8
0
  6
Continuous
 62
     7
370
    25
100
AcDbLine
 10
174.0930855782
 20
123.352457661
 30
0.0
 11
170.4478091369
 21
123.352457661
 31
0.0
  0
LINE
  5
246
330
1F
100
AcDbEntity
  8
0
  6
Continuous
 62
     7
370
    25
100
AcDbLine
 10
170.3942192984
 20
123.7112053067
 30
0.0
 11
170.4478091369
 21
123.352457661
 31
0.0
  0
LINE
  5
247
330
1F
100
AcDbEntity
  8
0
  6
Continuous
 62
     7
370
    25
100
AcDbLine
 10
170.3406294599
 20
123.352457661
 30
0.0
 11
170.3942192984
 21
123.7112053067
 31
0.0
  0
LINE
  5
248
330
1F
100
AcDbEntity
  8
0
  6
Continuous
 62
     7
370
    25
100
AcDbLine
 10
170.3406294599
 20
123.352457661
 30
0.0
 11
166.6953530186
 21
123.352457661
 31
0.0
  0
LINE
  5
249
330
1F
100
AcDbEntity
  8
0
  6
Continuous
 62
     7
370
    25
100
AcDbLine
 10
163.8942192984
 20
123.802457661
 30
0.0
 11
163.8942192984
 21
127.852457661
 31
0.0
  0
LINE
  5
24A
330
1F
100
AcDbEntity
  8
0
  6
Continuous
 62
     7
370
    25
100
AcDbLine
 10
163.8942192984
 20
134.852457661
 30
0.0
 11
163.8942192984
 21
138.902457627
 31
0.0
  0
LINE
  5
24B
330
1F
100
AcDbEntity
  8
0
  6
Continuous
 62
     7
370
    25
100
AcDbLine
 10
176.8942192984
 20
138.902457661
 30
0.0
 11
176.8942192984
 21
135.1273764914
 31
0.0
  0
LINE
  5
24C
330
1F
100
AcDbEntity
  8
0
  6
Continuous
 62
     7
370
    25
100
AcDbLine
 10
176.8942192984
 20
127.5775388306
 30
0.0
 11
176.8942192984
 21
123.802457695
 31
0.0
  0
LINE
  5
24D
330
1F
100
AcDbEntity
  8
0
  6
Continuous
 62
     7
370
    25
100
AcDbLine
 10
170.3406294599
 20
139.352457661
 30
0.0
 11
170.3942192984
 21
139.352457661
 31
0.0
  0
LINE
  5
24E
330
1F
100
AcDbEntity
  8
0
  6
Continuous
 62
     7
370
    25
100
AcDbLine
 10
170.3942192984
 20
139.352457661
 30
0.0
 11
170.3942192984
 21
138.9937100153
 31
0.0
  0
LINE
  5
24F
330
1F
100
AcDbEntity
  8
0
  6
Continuous
 62
     7
370
    25
100
AcDbLine
 10
170.3942192984
 20
139.352457661
 30
0.0
 11
170.4478091369
 21
139.352457661
 31
0.0
  0
LINE
  5
250
330
1F
100
AcDbEntity
  8
0
  6
Continuous
 62
     7
370
    25
100
AcDbLine
 10
170.3942192984
 20
123.7112053067
 30
0.0
 11
170.3942192984
 21
123.352457661
 31
0.0
  0
LINE
  5
251
330
1F
100
AcDbEntity
  8
0
  6
Continuous
 62
     7
370
    25
100
AcDbLine
 10
170.3942192984
 20
123.352457661
 30
0.0
 11
170.3406294599
 21
123.352457661
 31
0.0
  0
LINE
  5
252
330
1F
100
AcDbEntity
  8
0
  6
Continuous
 62
     7
370
    25
100
AcDbLine
 10
170.4478091369
 20
123.352457661
 30
0.0
 11
170.3942192984
 21
123.352457661
 31
0.0
  0
LINE
  5
253
330
1F
100
AcDbEntity
  8
0
  6
Continuous
 62
     7
370
    25
100
AcDbLine
 10
173.0977328862
 20
128.0807583969
 30
0.0
 11
173.0977328862
 21
134.624156925
 31
0.0
  0
LINE
  5
254
330
1F
100
AcDbEntity
  8
0
  6
Continuous
 62
     7
370
    25
100
AcDbLine
 10
170.9222960246
 20
127.852457661
 30
0.0
 11
173.0977328862
 21
128.0807583969
 31
0.0
  0
LINE
  5
255
330
1F
100
AcDbEntity
  8
0
  6
Continuous
 62
     7
370
    25
100
AcDbLine
 10
153.0977328862
 20
127.852457661
 30
0.0
 11
170.9222960246
 21
127.852457661
 31
0.0
  0
LINE
  5
256
330
1F
100
AcDbEntity
  8
0
  6
Continuous
 62
     7
370
    25
100
AcDbLine
 10
153.0977328862
 20
134.852457661
 30
0.0
 11
153.0977328862
 21
127.852457661
 31
0.0
  0
LINE
  5
257
330
1F
100
AcDbEntity
  8
0
  6
Continuous
 62
     7
370
    25
100
AcDbLine
 10
170.9222960246
 20
134.852457661
 30
0.0
 11
153.0977328862
 21
134.852457661
 31
0.0
  0
LINE
  5
258
330
1F
100
AcDbEntity
  8
0
  6
Continuous
 62
     7
370
    25
100
AcDbLine
 10
173.0977328862
 20
134.624156925
 30
0.0
 11
170.9222960246
 21
134.852457661
 31
0.0
  0
LINE
  5
259
330
1F
100
AcDbEntity
  8
0
  6
Continuous
 62
     7
370
    25
100
AcDbLine
 10
187.8739307118
 20
133.0734721418
 30
0.0
 11
187.7773663945
 21
132.9140728216
 31
0.0
  0
LINE
  5
25A
330
1F
100
AcDbEntity
  8
0
  6
Continuous
 62
     7
370
    25
100
AcDbLine
 10
187.7550890139
 20
129.8072399936
 30
0.0
 11
187.8739307118
 21
129.6314431802
 31
0.0
  0
LINE
  5
25B
330
1F
100
AcDbEntity
  8
0
  6
Continuous
 62
     7
370
    25
100
AcDbLine
 10
179.6811632326
 20
133.9332602966
 30
0.0
 11
179.6811632326
 21
128.7716550254
 31
0.0
  0
LINE
  5
25C
330
1F
100
AcDbEntity
  8
0
  6
Continuous
 62
     7
370
    25
100
AcDbLine
 10
187.8739307118
 20
129.6314431802
 30
0.0
 11
179.6811632326
 21
128.7716550254
 31
0.0
  0
LINE
  5
25D
330
1F
100
AcDbEntity
  8
0
  6
Continuous
 62
     7
370
    25
100
AcDbLine
 10
179.6811632326
 20
133.9332602966
 30
0.0
 11
187.8739307118
 21
133.0734721418
 31
0.0
  0
LINE
  5
25E
330
1F
100
AcDbEntity
  8
0
  6
Continuous
 62
     7
370
    25
100
AcDbLine
 10
179.6811632326
 20
128.7716550254
 30
0.0
 11
173.0977328862
 21
128.0807583969
 31
0.0
  0
LINE
  5
25F
330
1F
100
AcDbEntity
  8
0
  6
Continuous
 62
     7
370
    25
100
AcDbLine
 10
173.0977328862
 20
134.624156925
 30
0.0
 11
179.6811632326
 21
133.9332602966
 31
0.0
  0
ARC
  5
260
330
1F
100
AcDbEntity
  8
0
  6
Continuous
 62
     7
370
    25
100
AcDbCircle
 10
193.0977328862
 20
131.352457661
 30
0.0
 40
7.450000000000667
100
AcDbArc
 50
233.0863788866
 51
126.9136211134
  0
ARC
  5
261
330
1F
100
AcDbEntity
  8
0
  6
Continuous
 62
     7
370
    25
100
AcDbCircle
 10
193.0977328862
 20
131.352457661
 30
0.0
 40
7.207531252870806
100
AcDbArc
 50
195.3041237151
 51
238.9797515565
  0
ARC
  5
262
330
1F
100
AcDbEntity
  8
0
  6
Continuous
 62
     7
370
    25
100
AcDbCircle
 10
193.0977328862
 20
131.352457661
 30
0.0
 40
7.207531252872461
100
AcDbArc
 50
121.0202484435
 51
164.6958762849
  0
ARC
  5
263
330
1F
100
AcDbEntity
  8
0
  6
Continuous
 62
     7
370
    25
100
AcDbCircle
 10
170.9222960246
 20
199.852457661
 30
0.0
 40
64.99999999999997
100
AcDbArc
 50
270.0
 51
286.5000949923
  0
ARC
  5
264
330
1F
100
AcDbEntity
  8
0
  6
Continuous
 62
     7
370
    25
100
AcDbCircle
 10
170.9222960246
 20
62.852457661
 30
0.0
 40
65.0
100
AcDbArc
 50
73.4999050077
 51
90.0
  0
LINE
  5
265
330
1F
100
AcDbEntity
  8
0
  6
Continuous
 62
     7
370
    25
100
AcDbLine
 10
180.0977328862
 20
123.552457661
 30
0.0
 11
180.0977328862
 21
127.2015940841
 31
0.0
  0
LINE
  5
266
330
1F
100
AcDbEntity
  8
0
  6
Continuous
 62
     7
370
    25
100
AcDbLine
 10
180.0977328862
 20
135.5033212379
 30
0.0
 11
180.0977328862
 21
139.152457661
 31
0.0
  0
LINE
  5
267
330
1F
100
AcDbEntity
  8
0
  6
Continuous
 62
     7
370
    25
100
AcDbLine
 10
180.2977328862
 20
139.352457661
 30
0.0
 11
180.2977328862
 21
135.5321561718
 31
0.0
  0
LINE
  5
268
330
1F
100
AcDbEntity
  8
0
  6
Continuous
 62
     7
370
    25
100
AcDbLine
 10
180.2977328862
 20
127.1727591501
 30
0.0
 11
180.2977328862
 21
123.352457661
 31
0.0
  0
LINE
  5
269
330
1F
100
AcDbEntity
  8
0
  6
Continuous
 62
     7
370
    25
100
AcDbLine
 10
200.9796988974
 20
121.352457661
 30
0.0
 11
200.9796988974
 21
141.352457661
 31
0.0
  0
LINE
  5
26A
330
1F
100
AcDbEntity
  8
0
  6
Continuous
 62
     7
370
    25
100
AcDbLine
 10
200.6056865213
 20
122.4003452058
 30
0.0
 11
200.6004716399
 21
122.3689472525
 31
0.0
  0
SPLINE
  5
26B
330
1F
100
AcDbEntity
  8
0
  6
Continuous
 62
     7
370
    25
100
AcDbSpline
210
0.0
220
0.0
230
1.0
 70
     8
 71
     3
 72
    14
 73
    10
 74
     0
 42
0.00000001
 43
0.00000001
 40
0.0
 40
0.0
 40
0.0
 40
0.0
 40
0.25
 40
0.25
 40
0.5
 40
0.5
 40
0.75
 40
0.75
 40
1.0
 40
1.0
 40
1.0
 40
1.0
 10
200.826818953261
 20
122.5899964812417
 30
0.0
 10
200.854339941006
 20
122.6017032767872
 30
0.0
 10
200.8742598628425
 20
122.6337452298688
 30
0.0
 10
200.8899269046605
 20
122.7330689805338
 30
0.0
 10
200.8854350728482
 20
122.8008924233146
 30
0.0
 10
200.8541787275646
 20
122.9633340407274
 30
0.0
 10
200.8278061441829
 20
123.0577794374631
 30
0.0
 10
200.7649695930386
 20
123.2660085450597
 30
0.0
 10
200.7289300141785
 20
123.3786069379428
 30
0.0
 10
200.6949340108128
 20
123.4983633315429
 30
0.0
  0
SPLINE
  5
26C
330
1F
100
AcDbEntity
  8
0
  6
Continuous
 62
     7
370
    25
100
AcDbSpline
210
0.0
220
0.0
230
1.0
 70
     8
 71
     3
 72
     8
 73
     4
 74
     0
 42
0.00000001
 43
0.00000001
 40
0.0
 40
0.0
 40
0.0
 40
0.0
 40
1.0
 40
1.0
 40
1.0
 40
1.0
 10
200.5977328861589
 20
124.228554236604
 30
0.0
 10
200.5977328861589
 20
123.981124779809
 30
0.0
 10
200.6270975932368
 20
123.7373280309017
 30
0.0
 10
200.6949340108128
 20
123.4983633315429
 30
0.0
  0
LINE
  5
26D
330
1F
100
AcDbEntity
  8
0
  6
Continuous
 62
     7
370
    25
100
AcDbLine
 10
200.5977328862
 20
124.2285542366
 30
0.0
 11
200.5977328862
 21
138.4763610854
 31
0.0
  0
SPLINE
  5
26E
330
1F
100
AcDbEntity
  8
0
  6
Continuous
 62
     7
370
    25
100
AcDbSpline
210
0.0
220
0.0
230
1.0
 70
     8
 71
     3
 72
     8
 73
     4
 74
     0
 42
0.00000001
 43
0.00000001
 40
0.0
 40
0.0
 40
0.0
 40
0.0
 40
1.0
 40
1.0
 40
1.0
 40
1.0
 10
200.6949340108128
 20
139.2065519904401
 30
0.0
 10
200.6270975932368
 20
138.9675872910813
 30
0.0
 10
200.5977328861589
 20
138.723790542174
 30
0.0
 10
200.5977328861589
 20
138.476361085379
 30
0.0
  0
SPLINE
  5
26F
330
1F
100
AcDbEntity
  8
0
  6
Continuous
 62
     7
370
    25
100
AcDbSpline
210
0.0
220
0.0
230
1.0
 70
     8
 71
     3
 72
    12
 73
     8
 74
     0
 42
0.00000001
 43
0.00000001
 40
0.0
 40
0.0
 40
0.0
 40
0.0
 40
0.4999999999999992
 40
0.4999999999999992
 40
0.7499999999999996
 40
0.7499999999999996
 40
1.0
 40
1.0
 40
1.0
 40
1.0
 10
200.6949340108128
 20
139.2065519904401
 30
0.0
 10
200.7628037708226
 20
139.4456341438882
 30
0.0
 10
200.8388383220764
 20
139.661404251065
 30
0.0
 10
200.8854829204534
 20
139.9044988437689
 30
0.0
 10
200.889921916976
 20
139.972164119245
 30
0.0
 10
200.8741913031832
 20
140.0713172354016
 30
0.0
 10
200.8543108732408
 20
140.1032244099549
 30
0.0
 10
200.826818953261
 20
140.1149188407413
 30
0.0
  0
LINE
  5
270
330
1F
100
AcDbEntity
  8
0
  6
Continuous
 62
     7
370
    25
100
AcDbLine
 10
200.6004158507
 20
140.3360750991
 30
0.0
 11
200.6055244911
 21
140.3048810162
 31
0.0
  0
LINE
  5
271
330
1F
100
AcDbEntity
  8
0
  6
Continuous
 62
     7
370
    25
100
AcDbLine
 10
202.5977328862
 20
121.352457661
 30
0.0
 11
202.5977328862
 21
141.352457661
 31
0.0
  0
LINE
  5
272
330
1F
100
AcDbEntity
  8
0
  6
Continuous
 62
     7
370
    25
100
AcDbLine
 10
203.0977328862
 20
140.852457661
 30
0.0
 11
203.0977328862
 21
121.852457661
 31
0.0
  0
LINE
  5
273
330
1F
100
AcDbEntity
  8
0
  6
Continuous
 62
     7
370
    25
100
AcDbLine
 10
183.0977328862
 20
121.602457661
 30
0.0
 11
183.0977328862
 21
126.7019583421
 31
0.0
  0
LINE
  5
274
330
1F
100
AcDbEntity
  8
0
  6
Continuous
 62
     7
370
    25
100
AcDbLine
 10
183.0977328862
 20
136.0029569799
 30
0.0
 11
183.0977328862
 21
141.102457661
 31
0.0
  0
LINE
  5
275
330
1F
100
AcDbEntity
  8
0
  6
Continuous
 62
     7
370
    25
100
AcDbLine
 10
183.3477328862
 20
141.352457661
 30
0.0
 11
183.3477328862
 21
136.0511369944
 31
0.0
  0
LINE
  5
276
330
1F
100
AcDbEntity
  8
0
  6
Continuous
 62
     7
370
    25
100
AcDbLine
 10
183.3477328862
 20
126.6537783276
 30
0.0
 11
183.3477328862
 21
121.352457661
 31
0.0
  0
LINE
  5
277
330
1F
100
AcDbEntity
  8
0
  6
Continuous
 62
     7
370
    25
100
AcDbLine
 10
185.2157668749
 20
141.352457661
 30
0.0
 11
185.2157668749
 21
136.4434938542
 31
0.0
  0
LINE
  5
278
330
1F
100
AcDbEntity
  8
0
  6
Continuous
 62
     7
370
    25
100
AcDbLine
 10
185.2157668749
 20
126.2614214678
 30
0.0
 11
185.2157668749
 21
121.352457661
 31
0.0
  0
LINE
  5
279
330
1F
100
AcDbEntity
  8
0
  6
Continuous
 62
     7
370
    25
100
AcDbLine
 10
185.589779251
 20
140.3045701162
 30
0.0
 11
185.5949941324
 21
140.3359680695
 31
0.0
  0
SPLINE
  5
27A
330
1F
100
AcDbEntity
  8
0
  6
Continuous
 62
     7
370
    25
100
AcDbSpline
210
0.0
220
0.0
230
1.0
 70
     8
 71
     3
 72
    14
 73
    10
 74
     0
 42
0.00000001
 43
0.00000001
 40
0.0
 40
0.0
 40
0.0
 40
0.0
 40
0.25
 40
0.25
 40
0.5
 40
0.5
 40
0.75
 40
0.75
 40
1.0
 40
1.0
 40
1.0
 40
1.0
 10
185.3686468190569
 20
140.1149188407413
 30
0.0
 10
185.3411258313118
 20
140.1032120451957
 30
0.0
 10
185.3212059094754
 20
140.0711700921142
 30
0.0
 10
185.3055388676574
 20
139.9718463414492
 30
0.0
 10
185.3100306994696
 20
139.9040228986684
 30
0.0
 10
185.3412870447532
 20
139.7415812812556
 30
0.0
 10
185.367659628135
 20
139.6471358845199
 30
0.0
 10
185.4304961792793
 20
139.4389067769233
 30
0.0
 10
185.4665357581394
 20
139.3263083840402
 30
0.0
 10
185.500531761505
 20
139.2065519904401
 30
0.0
  0
SPLINE
  5
27B
330
1F
100
AcDbEntity
  8
0
  6
Continuous
 62
     7
370
    25
100
AcDbSpline
210
0.0
220
0.0
230
1.0
 70
     8
 71
     3
 72
     8
 73
     4
 74
     0
 42
0.00000001
 43
0.00000001
 40
0.0
 40
0.0
 40
0.0
 40
0.0
 40
1.0
 40
1.0
 40
1.0
 40
1.0
 10
185.597732886159
 20
138.476361085379
 30
0.0
 10
185.597732886159
 20
138.723790542174
 30
0.0
 10
185.5683681790811
 20
138.9675872910813
 30
0.0
 10
185.500531761505
 20
139.2065519904401
 30
0.0
  0
LINE
  5
27C
330
1F
100
AcDbEntity
  8
0
  6
Continuous
 62
     7
370
    25
100
AcDbLine
 10
185.5977328862
 20
138.4763610854
 30
0.0
 11
185.5977328862
 21
136.5308061275
 31
0.0
  0
LINE
  5
27D
330
1F
100
AcDbEntity
  8
0
  6
Continuous
 62
     7
370
    25
100
AcDbLine
 10
185.5977328862
 20
126.1741091944
 30
0.0
 11
185.5977328862
 21
124.2285542366
 31
0.0
  0
SPLINE
  5
27E
330
1F
100
AcDbEntity
  8
0
  6
Continuous
 62
     7
370
    25
100
AcDbSpline
210
0.0
220
0.0
230
1.0
 70
     8
 71
     3
 72
     8
 73
     4
 74
     0
 42
0.00000001
 43
0.00000001
 40
0.0
 40
0.0
 40
0.0
 40
0.0
 40
1.0
 40
1.0
 40
1.0
 40
1.0
 10
185.500531761505
 20
123.4983633315429
 30
0.0
 10
185.5683681790811
 20
123.7373280309017
 30
0.0
 10
185.597732886159
 20
123.981124779809
 30
0.0
 10
185.597732886159
 20
124.228554236604
 30
0.0
  0
SPLINE
  5
27F
330
1F
100
AcDbEntity
  8
0
  6
Continuous
 62
     7
370
    25
100
AcDbSpline
210
0.0
220
0.0
230
1.0
 70
     8
 71
     3
 72
    12
 73
     8
 74
     0
 42
0.00000001
 43
0.00000001
 40
0.0
 40
0.0
 40
0.0
 40
0.0
 40
0.4999999999999992
 40
0.4999999999999992
 40
0.7499999999999996
 40
0.7499999999999996
 40
1.0
 40
1.0
 40
1.0
 40
1.0
 10
185.500531761505
 20
123.4983633315429
 30
0.0
 10
185.4326620014952
 20
123.2592811780948
 30
0.0
 10
185.3566274502415
 20
123.043511070918
 30
0.0
 10
185.3099828518644
 20
122.8004164782141
 30
0.0
 10
185.3055438553418
 20
122.732751202738
 30
0.0
 10
185.3212744691347
 20
122.6335980865813
 30
0.0
 10
185.3411548990771
 20
122.6016909120281
 30
0.0
 10
185.3686468190569
 20
122.5899964812417
 30
0.0
  0
LINE
  5
280
330
1F
100
AcDbEntity
  8
0
  6
Continuous
 62
     7
370
    25
100
AcDbLine
 10
185.5950499216
 20
122.3688402229
 30
0.0
 11
185.5899412812
 21
122.4000343058
 31
0.0
  0
ARC
  5
281
330
1F
100
AcDbEntity
  8
0
  6
Continuous
 62
     7
370
    25
100
AcDbCircle
 10
200.1444149849
 20
138.5353370237
 30
0.0
 40
0.4571381420089263
100
AcDbArc
 50
264.138844256
 51
352.5875431534
  0
ARC
  5
282
330
1F
100
AcDbEntity
  8
0
  6
Continuous
 62
     7
370
    25
100
AcDbCircle
 10
200.1444149849
 20
124.1695782983
 30
0.0
 40
0.4571381420088926
100
AcDbArc
 50
7.4124568466
 51
95.861155744
  0
ARC
  5
283
330
1F
100
AcDbEntity
  8
0
  6
Continuous
 62
     7
370
    25
100
AcDbCircle
 10
186.0510507874
 20
138.5353370237
 30
0.0
 40
0.4571381420088502
100
AcDbArc
 50
187.4124568466
 51
275.861155744
  0
ARC
  5
284
330
1F
100
AcDbEntity
  8
0
  6
Continuous
 62
     7
370
    25
100
AcDbCircle
 10
186.0510507874
 20
124.1695782983
 30
0.0
 40
0.457138142008836
100
AcDbArc
 50
84.138844256
 51
172.5875431534
  0
LINE
  5
285
330
1F
100
AcDbEntity
  8
0
  6
Continuous
 62
     7
370
    25
100
AcDbLine
 10
210.8922084286
 20
137.8758178003
 30
0.0
 11
210.8922084286
 21
124.8290975217
 31
0.0
  0
LINE
  5
286
330
1F
100
AcDbEntity
  8
0
  6
Continuous
 62
     7
370
    25
100
AcDbLine
 10
213.0977328862
 20
136.602457661
 30
0.0
 11
213.0977328862
 21
126.102457661
 31
0.0
  0
LINE
  5
287
330
1F
100
AcDbEntity
  8
0
  6
Continuous
 62
     7
370
    25
100
AcDbLine
 10
185.5005317615
 20
139.2065519904
 30
0.0
 11
185.9681313866
 21
139.352457661
 31
0.0
  0
SPLINE
  5
288
330
1F
100
AcDbEntity
  8
0
  6
Continuous
 62
     7
370
    25
100
AcDbSpline
210
0.0
220
0.0
230
1.0
 70
     8
 71
     3
 72
     8
 73
     4
 74
     0
 42
0.00000001
 43
0.00000001
 40
0.0
 40
0.0
 40
0.0
 40
0.0
 40
1.0
 40
1.0
 40
1.0
 40
1.0
 10
185.9681313866204
 20
139.3524576609915
 30
0.0
 10
186.0571400820088
 20
139.0672019033617
 30
0.0
 10
186.097732886159
 20
138.7747839534798
 30
0.0
 10
186.097732886159
 20
138.476361085379
 30
0.0
  0
LINE
  5
289
330
1F
100
AcDbEntity
  8
0
  6
Continuous
 62
     7
370
    25
100
AcDbLine
 10
185.5977328862
 20
138.4763610854
 30
0.0
 11
186.0977328862
 21
138.4763610854
 31
0.0
  0
SPLINE
  5
28A
330
1F
100
AcDbEntity
  8
0
  6
Continuous
 62
     7
370
    25
100
AcDbSpline
210
0.0
220
0.0
230
1.0
 70
     8
 71
     3
 72
     8
 73
     4
 74
     0
 42
0.00000001
 43
0.00000001
 40
0.0
 40
0.0
 40
0.0
 40
0.0
 40
1.0
 40
1.0
 40
1.0
 40
1.0
 10
200.0977328861589
 20
138.476361085379
 30
0.0
 10
200.0977328861589
 20
138.7747839534798
 30
0.0
 10
200.1383256903091
 20
139.0672019033617
 30
0.0
 10
200.2273343856975
 20
139.3524576609915
 30
0.0
  0
LINE
  5
28B
330
1F
100
AcDbEntity
  8
0
  6
Continuous
 62
     7
370
    25
100
AcDbLine
 10
200.2273343857
 20
139.352457661
 30
0.0
 11
200.6949340108
 21
139.2065519904
 31
0.0
  0
LINE
  5
28C
330
1F
100
AcDbEntity
  8
0
  6
Continuous
 62
     7
370
    25
100
AcDbLine
 10
200.0977328862
 20
138.4763610854
 30
0.0
 11
200.5977328862
 21
138.4763610854
 31
0.0
  0
SPLINE
  5
28D
330
1F
100
AcDbEntity
  8
0
  6
Continuous
 62
     7
370
    25
100
AcDbSpline
210
0.0
220
0.0
230
1.0
 70
     8
 71
     3
 72
     8
 73
     4
 74
     0
 42
0.00000001
 43
0.00000001
 40
0.0
 40
0.0
 40
0.0
 40
0.0
 40
1.0
 40
1.0
 40
1.0
 40
1.0
 10
186.097732886159
 20
124.228554236604
 30
0.0
 10
186.097732886159
 20
123.9301313685032
 30
0.0
 10
186.0571400820088
 20
123.6377134186213
 30
0.0
 10
185.9681313866204
 20
123.3524576609915
 30
0.0
  0
LINE
  5
28E
330
1F
100
AcDbEntity
  8
0
  6
Continuous
 62
     7
370
    25
100
AcDbLine
 10
185.9681313866
 20
123.352457661
 30
0.0
 11
185.5005317615
 21
123.4983633315
 31
0.0
  0
LINE
  5
28F
330
1F
100
AcDbEntity
  8
0
  6
Continuous
 62
     7
370
    25
100
AcDbLine
 10
185.5977328862
 20
124.2285542366
 30
0.0
 11
186.0977328862
 21
124.2285542366
 31
0.0
  0
LINE
  5
290
330
1F
100
AcDbEntity
  8
0
  6
Continuous
 62
     7
370
    25
100
AcDbLine
 10
200.6949340108
 20
123.4983633315
 30
0.0
 11
200.2273343857
 21
123.352457661
 31
0.0
  0
SPLINE
  5
291
330
1F
100
AcDbEntity
  8
0
  6
Continuous
 62
     7
370
    25
100
AcDbSpline
210
0.0
220
0.0
230
1.0
 70
     8
 71
     3
 72
     8
 73
     4
 74
     0
 42
0.00000001
 43
0.00000001
 40
0.0
 40
0.0
 40
0.0
 40
0.0
 40
1.0
 40
1.0
 40
1.0
 40
1.0
 10
200.2273343856975
 20
123.3524576609915
 30
0.0
 10
200.1383256903091
 20
123.6377134186213
 30
0.0
 10
200.0977328861589
 20
123.9301313685032
 30
0.0
 10
200.0977328861589
 20
124.228554236604
 30
0.0
  0
LINE
  5
292
330
1F
100
AcDbEntity
  8
0
  6
Continuous
 62
     7
370
    25
100
AcDbLine
 10
200.5977328862
 20
124.2285542366
 30
0.0
 11
200.0977328862
 21
124.2285542366
 31
0.0
  0
LINE
  5
293
330
1F
100
AcDbEntity
  8
0
  6
Continuous
 62
     7
370
    25
100
AcDbLine
 10
200.0977328862
 20
138.0805886729
 30
0.0
 11
200.0977328862
 21
138.4763610854
 31
0.0
  0
LINE
  5
294
330
1F
100
AcDbEntity
  8
0
  6
Continuous
 62
     7
370
    25
100
AcDbLine
 10
186.0977328862
 20
138.0805886729
 30
0.0
 11
186.0977328862
 21
138.4763610854
 31
0.0
  0
LINE
  5
295
330
1F
100
AcDbEntity
  8
0
  6
Continuous
 62
     7
370
    25
100
AcDbLine
 10
186.0977328862
 20
124.2285542366
 30
0.0
 11
186.0977328862
 21
124.6243266491
 31
0.0
  0
LINE
  5
296
330
1F
100
AcDbEntity
  8
0
  6
Continuous
 62
     7
370
    25
100
AcDbLine
 10
200.0977328862
 20
124.2285542366
 30
0.0
 11
200.0977328862
 21
124.6243266491
 31
0.0
  0
ARC
  5
297
330
1F
100
AcDbEntity
  8
0
  6
Continuous
 62
     7
370
    25
100
AcDbCircle
 10
185.7961146097
 20
140.3317664785
 30
0.0
 40
0.4793241179194132
100
AcDbArc
 50
206.8979585986
 51
269.5422002632
  0
SPLINE
  5
298
330
1F
100
AcDbEntity
  8
0
  6
Continuous
 62
     7
370
    25
100
AcDbSpline
210
0.0
220
0.0
230
1.0
 70
     8
 71
     3
 72
    14
 73
    10
 74
     0
 42
0.00000001
 43
0.00000001
 40
0.0
 40
0.0
 40
0.0
 40
0.0
 40
0.25
 40
0.25
 40
0.5
 40
0.5
 40
0.75
 40
0.75
 40
1.0
 40
1.0
 40
1.0
 40
1.0
 10
185.9681313866204
 20
139.3524576609915
 30
0.0
 10
185.9296559029988
 20
139.414110925219
 30
0.0
 10
185.8885669815288
 20
139.4722948704919
 30
0.0
 10
185.8092841340882
 20
139.5859601919588
 30
0.0
 10
185.7720012329777
 20
139.6396367906586
 30
0.0
 10
185.719195473666
 20
139.7396268231053
 30
0.0
 10
185.7072262135723
 20
139.7840313233282
 30
0.0
 10
185.7272280019445
 20
139.840091178822
 30
0.0
 10
185.7566844574968
 20
139.8524576609915
 30
0.0
 10
185.7922847966896
 20
139.8524576609915
 30
0.0
  0
ARC
  5
299
330
1F
100
AcDbEntity
  8
0
  6
Continuous
 62
     7
370
    25
100
AcDbCircle
 10
200.3993511626
 20
122.3731488435
 30
0.0
 40
0.4793241179194735
100
AcDbArc
 50
26.8979585986
 51
89.5422002632
  0
SPLINE
  5
29A
330
1F
100
AcDbEntity
  8
0
  6
Continuous
 62
     7
370
    25
100
AcDbSpline
210
0.0
220
0.0
230
1.0
 70
     8
 71
     3
 72
    14
 73
    10
 74
     0
 42
0.00000001
 43
0.00000001
 40
0.0
 40
0.0
 40
0.0
 40
0.0
 40
0.25
 40
0.25
 40
0.5
 40
0.5
 40
0.75
 40
0.75
 40
1.0
 40
1.0
 40
1.0
 40
1.0
 10
200.2273343856975
 20
123.3524576609915
 30
0.0
 10
200.2658098693191
 20
123.290804396764
 30
0.0
 10
200.3068987907891
 20
123.2326204514911
 30
0.0
 10
200.3861816382297
 20
123.1189551300241
 30
0.0
 10
200.4234645393401
 20
123.0652785313244
 30
0.0
 10
200.4762702986519
 20
122.9652884988777
 30
0.0
 10
200.4882395587455
 20
122.9208839986548
 30
0.0
 10
200.4682377703734
 20
122.864824143161
 30
0.0
 10
200.4387813148211
 20
122.8524576609915
 30
0.0
 10
200.4031809756283
 20
122.8524576609915
 30
0.0
  0
SPLINE
  5
29B
330
1F
100
AcDbEntity
  8
0
  6
Continuous
 62
     7
370
    25
100
AcDbSpline
210
0.0
220
0.0
230
1.0
 70
     8
 71
     3
 72
    16
 73
    12
 74
     0
 42
0.00000001
 43
0.00000001
 40
0.0
 40
0.0
 40
0.0
 40
0.0
 40
0.2500000000000011
 40
0.2500000000000011
 40
0.3749999999999992
 40
0.3749999999999992
 40
0.4999999999999974
 40
0.4999999999999974
 40
0.7499999999999987
 40
0.7499999999999987
 40
1.0
 40
1.0
 40
1.0
 40
1.0
 10
200.4031809756283
 20
139.8524576609915
 30
0.0
 10
200.438734905077
 20
139.8524576609915
 30
0.0
 10
200.4680070463056
 20
139.8403259105757
 30
0.0
 10
200.4832195965265
 20
139.7983042042963
 30
0.0
 10
200.4832802647001
 20
139.7800898347897
 30
0.0
 10
200.4730696802228
 20
139.7381528222632
 30
0.0
 10
200.4632863506975
 20
139.7151252587689
 30
0.0
 10
200.4241218021656
 20
139.6407165799968
 30
0.0
 10
200.3862487288923
 20
139.5860587038144
 30
0.0
 10
200.3071757559007
 20
139.4726896306356
 30
0.0
 10
200.2657886233099
 20
139.4140768805314
 30
0.0
 10
200.2273343856975
 20
139.3524576609915
 30
0.0
  0
ARC
  5
29C
330
1F
100
AcDbEntity
  8
0
  6
Continuous
 62
     7
370
    25
100
AcDbCircle
 10
200.3993511626
 20
140.3317664785
 30
0.0
 40
0.4793241179194705
100
AcDbArc
 50
270.4577997368
 51
333.1020414014
  0
SPLINE
  5
29D
330
1F
100
AcDbEntity
  8
0
  6
Continuous
 62
     7
370
    25
100
AcDbSpline
210
0.0
220
0.0
230
1.0
 70
     8
 71
     3
 72
    16
 73
    12
 74
     0
 42
0.00000001
 43
0.00000001
 40
0.0
 40
0.0
 40
0.0
 40
0.0
 40
0.2500000000000049
 40
0.2500000000000049
 40
0.3750000000000051
 40
0.3750000000000051
 40
0.5000000000000052
 40
0.5000000000000052
 40
0.7500000000000026
 40
0.7500000000000026
 40
1.0
 40
1.0
 40
1.0
 40
1.0
 10
185.7922847966896
 20
122.8524576609915
 30
0.0
 10
185.7567308672409
 20
122.8524576609915
 30
0.0
 10
185.7274587260122
 20
122.8645894114073
 30
0.0
 10
185.7122461757913
 20
122.9066111176867
 30
0.0
 10
185.7121855076178
 20
122.9248254871933
 30
0.0
 10
185.7223960920951
 20
122.9667624997198
 30
0.0
 10
185.7321794216203
 20
122.9897900632141
 30
0.0
 10
185.7713439701523
 20
123.0641987419861
 30
0.0
 10
185.8092170434255
 20
123.1188566181686
 30
0.0
 10
185.8882900164171
 20
123.2322256913474
 30
0.0
 10
185.929677149008
 20
123.2908384414516
 30
0.0
 10
185.9681313866204
 20
123.3524576609915
 30
0.0
  0
ARC
  5
29E
330
1F
100
AcDbEntity
  8
0
  6
Continuous
 62
     7
370
    25
100
AcDbCircle
 10
185.7961146097
 20
122.3731488435
 30
0.0
 40
0.4793241179194272
100
AcDbArc
 50
90.4577997368
 51
153.1020414014
  0
LINE
  5
29F
330
1F
100
AcDbEntity
  8
0
  6
Continuous
 62
     7
370
    25
100
AcDbLine
 10
200.2273343857
 20
139.352457661
 30
0.0
 11
185.9681313866
 21
139.352457661
 31
0.0
  0
LINE
  5
2A0
330
1F
100
AcDbEntity
  8
0
  6
Continuous
 62
     7
370
    25
100
AcDbLine
 10
185.7922847967
 20
139.852457661
 30
0.0
 11
200.4031809756
 21
139.852457661
 31
0.0
  0
LINE
  5
2A1
330
1F
100
AcDbEntity
  8
0
  6
Continuous
 62
     7
370
    25
100
AcDbLine
 10
185.9681313866
 20
123.352457661
 30
0.0
 11
200.2273343857
 21
123.352457661
 31
0.0
  0
LINE
  5
2A2
330
1F
100
AcDbEntity
  8
0
  6
Continuous
 62
     7
370
    25
100
AcDbLine
 10
200.4031809756
 20
122.852457661
 30
0.0
 11
185.7922847967
 21
122.852457661
 31
0.0
  0
LINE
  5
2A3
330
1F
100
AcDbEntity
  8
0
  6
Continuous
 62
     7
370
    25
100
AcDbLine
 10
200.5977328862
 20
122.352457661
 30
0.0
 11
200.5898640248
 21
122.4408145644
 31
0.0
  0
SPLINE
  5
2A4
330
1F
100
AcDbEntity
  8
0
  6
Continuous
 62
     7
370
    25
100
AcDbSpline
210
0.0
220
0.0
230
1.0
 70
     8
 71
     3
 72
    15
 73
    11
 74
     0
 42
0.00000001
 43
0.00000001
 40
0.0
 40
0.0
 40
0.0
 40
0.0
 40
0.0090459071881971
 40
0.1032433785236816
 40
0.1542564497735189
 40
0.31331690267151
 40
0.5243720399414428
 40
0.6678060008509183
 40
0.9918332554187028
 40
1.0
 40
1.0
 40
1.0
 40
1.0
 10
187.8586475535008
 20
133.0263707044697
 30
0.0
 10
187.8586532454675
 20
133.0263530587453
 30
0.0
 10
187.8587182094183
 20
133.0261516633327
 30
0.0
 10
187.8607138958542
 20
133.0199620426665
 30
0.0
 10
187.8685308920706
 20
132.9957601108224
 30
0.0
 10
187.8857007158256
 20
132.9427411188207
 30
0.0
 10
187.9122846123931
 20
132.8613702316242
 30
0.0
 10
187.9501139108818
 20
132.7467911596017
 30
0.0
 10
187.978394690892
 20
132.6623659818825
 30
0.0
 10
187.9982258384233
 20
132.6038951239305
 30
0.0
 10
187.9987133725662
 20
132.6024576609915
 30
0.0
  0
ARC
  5
2A5
330
1F
100
AcDbEntity
  8
0
  6
Continuous
 62
     7
370
    25
100
AcDbCircle
 10
193.0977328862
 20
131.352457661
 30
0.0
 40
5.50000000000002
100
AcDbArc
 50
17.7189318734
 51
162.2810681266
  0
SPLINE
  5
2A6
330
1F
100
AcDbEntity
  8
0
  6
Continuous
 62
     7
370
    25
100
AcDbSpline
210
0.0
220
0.0
230
1.0
 70
     8
 71
     3
 72
    15
 73
    11
 74
     0
 42
0.00000001
 43
0.00000001
 40
0.0
 40
0.0
 40
0.0
 40
0.0
 40
0.0081667445812973
 40
0.3321939991490805
 40
0.4756279600585561
 40
0.6866830973284893
 40
0.8457435502264751
 40
0.8967566214763123
 40
0.9909540928118028
 40
1.0
 40
1.0
 40
1.0
 40
1.0
 10
198.1967523997517
 20
132.6024576609915
 30
0.0
 10
198.1972399338946
 20
132.6038951239305
 30
0.0
 10
198.2170710814259
 20
132.6623659818825
 30
0.0
 10
198.2453518614361
 20
132.7467911596017
 30
0.0
 10
198.2831811599247
 20
132.8613702316242
 30
0.0
 10
198.3097650564923
 20
132.9427411188207
 30
0.0
 10
198.3269348802473
 20
132.9957601108224
 30
0.0
 10
198.3347518764637
 20
133.0199620426665
 30
0.0
 10
198.3367475628996
 20
133.0261516633327
 30
0.0
 10
198.3368125268504
 20
133.0263530587453
 30
0.0
 10
198.3368182188171
 20
133.0263707044697
 30
0.0
  0
ARC
  5
2A7
330
1F
100
AcDbEntity
  8
0
  6
Continuous
 62
     7
370
    25
100
AcDbCircle
 10
193.0977328862
 20
131.352457661
 30
0.0
 40
5.250000000000009
100
AcDbArc
 50
13.774146998
 51
166.225853002
  0
SPLINE
  5
2A8
330
1F
100
AcDbEntity
  8
0
  6
Continuous
 62
     7
370
    25
100
AcDbSpline
210
0.0
220
0.0
230
1.0
 70
     8
 71
     3
 72
    15
 73
    11
 74
     0
 42
0.00000001
 43
0.00000001
 40
0.0
 40
0.0
 40
0.0
 40
0.0
 40
0.0089557228015919
 40
0.0999003359608209
 40
0.1531632460581751
 40
0.3125636920784904
 40
0.5249666935695062
 40
0.6689893599351776
 40
0.991915253381045
 40
1.0
 40
1.0
 40
1.0
 40
1.0
 10
198.5749584612106
 20
132.8524576609915
 30
0.0
 10
198.574942705632
 20
132.8524468766283
 30
0.0
 10
198.5747669534754
 20
132.8523265779628
 30
0.0
 10
198.5693379374559
 20
132.8486081270447
 30
0.0
 10
198.5478024537486
 20
132.8338970859784
 30
0.0
 10
198.5000970254838
 20
132.8014482245199
 30
0.0
 10
198.4277060804918
 20
132.7528641841764
 30
0.0
 10
198.3257869684742
 20
132.6854937119081
 30
0.0
 10
198.2504318770192
 20
132.6366801471742
 30
0.0
 10
198.1980322312958
 20
132.6032735969798
 30
0.0
 10
198.1967523997517
 20
132.6024576609915
 30
0.0
  0
ARC
  5
2A9
330
1F
100
AcDbEntity
  8
0
  6
Continuous
 62
     7
370
    25
100
AcDbCircle
 10
198.5749584612
 20
133.102457661
 30
0.0
 40
0.25
100
AcDbArc
 50
197.7189318734
 51
270.0
  0
SPLINE
  5
2AA
330
1F
100
AcDbEntity
  8
0
  6
Continuous
 62
     7
370
    25
100
AcDbSpline
210
0.0
220
0.0
230
1.0
 70
     8
 71
     3
 72
    15
 73
    11
 74
     0
 42
0.00000001
 43
0.00000001
 40
0.0
 40
0.0
 40
0.0
 40
0.0
 40
0.0080847466189582
 40
0.3310106400648242
 40
0.4750333064304946
 40
0.6874363079215142
 40
0.8468367539418302
 40
0.9000996640391846
 40
0.991044277198408
 40
1.0
 40
1.0
 40
1.0
 40
1.0
 10
187.9987133725662
 20
132.6024576609915
 30
0.0
 10
187.997433541022
 20
132.6032735969798
 30
0.0
 10
187.9450338952988
 20
132.6366801471743
 30
0.0
 10
187.8696788038437
 20
132.6854937119081
 30
0.0
 10
187.767759691826
 20
132.7528641841765
 30
0.0
 10
187.6953687468341
 20
132.8014482245199
 30
0.0
 10
187.6476633185693
 20
132.8338970859784
 30
0.0
 10
187.626127834862
 20
132.8486081270447
 30
0.0
 10
187.6206988188424
 20
132.8523265779628
 30
0.0
 10
187.6205230666858
 20
132.8524468766283
 30
0.0
 10
187.6205073111073
 20
132.8524576609915
 30
0.0
  0
ARC
  5
2AB
330
1F
100
AcDbEntity
  8
0
  6
Continuous
 62
     7
370
    25
100
AcDbCircle
 10
187.6205073111
 20
133.102457661
 30
0.0
 40
0.25
100
AcDbArc
 50
270.0
 51
342.2810681266
  0
SPLINE
  5
2AC
330
1F
100
AcDbEntity
  8
0
  6
Continuous
 62
     7
370
    25
100
AcDbSpline
210
0.0
220
0.0
230
1.0
 70
     8
 71
     3
 72
    15
 73
    11
 74
     0
 42
0.00000001
 43
0.00000001
 40
0.0
 40
0.0
 40
0.0
 40
0.0
 40
0.0081667445812695
 40
0.3321939991490083
 40
0.4756279600585602
 40
0.6866830973284899
 40
0.8457435502264811
 40
0.8967566214763185
 40
0.9909540928118029
 40
1.0
 40
1.0
 40
1.0
 40
1.0
 10
187.9987133725662
 20
130.1024576609915
 30
0.0
 10
187.9982258384233
 20
130.1010201980525
 30
0.0
 10
187.9783946908912
 20
130.0425493401007
 30
0.0
 10
187.9501139108819
 20
129.9581241623813
 30
0.0
 10
187.9122846123931
 20
129.8435450903588
 30
0.0
 10
187.8857007158256
 20
129.7621742031622
 30
0.0
 10
187.8685308920706
 20
129.7091552111606
 30
0.0
 10
187.8607138958542
 20
129.6849532793164
 30
0.0
 10
187.8587182094183
 20
129.6787636586502
 30
0.0
 10
187.8586532454675
 20
129.6785622632377
 30
0.0
 10
187.8586475535008
 20
129.6785446175132
 30
0.0
  0
ARC
  5
2AD
330
1F
100
AcDbEntity
  8
0
  6
Continuous
 62
     7
370
    25
100
AcDbCircle
 10
193.0977328862
 20
131.352457661
 30
0.0
 40
5.250000000000009
100
AcDbArc
 50
193.774146998
 51
346.225853002
  0
SPLINE
  5
2AE
330
1F
100
AcDbEntity
  8
0
  6
Continuous
 62
     7
370
    25
100
AcDbSpline
210
0.0
220
0.0
230
1.0
 70
     8
 71
     3
 72
    15
 73
    11
 74
     0
 42
0.00000001
 43
0.00000001
 40
0.0
 40
0.0
 40
0.0
 40
0.0
 40
0.0090459071881971
 40
0.1032433785236874
 40
0.1542564497735246
 40
0.3133169026715112
 40
0.5243720399414429
 40
0.6678060008509904
 40
0.9918332554187292
 40
1.0
 40
1.0
 40
1.0
 40
1.0
 10
198.3368182188171
 20
129.6785446175132
 30
0.0
 10
198.3368125268504
 20
129.6785622632377
 30
0.0
 10
198.3367475628996
 20
129.6787636586502
 30
0.0
 10
198.3347518764637
 20
129.6849532793164
 30
0.0
 10
198.3269348802473
 20
129.7091552111606
 30
0.0
 10
198.3097650564923
 20
129.7621742031622
 30
0.0
 10
198.2831811599248
 20
129.8435450903588
 30
0.0
 10
198.2453518614359
 20
129.9581241623813
 30
0.0
 10
198.2170710814267
 20
130.0425493401007
 30
0.0
 10
198.1972399338946
 20
130.1010201980525
 30
0.0
 10
198.1967523997517
 20
130.1024576609915
 30
0.0
  0
ARC
  5
2AF
330
1F
100
AcDbEntity
  8
0
  6
Continuous
 62
     7
370
    25
100
AcDbCircle
 10
193.0977328862
 20
131.352457661
 30
0.0
 40
5.500000000000029
100
AcDbArc
 50
197.7189318734
 51
342.2810681266
  0
ARC
  5
2B0
330
1F
100
AcDbEntity
  8
0
  6
Continuous
 62
     7
370
    25
100
AcDbCircle
 10
198.5749584612
 20
129.602457661
 30
0.0
 40
0.25
100
AcDbArc
 50
90.0
 51
162.2810681266
  0
SPLINE
  5
2B1
330
1F
100
AcDbEntity
  8
0
  6
Continuous
 62
     7
370
    25
100
AcDbSpline
210
0.0
220
0.0
230
1.0
 70
     8
 71
     3
 72
    15
 73
    11
 74
     0
 42
0.00000001
 43
0.00000001
 40
0.0
 40
0.0
 40
0.0
 40
0.0
 40
0.0080847466189818
 40
0.3310106400647566
 40
0.4750333064304973
 40
0.6874363079215137
 40
0.8468367539418253
 40
0.9000996640391794
 40
0.9910442771984082
 40
1.0
 40
1.0
 40
1.0
 40
1.0
 10
198.1967523997517
 20
130.1024576609915
 30
0.0
 10
198.1980322312959
 20
130.1016417250032
 30
0.0
 10
198.2504318770196
 20
130.0682351748096
 30
0.0
 10
198.3257869684741
 20
130.0194216100747
 30
0.0
 10
198.4277060804919
 20
129.9520511378066
 30
0.0
 10
198.5000970254838
 20
129.9034670974631
 30
0.0
 10
198.5478024537486
 20
129.8710182360045
 30
0.0
 10
198.5693379374559
 20
129.8563071949383
 30
0.0
 10
198.5747669534754
 20
129.8525887440202
 30
0.0
 10
198.574942705632
 20
129.8524684453546
 30
0.0
 10
198.5749584612106
 20
129.8524576609915
 30
0.0
  0
ARC
  5
2B2
330
1F
100
AcDbEntity
  8
0
  6
Continuous
 62
     7
370
    25
100
AcDbCircle
 10
187.6205073111
 20
129.602457661
 30
0.0
 40
0.25
100
AcDbArc
 50
17.7189318734
 51
90.0
  0
SPLINE
  5
2B3
330
1F
100
AcDbEntity
  8
0
  6
Continuous
 62
     7
370
    25
100
AcDbSpline
210
0.0
220
0.0
230
1.0
 70
     8
 71
     3
 72
    15
 73
    11
 74
     0
 42
0.00000001
 43
0.00000001
 40
0.0
 40
0.0
 40
0.0
 40
0.0
 40
0.0089557228015919
 40
0.0999003359608149
 40
0.153163246058169
 40
0.3125636920784849
 40
0.5249666935694998
 40
0.668989359935245
 40
0.9919152533810159
 40
1.0
 40
1.0
 40
1.0
 40
1.0
 10
187.6205073111073
 20
129.8524576609915
 30
0.0
 10
187.6205230666858
 20
129.8524684453546
 30
0.0
 10
187.6206988188424
 20
129.8525887440202
 30
0.0
 10
187.626127834862
 20
129.8563071949383
 30
0.0
 10
187.6476633185693
 20
129.8710182360045
 30
0.0
 10
187.6953687468341
 20
129.9034670974631
 30
0.0
 10
187.767759691826
 20
129.9520511378066
 30
0.0
 10
187.8696788038438
 20
130.0194216100747
 30
0.0
 10
187.9450338952983
 20
130.0682351748095
 30
0.0
 10
187.997433541022
 20
130.1016417250032
 30
0.0
 10
187.9987133725662
 20
130.1024576609915
 30
0.0
  0
LINE
  5
2B4
330
1F
100
AcDbEntity
  8
0
  6
Continuous
 62
     7
370
    25
100
AcDbLine
 10
188.0977328862
 20
130.752457661
 30
0.0
 11
198.0977328862
 21
130.752457661
 31
0.0
  0
LINE
  5
2B5
330
1F
100
AcDbEntity
  8
0
  6
Continuous
 62
     7
370
    25
100
AcDbLine
 10
188.0977328862
 20
131.952457661
 30
0.0
 11
188.0977328862
 21
130.752457661
 31
0.0
  0
LINE
  5
2B6
330
1F
100
AcDbEntity
  8
0
  6
Continuous
 62
     7
370
    25
100
AcDbLine
 10
198.0977328862
 20
131.952457661
 30
0.0
 11
188.0977328862
 21
131.952457661
 31
0.0
  0
LINE
  5
2B7
330
1F
100
AcDbEntity
  8
0
  6
Continuous
 62
     7
370
    25
100
AcDbLine
 10
198.0977328862
 20
130.752457661
 30
0.0
 11
198.0977328862
 21
131.952457661
 31
0.0
  0
LINE
  5
2B8
330
1F
100
AcDbEntity
  8
0
  6
Continuous
 62
     7
370
    25
100
AcDbLine
 10
187.3477328862
 20
130.102457661
 30
0.0
 11
187.9987133726
 21
130.102457661
 31
0.0
  0
LINE
  5
2B9
330
1F
100
AcDbEntity
  8
0
  6
Continuous
 62
     7
370
    25
100
AcDbLine
 10
187.3477328862
 20
132.602457661
 30
0.0
 11
187.3477328862
 21
130.102457661
 31
0.0
  0
LINE
  5
2BA
330
1F
100
AcDbEntity
  8
0
  6
Continuous
 62
     7
370
    25
100
AcDbLine
 10
187.9987133726
 20
132.602457661
 30
0.0
 11
187.3477328862
 21
132.602457661
 31
0.0
  0
LINE
  5
2BB
330
1F
100
AcDbEntity
  8
0
  6
Continuous
 62
     7
370
    25
100
AcDbLine
 10
198.8477328862
 20
132.602457661
 30
0.0
 11
198.1967523998
 21
132.602457661
 31
0.0
  0
LINE
  5
2BC
330
1F
100
AcDbEntity
  8
0
  6
Continuous
 62
     7
370
    25
100
AcDbLine
 10
198.8477328862
 20
130.102457661
 30
0.0
 11
198.8477328862
 21
132.602457661
 31
0.0
  0
LINE
  5
2BD
330
1F
100
AcDbEntity
  8
0
  6
Continuous
 62
     7
370
    25
100
AcDbLine
 10
198.1967523998
 20
130.102457661
 30
0.0
 11
198.8477328862
 21
130.102457661
 31
0.0
  0
LINE
  5
2BE
330
1F
100
AcDbEntity
  8
0
  6
Continuous
 62
     7
370
    25
100
AcDbLine
 10
199.0977328862
 20
132.602457661
 30
0.0
 11
198.8477328862
 21
132.602457661
 31
0.0
  0
LINE
  5
2BF
330
1F
100
AcDbEntity
  8
0
  6
Continuous
 62
     7
370
    25
100
AcDbLine
 10
198.8477328862
 20
132.602457661
 30
0.0
 11
198.8477328862
 21
132.852457661
 31
0.0
  0
ARC
  5
2C0
330
1F
100
AcDbEntity
  8
0
  6
Continuous
 62
     7
370
    25
100
AcDbCircle
 10
198.8477328862
 20
132.602457661
 30
0.0
 40
0.25
100
AcDbArc
 50
0.0
 51
90.0
  0
LINE
  5
2C1
330
1F
100
AcDbEntity
  8
0
  6
Continuous
 62
     7
370
    25
100
AcDbLine
 10
198.5749584612
 20
132.852457661
 30
0.0
 11
198.8477328862
 21
132.852457661
 31
0.0
  0
LINE
  5
2C2
330
1F
100
AcDbEntity
  8
0
  6
Continuous
 62
     7
370
    25
100
AcDbLine
 10
199.0977328862
 20
132.602457661
 30
0.0
 11
199.0977328862
 21
130.102457661
 31
0.0
  0
LINE
  5
2C3
330
1F
100
AcDbEntity
  8
0
  6
Continuous
 62
     7
370
    25
100
AcDbLine
 10
198.8477328862
 20
130.102457661
 30
0.0
 11
199.0977328862
 21
130.102457661
 31
0.0
  0
LINE
  5
2C4
330
1F
100
AcDbEntity
  8
0
  6
Continuous
 62
     7
370
    25
100
AcDbLine
 10
198.8477328862
 20
129.852457661
 30
0.0
 11
198.8477328862
 21
130.102457661
 31
0.0
  0
ARC
  5
2C5
330
1F
100
AcDbEntity
  8
0
  6
Continuous
 62
     7
370
    25
100
AcDbCircle
 10
198.8477328862
 20
130.102457661
 30
0.0
 40
0.25
100
AcDbArc
 50
270.0
 51
0.0
  0
LINE
  5
2C6
330
1F
100
AcDbEntity
  8
0
  6
Continuous
 62
     7
370
    25
100
AcDbLine
 10
198.8477328862
 20
129.852457661
 30
0.0
 11
198.5749584612
 21
129.852457661
 31
0.0
  0
ARC
  5
2C7
330
1F
100
AcDbEntity
  8
0
  6
Continuous
 62
     7
370
    25
100
AcDbCircle
 10
187.3477328862
 20
132.602457661
 30
0.0
 40
0.25
100
AcDbArc
 50
90.0
 51
180.0
  0
LINE
  5
2C8
330
1F
100
AcDbEntity
  8
0
  6
Continuous
 62
     7
370
    25
100
AcDbLine
 10
187.3477328862
 20
132.852457661
 30
0.0
 11
187.3477328862
 21
132.602457661
 31
0.0
  0
LINE
  5
2C9
330
1F
100
AcDbEntity
  8
0
  6
Continuous
 62
     7
370
    25
100
AcDbLine
 10
187.3477328862
 20
132.602457661
 30
0.0
 11
187.0977328862
 21
132.602457661
 31
0.0
  0
LINE
  5
2CA
330
1F
100
AcDbEntity
  8
0
  6
Continuous
 62
     7
370
    25
100
AcDbLine
 10
187.3477328862
 20
132.852457661
 30
0.0
 11
187.6205073111
 21
132.852457661
 31
0.0
  0
LINE
  5
2CB
330
1F
100
AcDbEntity
  8
0
  6
Continuous
 62
     7
370
    25
100
AcDbLine
 10
187.0977328862
 20
130.102457661
 30
0.0
 11
187.3477328862
 21
130.102457661
 31
0.0
  0
LINE
  5
2CC
330
1F
100
AcDbEntity
  8
0
  6
Continuous
 62
     7
370
    25
100
AcDbLine
 10
187.0977328862
 20
130.102457661
 30
0.0
 11
187.0977328862
 21
132.602457661
 31
0.0
  0
LINE
  5
2CD
330
1F
100
AcDbEntity
  8
0
  6
Continuous
 62
     7
370
    25
100
AcDbLine
 10
187.3477328862
 20
130.102457661
 30
0.0
 11
187.3477328862
 21
129.852457661
 31
0.0
  0
LINE
  5
2CE
330
1F
100
AcDbEntity
  8
0
  6
Continuous
 62
     7
370
    25
100
AcDbLine
 10
187.6205073111
 20
129.852457661
 30
0.0
 11
187.3477328862
 21
129.852457661
 31
0.0
  0
ARC
  5
2CF
330
1F
100
AcDbEntity
  8
0
  6
Continuous
 62
     7
370
    25
100
AcDbCircle
 10
187.3477328862
 20
130.102457661
 30
0.0
 40
0.25
100
AcDbArc
 50
180.0
 51
270.0
  0
LINE
  5
2D0
330
1F
100
AcDbEntity
  8
0
  6
Continuous
 62
     7
370
    25
100
AcDbLine
 10
138.6003272625
 20
134.785906784
 30
0.0
 11
138.6003272625
 21
127.919008538
 31
0.0
  0
LINE
  5
2D1
330
1F
100
AcDbEntity
  8
0
  6
Continuous
 62
     7
370
    25
100
AcDbLine
 10
176.5942192984
 20
123.502457661
 30
0.0
 11
176.5942192984
 21
127.6045177547
 31
0.0
  0
LINE
  5
2D2
330
1F
100
AcDbEntity
  8
0
  6
Continuous
 62
     7
370
    25
100
AcDbLine
 10
176.5942192984
 20
135.1003975673
 30
0.0
 11
176.5942192984
 21
139.202457661
 31
0.0
  0
LINE
  5
2D3
330
1F
100
AcDbEntity
  8
0
  6
Continuous
 62
     7
370
    25
100
AcDbLine
 10
164.1942192984
 20
139.202457661
 30
0.0
 11
164.1942192984
 21
134.852457661
 31
0.0
  0
LINE
  5
2D4
330
1F
100
AcDbEntity
  8
0
  6
Continuous
 62
     7
370
    25
100
AcDbLine
 10
164.1942192984
 20
127.852457661
 30
0.0
 11
164.1942192984
 21
123.502457661
 31
0.0
  0
SPLINE
  5
2D5
330
1F
100
AcDbEntity
  8
0
  6
Continuous
 62
     7
370
    25
100
AcDbSpline
210
0.0
220
0.0
230
1.0
 70
     8
 71
     3
 72
    11
 73
     7
 74
     0
 42
0.00000001
 43
0.00000001
 40
0.0
 40
0.0
 40
0.0
 40
0.0
 40
0.182945098365438
 40
0.5571371855744949
 40
0.9317062879569865
 40
1.0
 40
1.0
 40
1.0
 40
1.0
 10
200.826818953261
 20
122.5899964812417
 30
0.0
 10
200.7957951091639
 20
122.5751983246085
 30
0.0
 10
200.7013157416356
 20
122.5301323271483
 30
0.0
 10
200.6331725581297
 20
122.4668602615772
 30
0.0
 10
200.6068748456227
 20
122.4109729573604
 30
0.0
 10
200.6058452888913
 20
122.4017651399255
 30
0.0
 10
200.6056865213257
 20
122.4003452057789
 30
0.0
  0
SPLINE
  5
2D6
330
1F
100
AcDbEntity
  8
0
  6
Continuous
 62
     7
370
    25
100
AcDbSpline
210
0.0
220
0.0
230
1.0
 70
     8
 71
     3
 72
    11
 73
     7
 74
     0
 42
0.00000001
 43
0.00000001
 40
0.0
 40
0.0
 40
0.0
 40
0.0
 40
0.0631451044874329
 40
0.4402924664315869
 40
0.8170552935895093
 40
0.9999999999999999
 40
0.9999999999999999
 40
0.9999999999999999
 40
0.9999999999999999
 10
200.605524491138
 20
140.3048810161592
 30
0.0
 10
200.6056745479526
 20
140.3035667064193
 30
0.0
 10
200.6067208505207
 20
140.2944024064835
 30
0.0
 10
200.632671355162
 20
140.2385310879135
 30
0.0
 10
200.7008909764005
 20
140.1749937550719
 30
0.0
 10
200.7957978972197
 20
140.1297176752068
 30
0.0
 10
200.826818953261
 20
140.1149188407413
 30
0.0
  0
SPLINE
  5
2D7
330
1F
100
AcDbEntity
  8
0
  6
Continuous
 62
     7
370
    25
100
AcDbSpline
210
0.0
220
0.0
230
1.0
 70
     8
 71
     3
 72
    11
 73
     7
 74
     0
 42
0.00000001
 43
0.00000001
 40
0.0
 40
0.0
 40
0.0
 40
0.0
 40
0.1829450983654378
 40
0.5571371855744948
 40
0.9317062879569865
 40
1.0
 40
1.0
 40
1.0
 40
1.0
 10
185.3686468190569
 20
140.1149188407413
 30
0.0
 10
185.399670663154
 20
140.1297169973745
 30
0.0
 10
185.4941500306823
 20
140.1747829948347
 30
0.0
 10
185.5622932141882
 20
140.2380550604057
 30
0.0
 10
185.5885909266951
 20
140.2939423646226
 30
0.0
 10
185.5896204834265
 20
140.3031501820575
 30
0.0
 10
185.5897792509922
 20
140.3045701162041
 30
0.0
  0
SPLINE
  5
2D8
330
1F
100
AcDbEntity
  8
0
  6
Continuous
 62
     7
370
    25
100
AcDbSpline
210
0.0
220
0.0
230
1.0
 70
     8
 71
     3
 72
    11
 73
     7
 74
     0
 42
0.00000001
 43
0.00000001
 40
0.0
 40
0.0
 40
0.0
 40
0.0
 40
0.0631451044874329
 40
0.4402924664315868
 40
0.8170552935895091
 40
1.0
 40
1.0
 40
1.0
 40
1.0
 10
185.5899412811798
 20
122.4000343058238
 30
0.0
 10
185.5897912243653
 20
122.4013486155637
 30
0.0
 10
185.5887449217972
 20
122.4105129154994
 30
0.0
 10
185.5627944171558
 20
122.4663842340695
 30
0.0
 10
185.4945747959173
 20
122.5299215669111
 30
0.0
 10
185.3996678750982
 20
122.5751976467762
 30
0.0
 10
185.3686468190569
 20
122.5899964812417
 30
0.0
  0
LINE
  5
2D9
330
1F
100
AcDbEntity
  8
0
  6
Continuous
 62
     7
370
    25
100
AcDbLine
 10
200.0977328862
 20
124.6243266491
 30
0.0
 11
200.0977328862
 21
128.802457661
 31
0.0
  0
LINE
  5
2DA
330
1F
100
AcDbEntity
  8
0
  6
Continuous
 62
     7
370
    25
100
AcDbLine
 10
200.0977328862
 20
133.902457661
 30
0.0
 11
200.0977328862
 21
138.0805886729
 31
0.0
  0
LINE
  5
2DB
330
1F
100
AcDbEntity
  8
0
  6
Continuous
 62
     7
370
    25
100
AcDbLine
 10
186.0977328862
 20
138.0805886729
 30
0.0
 11
186.0977328862
 21
136.6487701415
 31
0.0
  0
LINE
  5
2DC
330
1F
100
AcDbEntity
  8
0
  6
Continuous
 62
     7
370
    25
100
AcDbLine
 10
186.0977328862
 20
126.0561451805
 30
0.0
 11
186.0977328862
 21
124.6243266491
 31
0.0
  0
LINE
  5
2DD
330
1F
100
AcDbEntity
  8
0
  6
Continuous
 62
     7
370
    25
100
AcDbLine
 10
200.0977328862
 20
138.0805886729
 30
0.0
 11
196.2969129509
 21
138.0805886729
 31
0.0
  0
LINE
  5
2DE
330
1F
100
AcDbEntity
  8
0
  6
Continuous
 62
     7
370
    25
100
AcDbLine
 10
189.8985528214
 20
138.0805886729
 30
0.0
 11
186.0977328862
 21
138.0805886729
 31
0.0
  0
LINE
  5
2DF
330
1F
100
AcDbEntity
  8
0
  6
Continuous
 62
     7
370
    25
100
AcDbLine
 10
186.0977328862
 20
124.6243266491
 30
0.0
 11
189.8985528214
 21
124.6243266491
 31
0.0
  0
LINE
  5
2E0
330
1F
100
AcDbEntity
  8
0
  6
Continuous
 62
     7
370
    25
100
AcDbLine
 10
196.2969129509
 20
124.6243266491
 30
0.0
 11
200.0977328862
 21
124.6243266491
 31
0.0
  0
LINE
  5
2E1
330
1F
100
AcDbEntity
  8
0
  6
Continuous
 62
     7
370
    25
100
AcDbLine
 10
186.0977328862
 20
138.4763610854
 30
0.0
 11
190.9177099505
 21
138.4763610854
 31
0.0
  0
LINE
  5
2E2
330
1F
100
AcDbEntity
  8
0
  6
Continuous
 62
     7
370
    25
100
AcDbLine
 10
195.2777558218
 20
138.4763610854
 30
0.0
 11
200.0977328862
 21
138.4763610854
 31
0.0
  0
LINE
  5
2E3
330
1F
100
AcDbEntity
  8
0
  6
Continuous
 62
     7
370
    25
100
AcDbLine
 10
200.0977328862
 20
124.2285542366
 30
0.0
 11
195.2777558218
 21
124.2285542366
 31
0.0
  0
LINE
  5
2E4
330
1F
100
AcDbEntity
  8
0
  6
Continuous
 62
     7
370
    25
100
AcDbLine
 10
190.9177099505
 20
124.2285542366
 30
0.0
 11
186.0977328862
 21
124.2285542366
 31
0.0
  0
INSERT
  5
2F0
330
1F
100
AcDbEntity
  8
0
  6
Continuous
 62
     7
370
    18
100
AcDbBlockReference
  2
SW_CENTERMARKSYMBOL_1
 10
193.0977328862
 20
131.352457661
 30
0.0
  0
LINE
  5
2F1
330
1F
100
AcDbEntity
  8
0
  6
Continuous
 62
     7
370
    18
100
AcDbLine
 10
203.5977328862
 20
125.355582661
 30
0.0
 11
212.2737083885
 21
125.6267068954
 31
0.0
  0
LINE
  5
2F2
330
1F
100
AcDbEntity
  8
0
  6
Continuous
 62
     7
370
    18
100
AcDbLine
 10
212.2737083885
 20
137.0782084265
 30
0.0
 11
203.5977328862
 21
137.349332661
 31
0.0
  0
LINE
  5
2F3
330
1F
100
AcDbEntity
  8
0
  6
Continuous
 62
     7
370
    18
100
AcDbLine
 10
180.0977328862
 20
137.052457661
 30
0.0
 11
176.8942192984
 21
137.052457661
 31
0.0
  0
LINE
  5
2F4
330
1F
100
AcDbEntity
  8
0
  6
Continuous
 62
     7
370
    18
100
AcDbLine
 10
176.8942192984
 20
125.652457661
 30
0.0
 11
180.0977328862
 21
125.652457661
 31
0.0
  0
LINE
  5
2F5
330
1F
100
AcDbEntity
  8
0
  6
Continuous
 62
     7
370
    18
100
AcDbLine
 10
180.0977328862
 20
137.052457661
 30
0.0
 11
180.0977328862
 21
137.0513305587
 31
0.0
  0
SPLINE
  5
2F6
330
1F
100
AcDbEntity
  8
0
  6
Continuous
 62
     7
370
     0
100
AcDbSpline
210
0.0
220
0.0
230
1.0
 70
     8
 71
     3
 72
    13
 73
     9
 74
     0
 42
0.00000001
 43
0.00000001
 40
0.0
 40
0.0
 40
0.0
 40
0.0
 40
0.1709232727856415
 40
0.3418465453816253
 40
0.5127698179776113
 40
0.6836930905735935
 40
0.8546163631695802
 40
1.0
 40
1.0
 40
1.0
 40
1.0
 10
180.0976991653442
 20
137.0513305587404
 30
0.0
 10
180.0977328861589
 20
136.9921870132155
 30
0.0
 10
180.0977328861589
 20
136.844101566795
 30
0.0
 10
180.0977328861589
 20
136.6094096154309
 30
0.0
 10
180.0977328861589
 20
136.2918123913944
 30
0.0
 10
180.0977328861589
 20
135.896318592632
 30
0.0
 10
180.0977328861589
 20
135.503321237882
 30
0.0
 10
180.0977328974923
 20
135.6378597885472
 30
0.0
 10
180.0977328861589
 20
135.503321237882
 30
0.0
  0
SPLINE
  5
2F7
330
1F
100
AcDbEntity
  8
0
  6
Continuous
 62
     7
370
     0
100
AcDbSpline
210
0.0
220
0.0
230
1.0
 70
     8
 71
     3
 72
    14
 73
    10
 74
     0
 42
0.00000001
 43
0.00000001
 40
0.0
 40
0.0
 40
0.0
 40
0.0
 40
0.0277984836279418
 40
0.1942170088506946
 40
0.3606355340734447
 40
0.5270540592961958
 40
0.6934725845189482
 40
0.8598911097416994
 40
1.0
 40
1.0
 40
1.0
 40
1.0
 10
180.0976991653442
 20
127.2015940841009
 30
0.0
 10
180.0977328861589
 20
127.1205662843644
 30
0.0
 10
180.0977328861589
 20
126.6753485465086
 30
0.0
 10
180.0977328861589
 20
126.3038916133577
 30
0.0
 10
180.0977328861589
 20
126.0120535826453
 30
0.0
 10
180.0977328861589
 20
125.8044369144511
 30
0.0
 10
180.0977328861589
 20
125.6843158476568
 30
0.0
 10
180.0977328861589
 20
125.6524576609915
 30
0.0
 10
180.0977328538234
 20
125.6586742593447
 30
0.0
 10
180.0977328861589
 20
125.6524576609915
 30
0.0
  0
ENDSEC
  0
SECTION
  2
OBJECTS
  0
DICTIONARY
  5
C
330
0
100
AcDbDictionary
281
     1
  3
ACAD_GROUP
350
D
  3
ACAD_LAYOUT
350
1A
  3
ACAD_MLINESTYLE
350
17
  3
ACAD_PLOTSETTINGS
350
19
  3
ACAD_PLOTSTYLENAME
350
E
  3
ACAD_SCALELIST
350
47
  3
DWGPROPS
350
2F8
  0
DICTIONARY
  5
D
102
{ACAD_REACTORS
330
C
102
}
330
C
100
AcDbDictionary
281
     1
  0
DICTIONARY
  5
1A
102
{ACAD_REACTORS
330
C
102
}
330
C
100
AcDbDictionary
281
     1
  3
Layout1
350
1E
  3
Layout2
350
26
  3
Model
350
22
  0
DICTIONARY
  5
17
102
{ACAD_REACTORS
330
C
102
}
330
C
100
AcDbDictionary
281
     1
  3
Standard
350
18
  0
DICTIONARY
  5
19
102
{ACAD_REACTORS
330
C
102
}
330
C
100
AcDbDictionary
281
     1
  0
ACDBDICTIONARYWDFLT
  5
E
102
{ACAD_REACTORS
330
C
102
}
330
C
100
AcDbDictionary
281
     1
  3
Normal
350
F
100
AcDbDictionaryWithDefault
340
F
  0
DICTIONARY
  5
47
102
{ACAD_REACTORS
330
C
102
}
330
C
100
AcDbDictionary
281
     1
  3
A0
350
48
  3
A1
350
49
  3
A2
350
4A
  3
A3
350
4B
  3
A4
350
4C
  3
A5
350
4D
  3
A6
350
4E
  3
A7
350
4F
  3
A8
350
50
  3
A9
350
51
  3
B0
350
52
  3
B1
350
53
  3
B2
350
54
  3
B3
350
55
  3
B4
350
56
  3
B5
350
57
  3
B6
350
58
  0
XRECORD
  5
2F8
102
{ACAD_REACTORS
330
C
102
}
330
C
100
AcDbXrecord
280
     1
  1
DWGPROPS COOKIE
  2

  3

  4

  6

  7

  8
user28
  9

300
=
301
=
302
=
303
=
304
=
305
=
306
=
307
=
308
=
309
=
 40
0.0
 41
2460159.304215915
 42
2460159.304216667
  1

 90
        0
  0
LAYOUT
  5
1E
102
{ACAD_REACTORS
330
1A
102
}
330
1A
100
AcDbPlotSettings
  1

  2
none_device
  4

  6

 40
0.0
 41
0.0
 42
0.0
 43
0.0
 44
0.0
 45
0.0
 46
0.0
 47
0.0
 48
0.0
 49
0.0
140
0.0
141
0.0
142
1.0
143
1.0
 70
   688
 72
     1
 73
     0
 74
     5
  7

 75
    16
147
1.0
148
0.0
149
0.0
100
AcDbLayout
  1
Layout1
 70
     1
 71
     1
 10
0.0
 20
0.0
 11
420.0
 21
297.0
 12
0.0
 22
0.0
 32
0.0
 14
1.0000000000E+20
 24
1.0000000000E+20
 34
1.0000000000E+20
 15
-1.0000000000E+20
 25
-1.0000000000E+20
 35
-1.0000000000E+20
146
0.0
 13
0.0
 23
0.0
 33
0.0
 16
1.0
 26
0.0
 36
0.0
 17
0.0
 27
1.0
 37
0.0
 76
     0
330
1B
  0
LAYOUT
  5
26
102
{ACAD_REACTORS
330
1A
102
}
330
1A
100
AcDbPlotSettings
  1

  2
none_device
  4

  6

 40
0.0
 41
0.0
 42
0.0
 43
0.0
 44
0.0
 45
0.0
 46
0.0
 47
0.0
 48
0.0
 49
0.0
140
0.0
141
0.0
142
1.0
143
1.0
 70
   688
 72
     1
 73
     0
 74
     5
  7

 75
    16
147
1.0
148
0.0
149
0.0
100
AcDbLayout
  1
Layout2
 70
     1
 71
     2
 10
0.0
 20
0.0
 11
0.0
 21
0.0
 12
0.0
 22
0.0
 32
0.0
 14
0.0
 24
0.0
 34
0.0
 15
0.0
 25
0.0
 35
0.0
146
0.0
 13
0.0
 23
0.0
 33
0.0
 16
1.0
 26
0.0
 36
0.0
 17
0.0
 27
1.0
 37
0.0
 76
     0
330
23
  0
LAYOUT
  5
22
102
{ACAD_REACTORS
330
1A
102
}
330
1A
100
AcDbPlotSettings
  1

  2
none_device
  4
Letter_(8.50_x_11.00_Inches)
  6

 40
6.35
 41
6.35
 42
6.35000508
 43
6.35000508
 44
215.9
 45
279.4
 46
0.0
 47
0.0
 48
0.0
 49
0.0
140
0.0
141
0.0
142
1.0
143
1.0
 70
  1712
 72
     1
 73
     0
 74
     0
  7

 75
     0
147
1.0
148
0.0
149
0.0
100
AcDbLayout
  1
Model
 70
     1
 71
     0
 10
0.0
 20
0.0
 11
431.8
 21
279.4
 12
0.0
 22
0.0
 32
0.0
 14
0.0
 24
0.0
 34
0.0
 15
431.8
 25
279.4
 35
0.0
146
0.0
 13
0.0
 23
0.0
 33
0.0
 16
1.0
 26
0.0
 36
0.0
 17
0.0
 27
1.0
 37
0.0
 76
     0
330
1F
331
29
  0
MLINESTYLE
  5
18
102
{ACAD_REACTORS
330
17
102
}
330
17
100
AcDbMlineStyle
  2
Standard
 70
     0
  3

 62
   256
 51
90.0
 52
90.0
 71
     2
 49
0.5
 62
   256
  6
BYLAYER
 49
-0.5
 62
   256
  6
BYLAYER
  0
ACDBPLACEHOLDER
  5
F
102
{ACAD_REACTORS
330
E
102
}
330
E
  0
SCALE
  5
48
102
{ACAD_REACTORS
330
47
102
}
330
47
100
AcDbScale
 70
     0
300
1:1
140
1.0
141
1.0
290
     1
  0
SCALE
  5
49
102
{ACAD_REACTORS
330
47
102
}
330
47
100
AcDbScale
 70
     0
300
1:2
140
1.0
141
2.0
290
     0
  0
SCALE
  5
4A
102
{ACAD_REACTORS
330
47
102
}
330
47
100
AcDbScale
 70
     0
300
1:4
140
1.0
141
4.0
290
     0
  0
SCALE
  5
4B
102
{ACAD_REACTORS
330
47
102
}
330
47
100
AcDbScale
 70
     0
300
1:5
140
1.0
141
5.0
290
     0
  0
SCALE
  5
4C
102
{ACAD_REACTORS
330
47
102
}
330
47
100
AcDbScale
 70
     0
300
1:8
140
1.0
141
8.0
290
     0
  0
SCALE
  5
4D
102
{ACAD_REACTORS
330
47
102
}
330
47
100
AcDbScale
 70
     0
300
1:10
140
1.0
141
10.0
290
     0
  0
SCALE
  5
4E
102
{ACAD_REACTORS
330
47
102
}
330
47
100
AcDbScale
 70
     0
300
1:16
140
1.0
141
16.0
290
     0
  0
SCALE
  5
4F
102
{ACAD_REACTORS
330
47
102
}
330
47
100
AcDbScale
 70
     0
300
1:20
140
1.0
141
20.0
290
     0
  0
SCALE
  5
50
102
{ACAD_REACTORS
330
47
102
}
330
47
100
AcDbScale
 70
     0
300
1:30
140
1.0
141
30.0
290
     0
  0
SCALE
  5
51
102
{ACAD_REACTORS
330
47
102
}
330
47
100
AcDbScale
 70
     0
300
1:40
140
1.0
141
40.0
290
     0
  0
SCALE
  5
52
102
{ACAD_REACTORS
330
47
102
}
330
47
100
AcDbScale
 70
     0
300
1:50
140
1.0
141
50.0
290
     0
  0
SCALE
  5
53
102
{ACAD_REACTORS
330
47
102
}
330
47
100
AcDbScale
 70
     0
300
1:100
140
1.0
141
100.0
290
     0
  0
SCALE
  5
54
102
{ACAD_REACTORS
330
47
102
}
330
47
100
AcDbScale
 70
     0
300
2:1
140
2.0
141
1.0
290
     0
  0
SCALE
  5
55
102
{ACAD_REACTORS
330
47
102
}
330
47
100
AcDbScale
 70
     0
300
4:1
140
4.0
141
1.0
290
     0
  0
SCALE
  5
56
102
{ACAD_REACTORS
330
47
102
}
330
47
100
AcDbScale
 70
     0
300
8:1
140
8.0
141
1.0
290
     0
  0
SCALE
  5
57
102
{ACAD_REACTORS
330
47
102
}
330
47
100
AcDbScale
 70
     0
300
10:1
140
10.0
141
1.0
290
     0
  0
SCALE
  5
58
102
{ACAD_REACTORS
330
47
102
}
330
47
100
AcDbScale
 70
     0
300
100:1
140
100.0
141
1.0
290
     0
  0
ENDSEC
  0
EOF
