  0
SECTION
  2
HEADER
  9
$ACADVER
  1
AC1015
  9
$ACADMAINTVER
 70
     6
  9
$DWGCODEPAGE
  3
DOS932
  9
$INSBASE
 10
0.0
 20
0.0
 30
0.0
  9
$EXTMIN
 10
0.0
 20
0.0
 30
0.0
  9
$EXTMAX
 10
297.0
 20
210.0
 30
0.0
  9
$LIMMIN
 10
0.0
 20
0.0
  9
$LIMMAX
 10
297.0
 20
210.0
  9
$ORTHOMODE
 70
     0
  9
$REGENMODE
 70
     1
  9
$FILLMODE
 70
     1
  9
$QTEXTMODE
 70
     0
  9
$MIRRTEXT
 70
     1
  9
$LTSCALE
 40
1.0
  9
$ATTMODE
 70
     1
  9
$TEXTSIZE
 40
3.5277777778
  9
$TRACEWID
 40
1.0
  9
$TEXTSTYLE
  7
Standard
  9
$CLAYER
  8
0
  9
$CELTYPE
  6
ByLayer
  9
$CECOLOR
 62
   256
  9
$CELTSCALE
 40
1.0
  9
$DISPSILH
 70
     0
  9
$DIMSCALE
 40
1.0
  9
$DIMASZ
 40
2.728515625
  9
$DIMEXO
 40
1.0
  9
$DIMDLI
 40
3.75
  9
$DIMRND
 40
0.0
  9
$DIMDLE
 40
0.0
  9
$DIMEXE
 40
1.0
  9
$DIMTP
 40
0.0
  9
$DIMTM
 40
0.0
  9
$DIMTXT
 40
3.5277777778
  9
$DIMCEN
 40
2.5
  9
$DIMTSZ
 40
0.0
  9
$DIMTOL
 70
     0
  9
$DIMLIM
 70
     0
  9
$DIMTIH
 70
     1
  9
$DIMTOH
 70
     1
  9
$DIMSE1
 70
     0
  9
$DIMSE2
 70
     0
  9
$DIMTAD
 70
     1
  9
$DIMZIN
 70
     0
  9
$DIMBLK
  1

  9
$DIMASO
 70
     1
  9
$DIMSHO
 70
     1
  9
$DIMPOST
  1

  9
$DIMAPOST
  1

  9
$DIMALT
 70
     0
  9
$DIMALTD
 70
     3
  9
$DIMALTF
 40
0.0393700787
  9
$DIMLFAC
 40
1.0
  9
$DIMTOFL
 70
     1
  9
$DIMTVP
 40
0.0
  9
$DIMTIX
 70
     0
  9
$DIMSOXD
 70
     0
  9
$DIMSAH
 70
     0
  9
$DIMBLK1
  1

  9
$DIMBLK2
  1

  9
$DIMSTYLE
  2
ISO-25
  9
$DIMCLRD
 70
     0
  9
$DIMCLRE
 70
     0
  9
$DIMCLRT
 70
     0
  9
$DIMTFAC
 40
1.0
  9
$DIMGAP
 40
1.524
  9
$DIMJUST
 70
     0
  9
$DIMSD1
 70
     0
  9
$DIMSD2
 70
     0
  9
$DIMTOLJ
 70
     0
  9
$DIMTZIN
 70
     0
  9
$DIMALTZ
 70
     0
  9
$DIMALTTZ
 70
     0
  9
$DIMUPT
 70
     0
  9
$DIMDEC
 70
     2
  9
$DIMTDEC
 70
     2
  9
$DIMALTU
 70
     2
  9
$DIMALTTD
 70
     3
  9
$DIMTXSTY
  7
Standard
  9
$DIMAUNIT
 70
     0
  9
$DIMADEC
 70
     2
  9
$DIMALTRND
 40
0.0
  9
$DIMAZIN
 70
     0
  9
$DIMDSEP
 70
    44
  9
$DIMATFIT
 70
     3
  9
$DIMFRAC
 70
     0
  9
$DIMLDRBLK
  1

  9
$DIMLUNIT
 70
     2
  9
$DIMLWD
 70
    -2
  9
$DIMLWE
 70
    -2
  9
$DIMTMOVE
 70
     0
  9
$LUNITS
 70
     2
  9
$LUPREC
 70
     2
  9
$SKETCHINC
 40
1.0
  9
$FILLETRAD
 40
0.0
  9
$AUNITS
 70
     0
  9
$AUPREC
 70
     2
  9
$MENU
  1
.
  9
$ELEVATION
 40
0.0
  9
$PELEVATION
 40
0.0
  9
$THICKNESS
 40
0.0
  9
$LIMCHECK
 70
     0
  9
$CHAMFERA
 40
0.0
  9
$CHAMFERB
 40
0.0
  9
$CHAMFERC
 40
0.0
  9
$CHAMFERD
 40
0.0
  9
$SKPOLY
 70
     0
  9
$TDCREATE
 40
2460424.691588819
  9
$TDUCREATE
 40
2460424.316588819
  9
$TDUPDATE
 40
2460424.69159
  9
$TDUUPDATE
 40
2460424.31659
  9
$TDINDWG
 40
0.0000000116
  9
$TDUSRTIMER
 40
0.0000000116
  9
$USRTIMER
 70
     1
  9
$ANGBASE
 50
0.0
  9
$ANGDIR
 70
     0
  9
$PDMODE
 70
     0
  9
$PDSIZE
 40
-1.0
  9
$PLINEWID
 40
0.0
  9
$SPLFRAME
 70
     0
  9
$SPLINETYPE
 70
     6
  9
$SPLINESEGS
 70
     8
  9
$HANDSEED
  5
2DF
  9
$SURFTAB1
 70
     6
  9
$SURFTAB2
 70
     6
  9
$SURFTYPE
 70
     6
  9
$SURFU
 70
     6
  9
$SURFV
 70
     6
  9
$UCSBASE
  2

  9
$UCSNAME
  2

  9
$UCSORG
 10
0.0
 20
0.0
 30
0.0
  9
$UCSXDIR
 10
1.0
 20
0.0
 30
0.0
  9
$UCSYDIR
 10
0.0
 20
1.0
 30
0.0
  9
$UCSORTHOREF
  2

  9
$UCSORTHOVIEW
 70
     0
  9
$UCSORGTOP
 10
0.0
 20
0.0
 30
0.0
  9
$UCSORGBOTTOM
 10
0.0
 20
0.0
 30
0.0
  9
$UCSORGLEFT
 10
0.0
 20
0.0
 30
0.0
  9
$UCSORGRIGHT
 10
0.0
 20
0.0
 30
0.0
  9
$UCSORGFRONT
 10
0.0
 20
0.0
 30
0.0
  9
$UCSORGBACK
 10
0.0
 20
0.0
 30
0.0
  9
$PUCSBASE
  2

  9
$PUCSNAME
  2

  9
$PUCSORG
 10
0.0
 20
0.0
 30
0.0
  9
$PUCSXDIR
 10
1.0
 20
0.0
 30
0.0
  9
$PUCSYDIR
 10
0.0
 20
1.0
 30
0.0
  9
$PUCSORTHOREF
  2

  9
$PUCSORTHOVIEW
 70
     0
  9
$PUCSORGTOP
 10
0.0
 20
0.0
 30
0.0
  9
$PUCSORGBOTTOM
 10
0.0
 20
0.0
 30
0.0
  9
$PUCSORGLEFT
 10
0.0
 20
0.0
 30
0.0
  9
$PUCSORGRIGHT
 10
0.0
 20
0.0
 30
0.0
  9
$PUCSORGFRONT
 10
0.0
 20
0.0
 30
0.0
  9
$PUCSORGBACK
 10
0.0
 20
0.0
 30
0.0
  9
$USERI1
 70
     0
  9
$USERI2
 70
     0
  9
$USERI3
 70
     0
  9
$USERI4
 70
     0
  9
$USERI5
 70
     0
  9
$USERR1
 40
0.0
  9
$USERR2
 40
0.0
  9
$USERR3
 40
0.0
  9
$USERR4
 40
0.0
  9
$USERR5
 40
0.0
  9
$WORLDVIEW
 70
     1
  9
$SHADEDGE
 70
     3
  9
$SHADEDIF
 70
    70
  9
$TILEMODE
 70
     1
  9
$MAXACTVP
 70
    64
  9
$PINSBASE
 10
0.0
 20
0.0
 30
0.0
  9
$PLIMCHECK
 70
     0
  9
$PEXTMIN
 10
1.0000000000E+20
 20
1.0000000000E+20
 30
1.0000000000E+20
  9
$PEXTMAX
 10
-1.0000000000E+20
 20
-1.0000000000E+20
 30
-1.0000000000E+20
  9
$PLIMMIN
 10
0.0
 20
0.0
  9
$PLIMMAX
 10
420.0
 20
297.0
  9
$UNITMODE
 70
     0
  9
$VISRETAIN
 70
     1
  9
$PLINEGEN
 70
     0
  9
$PSLTSCALE
 70
     1
  9
$TREEDEPTH
 70
  3020
  9
$CMLSTYLE
  2
Standard
  9
$CMLJUST
 70
     0
  9
$CMLSCALE
 40
20.0
  9
$PROXYGRAPHICS
 70
     1
  9
$MEASUREMENT
 70
     1
  9
$CELWEIGHT
370
    -1
  9
$ENDCAPS
280
     0
  9
$JOINSTYLE
280
     0
  9
$LWDISPLAY
290
     1
  9
$INSUNITS
 70
     4
  9
$HYPERLINKBASE
  1

  9
$STYLESHEET
  1

  9
$XEDIT
290
     1
  9
$CEPSNTYPE
380
     0
  9
$PSTYLEMODE
290
     1
  9
$FINGERPRINTGUID
  2
{1889f799-c87c-4511-85f7-e592d409e758}
  9
$VERSIONGUID
  2
{FAEB1C32-E019-11D5-929B-00C0DF256EC4}
  9
$EXTNAMES
290
     1
  9
$PSVPSCALE
 40
0.0
  9
$OLESTARTUP
290
     0
  0
ENDSEC
  0
SECTION
  2
CLASSES
  0
CLASS
  1
ACDBDICTIONARYWDFLT
  2
AcDbDictionaryWithDefault
  3
ObjectDBX Classes
 90
        0
280
     0
281
     0
  0
CLASS
  1
VISUALSTYLE
  2
AcDbVisualStyle
  3
ObjectDBX Classes
 90
     4095
280
     0
281
     0
  0
CLASS
  1
MATERIAL
  2
AcDbMaterial
  3
ObjectDBX Classes
 90
     1153
280
     0
281
     0
  0
CLASS
  1
SCALE
  2
AcDbScale
  3
ObjectDBX Classes
 90
     1153
280
     0
281
     0
  0
CLASS
  1
TABLESTYLE
  2
AcDbTableStyle
  3
ObjectDBX Classes
 90
     4095
280
     0
281
     0
  0
CLASS
  1
MLEADERSTYLE
  2
AcDbMLeaderStyle
  3
ACDB_MLEADERSTYLE_CLASS
 90
     4095
280
     0
281
     0
  0
CLASS
  1
SUN
  2
AcDbSun
  3
SCENEOE
 90
     1153
280
     0
281
     0
  0
CLASS
  1
ACDBPLACEHOLDER
  2
AcDbPlaceHolder
  3
ObjectDBX Classes
 90
        0
280
     0
281
     0
  0
CLASS
  1
LAYOUT
  2
AcDbLayout
  3
ObjectDBX Classes
 90
        0
280
     0
281
     0
  0
ENDSEC
  0
SECTION
  2
TABLES
  0
TABLE
  2
VPORT
  5
8
330
0
100
AcDbSymbolTable
 70
     1
  0
VPORT
  5
29
330
8
100
AcDbSymbolTableRecord
100
AcDbViewportTableRecord
  2
*Active
 70
     0
 10
0.0
 20
0.0
 11
1.0
 21
1.0
 12
148.5
 22
105.0
 13
0.0
 23
0.0
 14
10.0
 24
10.0
 15
10.0
 25
10.0
 16
0.0
 26
0.0
 36
1.0
 17
0.0
 27
0.0
 37
0.0
 40
210.0
 41
1.4142857143
 42
50.0
 43
0.0
 44
0.0
 50
0.0
 51
0.0
 71
     0
 72
  2000
 73
     1
 74
     3
 75
     0
 76
     0
 77
     0
 78
     0
281
     0
 65
     1
110
0.0
120
0.0
130
0.0
111
1.0
121
0.0
131
0.0
112
0.0
122
1.0
132
0.0
 79
     0
146
0.0
  0
ENDTAB
  0
TABLE
  2
LTYPE
  5
5
330
0
100
AcDbSymbolTable
 70
     6
  0
LTYPE
  5
14
330
5
100
AcDbSymbolTableRecord
100
AcDbLinetypeTableRecord
  2
ByBlock
 70
     0
  3

 72
    65
 73
     0
 40
0.0
  0
LTYPE
  5
15
330
5
100
AcDbSymbolTableRecord
100
AcDbLinetypeTableRecord
  2
ByLayer
 70
     0
  3

 72
    65
 73
     0
 40
0.0
  0
LTYPE
  5
16
330
5
100
AcDbSymbolTableRecord
100
AcDbLinetypeTableRecord
  2
Continuous
 70
     0
  3
Solid line
 72
    65
 73
     0
 40
0.0
  0
LTYPE
  5
5E
330
5
100
AcDbSymbolTableRecord
100
AcDbLinetypeTableRecord
  2
HIDDEN
 70
     0
  3
Hidden __ __ __ __ __ __ __ __ __ __ __ __ __ __
 72
    65
 73
     2
 40
1.905
 49
1.27
 74
     0
 49
-0.635
 74
     0
  0
LTYPE
  5
5F
330
5
100
AcDbSymbolTableRecord
100
AcDbLinetypeTableRecord
  2
PHANTOM
 70
     0
  3
Phantom ______  __  __  ______  __  __  ______
 72
    65
 73
     6
 40
12.7
 49
6.35
 74
     0
 49
-1.27
 74
     0
 49
1.27
 74
     0
 49
-1.27
 74
     0
 49
1.27
 74
     0
 49
-1.27
 74
     0
  0
LTYPE
  5
60
330
5
100
AcDbSymbolTableRecord
100
AcDbLinetypeTableRecord
  2
CENTER
 70
     0
  3
Center ____ _ ____ _ ____ _ ____ _ ____ _ ____
 72
    65
 73
     4
 40
10.16
 49
6.35
 74
     0
 49
-1.27
 74
     0
 49
1.27
 74
     0
 49
-1.27
 74
     0
  0
LTYPE
  5
61
330
5
100
AcDbSymbolTableRecord
100
AcDbLinetypeTableRecord
  2
CENTERX2
 70
     0
  3
Center (2x) ________  __  ________  __  _____
 72
    65
 73
     4
 40
20.32
 49
12.7
 74
     0
 49
-2.54
 74
     0
 49
2.54
 74
     0
 49
-2.54
 74
     0
  0
LTYPE
  5
62
330
5
100
AcDbSymbolTableRecord
100
AcDbLinetypeTableRecord
  2
DOT2
 70
     0
  3
Dot (.5x) ........................................
 72
    65
 73
     2
 40
0.635
 49
0.0
 74
     0
 49
-0.635
 74
     0
  0
ENDTAB
  0
TABLE
  2
LAYER
  5
2
330
0
100
AcDbSymbolTable
 70
     2
  0
LAYER
  5
10
330
2
100
AcDbSymbolTableRecord
100
AcDbLayerTableRecord
  2
0
 70
     0
 62
     7
  6
Continuous
370
    -3
390
F
  0
LAYER
  5
63
330
2
100
AcDbSymbolTableRecord
100
AcDbLayerTableRecord
  2
FORMAT
 70
     0
 62
     7
  6
Continuous
370
    -3
390
F
  0
ENDTAB
  0
TABLE
  2
STYLE
  5
3
330
0
100
AcDbSymbolTable
 70
     2
  0
STYLE
  5
11
330
3
100
AcDbSymbolTableRecord
100
AcDbTextStyleTableRecord
  2
Standard
 70
     0
 40
0.0
 41
1.0
 50
0.0
 71
     0
 42
3.5277777778
  3
txt
  4
bigfont
  0
STYLE
  5
64
330
3
100
AcDbSymbolTableRecord
100
AcDbTextStyleTableRecord
  2
SLDTEXTSTYLE0
 70
     0
 40
0.0
 41
0.7
 50
0.0
 71
     0
 42
3.5277777778
  3
TXT
  4
bigfont
  0
ENDTAB
  0
TABLE
  2
VIEW
  5
6
330
0
100
AcDbSymbolTable
 70
     0
  0
ENDTAB
  0
TABLE
  2
UCS
  5
7
330
0
100
AcDbSymbolTable
 70
     0
  0
ENDTAB
  0
TABLE
  2
APPID
  5
9
330
0
100
AcDbSymbolTable
 70
     1
  0
APPID
  5
12
330
9
100
AcDbSymbolTableRecord
100
AcDbRegAppTableRecord
  2
ACAD
 70
     0
  0
ENDTAB
  0
TABLE
  2
DIMSTYLE
  5
A
330
0
100
AcDbSymbolTable
 70
     1
100
AcDbDimStyleTable
  0
DIMSTYLE
105
27
330
A
100
AcDbSymbolTableRecord
100
AcDbDimStyleTableRecord
  2
ISO-25
 70
     0
 41
2.5
 42
0.625
 43
3.75
 44
1.25
 73
     0
 74
     0
 77
     1
 78
     8
140
2.5
141
2.5
143
0.0393700787
147
0.625
171
     3
172
     1
178
     0
271
     2
272
     2
274
     3
278
    44
283
     0
284
     8
340
11
  0
ENDTAB
  0
TABLE
  2
BLOCK_RECORD
  5
1
330
0
100
AcDbSymbolTable
 70
     3
  0
BLOCK_RECORD
  5
1F
330
1
100
AcDbSymbolTableRecord
100
AcDbBlockTableRecord
  2
*Model_Space
340
22
  0
BLOCK_RECORD
  5
1B
330
1
100
AcDbSymbolTableRecord
100
AcDbBlockTableRecord
  2
*Paper_Space
340
1E
  0
BLOCK_RECORD
  5
23
330
1
100
AcDbSymbolTableRecord
100
AcDbBlockTableRecord
  2
*Paper_Space0
340
26
  0
BLOCK_RECORD
  5
1D9
330
1
100
AcDbSymbolTableRecord
100
AcDbBlockTableRecord
  2
SW_CENTERMARKSYMBOL_0
340
0
102
{BLKREFS
331
1E4
102
}
  0
BLOCK_RECORD
  5
2D2
330
1
100
AcDbSymbolTableRecord
100
AcDbBlockTableRecord
  2
SW_CENTERMARKSYMBOL_1
340
0
102
{BLKREFS
331
2DD
102
}
  0
ENDTAB
  0
ENDSEC
  0
SECTION
  2
BLOCKS
  0
BLOCK
  5
20
330
1F
100
AcDbEntity
  8
0
100
AcDbBlockBegin
  2
*Model_Space
 70
     0
 10
0.0
 20
0.0
 30
0.0
  3
*Model_Space
  1

  0
ENDBLK
  5
21
330
1F
100
AcDbEntity
  8
0
100
AcDbBlockEnd
  0
BLOCK
  5
1C
330
1B
100
AcDbEntity
 67
     1
  8
0
100
AcDbBlockBegin
  2
*Paper_Space
 70
     0
 10
0.0
 20
0.0
 30
0.0
  3
*Paper_Space
  1

  0
ENDBLK
  5
1D
330
1B
100
AcDbEntity
 67
     1
  8
0
100
AcDbBlockEnd
  0
BLOCK
  5
24
330
23
100
AcDbEntity
  8
0
100
AcDbBlockBegin
  2
*Paper_Space0
 70
     0
 10
0.0
 20
0.0
 30
0.0
  3
*Paper_Space0
  1

  0
ENDBLK
  5
25
330
23
100
AcDbEntity
  8
0
100
AcDbBlockEnd
  0
BLOCK
  5
1DA
330
1D9
100
AcDbEntity
  8
0
100
AcDbBlockBegin
  2
SW_CENTERMARKSYMBOL_0
 70
     0
 10
0.0
 20
0.0
 30
0.0
  3
SW_CENTERMARKSYMBOL_0
  1

  0
LINE
  5
1DC
330
1D9
100
AcDbEntity
  8
FORMAT
 62
     0
100
AcDbLine
 10
0.0
 20
0.0
 30
0.0
 11
0.0
 21
2.5
 31
0.0
  0
LINE
  5
1DD
330
1D9
100
AcDbEntity
  8
FORMAT
 62
     0
100
AcDbLine
 10
0.0
 20
0.0
 30
0.0
 11
-2.5
 21
0.0
 31
0.0
  0
LINE
  5
1DE
330
1D9
100
AcDbEntity
  8
FORMAT
 62
     0
100
AcDbLine
 10
0.0
 20
0.0
 30
0.0
 11
0.0
 21
-2.5
 31
0.0
  0
LINE
  5
1DF
330
1D9
100
AcDbEntity
  8
FORMAT
 62
     0
100
AcDbLine
 10
0.0
 20
0.0
 30
0.0
 11
2.5
 21
0.0
 31
0.0
  0
LINE
  5
1E0
330
1D9
100
AcDbEntity
  8
FORMAT
 62
     0
100
AcDbLine
 10
0.0
 20
5.0
 30
0.0
 11
0.0
 21
31.6135030196
 31
0.0
  0
LINE
  5
1E1
330
1D9
100
AcDbEntity
  8
FORMAT
 62
     0
100
AcDbLine
 10
-5.0
 20
0.0
 30
0.0
 11
-14.5
 21
0.0
 31
0.0
  0
LINE
  5
1E2
330
1D9
100
AcDbEntity
  8
FORMAT
 62
     0
100
AcDbLine
 10
0.0
 20
-5.0
 30
0.0
 11
0.0
 21
-14.5
 31
0.0
  0
LINE
  5
1E3
330
1D9
100
AcDbEntity
  8
FORMAT
 62
     0
100
AcDbLine
 10
5.0
 20
0.0
 30
0.0
 11
14.5
 21
0.0
 31
0.0
  0
ENDBLK
  5
1DB
330
1D9
100
AcDbEntity
  8
0
100
AcDbBlockEnd
  0
BLOCK
  5
2D3
330
2D2
100
AcDbEntity
  8
0
100
AcDbBlockBegin
  2
SW_CENTERMARKSYMBOL_1
 70
     0
 10
0.0
 20
0.0
 30
0.0
  3
SW_CENTERMARKSYMBOL_1
  1

  0
LINE
  5
2D5
330
2D2
100
AcDbEntity
  8
FORMAT
 62
     0
100
AcDbLine
 10
0.0
 20
0.0
 30
0.0
 11
0.0
 21
2.5
 31
0.0
  0
LINE
  5
2D6
330
2D2
100
AcDbEntity
  8
FORMAT
 62
     0
100
AcDbLine
 10
0.0
 20
0.0
 30
0.0
 11
-2.5
 21
0.0
 31
0.0
  0
LINE
  5
2D7
330
2D2
100
AcDbEntity
  8
FORMAT
 62
     0
100
AcDbLine
 10
0.0
 20
0.0
 30
0.0
 11
0.0
 21
-2.5
 31
0.0
  0
LINE
  5
2D8
330
2D2
100
AcDbEntity
  8
FORMAT
 62
     0
100
AcDbLine
 10
0.0
 20
0.0
 30
0.0
 11
2.5
 21
0.0
 31
0.0
  0
LINE
  5
2D9
330
2D2
100
AcDbEntity
  8
FORMAT
 62
     0
100
AcDbLine
 10
0.0
 20
5.0
 30
0.0
 11
0.0
 21
14.1500705205
 31
0.0
  0
LINE
  5
2DA
330
2D2
100
AcDbEntity
  8
FORMAT
 62
     0
100
AcDbLine
 10
-5.0
 20
0.0
 30
0.0
 11
-41.7460030218
 21
0.0
 31
0.0
  0
LINE
  5
2DB
330
2D2
100
AcDbEntity
  8
FORMAT
 62
     0
100
AcDbLine
 10
0.0
 20
-5.0
 30
0.0
 11
0.0
 21
-13.188580332
 31
0.0
  0
LINE
  5
2DC
330
2D2
100
AcDbEntity
  8
FORMAT
 62
     0
100
AcDbLine
 10
5.0
 20
0.0
 30
0.0
 11
29.0580309279
 21
0.0
 31
0.0
  0
ENDBLK
  5
2D4
330
2D2
100
AcDbEntity
  8
0
100
AcDbBlockEnd
  0
ENDSEC
  0
SECTION
  2
ENTITIES
  0
MTEXT
  5
65
330
1F
100
AcDbEntity
  8
FORMAT
100
AcDbMText
 10
114.1863279613
 20
97.5432381774
 30
0.0
 40
3.7041666667
 41
0.0
 71
     1
 72
     1
  1
エースボール　BW-9033R
  7
SLDTEXTSTYLE0
 73
     1
 44
1.0
  0
LINE
  5
66
330
1F
100
AcDbEntity
  8
0
  6
Continuous
 62
     7
370
    25
100
AcDbLine
 10
89.5793781348
 20
40.1073248857
 30
0.0
 11
90.7061960743
 21
42.0590308079
 31
0.0
  0
LINE
  5
67
330
1F
100
AcDbEntity
  8
0
  6
Continuous
 62
     7
370
    25
100
AcDbLine
 10
90.7061960743
 20
63.5590308079
 30
0.0
 11
89.5793781348
 21
65.51073673
 31
0.0
  0
LINE
  5
68
330
1F
100
AcDbEntity
  8
0
  6
Continuous
 62
     7
370
    25
100
AcDbLine
 10
75.8330140139
 20
65.51073673
 30
0.0
 11
74.7061960743
 21
63.5590308079
 31
0.0
  0
LINE
  5
69
330
1F
100
AcDbEntity
  8
0
  6
Continuous
 62
     7
370
    25
100
AcDbLine
 10
74.7061960743
 20
42.0590308079
 30
0.0
 11
75.8330140139
 21
40.1073248857
 31
0.0
  0
LINE
  5
6A
330
1F
100
AcDbEntity
  8
0
  6
Continuous
 62
     7
370
    25
100
AcDbLine
 10
90.9561960743
 20
40.8090308079
 30
0.0
 11
93.7133028555
 21
40.8090308079
 31
0.0
  0
LINE
  5
6B
330
1F
100
AcDbEntity
  8
0
  6
Continuous
 62
     7
370
    25
100
AcDbLine
 10
93.7133028555
 20
64.8090308079
 30
0.0
 11
90.9561960743
 21
64.8090308079
 31
0.0
  0
LINE
  5
6C
330
1F
100
AcDbEntity
  8
0
  6
Continuous
 62
     7
370
    25
100
AcDbLine
 10
115.9561960743
 20
64.8090308079
 30
0.0
 11
113.1990892932
 21
64.8090308079
 31
0.0
  0
LINE
  5
6D
330
1F
100
AcDbEntity
  8
0
  6
Continuous
 62
     7
370
    25
100
AcDbLine
 10
113.1990892932
 20
40.8090308079
 30
0.0
 11
115.9561960743
 21
40.8090308079
 31
0.0
  0
LINE
  5
6E
330
1F
100
AcDbEntity
  8
0
  6
Continuous
 62
     7
370
    25
100
AcDbLine
 10
90.9561960743
 20
64.8090308079
 30
0.0
 11
90.7061960743
 21
64.5590308079
 31
0.0
  0
LINE
  5
6F
330
1F
100
AcDbEntity
  8
0
  6
Continuous
 62
     7
370
    25
100
AcDbLine
 10
90.7061960743
 20
41.0590308079
 30
0.0
 11
90.9561960743
 21
40.8090308079
 31
0.0
  0
LINE
  5
70
330
1F
100
AcDbEntity
  8
0
  6
Continuous
 62
     7
370
    25
100
AcDbLine
 10
115.9561960743
 20
40.8090308079
 30
0.0
 11
116.2061960743
 21
41.0590308079
 31
0.0
  0
LINE
  5
71
330
1F
100
AcDbEntity
  8
0
  6
Continuous
 62
     7
370
    25
100
AcDbLine
 10
116.2061960743
 20
64.5590308079
 30
0.0
 11
115.9561960743
 21
64.8090308079
 31
0.0
  0
LINE
  5
72
330
1F
100
AcDbEntity
  8
0
  6
Continuous
 62
     7
370
    25
100
AcDbLine
 10
129.7061960743
 20
63.5590308079
 30
0.0
 11
116.2061960743
 21
63.5590308079
 31
0.0
  0
LINE
  5
73
330
1F
100
AcDbEntity
  8
0
  6
Continuous
 62
     7
370
    25
100
AcDbLine
 10
116.2061960743
 20
42.0590308079
 30
0.0
 11
129.7061960743
 21
42.0590308079
 31
0.0
  0
LINE
  5
74
330
1F
100
AcDbEntity
  8
0
  6
Continuous
 62
     7
370
    25
100
AcDbLine
 10
129.7061960743
 20
42.0590308079
 30
0.0
 11
130.2061960743
 21
42.5590308079
 31
0.0
  0
LINE
  5
75
330
1F
100
AcDbEntity
  8
0
  6
Continuous
 62
     7
370
    25
100
AcDbLine
 10
130.2061960743
 20
63.0590308079
 30
0.0
 11
129.7061960743
 21
63.5590308079
 31
0.0
  0
LINE
  5
76
330
1F
100
AcDbEntity
  8
0
  6
Continuous
 62
     7
370
    25
100
AcDbLine
 10
113.1990892932
 20
64.8090308079
 30
0.0
 11
112.9562300689
 21
64.5661715836
 31
0.0
  0
LINE
  5
77
330
1F
100
AcDbEntity
  8
0
  6
Continuous
 62
     7
370
    25
100
AcDbLine
 10
93.7133028555
 20
40.8090308079
 30
0.0
 11
93.9561620798
 21
41.0518900321
 31
0.0
  0
LINE
  5
78
330
1F
100
AcDbEntity
  8
0
  6
Continuous
 62
     7
370
    25
100
AcDbLine
 10
93.9561620798
 20
64.5661715836
 30
0.0
 11
93.7133028555
 21
64.8090308079
 31
0.0
  0
LINE
  5
79
330
1F
100
AcDbEntity
  8
0
  6
Continuous
 62
     7
370
    25
100
AcDbLine
 10
112.9562300689
 20
41.0518900321
 30
0.0
 11
113.1990892932
 21
40.8090308079
 31
0.0
  0
ARC
  5
7A
330
1F
100
AcDbEntity
  8
0
  6
Continuous
 62
     7
370
    25
100
AcDbCircle
 10
93.2061960743
 20
64.5590308079
 30
0.0
 40
0.75
100
AcDbArc
 50
0.0
 51
0.5455233255
  0
ARC
  5
7B
330
1F
100
AcDbEntity
  8
0
  6
Continuous
 62
     7
370
    25
100
AcDbCircle
 10
113.7061960743
 20
41.0590308079
 30
0.0
 40
0.75
100
AcDbArc
 50
180.0
 51
180.5455233255
  0
ARC
  5
7C
330
1F
100
AcDbEntity
  8
0
  6
Continuous
 62
     7
370
    25
100
AcDbCircle
 10
113.7061960743
 20
64.5590308079
 30
0.0
 40
0.75
100
AcDbArc
 50
179.4544766745
 51
180.0
  0
ARC
  5
7D
330
1F
100
AcDbEntity
  8
0
  6
Continuous
 62
     7
370
    25
100
AcDbCircle
 10
93.2061960743
 20
41.0590308079
 30
0.0
 40
0.75
100
AcDbArc
 50
359.4544766745
 51
0.0
  0
ARC
  5
7E
330
1F
100
AcDbEntity
  8
0
  6
Continuous
 62
     7
370
    25
100
AcDbCircle
 10
112.5561960743
 20
64.2090308079
 30
0.0
 40
0.4000000000000057
100
AcDbArc
 50
270.0
 51
0.0
  0
ARC
  5
7F
330
1F
100
AcDbEntity
  8
0
  6
Continuous
 62
     7
370
    25
100
AcDbCircle
 10
94.3561960743
 20
64.2090308079
 30
0.0
 40
0.3999999999999915
100
AcDbArc
 50
180.0
 51
270.0
  0
ARC
  5
80
330
1F
100
AcDbEntity
  8
0
  6
Continuous
 62
     7
370
    25
100
AcDbCircle
 10
112.5561960743
 20
41.4090308079
 30
0.0
 40
0.4000000000000057
100
AcDbArc
 50
0.0
 51
90.0
  0
ARC
  5
81
330
1F
100
AcDbEntity
  8
0
  6
Continuous
 62
     7
370
    25
100
AcDbCircle
 10
94.3561960743
 20
41.4090308079
 30
0.0
 40
0.3999999999999986
100
AcDbArc
 50
90.0
 51
180.0
  0
LINE
  5
82
330
1F
100
AcDbEntity
  8
0
  6
Continuous
 62
     7
370
    25
100
AcDbLine
 10
97.0806363822
 20
63.8090308079
 30
0.0
 11
94.3561960743
 21
63.8090308079
 31
0.0
  0
LINE
  5
83
330
1F
100
AcDbEntity
  8
0
  6
Continuous
 62
     7
370
    25
100
AcDbLine
 10
112.5561960743
 20
63.8090308079
 30
0.0
 11
109.8561960743
 21
63.8090308079
 31
0.0
  0
LINE
  5
84
330
1F
100
AcDbEntity
  8
0
  6
Continuous
 62
     7
370
    25
100
AcDbLine
 10
94.3561960743
 20
41.8090308079
 30
0.0
 11
112.5561960743
 21
41.8090308079
 31
0.0
  0
SPLINE
  5
85
330
1F
100
AcDbEntity
  8
0
  6
Continuous
 62
     7
370
    25
100
AcDbSpline
210
0.0
220
0.0
230
1.0
 70
     8
 71
     3
 72
    13
 73
     9
 74
     0
 42
0.00000001
 43
0.00000001
 40
0.0
 40
0.0
 40
0.0
 40
0.0
 40
0.1766322325501069
 40
0.3559696169688003
 40
0.5431929030114291
 40
0.7374038426262265
 40
0.9282364068273468
 40
1.0
 40
1.0
 40
1.0
 40
1.0
 10
109.8473251005497
 20
63.80635586068203
 30
0.0
 10
109.8013588577359
 20
63.81019067769974
 30
0.0
 10
109.7087223914938
 20
63.81791904259234
 30
0.0
 10
109.5783427787094
 20
63.88017285202116
 30
0.0
 10
109.4660175410069
 20
63.97695239960781
 30
0.0
 10
109.3880599437575
 20
64.10604008735773
 30
0.0
 10
109.3525540283785
 20
64.22330970768397
 30
0.0
 10
109.3564735096529
 20
64.29184684466225
 30
0.0
 10
109.3575446451274
 20
64.3105770167429
 30
0.0
  0
SPLINE
  5
86
330
1F
100
AcDbEntity
  8
0
  6
Continuous
 62
     7
370
    25
100
AcDbSpline
210
0.0
220
0.0
230
1.0
 70
     8
 71
     3
 72
    13
 73
     9
 74
     0
 42
0.00000001
 43
0.00000001
 40
0.0
 40
0.0
 40
0.0
 40
0.0
 40
0.1877884035301099
 40
0.3881540143755749
 40
0.5876311250247486
 40
0.7559405112803324
 40
0.9028312104328597
 40
1.0
 40
1.0
 40
1.0
 40
1.0
 10
97.55950925750811
 20
64.2983715878701
 30
0.0
 10
97.55516106493054
 20
64.25081019469167
 30
0.0
 10
97.54617345774857
 20
64.15250196402106
 30
0.0
 10
97.47786423360483
 20
64.01686563926602
 30
0.0
 10
97.3786877797991
 20
63.91043216000504
 30
0.0
 10
97.26561037447958
 20
63.84403832573966
 30
0.0
 10
97.16536814654151
 20
63.81133044555855
 30
0.0
 10
97.10413082930732
 20
63.80799700953525
 30
0.0
 10
97.07975006860345
 20
63.80666984973016
 30
0.0
  0
LINE
  5
87
330
1F
100
AcDbEntity
  8
0
  6
Continuous
 62
     7
370
    25
100
AcDbLine
 10
109.3561960743
 20
64.3090308079
 30
0.0
 11
109.3561960743
 21
65.3090308079
 31
0.0
  0
LINE
  5
88
330
1F
100
AcDbEntity
  8
0
  6
Continuous
 62
     7
370
    25
100
AcDbLine
 10
97.5561960743
 20
65.3090308079
 30
0.0
 11
97.5561960743
 21
64.2954472049
 31
0.0
  0
LINE
  5
89
330
1F
100
AcDbEntity
  8
0
  6
Continuous
 62
     7
370
    25
100
AcDbLine
 10
110.9061960743
 20
73.3090308079
 30
0.0
 11
108.9561960743
 21
81.3090308078
 31
0.0
  0
LINE
  5
8A
330
1F
100
AcDbEntity
  8
0
  6
Continuous
 62
     7
370
    25
100
AcDbLine
 10
110.4561960743
 20
65.3090308079
 30
0.0
 11
110.9061960743
 21
73.3090308079
 31
0.0
  0
LINE
  5
8B
330
1F
100
AcDbEntity
  8
0
  6
Continuous
 62
     7
370
    25
100
AcDbLine
 10
96.3855394486
 20
66.5651485992
 30
0.0
 11
96.4561960743
 21
65.3090308079
 31
0.0
  0
LINE
  5
8C
330
1F
100
AcDbEntity
  8
0
  6
Continuous
 62
     7
370
    25
100
AcDbLine
 10
97.9561960744
 20
81.3090308078
 30
0.0
 11
97.7029645398
 21
80.2701322047
 31
0.0
  0
LINE
  5
8D
330
1F
100
AcDbEntity
  8
0
  6
Continuous
 62
     7
370
    25
100
AcDbLine
 10
75.8330140139
 20
46.4581778468
 30
0.0
 11
89.5793781348
 21
46.4581778468
 31
0.0
  0
SPLINE
  5
8E
330
1F
100
AcDbEntity
  8
0
  6
Continuous
 62
     7
370
    25
100
AcDbSpline
210
0.0
220
0.0
230
1.0
 70
     8
 71
     3
 72
    15
 73
    11
 74
     0
 42
0.00000001
 43
0.00000001
 40
0.0
 40
0.0
 40
0.0
 40
0.0
 40
0.1323062247880439
 40
0.2645750410251284
 40
0.3998028185914843
 40
0.5350061939043897
 40
0.650196066971367
 40
0.7654039083786517
 40
0.8826906146627405
 40
1.0
 40
1.0
 40
1.0
 40
1.0
 10
89.57937813480001
 20
40.10732488568793
 30
0.0
 10
89.72894032812408
 20
40.38170905728273
 30
0.0
 10
90.02802242723101
 20
40.93039982049241
 30
0.0
 10
90.34982225269844
 20
41.77533525695845
 30
0.0
 10
90.54330965584178
 20
42.63619801027045
 30
0.0
 10
90.58162495949296
 20
43.46587312210032
 30
0.0
 10
90.48220553537492
 20
44.25072070119434
 30
0.0
 10
90.27849860857562
 20
44.99141905313204
 30
0.0
 10
89.9796852389299
 20
45.72876842828438
 30
0.0
 10
89.71282243563178
 20
46.21502570466537
 30
0.0
 10
89.57937813480001
 20
46.45817784677392
 30
0.0
  0
LINE
  5
8F
330
1F
100
AcDbEntity
  8
0
  6
Continuous
 62
     7
370
    25
100
AcDbLine
 10
75.8330140139
 20
40.1073248857
 30
0.0
 11
89.5793781348
 21
40.1073248857
 31
0.0
  0
SPLINE
  5
90
330
1F
100
AcDbEntity
  8
0
  6
Continuous
 62
     7
370
    25
100
AcDbSpline
210
0.0
220
0.0
230
1.0
 70
     8
 71
     3
 72
    15
 73
    11
 74
     0
 42
0.00000001
 43
0.00000001
 40
0.0
 40
0.0
 40
0.0
 40
0.0
 40
0.1323062247880439
 40
0.2645750410251284
 40
0.3998028185914843
 40
0.5350061939043897
 40
0.650196066971367
 40
0.7654039083786517
 40
0.8826906146627405
 40
1.0
 40
1.0
 40
1.0
 40
1.0
 10
75.83301401388971
 20
40.10732488568793
 30
0.0
 10
75.68345182056565
 20
40.38170905728273
 30
0.0
 10
75.38436972145871
 20
40.93039982049241
 30
0.0
 10
75.06256989599127
 20
41.77533525695845
 30
0.0
 10
74.86908249284794
 20
42.63619801027045
 30
0.0
 10
74.83076718919678
 20
43.46587312210032
 30
0.0
 10
74.93018661331477
 20
44.25072070119434
 30
0.0
 10
75.1338935401141
 20
44.99141905313204
 30
0.0
 10
75.43270690975982
 20
45.72876842828438
 30
0.0
 10
75.69956971305793
 20
46.21502570466537
 30
0.0
 10
75.83301401388971
 20
46.45817784677392
 30
0.0
  0
SPLINE
  5
91
330
1F
100
AcDbEntity
  8
0
  6
Continuous
 62
     7
370
    25
100
AcDbSpline
210
0.0
220
0.0
230
1.0
 70
     8
 71
     3
 72
    16
 73
    12
 74
     0
 42
0.00000001
 43
0.00000001
 40
0.0
 40
0.0
 40
0.0
 40
0.0
 40
0.1114582023239467
 40
0.2372213151173265
 40
0.3629518604032449
 40
0.4917734862777073
 40
0.6205933331687971
 40
0.7149270030088987
 40
0.8092706389804453
 40
0.9046305409759714
 40
0.9999999999999999
 40
0.9999999999999999
 40
0.9999999999999999
 40
0.9999999999999999
 10
89.57937813480001
 20
46.45817784677392
 30
0.0
 10
89.70647411716007
 20
46.92014715785102
 30
0.0
 10
89.97697799621918
 20
47.9033764333335
 30
0.0
 10
90.28778768969542
 20
49.43350825864952
 30
0.0
 10
90.5049356590846
 20
51.05507644484344
 30
0.0
 10
90.5846573154206
 20
52.70298309108854
 30
0.0
 10
90.52802125251117
 20
54.21661920679922
 30
0.0
 10
90.37588184624681
 20
55.57350639275257
 30
0.0
 10
90.17122117587677
 20
56.77751807408598
 30
0.0
 10
89.90776787734362
 20
57.97473233106442
 30
0.0
 10
89.68884503889507
 20
58.76482009313234
 30
0.0
 10
89.57937813480001
 20
59.15988376894573
 30
0.0
  0
SPLINE
  5
92
330
1F
100
AcDbEntity
  8
0
  6
Continuous
 62
     7
370
    25
100
AcDbSpline
210
0.0
220
0.0
230
1.0
 70
     8
 71
     3
 72
    15
 73
    11
 74
     0
 42
0.00000001
 43
0.00000001
 40
0.0
 40
0.0
 40
0.0
 40
0.0
 40
0.1323062247880455
 40
0.2645750410251319
 40
0.3998028185914892
 40
0.5350061939043964
 40
0.650196066971372
 40
0.765403908378655
 40
0.8826906146627421
 40
0.9999999999999999
 40
0.9999999999999999
 40
0.9999999999999999
 40
0.9999999999999999
 10
89.57937813480001
 20
59.15988376894573
 30
0.0
 10
89.72894032812407
 20
59.43426794054053
 30
0.0
 10
90.02802242723101
 20
59.98295870375019
 30
0.0
 10
90.34982225269843
 20
60.82789414021619
 30
0.0
 10
90.54330965584177
 20
61.68875689352818
 30
0.0
 10
90.58162495949291
 20
62.51843200535803
 30
0.0
 10
90.48220553537489
 20
63.30327958445202
 30
0.0
 10
90.27849860857557
 20
64.04397793638968
 30
0.0
 10
89.97968523892989
 20
64.78132731154199
 30
0.0
 10
89.71282243563178
 20
65.26758458792295
 30
0.0
 10
89.57937813480001
 20
65.51073673003148
 30
0.0
  0
SPLINE
  5
93
330
1F
100
AcDbEntity
  8
0
  6
Continuous
 62
     7
370
    25
100
AcDbSpline
210
0.0
220
0.0
230
1.0
 70
     8
 71
     3
 72
    16
 73
    12
 74
     0
 42
0.00000001
 43
0.00000001
 40
0.0
 40
0.0
 40
0.0
 40
0.0
 40
0.1114582023239466
 40
0.2372213151173264
 40
0.3629518604032449
 40
0.4917734862777074
 40
0.6205933331687972
 40
0.7149270030088989
 40
0.8092706389804454
 40
0.9046305409759715
 40
1.0
 40
1.0
 40
1.0
 40
1.0
 10
75.83301401388971
 20
46.45817784677392
 30
0.0
 10
75.70591803152965
 20
46.92014715785102
 30
0.0
 10
75.43541415247054
 20
47.9033764333335
 30
0.0
 10
75.12460445899431
 20
49.43350825864952
 30
0.0
 10
74.90745648960511
 20
51.05507644484344
 30
0.0
 10
74.82773483326913
 20
52.70298309108854
 30
0.0
 10
74.88437089617855
 20
54.21661920679922
 30
0.0
 10
75.0365103024429
 20
55.57350639275257
 30
0.0
 10
75.24117097281294
 20
56.77751807408598
 30
0.0
 10
75.5046242713461
 20
57.97473233106442
 30
0.0
 10
75.72354710979465
 20
58.76482009313234
 30
0.0
 10
75.83301401388971
 20
59.15988376894573
 30
0.0
  0
SPLINE
  5
94
330
1F
100
AcDbEntity
  8
0
  6
Continuous
 62
     7
370
    25
100
AcDbSpline
210
0.0
220
0.0
230
1.0
 70
     8
 71
     3
 72
    15
 73
    11
 74
     0
 42
0.00000001
 43
0.00000001
 40
0.0
 40
0.0
 40
0.0
 40
0.0
 40
0.1323062247880455
 40
0.2645750410251319
 40
0.3998028185914892
 40
0.5350061939043964
 40
0.650196066971372
 40
0.765403908378655
 40
0.8826906146627421
 40
0.9999999999999999
 40
0.9999999999999999
 40
0.9999999999999999
 40
0.9999999999999999
 10
75.83301401388971
 20
59.15988376894573
 30
0.0
 10
75.68345182056565
 20
59.43426794054053
 30
0.0
 10
75.38436972145873
 20
59.98295870375019
 30
0.0
 10
75.06256989599129
 20
60.82789414021619
 30
0.0
 10
74.86908249284794
 20
61.68875689352818
 30
0.0
 10
74.83076718919679
 20
62.51843200535803
 30
0.0
 10
74.93018661331482
 20
63.30327958445202
 30
0.0
 10
75.13389354011414
 20
64.04397793638968
 30
0.0
 10
75.43270690975983
 20
64.78132731154199
 30
0.0
 10
75.69956971305793
 20
65.26758458792295
 30
0.0
 10
75.83301401388971
 20
65.51073673003148
 30
0.0
  0
LINE
  5
95
330
1F
100
AcDbEntity
  8
0
  6
Continuous
 62
     7
370
    25
100
AcDbLine
 10
74.7061960743
 20
52.8090308079
 30
0.0
 11
74.7061960743
 21
63.5590308079
 31
0.0
  0
LINE
  5
96
330
1F
100
AcDbEntity
  8
0
  6
Continuous
 62
     7
370
    25
100
AcDbLine
 10
74.7061960743
 20
42.0590308079
 30
0.0
 11
74.7061960743
 21
52.8090308079
 31
0.0
  0
LINE
  5
97
330
1F
100
AcDbEntity
  8
0
  6
Continuous
 62
     7
370
    25
100
AcDbLine
 10
75.8330140139
 20
59.1598837689
 30
0.0
 11
89.5793781348
 21
59.1598837689
 31
0.0
  0
LINE
  5
98
330
1F
100
AcDbEntity
  8
0
  6
Continuous
 62
     7
370
    25
100
AcDbLine
 10
75.8330140139
 20
65.51073673
 30
0.0
 11
89.5793781348
 21
65.51073673
 31
0.0
  0
LINE
  5
99
330
1F
100
AcDbEntity
  8
0
  6
Continuous
 62
     7
370
    25
100
AcDbLine
 10
90.9561960743
 20
52.8090308079
 30
0.0
 11
90.9561960743
 21
40.8090308079
 31
0.0
  0
LINE
  5
9A
330
1F
100
AcDbEntity
  8
0
  6
Continuous
 62
     7
370
    25
100
AcDbLine
 10
90.9561960743
 20
64.8090308079
 30
0.0
 11
90.9561960743
 21
52.8090308079
 31
0.0
  0
LINE
  5
9B
330
1F
100
AcDbEntity
  8
0
  6
Continuous
 62
     7
370
    25
100
AcDbLine
 10
93.7133028555
 20
58.3187901781
 30
0.0
 11
93.7133028555
 21
64.8090308079
 31
0.0
  0
SPLINE
  5
9C
330
1F
100
AcDbEntity
  8
0
  6
Continuous
 62
     7
370
    25
100
AcDbSpline
210
0.0
220
0.0
230
1.0
 70
     8
 71
     3
 72
    13
 73
     9
 74
     0
 42
0.00000001
 43
0.00000001
 40
0.0
 40
0.0
 40
0.0
 40
0.0
 40
0.123409203972734
 40
0.2495635406297123
 40
0.5004511475233475
 40
0.749483003608821
 40
0.8735723371285005
 40
1.0
 40
1.0
 40
1.0
 40
1.0
 10
93.88490285000611
 20
57.84676356056389
 30
0.0
 10
93.87036980808813
 20
57.86320241039198
 30
0.0
 10
93.84098044910667
 20
57.8964457782682
 30
0.0
 10
93.7930542325748
 20
57.96997974270952
 30
0.0
 10
93.74865994236302
 20
58.06895789813173
 30
0.0
 10
93.7244845576531
 20
58.17230696658722
 30
0.0
 10
93.7146509611303
 20
58.25575537650799
 30
0.0
 10
93.71375501166622
 20
58.29764823474827
 30
0.0
 10
93.71330285553141
 20
58.31879017814781
 30
0.0
  0
SPLINE
  5
9D
330
1F
100
AcDbEntity
  8
0
  6
Continuous
 62
     7
370
    25
100
AcDbSpline
210
0.0
220
0.0
230
1.0
 70
     8
 71
     3
 72
    14
 73
    10
 74
     0
 42
0.00000001
 43
0.00000001
 40
0.0
 40
0.0
 40
0.0
 40
0.0
 40
0.0833728361874164
 40
0.1651391830231223
 40
0.2505782922901014
 40
0.3661552980483097
 40
0.5013015333863843
 40
0.7511277814203854
 40
1.0
 40
1.0
 40
1.0
 40
1.0
 10
93.97921779292889
 20
57.55063002019462
 30
0.0
 10
93.98533027072018
 20
57.55814220314127
 30
0.0
 10
93.99743744656858
 20
57.57302181874826
 30
0.0
 10
94.00721622174605
 20
57.60003206675146
 30
0.0
 10
94.00997962526053
 20
57.63172793537497
 30
0.0
 10
94.00314392931094
 20
57.66905705090755
 30
0.0
 10
93.9816285918569
 20
57.72137840657113
 30
0.0
 10
93.94232135548955
 20
57.7825044064012
 30
0.0
 10
93.90401792652024
 20
57.82537117777352
 30
0.0
 10
93.88490285000611
 20
57.84676356056389
 30
0.0
  0
SPLINE
  5
9E
330
1F
100
AcDbEntity
  8
0
  6
Continuous
 62
     7
370
    25
100
AcDbSpline
210
0.0
220
0.0
230
1.0
 70
     8
 71
     3
 72
    17
 73
    13
 74
     0
 42
0.00000001
 43
0.00000001
 40
0.0
 40
0.0
 40
0.0
 40
0.0
 40
0.1308472312971285
 40
0.2501712416478232
 40
0.5002181447817603
 40
0.5625722445347702
 40
0.6248529024619178
 40
0.7493346422976469
 40
0.8746411565565786
 40
0.9373094462329892
 40
0.9700546542881243
 40
1.0
 40
1.0
 40
1.0
 40
1.0
 10
93.7133028555314
 20
55.75915354454837
 30
0.0
 10
93.7135541533495
 20
55.84089898673597
 30
0.0
 10
93.71403461813702
 20
55.99719085908505
 30
0.0
 10
93.72013429674486
 20
56.3074481272534
 30
0.0
 10
93.73196281201302
 20
56.57295235867181
 30
0.0
 10
93.75238388984657
 20
56.80062703544945
 30
0.0
 10
93.76951442561966
 20
56.95116515288757
 30
0.0
 10
93.79918380935189
 20
57.137750743781
 30
0.0
 10
93.84722403918767
 20
57.32056088599278
 30
0.0
 10
93.90221918371994
 20
57.44231984083341
 30
0.0
 10
93.94222642027681
 20
57.50736837540437
 30
0.0
 10
93.96726001577497
 20
57.53664532401748
 30
0.0
 10
93.97921779292889
 20
57.55063002019462
 30
0.0
  0
LINE
  5
9F
330
1F
100
AcDbEntity
  8
0
  6
Continuous
 62
     7
370
    25
100
AcDbLine
 10
93.7133028555
 20
49.8589080712
 30
0.0
 11
93.7133028555
 21
55.7591535445
 31
0.0
  0
SPLINE
  5
A0
330
1F
100
AcDbEntity
  8
0
  6
Continuous
 62
     7
370
    25
100
AcDbSpline
210
0.0
220
0.0
230
1.0
 70
     8
 71
     3
 72
    18
 73
    14
 74
     0
 42
0.00000001
 43
0.00000001
 40
0.0
 40
0.0
 40
0.0
 40
0.0
 40
0.0297375917720382
 40
0.062258599466678
 40
0.1245690829005885
 40
0.1747355398269592
 40
0.2498061834275062
 40
0.375180360281199
 40
0.4377454186258774
 40
0.5002333231923192
 40
0.7499313720644301
 40
0.8691943481413202
 40
1.0
 40
1.0
 40
1.0
 40
1.0
 10
93.97921779292894
 20
48.06743159552476
 30
0.0
 10
93.96733831585158
 20
48.08131760912217
 30
0.0
 10
93.94246745169748
 20
48.1103893566052
 30
0.0
 10
93.90264113359409
 20
48.17499134628415
 30
0.0
 10
93.86630880243248
 20
48.25491217386037
 30
0.0
 10
93.83053664270824
 20
48.36220964095735
 30
0.0
 10
93.7944656683373
 20
48.50910258739005
 30
0.0
 10
93.76957298842636
 20
48.66650937025938
 30
0.0
 10
93.75233736251455
 20
48.81783143279888
 30
0.0
 10
93.73194370372455
 20
49.04558151927898
 30
0.0
 10
93.72012628656041
 20
49.31093593688889
 30
0.0
 10
93.714033828931
 20
49.62094097472058
 30
0.0
 10
93.71355389756047
 20
49.77718178294647
 30
0.0
 10
93.7133028555314
 20
49.85890807118835
 30
0.0
  0
SPLINE
  5
A1
330
1F
100
AcDbEntity
  8
0
  6
Continuous
 62
     7
370
    25
100
AcDbSpline
210
0.0
220
0.0
230
1.0
 70
     8
 71
     3
 72
    13
 73
     9
 74
     0
 42
0.00000001
 43
0.00000001
 40
0.0
 40
0.0
 40
0.0
 40
0.0
 40
0.249182465287388
 40
0.498773852101548
 40
0.6338602399676625
 40
0.7494868859159841
 40
0.8759187542423453
 40
1.0
 40
1.0
 40
1.0
 40
1.0
 10
93.88490284999797
 20
47.7712980551601
 30
0.0
 10
93.90402843401321
 20
47.79270354986333
 30
0.0
 10
93.94231098813265
 20
47.83554966681204
 30
0.0
 10
93.98156415943163
 20
47.89658389043312
 30
0.0
 10
94.00312889683497
 20
47.94891767488052
 30
0.0
 10
94.01068195599589
 20
47.99050984676104
 30
0.0
 10
94.00555828391468
 20
48.03256280280599
 30
0.0
 10
93.9879428600569
 20
48.05588159984293
 30
0.0
 10
93.97921779292894
 20
48.06743159552476
 30
0.0
  0
SPLINE
  5
A2
330
1F
100
AcDbEntity
  8
0
  6
Continuous
 62
     7
370
    25
100
AcDbSpline
210
0.0
220
0.0
230
1.0
 70
     8
 71
     3
 72
    13
 73
     9
 74
     0
 42
0.00000001
 43
0.00000001
 40
0.0
 40
0.0
 40
0.0
 40
0.0
 40
0.126696314384486
 40
0.2513113397888735
 40
0.5007108425294119
 40
0.7510525732451946
 40
0.876867377471871
 40
1.0
 40
1.0
 40
1.0
 40
1.0
 10
93.71330285553148
 20
47.29927143758633
 30
0.0
 10
93.71375537016453
 20
47.32045847503493
 30
0.0
 10
93.7146529657991
 20
47.36248450233676
 30
0.0
 10
93.72454573941882
 20
47.44612555630279
 30
0.0
 10
93.74879999629573
 20
47.54952447280736
 30
0.0
 10
93.79323532578563
 20
47.64839219283008
 30
0.0
 10
93.8410795475862
 20
47.72173919222102
 30
0.0
 10
93.8704003842996
 20
47.7548975177593
 30
0.0
 10
93.88490285000613
 20
47.77129805515546
 30
0.0
  0
LINE
  5
A3
330
1F
100
AcDbEntity
  8
0
  6
Continuous
 62
     7
370
    25
100
AcDbLine
 10
93.7133028555
 20
40.8090308079
 30
0.0
 11
93.7133028555
 21
47.2992714376
 31
0.0
  0
LINE
  5
A4
330
1F
100
AcDbEntity
  8
0
  6
Continuous
 62
     7
370
    25
100
AcDbLine
 10
93.9561620798
 20
55.6994481679
 30
0.0
 11
93.9561620798
 21
49.9186134478
 31
0.0
  0
LINE
  5
A5
330
1F
100
AcDbEntity
  8
0
  6
Continuous
 62
     7
370
    25
100
AcDbLine
 10
93.9561620798
 20
49.9186134478
 30
0.0
 11
93.7133028555
 21
49.8589080712
 31
0.0
  0
LINE
  5
A6
330
1F
100
AcDbEntity
  8
0
  6
Continuous
 62
     7
370
    25
100
AcDbLine
 10
93.7133028555
 20
55.7591535445
 30
0.0
 11
93.9561620798
 21
55.6994481679
 31
0.0
  0
LINE
  5
A7
330
1F
100
AcDbEntity
  8
0
  6
Continuous
 62
     7
370
    25
100
AcDbLine
 10
112.9562300689
 20
49.9186134478
 30
0.0
 11
112.9562300689
 21
55.6994481679
 31
0.0
  0
LINE
  5
A8
330
1F
100
AcDbEntity
  8
0
  6
Continuous
 62
     7
370
    25
100
AcDbLine
 10
112.9562300689
 20
55.6994481679
 30
0.0
 11
113.1990892932
 21
55.7591535445
 31
0.0
  0
LINE
  5
A9
330
1F
100
AcDbEntity
  8
0
  6
Continuous
 62
     7
370
    25
100
AcDbLine
 10
113.1990892932
 20
55.7591535445
 30
0.0
 11
113.1990892932
 21
49.8589080712
 31
0.0
  0
LINE
  5
AA
330
1F
100
AcDbEntity
  8
0
  6
Continuous
 62
     7
370
    25
100
AcDbLine
 10
113.1990892932
 20
49.8589080712
 30
0.0
 11
112.9562300689
 21
49.9186134478
 31
0.0
  0
SPLINE
  5
AB
330
1F
100
AcDbEntity
  8
0
  6
Continuous
 62
     7
370
    25
100
AcDbSpline
210
0.0
220
0.0
230
1.0
 70
     8
 71
     3
 72
    14
 73
    10
 74
     0
 42
0.00000001
 43
0.00000001
 40
0.0
 40
0.0
 40
0.0
 40
0.0
 40
0.0833728361793554
 40
0.1651391830151492
 40
0.2505782922889906
 40
0.366155298026219
 40
0.5013015333857042
 40
0.7511277814200346
 40
1.0
 40
1.0
 40
1.0
 40
1.0
 10
112.9331743557608
 20
48.06743159552478
 30
0.0
 10
112.9270618779702
 20
48.05991941257878
 30
0.0
 10
112.9149547021225
 20
48.04503979697238
 30
0.0
 10
112.9051759269459
 20
48.01802954896927
 30
0.0
 10
112.9024125234284
 20
47.98633368034762
 30
0.0
 10
112.9092482193781
 20
47.94900456481412
 30
0.0
 10
112.9307635568314
 20
47.89668320915029
 30
0.0
 10
112.9700707932002
 20
47.83555720931818
 30
0.0
 10
113.0083742221695
 20
47.79269043794586
 30
0.0
 10
113.0274892986836
 20
47.77129805515547
 30
0.0
  0
SPLINE
  5
AC
330
1F
100
AcDbEntity
  8
0
  6
Continuous
 62
     7
370
    25
100
AcDbSpline
210
0.0
220
0.0
230
1.0
 70
     8
 71
     3
 72
    17
 73
    13
 74
     0
 42
0.00000001
 43
0.00000001
 40
0.0
 40
0.0
 40
0.0
 40
0.0
 40
0.1308472312969632
 40
0.2501712416478237
 40
0.5002181447817658
 40
0.5625722445347804
 40
0.6248529024619248
 40
0.749334642297656
 40
0.8746411565565848
 40
0.9373094462329951
 40
0.9700546542885856
 40
1.0
 40
1.0
 40
1.0
 40
1.0
 10
113.1990892931583
 20
49.85890807117104
 30
0.0
 10
113.1988379953402
 20
49.77716262898355
 30
0.0
 10
113.1983575305527
 20
49.62087075663447
 30
0.0
 10
113.1922578519448
 20
49.3106134884661
 30
0.0
 10
113.1804293366767
 20
49.04510925704758
 30
0.0
 10
113.1600082588431
 20
48.81743458026995
 30
0.0
 10
113.14287772307
 20
48.66689646283182
 30
0.0
 10
113.1132083393378
 20
48.48031087193838
 30
0.0
 10
113.065168109502
 20
48.29750072972664
 30
0.0
 10
113.0101729649697
 20
48.17574177488569
 30
0.0
 10
112.9701657284126
 20
48.11069324031487
 30
0.0
 10
112.9451321329145
 20
48.08141629170174
 30
0.0
 10
112.9331743557608
 20
48.06743159552479
 30
0.0
  0
SPLINE
  5
AD
330
1F
100
AcDbEntity
  8
0
  6
Continuous
 62
     7
370
    25
100
AcDbSpline
210
0.0
220
0.0
230
1.0
 70
     8
 71
     3
 72
    18
 73
    14
 74
     0
 42
0.00000001
 43
0.00000001
 40
0.0
 40
0.0
 40
0.0
 40
0.0
 40
0.0297375917713645
 40
0.0622585994666687
 40
0.1245690829005805
 40
0.1747355398269501
 40
0.2498061834274973
 40
0.3751803602811927
 40
0.4377454186258706
 40
0.5002333231923095
 40
0.7499313720644251
 40
0.8691943481067804
 40
1.0
 40
1.0
 40
1.0
 40
1.0
 10
112.9331743557608
 20
57.55063002019461
 30
0.0
 10
112.9450538328378
 20
57.53674400659747
 30
0.0
 10
112.9699246969918
 20
57.50767225911436
 30
0.0
 10
113.0097510150956
 20
57.44307026943564
 30
0.0
 10
113.0460833462572
 20
57.36314944185898
 30
0.0
 10
113.0818555059815
 20
57.25585197476202
 30
0.0
 10
113.1179264803524
 20
57.10895902832932
 30
0.0
 10
113.1428191602633
 20
56.95155224546001
 30
0.0
 10
113.1600547861752
 20
56.80023018292052
 30
0.0
 10
113.1804484449652
 20
56.57248009644041
 30
0.0
 10
113.1922658621276
 20
56.30712567885174
 30
0.0
 10
113.1983583197598
 20
55.99712064102035
 30
0.0
 10
113.1988382511295
 20
55.84087983279451
 30
0.0
 10
113.1990892931583
 20
55.75915354453108
 30
0.0
  0
SPLINE
  5
AE
330
1F
100
AcDbEntity
  8
0
  6
Continuous
 62
     7
370
    25
100
AcDbSpline
210
0.0
220
0.0
230
1.0
 70
     8
 71
     3
 72
    13
 73
     9
 74
     0
 42
0.00000001
 43
0.00000001
 40
0.0
 40
0.0
 40
0.0
 40
0.0
 40
0.2491824652873015
 40
0.4987738521013417
 40
0.6338602399552326
 40
0.7494868859167351
 40
0.8759187542471398
 40
1.0
 40
1.0
 40
1.0
 40
1.0
 10
113.0274892986917
 20
57.84676356055927
 30
0.0
 10
113.0083637146763
 20
57.82535806585609
 30
0.0
 10
112.9700811605565
 20
57.78251194890749
 30
0.0
 10
112.9308279892606
 20
57.72147772528687
 30
0.0
 10
112.909263251852
 20
57.66914394084101
 30
0.0
 10
112.9017101926943
 20
57.62755176895918
 30
0.0
 10
112.9068338647759
 20
57.58549881291317
 30
0.0
 10
112.9244492886333
 20
57.56218001587609
 30
0.0
 10
112.9331743557608
 20
57.55063002019461
 30
0.0
  0
SPLINE
  5
AF
330
1F
100
AcDbEntity
  8
0
  6
Continuous
 62
     7
370
    25
100
AcDbSpline
210
0.0
220
0.0
230
1.0
 70
     8
 71
     3
 72
    13
 73
     9
 74
     0
 42
0.00000001
 43
0.00000001
 40
0.0
 40
0.0
 40
0.0
 40
0.0
 40
0.1266963143628506
 40
0.2513113397887842
 40
0.5007108425293414
 40
0.7510525732451352
 40
0.8768673774688646
 40
1.0
 40
1.0
 40
1.0
 40
1.0
 10
113.1990892931582
 20
58.31879017813301
 30
0.0
 10
113.1986367785249
 20
58.29760314068805
 30
0.0
 10
113.1977391828896
 20
58.25557711338629
 30
0.0
 10
113.1878464092725
 20
58.17193605942008
 30
0.0
 10
113.1635921523938
 20
58.06853714291199
 30
0.0
 10
113.1191568229042
 20
57.96966942288982
 30
0.0
 10
113.0713126011041
 20
57.89632242349862
 30
0.0
 10
113.0419917643905
 20
57.86316409796042
 30
0.0
 10
113.0274892986836
 20
57.84676356056389
 30
0.0
  0
LINE
  5
B0
330
1F
100
AcDbEntity
  8
0
  6
Continuous
 62
     7
370
    25
100
AcDbLine
 10
113.1990892932
 20
64.8090308079
 30
0.0
 11
113.1990892932
 21
58.3187901781
 31
0.0
  0
LINE
  5
B1
330
1F
100
AcDbEntity
  8
0
  6
Continuous
 62
     7
370
    25
100
AcDbLine
 10
113.1990892932
 20
47.2992714376
 30
0.0
 11
113.1990892932
 21
40.8090308079
 31
0.0
  0
SPLINE
  5
B2
330
1F
100
AcDbEntity
  8
0
  6
Continuous
 62
     7
370
    25
100
AcDbSpline
210
0.0
220
0.0
230
1.0
 70
     8
 71
     3
 72
    13
 73
     9
 74
     0
 42
0.00000001
 43
0.00000001
 40
0.0
 40
0.0
 40
0.0
 40
0.0
 40
0.1234092039886535
 40
0.2495635406298181
 40
0.5004511475233587
 40
0.7494830036087242
 40
0.8735723370857859
 40
1.0
 40
1.0
 40
1.0
 40
1.0
 10
113.0274892986836
 20
47.77129805515547
 30
0.0
 10
113.0420223406038
 20
47.75485920532549
 30
0.0
 10
113.071411699586
 20
47.72161583744972
 30
0.0
 10
113.1193379161151
 20
47.64808187300697
 30
0.0
 10
113.1637322063274
 20
47.54910371758795
 30
0.0
 10
113.1879075910334
 20
47.44575464913921
 30
0.0
 10
113.1977411875614
 20
47.3623062392189
 30
0.0
 10
113.1986371370241
 20
47.32041338097851
 30
0.0
 10
113.1990892931583
 20
47.29927143757178
 30
0.0
  0
LINE
  5
B3
330
1F
100
AcDbEntity
  8
0
  6
Continuous
 62
     7
370
    25
100
AcDbLine
 10
115.9561960743
 20
40.8090308079
 30
0.0
 11
115.9561960743
 21
64.8090308079
 31
0.0
  0
LINE
  5
B4
330
1F
100
AcDbEntity
  8
0
  6
Continuous
 62
     7
370
    25
100
AcDbLine
 10
90.7061960743
 20
52.8090308079
 30
0.0
 11
90.7061960743
 21
64.5590308079
 31
0.0
  0
LINE
  5
B5
330
1F
100
AcDbEntity
  8
0
  6
Continuous
 62
     7
370
    25
100
AcDbLine
 10
90.7061960743
 20
41.0590308079
 30
0.0
 11
90.7061960743
 21
52.8090308079
 31
0.0
  0
LINE
  5
B6
330
1F
100
AcDbEntity
  8
0
  6
Continuous
 62
     7
370
    25
100
AcDbLine
 10
116.2061960743
 20
64.5590308079
 30
0.0
 11
116.2061960743
 21
41.0590308079
 31
0.0
  0
LINE
  5
B7
330
1F
100
AcDbEntity
  8
0
  6
Continuous
 62
     7
370
    25
100
AcDbLine
 10
112.9561960743
 20
49.9625417424
 30
0.0
 11
112.9561960743
 21
55.6555198734
 31
0.0
  0
SPLINE
  5
B8
330
1F
100
AcDbEntity
  8
0
  6
Continuous
 62
     7
370
    25
100
AcDbSpline
210
0.0
220
0.0
230
1.0
 70
     8
 71
     3
 72
     8
 73
     4
 74
     0
 42
0.00000001
 43
0.00000001
 40
0.0
 40
0.0
 40
0.0
 40
0.0
 40
1.0
 40
1.0
 40
1.0
 40
1.0
 10
112.9562300689007
 20
55.69944816792301
 30
0.0
 10
112.9562072310421
 20
55.68480729003384
 30
0.0
 10
112.9561960743449
 20
55.67016451226479
 30
0.0
 10
112.9561960743449
 20
55.65551987335775
 30
0.0
  0
SPLINE
  5
B9
330
1F
100
AcDbEntity
  8
0
  6
Continuous
 62
     7
370
    25
100
AcDbSpline
210
0.0
220
0.0
230
1.0
 70
     8
 71
     3
 72
     8
 73
     4
 74
     0
 42
0.00000001
 43
0.00000001
 40
0.0
 40
0.0
 40
0.0
 40
0.0
 40
1.0
 40
1.0
 40
1.0
 40
1.0
 10
112.9561960743449
 20
49.96254174236167
 30
0.0
 10
112.9561960743449
 20
49.9478979841437
 30
0.0
 10
112.956207229651
 20
49.93325521752406
 30
0.0
 10
112.9562300689007
 20
49.91861344779029
 30
0.0
  0
LINE
  5
BA
330
1F
100
AcDbEntity
  8
0
  6
Continuous
 62
     7
370
    25
100
AcDbLine
 10
93.9561960743
 20
55.6555198734
 30
0.0
 11
93.9561960743
 21
49.9625417424
 31
0.0
  0
SPLINE
  5
BB
330
1F
100
AcDbEntity
  8
0
  6
Continuous
 62
     7
370
    25
100
AcDbSpline
210
0.0
220
0.0
230
1.0
 70
     8
 71
     3
 72
     8
 73
     4
 74
     0
 42
0.00000001
 43
0.00000001
 40
0.0
 40
0.0
 40
0.0
 40
0.0
 40
1.0
 40
1.0
 40
1.0
 40
1.0
 10
93.95616207978901
 20
49.91861344779642
 30
0.0
 10
93.95618491764759
 20
49.93325432568559
 30
0.0
 10
93.95619607434486
 20
49.94789710345464
 30
0.0
 10
93.95619607434486
 20
49.96254174236167
 30
0.0
  0
SPLINE
  5
BC
330
1F
100
AcDbEntity
  8
0
  6
Continuous
 62
     7
370
    25
100
AcDbSpline
210
0.0
220
0.0
230
1.0
 70
     8
 71
     3
 72
     8
 73
     4
 74
     0
 42
0.00000001
 43
0.00000001
 40
0.0
 40
0.0
 40
0.0
 40
0.0
 40
1.0
 40
1.0
 40
1.0
 40
1.0
 10
93.95619607434486
 20
55.65551987335775
 30
0.0
 10
93.95619607434486
 20
55.67016363157571
 30
0.0
 10
93.95618491903875
 20
55.68480639819536
 30
0.0
 10
93.95616207978901
 20
55.69944816792911
 30
0.0
  0
SPLINE
  5
BD
330
1F
100
AcDbEntity
  8
0
  6
Continuous
 62
     7
370
    25
100
AcDbSpline
210
0.0
220
0.0
230
1.0
 70
     8
 71
     3
 72
    16
 73
    12
 74
     0
 42
0.00000001
 43
0.00000001
 40
0.0
 40
0.0
 40
0.0
 40
0.0
 40
0.1358424562080462
 40
0.2585567702382189
 40
0.5157338482631078
 40
0.6432966940835715
 40
0.769210278740544
 40
0.8342664718723953
 40
0.8905766424055048
 40
0.9515952837299115
 40
1.0
 40
1.0
 40
1.0
 40
1.0
 10
93.95616207978901
 20
49.91861344779642
 30
0.0
 10
93.9561236940428
 20
49.83708620586985
 30
0.0
 10
93.95605063224136
 20
49.68191071105489
 30
0.0
 10
93.95678118386918
 20
49.37320580965107
 30
0.0
 10
93.95884660612877
 20
49.07040201291965
 30
0.0
 10
93.96628640690574
 20
48.76703800721548
 30
0.0
 10
93.97563822519598
 20
48.57855605598692
 30
0.0
 10
93.98896613678934
 20
48.43298803315333
 30
0.0
 10
94.00448244331571
 20
48.32668909509789
 30
0.0
 10
94.0239014825608
 20
48.23047795409784
 30
0.0
 10
94.0507839937271
 20
48.17178074379784
 30
0.0
 10
94.06267579045348
 20
48.14581533866976
 30
0.0
  0
LINE
  5
BE
330
1F
100
AcDbEntity
  8
0
  6
Continuous
 62
     7
370
    25
100
AcDbLine
 10
94.0626757905
 20
48.1458153387
 30
0.0
 11
93.9792177929
 21
48.0674315955
 31
0.0
  0
SPLINE
  5
BF
330
1F
100
AcDbEntity
  8
0
  6
Continuous
 62
     7
370
    25
100
AcDbSpline
210
0.0
220
0.0
230
1.0
 70
     8
 71
     3
 72
    16
 73
    12
 74
     0
 42
0.00000001
 43
0.00000001
 40
0.0
 40
0.0
 40
0.0
 40
0.0
 40
0.1358424561976651
 40
0.2585567702396391
 40
0.5157338482659424
 40
0.6432966940871057
 40
0.7692102787447741
 40
0.8342664723077616
 40
0.8905766424116071
 40
0.9515952839399333
 40
1.0
 40
1.0
 40
1.0
 40
1.0
 10
112.9562300689007
 20
55.69944816792301
 30
0.0
 10
112.9562684546468
 20
55.78097540984286
 30
0.0
 10
112.9563415164481
 20
55.93615090465774
 30
0.0
 10
112.9556109648216
 20
56.24485580606204
 30
0.0
 10
112.9535455425544
 20
56.54765960279775
 30
0.0
 10
112.9461057417951
 20
56.85102360850728
 30
0.0
 10
112.9367539234479
 20
57.0395055599773
 30
0.0
 10
112.9234260119304
 20
57.18507358283709
 30
0.0
 10
112.9079097053196
 20
57.29137252099513
 30
0.0
 10
112.8884906659856
 20
57.38758366169007
 30
0.0
 10
112.8616081548834
 20
57.44628087201966
 30
0.0
 10
112.8497163582363
 20
57.47224627704963
 30
0.0
  0
LINE
  5
C0
330
1F
100
AcDbEntity
  8
0
  6
Continuous
 62
     7
370
    25
100
AcDbLine
 10
112.8497163582
 20
57.472246277
 30
0.0
 11
112.9331743558
 21
57.5506300202
 31
0.0
  0
LINE
  5
C1
330
1F
100
AcDbEntity
  8
0
  6
Continuous
 62
     7
370
    25
100
AcDbLine
 10
93.9792177929
 20
57.5506300202
 30
0.0
 11
94.0626757905
 21
57.4722462771
 31
0.0
  0
SPLINE
  5
C2
330
1F
100
AcDbEntity
  8
0
  6
Continuous
 62
     7
370
    25
100
AcDbSpline
210
0.0
220
0.0
230
1.0
 70
     8
 71
     3
 72
    18
 73
    14
 74
     0
 42
0.00000001
 43
0.00000001
 40
0.0
 40
0.0
 40
0.0
 40
0.0
 40
0.0228877262659284
 40
0.0487507054349101
 40
0.0778154834700411
 40
0.1102364830155919
 40
0.1666044227654431
 40
0.231774208579201
 40
0.3567811110102737
 40
0.4838932701832798
 40
0.741382445805996
 40
0.8641064613662746
 40
1.0
 40
1.0
 40
1.0
 40
1.0
 10
94.06267579045338
 20
57.4722462770494
 30
0.0
 10
94.05651232452834
 20
57.4602438266928
 30
0.0
 10
94.04338418290874
 20
57.43467868688671
 30
0.0
 10
94.02852227927619
 20
57.39126329423641
 30
0.0
 10
94.0152194402005
 20
57.34161299911704
 30
0.0
 10
94.00153668552846
 20
57.27353831591838
 30
0.0
 10
93.98891365137638
 20
57.18358656003566
 30
0.0
 10
93.97552261076612
 20
57.03851417725485
 30
0.0
 10
93.96630533378486
 20
56.8507071783668
 30
0.0
 10
93.95883621176687
 20
56.54795490324624
 30
0.0
 10
93.95678433726138
 20
56.24519441269993
 30
0.0
 10
93.9560501767757
 20
55.93623984263676
 30
0.0
 10
93.95612353360681
 20
55.78101357681123
 30
0.0
 10
93.956162079789
 20
55.69944816792911
 30
0.0
  0
LINE
  5
C3
330
1F
100
AcDbEntity
  8
0
  6
Continuous
 62
     7
370
    25
100
AcDbLine
 10
112.9331743558
 20
48.0674315955
 30
0.0
 11
112.8497163582
 21
48.1458153387
 31
0.0
  0
SPLINE
  5
C4
330
1F
100
AcDbEntity
  8
0
  6
Continuous
 62
     7
370
    25
100
AcDbSpline
210
0.0
220
0.0
230
1.0
 70
     8
 71
     3
 72
    18
 73
    14
 74
     0
 42
0.00000001
 43
0.00000001
 40
0.0
 40
0.0
 40
0.0
 40
0.0
 40
0.0228877262623231
 40
0.0487507054304767
 40
0.0778154834678066
 40
0.110236483018699
 40
0.1666044227684945
 40
0.2317742085819108
 40
0.356781111012564
 40
0.4838932701851294
 40
0.7413824458069321
 40
0.864106461437923
 40
1.0
 40
1.0
 40
1.0
 40
1.0
 10
112.8497163582342
 20
48.14581533866823
 30
0.0
 10
112.8558798241596
 20
48.15781778902223
 30
0.0
 10
112.8690079657807
 20
48.18338292882449
 30
0.0
 10
112.8838698694131
 20
48.22679832147368
 30
0.0
 10
112.8971727084893
 20
48.27644861659718
 30
0.0
 10
112.9108554631608
 20
48.3445232998008
 30
0.0
 10
112.9234784973127
 20
48.43447505568675
 30
0.0
 10
112.9368695379243
 20
48.5795474384669
 30
0.0
 10
112.9460868149048
 20
48.76735443735477
 30
0.0
 10
112.9535559369229
 20
49.07010671247475
 30
0.0
 10
112.9556078114288
 20
49.37286720306272
 30
0.0
 10
112.9563419719138
 20
49.68182177312616
 30
0.0
 10
112.9562686150828
 20
49.83704803895116
 30
0.0
 10
112.9562300689007
 20
49.9186134477903
 30
0.0
  0
SPLINE
  5
C5
330
1F
100
AcDbEntity
  8
0
  6
Continuous
 62
     7
370
    25
100
AcDbSpline
210
0.0
220
0.0
230
1.0
 70
     8
 71
     3
 72
    10
 73
     6
 74
     0
 42
0.00000001
 43
0.00000001
 40
0.0
 40
0.0
 40
0.0
 40
0.0
 40
0.4999999999999996
 40
0.4999999999999996
 40
1.0
 40
1.0
 40
1.0
 40
1.0
 10
94.23750093976004
 20
57.31668746264712
 30
0.0
 10
94.28704300418424
 20
57.04361066719981
 30
0.0
 10
94.31564919743472
 20
56.76781124544316
 30
0.0
 10
94.35038950679784
 20
56.21328999817921
 30
0.0
 10
94.35619607434485
 20
55.93429784688725
 30
0.0
 10
94.35619607434485
 20
55.65551987335775
 30
0.0
  0
LINE
  5
C6
330
1F
100
AcDbEntity
  8
0
  6
Continuous
 62
     7
370
    25
100
AcDbLine
 10
93.9561960743
 20
55.6555198734
 30
0.0
 11
94.3561960743
 21
55.6555198734
 31
0.0
  0
SPLINE
  5
C7
330
1F
100
AcDbEntity
  8
0
  6
Continuous
 62
     7
370
    25
100
AcDbSpline
210
0.0
220
0.0
230
1.0
 70
     8
 71
     3
 72
     8
 73
     4
 74
     0
 42
0.00000001
 43
0.00000001
 40
0.0
 40
0.0
 40
0.0
 40
0.0
 40
1.0
 40
1.0
 40
1.0
 40
1.0
 10
94.23750093976341
 20
57.31668746265421
 30
0.0
 10
94.16510096960181
 20
57.35119740433629
 30
0.0
 10
94.11067075201157
 20
57.41071150569744
 30
0.0
 10
94.06267579045038
 20
57.47224627704871
 30
0.0
  0
SPLINE
  5
C8
330
1F
100
AcDbEntity
  8
0
  6
Continuous
 62
     7
370
    25
100
AcDbSpline
210
0.0
220
0.0
230
1.0
 70
     8
 71
     3
 72
    10
 73
     6
 74
     0
 42
0.00000001
 43
0.00000001
 40
0.0
 40
0.0
 40
0.0
 40
0.0
 40
0.5000000000000004
 40
0.5000000000000004
 40
1.0
 40
1.0
 40
1.0
 40
1.0
 10
112.6748912089297
 20
48.30137415307222
 30
0.0
 10
112.6253491445055
 20
48.57445094851955
 30
0.0
 10
112.596742951255
 20
48.85025037027621
 30
0.0
 10
112.5620026418919
 20
49.40477161754018
 30
0.0
 10
112.5561960743449
 20
49.68376376883215
 30
0.0
 10
112.5561960743449
 20
49.96254174236167
 30
0.0
  0
LINE
  5
C9
330
1F
100
AcDbEntity
  8
0
  6
Continuous
 62
     7
370
    25
100
AcDbLine
 10
112.5561960743
 20
49.9625417424
 30
0.0
 11
112.9561960743
 21
49.9625417424
 31
0.0
  0
SPLINE
  5
CA
330
1F
100
AcDbEntity
  8
0
  6
Continuous
 62
     7
370
    25
100
AcDbSpline
210
0.0
220
0.0
230
1.0
 70
     8
 71
     3
 72
     8
 73
     4
 74
     0
 42
0.00000001
 43
0.00000001
 40
0.0
 40
0.0
 40
0.0
 40
0.0
 40
1.0
 40
1.0
 40
1.0
 40
1.0
 10
112.6748912089263
 20
48.30137415306514
 30
0.0
 10
112.7472911790878
 20
48.26686421138299
 30
0.0
 10
112.8017213966781
 20
48.20735011002195
 30
0.0
 10
112.8497163582393
 20
48.14581533867069
 30
0.0
  0
LINE
  5
CB
330
1F
100
AcDbEntity
  8
0
  6
Continuous
 62
     7
370
    25
100
AcDbLine
 10
93.9561960743
 20
49.9625417424
 30
0.0
 11
94.3561960743
 21
49.9625417424
 31
0.0
  0
SPLINE
  5
CC
330
1F
100
AcDbEntity
  8
0
  6
Continuous
 62
     7
370
    25
100
AcDbSpline
210
0.0
220
0.0
230
1.0
 70
     8
 71
     3
 72
    10
 73
     6
 74
     0
 42
0.00000001
 43
0.00000001
 40
0.0
 40
0.0
 40
0.0
 40
0.0
 40
0.5
 40
0.5
 40
1.0
 40
1.0
 40
1.0
 40
1.0
 10
94.35619607434485
 20
49.96254174236167
 30
0.0
 10
94.35619607434485
 20
49.68350998161323
 30
0.0
 10
94.3503974521799
 20
49.40511443323241
 30
0.0
 10
94.31570075837858
 20
48.85085775844565
 30
0.0
 10
94.28713538069213
 20
48.5749601295742
 30
0.0
 10
94.23750093975829
 20
48.30137415306271
 30
0.0
  0
SPLINE
  5
CD
330
1F
100
AcDbEntity
  8
0
  6
Continuous
 62
     7
370
    25
100
AcDbSpline
210
0.0
220
0.0
230
1.0
 70
     8
 71
     3
 72
     8
 73
     4
 74
     0
 42
0.00000001
 43
0.00000001
 40
0.0
 40
0.0
 40
0.0
 40
0.0
 40
1.0
 40
1.0
 40
1.0
 40
1.0
 10
94.23750093975832
 20
48.3013741530627
 30
0.0
 10
94.16510096959927
 20
48.26686421137991
 30
0.0
 10
94.11067075201032
 20
48.20735011002031
 30
0.0
 10
94.06267579045041
 20
48.14581533867069
 30
0.0
  0
LINE
  5
CE
330
1F
100
AcDbEntity
  8
0
  6
Continuous
 62
     7
370
    25
100
AcDbLine
 10
112.5561960743
 20
55.6555198734
 30
0.0
 11
112.9561960743
 21
55.6555198734
 31
0.0
  0
SPLINE
  5
CF
330
1F
100
AcDbEntity
  8
0
  6
Continuous
 62
     7
370
    25
100
AcDbSpline
210
0.0
220
0.0
230
1.0
 70
     8
 71
     3
 72
    10
 73
     6
 74
     0
 42
0.00000001
 43
0.00000001
 40
0.0
 40
0.0
 40
0.0
 40
0.0
 40
0.5000000000000004
 40
0.5000000000000004
 40
1.0
 40
1.0
 40
1.0
 40
1.0
 10
112.5561960743449
 20
55.65551987335775
 30
0.0
 10
112.5561960743449
 20
55.93455163410619
 30
0.0
 10
112.5619946965098
 20
56.21294718248699
 30
0.0
 10
112.5966913903111
 20
56.76720385727373
 30
0.0
 10
112.6252567679976
 20
57.04310148614516
 30
0.0
 10
112.6748912089314
 20
57.31668746265664
 30
0.0
  0
SPLINE
  5
D0
330
1F
100
AcDbEntity
  8
0
  6
Continuous
 62
     7
370
    25
100
AcDbSpline
210
0.0
220
0.0
230
1.0
 70
     8
 71
     3
 72
     8
 73
     4
 74
     0
 42
0.00000001
 43
0.00000001
 40
0.0
 40
0.0
 40
0.0
 40
0.0
 40
1.0
 40
1.0
 40
1.0
 40
1.0
 10
112.6748912089314
 20
57.31668746265664
 30
0.0
 10
112.7472911790905
 20
57.35119740433944
 30
0.0
 10
112.8017213966792
 20
57.41071150569883
 30
0.0
 10
112.8497163582393
 20
57.47224627704869
 30
0.0
  0
LINE
  5
D1
330
1F
100
AcDbEntity
  8
0
  6
Continuous
 62
     7
370
    25
100
AcDbLine
 10
94.3561960743
 20
55.6555198734
 30
0.0
 11
94.3561960743
 21
49.9625417424
 31
0.0
  0
LINE
  5
D2
330
1F
100
AcDbEntity
  8
0
  6
Continuous
 62
     7
370
    25
100
AcDbLine
 10
112.5561960743
 20
49.9625417424
 30
0.0
 11
112.5561960743
 21
55.6555198734
 31
0.0
  0
LINE
  5
D3
330
1F
100
AcDbEntity
  8
0
  6
Continuous
 62
     7
370
    25
100
AcDbLine
 10
112.6098851249
 20
57.8124337655
 30
0.0
 11
112.6748912089
 21
57.3166874627
 31
0.0
  0
SPLINE
  5
D4
330
1F
100
AcDbEntity
  8
0
  6
Continuous
 62
     7
370
    25
100
AcDbSpline
210
0.0
220
0.0
230
1.0
 70
     8
 71
     3
 72
    10
 73
     6
 74
     0
 42
0.00000001
 43
0.00000001
 40
0.0
 40
0.0
 40
0.0
 40
0.0
 40
0.5
 40
0.5
 40
1.0
 40
1.0
 40
1.0
 40
1.0
 10
112.6098851248531
 20
57.81243376554724
 30
0.0
 10
112.6695138544545
 20
57.82022819134039
 30
0.0
 10
112.7196881462621
 20
57.84017519231114
 30
0.0
 10
112.7997532520029
 20
57.87967343903186
 30
0.0
 10
112.8324680414183
 20
57.90001902001364
 30
0.0
 10
112.8645772811779
 20
57.91958328101889
 30
0.0
  0
SPLINE
  5
D5
330
1F
100
AcDbEntity
  8
0
  6
Continuous
 62
     7
370
    25
100
AcDbSpline
210
0.0
220
0.0
230
1.0
 70
     8
 71
     3
 72
    16
 73
    12
 74
     0
 42
0.00000001
 43
0.00000001
 40
0.0
 40
0.0
 40
0.0
 40
0.0
 40
0.0761065009174363
 40
0.1494790931192237
 40
0.297491100127681
 40
0.4337219070480782
 40
0.5582000385649595
 40
0.674477366124627
 40
0.785969039483262
 40
0.8939353462389532
 40
0.9999999999999999
 40
0.9999999999999999
 40
0.9999999999999999
 40
0.9999999999999999
 10
112.849716358235
 20
57.47224627704789
 30
0.0
 10
112.8422999871977
 20
57.48430535104382
 30
0.0
 10
112.8277336570745
 20
57.50799031123827
 30
0.0
 10
112.8055148687525
 20
57.55717442506175
 30
0.0
 10
112.7881613605906
 20
57.61751247939443
 30
0.0
 10
112.7818566226619
 20
57.68468697970853
 30
0.0
 10
112.7859520376751
 20
57.74351354155322
 30
0.0
 10
112.7974799870254
 20
57.79515837447941
 30
0.0
 10
112.8149028902548
 20
57.84105141187156
 30
0.0
 10
112.8369202984768
 20
57.8826155578308
 30
0.0
 10
112.8554130559792
 20
57.90733391368809
 30
0.0
 10
112.8645772811775
 20
57.91958328101895
 30
0.0
  0
LINE
  5
D6
330
1F
100
AcDbEntity
  8
0
  6
Continuous
 62
     7
370
    25
100
AcDbLine
 10
94.2375009398
 20
48.3013741531
 30
0.0
 11
94.3025070238
 21
47.8056278502
 31
0.0
  0
SPLINE
  5
D7
330
1F
100
AcDbEntity
  8
0
  6
Continuous
 62
     7
370
    25
100
AcDbSpline
210
0.0
220
0.0
230
1.0
 70
     8
 71
     3
 72
    10
 73
     6
 74
     0
 42
0.00000001
 43
0.00000001
 40
0.0
 40
0.0
 40
0.0
 40
0.0
 40
0.5
 40
0.5
 40
1.0
 40
1.0
 40
1.0
 40
1.0
 10
94.30250702383665
 20
47.80562785017211
 30
0.0
 10
94.24287829423588
 20
47.797833424379
 30
0.0
 10
94.19270400242883
 20
47.77788642340867
 30
0.0
 10
94.11263889668847
 20
47.73838817668846
 30
0.0
 10
94.0799241072734
 20
47.7180425957069
 30
0.0
 10
94.0478148675141
 20
47.69847833470187
 30
0.0
  0
SPLINE
  5
D8
330
1F
100
AcDbEntity
  8
0
  6
Continuous
 62
     7
370
    25
100
AcDbSpline
210
0.0
220
0.0
230
1.0
 70
     8
 71
     3
 72
    16
 73
    12
 74
     0
 42
0.00000001
 43
0.00000001
 40
0.0
 40
0.0
 40
0.0
 40
0.0
 40
0.0761065007507246
 40
0.1494790931135599
 40
0.2974911001213054
 40
0.4337219070412439
 40
0.558200038557801
 40
0.6744773661177835
 40
0.7859690394750554
 40
0.8939353462300779
 40
1.0
 40
1.0
 40
1.0
 40
1.0
 10
94.06267579045247
 20
48.14581533866857
 30
0.0
 10
94.07009216147705
 20
48.13375626470137
 30
0.0
 10
94.08465849160666
 20
48.11007130451237
 30
0.0
 10
94.1068772799253
 20
48.06088719068504
 30
0.0
 10
94.12423078809964
 20
48.00054913632822
 30
0.0
 10
94.13053552602736
 20
47.93337463601344
 30
0.0
 10
94.12644011101555
 20
47.87454807416918
 30
0.0
 10
94.1149121616634
 20
47.82290324124209
 30
0.0
 10
94.09748925843714
 20
47.77701020385115
 30
0.0
 10
94.0754718502123
 20
47.73544605788937
 30
0.0
 10
94.05697909271194
 20
47.71072770203272
 30
0.0
 10
94.04781486751425
 20
47.69847833470163
 30
0.0
  0
LINE
  5
D9
330
1F
100
AcDbEntity
  8
0
  6
Continuous
 62
     7
370
    25
100
AcDbLine
 10
94.3025070238
 20
57.8124337655
 30
0.0
 11
94.2375009398
 21
57.3166874626
 31
0.0
  0
SPLINE
  5
DA
330
1F
100
AcDbEntity
  8
0
  6
Continuous
 62
     7
370
    25
100
AcDbSpline
210
0.0
220
0.0
230
1.0
 70
     8
 71
     3
 72
    20
 73
    16
 74
     0
 42
0.00000001
 43
0.00000001
 40
0.0
 40
0.0
 40
0.0
 40
0.0
 40
0.1060317657589631
 40
0.2138409733617976
 40
0.268906061948247
 40
0.3251014539057976
 40
0.382786348557697
 40
0.4420118601150135
 40
0.5669442188443142
 40
0.6333957081061092
 40
0.703032338607854
 40
0.7761748201543405
 40
0.8511692721701473
 40
0.9263894086762869
 40
1.0
 40
1.0
 40
1.0
 40
1.0
 10
94.04781486751423
 20
57.91958328101774
 30
0.0
 10
94.05698106217133
 20
57.9073341549015
 30
0.0
 10
94.07546710711708
 20
57.88263056694577
 30
0.0
 10
94.09364890517351
 20
57.84826226959555
 30
0.0
 10
94.10594905635514
 20
57.81885367667034
 30
0.0
 10
94.11390780423098
 20
57.79533396174826
 30
0.0
 10
94.12043455298414
 20
57.77039943778345
 30
0.0
 10
94.12709248413734
 20
57.7344101681907
 30
0.0
 10
94.12979396633341
 20
57.69524362429167
 30
0.0
 10
94.12753977500809
 20
57.65294654180521
 30
0.0
 10
94.12266368731997
 20
57.61835106566225
 30
0.0
 10
94.11405728803359
 20
57.58189572906433
 30
0.0
 10
94.10118346275614
 20
57.54451661661052
 30
0.0
 10
94.08441383257939
 20
57.50747581729465
 30
0.0
 10
94.06986937364861
 20
57.48390448560115
 30
0.0
 10
94.06267579045522
 20
57.47224627704742
 30
0.0
  0
SPLINE
  5
DB
330
1F
100
AcDbEntity
  8
0
  6
Continuous
 62
     7
370
    25
100
AcDbSpline
210
0.0
220
0.0
230
1.0
 70
     8
 71
     3
 72
    10
 73
     6
 74
     0
 42
0.00000001
 43
0.00000001
 40
0.0
 40
0.0
 40
0.0
 40
0.0
 40
0.5
 40
0.5
 40
1.0
 40
1.0
 40
1.0
 40
1.0
 10
94.30250702383799
 20
57.81243376554707
 30
0.0
 10
94.24287829423629
 20
57.82022819134008
 30
0.0
 10
94.19270400242951
 20
57.84017519231038
 30
0.0
 10
94.11263889668874
 20
57.87967343903072
 30
0.0
 10
94.07992410727351
 20
57.90001902001237
 30
0.0
 10
94.04781486751409
 20
57.91958328101749
 30
0.0
  0
LINE
  5
DC
330
1F
100
AcDbEntity
  8
0
  6
Continuous
 62
     7
370
    25
100
AcDbLine
 10
112.6748912089
 20
48.3013741531
 30
0.0
 11
112.6098851248
 21
47.8056278502
 31
0.0
  0
SPLINE
  5
DD
330
1F
100
AcDbEntity
  8
0
  6
Continuous
 62
     7
370
    25
100
AcDbSpline
210
0.0
220
0.0
230
1.0
 70
     8
 71
     3
 72
    20
 73
    16
 74
     0
 42
0.00000001
 43
0.00000001
 40
0.0
 40
0.0
 40
0.0
 40
0.0
 40
0.1060317657586693
 40
0.2138409733609931
 40
0.2689060619472279
 40
0.325101453904546
 40
0.3827863485561649
 40
0.4420118601131947
 40
0.5669442188418145
 40
0.6333957081032219
 40
0.703032338604481
 40
0.7761748201505866
 40
0.8511692721659514
 40
0.9263894086719594
 40
0.9999999999999999
 40
0.9999999999999999
 40
0.9999999999999999
 40
0.9999999999999999
 10
112.8645772811755
 20
47.69847833470163
 30
0.0
 10
112.8554110865184
 20
47.71072746081781
 30
0.0
 10
112.8369250415728
 20
47.7354310487734
 30
0.0
 10
112.8187432435164
 20
47.76979934612345
 30
0.0
 10
112.8064430923348
 20
47.79920793904846
 30
0.0
 10
112.798484344459
 20
47.82272765397038
 30
0.0
 10
112.7919575957058
 20
47.84766217793502
 30
0.0
 10
112.7852996645525
 20
47.88365144752748
 30
0.0
 10
112.7825981823563
 20
47.92281799142621
 30
0.0
 10
112.7848523736814
 20
47.9651150739123
 30
0.0
 10
112.7897284613693
 20
47.99971055005498
 30
0.0
 10
112.7983348606554
 20
48.03616588665264
 30
0.0
 10
112.8112086859326
 20
48.07354499910613
 30
0.0
 10
112.8279783161086
 20
48.11058579842314
 30
0.0
 10
112.8425227750415
 20
48.13415713011609
 30
0.0
 10
112.8497163582361
 20
48.14581533866992
 30
0.0
  0
SPLINE
  5
DE
330
1F
100
AcDbEntity
  8
0
  6
Continuous
 62
     7
370
    25
100
AcDbSpline
210
0.0
220
0.0
230
1.0
 70
     8
 71
     3
 72
    10
 73
     6
 74
     0
 42
0.00000001
 43
0.00000001
 40
0.0
 40
0.0
 40
0.0
 40
0.0
 40
0.5
 40
0.5
 40
1.0
 40
1.0
 40
1.0
 40
1.0
 10
112.6098851248493
 20
47.80562785017261
 30
0.0
 10
112.6695138544516
 20
47.79783342437988
 30
0.0
 10
112.719688146259
 20
47.77788642340951
 30
0.0
 10
112.7997532520005
 20
47.73838817668892
 30
0.0
 10
112.832468041416
 20
47.71804259570713
 30
0.0
 10
112.8645772811756
 20
47.69847833470187
 30
0.0
  0
LINE
  5
DF
330
1F
100
AcDbEntity
  8
0
  6
Continuous
 62
     7
370
    25
100
AcDbLine
 10
94.0478148675
 20
47.6984783347
 30
0.0
 11
93.88490285
 21
47.7712980552
 31
0.0
  0
LINE
  5
E0
330
1F
100
AcDbEntity
  8
0
  6
Continuous
 62
     7
370
    25
100
AcDbLine
 10
112.8645772812
 20
57.919583281
 30
0.0
 11
113.0274892987
 21
57.8467635606
 31
0.0
  0
LINE
  5
E1
330
1F
100
AcDbEntity
  8
0
  6
Continuous
 62
     7
370
    25
100
AcDbLine
 10
93.88490285
 20
57.8467635606
 30
0.0
 11
94.0478148675
 21
57.919583281
 31
0.0
  0
LINE
  5
E2
330
1F
100
AcDbEntity
  8
0
  6
Continuous
 62
     7
370
    25
100
AcDbLine
 10
113.0274892987
 20
47.7712980552
 30
0.0
 11
112.8645772812
 21
47.6984783347
 31
0.0
  0
SPLINE
  5
E3
330
1F
100
AcDbEntity
  8
0
  6
Continuous
 62
     7
370
    25
100
AcDbSpline
210
0.0
220
0.0
230
1.0
 70
     8
 71
     3
 72
     8
 73
     4
 74
     0
 42
0.00000001
 43
0.00000001
 40
0.0
 40
0.0
 40
0.0
 40
0.0
 40
0.0000524698222138
 40
0.0000524698222138
 40
0.0000524698222138
 40
0.0000524698222138
 10
112.5576195537863
 20
57.80903080785971
 30
0.0
 10
112.5750829887585
 20
57.80903080785971
 30
0.0
 10
112.5925788129986
 20
57.810171554623
 30
0.0
 10
112.6098851248532
 20
57.81243376554726
 30
0.0
  0
SPLINE
  5
E4
330
1F
100
AcDbEntity
  8
0
  6
Continuous
 62
     7
370
    25
100
AcDbSpline
210
0.0
220
0.0
230
1.0
 70
     8
 71
     3
 72
     8
 73
     4
 74
     0
 42
0.00000001
 43
0.00000001
 40
0.0
 40
0.0
 40
0.0
 40
0.0
 40
0.0001175213404591
 40
0.0001175213404591
 40
0.0001175213404591
 40
0.0001175213404591
 10
112.6748912089314
 20
57.31668746265664
 30
0.0
 10
112.6360499333247
 20
57.31159429461268
 30
0.0
 10
112.5967933339387
 20
57.30903080785966
 30
0.0
 10
112.5576195537857
 20
57.3090308078597
 30
0.0
  0
LINE
  5
E5
330
1F
100
AcDbEntity
  8
0
  6
Continuous
 62
     7
370
    25
100
AcDbLine
 10
112.5576195538
 20
57.8090308079
 30
0.0
 11
112.5576195538
 21
57.3090308079
 31
0.0
  0
LINE
  5
E6
330
1F
100
AcDbEntity
  8
0
  6
Continuous
 62
     7
370
    25
100
AcDbLine
 10
94.3547725949
 20
48.3090308079
 30
0.0
 11
112.5576195538
 21
48.3090308079
 31
0.0
  0
LINE
  5
E7
330
1F
100
AcDbEntity
  8
0
  6
Continuous
 62
     7
370
    25
100
AcDbLine
 10
112.5576195538
 20
48.3090308079
 30
0.0
 11
112.5576195538
 21
47.8090308079
 31
0.0
  0
LINE
  5
E8
330
1F
100
AcDbEntity
  8
0
  6
Continuous
 62
     7
370
    25
100
AcDbLine
 10
112.5576195538
 20
47.8090308079
 30
0.0
 11
94.3547725949
 21
47.8090308079
 31
0.0
  0
LINE
  5
E9
330
1F
100
AcDbEntity
  8
0
  6
Continuous
 62
     7
370
    25
100
AcDbLine
 10
94.3547725949
 20
48.3090308079
 30
0.0
 11
94.3547725949
 21
47.8090308079
 31
0.0
  0
SPLINE
  5
EA
330
1F
100
AcDbEntity
  8
0
  6
Continuous
 62
     7
370
    25
100
AcDbSpline
210
0.0
220
0.0
230
1.0
 70
     8
 71
     3
 72
     8
 73
     4
 74
     0
 42
0.00000001
 43
0.00000001
 40
0.0
 40
0.0
 40
0.0
 40
0.0
 40
0.0001175213404591
 40
0.0001175213404591
 40
0.0001175213404591
 40
0.0001175213404591
 10
94.23750093975832
 20
48.3013741530627
 30
0.0
 10
94.27634221536499
 20
48.30646732110667
 30
0.0
 10
94.31559881475101
 20
48.3090308078597
 30
0.0
 10
94.35477259490405
 20
48.30903080785964
 30
0.0
  0
SPLINE
  5
EB
330
1F
100
AcDbEntity
  8
0
  6
Continuous
 62
     7
370
    25
100
AcDbSpline
210
0.0
220
0.0
230
1.0
 70
     8
 71
     3
 72
     8
 73
     4
 74
     0
 42
0.00000001
 43
0.00000001
 40
0.0
 40
0.0
 40
0.0
 40
0.0
 40
0.0000524698222138
 40
0.0000524698222138
 40
0.0000524698222138
 40
0.0000524698222138
 10
94.35477259490347
 20
47.80903080785964
 30
0.0
 10
94.33730915993121
 20
47.80903080785964
 30
0.0
 10
94.31981333569117
 20
47.80789006109635
 30
0.0
 10
94.30250702383654
 20
47.80562785017209
 30
0.0
  0
SPLINE
  5
EC
330
1F
100
AcDbEntity
  8
0
  6
Continuous
 62
     7
370
    25
100
AcDbSpline
210
0.0
220
0.0
230
1.0
 70
     8
 71
     3
 72
     8
 73
     4
 74
     0
 42
0.00000001
 43
0.00000001
 40
0.0
 40
0.0
 40
0.0
 40
0.0
 40
0.0001175213404538
 40
0.0001175213404538
 40
0.0001175213404538
 40
0.0001175213404538
 10
112.5576195537856
 20
48.30903080785964
 30
0.0
 10
112.5967933339369
 20
48.30903080785969
 30
0.0
 10
112.6360499333211
 20
48.30646732110691
 30
0.0
 10
112.6748912089261
 20
48.30137415306341
 30
0.0
  0
SPLINE
  5
ED
330
1F
100
AcDbEntity
  8
0
  6
Continuous
 62
     7
370
    25
100
AcDbSpline
210
0.0
220
0.0
230
1.0
 70
     8
 71
     3
 72
     8
 73
     4
 74
     0
 42
0.00000001
 43
0.00000001
 40
0.0
 40
0.0
 40
0.0
 40
0.0
 40
0.0000524698222089
 40
0.0000524698222089
 40
0.0000524698222089
 40
0.0000524698222089
 10
112.6098851248493
 20
47.80562785017261
 30
0.0
 10
112.5925788129955
 20
47.8078900610966
 30
0.0
 10
112.5750829887556
 20
47.80903080785977
 30
0.0
 10
112.5576195537842
 20
47.80903080785964
 30
0.0
  0
SPLINE
  5
EE
330
1F
100
AcDbEntity
  8
0
  6
Continuous
 62
     7
370
    25
100
AcDbSpline
210
0.0
220
0.0
230
1.0
 70
     8
 71
     3
 72
     8
 73
     4
 74
     0
 42
0.00000001
 43
0.00000001
 40
0.0
 40
0.0
 40
0.0
 40
0.0
 40
0.0001175213404538
 40
0.0001175213404538
 40
0.0001175213404538
 40
0.0001175213404538
 10
94.3547725949041
 20
57.30903080785971
 30
0.0
 10
94.31559881475285
 20
57.30903080785965
 30
0.0
 10
94.2763422153686
 20
57.31159429461243
 30
0.0
 10
94.23750093976363
 20
57.31668746265595
 30
0.0
  0
LINE
  5
EF
330
1F
100
AcDbEntity
  8
0
  6
Continuous
 62
     7
370
    25
100
AcDbLine
 10
112.5576195538
 20
57.3090308079
 30
0.0
 11
94.3547725949
 21
57.3090308079
 31
0.0
  0
LINE
  5
F0
330
1F
100
AcDbEntity
  8
0
  6
Continuous
 62
     7
370
    25
100
AcDbLine
 10
106.169300476
 20
52.4111424948
 30
0.0
 11
106.5680713205
 21
52.8099133393
 31
0.0
  0
ARC
  5
F1
330
1F
100
AcDbEntity
  8
0
  6
Continuous
 62
     7
370
    25
100
AcDbCircle
 10
105.5046824018
 20
51.7465244207
 30
0.0
 40
1.503859030837027
100
AcDbArc
 50
45.0
 51
315.0
  0
LINE
  5
F2
330
1F
100
AcDbEntity
  8
0
  6
Continuous
 62
     7
370
    25
100
AcDbLine
 10
106.5680713205
 20
50.683135502
 30
0.0
 11
106.169300476
 21
51.0819063465
 31
0.0
  0
ARC
  5
F3
330
1F
100
AcDbEntity
  8
0
  6
Continuous
 62
     7
370
    25
100
AcDbCircle
 10
105.5046824018
 20
51.7465244207
 30
0.0
 40
0.9399118942731335
100
AcDbArc
 50
45.0
 51
315.0
  0
ARC
  5
F4
330
1F
100
AcDbEntity
  8
0
  6
Continuous
 62
     7
370
    25
100
AcDbCircle
 10
108.629899843
 20
51.7573629837
 30
0.0
 40
1.503859030837028
100
AcDbArc
 50
44.056556937
 51
315.943443063
  0
LINE
  5
F5
330
1F
100
AcDbEntity
  8
0
  6
Continuous
 62
     7
370
    25
100
AcDbLine
 10
107.7332810411
 20
51.4753894154
 30
0.0
 11
109.7106537741
 21
51.4753894154
 31
0.0
  0
LINE
  5
F6
330
1F
100
AcDbEntity
  8
0
  6
Continuous
 62
     7
370
    25
100
AcDbLine
 10
109.7106537741
 20
51.4753894154
 30
0.0
 11
109.7106537741
 21
52.039336552
 31
0.0
  0
LINE
  5
F7
330
1F
100
AcDbEntity
  8
0
  6
Continuous
 62
     7
370
    25
100
AcDbLine
 10
109.7106537741
 20
52.039336552
 30
0.0
 11
107.7332810411
 21
52.039336552
 31
0.0
  0
ARC
  5
F8
330
1F
100
AcDbEntity
  8
0
  6
Continuous
 62
     7
370
    25
100
AcDbCircle
 10
108.629899843
 20
51.7573629837
 30
0.0
 40
0.9399118942731741
100
AcDbArc
 50
43.4903846543
 51
162.5423968763
  0
LINE
  5
F9
330
1F
100
AcDbEntity
  8
0
  6
Continuous
 62
     7
370
    25
100
AcDbLine
 10
109.3117964104
 20
52.4042412105
 30
0.0
 11
109.7106537741
 21
52.8030985741
 31
0.0
  0
LINE
  5
FA
330
1F
100
AcDbEntity
  8
0
  6
Continuous
 62
     7
370
    25
100
AcDbLine
 10
103.3895583387
 20
51.6777600798
 30
0.0
 11
103.3484767951
 21
51.6542731319
 31
0.0
  0
ELLIPSE
  5
FB
330
1F
100
AcDbEntity
  8
0
  6
Continuous
 62
     7
370
    25
100
AcDbEllipse
 10
103.0042438778
 20
52.2015462555
 30
0.0
 11
-0.6694471380407663
 21
-1.136868377216160E-13
 31
0.0
210
0.0
220
0.0
230
1.0
 40
0.9531667975
 41
0.3285531705512536
 42
2.110876526947122
  0
LINE
  5
FC
330
1F
100
AcDbEntity
  8
0
  6
Continuous
 62
     7
370
    25
100
AcDbLine
 10
102.3706053412
 20
51.995649705
 30
0.0
 11
101.1275981226
 21
55.4710431208
 31
0.0
  0
ELLIPSE
  5
FD
330
1F
100
AcDbEntity
  8
0
  6
Continuous
 62
     7
370
    25
100
AcDbEllipse
 10
100.544426333
 20
55.2122069731
 30
0.0
 11
0.6432968592110341
 21
6.608047442568931E-13
 31
0.0
210
0.0
220
0.0
230
1.0
 40
0.9531667975
 41
0.4357918987542323
 42
2.705800754833616
  0
LINE
  5
FE
330
1F
100
AcDbEntity
  8
0
  6
Continuous
 62
     7
370
    25
100
AcDbLine
 10
99.9612545433
 20
55.4710431208
 30
0.0
 11
98.7185369909
 21
51.996459599
 31
0.0
  0
ELLIPSE
  5
FF
330
1F
100
AcDbEntity
  8
0
  6
Continuous
 62
     7
370
    25
100
AcDbEllipse
 10
98.0848984543
 20
52.2023561494
 30
0.0
 11
-0.6694471380407947
 21
4.973799150320701E-14
 31
0.0
210
0.0
220
0.0
230
1.0
 40
0.9531667975
 41
1.047197551196729
 42
2.813039483038417
  0
LINE
  5
100
330
1F
100
AcDbEntity
  8
0
  6
Continuous
 62
     7
370
    25
100
AcDbLine
 10
97.7501748853
 20
51.6497498559
 30
0.0
 11
97.6992759963
 21
51.6777600798
 31
0.0
  0
LINE
  5
101
330
1F
100
AcDbEntity
  8
0
  6
Continuous
 62
     7
370
    25
100
AcDbLine
 10
109.7106537741
 20
50.7116273933
 30
0.0
 11
109.3117964104
 21
51.1104847569
 31
0.0
  0
ARC
  5
102
330
1F
100
AcDbEntity
  8
0
  6
Continuous
 62
     7
370
    25
100
AcDbCircle
 10
108.629899843
 20
51.7573629837
 30
0.0
 40
0.939911894273096
100
AcDbArc
 50
197.4576031237
 51
316.5096153457
  0
ELLIPSE
  5
103
330
1F
100
AcDbEntity
  8
0
  6
Continuous
 62
     7
370
    25
100
AcDbEllipse
 10
98.5598677469
 20
50.2155380284
 30
0.0
 11
0.08368089225510289
 21
0.0
 31
0.0
210
0.0
220
0.0
230
1.0
 40
0.9531667975
 41
3.605240262590408
 42
5.462183310215675
  0
LINE
  5
104
330
1F
100
AcDbEntity
  8
0
  6
Continuous
 62
     7
370
    25
100
AcDbLine
 10
97.6992759963
 20
51.6777600798
 30
0.0
 11
98.4850212815
 21
50.1798674455
 31
0.0
  0
ELLIPSE
  5
105
330
1F
100
AcDbEntity
  8
0
  6
Continuous
 62
     7
370
    25
100
AcDbEllipse
 10
102.5289665881
 20
50.2155380284
 30
0.0
 11
0.08368089225503182
 21
2.131628207280301E-14
 31
0.0
210
0.0
220
0.0
230
1.0
 40
0.9531667975
 41
3.962594650567986
 42
5.819537698167077
  0
ELLIPSE
  5
106
330
1F
100
AcDbEntity
  8
0
  6
Continuous
 62
     7
370
    25
100
AcDbEllipse
 10
100.5444171675
 20
48.1842014239
 30
0.0
 11
2.827839379124952
 21
-2.984279490192420E-13
 31
0.0
210
0.0
220
0.0
230
1.0
 40
0.9535197248
 41
0.8208171341484136
 42
2.32077551944161
  0
LINE
  5
107
330
1F
100
AcDbEntity
  8
0
  6
Continuous
 62
     7
370
    25
100
AcDbLine
 10
102.6038130535
 20
50.1798674455
 30
0.0
 11
103.3895583387
 21
51.6777600798
 31
0.0
  0
LINE
  5
108
330
1F
100
AcDbEntity
  8
0
  6
Continuous
 62
     7
370
    25
100
AcDbLine
 10
100.2447654689
 20
51.9968074722
 30
0.0
 11
100.8440871974
 21
51.9968074722
 31
0.0
  0
ELLIPSE
  5
109
330
1F
100
AcDbEntity
  8
0
  6
Continuous
 62
     7
370
    25
100
AcDbEllipse
 10
100.2447654689
 20
52.0765693203
 30
0.0
 11
-0.08368089225510289
 21
0.0
 31
0.0
210
0.0
220
0.0
230
1.0
 40
0.9531667975
 41
5.940161364898525
 42
7.853981633974483
  0
LINE
  5
10A
330
1F
100
AcDbEntity
  8
0
  6
Continuous
 62
     7
370
    25
100
AcDbLine
 10
100.4656205315
 20
52.9031511346
 30
0.0
 11
100.1659596656
 21
52.103396133
 31
0.0
  0
ELLIPSE
  5
10B
330
1F
100
AcDbEntity
  8
0
  6
Continuous
 62
     7
370
    25
100
AcDbEllipse
 10
100.8440871974
 20
52.0765693203
 30
0.0
 11
0.08368089225510289
 21
0.0
 31
0.0
210
0.0
220
0.0
230
1.0
 40
0.9531667975
 41
4.712388980384703
 42
6.626209245739265
  0
ELLIPSE
  5
10C
330
1F
100
AcDbEntity
  8
0
  6
Continuous
 62
     7
370
    25
100
AcDbEllipse
 10
100.5444263349
 20
52.876324322
 30
0.0
 11
0.08368089225510289
 21
0.0
 31
0.0
210
0.0
220
0.0
230
1.0
 40
0.9531667975
 41
0.3430239404207835
 42
2.798568713169124
  0
LINE
  5
10D
330
1F
100
AcDbEntity
  8
0
  6
Continuous
 62
     7
370
    25
100
AcDbLine
 10
100.9228930009
 20
52.1033961327
 30
0.0
 11
100.6232321384
 21
52.9031511346
 31
0.0
  0
SPLINE
  5
10E
330
1F
100
AcDbEntity
  8
0
  6
Continuous
 62
     7
370
    25
100
AcDbSpline
210
0.0
220
0.0
230
1.0
 70
     8
 71
     3
 72
     8
 73
     4
 74
     0
 42
0.00000001
 43
0.00000001
 40
0.0
 40
0.0
 40
0.0
 40
0.0
 40
0.0000524698222113
 40
0.0000524698222113
 40
0.0000524698222113
 40
0.0000524698222113
 10
94.30250702383799
 20
57.81243376554707
 30
0.0
 10
94.3198133356926
 20
57.81017155462273
 30
0.0
 10
94.33730915993328
 20
57.80903080785959
 30
0.0
 10
94.35477259490548
 20
57.80903080785971
 30
0.0
  0
LINE
  5
10F
330
1F
100
AcDbEntity
  8
0
  6
Continuous
 62
     7
370
    25
100
AcDbLine
 10
94.3547725949
 20
57.8090308079
 30
0.0
 11
94.3547725949
 21
57.3090308079
 31
0.0
  0
LINE
  5
110
330
1F
100
AcDbEntity
  8
0
  6
Continuous
 62
     7
370
    25
100
AcDbLine
 10
94.3547725949
 20
57.8090308079
 30
0.0
 11
112.5576195538
 21
57.8090308079
 31
0.0
  0
SPLINE
  5
111
330
1F
100
AcDbEntity
  8
0
  6
Continuous
 62
     7
370
    25
100
AcDbSpline
210
0.0
220
0.0
230
1.0
 70
     8
 71
     3
 72
    14
 73
    10
 74
     0
 42
0.00000001
 43
0.00000001
 40
0.0
 40
0.0
 40
0.0
 40
0.0
 40
0.11064147088684
 40
0.2239563677466561
 40
0.4666597346472056
 40
0.5947565812497213
 40
0.726555932925035
 40
0.8618634099899128
 40
1.0
 40
1.0
 40
1.0
 40
1.0
 10
94.04781486751415
 20
47.69847833470178
 30
0.0
 10
94.03913246962766
 20
47.68825375646531
 30
0.0
 10
94.02155788137965
 20
47.66755754386777
 30
0.0
 10
93.99432219241771
 20
47.62179052452642
 30
0.0
 10
93.9762398231356
 20
47.57365830915925
 30
0.0
 10
93.96520477855724
 20
47.52487626312637
 30
0.0
 10
93.9597082653433
 20
47.48711798852042
 30
0.0
 10
93.95656659318139
 20
47.44897626742127
 30
0.0
 10
93.95629784443116
 20
47.42359922672293
 30
0.0
 10
93.95616207978897
 20
47.41077942812895
 30
0.0
  0
LINE
  5
112
330
1F
100
AcDbEntity
  8
0
  6
Continuous
 62
     7
370
    25
100
AcDbLine
 10
93.9561620798
 20
47.4107794281
 30
0.0
 11
93.7133028555
 21
47.2992714376
 31
0.0
  0
LINE
  5
113
330
1F
100
AcDbEntity
  8
0
  6
Continuous
 62
     7
370
    25
100
AcDbLine
 10
93.7133028555
 20
58.3187901781
 30
0.0
 11
93.9561620798
 21
58.2072821876
 31
0.0
  0
SPLINE
  5
114
330
1F
100
AcDbEntity
  8
0
  6
Continuous
 62
     7
370
    25
100
AcDbSpline
210
0.0
220
0.0
230
1.0
 70
     8
 71
     3
 72
    14
 73
    10
 74
     0
 42
0.00000001
 43
0.00000001
 40
0.0
 40
0.0
 40
0.0
 40
0.0
 40
0.1377327108983413
 40
0.2725942884998932
 40
0.4041400602171393
 40
0.5321680644070492
 40
0.7754693061725265
 40
0.8890599100113705
 40
0.9999999999999999
 40
0.9999999999999999
 40
0.9999999999999999
 40
0.9999999999999999
 10
93.95616207978904
 20
58.2072821875923
 30
0.0
 10
93.95629691323909
 20
58.19449984710281
 30
0.0
 10
93.95656376944301
 20
58.16920162282211
 30
0.0
 10
93.95968559168821
 20
58.1311672244406
 30
0.0
 10
93.96515185564714
 20
58.09348465229547
 30
0.0
 10
93.97615171235807
 20
58.04468569930516
 30
0.0
 10
93.99421938494206
 20
57.99647355015302
 30
0.0
 10
94.02149283443723
 20
57.95058713352822
 30
0.0
 10
94.03911017888218
 20
57.92983624596552
 30
0.0
 10
94.04781486751413
 20
57.91958328101758
 30
0.0
  0
SPLINE
  5
115
330
1F
100
AcDbEntity
  8
0
  6
Continuous
 62
     7
370
    25
100
AcDbSpline
210
0.0
220
0.0
230
1.0
 70
     8
 71
     3
 72
    14
 73
    10
 74
     0
 42
0.00000001
 43
0.00000001
 40
0.0
 40
0.0
 40
0.0
 40
0.0
 40
0.1106414710656435
 40
0.2239563677554478
 40
0.4666597346536896
 40
0.5947565812547271
 40
0.726555932928469
 40
0.8618634099916662
 40
1.0
 40
1.0
 40
1.0
 40
1.0
 10
112.8645772811755
 20
57.91958328101758
 30
0.0
 10
112.873259679074
 20
57.92980785927001
 30
0.0
 10
112.8908342673184
 20
57.95050407186726
 30
0.0
 10
112.9180699562823
 20
57.99627109121458
 30
0.0
 10
112.9361523255543
 20
58.04440330656205
 30
0.0
 10
112.9471873701329
 20
58.09318535259469
 30
0.0
 10
112.9526838833465
 20
58.13094362720001
 30
0.0
 10
112.9558255555083
 20
58.16908534829864
 30
0.0
 10
112.9560943042586
 20
58.19446238899661
 30
0.0
 10
112.9562300689008
 20
58.20728218759039
 30
0.0
  0
LINE
  5
116
330
1F
100
AcDbEntity
  8
0
  6
Continuous
 62
     7
370
    25
100
AcDbLine
 10
112.9562300689
 20
58.2072821876
 30
0.0
 11
113.1990892932
 21
58.3187901781
 31
0.0
  0
LINE
  5
117
330
1F
100
AcDbEntity
  8
0
  6
Continuous
 62
     7
370
    25
100
AcDbLine
 10
113.1990892932
 20
47.2992714376
 30
0.0
 11
112.9562300689
 21
47.4107794281
 31
0.0
  0
SPLINE
  5
118
330
1F
100
AcDbEntity
  8
0
  6
Continuous
 62
     7
370
    25
100
AcDbSpline
210
0.0
220
0.0
230
1.0
 70
     8
 71
     3
 72
    14
 73
    10
 74
     0
 42
0.00000001
 43
0.00000001
 40
0.0
 40
0.0
 40
0.0
 40
0.0
 40
0.1377327108985503
 40
0.2725942885000418
 40
0.4041400602172888
 40
0.5321680644071739
 40
0.7754693061726297
 40
0.8890599100180714
 40
1.0
 40
1.0
 40
1.0
 40
1.0
 10
112.9562300689007
 20
47.41077942812709
 30
0.0
 10
112.9560952354506
 20
47.42356176861662
 30
0.0
 10
112.9558283792467
 20
47.44885999289739
 30
0.0
 10
112.9527065570015
 20
47.48689439127885
 30
0.0
 10
112.9472402930426
 20
47.52457696342398
 30
0.0
 10
112.9362404363316
 20
47.57337591641427
 30
0.0
 10
112.9181727637475
 20
47.62158806556692
 30
0.0
 10
112.8908993142518
 20
47.66747448219198
 30
0.0
 10
112.8732819698069
 20
47.68822536975453
 30
0.0
 10
112.8645772811756
 20
47.69847833470178
 30
0.0
  0
LINE
  5
119
330
1F
100
AcDbEntity
  8
0
  6
Continuous
 62
     7
370
    25
100
AcDbLine
 10
129.7061960743
 20
52.8090308079
 30
0.0
 11
129.7061960743
 21
63.5590308079
 31
0.0
  0
LINE
  5
11A
330
1F
100
AcDbEntity
  8
0
  6
Continuous
 62
     7
370
    25
100
AcDbLine
 10
129.7061960743
 20
42.0590308079
 30
0.0
 11
129.7061960743
 21
52.8090308079
 31
0.0
  0
LINE
  5
11B
330
1F
100
AcDbEntity
  8
0
  6
Continuous
 62
     7
370
    25
100
AcDbLine
 10
130.2061960743
 20
52.8090308079
 30
0.0
 11
130.2061960743
 21
42.5590308079
 31
0.0
  0
LINE
  5
11C
330
1F
100
AcDbEntity
  8
0
  6
Continuous
 62
     7
370
    25
100
AcDbLine
 10
130.2061960743
 20
63.0590308079
 30
0.0
 11
130.2061960743
 21
52.8090308079
 31
0.0
  0
ARC
  5
11D
330
1F
100
AcDbEntity
  8
0
  6
Continuous
 62
     7
370
    25
100
AcDbCircle
 10
94.3561960743
 20
58.2090308079
 30
0.0
 40
0.3999999999999986
100
AcDbArc
 50
180.0
 51
270.0
  0
SPLINE
  5
11E
330
1F
100
AcDbEntity
  8
0
  6
Continuous
 62
     7
370
    25
100
AcDbSpline
210
0.0
220
0.0
230
1.0
 70
    24
 71
     3
 72
     8
 73
     4
 74
     0
 42
0.00000001
 43
0.00000001
 40
0.0
 40
0.0
 40
0.0
 40
0.0
 40
1.0
 40
1.0
 40
1.0
 40
1.0
 10
94.35619607434485
 20
57.80903080785971
 30
0.0
 10
94.35619607434485
 20
57.80903080785971
 30
0.0
 10
94.35571929495222
 20
57.80903080785971
 30
0.0
 10
94.35477259490303
 20
57.80903080785971
 30
0.0
  0
SPLINE
  5
11F
330
1F
100
AcDbEntity
  8
0
  6
Continuous
 62
     7
370
    25
100
AcDbSpline
210
0.0
220
0.0
230
1.0
 70
     8
 71
     3
 72
     8
 73
     4
 74
     0
 42
0.00000001
 43
0.00000001
 40
0.0
 40
0.0
 40
0.0
 40
0.0
 40
1.0
 40
1.0
 40
1.0
 40
1.0
 10
93.95616207978884
 20
58.20728218758729
 30
0.0
 10
93.95618473739977
 20
58.20786436574161
 30
0.0
 10
93.95619607434486
 20
58.20844723852267
 30
0.0
 10
93.95619607434486
 20
58.2090308078597
 30
0.0
  0
ARC
  5
120
330
1F
100
AcDbEntity
  8
0
  6
Continuous
 62
     7
370
    25
100
AcDbCircle
 10
112.5561960743
 20
47.4090308079
 30
0.0
 40
0.4000000000000057
100
AcDbArc
 50
0.0
 51
90.0
  0
SPLINE
  5
121
330
1F
100
AcDbEntity
  8
0
  6
Continuous
 62
     7
370
    25
100
AcDbSpline
210
0.0
220
0.0
230
1.0
 70
    24
 71
     3
 72
     8
 73
     4
 74
     0
 42
0.00000001
 43
0.00000001
 40
0.0
 40
0.0
 40
0.0
 40
0.0
 40
1.0
 40
1.0
 40
1.0
 40
1.0
 10
112.5561960743449
 20
47.80903080785964
 30
0.0
 10
112.5561960743449
 20
47.80903080785964
 30
0.0
 10
112.5566728537375
 20
47.80903080785964
 30
0.0
 10
112.5576195537867
 20
47.80903080785964
 30
0.0
  0
SPLINE
  5
122
330
1F
100
AcDbEntity
  8
0
  6
Continuous
 62
     7
370
    25
100
AcDbSpline
210
0.0
220
0.0
230
1.0
 70
     8
 71
     3
 72
     8
 73
     4
 74
     0
 42
0.00000001
 43
0.00000001
 40
0.0
 40
0.0
 40
0.0
 40
0.0
 40
1.0
 40
1.0
 40
1.0
 40
1.0
 10
112.9562300689008
 20
47.41077942812892
 30
0.0
 10
112.9562074112899
 20
47.41019724997564
 30
0.0
 10
112.9561960743449
 20
47.40961437719564
 30
0.0
 10
112.9561960743449
 20
47.40903080785964
 30
0.0
  0
SPLINE
  5
123
330
1F
100
AcDbEntity
  8
0
  6
Continuous
 62
     7
370
    25
100
AcDbSpline
210
0.0
220
0.0
230
1.0
 70
    24
 71
     3
 72
     8
 73
     4
 74
     0
 42
0.00000001
 43
0.00000001
 40
0.0
 40
0.0
 40
0.0
 40
0.0
 40
1.0
 40
1.0
 40
1.0
 40
1.0
 10
94.35477259490347
 20
47.80903080785964
 30
0.0
 10
94.35571929495238
 20
47.80903080785964
 30
0.0
 10
94.35619607434485
 20
47.80903080785964
 30
0.0
 10
94.35619607434485
 20
47.80903080785964
 30
0.0
  0
ARC
  5
124
330
1F
100
AcDbEntity
  8
0
  6
Continuous
 62
     7
370
    25
100
AcDbCircle
 10
94.3561960743
 20
47.4090308079
 30
0.0
 40
0.3999999999999986
100
AcDbArc
 50
90.0
 51
180.0
  0
SPLINE
  5
125
330
1F
100
AcDbEntity
  8
0
  6
Continuous
 62
     7
370
    25
100
AcDbSpline
210
0.0
220
0.0
230
1.0
 70
     8
 71
     3
 72
     8
 73
     4
 74
     0
 42
0.00000001
 43
0.00000001
 40
0.0
 40
0.0
 40
0.0
 40
0.0
 40
1.0
 40
1.0
 40
1.0
 40
1.0
 10
93.95619607434486
 20
47.40903080785964
 30
0.0
 10
93.95619607434486
 20
47.40961437719547
 30
0.0
 10
93.95618473739982
 20
47.41019724997533
 30
0.0
 10
93.95616207978898
 20
47.41077942812845
 30
0.0
  0
SPLINE
  5
126
330
1F
100
AcDbEntity
  8
0
  6
Continuous
 62
     7
370
    25
100
AcDbSpline
210
0.0
220
0.0
230
1.0
 70
    24
 71
     3
 72
     8
 73
     4
 74
     0
 42
0.00000001
 43
0.00000001
 40
0.0
 40
0.0
 40
0.0
 40
0.0
 40
1.0
 40
1.0
 40
1.0
 40
1.0
 10
112.5576195537863
 20
57.80903080785971
 30
0.0
 10
112.5566728537373
 20
57.80903080785971
 30
0.0
 10
112.5561960743449
 20
57.80903080785971
 30
0.0
 10
112.5561960743449
 20
57.80903080785971
 30
0.0
  0
ARC
  5
127
330
1F
100
AcDbEntity
  8
0
  6
Continuous
 62
     7
370
    25
100
AcDbCircle
 10
112.5561960743
 20
58.2090308079
 30
0.0
 40
0.4000000000000057
100
AcDbArc
 50
270.0
 51
0.0
  0
SPLINE
  5
128
330
1F
100
AcDbEntity
  8
0
  6
Continuous
 62
     7
370
    25
100
AcDbSpline
210
0.0
220
0.0
230
1.0
 70
     8
 71
     3
 72
     8
 73
     4
 74
     0
 42
0.00000001
 43
0.00000001
 40
0.0
 40
0.0
 40
0.0
 40
0.0
 40
1.0
 40
1.0
 40
1.0
 40
1.0
 10
112.9561960743449
 20
58.2090308078597
 30
0.0
 10
112.9561960743449
 20
58.20844723852372
 30
0.0
 10
112.9562074112899
 20
58.20786436574371
 30
0.0
 10
112.9562300689008
 20
58.20728218759043
 30
0.0
  0
LINE
  5
129
330
1F
100
AcDbEntity
  8
0
  6
Continuous
 62
     7
370
    25
100
AcDbLine
 10
112.9562300689
 20
58.2072821876
 30
0.0
 11
112.9562300689
 21
64.5661715836
 31
0.0
  0
LINE
  5
12A
330
1F
100
AcDbEntity
  8
0
  6
Continuous
 62
     7
370
    25
100
AcDbLine
 10
93.9561620798
 20
47.4107794281
 30
0.0
 11
93.9561620796
 21
41.0518900321
 31
0.0
  0
LINE
  5
12B
330
1F
100
AcDbEntity
  8
0
  6
Continuous
 62
     7
370
    25
100
AcDbLine
 10
93.9561620802
 20
64.5661715836
 30
0.0
 11
93.9561620798
 21
58.2072821876
 31
0.0
  0
LINE
  5
12C
330
1F
100
AcDbEntity
  8
0
  6
Continuous
 62
     7
370
    25
100
AcDbLine
 10
112.9562300691
 20
41.0518900321
 30
0.0
 11
112.9562300689
 21
47.4107794281
 31
0.0
  0
LINE
  5
12D
330
1F
100
AcDbEntity
  8
0
  6
Continuous
 62
     7
370
    25
100
AcDbLine
 10
93.9561960743
 20
64.5590308079
 30
0.0
 11
93.9561960743
 21
58.2090308079
 31
0.0
  0
LINE
  5
12E
330
1F
100
AcDbEntity
  8
0
  6
Continuous
 62
     7
370
    25
100
AcDbLine
 10
112.9561960743
 20
41.0590308079
 30
0.0
 11
112.9561960743
 21
47.4090308079
 31
0.0
  0
LINE
  5
12F
330
1F
100
AcDbEntity
  8
0
  6
Continuous
 62
     7
370
    25
100
AcDbLine
 10
112.9561960743
 20
58.2090308079
 30
0.0
 11
112.9561960743
 21
64.5590308079
 31
0.0
  0
LINE
  5
130
330
1F
100
AcDbEntity
  8
0
  6
Continuous
 62
     7
370
    25
100
AcDbLine
 10
93.9561960743
 20
47.4090308079
 30
0.0
 11
93.9561960743
 21
41.0590308079
 31
0.0
  0
LINE
  5
131
330
1F
100
AcDbEntity
  8
0
  6
Continuous
 62
     7
370
    25
100
AcDbLine
 10
94.3561960743
 20
57.8090308079
 30
0.0
 11
94.3561960743
 21
58.0699003731
 31
0.0
  0
LINE
  5
132
330
1F
100
AcDbEntity
  8
0
  6
Continuous
 62
     7
370
    25
100
AcDbLine
 10
94.3561960743
 20
58.0699003731
 30
0.0
 11
112.5561960743
 21
58.0699003731
 31
0.0
  0
LINE
  5
133
330
1F
100
AcDbEntity
  8
0
  6
Continuous
 62
     7
370
    25
100
AcDbLine
 10
112.5561960743
 20
57.8090308079
 30
0.0
 11
112.5561960743
 21
58.0699003731
 31
0.0
  0
LWPOLYLINE
  5
134
330
1F
100
AcDbEntity
  8
0
  6
Continuous
 62
     7
370
    25
100
AcDbPolyline
 90
        9
 70
   128
 43
0.0
 10
112.5561960743
 20
58.0699003731
 10
112.6342322032
 20
58.0735762325
 10
112.7092694473
 20
58.0844625495
 10
112.7784241676
 20
58.102140969
 10
112.8390387868
 20
58.1259321193
 10
112.8887839193
 20
58.1549217198
 10
112.9257478873
 20
58.1879957165
 10
112.9485101865
 20
58.2238830941
 10
112.9561960743
 20
58.2612047209
  0
LWPOLYLINE
  5
135
330
1F
100
AcDbEntity
  8
0
  6
Continuous
 62
     7
370
    25
100
AcDbPolyline
 90
        9
 70
   128
 43
0.0
 10
93.9561960743
 20
58.2612047209
 10
93.9638819622
 20
58.2238830941
 10
93.9866442613
 20
58.1879957165
 10
94.0236082294
 20
58.1549217198
 10
94.0733533619
 20
58.1259321193
 10
94.1339679811
 20
58.102140969
 10
94.2031227014
 20
58.0844625495
 10
94.2781599455
 20
58.0735762325
 10
94.3561960743
 20
58.0699003731
  0
LINE
  5
136
330
1F
100
AcDbEntity
  8
0
  6
Continuous
 62
     7
370
    25
100
AcDbLine
 10
94.3561960743
 20
47.5481612426
 30
0.0
 11
94.3561960743
 21
47.8090308079
 31
0.0
  0
LWPOLYLINE
  5
137
330
1F
100
AcDbEntity
  8
0
  6
Continuous
 62
     7
370
    25
100
AcDbPolyline
 90
        9
 70
   128
 43
0.0
 10
94.3561960743
 20
47.5481612426
 10
94.2781599455
 20
47.5444853832
 10
94.2031227014
 20
47.5335990663
 10
94.1339679811
 20
47.5159206467
 10
94.0733533619
 20
47.4921294964
 10
94.0236082294
 20
47.4631398959
 10
93.9866442613
 20
47.4300658993
 10
93.9638819622
 20
47.3941785216
 10
93.9561960743
 20
47.3568568948
  0
LINE
  5
138
330
1F
100
AcDbEntity
  8
0
  6
Continuous
 62
     7
370
    25
100
AcDbLine
 10
112.5561960743
 20
47.5481612426
 30
0.0
 11
94.3561960743
 21
47.5481612426
 31
0.0
  0
LINE
  5
139
330
1F
100
AcDbEntity
  8
0
  6
Continuous
 62
     7
370
    25
100
AcDbLine
 10
112.5561960743
 20
47.5481612426
 30
0.0
 11
112.5561960743
 21
47.8090308079
 31
0.0
  0
LWPOLYLINE
  5
13A
330
1F
100
AcDbEntity
  8
0
  6
Continuous
 62
     7
370
    25
100
AcDbPolyline
 90
        9
 70
   128
 43
0.0
 10
112.9561960743
 20
47.3568568948
 10
112.9485101865
 20
47.3941785216
 10
112.9257478873
 20
47.4300658993
 10
112.8887839193
 20
47.4631398959
 10
112.8390387868
 20
47.4921294964
 10
112.7784241676
 20
47.5159206467
 10
112.7092694473
 20
47.5335990663
 10
112.6342322032
 20
47.5444853832
 10
112.5561960743
 20
47.5481612426
  0
LINE
  5
13B
330
1F
100
AcDbEntity
  8
0
  6
Continuous
 62
     7
370
    25
100
AcDbLine
 10
97.0807045664
 20
63.7960015906
 30
0.0
 11
97.0806363822
 21
63.796037791
 31
0.0
  0
LINE
  5
13C
330
1F
100
AcDbEntity
  8
0
  6
Continuous
 62
     7
370
    25
100
AcDbLine
 10
97.5787269738
 20
64.2954472049
 30
0.0
 11
97.5787590363
 21
64.2954279004
 31
0.0
  0
SPLINE
  5
13D
330
1F
100
AcDbEntity
  8
0
  6
Continuous
 62
     7
370
    25
100
AcDbSpline
210
0.0
220
0.0
230
1.0
 70
    11
 71
     3
 72
    26
 73
    22
 74
     0
 42
0.00000001
 43
0.00000001
 40
0.0
 40
0.0
 40
0.0
 40
0.0
 40
0.1249999999999999
 40
0.1249999999999999
 40
0.1874999999999999
 40
0.1874999999999999
 40
0.2499999999999999
 40
0.2499999999999999
 40
0.3124999999999999
 40
0.3124999999999999
 40
0.3749999999999999
 40
0.3749999999999999
 40
0.4999999999999999
 40
0.4999999999999999
 40
0.6249999999999999
 40
0.6249999999999999
 40
0.7499999999999999
 40
0.7499999999999999
 40
0.8749999999999999
 40
0.8749999999999999
 40
1.0
 40
1.0
 40
1.0
 40
1.0
 10
103.9695150431932
 20
63.80903080785971
 30
0.0
 10
103.9695150431932
 20
63.94814983908853
 30
0.0
 10
103.9167190720443
 20
64.08387754206402
 30
0.0
 10
103.775263482167
 20
64.23689627855978
 30
0.0
 10
103.7187095457951
 20
64.27839917958032
 30
0.0
 10
103.5931653943517
 20
64.335599073374
 30
0.0
 10
103.5240137812437
 20
64.35088306211834
 30
0.0
 10
103.3868554065002
 20
64.35066218835468
 30
0.0
 10
103.3177408236941
 20
64.33510212706703
 30
0.0
 10
103.192981055063
 20
64.27789629257302
 30
0.0
 10
103.1363499667285
 20
64.23614486530607
 30
0.0
 10
102.9962363402056
 20
64.08430399702263
 30
0.0
 10
102.942915806259
 20
63.94825166975476
 30
0.0
 10
102.9428384476829
 20
63.67011897605141
 30
0.0
 10
102.9965268297045
 20
63.53331696603141
 30
0.0
 10
103.1832216440122
 20
63.33124816236635
 30
0.0
 10
103.3191028533758
 20
63.26707840268081
 30
0.0
 10
103.5947339874143
 20
63.26749945548183
 30
0.0
 10
103.7297090258279
 20
63.33176813790513
 30
0.0
 10
103.9155565028939
 20
63.53304568912927
 30
0.0
 10
103.9695150431932
 20
63.6699117766309
 30
0.0
 10
103.9695150431932
 20
63.80903080785971
 30
0.0
  0
SPLINE
  5
13E
330
1F
100
AcDbEntity
  8
0
  6
Continuous
 62
     7
370
    25
100
AcDbSpline
210
0.0
220
0.0
230
1.0
 70
    11
 71
     3
 72
    38
 73
    34
 74
     0
 42
0.00000001
 43
0.00000001
 40
0.0
 40
0.0
 40
0.0
 40
0.0
 40
0.0625
 40
0.0625
 40
0.125
 40
0.125
 40
0.1875
 40
0.1875
 40
0.25
 40
0.25
 40
0.3125
 40
0.3125
 40
0.375
 40
0.375
 40
0.4375
 40
0.4375
 40
0.5
 40
0.5
 40
0.5625
 40
0.5625
 40
0.625
 40
0.625
 40
0.6875
 40
0.6875
 40
0.75
 40
0.75
 40
0.8125
 40
0.8125
 40
0.875
 40
0.875
 40
0.9375
 40
0.9375
 40
1.0
 40
1.0
 40
1.0
 40
1.0
 10
102.4561960743449
 20
63.80903080785971
 30
0.0
 10
102.4561960743449
 20
63.6766448929494
 30
0.0
 10
102.4823446254877
 20
63.5467575664707
 30
0.0
 10
102.5828102949455
 20
63.30467857188482
 30
0.0
 10
102.6570951613421
 20
63.1938972178288
 30
0.0
 10
102.8412443410768
 20
63.00978993772303
 30
0.0
 10
102.952619963671
 20
62.93532126642705
 30
0.0
 10
103.1931684682049
 20
62.83549409029835
 30
0.0
 10
103.3249263641923
 20
62.80910617022504
 30
0.0
 10
103.5863150563562
 20
62.80895577653822
 30
0.0
 10
103.7174871269479
 20
62.83489559694826
 30
0.0
 10
103.9599248129476
 20
62.93526322937354
 30
0.0
 10
104.0699789810972
 20
63.00865213251875
 30
0.0
 10
104.2562322985081
 20
63.1948015993483
 30
0.0
 10
104.3296586264012
 20
63.30484011674831
 30
0.0
 10
104.4300233740301
 20
63.54672283383697
 30
0.0
 10
104.4561446383263
 20
63.67799735234831
 30
0.0
 10
104.4562473558115
 20
63.93927800172082
 30
0.0
 10
104.4300037277178
 20
64.07109340523373
 30
0.0
 10
104.3303353709197
 20
64.3118813233152
 30
0.0
 10
104.2560545789512
 20
64.4232135247132
 30
0.0
 10
104.0718678385176
 20
64.60774371990821
 30
0.0
 10
103.961444264455
 20
64.68193004918199
 30
0.0
 10
103.719059549215
 20
64.78275130815214
 30
0.0
 10
103.5891353696486
 20
64.80892553745718
 30
0.0
 10
103.3248452601317
 20
64.80913544744409
 30
0.0
 10
103.1946115014697
 20
64.78304772508092
 30
0.0
 10
102.952718830299
 20
64.68289928110232
 30
0.0
 10
102.8417029048924
 20
64.60861298593714
 30
0.0
 10
102.6575351689123
 20
64.42472088650037
 30
0.0
 10
102.5829364974102
 20
64.31339073594634
 30
0.0
 10
102.4828856838651
 20
64.07290219613773
 30
0.0
 10
102.4561960743449
 20
63.94141672277001
 30
0.0
 10
102.4561960743449
 20
63.80903080785971
 30
0.0
  0
SPLINE
  5
13F
330
1F
100
AcDbEntity
  8
0
  6
Continuous
 62
     7
370
    25
100
AcDbSpline
210
0.0
220
0.0
230
1.0
 70
     8
 71
     3
 72
    15
 73
    11
 74
     0
 42
0.00000001
 43
0.00000001
 40
0.0
 40
0.0
 40
0.0
 40
0.0
 40
0.0081667445812695
 40
0.3321939991490077
 40
0.4756279600585577
 40
0.6866830973284904
 40
0.8457435502264811
 40
0.8967566214763185
 40
0.9909540928118028
 40
1.0
 40
1.0
 40
1.0
 40
1.0
 10
98.35717656075208
 20
82.15903080785972
 30
0.0
 10
98.35668902660919
 20
82.15902813151394
 30
0.0
 10
98.33685787907712
 20
82.15891926732714
 30
0.0
 10
98.30857709906785
 20
82.1493732550577
 30
0.0
 10
98.27074780057903
 20
82.11201087180315
 30
0.0
 10
98.24416390401153
 20
82.06714535706847
 30
0.0
 10
98.22699408025656
 20
82.00926905749157
 30
0.0
 10
98.2191770840401
 20
81.95859301751963
 30
0.0
 10
98.21718139760421
 20
81.92989873799964
 30
0.0
 10
98.21711643365343
 20
81.91071190644413
 30
0.0
 10
98.21711074168675
 20
81.90903080785972
 30
0.0
  0
LINE
  5
140
330
1F
100
AcDbEntity
  8
0
  6
Continuous
 62
     7
370
    25
100
AcDbLine
 10
98.3571765608
 20
82.1590308079
 30
0.0
 11
108.5552155879
 21
82.1590308079
 31
0.0
  0
SPLINE
  5
141
330
1F
100
AcDbEntity
  8
0
  6
Continuous
 62
     7
370
    25
100
AcDbSpline
210
0.0
220
0.0
230
1.0
 70
     8
 71
     3
 72
    15
 73
    11
 74
     0
 42
0.00000001
 43
0.00000001
 40
0.0
 40
0.0
 40
0.0
 40
0.0
 40
0.0090459071881971
 40
0.1032433785236875
 40
0.1542564497735191
 40
0.3133169026715104
 40
0.5243720399414422
 40
0.6678060008509901
 40
0.9918332554187291
 40
1.0
 40
1.0
 40
1.0
 40
1.0
 10
108.695281407003
 20
81.90903080785972
 30
0.0
 10
108.6952757150363
 20
81.91071190644413
 30
0.0
 10
108.6952107510855
 20
81.9298987379996
 30
0.0
 10
108.6932150646496
 20
81.95859301751965
 30
0.0
 10
108.6853980684332
 20
82.00926905749157
 30
0.0
 10
108.6682282446782
 20
82.06714535706847
 30
0.0
 10
108.6416443481107
 20
82.11201087180315
 30
0.0
 10
108.6038150496219
 20
82.1493732550577
 30
0.0
 10
108.5755342696126
 20
82.15891926732718
 30
0.0
 10
108.5557031220805
 20
82.15902813151394
 30
0.0
 10
108.5552155879377
 20
82.15903080785972
 30
0.0
  0
LINE
  5
142
330
1F
100
AcDbEntity
  8
0
  6
Continuous
 62
     7
370
    25
100
AcDbLine
 10
108.695281407
 20
81.9090308079
 30
0.0
 11
98.2171107417
 21
81.9090308079
 31
0.0
  0
LINE
  5
143
330
1F
100
AcDbEntity
  8
0
  6
Continuous
 62
     7
370
    25
100
AcDbLine
 10
98.2171107417
 20
81.9090308079
 30
0.0
 11
98.2171107417
 21
81.3090308079
 31
0.0
  0
LINE
  5
144
330
1F
100
AcDbEntity
  8
0
  6
Continuous
 62
     7
370
    25
100
AcDbLine
 10
108.695281407
 20
81.3090308079
 30
0.0
 11
108.695281407
 21
81.9090308079
 31
0.0
  0
LINE
  5
145
330
1F
100
AcDbEntity
  8
0
  6
Continuous
 62
     7
370
    25
100
AcDbLine
 10
98.2171107417
 20
81.3090308079
 30
0.0
 11
108.695281407
 21
81.3090308079
 31
0.0
  0
LINE
  5
146
330
1F
100
AcDbEntity
  8
0
  6
Continuous
 62
     7
370
    25
100
AcDbLine
 10
97.9789704993
 20
81.9090308079
 30
0.0
 11
98.2171107417
 21
81.9090308079
 31
0.0
  0
SPLINE
  5
147
330
1F
100
AcDbEntity
  8
0
  6
Continuous
 62
     7
370
    25
100
AcDbSpline
210
0.0
220
0.0
230
1.0
 70
     8
 71
     3
 72
    15
 73
    11
 74
     0
 42
0.00000001
 43
0.00000001
 40
0.0
 40
0.0
 40
0.0
 40
0.0
 40
0.0089557228015919
 40
0.0999003359608148
 40
0.1531632460581691
 40
0.3125636920784849
 40
0.5249666935695004
 40
0.6689893599352447
 40
0.9919152533810159
 40
1.0
 40
1.0
 40
1.0
 40
1.0
 10
97.9789704992932
 20
81.90903080785972
 30
0.0
 10
97.97898625487181
 20
81.91071193343262
 30
0.0
 10
97.97916200702838
 20
81.92946474805706
 30
0.0
 10
97.9845910230479
 20
81.95822697716454
 30
0.0
 10
98.00612650675521
 20
82.00911405063286
 30
0.0
 10
98.05383193502003
 20
82.06724970076553
 30
0.0
 10
98.12622288001194
 20
82.11195757394893
 30
0.0
 10
98.22814199202972
 20
82.14923939741065
 30
0.0
 10
98.30349708348417
 20
82.15891855224841
 30
0.0
 10
98.35589672920794
 20
82.15902813145003
 30
0.0
 10
98.35717656075208
 20
82.15903080785972
 30
0.0
  0
LINE
  5
148
330
1F
100
AcDbEntity
  8
0
  6
Continuous
 62
     7
370
    25
100
AcDbLine
 10
108.695281407
 20
81.9090308079
 30
0.0
 11
108.9334216494
 21
81.9090308079
 31
0.0
  0
SPLINE
  5
149
330
1F
100
AcDbEntity
  8
0
  6
Continuous
 62
     7
370
    25
100
AcDbSpline
210
0.0
220
0.0
230
1.0
 70
     8
 71
     3
 72
    15
 73
    11
 74
     0
 42
0.00000001
 43
0.00000001
 40
0.0
 40
0.0
 40
0.0
 40
0.0
 40
0.0080847466189818
 40
0.3310106400647562
 40
0.4750333064304981
 40
0.6874363079215148
 40
0.8468367539418311
 40
0.9000996640391854
 40
0.9910442771984082
 40
1.0
 40
1.0
 40
1.0
 40
1.0
 10
108.5552155879377
 20
82.15903080785972
 30
0.0
 10
108.5564954194818
 20
82.15902813145004
 30
0.0
 10
108.6088950652056
 20
82.15891855224822
 30
0.0
 10
108.68425015666
 20
82.1492393974107
 30
0.0
 10
108.7861692686778
 20
82.11195757394893
 30
0.0
 10
108.8585602136697
 20
82.06724970076553
 30
0.0
 10
108.9062656419345
 20
82.00911405063286
 30
0.0
 10
108.9278011256418
 20
81.95822697716454
 30
0.0
 10
108.9332301416614
 20
81.92946474805707
 30
0.0
 10
108.9334058938179
 20
81.91071193343262
 30
0.0
 10
108.9334216493965
 20
81.90903080785972
 30
0.0
  0
LINE
  5
14A
330
1F
100
AcDbEntity
  8
0
  6
Continuous
 62
     7
370
    25
100
AcDbLine
 10
97.9789704993
 20
81.3090308079
 30
0.0
 11
97.9789704993
 21
81.9090308079
 31
0.0
  0
LINE
  5
14B
330
1F
100
AcDbEntity
  8
0
  6
Continuous
 62
     7
370
    25
100
AcDbLine
 10
98.2171107417
 20
81.3090308079
 30
0.0
 11
97.9789704993
 21
81.3090308079
 31
0.0
  0
LINE
  5
14C
330
1F
100
AcDbEntity
  8
0
  6
Continuous
 62
     7
370
    25
100
AcDbLine
 10
108.9334216494
 20
81.9090308079
 30
0.0
 11
108.9334216494
 21
81.3090308079
 31
0.0
  0
LINE
  5
14D
330
1F
100
AcDbEntity
  8
0
  6
Continuous
 62
     7
370
    25
100
AcDbLine
 10
108.9334216494
 20
81.3090308079
 30
0.0
 11
108.695281407
 21
81.3090308079
 31
0.0
  0
LINE
  5
14E
330
1F
100
AcDbEntity
  8
0
  6
Continuous
 62
     7
370
    25
100
AcDbLine
 10
97.4561960743
 20
81.3090308079
 30
0.0
 11
97.4561960743
 21
81.9090308079
 31
0.0
  0
LINE
  5
14F
330
1F
100
AcDbEntity
  8
0
  6
Continuous
 62
     7
370
    25
100
AcDbLine
 10
97.4561960743
 20
81.9090308079
 30
0.0
 11
97.7061960743
 21
81.9090308079
 31
0.0
  0
LINE
  5
150
330
1F
100
AcDbEntity
  8
0
  6
Continuous
 62
     7
370
    25
100
AcDbLine
 10
97.7061960743
 20
81.9090308079
 30
0.0
 11
97.7061960743
 21
81.3090308079
 31
0.0
  0
LINE
  5
151
330
1F
100
AcDbEntity
  8
0
  6
Continuous
 62
     7
370
    25
100
AcDbLine
 10
97.7061960743
 20
81.3090308079
 30
0.0
 11
97.4561960743
 21
81.3090308079
 31
0.0
  0
ARC
  5
152
330
1F
100
AcDbEntity
  8
0
  6
Continuous
 62
     7
370
    25
100
AcDbCircle
 10
97.7061960743
 20
81.9090308079
 30
0.0
 40
0.25
100
AcDbArc
 50
90.0
 51
180.0
  0
LINE
  5
153
330
1F
100
AcDbEntity
  8
0
  6
Continuous
 62
     7
370
    25
100
AcDbLine
 10
97.7061960743
 20
82.1590308079
 30
0.0
 11
97.7061960743
 21
81.9090308079
 31
0.0
  0
LINE
  5
154
330
1F
100
AcDbEntity
  8
0
  6
Continuous
 62
     7
370
    25
100
AcDbLine
 10
97.9789704993
 20
81.9090308079
 30
0.0
 11
97.7061960743
 21
81.9090308079
 31
0.0
  0
LINE
  5
155
330
1F
100
AcDbEntity
  8
0
  6
Continuous
 62
     7
370
    25
100
AcDbLine
 10
97.9789704993
 20
81.3090308079
 30
0.0
 11
97.7061960743
 21
81.3090308079
 31
0.0
  0
LINE
  5
156
330
1F
100
AcDbEntity
  8
0
  6
Continuous
 62
     7
370
    25
100
AcDbLine
 10
97.7061960743
 20
82.1590308079
 30
0.0
 11
98.3571765608
 21
82.1590308079
 31
0.0
  0
LINE
  5
157
330
1F
100
AcDbEntity
  8
0
  6
Continuous
 62
     7
370
    25
100
AcDbLine
 10
109.2061960743
 20
81.9090308079
 30
0.0
 11
109.2061960743
 21
82.1590308079
 31
0.0
  0
LINE
  5
158
330
1F
100
AcDbEntity
  8
0
  6
Continuous
 62
     7
370
    25
100
AcDbLine
 10
109.2061960743
 20
81.9090308079
 30
0.0
 11
108.9334216494
 21
81.9090308079
 31
0.0
  0
LINE
  5
159
330
1F
100
AcDbEntity
  8
0
  6
Continuous
 62
     7
370
    25
100
AcDbLine
 10
108.5552155879
 20
82.1590308079
 30
0.0
 11
109.2061960743
 21
82.1590308079
 31
0.0
  0
LINE
  5
15A
330
1F
100
AcDbEntity
  8
0
  6
Continuous
 62
     7
370
    25
100
AcDbLine
 10
109.2061960743
 20
81.3090308079
 30
0.0
 11
109.2061960743
 21
81.9090308079
 31
0.0
  0
LINE
  5
15B
330
1F
100
AcDbEntity
  8
0
  6
Continuous
 62
     7
370
    25
100
AcDbLine
 10
109.2061960743
 20
81.3090308079
 30
0.0
 11
108.9334216494
 21
81.3090308079
 31
0.0
  0
ARC
  5
15C
330
1F
100
AcDbEntity
  8
0
  6
Continuous
 62
     7
370
    25
100
AcDbCircle
 10
109.2061960743
 20
81.9090308079
 30
0.0
 40
0.25
100
AcDbArc
 50
0.0
 51
90.0
  0
LINE
  5
15D
330
1F
100
AcDbEntity
  8
0
  6
Continuous
 62
     7
370
    25
100
AcDbLine
 10
109.2061960743
 20
81.9090308079
 30
0.0
 11
109.4561960743
 21
81.9090308079
 31
0.0
  0
LINE
  5
15E
330
1F
100
AcDbEntity
  8
0
  6
Continuous
 62
     7
370
    25
100
AcDbLine
 10
109.4561960743
 20
81.9090308079
 30
0.0
 11
109.4561960743
 21
81.3090308079
 31
0.0
  0
LINE
  5
15F
330
1F
100
AcDbEntity
  8
0
  6
Continuous
 62
     7
370
    25
100
AcDbLine
 10
109.4561960743
 20
81.3090308079
 30
0.0
 11
109.2061960743
 21
81.3090308079
 31
0.0
  0
LINE
  5
160
330
1F
100
AcDbEntity
  8
0
  6
Continuous
 62
     7
370
    25
100
AcDbLine
 10
108.4561960743
 20
82.1590308079
 30
0.0
 11
108.4561960743
 21
82.1690308079
 31
0.0
  0
LINE
  5
161
330
1F
100
AcDbEntity
  8
0
  6
Continuous
 62
     7
370
    25
100
AcDbLine
 10
98.4561960743
 20
82.1690308079
 30
0.0
 11
108.4561960743
 21
82.1690308079
 31
0.0
  0
LINE
  5
162
330
1F
100
AcDbEntity
  8
0
  6
Continuous
 62
     7
370
    25
100
AcDbLine
 10
98.4561960743
 20
82.1590308079
 30
0.0
 11
98.4561960743
 21
82.1690308079
 31
0.0
  0
LINE
  5
163
330
1F
100
AcDbEntity
  8
0
  6
Continuous
 62
     7
370
    25
100
AcDbLine
 10
98.9816491903
 20
73.3090308079
 30
0.0
 11
110.9061960743
 21
73.3090308078
 31
0.0
  0
SPLINE
  5
164
330
1F
100
AcDbEntity
  8
0
  6
Continuous
 62
     7
370
    25
100
AcDbSpline
210
0.0
220
0.0
230
1.0
 70
     8
 71
     3
 72
     9
 73
     5
 74
     0
 42
0.00000001
 43
0.00000001
 40
0.0
 40
0.0
 40
0.0
 40
0.0
 40
0.4978401817595097
 40
1.0
 40
1.0
 40
1.0
 40
1.0
 10
99.74185994602449
 20
74.30377438582664
 30
0.0
 10
99.60553803765382
 20
74.14726320313405
 30
0.0
 10
99.33171138933292
 20
73.83288282881503
 30
0.0
 10
99.0986721382363
 20
73.48415028078875
 30
0.0
 10
98.98164919026271
 20
73.30903080785735
 30
0.0
  0
LINE
  5
165
330
1F
100
AcDbEntity
  8
0
  6
Continuous
 62
     7
370
    25
100
AcDbLine
 10
98.2323939
 20
81.3090308078
 30
0.0
 11
96.504255236
 21
74.3037743858
 31
0.0
  0
LINE
  5
166
330
1F
100
AcDbEntity
  8
0
  6
Continuous
 62
     7
370
    25
100
AcDbLine
 10
108.695281407
 20
81.3090308078
 30
0.0
 11
98.2323939
 21
81.3090308078
 31
0.0
  0
LINE
  5
167
330
1F
100
AcDbEntity
  8
0
  6
Continuous
 62
     7
370
    25
100
AcDbLine
 10
101.4561960743
 20
65.3090308079
 30
0.0
 11
110.4561960743
 21
65.3090308079
 31
0.0
  0
LINE
  5
168
330
1F
100
AcDbEntity
  8
0
  6
Continuous
 62
     7
370
    25
100
AcDbLine
 10
101.4561960743
 20
65.3468477317
 30
0.0
 11
101.4561960743
 21
65.3090308079
 31
0.0
  0
SPLINE
  5
169
330
1F
100
AcDbEntity
  8
0
  6
Continuous
 62
     7
370
    25
100
AcDbSpline
210
0.0
220
0.0
230
1.0
 70
     8
 71
     3
 72
     9
 73
     5
 74
     0
 42
0.00000001
 43
0.00000001
 40
0.0
 40
0.0
 40
0.0
 40
0.0
 40
0.487514102367712
 40
1.0
 40
1.0
 40
1.0
 40
1.0
 10
101.3002508239177
 20
65.30903080785977
 30
0.0
 10
101.3265573978403
 20
65.31075815383147
 30
0.0
 10
101.3805180397885
 20
65.31430132512295
 30
0.0
 10
101.4305535704833
 20
65.33581981107227
 30
0.0
 10
101.4561960743449
 20
65.3468477316597
 30
0.0
  0
SPLINE
  5
16A
330
1F
100
AcDbEntity
  8
0
  6
Continuous
 62
     7
370
    25
100
AcDbSpline
210
0.0
220
0.0
230
1.0
 70
     8
 71
     3
 72
    17
 73
    13
 74
     0
 42
0.00000001
 43
0.00000001
 40
0.0
 40
0.0
 40
0.0
 40
0.0
 40
0.3241697628029873
 40
0.5422758463620719
 40
0.689509052693928
 40
0.7894036290694505
 40
0.8577090008137825
 40
0.9049823971474137
 40
0.9551712229700868
 40
0.9753097783197817
 40
0.9919572060138848
 40
1.0
 40
1.0
 40
1.0
 40
1.0
 10
98.98164919026271
 20
73.30903080785735
 30
0.0
 10
99.12436455027988
 20
72.39641730525166
 30
0.0
 10
99.36310085922187
 20
70.86978429899033
 30
0.0
 10
99.7426880536735
 20
68.94301139670935
 30
0.0
 10
100.0518222620206
 20
67.65537592577658
 30
0.0
 10
100.3079357902207
 20
66.79622395905484
 30
0.0
 10
100.5222467931157
 20
66.22275607067745
 30
0.0
 10
100.7254810141436
 20
65.80122391664747
 30
0.0
 10
100.9100262786862
 20
65.52073137385204
 30
0.0
 10
101.0960973650543
 20
65.36518270527138
 30
0.0
 10
101.2113079643103
 20
65.31457210607388
 30
0.0
 10
101.2783967697831
 20
65.31039235426925
 30
0.0
 10
101.3002508239177
 20
65.30903080785977
 30
0.0
  0
SPLINE
  5
16B
330
1F
100
AcDbEntity
  8
0
  6
Continuous
 62
     7
370
    25
100
AcDbSpline
210
0.0
220
0.0
230
1.0
 70
     8
 71
     3
 72
    14
 73
    10
 74
     0
 42
0.00000001
 43
0.00000001
 40
0.0
 40
0.0
 40
0.0
 40
0.0
 40
0.1576095309202822
 40
0.3152382602707095
 40
0.4726926441579497
 40
0.6301650083177254
 40
0.7907313191165901
 40
0.9513050385928075
 40
1.0
 40
1.0
 40
1.0
 40
1.0
 10
96.95619607434487
 20
65.30903080785971
 30
0.0
 10
96.88962505956285
 20
65.52253259633711
 30
0.0
 10
96.75647492097791
 20
65.94956217996261
 30
0.0
 10
96.4279079592272
 20
66.53480925881894
 30
0.0
 10
96.01451831849519
 20
67.05696379964135
 30
0.0
 10
95.51884339955055
 20
67.50594192706122
 30
0.0
 10
94.95255369426604
 20
67.8652236588676
 30
0.0
 10
94.47630303787301
 20
68.06978983796878
 30
0.0
 10
94.19610846968024
 20
68.1505843863201
 30
0.0
 10
94.13090968490721
 20
68.16938455936688
 30
0.0
  0
LINE
  5
16C
330
1F
100
AcDbEntity
  8
0
  6
Continuous
 62
     7
370
    25
100
AcDbLine
 10
94.1309096849
 20
68.1693845594
 30
0.0
 11
88.3511528351
 21
69.7380059998
 31
0.0
  0
SPLINE
  5
16D
330
1F
100
AcDbEntity
  8
0
  6
Continuous
 62
     7
370
    25
100
AcDbSpline
210
0.0
220
0.0
230
1.0
 70
     8
 71
     3
 72
    11
 73
     7
 74
     0
 42
0.00000001
 43
0.00000001
 40
0.0
 40
0.0
 40
0.0
 40
0.0
 40
0.2488466353289361
 40
0.4976946020535203
 40
0.7488461225871277
 40
1.0
 40
1.0
 40
1.0
 40
1.0
 10
81.2807592128082
 20
71.06120650083525
 30
0.0
 10
81.87519526194448
 20
70.99168212434162
 30
0.0
 10
83.06407054060789
 20
70.85263299938043
 30
0.0
 10
84.83879521131692
 20
70.55230426125517
 30
0.0
 10
86.60537585305927
 20
70.19039464300002
 30
0.0
 10
87.76922535407897
 20
69.88880268593546
 30
0.0
 10
88.35115283505195
 20
69.73800599984973
 30
0.0
  0
LINE
  5
16E
330
1F
100
AcDbEntity
  8
0
  6
Continuous
 62
     7
370
    25
100
AcDbLine
 10
81.2807592128
 20
71.0612065008
 30
0.0
 11
81.2807592128
 21
74.3037743859
 31
0.0
  0
LINE
  5
16F
330
1F
100
AcDbEntity
  8
0
  6
Continuous
 62
     7
370
    25
100
AcDbLine
 10
81.2807592128
 20
74.3037743859
 30
0.0
 11
99.741859946
 21
74.3037743858
 31
0.0
  0
LINE
  5
170
330
1F
100
AcDbEntity
  8
0
  6
Continuous
 62
     7
370
    25
100
AcDbLine
 10
101.3002508239
 20
65.3090308079
 30
0.0
 11
96.9561960743
 21
65.3090308079
 31
0.0
  0
LINE
  5
171
330
1F
100
AcDbEntity
  8
0
  6
Continuous
 62
     7
370
    25
100
AcDbLine
 10
101.4561960743
 20
65.3468477317
 30
0.0
 11
101.4493967164
 21
65.3090308079
 31
0.0
  0
LINE
  5
172
330
1F
100
AcDbEntity
  8
0
  6
Continuous
 62
     7
370
    25
100
AcDbLine
 10
101.4493967164
 20
65.3090308079
 30
0.0
 11
101.3002508239
 21
65.3090308079
 31
0.0
  0
LINE
  5
173
330
1F
100
AcDbEntity
  8
0
  6
Continuous
 62
     7
370
    25
100
AcDbLine
 10
101.4561960743
 20
65.3090308079
 30
0.0
 11
101.4493967164
 21
65.3090308079
 31
0.0
  0
LINE
  5
174
330
1F
100
AcDbEntity
  8
0
  6
Continuous
 62
     7
370
    25
100
AcDbLine
 10
63.4561960743
 20
83.3090308079
 30
0.0
 11
81.2807592128
 21
83.3090308079
 31
0.0
  0
LINE
  5
175
330
1F
100
AcDbEntity
  8
0
  6
Continuous
 62
     7
370
    25
100
AcDbLine
 10
81.2807592128
 20
83.3090308079
 30
0.0
 11
81.2807592128
 21
74.3037743859
 31
0.0
  0
LINE
  5
176
330
1F
100
AcDbEntity
  8
0
  6
Continuous
 62
     7
370
    25
100
AcDbLine
 10
76.5645282166
 20
71.3090308079
 30
0.0
 11
68.4561960743
 21
71.3090308079
 31
0.0
  0
ARC
  5
177
330
1F
100
AcDbEntity
  8
0
  6
Continuous
 62
     7
370
    25
100
AcDbCircle
 10
68.4561960743
 20
76.3090308079
 30
0.0
 40
5.0
100
AcDbArc
 50
180.0
 51
270.0
  0
LINE
  5
178
330
1F
100
AcDbEntity
  8
0
  6
Continuous
 62
     7
370
    25
100
AcDbLine
 10
63.4561960743
 20
76.3090308079
 30
0.0
 11
63.4561960743
 21
83.3090308079
 31
0.0
  0
ARC
  5
179
330
1F
100
AcDbEntity
  8
0
  6
Continuous
 62
     7
370
    25
100
AcDbCircle
 10
76.5645282166
 20
26.3089015537
 30
0.0
 40
45.00012925418373
100
AcDbArc
 50
83.9840777705
 51
90.0
  0
LINE
  5
17A
330
1F
100
AcDbEntity
  8
0
  6
Continuous
 62
     7
370
    25
100
AcDbLine
 10
83.4561960743
 20
83.3090308079
 30
0.0
 11
83.4561960743
 21
81.3279863312
 31
0.0
  0
ARC
  5
17B
330
1F
100
AcDbEntity
  8
0
  6
Continuous
 62
     7
370
    25
100
AcDbCircle
 10
89.4561960743
 20
81.3279863312
 30
0.0
 40
5.999999999999989
100
AcDbArc
 50
180.0
 51
275.5801667845
  0
ARC
  5
17C
330
1F
100
AcDbEntity
  8
0
  6
Continuous
 62
     7
370
    25
100
AcDbCircle
 10
89.0672425101
 20
85.3090308079
 30
0.0
 40
10.00000000000847
100
AcDbArc
 50
275.5801667845
 51
336.4218215217
  0
LINE
  5
17D
330
1F
100
AcDbEntity
  8
0
  6
Continuous
 62
     7
370
    25
100
AcDbLine
 10
81.2807592128
 20
83.3090308079
 30
0.0
 11
83.4561960743
 21
83.3090308079
 31
0.0
  0
LINE
  5
17E
330
1F
100
AcDbEntity
  8
0
  6
Continuous
 62
     7
370
    25
100
AcDbLine
 10
96.9561960743
 20
65.3090308079
 30
0.0
 11
96.4561960743
 21
65.3090308079
 31
0.0
  0
LINE
  5
17F
330
1F
100
AcDbEntity
  8
0
  6
Continuous
 62
     7
370
    25
100
AcDbLine
 10
98.2171107417
 20
81.3090308078
 30
0.0
 11
98.2323939
 21
81.3090308078
 31
0.0
  0
LINE
  5
180
330
1F
100
AcDbEntity
  8
0
  6
Continuous
 62
     7
370
    25
100
AcDbLine
 10
112.5561960743
 20
58.0699003731
 30
0.0
 11
112.5561960743
 21
63.8090308079
 31
0.0
  0
LINE
  5
181
330
1F
100
AcDbEntity
  8
0
  6
Continuous
 62
     7
370
    25
100
AcDbLine
 10
94.3561960743
 20
63.8090308079
 30
0.0
 11
94.3561960743
 21
58.0699003731
 31
0.0
  0
LINE
  5
182
330
1F
100
AcDbEntity
  8
0
  6
Continuous
 62
     7
370
    25
100
AcDbLine
 10
112.5561960743
 20
41.8090308079
 30
0.0
 11
112.5561960743
 21
47.5481612426
 31
0.0
  0
LINE
  5
183
330
1F
100
AcDbEntity
  8
0
  6
Continuous
 62
     7
370
    25
100
AcDbLine
 10
94.3561960743
 20
47.5481612426
 30
0.0
 11
94.3561960743
 21
41.8090308079
 31
0.0
  0
SPLINE
  5
184
330
1F
100
AcDbEntity
  8
0
  6
Continuous
 62
     7
370
    25
100
AcDbSpline
210
0.0
220
0.0
230
1.0
 70
     8
 71
     3
 72
    29
 73
    25
 74
     0
 42
0.00000001
 43
0.00000001
 40
0.0
 40
0.0
 40
0.0
 40
0.0
 40
0.0523007420673769
 40
0.0971610391256296
 40
0.1432579355094584
 40
0.191391355175073
 40
0.2406750140180789
 40
0.2952572670456023
 40
0.3512883074887585
 40
0.4081550509080786
 40
0.4376663416638761
 40
0.4671740045853384
 40
0.5161473841960134
 40
0.5667064967193871
 40
0.6111813809745478
 40
0.6566292394500833
 40
0.7058849529791041
 40
0.7562080733601324
 40
0.8115093139717683
 40
0.8684952319458338
 40
0.921784520848704
 40
0.9495217164746214
 40
0.9772564038252612
 40
1.0
 40
1.0
 40
1.0
 40
1.0
 10
109.8561960743449
 20
63.80903080785971
 30
0.0
 10
109.8382313180792
 20
63.79941700920377
 30
0.0
 10
109.8048575203583
 20
63.78155709688835
 30
0.0
 10
109.5562414911114
 20
63.65111910152257
 30
0.0
 10
109.1978748967858
 20
63.46957852116504
 30
0.0
 10
108.7036711260878
 20
63.23233348326744
 30
0.0
 10
108.0656334351043
 20
62.9501124324249
 30
0.0
 10
107.2811558101839
 20
62.64330507366891
 30
0.0
 10
106.3510966336726
 20
62.34416441734726
 30
0.0
 10
105.480231933845
 20
62.1398626712236
 30
0.0
 10
104.7367174122381
 20
62.0246761641033
 30
0.0
 10
104.0273060534028
 20
61.9541380283315
 30
0.0
 10
103.1632519650993
 20
61.93576444589824
 30
0.0
 10
102.2080481390271
 20
62.01177814566809
 30
0.0
 10
101.3121332366234
 20
62.16457704193469
 30
0.0
 10
100.4745247536454
 20
62.37296946588017
 30
0.0
 10
99.67004751645199
 20
62.63129530841886
 30
0.0
 10
98.90069596667645
 20
62.92716364536917
 30
0.0
 10
98.2067700213524
 20
63.23203902589529
 30
0.0
 10
97.6456000730971
 20
63.50321510548609
 30
0.0
 10
97.31452451502741
 20
63.67305001295967
 30
0.0
 10
97.15242289878414
 20
63.75793157741926
 30
0.0
 10
97.06704166120853
 20
63.80325417567524
 30
0.0
 10
97.07646070378316
 20
63.79825433074797
 30
0.0
 10
97.08070456640503
 20
63.79600159063836
 30
0.0
  0
SPLINE
  5
185
330
1F
100
AcDbEntity
  8
0
  6
Continuous
 62
     7
370
    25
100
AcDbSpline
210
0.0
220
0.0
230
1.0
 70
     8
 71
     3
 72
    28
 73
    24
 74
     0
 42
0.00000001
 43
0.00000001
 40
0.0
 40
0.0
 40
0.0
 40
0.0
 40
0.025214295390803
 40
0.0803174638653639
 40
0.1354650384508518
 40
0.1920269553027468
 40
0.2486256945966088
 40
0.2982093316427959
 40
0.3477789311966165
 40
0.3919288855602218
 40
0.436048252564346
 40
0.484453836139927
 40
0.532847455417666
 40
0.5854963152421128
 40
0.6382078514689651
 40
0.646303104610467
 40
0.7013746289431015
 40
0.7564663995070773
 40
0.8055674302717936
 40
0.8546474475164092
 40
0.9007690029647893
 40
0.9468667356698778
 40
1.0
 40
1.0
 40
1.0
 40
1.0
 10
97.57875903628171
 20
64.2954279003869
 30
0.0
 10
97.5750281151093
 20
64.29768333487239
 30
0.0
 10
97.56314366139746
 20
64.30486778222586
 30
0.0
 10
97.74096191886129
 20
64.19738760133369
 30
0.0
 10
98.09028547213299
 20
63.99478721727872
 30
0.0
 10
98.61314524619877
 20
63.70754588380971
 30
0.0
 10
99.24687346764662
 20
63.39164086561612
 30
0.0
 10
99.96009545170931
 20
63.08014577150504
 30
0.0
 10
100.6974323934171
 20
62.81073886112366
 30
0.0
 10
101.4736795556081
 20
62.59186164194386
 30
0.0
 10
102.294525162949
 20
62.43110793736297
 30
0.0
 10
103.1804470106852
 20
62.35268197812348
 30
0.0
 10
104.1304239114457
 20
62.37198394305782
 30
0.0
 10
105.0805529703319
 20
62.50864368688973
 30
0.0
 10
105.7379620989763
 20
62.67353986151175
 30
0.0
 10
106.3722719471792
 20
62.86796872569143
 30
0.0
 10
106.9827973588379
 20
63.09042091382914
 30
0.0
 10
107.703456124126
 20
63.41017308344214
 30
0.0
 10
108.2927549731534
 20
63.70546898242507
 30
0.0
 10
108.7472449894879
 20
63.95308958115613
 30
0.0
 10
109.0781025886951
 20
64.14283572520891
 30
0.0
 10
109.3089201571277
 20
64.28038750667912
 30
0.0
 10
109.3397097685443
 20
64.29904216564613
 30
0.0
 10
109.3561960743449
 20
64.30903080785971
 30
0.0
  0
LINE
  5
186
330
1F
100
AcDbEntity
  8
FORMAT
  6
CENTERX2
370
    18
100
AcDbLine
 10
73.16405749
 20
52.8090308079
 30
0.0
 11
131.4737496341
 21
52.8090308079
 31
0.0
  0
LINE
  5
187
330
1F
100
AcDbEntity
  8
FORMAT
  6
CENTERX2
370
    18
100
AcDbLine
 10
103.4561960743
 20
40.1405442046
 30
0.0
 11
103.4561960743
 21
83.4385922009
 31
0.0
  0
LINE
  5
188
330
1F
100
AcDbEntity
  8
0
  6
Continuous
 62
     7
370
    25
100
AcDbLine
 10
165.7587616762
 20
63.2584327046
 30
0.0
 11
165.7587616762
 21
65.3090308079
 31
0.0
  0
LINE
  5
189
330
1F
100
AcDbEntity
  8
0
  6
Continuous
 62
     7
370
    25
100
AcDbLine
 10
153.9587616762
 20
65.3090308079
 30
0.0
 11
153.9587616762
 21
64.8071244782
 31
0.0
  0
ARC
  5
18A
330
1F
100
AcDbEntity
  8
0
  6
Continuous
 62
     7
370
    25
100
AcDbCircle
 10
154.1587616762
 20
64.3507732382
 30
0.0
 40
0.5000000000000135
100
AcDbArc
 50
113.6449780875
 51
180.007858636
  0
ARC
  5
18B
330
1F
100
AcDbEntity
  8
0
  6
Continuous
 62
     7
370
    25
100
AcDbCircle
 10
154.1587608529
 20
63.2672887956
 30
0.0
 40
0.499999176726029
100
AcDbArc
 50
179.9967097898
 51
199.4862842156
  0
ARC
  5
18C
330
1F
100
AcDbEntity
  8
0
  6
Continuous
 62
     7
370
    25
100
AcDbCircle
 10
165.1087616762
 20
81.9090308079
 30
0.0
 40
0.25
100
AcDbArc
 50
0.0
 51
90.0
  0
ARC
  5
18D
330
1F
100
AcDbEntity
  8
0
  6
Continuous
 62
     7
370
    25
100
AcDbCircle
 10
154.6087616762
 20
81.9090308079
 30
0.0
 40
0.25
100
AcDbArc
 50
90.0
 51
180.0
  0
LINE
  5
18E
330
1F
100
AcDbEntity
  8
0
  6
Continuous
 62
     7
370
    25
100
AcDbLine
 10
165.3587616762
 20
81.3090308079
 30
0.0
 11
165.3587616762
 21
81.9090308079
 31
0.0
  0
LINE
  5
18F
330
1F
100
AcDbEntity
  8
0
  6
Continuous
 62
     7
370
    25
100
AcDbLine
 10
154.3587616762
 20
81.9090308079
 30
0.0
 11
154.3587616762
 21
81.3090308079
 31
0.0
  0
LINE
  5
190
330
1F
100
AcDbEntity
  8
0
  6
Continuous
 62
     7
370
    25
100
AcDbLine
 10
167.3087616762
 20
73.3090308079
 30
0.0
 11
165.3587616762
 21
81.3090308078
 31
0.0
  0
LINE
  5
191
330
1F
100
AcDbEntity
  8
0
  6
Continuous
 62
     7
370
    25
100
AcDbLine
 10
154.3587616762
 20
81.3090308078
 30
0.0
 11
152.4087616762
 21
73.3090308079
 31
0.0
  0
LINE
  5
192
330
1F
100
AcDbEntity
  8
0
  6
Continuous
 62
     7
370
    25
100
AcDbLine
 10
152.4087616762
 20
73.3090308079
 30
0.0
 11
152.8587616762
 21
65.3090308079
 31
0.0
  0
LINE
  5
193
330
1F
100
AcDbEntity
  8
0
  6
Continuous
 62
     7
370
    25
100
AcDbLine
 10
166.8587616762
 20
65.3090308079
 30
0.0
 11
167.3087616762
 21
73.3090308079
 31
0.0
  0
SPLINE
  5
194
330
1F
100
AcDbEntity
  8
0
  6
Continuous
 62
     7
370
    25
100
AcDbSpline
210
0.0
220
0.0
230
1.0
 70
    24
 71
     3
 72
     9
 73
     5
 74
     0
 42
0.00000001
 43
0.00000001
 40
0.0
 40
0.0
 40
0.0
 40
0.0
 40
0.0686362808717533
 40
0.9999999999999999
 40
0.9999999999999999
 40
0.9999999999999999
 40
0.9999999999999999
 10
169.4971393767588
 20
59.94601677007446
 30
0.0
 10
169.5286851220077
 20
59.92780382556324
 30
0.0
 10
169.9882925606423
 20
59.66244934714602
 30
0.0
 10
170.4389943662925
 20
59.40223653832962
 30
0.0
 10
170.8587616762207
 20
59.15988376894557
 30
0.0
  0
SPLINE
  5
195
330
1F
100
AcDbEntity
  8
0
  6
Continuous
 62
     7
370
    25
100
AcDbSpline
210
0.0
220
0.0
230
1.0
 70
    24
 71
     3
 72
     9
 73
     5
 74
     0
 42
0.00000001
 43
0.00000001
 40
0.0
 40
0.0
 40
0.0
 40
0.0
 40
0.7581276367188945
 40
0.9999999999999999
 40
0.9999999999999999
 40
0.9999999999999999
 40
0.9999999999999999
 10
170.8587616762207
 20
59.15988376894557
 30
0.0
 10
170.8587616762207
 20
58.76949834893267
 30
0.0
 10
170.8587616762207
 20
58.25456471361178
 30
0.0
 10
170.8587616762207
 20
57.73135809100737
 30
0.0
 10
170.8587616762207
 20
57.60480886871372
 30
0.0
  0
SPLINE
  5
196
330
1F
100
AcDbEntity
  8
0
  6
Continuous
 62
     7
370
    25
100
AcDbSpline
210
0.0
220
0.0
230
1.0
 70
    24
 71
     3
 72
     9
 73
     5
 74
     0
 42
0.00000001
 43
0.00000001
 40
0.0
 40
0.0
 40
0.0
 40
0.0
 40
0.1051240160473883
 40
1.0
 40
1.0
 40
1.0
 40
1.0
 10
170.8587616762206
 20
48.01325259107123
 30
0.0
 10
170.8587616762206
 20
47.95806482127183
 30
0.0
 10
170.8587616762206
 20
47.43308706762017
 30
0.0
 10
170.8587616762206
 20
46.91858942814257
 30
0.0
 10
170.8587616762206
 20
46.45817784677376
 30
0.0
  0
LINE
  5
197
330
1F
100
AcDbEntity
  8
0
  6
Continuous
 62
     7
370
    25
100
AcDbLine
 10
170.8587616762
 20
46.4581778468
 30
0.0
 11
169.4756372017
 21
45.6596305591
 31
0.0
  0
SPLINE
  5
198
330
1F
100
AcDbEntity
  8
0
  6
Continuous
 62
     7
370
    25
100
AcDbSpline
210
0.0
220
0.0
230
1.0
 70
    24
 71
     3
 72
     9
 73
     5
 74
     0
 42
0.00000001
 43
0.00000001
 40
0.0
 40
0.0
 40
0.0
 40
0.0
 40
0.0761677509244529
 40
1.0
 40
1.0
 40
1.0
 40
1.0
 10
161.2316197334546
 20
40.89994485459111
 30
0.0
 10
161.1963253577567
 20
40.87956763728108
 30
0.0
 10
160.7329484657063
 20
40.61203686391951
 30
0.0
 10
160.2785498091156
 20
40.3496896772175
 30
0.0
 10
159.8587616762206
 20
40.10732488568792
 30
0.0
  0
LINE
  5
199
330
1F
100
AcDbEntity
  8
0
  6
Continuous
 62
     7
370
    25
100
AcDbLine
 10
159.8587616762
 20
40.1073248857
 30
0.0
 11
158.4724250528
 21
40.9077267084
 31
0.0
  0
SPLINE
  5
19A
330
1F
100
AcDbEntity
  8
0
  6
Continuous
 62
     7
370
    25
100
AcDbSpline
210
0.0
220
0.0
230
1.0
 70
    24
 71
     3
 72
     9
 73
     5
 74
     0
 42
0.00000001
 43
0.00000001
 40
0.0
 40
0.0
 40
0.0
 40
0.0
 40
0.0914403732972186
 40
0.9999999999999999
 40
0.9999999999999999
 40
0.9999999999999999
 40
0.9999999999999999
 10
150.2549759293812
 20
45.65207317186525
 30
0.0
 10
150.21188807353
 20
45.67694995703975
 30
0.0
 10
149.7406754756641
 20
45.94900467726317
 30
0.0
 10
149.2785920347778
 20
46.21578867624694
 30
0.0
 10
148.8587616762206
 20
46.45817784677392
 30
0.0
  0
SPLINE
  5
19B
330
1F
100
AcDbEntity
  8
0
  6
Continuous
 62
     7
370
    25
100
AcDbSpline
210
0.0
220
0.0
230
1.0
 70
    24
 71
     3
 72
     9
 73
     5
 74
     0
 42
0.00000001
 43
0.00000001
 40
0.0
 40
0.0
 40
0.0
 40
0.0
 40
0.8948590373208237
 40
1.0
 40
1.0
 40
1.0
 40
1.0
 10
148.8587616762206
 20
46.45817784677392
 30
0.0
 10
148.8587616762206
 20
46.91862711638221
 30
0.0
 10
148.8587616762206
 20
47.43317661569425
 30
0.0
 10
148.8587616762206
 20
47.95806543160165
 30
0.0
 10
148.8587616762206
 20
48.01325274700569
 30
0.0
  0
SPLINE
  5
19C
330
1F
100
AcDbEntity
  8
0
  6
Continuous
 62
     7
370
    25
100
AcDbSpline
210
0.0
220
0.0
230
1.0
 70
    24
 71
     3
 72
     9
 73
     5
 74
     0
 42
0.00000001
 43
0.00000001
 40
0.0
 40
0.0
 40
0.0
 40
0.0
 40
0.2341743070089402
 40
1.0
 40
1.0
 40
1.0
 40
1.0
 10
148.8587616762207
 20
57.60480902464835
 30
0.0
 10
148.8587616762207
 20
57.72734673315752
 30
0.0
 10
148.8587616762207
 20
58.2506223652041
 30
0.0
 10
148.8587616762207
 20
58.76554374580847
 30
0.0
 10
148.8587616762207
 20
59.15988376894573
 30
0.0
  0
LINE
  5
19D
330
1F
100
AcDbEntity
  8
0
  6
Continuous
 62
     7
370
    25
100
AcDbLine
 10
148.8587616762
 20
59.1598837689
 30
0.0
 11
150.2418861507
 21
59.9584310566
 31
0.0
  0
CIRCLE
  5
19E
330
1F
100
AcDbEntity
  8
0
  6
Continuous
 62
     7
370
    25
100
AcDbCircle
 10
159.8587616762
 20
52.8090308079
 30
0.0
 40
10.25
  0
CIRCLE
  5
19F
330
1F
100
AcDbEntity
  8
0
  6
Continuous
 62
     7
370
    25
100
AcDbCircle
 10
159.8587616762
 20
52.8090308079
 30
0.0
 40
10.74999999999997
  0
CIRCLE
  5
1A0
330
1F
100
AcDbEntity
  8
0
  6
Continuous
 62
     7
370
    25
100
AcDbCircle
 10
159.8587616762
 20
52.8090308079
 30
0.0
 40
8.500000000000028
  0
CIRCLE
  5
1A1
330
1F
100
AcDbEntity
  8
0
  6
Continuous
 62
     7
370
    25
100
AcDbCircle
 10
159.8587616762
 20
52.8090308079
 30
0.0
 40
7.92167730083861
  0
CIRCLE
  5
1A2
330
1F
100
AcDbEntity
  8
0
  6
Continuous
 62
     7
370
    25
100
AcDbCircle
 10
159.8587616762
 20
52.8090308079
 30
0.0
 40
7.547130426150943
  0
CIRCLE
  5
1A3
330
1F
100
AcDbEntity
  8
0
  6
Continuous
 62
     7
370
    25
100
AcDbCircle
 10
159.8587616762
 20
52.8090308079
 30
0.0
 40
7.150000000000034
  0
CIRCLE
  5
1A4
330
1F
100
AcDbEntity
  8
0
  6
Continuous
 62
     7
370
    25
100
AcDbCircle
 10
159.8587616762
 20
52.8090308079
 30
0.0
 40
4.000000000000028
  0
CIRCLE
  5
1A5
330
1F
100
AcDbEntity
  8
0
  6
Continuous
 62
     7
370
    25
100
AcDbCircle
 10
159.8587616762
 20
52.8090308079
 30
0.0
 40
11.75
  0
CIRCLE
  5
1A6
330
1F
100
AcDbEntity
  8
0
  6
Continuous
 62
     7
370
    25
100
AcDbCircle
 10
159.8587616762
 20
52.8090308079
 30
0.0
 40
12.00000000000003
  0
SPLINE
  5
1A7
330
1F
100
AcDbEntity
  8
0
  6
Continuous
 62
     7
370
    25
100
AcDbSpline
210
0.0
220
0.0
230
1.0
 70
     8
 71
     3
 72
    15
 73
    11
 74
     0
 42
0.00000001
 43
0.00000001
 40
0.0
 40
0.0
 40
0.0
 40
0.0
 40
0.0619773224453908
 40
0.2185028737712716
 40
0.3730927331502893
 40
0.5266869876582903
 40
0.6817558009549681
 40
0.8384811386817133
 40
0.9944801571009444
 40
1.0
 40
1.0
 40
1.0
 40
1.0
 10
154.0166708957946
 20
63.25905582642241
 30
0.0
 10
154.0203837614692
 20
63.29406555610583
 30
0.0
 10
154.0334735786447
 20
63.41749338815725
 30
0.0
 10
154.04592669543
 20
63.68888546542378
 30
0.0
 10
154.0432517628496
 20
64.02597662996375
 30
0.0
 10
154.0223142822708
 20
64.34020873544301
 30
0.0
 10
153.9919357304974
 20
64.5989254307033
 30
0.0
 10
153.9675117193013
 20
64.75827243944751
 30
0.0
 10
153.9559091281892
 20
64.82628089383884
 30
0.0
 10
153.9589723138193
 20
64.807757507549
 30
0.0
 10
153.9590769969709
 20
64.8071244781836
 30
0.0
  0
SPLINE
  5
1A8
330
1F
100
AcDbEntity
  8
0
  6
Continuous
 62
     7
370
    25
100
AcDbSpline
210
0.0
220
0.0
230
1.0
 70
    24
 71
     3
 72
    14
 73
    10
 74
     0
 42
0.00000001
 43
0.00000001
 40
0.0
 40
0.0
 40
0.0
 40
0.0
 40
0.0686782875714469
 40
0.2932169091379507
 40
0.2935197863693114
 40
0.5073359099559545
 40
0.7069537562192961
 40
0.9001971037285263
 40
1.0
 40
1.0
 40
1.0
 40
1.0
 10
153.6587616762207
 20
63.80903080786056
 30
0.0
 10
153.6587616762206
 20
63.82788290908815
 30
0.0
 10
153.6587616762206
 20
63.90837057190247
 30
0.0
 10
153.6587616762209
 20
63.98805957824555
 30
0.0
 10
153.6587616762204
 20
64.09727130102179
 30
0.0
 10
153.6587616762208
 20
64.1939673815321
 30
0.0
 10
153.6587616762206
 20
64.29554992382224
 30
0.0
 10
153.6587616762207
 20
64.34910199327655
 30
0.0
 10
153.6587616762207
 20
64.34489519201168
 30
0.0
 10
153.6587616762207
 20
64.34346247973784
 30
0.0
  0
SPLINE
  5
1A9
330
1F
100
AcDbEntity
  8
0
  6
Continuous
 62
     7
370
    25
100
AcDbSpline
210
0.0
220
0.0
230
1.0
 70
    24
 71
     3
 72
    12
 73
     8
 74
     0
 42
0.00000001
 43
0.00000001
 40
0.0
 40
0.0
 40
0.0
 40
0.0
 40
0.1662670804361931
 40
0.3874313601925504
 40
0.6144881535318663
 40
0.8409576182598337
 40
1.0
 40
1.0
 40
1.0
 40
1.0
 10
153.6587616762207
 20
63.27202335192072
 30
0.0
 10
153.6587616762206
 20
63.27398615464961
 30
0.0
 10
153.6587616762207
 20
63.27855982809745
 30
0.0
 10
153.6587616762206
 20
63.36325306292606
 30
0.0
 10
153.6587616762207
 20
63.50097106211477
 30
0.0
 10
153.6587616762207
 20
63.65919598557143
 30
0.0
 10
153.6587616762207
 20
63.76527008437323
 30
0.0
 10
153.6587616762207
 20
63.80903080786056
 30
0.0
  0
SPLINE
  5
1AA
330
1F
100
AcDbEntity
  8
0
  6
Continuous
 62
     7
370
    25
100
AcDbSpline
210
0.0
220
0.0
230
1.0
 70
     8
 71
     3
 72
    13
 73
     9
 74
     0
 42
0.00000001
 43
0.00000001
 40
0.0
 40
0.0
 40
0.0
 40
0.0
 40
0.249182465287388
 40
0.498773852101548
 40
0.6338602399676625
 40
0.7494868859159841
 40
0.8759187542423453
 40
1.0
 40
1.0
 40
1.0
 40
1.0
 10
148.9674234337282
 20
47.7712980551601
 30
0.0
 10
148.9575642880745
 20
47.79270354986333
 30
0.0
 10
148.9378298173907
 20
47.83554966681204
 30
0.0
 10
148.9102802529171
 20
47.89658389043312
 30
0.0
 10
148.8869813169596
 20
47.94891767488052
 30
0.0
 10
148.8686513296466
 20
47.99050984676104
 30
0.0
 10
148.8503064607904
 20
48.03256280280599
 30
0.0
 10
148.8402547004842
 20
48.05588159984293
 30
0.0
 10
148.8352759793285
 20
48.06743159552476
 30
0.0
  0
SPLINE
  5
1AB
330
1F
100
AcDbEntity
  8
0
  6
Continuous
 62
     7
370
    25
100
AcDbSpline
210
0.0
220
0.0
230
1.0
 70
     8
 71
     3
 72
    13
 73
     9
 74
     0
 42
0.00000001
 43
0.00000001
 40
0.0
 40
0.0
 40
0.0
 40
0.0
 40
0.2491824652871812
 40
0.498773852101127
 40
0.6338602399483602
 40
0.7494868859161712
 40
0.8759187542426342
 40
1.0
 40
1.0
 40
1.0
 40
1.0
 10
170.7500999187131
 20
57.84676356055926
 30
0.0
 10
170.7599590643668
 20
57.82535806585608
 30
0.0
 10
170.7796935350506
 20
57.78251194890746
 30
0.0
 10
170.8072430995236
 20
57.72147772528761
 30
0.0
 10
170.8305420354805
 20
57.66914394084156
 30
0.0
 10
170.8488720227938
 20
57.62755176896042
 30
0.0
 10
170.8672168916509
 20
57.58549881291339
 30
0.0
 10
170.8772686519571
 20
57.56218001587644
 30
0.0
 10
170.8822473731128
 20
57.55063002019462
 30
0.0
  0
SPLINE
  5
1AC
330
1F
100
AcDbEntity
  8
0
  6
Continuous
 62
     7
370
    25
100
AcDbSpline
210
0.0
220
0.0
230
1.0
 70
     8
 71
     3
 72
    13
 73
     9
 74
     0
 42
0.00000001
 43
0.00000001
 40
0.0
 40
0.0
 40
0.0
 40
0.0
 40
0.1266963143627904
 40
0.2513113397887914
 40
0.5007108425293433
 40
0.7510525732451319
 40
0.8768673774687907
 40
1.0
 40
1.0
 40
1.0
 40
1.0
 10
170.519087735103
 20
58.31879017813301
 30
0.0
 10
170.5299918605427
 20
58.29760314068807
 30
0.0
 10
170.5516209851726
 20
58.2555771133863
 30
0.0
 10
170.593881401511
 20
58.17193605942008
 30
0.0
 10
170.6450437612515
 20
58.06853714291199
 30
0.0
 10
170.6925382914059
 20
57.96966942288983
 30
0.0
 10
170.7271018275376
 20
57.89632242349863
 30
0.0
 10
170.7424891497788
 20
57.86316409796043
 30
0.0
 10
170.750099918711
 20
57.84676356056389
 30
0.0
  0
SPLINE
  5
1AD
330
1F
100
AcDbEntity
  8
0
  6
Continuous
 62
     7
370
    25
100
AcDbSpline
210
0.0
220
0.0
230
1.0
 70
     8
 71
     3
 72
    13
 73
     9
 74
     0
 42
0.00000001
 43
0.00000001
 40
0.0
 40
0.0
 40
0.0
 40
0.0
 40
0.126696314384486
 40
0.2513113397888735
 40
0.5007108425294119
 40
0.7510525732451946
 40
0.876867377471871
 40
1.0
 40
1.0
 40
1.0
 40
1.0
 10
149.1984356173384
 20
47.29927143758633
 30
0.0
 10
149.1875314918967
 20
47.32045847503493
 30
0.0
 10
149.1659023672669
 20
47.36248450233676
 30
0.0
 10
149.1236419509286
 20
47.44612555630279
 30
0.0
 10
149.0724795911898
 20
47.54952447280736
 30
0.0
 10
149.0249850610352
 20
47.64839219283008
 30
0.0
 10
148.9904215249036
 20
47.72173919222102
 30
0.0
 10
148.9750342026624
 20
47.7548975177593
 30
0.0
 10
148.9674234337304
 20
47.77129805515546
 30
0.0
  0
SPLINE
  5
1AE
330
1F
100
AcDbEntity
  8
0
  6
Continuous
 62
     7
370
    25
100
AcDbSpline
210
0.0
220
0.0
230
1.0
 70
     8
 71
     3
 72
    13
 73
     9
 74
     0
 42
0.00000001
 43
0.00000001
 40
0.0
 40
0.0
 40
0.0
 40
0.0
 40
0.1234092039680328
 40
0.2495635406296307
 40
0.5004511475232674
 40
0.7494830036087197
 40
0.8735723370995275
 40
1.0
 40
1.0
 40
1.0
 40
1.0
 10
170.750099918711
 20
47.77129805515553
 30
0.0
 10
170.7424713132137
 20
47.754859205328
 30
0.0
 10
170.7270444103835
 20
47.72161583745166
 30
0.0
 10
170.692391175641
 20
47.64808187301082
 30
0.0
 10
170.6448389485072
 20
47.54910371758778
 30
0.0
 10
170.593695367775
 20
47.44575464913704
 30
0.0
 10
170.5515295549469
 20
47.36230623921659
 30
0.0
 10
170.5299687579803
 20
47.32041338097625
 30
0.0
 10
170.5190877350954
 20
47.29927143757184
 30
0.0
  0
SPLINE
  5
1AF
330
1F
100
AcDbEntity
  8
0
  6
Continuous
 62
     7
370
    25
100
AcDbSpline
210
0.0
220
0.0
230
1.0
 70
     8
 71
     3
 72
    13
 73
     9
 74
     0
 42
0.00000001
 43
0.00000001
 40
0.0
 40
0.0
 40
0.0
 40
0.0
 40
0.123409203972734
 40
0.2495635406297123
 40
0.5004511475233475
 40
0.749483003608821
 40
0.8735723371285005
 40
1.0
 40
1.0
 40
1.0
 40
1.0
 10
148.9674234337304
 20
57.84676356056389
 30
0.0
 10
148.9750520392279
 20
57.86320241039198
 30
0.0
 10
148.990478942058
 20
57.8964457782682
 30
0.0
 10
149.0251321768008
 20
57.96997974270952
 30
0.0
 10
149.0726844039342
 20
58.06895789813173
 30
0.0
 10
149.1238279846687
 20
58.17230696658722
 30
0.0
 10
149.165993797497
 20
58.25575537650799
 30
0.0
 10
149.1875545944637
 20
58.29764823474827
 30
0.0
 10
149.198435617346
 20
58.31879017814781
 30
0.0
  0
LINE
  5
1B0
330
1F
100
AcDbEntity
  8
0
  6
Continuous
 62
     7
370
    25
100
AcDbLine
 10
158.3587616762
 20
81.3090308079
 30
0.0
 11
158.3587616762
 21
81.9090308079
 31
0.0
  0
LINE
  5
1B1
330
1F
100
AcDbEntity
  8
0
  6
Continuous
 62
     7
370
    25
100
AcDbLine
 10
158.3587616762
 20
81.9090308079
 30
0.0
 11
158.6087616762
 21
81.9090308079
 31
0.0
  0
LINE
  5
1B2
330
1F
100
AcDbEntity
  8
0
  6
Continuous
 62
     7
370
    25
100
AcDbLine
 10
158.6087616762
 20
81.9090308079
 30
0.0
 11
158.6087616762
 21
81.3090308079
 31
0.0
  0
LINE
  5
1B3
330
1F
100
AcDbEntity
  8
0
  6
Continuous
 62
     7
370
    25
100
AcDbLine
 10
158.6087616762
 20
81.3090308079
 30
0.0
 11
158.3587616762
 21
81.3090308079
 31
0.0
  0
LINE
  5
1B4
330
1F
100
AcDbEntity
  8
0
  6
Continuous
 62
     7
370
    25
100
AcDbLine
 10
161.1087616762
 20
81.9090308079
 30
0.0
 11
161.1087616762
 21
82.1590308079
 31
0.0
  0
LINE
  5
1B5
330
1F
100
AcDbEntity
  8
0
  6
Continuous
 62
     7
370
    25
100
AcDbLine
 10
161.1087616762
 20
81.9090308079
 30
0.0
 11
158.6087616762
 21
81.9090308079
 31
0.0
  0
LINE
  5
1B6
330
1F
100
AcDbEntity
  8
0
  6
Continuous
 62
     7
370
    25
100
AcDbLine
 10
158.6087616762
 20
82.1590308079
 30
0.0
 11
158.6087616762
 21
81.9090308079
 31
0.0
  0
LINE
  5
1B7
330
1F
100
AcDbEntity
  8
0
  6
Continuous
 62
     7
370
    25
100
AcDbLine
 10
158.6087616762
 20
82.1590308079
 30
0.0
 11
161.1087616762
 21
82.1590308079
 31
0.0
  0
ARC
  5
1B8
330
1F
100
AcDbEntity
  8
0
  6
Continuous
 62
     7
370
    25
100
AcDbCircle
 10
161.1087616762
 20
81.9090308079
 30
0.0
 40
0.25
100
AcDbArc
 50
0.0
 51
90.0
  0
LINE
  5
1B9
330
1F
100
AcDbEntity
  8
0
  6
Continuous
 62
     7
370
    25
100
AcDbLine
 10
161.1087616762
 20
81.9090308079
 30
0.0
 11
161.3587616762
 21
81.9090308079
 31
0.0
  0
LINE
  5
1BA
330
1F
100
AcDbEntity
  8
0
  6
Continuous
 62
     7
370
    25
100
AcDbLine
 10
161.1087616762
 20
81.3090308079
 30
0.0
 11
161.1087616762
 21
81.9090308079
 31
0.0
  0
LINE
  5
1BB
330
1F
100
AcDbEntity
  8
0
  6
Continuous
 62
     7
370
    25
100
AcDbLine
 10
161.3587616762
 20
81.9090308079
 30
0.0
 11
161.3587616762
 21
81.3090308079
 31
0.0
  0
LINE
  5
1BC
330
1F
100
AcDbEntity
  8
0
  6
Continuous
 62
     7
370
    25
100
AcDbLine
 10
161.3587616762
 20
81.3090308079
 30
0.0
 11
161.1087616762
 21
81.3090308079
 31
0.0
  0
ARC
  5
1BD
330
1F
100
AcDbEntity
  8
0
  6
Continuous
 62
     7
370
    25
100
AcDbCircle
 10
158.6087616762
 20
81.9090308079
 30
0.0
 40
0.25
100
AcDbArc
 50
90.0
 51
180.0
  0
LINE
  5
1BE
330
1F
100
AcDbEntity
  8
0
  6
Continuous
 62
     7
370
    25
100
AcDbLine
 10
161.1087616762
 20
81.3090308079
 30
0.0
 11
158.6087616762
 21
81.3090308079
 31
0.0
  0
SPLINE
  5
1BF
330
1F
100
AcDbEntity
  8
0
  6
Continuous
 62
     7
370
    25
100
AcDbSpline
210
0.0
220
0.0
230
1.0
 70
     8
 71
     3
 72
    15
 73
    11
 74
     0
 42
0.00000001
 43
0.00000001
 40
0.0
 40
0.0
 40
0.0
 40
0.0
 40
0.0081667445812973
 40
0.3321939991490809
 40
0.4756279600585568
 40
0.6866830973284904
 40
0.8457435502264812
 40
0.8967566214763185
 40
0.9909540928118029
 40
1.0
 40
1.0
 40
1.0
 40
1.0
 10
161.1087616762207
 20
82.15903080785972
 30
0.0
 10
161.1101991391597
 20
82.15902813151394
 30
0.0
 10
161.1686699971117
 20
82.15891926732718
 30
0.0
 10
161.2530951748309
 20
82.1493732550577
 30
0.0
 10
161.3676742468534
 20
82.11201087180314
 30
0.0
 10
161.4490451340499
 20
82.06714535706848
 30
0.0
 10
161.5020641260516
 20
82.00926905749157
 30
0.0
 10
161.5262660578957
 20
81.95859301751963
 30
0.0
 10
161.5324556785619
 20
81.92989873799964
 30
0.0
 10
161.5326570739745
 20
81.91071190644412
 30
0.0
 10
161.5326747196989
 20
81.90903080785972
 30
0.0
  0
LINE
  5
1C0
330
1F
100
AcDbEntity
  8
0
  6
Continuous
 62
     7
370
    25
100
AcDbLine
 10
161.3587616762
 20
81.9090308079
 30
0.0
 11
161.5326747197
 21
81.9090308079
 31
0.0
  0
LINE
  5
1C1
330
1F
100
AcDbEntity
  8
0
  6
Continuous
 62
     7
370
    25
100
AcDbLine
 10
158.1848486327
 20
81.9090308079
 30
0.0
 11
158.3587616762
 21
81.9090308079
 31
0.0
  0
SPLINE
  5
1C2
330
1F
100
AcDbEntity
  8
0
  6
Continuous
 62
     7
370
    25
100
AcDbSpline
210
0.0
220
0.0
230
1.0
 70
     8
 71
     3
 72
    15
 73
    11
 74
     0
 42
0.00000001
 43
0.00000001
 40
0.0
 40
0.0
 40
0.0
 40
0.0
 40
0.0090459071881971
 40
0.1032433785236875
 40
0.1542564497735191
 40
0.3133169026715104
 40
0.5243720399414422
 40
0.6678060008509901
 40
0.9918332554187291
 40
1.0
 40
1.0
 40
1.0
 40
1.0
 10
158.1848486327424
 20
81.90903080785972
 30
0.0
 10
158.1848662784669
 20
81.91071190644413
 30
0.0
 10
158.1850676738794
 20
81.9298987379996
 30
0.0
 10
158.1912572945456
 20
81.95859301751965
 30
0.0
 10
158.2154592263898
 20
82.00926905749157
 30
0.0
 10
158.2684782183914
 20
82.06714535706847
 30
0.0
 10
158.349849105588
 20
82.11201087180315
 30
0.0
 10
158.4644281776104
 20
82.1493732550577
 30
0.0
 10
158.5488533553299
 20
82.15891926732718
 30
0.0
 10
158.6073242132817
 20
82.15902813151394
 30
0.0
 10
158.6087616762207
 20
82.15903080785972
 30
0.0
  0
LINE
  5
1C3
330
1F
100
AcDbEntity
  8
0
  6
Continuous
 62
     7
370
    25
100
AcDbLine
 10
161.5326747197
 20
81.9090308079
 30
0.0
 11
161.5326747197
 21
81.3090308079
 31
0.0
  0
LINE
  5
1C4
330
1F
100
AcDbEntity
  8
0
  6
Continuous
 62
     7
370
    25
100
AcDbLine
 10
161.5326747197
 20
81.3090308079
 30
0.0
 11
161.3587616762
 21
81.3090308079
 31
0.0
  0
LINE
  5
1C5
330
1F
100
AcDbEntity
  8
0
  6
Continuous
 62
     7
370
    25
100
AcDbLine
 10
158.1848486327
 20
81.3090308079
 30
0.0
 11
158.1848486327
 21
81.9090308079
 31
0.0
  0
LINE
  5
1C6
330
1F
100
AcDbEntity
  8
0
  6
Continuous
 62
     7
370
    25
100
AcDbLine
 10
158.3587616762
 20
81.3090308079
 30
0.0
 11
158.1848486327
 21
81.3090308079
 31
0.0
  0
LINE
  5
1C7
330
1F
100
AcDbEntity
  8
0
  6
Continuous
 62
     7
370
    25
100
AcDbLine
 10
161.1087616762
 20
82.1590308079
 30
0.0
 11
165.1087616762
 21
82.1590308079
 31
0.0
  0
LINE
  5
1C8
330
1F
100
AcDbEntity
  8
0
  6
Continuous
 62
     7
370
    25
100
AcDbLine
 10
154.6087616762
 20
82.1590308079
 30
0.0
 11
158.6087616762
 21
82.1590308079
 31
0.0
  0
LINE
  5
1C9
330
1F
100
AcDbEntity
  8
0
  6
Continuous
 62
     7
370
    25
100
AcDbLine
 10
161.5326747197
 20
81.3090308079
 30
0.0
 11
165.3587616762
 21
81.3090308079
 31
0.0
  0
LINE
  5
1CA
330
1F
100
AcDbEntity
  8
0
  6
Continuous
 62
     7
370
    25
100
AcDbLine
 10
154.3587616762
 20
81.3090308079
 30
0.0
 11
158.1848486327
 21
81.3090308079
 31
0.0
  0
LINE
  5
1CB
330
1F
100
AcDbEntity
  8
0
  6
Continuous
 62
     7
370
    25
100
AcDbLine
 10
159.2587616762
 20
82.1690308079
 30
0.0
 11
160.4587616762
 21
82.1690308079
 31
0.0
  0
LINE
  5
1CC
330
1F
100
AcDbEntity
  8
0
  6
Continuous
 62
     7
370
    25
100
AcDbLine
 10
160.4587616762
 20
82.1590308079
 30
0.0
 11
160.4587616762
 21
82.1690308079
 31
0.0
  0
LINE
  5
1CD
330
1F
100
AcDbEntity
  8
0
  6
Continuous
 62
     7
370
    25
100
AcDbLine
 10
159.2587616762
 20
82.1590308079
 30
0.0
 11
159.2587616762
 21
82.1690308079
 31
0.0
  0
LINE
  5
1CE
330
1F
100
AcDbEntity
  8
0
  6
Continuous
 62
     7
370
    25
100
AcDbLine
 10
152.4087616762
 20
73.3090308078
 30
0.0
 11
167.3087616762
 21
73.3090308078
 31
0.0
  0
LINE
  5
1CF
330
1F
100
AcDbEntity
  8
0
  6
Continuous
 62
     7
370
    25
100
AcDbLine
 10
152.8587616762
 20
65.3090308079
 30
0.0
 11
166.8587616762
 21
65.3090308079
 31
0.0
  0
LINE
  5
1D0
330
1F
100
AcDbEntity
  8
0
  6
Continuous
 62
     7
370
    25
100
AcDbLine
 10
156.3587616762
 20
83.3090308079
 30
0.0
 11
156.3587616762
 21
82.1590308079
 31
0.0
  0
LINE
  5
1D1
330
1F
100
AcDbEntity
  8
0
  6
Continuous
 62
     7
370
    25
100
AcDbLine
 10
156.3587616762
 20
83.3090308079
 30
0.0
 11
156.5870624122
 21
83.3090308079
 31
0.0
  0
LINE
  5
1D2
330
1F
100
AcDbEntity
  8
0
  6
Continuous
 62
     7
370
    25
100
AcDbLine
 10
156.5870624122
 20
83.3090308079
 30
0.0
 11
156.5870624122
 21
82.1590308079
 31
0.0
  0
LINE
  5
1D3
330
1F
100
AcDbEntity
  8
0
  6
Continuous
 62
     7
370
    25
100
AcDbLine
 10
163.1304609403
 20
83.3090308079
 30
0.0
 11
163.1304609403
 21
82.1590308079
 31
0.0
  0
LINE
  5
1D4
330
1F
100
AcDbEntity
  8
0
  6
Continuous
 62
     7
370
    25
100
AcDbLine
 10
163.1304609403
 20
83.3090308079
 30
0.0
 11
163.3587616762
 21
83.3090308079
 31
0.0
  0
LINE
  5
1D5
330
1F
100
AcDbEntity
  8
0
  6
Continuous
 62
     7
370
    25
100
AcDbLine
 10
163.3587616762
 20
82.1590308079
 30
0.0
 11
163.3587616762
 21
83.3090308079
 31
0.0
  0
LINE
  5
1D6
330
1F
100
AcDbEntity
  8
0
  6
Continuous
 62
     7
370
    25
100
AcDbLine
 10
156.5870624122
 20
83.3090308079
 30
0.0
 11
163.1304609403
 21
83.3090308079
 31
0.0
  0
LINE
  5
1D7
330
1F
100
AcDbEntity
  8
0
  6
Continuous
 62
     7
370
    25
100
AcDbLine
 10
165.3587616762
 20
81.9090308079
 30
0.0
 11
161.5326747197
 21
81.9090308079
 31
0.0
  0
LINE
  5
1D8
330
1F
100
AcDbEntity
  8
0
  6
Continuous
 62
     7
370
    25
100
AcDbLine
 10
158.1848486327
 20
81.9090308079
 30
0.0
 11
154.3587616762
 21
81.9090308079
 31
0.0
  0
INSERT
  5
1E4
330
1F
100
AcDbEntity
  8
FORMAT
100
AcDbBlockReference
  2
SW_CENTERMARKSYMBOL_0
 10
159.8587616762
 20
52.8090308079
 30
0.0
  0
LINE
  5
1E5
330
1F
100
AcDbEntity
  8
0
  6
Continuous
 62
     7
370
    25
100
AcDbLine
 10
90.561858507
 20
104.5809015177
 30
0.0
 11
90.7061960743
 21
104.8309015177
 31
0.0
  0
LINE
  5
1E6
330
1F
100
AcDbEntity
  8
0
  6
Continuous
 62
     7
370
    25
100
AcDbLine
 10
90.7061960743
 20
126.3309015177
 30
0.0
 11
90.561858507
 21
126.5809015177
 31
0.0
  0
LINE
  5
1E7
330
1F
100
AcDbEntity
  8
0
  6
Continuous
 62
     7
370
    25
100
AcDbLine
 10
74.8505336416
 20
126.5809015177
 30
0.0
 11
74.7061960743
 21
126.3309015177
 31
0.0
  0
LINE
  5
1E8
330
1F
100
AcDbEntity
  8
0
  6
Continuous
 62
     7
370
    25
100
AcDbLine
 10
74.7061960743
 20
104.8309015177
 30
0.0
 11
74.8505336416
 21
104.5809015177
 31
0.0
  0
LINE
  5
1E9
330
1F
100
AcDbEntity
  8
0
  6
Continuous
 62
     7
370
    25
100
AcDbLine
 10
90.9561960743
 20
103.5809015177
 30
0.0
 11
93.7133028555
 21
103.5809015177
 31
0.0
  0
LINE
  5
1EA
330
1F
100
AcDbEntity
  8
0
  6
Continuous
 62
     7
370
    25
100
AcDbLine
 10
93.7133028555
 20
127.5809015177
 30
0.0
 11
90.9561960743
 21
127.5809015177
 31
0.0
  0
LINE
  5
1EB
330
1F
100
AcDbEntity
  8
0
  6
Continuous
 62
     7
370
    25
100
AcDbLine
 10
115.9561960743
 20
127.5809015177
 30
0.0
 11
113.1990892932
 21
127.5809015177
 31
0.0
  0
LINE
  5
1EC
330
1F
100
AcDbEntity
  8
0
  6
Continuous
 62
     7
370
    25
100
AcDbLine
 10
113.1990892932
 20
103.5809015177
 30
0.0
 11
115.9561960743
 21
103.5809015177
 31
0.0
  0
LINE
  5
1ED
330
1F
100
AcDbEntity
  8
0
  6
Continuous
 62
     7
370
    25
100
AcDbLine
 10
90.9561960743
 20
127.5809015177
 30
0.0
 11
90.7061960743
 21
127.3309015177
 31
0.0
  0
LINE
  5
1EE
330
1F
100
AcDbEntity
  8
0
  6
Continuous
 62
     7
370
    25
100
AcDbLine
 10
90.7061960743
 20
103.8309015177
 30
0.0
 11
90.9561960743
 21
103.5809015177
 31
0.0
  0
LINE
  5
1EF
330
1F
100
AcDbEntity
  8
0
  6
Continuous
 62
     7
370
    25
100
AcDbLine
 10
115.9561960743
 20
103.5809015177
 30
0.0
 11
116.2061960743
 21
103.8309015177
 31
0.0
  0
LINE
  5
1F0
330
1F
100
AcDbEntity
  8
0
  6
Continuous
 62
     7
370
    25
100
AcDbLine
 10
116.2061960743
 20
127.3309015177
 30
0.0
 11
115.9561960743
 21
127.5809015177
 31
0.0
  0
LINE
  5
1F1
330
1F
100
AcDbEntity
  8
0
  6
Continuous
 62
     7
370
    25
100
AcDbLine
 10
129.7061960743
 20
126.3309015177
 30
0.0
 11
116.2061960743
 21
126.3309015177
 31
0.0
  0
LINE
  5
1F2
330
1F
100
AcDbEntity
  8
0
  6
Continuous
 62
     7
370
    25
100
AcDbLine
 10
116.2061960743
 20
104.8309015177
 30
0.0
 11
129.7061960743
 21
104.8309015177
 31
0.0
  0
LINE
  5
1F3
330
1F
100
AcDbEntity
  8
0
  6
Continuous
 62
     7
370
    25
100
AcDbLine
 10
129.7061960743
 20
104.8309015177
 30
0.0
 11
130.2061960743
 21
105.3309015177
 31
0.0
  0
LINE
  5
1F4
330
1F
100
AcDbEntity
  8
0
  6
Continuous
 62
     7
370
    25
100
AcDbLine
 10
130.2061960743
 20
125.8309015177
 30
0.0
 11
129.7061960743
 21
126.3309015177
 31
0.0
  0
LINE
  5
1F5
330
1F
100
AcDbEntity
  8
0
  6
Continuous
 62
     7
370
    25
100
AcDbLine
 10
113.1990892932
 20
127.5809015177
 30
0.0
 11
112.9562300689
 21
127.3380422934
 31
0.0
  0
LINE
  5
1F6
330
1F
100
AcDbEntity
  8
0
  6
Continuous
 62
     7
370
    25
100
AcDbLine
 10
93.7133028555
 20
103.5809015177
 30
0.0
 11
93.9561620798
 21
103.8237607419
 31
0.0
  0
LINE
  5
1F7
330
1F
100
AcDbEntity
  8
0
  6
Continuous
 62
     7
370
    25
100
AcDbLine
 10
112.9562300689
 20
103.8237607419
 30
0.0
 11
113.1990892932
 21
103.5809015177
 31
0.0
  0
LINE
  5
1F8
330
1F
100
AcDbEntity
  8
0
  6
Continuous
 62
     7
370
    25
100
AcDbLine
 10
93.9561620798
 20
127.3380422934
 30
0.0
 11
93.7133028555
 21
127.5809015177
 31
0.0
  0
ARC
  5
1F9
330
1F
100
AcDbEntity
  8
0
  6
Continuous
 62
     7
370
    25
100
AcDbCircle
 10
113.7061960743
 20
127.3309015177
 30
0.0
 40
0.75
100
AcDbArc
 50
179.4544766745
 51
180.0
  0
ARC
  5
1FA
330
1F
100
AcDbEntity
  8
0
  6
Continuous
 62
     7
370
    25
100
AcDbCircle
 10
93.2061960743
 20
103.8309015177
 30
0.0
 40
0.75
100
AcDbArc
 50
359.4544766745
 51
0.0
  0
ARC
  5
1FB
330
1F
100
AcDbEntity
  8
0
  6
Continuous
 62
     7
370
    25
100
AcDbCircle
 10
93.2061960743
 20
127.3309015177
 30
0.0
 40
0.75
100
AcDbArc
 50
0.0
 51
0.5455233255
  0
LINE
  5
1FC
330
1F
100
AcDbEntity
  8
0
  6
Continuous
 62
     7
370
    25
100
AcDbLine
 10
75.8330140139
 20
126.5809015177
 30
0.0
 11
89.5793781348
 21
126.5809015177
 31
0.0
  0
SPLINE
  5
1FD
330
1F
100
AcDbEntity
  8
0
  6
Continuous
 62
     7
370
    25
100
AcDbSpline
210
0.0
220
0.0
230
1.0
 70
     8
 71
     3
 72
    13
 73
     9
 74
     0
 42
0.00000001
 43
0.00000001
 40
0.0
 40
0.0
 40
0.0
 40
0.0
 40
0.0287665419095734
 40
0.2475513776572008
 40
0.4339505514975234
 40
0.6203788015378575
 40
0.8101710512532033
 40
1.0
 40
1.0
 40
1.0
 40
1.0
 10
90.49239849940605
 20
119.7654456928304
 30
0.0
 10
90.50112617632858
 20
119.8311862698054
 30
0.0
 10
90.57623247352315
 20
120.3969188646129
 30
0.0
 10
90.5740293214654
 20
121.3987234050602
 30
0.0
 10
90.48410012575734
 20
122.7573125275753
 30
0.0
 10
90.27798316362438
 20
124.0404445823922
 30
0.0
 10
89.97981508819112
 20
125.317516306872
 30
0.0
 10
89.7128657215083
 20
126.159745973834
 30
0.0
 10
89.57937813480001
 20
126.580901517651
 30
0.0
  0
SPLINE
  5
1FE
330
1F
100
AcDbEntity
  8
0
  6
Continuous
 62
     7
370
    25
100
AcDbSpline
210
0.0
220
0.0
230
1.0
 70
     8
 71
     3
 72
    13
 73
     9
 74
     0
 42
0.00000001
 43
0.00000001
 40
0.0
 40
0.0
 40
0.0
 40
0.0
 40
0.1169059602690502
 40
0.3158360762188408
 40
0.4853195284804662
 40
0.6548294182774897
 40
0.8273980248412324
 40
1.0
 40
1.0
 40
1.0
 40
1.0
 10
75.00725979075874
 20
119.0809015176508
 30
0.0
 10
74.96509012558228
 20
119.3744953109991
 30
0.0
 10
74.85116349982138
 20
120.1676756713495
 30
0.0
 10
74.83413834049276
 20
121.3984049384788
 30
0.0
 10
74.92934574243603
 20
122.7573919631303
 30
0.0
 10
75.13412230864006
 20
124.0404229710423
 30
0.0
 10
75.43264927911659
 20
125.3175217511349
 30
0.0
 10
75.6995505016055
 20
126.1597477887053
 30
0.0
 10
75.83301401388971
 20
126.580901517651
 30
0.0
  0
SPLINE
  5
1FF
330
1F
100
AcDbEntity
  8
0
  6
Continuous
 62
     7
370
    25
100
AcDbSpline
210
0.0
220
0.0
230
1.0
 70
    24
 71
     3
 72
    12
 73
     8
 74
     0
 42
0.00000001
 43
0.00000001
 40
0.0
 40
0.0
 40
0.0
 40
0.0
 40
0.1888059664391003
 40
0.3775936099322536
 40
0.5681827490710655
 40
0.7587511106772515
 40
1.0
 40
1.0
 40
1.0
 40
1.0
 10
89.57937813480001
 20
126.580901517651
 30
0.0
 10
89.68776055267647
 20
126.580901517651
 30
0.0
 10
89.9045148703021
 20
126.580901517651
 30
0.0
 10
90.16832223154722
 20
126.580901517651
 30
0.0
 10
90.37321235891953
 20
126.580901517651
 30
0.0
 10
90.5287430795836
 20
126.580901517651
 30
0.0
 10
90.54795118147923
 20
126.580901517651
 30
0.0
 10
90.55868241845123
 20
126.580901517651
 30
0.0
  0
SPLINE
  5
200
330
1F
100
AcDbEntity
  8
0
  6
Continuous
 62
     7
370
    25
100
AcDbSpline
210
0.0
220
0.0
230
1.0
 70
    24
 71
     3
 72
    12
 73
     8
 74
     0
 42
0.00000001
 43
0.00000001
 40
0.0
 40
0.0
 40
0.0
 40
0.0
 40
0.2412462216089436
 40
0.4298987537810143
 40
0.618571216651596
 40
0.8092760520473766
 40
1.0
 40
1.0
 40
1.0
 40
1.0
 10
90.55695257715116
 20
104.580901517651
 30
0.0
 10
90.54697875479766
 20
104.580901517651
 30
0.0
 10
90.52920548659225
 20
104.580901517651
 30
0.0
 10
90.37465826120784
 20
104.580901517651
 30
0.0
 10
90.17155140601682
 20
104.580901517651
 30
0.0
 10
89.90768494188563
 20
104.580901517651
 30
0.0
 10
89.68881739281893
 20
104.580901517651
 30
0.0
 10
89.57937813480001
 20
104.580901517651
 30
0.0
  0
SPLINE
  5
201
330
1F
100
AcDbEntity
  8
0
  6
Continuous
 62
     7
370
    25
100
AcDbSpline
210
0.0
220
0.0
230
1.0
 70
     8
 71
     3
 72
    12
 73
     8
 74
     0
 42
0.00000001
 43
0.00000001
 40
0.0
 40
0.0
 40
0.0
 40
0.0
 40
0.2140692913741755
 40
0.4280780563293712
 40
0.646874371953293
 40
0.865631205133268
 40
1.0
 40
1.0
 40
1.0
 40
1.0
 10
89.57937813480001
 20
104.580901517651
 30
0.0
 10
89.72887394010608
 20
105.05614455514
 30
0.0
 10
90.02782328194773
 20
106.0064962588635
 30
0.0
 10
90.35062599348527
 20
107.4700321479612
 30
0.0
 10
90.54022043983916
 20
108.9608386994147
 30
0.0
 10
90.58807478059617
 20
110.2789186139071
 30
0.0
 10
90.516964793807
 20
111.0892292819629
 30
0.0
 10
90.48990653898505
 20
111.3975628020662
 30
0.0
  0
SPLINE
  5
202
330
1F
100
AcDbEntity
  8
0
  6
Continuous
 62
     7
370
    25
100
AcDbSpline
210
0.0
220
0.0
230
1.0
 70
    24
 71
     3
 72
    12
 73
     8
 74
     0
 42
0.00000001
 43
0.00000001
 40
0.0
 40
0.0
 40
0.0
 40
0.0
 40
0.2412462216089435
 40
0.4298987537810142
 40
0.618571216651596
 40
0.8092760520473766
 40
1.0
 40
1.0
 40
1.0
 40
1.0
 10
74.85543957153855
 20
104.580901517651
 30
0.0
 10
74.86541339389206
 20
104.580901517651
 30
0.0
 10
74.88318666209747
 20
104.580901517651
 30
0.0
 10
75.03773388748188
 20
104.580901517651
 30
0.0
 10
75.2408407426729
 20
104.580901517651
 30
0.0
 10
75.50470720680408
 20
104.580901517651
 30
0.0
 10
75.72357475587077
 20
104.580901517651
 30
0.0
 10
75.83301401388971
 20
104.580901517651
 30
0.0
  0
SPLINE
  5
203
330
1F
100
AcDbEntity
  8
0
  6
Continuous
 62
     7
370
    25
100
AcDbSpline
210
0.0
220
0.0
230
1.0
 70
    24
 71
     3
 72
    12
 73
     8
 74
     0
 42
0.00000001
 43
0.00000001
 40
0.0
 40
0.0
 40
0.0
 40
0.0
 40
0.1888059664391002
 40
0.3775936099322536
 40
0.5681827490710655
 40
0.7587511106772515
 40
1.0
 40
1.0
 40
1.0
 40
1.0
 10
75.83301401388971
 20
126.580901517651
 30
0.0
 10
75.72463159601325
 20
126.580901517651
 30
0.0
 10
75.50787727838762
 20
126.580901517651
 30
0.0
 10
75.24406991714251
 20
126.580901517651
 30
0.0
 10
75.03917978977019
 20
126.580901517651
 30
0.0
 10
74.88364906910611
 20
126.580901517651
 30
0.0
 10
74.86444096721048
 20
126.580901517651
 30
0.0
 10
74.85370973023849
 20
126.580901517651
 30
0.0
  0
SPLINE
  5
204
330
1F
100
AcDbEntity
  8
0
  6
Continuous
 62
     7
370
    25
100
AcDbSpline
210
0.0
220
0.0
230
1.0
 70
     8
 71
     3
 72
    13
 73
     9
 74
     0
 42
0.00000001
 43
0.00000001
 40
0.0
 40
0.0
 40
0.0
 40
0.0
 40
0.1946881205502827
 40
0.3893211945561538
 40
0.5883083692167719
 40
0.7872596360516697
 40
0.9567611083350918
 40
1.0
 40
1.0
 40
1.0
 40
1.0
 10
75.83301401388971
 20
104.580901517651
 30
0.0
 10
75.6834150523104
 20
105.0561528928189
 30
0.0
 10
75.3842594270889
 20
106.0065212695429
 30
0.0
 10
75.06301503876405
 20
107.4699312060615
 30
0.0
 10
74.86737156539525
 20
108.9612266744145
 30
0.0
 10
74.83674939795463
 20
110.3974189008409
 30
0.0
 10
74.89395624071787
 20
111.4397800549265
 30
0.0
 10
74.98142717594544
 20
111.9726060958035
 30
0.0
 10
74.99920540205137
 20
112.0809015176508
 30
0.0
  0
LINE
  5
205
330
1F
100
AcDbEntity
  8
0
  6
Continuous
 62
     7
370
    25
100
AcDbLine
 10
74.7061960743
 20
104.8309015177
 30
0.0
 11
74.7061960743
 21
112.0809015177
 31
0.0
  0
LINE
  5
206
330
1F
100
AcDbEntity
  8
0
  6
Continuous
 62
     7
370
    25
100
AcDbLine
 10
74.7061960743
 20
119.0809015177
 30
0.0
 11
74.7061960743
 21
126.3309015177
 31
0.0
  0
LINE
  5
207
330
1F
100
AcDbEntity
  8
0
  6
Continuous
 62
     7
370
    25
100
AcDbLine
 10
75.8330140139
 20
104.5809015177
 30
0.0
 11
89.5793781348
 21
104.5809015177
 31
0.0
  0
LINE
  5
208
330
1F
100
AcDbEntity
  8
0
  6
Continuous
 62
     7
370
    25
100
AcDbLine
 10
90.9561960743
 20
127.5809015177
 30
0.0
 11
90.9561960743
 21
119.8050435184
 31
0.0
  0
LINE
  5
209
330
1F
100
AcDbEntity
  8
0
  6
Continuous
 62
     7
370
    25
100
AcDbLine
 10
90.9561960743
 20
111.3567595169
 30
0.0
 11
90.9561960743
 21
103.5809015177
 31
0.0
  0
LINE
  5
20A
330
1F
100
AcDbEntity
  8
0
  6
Continuous
 62
     7
370
    25
100
AcDbLine
 10
93.7133028555
 20
127.2126157438
 30
0.0
 11
93.7133028555
 21
127.5809015177
 31
0.0
  0
SPLINE
  5
20B
330
1F
100
AcDbEntity
  8
0
  6
Continuous
 62
     7
370
    25
100
AcDbSpline
210
0.0
220
0.0
230
1.0
 70
     8
 71
     3
 72
    18
 73
    14
 74
     0
 42
0.00000001
 43
0.00000001
 40
0.0
 40
0.0
 40
0.0
 40
0.0
 40
0.0297375917713251
 40
0.0622585994666694
 40
0.1245690829005809
 40
0.1747355398269535
 40
0.2498061834274977
 40
0.3751803602811958
 40
0.437745418625877
 40
0.5002333231923135
 40
0.74993137206443
 40
0.8691943481444401
 40
1.0
 40
1.0
 40
1.0
 40
1.0
 10
93.97921779292889
 20
126.6043872145431
 30
0.0
 10
93.96733831585189
 20
126.6103429364806
 30
0.0
 10
93.94246745169792
 20
126.6228118313895
 30
0.0
 10
93.9026411335941
 20
126.6501332334084
 30
0.0
 10
93.8663088024325
 20
126.6833149462911
 30
0.0
 10
93.83053664270822
 20
126.7267703133844
 30
0.0
 10
93.79446566833728
 20
126.7846058348856
 30
0.0
 10
93.76957298842636
 20
126.8437097975856
 30
0.0
 10
93.75233736251455
 20
126.8979302659451
 30
0.0
 10
93.73194370372457
 20
126.9769799006669
 30
0.0
 10
93.72012628656026
 20
127.061522042247
 30
0.0
 10
93.71403382893108
 20
127.1507195386805
 30
0.0
 10
93.7135538975605
 20
127.1913584053815
 30
0.0
 10
93.7133028555314
 20
127.2126157437904
 30
0.0
  0
SPLINE
  5
20C
330
1F
100
AcDbEntity
  8
0
  6
Continuous
 62
     7
370
    25
100
AcDbSpline
210
0.0
220
0.0
230
1.0
 70
     8
 71
     3
 72
    13
 73
     9
 74
     0
 42
0.00000001
 43
0.00000001
 40
0.0
 40
0.0
 40
0.0
 40
0.0
 40
0.2491824652871812
 40
0.498773852101127
 40
0.6338602399483602
 40
0.7494868859161712
 40
0.8759187542426342
 40
1.0
 40
1.0
 40
1.0
 40
1.0
 10
93.88490284999796
 20
126.4722397601434
 30
0.0
 10
93.90402843401336
 20
126.4820989057971
 30
0.0
 10
93.94231098813306
 20
126.5018333764809
 30
0.0
 10
93.98156415942897
 20
126.5293829409539
 30
0.0
 10
94.00312889683684
 20
126.5526818769108
 30
0.0
 10
94.01068195599537
 20
126.5710118642241
 30
0.0
 10
94.00555828391485
 20
126.5893567330812
 30
0.0
 10
93.98794286005693
 20
126.5994084933874
 30
0.0
 10
93.97921779292889
 20
126.6043872145431
 30
0.0
  0
SPLINE
  5
20D
330
1F
100
AcDbEntity
  8
0
  6
Continuous
 62
     7
370
    25
100
AcDbSpline
210
0.0
220
0.0
230
1.0
 70
     8
 71
     3
 72
    13
 73
     9
 74
     0
 42
0.00000001
 43
0.00000001
 40
0.0
 40
0.0
 40
0.0
 40
0.0
 40
0.1266963143627904
 40
0.2513113397887914
 40
0.5007108425293433
 40
0.7510525732451319
 40
0.8768673774687907
 40
1.0
 40
1.0
 40
1.0
 40
1.0
 10
93.71330285553148
 20
126.2412275765333
 30
0.0
 10
93.7137553701648
 20
126.2521317019731
 30
0.0
 10
93.71465296580011
 20
126.2737608266029
 30
0.0
 10
93.72454573941722
 20
126.3160212429413
 30
0.0
 10
93.74879999629594
 20
126.3671836026818
 30
0.0
 10
93.79323532578552
 20
126.4146781328362
 30
0.0
 10
93.84107954758564
 20
126.4492416689679
 30
0.0
 10
93.87040038429916
 20
126.4646289912091
 30
0.0
 10
93.8849028500061
 20
126.4722397601413
 30
0.0
  0
LINE
  5
20E
330
1F
100
AcDbEntity
  8
0
  6
Continuous
 62
     7
370
    25
100
AcDbLine
 10
93.7133028555
 20
104.9205754588
 30
0.0
 11
93.7133028555
 21
110.8808377133
 31
0.0
  0
LINE
  5
20F
330
1F
100
AcDbEntity
  8
0
  6
Continuous
 62
     7
370
    25
100
AcDbLine
 10
93.7133028555
 20
120.280965322
 30
0.0
 11
93.7133028555
 21
126.2412275765
 31
0.0
  0
SPLINE
  5
210
330
1F
100
AcDbEntity
  8
0
  6
Continuous
 62
     7
370
    25
100
AcDbSpline
210
0.0
220
0.0
230
1.0
 70
     8
 71
     3
 72
    13
 73
     9
 74
     0
 42
0.00000001
 43
0.00000001
 40
0.0
 40
0.0
 40
0.0
 40
0.0
 40
0.123409203972734
 40
0.2495635406297123
 40
0.5004511475233475
 40
0.749483003608821
 40
0.8735723371285005
 40
1.0
 40
1.0
 40
1.0
 40
1.0
 10
93.88490285000611
 20
104.6895632751607
 30
0.0
 10
93.87036980808813
 20
104.6971918806582
 30
0.0
 10
93.84098044910667
 20
104.7126187834884
 30
0.0
 10
93.7930542325748
 20
104.7472720182311
 30
0.0
 10
93.74865994236302
 20
104.7948242453645
 30
0.0
 10
93.7244845576531
 20
104.845967826099
 30
0.0
 10
93.7146509611303
 20
104.8881336389273
 30
0.0
 10
93.71375501166622
 20
104.909694435894
 30
0.0
 10
93.71330285553141
 20
104.9205754587763
 30
0.0
  0
SPLINE
  5
211
330
1F
100
AcDbEntity
  8
0
  6
Continuous
 62
     7
370
    25
100
AcDbSpline
210
0.0
220
0.0
230
1.0
 70
     8
 71
     3
 72
    14
 73
    10
 74
     0
 42
0.00000001
 43
0.00000001
 40
0.0
 40
0.0
 40
0.0
 40
0.0
 40
0.0833728361874164
 40
0.1651391830231223
 40
0.2505782922901014
 40
0.3661552980483097
 40
0.5013015333863843
 40
0.7511277814203854
 40
1.0
 40
1.0
 40
1.0
 40
1.0
 10
93.97921779292889
 20
104.5574158207588
 30
0.0
 10
93.98533027072018
 20
104.5606517785765
 30
0.0
 10
93.99743744656858
 20
104.5670613413877
 30
0.0
 10
94.00721622174605
 20
104.5787832490545
 30
0.0
 10
94.00997962526053
 20
104.5926325379375
 30
0.0
 10
94.00314392931094
 20
104.6090822659772
 30
0.0
 10
93.9816285918569
 20
104.6323756829345
 30
0.0
 10
93.94232135548955
 20
104.6599659180745
 30
0.0
 10
93.90401792652024
 20
104.6797100799137
 30
0.0
 10
93.88490285000611
 20
104.6895632751607
 30
0.0
  0
SPLINE
  5
212
330
1F
100
AcDbEntity
  8
0
  6
Continuous
 62
     7
370
    25
100
AcDbSpline
210
0.0
220
0.0
230
1.0
 70
     8
 71
     3
 72
    17
 73
    13
 74
     0
 42
0.00000001
 43
0.00000001
 40
0.0
 40
0.0
 40
0.0
 40
0.0
 40
0.1308472312971285
 40
0.2501712416478232
 40
0.5002181447817603
 40
0.5625722445347702
 40
0.6248529024619178
 40
0.7493346422976469
 40
0.8746411565565786
 40
0.9373094462329892
 40
0.9700546542881243
 40
1.0
 40
1.0
 40
1.0
 40
1.0
 10
93.7133028555314
 20
103.9491872915159
 30
0.0
 10
93.7135541533495
 20
103.9704497540448
 30
0.0
 10
93.71403461813702
 20
104.0111021744179
 30
0.0
 10
93.72013429674486
 20
104.1003752426769
 30
0.0
 10
93.73196281201302
 20
104.1849771494964
 30
0.0
 10
93.75238388984657
 20
104.2640139477376
 30
0.0
 10
93.76951442561966
 20
104.3179584351897
 30
0.0
 10
93.79918380935189
 20
104.3879939666068
 30
0.0
 10
93.84722403918767
 20
104.4608128650697
 30
0.0
 10
93.90221918371994
 20
104.5113544823416
 30
0.0
 10
93.94222642027681
 20
104.5388612056389
 30
0.0
 10
93.96726001577497
 20
104.5514178829459
 30
0.0
 10
93.97921779292889
 20
104.5574158207588
 30
0.0
  0
LINE
  5
213
330
1F
100
AcDbEntity
  8
0
  6
Continuous
 62
     7
370
    25
100
AcDbLine
 10
93.7133028555
 20
103.5809015177
 30
0.0
 11
93.7133028555
 21
103.9491872915
 31
0.0
  0
LINE
  5
214
330
1F
100
AcDbEntity
  8
0
  6
Continuous
 62
     7
370
    25
100
AcDbLine
 10
113.1990892932
 20
103.9491872915
 30
0.0
 11
113.1990892932
 21
103.5809015177
 31
0.0
  0
SPLINE
  5
215
330
1F
100
AcDbEntity
  8
0
  6
Continuous
 62
     7
370
    25
100
AcDbSpline
210
0.0
220
0.0
230
1.0
 70
     8
 71
     3
 72
    18
 73
    14
 74
     0
 42
0.00000001
 43
0.00000001
 40
0.0
 40
0.0
 40
0.0
 40
0.0
 40
0.0297375917713645
 40
0.0622585994666687
 40
0.1245690829005805
 40
0.1747355398269501
 40
0.2498061834274973
 40
0.3751803602811927
 40
0.4377454186258706
 40
0.5002333231923095
 40
0.7499313720644251
 40
0.8691943481067804
 40
1.0
 40
1.0
 40
1.0
 40
1.0
 10
112.9331743557608
 20
104.5574158207588
 30
0.0
 10
112.9450538328378
 20
104.5514600988214
 30
0.0
 10
112.9699246969918
 20
104.5389912039124
 30
0.0
 10
113.0097510150956
 20
104.5116698018935
 30
0.0
 10
113.0460833462572
 20
104.4784880890109
 30
0.0
 10
113.0818555059815
 20
104.4350327219175
 30
0.0
 10
113.1179264803524
 20
104.3771972004164
 30
0.0
 10
113.1428191602633
 20
104.3180932377163
 30
0.0
 10
113.1600547861752
 20
104.2638727693568
 30
0.0
 10
113.1804484449652
 20
104.184823134635
 30
0.0
 10
113.1922658621276
 20
104.1002809930623
 30
0.0
 10
113.1983583197598
 20
104.0110834966279
 30
0.0
 10
113.1988382511295
 20
103.9704446299267
 30
0.0
 10
113.1990892931583
 20
103.9491872915115
 30
0.0
  0
SPLINE
  5
216
330
1F
100
AcDbEntity
  8
0
  6
Continuous
 62
     7
370
    25
100
AcDbSpline
210
0.0
220
0.0
230
1.0
 70
     8
 71
     3
 72
    13
 73
     9
 74
     0
 42
0.00000001
 43
0.00000001
 40
0.0
 40
0.0
 40
0.0
 40
0.0
 40
0.2491824652873015
 40
0.4987738521013417
 40
0.6338602399552326
 40
0.7494868859167351
 40
0.8759187542471398
 40
1.0
 40
1.0
 40
1.0
 40
1.0
 10
113.0274892986917
 20
104.6895632751585
 30
0.0
 10
113.0083637146763
 20
104.6797041295048
 30
0.0
 10
112.9700811605565
 20
104.6599696588211
 30
0.0
 10
112.9308279892606
 20
104.6324200943477
 30
0.0
 10
112.909263251852
 20
104.6091211583909
 30
0.0
 10
112.9017101926943
 20
104.5907911710773
 30
0.0
 10
112.9068338647759
 20
104.5724463022206
 30
0.0
 10
112.9244492886333
 20
104.5623945419143
 30
0.0
 10
112.9331743557608
 20
104.5574158207588
 30
0.0
  0
SPLINE
  5
217
330
1F
100
AcDbEntity
  8
0
  6
Continuous
 62
     7
370
    25
100
AcDbSpline
210
0.0
220
0.0
230
1.0
 70
     8
 71
     3
 72
    13
 73
     9
 74
     0
 42
0.00000001
 43
0.00000001
 40
0.0
 40
0.0
 40
0.0
 40
0.0
 40
0.1266963143628506
 40
0.2513113397887842
 40
0.5007108425293414
 40
0.7510525732451352
 40
0.8768673774688646
 40
1.0
 40
1.0
 40
1.0
 40
1.0
 10
113.1990892931582
 20
104.9205754587687
 30
0.0
 10
113.1986367785249
 20
104.9096713333289
 30
0.0
 10
113.1977391828896
 20
104.8880422086991
 30
0.0
 10
113.1878464092725
 20
104.8457817923606
 30
0.0
 10
113.1635921523938
 20
104.7946194326201
 30
0.0
 10
113.1191568229042
 20
104.7471249024657
 30
0.0
 10
113.0713126011041
 20
104.712561366334
 30
0.0
 10
113.0419917643905
 20
104.6971740440928
 30
0.0
 10
113.0274892986836
 20
104.6895632751607
 30
0.0
  0
LINE
  5
218
330
1F
100
AcDbEntity
  8
0
  6
Continuous
 62
     7
370
    25
100
AcDbLine
 10
113.1990892932
 20
126.2412275765
 30
0.0
 11
113.1990892932
 21
104.9205754588
 31
0.0
  0
SPLINE
  5
219
330
1F
100
AcDbEntity
  8
0
  6
Continuous
 62
     7
370
    25
100
AcDbSpline
210
0.0
220
0.0
230
1.0
 70
     8
 71
     3
 72
    13
 73
     9
 74
     0
 42
0.00000001
 43
0.00000001
 40
0.0
 40
0.0
 40
0.0
 40
0.0
 40
0.1234092039900389
 40
0.2495635406298664
 40
0.5004511475234272
 40
0.7494830036088276
 40
0.873572337114055
 40
1.0
 40
1.0
 40
1.0
 40
1.0
 10
113.0274892986836
 20
126.4722397601412
 30
0.0
 10
113.042022340604
 20
126.4646111546428
 30
0.0
 10
113.0714116995863
 20
126.4491842518128
 30
0.0
 10
113.1193379161152
 20
126.4145310170694
 30
0.0
 10
113.1637322063271
 20
126.3669787899375
 30
0.0
 10
113.1879075910355
 20
126.3158352092041
 30
0.0
 10
113.1977411875601
 20
126.273669396376
 30
0.0
 10
113.1986371370237
 20
126.2521085994093
 30
0.0
 10
113.1990892931583
 20
126.2412275765258
 30
0.0
  0
SPLINE
  5
21A
330
1F
100
AcDbEntity
  8
0
  6
Continuous
 62
     7
370
    25
100
AcDbSpline
210
0.0
220
0.0
230
1.0
 70
     8
 71
     3
 72
    14
 73
    10
 74
     0
 42
0.00000001
 43
0.00000001
 40
0.0
 40
0.0
 40
0.0
 40
0.0
 40
0.0833728361833343
 40
0.1651391830190603
 40
0.2505782922894228
 40
0.3661552980481382
 40
0.5013015333862739
 40
0.7511277814203333
 40
1.0
 40
1.0
 40
1.0
 40
1.0
 10
112.9331743557608
 20
126.6043872145431
 30
0.0
 10
112.9270618779699
 20
126.6011512567256
 30
0.0
 10
112.9149547021219
 20
126.5947416939145
 30
0.0
 10
112.9051759269448
 20
126.5830197862477
 30
0.0
 10
112.902412523429
 20
126.5691704973646
 30
0.0
 10
112.9092482193773
 20
126.5527207693246
 30
0.0
 10
112.9307635568336
 20
126.5294273523676
 30
0.0
 10
112.9700707931999
 20
126.5018371172274
 30
0.0
 10
113.0083742221694
 20
126.4820929553882
 30
0.0
 10
113.0274892986836
 20
126.4722397601412
 30
0.0
  0
SPLINE
  5
21B
330
1F
100
AcDbEntity
  8
0
  6
Continuous
 62
     7
370
    25
100
AcDbSpline
210
0.0
220
0.0
230
1.0
 70
     8
 71
     3
 72
    17
 73
    13
 74
     0
 42
0.00000001
 43
0.00000001
 40
0.0
 40
0.0
 40
0.0
 40
0.0
 40
0.1308472312969622
 40
0.2501712416478231
 40
0.5002181447817602
 40
0.5625722445347695
 40
0.6248529024619175
 40
0.7493346422976452
 40
0.8746411565565774
 40
0.9373094462329884
 40
0.9700546542881242
 40
0.9999999999999999
 40
0.9999999999999999
 40
0.9999999999999999
 40
0.9999999999999999
 10
113.1990892931583
 20
127.212615743786
 30
0.0
 10
113.1988379953402
 20
127.1913532812571
 30
0.0
 10
113.1983575305527
 20
127.150700860884
 30
0.0
 10
113.1922578519448
 20
127.061427792625
 30
0.0
 10
113.1804293366767
 20
126.9768258858056
 30
0.0
 10
113.1600082588431
 20
126.8977890875644
 30
0.0
 10
113.14287772307
 20
126.8438446001122
 30
0.0
 10
113.1132083393378
 20
126.7738090686952
 30
0.0
 10
113.065168109502
 20
126.7009901702322
 30
0.0
 10
113.0101729649698
 20
126.6504485529603
 30
0.0
 10
112.9701657284129
 20
126.622941829663
 30
0.0
 10
112.9451321329148
 20
126.610385152356
 30
0.0
 10
112.9331743557608
 20
126.6043872145431
 30
0.0
  0
LINE
  5
21C
330
1F
100
AcDbEntity
  8
0
  6
Continuous
 62
     7
370
    25
100
AcDbLine
 10
113.1990892932
 20
127.5809015177
 30
0.0
 11
113.1990892932
 21
127.2126157438
 31
0.0
  0
LINE
  5
21D
330
1F
100
AcDbEntity
  8
0
  6
Continuous
 62
     7
370
    25
100
AcDbLine
 10
115.9561960743
 20
103.5809015177
 30
0.0
 11
115.9561960743
 21
127.5809015177
 31
0.0
  0
LINE
  5
21E
330
1F
100
AcDbEntity
  8
0
  6
Continuous
 62
     7
370
    25
100
AcDbLine
 10
93.7133028555
 20
126.2412275765
 30
0.0
 11
93.9561620798
 21
126.0254810335
 31
0.0
  0
LINE
  5
21F
330
1F
100
AcDbEntity
  8
0
  6
Continuous
 62
     7
370
    25
100
AcDbLine
 10
93.9561620798
 20
126.0254810335
 30
0.0
 11
93.9561620802
 21
120.3287708697
 31
0.0
  0
LINE
  5
220
330
1F
100
AcDbEntity
  8
0
  6
Continuous
 62
     7
370
    25
100
AcDbLine
 10
93.9561620802
 20
110.8330321656
 30
0.0
 11
93.9561620798
 21
105.1363220019
 31
0.0
  0
LINE
  5
221
330
1F
100
AcDbEntity
  8
0
  6
Continuous
 62
     7
370
    25
100
AcDbLine
 10
93.7133028555
 20
104.9205754588
 30
0.0
 11
93.9561620798
 21
105.1363220019
 31
0.0
  0
LINE
  5
222
330
1F
100
AcDbEntity
  8
0
  6
Continuous
 62
     7
370
    25
100
AcDbLine
 10
112.9562300689
 20
105.1363220019
 30
0.0
 11
112.9562300689
 21
126.0254810334
 31
0.0
  0
LINE
  5
223
330
1F
100
AcDbEntity
  8
0
  6
Continuous
 62
     7
370
    25
100
AcDbLine
 10
112.9562300689
 20
126.0254810334
 30
0.0
 11
113.1990892932
 21
126.2412275765
 31
0.0
  0
LINE
  5
224
330
1F
100
AcDbEntity
  8
0
  6
Continuous
 62
     7
370
    25
100
AcDbLine
 10
112.9562300689
 20
105.1363220019
 30
0.0
 11
113.1990892932
 21
104.9205754588
 31
0.0
  0
LINE
  5
225
330
1F
100
AcDbEntity
  8
0
  6
Continuous
 62
     7
370
    25
100
AcDbLine
 10
90.7061960743
 20
103.8309015177
 30
0.0
 11
90.7061960743
 21
111.3938950724
 31
0.0
  0
LINE
  5
226
330
1F
100
AcDbEntity
  8
0
  6
Continuous
 62
     7
370
    25
100
AcDbLine
 10
90.7061960743
 20
119.7679079629
 30
0.0
 11
90.7061960743
 21
127.3309015177
 31
0.0
  0
LINE
  5
227
330
1F
100
AcDbEntity
  8
0
  6
Continuous
 62
     7
370
    25
100
AcDbLine
 10
116.2061960743
 20
127.3309015177
 30
0.0
 11
116.2061960743
 21
103.8309015177
 31
0.0
  0
LINE
  5
228
330
1F
100
AcDbEntity
  8
0
  6
Continuous
 62
     7
370
    25
100
AcDbLine
 10
93.9561960743
 20
126.0165375788
 30
0.0
 11
93.9561960743
 21
120.3287776286
 31
0.0
  0
LINE
  5
229
330
1F
100
AcDbEntity
  8
0
  6
Continuous
 62
     7
370
    25
100
AcDbLine
 10
93.9561960743
 20
110.8330254067
 30
0.0
 11
93.9561960743
 21
105.1452654565
 31
0.0
  0
SPLINE
  5
22A
330
1F
100
AcDbEntity
  8
0
  6
Continuous
 62
     7
370
    25
100
AcDbSpline
210
0.0
220
0.0
230
1.0
 70
     8
 71
     3
 72
     8
 73
     4
 74
     0
 42
0.00000001
 43
0.00000001
 40
0.0
 40
0.0
 40
0.0
 40
0.0
 40
1.0
 40
1.0
 40
1.0
 40
1.0
 10
93.95616207978884
 20
105.1363220018352
 30
0.0
 10
93.95618473739977
 20
105.1393015803282
 30
0.0
 10
93.95619607434486
 20
105.1422827312013
 30
0.0
 10
93.95619607434486
 20
105.1452654565381
 30
0.0
  0
SPLINE
  5
22B
330
1F
100
AcDbEntity
  8
0
  6
Continuous
 62
     7
370
    25
100
AcDbSpline
210
0.0
220
0.0
230
1.0
 70
     8
 71
     3
 72
     8
 73
     4
 74
     0
 42
0.00000001
 43
0.00000001
 40
0.0
 40
0.0
 40
0.0
 40
0.0
 40
1.0
 40
1.0
 40
1.0
 40
1.0
 10
93.95619607434486
 20
126.0165375787639
 30
0.0
 10
93.95619607434486
 20
126.0195203040953
 30
0.0
 10
93.95618473739981
 20
126.022501454963
 30
0.0
 10
93.95616207978897
 20
126.0254810334507
 30
0.0
  0
LINE
  5
22C
330
1F
100
AcDbEntity
  8
0
  6
Continuous
 62
     7
370
    25
100
AcDbLine
 10
112.9561960743
 20
105.1452654565
 30
0.0
 11
112.9561960743
 21
126.0165375788
 31
0.0
  0
SPLINE
  5
22D
330
1F
100
AcDbEntity
  8
0
  6
Continuous
 62
     7
370
    25
100
AcDbSpline
210
0.0
220
0.0
230
1.0
 70
     8
 71
     3
 72
     8
 73
     4
 74
     0
 42
0.00000001
 43
0.00000001
 40
0.0
 40
0.0
 40
0.0
 40
0.0
 40
1.0
 40
1.0
 40
1.0
 40
1.0
 10
112.9562300689008
 20
126.0254810334508
 30
0.0
 10
112.9562074112899
 20
126.022501454963
 30
0.0
 10
112.9561960743449
 20
126.0195203040953
 30
0.0
 10
112.9561960743449
 20
126.0165375787639
 30
0.0
  0
SPLINE
  5
22E
330
1F
100
AcDbEntity
  8
0
  6
Continuous
 62
     7
370
    25
100
AcDbSpline
210
0.0
220
0.0
230
1.0
 70
     8
 71
     3
 72
     8
 73
     4
 74
     0
 42
0.00000001
 43
0.00000001
 40
0.0
 40
0.0
 40
0.0
 40
0.0
 40
1.0
 40
1.0
 40
1.0
 40
1.0
 10
112.9561960743449
 20
105.1452654565381
 30
0.0
 10
112.9561960743449
 20
105.1422827312066
 30
0.0
 10
112.9562074112899
 20
105.1393015803389
 30
0.0
 10
112.9562300689008
 20
105.1363220018512
 30
0.0
  0
ARC
  5
22F
330
1F
100
AcDbEntity
  8
0
  6
Continuous
 62
     7
370
    25
100
AcDbCircle
 10
94.3333227284
 20
105.543173176
 30
0.0
 40
0.3780249527301864
100
AcDbArc
 50
86.5310565283
 51
176.0493021852
  0
ARC
  5
230
330
1F
100
AcDbEntity
  8
0
  6
Continuous
 62
     7
370
    25
100
AcDbCircle
 10
94.3333227284
 20
125.6186298593
 30
0.0
 40
0.3780249527301702
100
AcDbArc
 50
183.9506978148
 51
273.4689434717
  0
ARC
  5
231
330
1F
100
AcDbEntity
  8
0
  6
Continuous
 62
     7
370
    25
100
AcDbCircle
 10
112.5790694203
 20
125.6186298593
 30
0.0
 40
0.3780249527301761
100
AcDbArc
 50
266.5310565283
 51
356.0493021852
  0
ARC
  5
232
330
1F
100
AcDbEntity
  8
0
  6
Continuous
 62
     7
370
    25
100
AcDbCircle
 10
112.5790694203
 20
105.543173176
 30
0.0
 40
0.3780249527301636
100
AcDbArc
 50
3.9506978148
 51
93.4689434717
  0
LINE
  5
233
330
1F
100
AcDbEntity
  8
0
  6
Continuous
 62
     7
370
    25
100
AcDbLine
 10
112.5561960743
 20
105.9205054897
 30
0.0
 11
112.5561960743
 21
125.2412975456
 31
0.0
  0
LINE
  5
234
330
1F
100
AcDbEntity
  8
0
  6
Continuous
 62
     7
370
    25
100
AcDbLine
 10
112.5561960743
 20
125.2412975456
 30
0.0
 11
94.3561960743
 21
125.2412975456
 31
0.0
  0
LINE
  5
235
330
1F
100
AcDbEntity
  8
0
  6
Continuous
 62
     7
370
    25
100
AcDbLine
 10
94.3561960743
 20
105.9205054897
 30
0.0
 11
112.5561960743
 21
105.9205054897
 31
0.0
  0
LINE
  5
236
330
1F
100
AcDbEntity
  8
0
  6
Continuous
 62
     7
370
    25
100
AcDbLine
 10
129.7061960743
 20
104.8309015177
 30
0.0
 11
129.7061960743
 21
126.3309015177
 31
0.0
  0
LINE
  5
237
330
1F
100
AcDbEntity
  8
0
  6
Continuous
 62
     7
370
    25
100
AcDbLine
 10
130.2061960743
 20
125.8309015177
 30
0.0
 11
130.2061960743
 21
105.3309015177
 31
0.0
  0
SPLINE
  5
238
330
1F
100
AcDbEntity
  8
0
  6
Continuous
 62
     7
370
    25
100
AcDbSpline
210
0.0
220
0.0
230
1.0
 70
     8
 71
     3
 72
    14
 73
    10
 74
     0
 42
0.00000001
 43
0.00000001
 40
0.0
 40
0.0
 40
0.0
 40
0.0
 40
0.1377327108983413
 40
0.2725942884998932
 40
0.4041400602171393
 40
0.5321680644070492
 40
0.7754693061725265
 40
0.8890599100113705
 40
0.9999999999999999
 40
0.9999999999999999
 40
0.9999999999999999
 40
0.9999999999999999
 10
93.95616207978904
 20
105.1363220018607
 30
0.0
 10
93.95629691323909
 20
105.1225923399478
 30
0.0
 10
93.95656376944301
 20
105.0954192203881
 30
0.0
 10
93.95968559168821
 20
105.055728340629
 30
0.0
 10
93.96515185564714
 20
105.0177956667306
 30
0.0
 10
93.97615171235807
 20
104.9709849069267
 30
0.0
 10
93.99421938494206
 20
104.9288858005765
 30
0.0
 10
94.02149283443723
 20
104.8935873927928
 30
0.0
 10
94.03911017888218
 20
104.8795389978971
 30
0.0
 10
94.04781486751413
 20
104.8725977188793
 30
0.0
  0
LINE
  5
239
330
1F
100
AcDbEntity
  8
0
  6
Continuous
 62
     7
370
    25
100
AcDbLine
 10
93.88490285
 20
104.6895632752
 30
0.0
 11
94.0478148675
 21
104.8725977189
 31
0.0
  0
SPLINE
  5
23A
330
1F
100
AcDbEntity
  8
0
  6
Continuous
 62
     7
370
    25
100
AcDbSpline
210
0.0
220
0.0
230
1.0
 70
     8
 71
     3
 72
    14
 73
    10
 74
     0
 42
0.00000001
 43
0.00000001
 40
0.0
 40
0.0
 40
0.0
 40
0.0
 40
0.1377327108986476
 40
0.2725942885003155
 40
0.4041400602174986
 40
0.5321680644076192
 40
0.7754693061733929
 40
0.8890599100492311
 40
1.0
 40
1.0
 40
1.0
 40
1.0
 10
112.9562300689007
 20
126.0254810334414
 30
0.0
 10
112.9560952354506
 20
126.0392106953543
 30
0.0
 10
112.9558283792467
 20
126.0663838149139
 30
0.0
 10
112.9527065570015
 20
126.106074694673
 30
0.0
 10
112.9472402930427
 20
126.1440073685716
 30
0.0
 10
112.9362404363313
 20
126.1908181283748
 30
0.0
 10
112.918172763748
 20
126.2329172347317
 30
0.0
 10
112.8908993142473
 20
126.2682156425069
 30
0.0
 10
112.8732819698038
 20
126.2822640374056
 30
0.0
 10
112.8645772811755
 20
126.2892053164225
 30
0.0
  0
LINE
  5
23B
330
1F
100
AcDbEntity
  8
0
  6
Continuous
 62
     7
370
    25
100
AcDbLine
 10
112.8645772812
 20
126.2892053164
 30
0.0
 11
113.0274892987
 21
126.4722397601
 31
0.0
  0
LINE
  5
23C
330
1F
100
AcDbEntity
  8
0
  6
Continuous
 62
     7
370
    25
100
AcDbLine
 10
93.88490285
 20
126.4722397601
 30
0.0
 11
94.0478148675
 21
126.2892053164
 31
0.0
  0
SPLINE
  5
23D
330
1F
100
AcDbEntity
  8
0
  6
Continuous
 62
     7
370
    25
100
AcDbSpline
210
0.0
220
0.0
230
1.0
 70
     8
 71
     3
 72
    14
 73
    10
 74
     0
 42
0.00000001
 43
0.00000001
 40
0.0
 40
0.0
 40
0.0
 40
0.0
 40
0.1106414710202212
 40
0.2239563677549811
 40
0.4666597346533721
 40
0.5947565812544914
 40
0.7265559329283156
 40
0.8618634099915925
 40
0.9999999999999999
 40
0.9999999999999999
 40
0.9999999999999999
 40
0.9999999999999999
 10
94.04781486751416
 20
126.2892053164225
 30
0.0
 10
94.03913246961969
 20
126.2822832649813
 30
0.0
 10
94.02155788137604
 20
126.2682719048294
 30
0.0
 10
93.99432219240792
 20
126.2330817473988
 30
0.0
 10
93.97623982313563
 20
126.1910724714828
 30
0.0
 10
93.96520477855682
 20
126.1443064732871
 30
0.0
 10
93.95970826534322
 20
126.1063045183716
 30
0.0
 10
93.95656659318136
 20
126.0665090869655
 30
0.0
 10
93.95629784443116
 20
126.0392510571624
 30
0.0
 10
93.95616207978897
 20
126.0254810334509
 30
0.0
  0
SPLINE
  5
23E
330
1F
100
AcDbEntity
  8
0
  6
Continuous
 62
     7
370
    25
100
AcDbSpline
210
0.0
220
0.0
230
1.0
 70
     8
 71
     3
 72
    14
 73
    10
 74
     0
 42
0.00000001
 43
0.00000001
 40
0.0
 40
0.0
 40
0.0
 40
0.0
 40
0.1106414710656435
 40
0.2239563677554478
 40
0.4666597346536896
 40
0.5947565812547271
 40
0.726555932928469
 40
0.8618634099916662
 40
1.0
 40
1.0
 40
1.0
 40
1.0
 10
112.8645772811755
 20
104.8725977188794
 30
0.0
 10
112.873259679074
 20
104.8795197703226
 30
0.0
 10
112.8908342673184
 20
104.8935311304726
 30
0.0
 10
112.9180699562823
 20
104.928721287909
 30
0.0
 10
112.9361523255543
 20
104.9707305638188
 30
0.0
 10
112.9471873701329
 20
105.0174965620149
 30
0.0
 10
112.9526838833465
 20
105.0554985169303
 30
0.0
 10
112.9558255555083
 20
105.0952939483364
 30
0.0
 10
112.9560943042586
 20
105.1225519781395
 30
0.0
 10
112.9562300689008
 20
105.136322001851
 30
0.0
  0
LINE
  5
23F
330
1F
100
AcDbEntity
  8
0
  6
Continuous
 62
     7
370
    25
100
AcDbLine
 10
112.8645772812
 20
104.8725977189
 30
0.0
 11
113.0274892987
 21
104.6895632752
 31
0.0
  0
LINE
  5
240
330
1F
100
AcDbEntity
  8
0
  6
Continuous
 62
     7
370
    25
100
AcDbLine
 10
112.5561960743
 20
125.2412975456
 30
0.0
 11
112.5561960743
 21
125.680406456
 31
0.0
  0
LINE
  5
241
330
1F
100
AcDbEntity
  8
0
  6
Continuous
 62
     7
370
    25
100
AcDbLine
 10
112.5561960743
 20
125.680406456
 30
0.0
 11
112.9561960743
 21
125.680406456
 31
0.0
  0
LINE
  5
242
330
1F
100
AcDbEntity
  8
0
  6
Continuous
 62
     7
370
    25
100
AcDbLine
 10
93.9561960743
 20
125.680406456
 30
0.0
 11
94.3561960743
 21
125.680406456
 31
0.0
  0
LINE
  5
243
330
1F
100
AcDbEntity
  8
0
  6
Continuous
 62
     7
370
    25
100
AcDbLine
 10
94.3561960743
 20
125.2412975456
 30
0.0
 11
94.3561960743
 21
125.680406456
 31
0.0
  0
LINE
  5
244
330
1F
100
AcDbEntity
  8
0
  6
Continuous
 62
     7
370
    25
100
AcDbLine
 10
112.9561960743
 20
105.4813965793
 30
0.0
 11
112.5561960743
 21
105.4813965793
 31
0.0
  0
LINE
  5
245
330
1F
100
AcDbEntity
  8
0
  6
Continuous
 62
     7
370
    25
100
AcDbLine
 10
112.5561960743
 20
105.4813965793
 30
0.0
 11
112.5561960743
 21
105.9205054897
 31
0.0
  0
LINE
  5
246
330
1F
100
AcDbEntity
  8
0
  6
Continuous
 62
     7
370
    25
100
AcDbLine
 10
94.3561960743
 20
105.4813965793
 30
0.0
 11
94.3561960743
 21
105.9205054897
 31
0.0
  0
LINE
  5
247
330
1F
100
AcDbEntity
  8
0
  6
Continuous
 62
     7
370
    25
100
AcDbLine
 10
94.3561960743
 20
105.4813965793
 30
0.0
 11
93.9561960743
 21
105.4813965793
 31
0.0
  0
LINE
  5
248
330
1F
100
AcDbEntity
  8
0
  6
Continuous
 62
     7
370
    25
100
AcDbLine
 10
112.5561960743
 20
126.0165375788
 30
0.0
 11
112.9561960743
 21
126.0165375788
 31
0.0
  0
SPLINE
  5
249
330
1F
100
AcDbEntity
  8
0
  6
Continuous
 62
     7
370
    25
100
AcDbSpline
210
0.0
220
0.0
230
1.0
 70
     8
 71
     3
 72
     8
 73
     4
 74
     0
 42
0.00000001
 43
0.00000001
 40
0.0
 40
0.0
 40
0.0
 40
0.0
 40
1.0
 40
1.0
 40
1.0
 40
1.0
 10
112.5561960743449
 20
126.0165375787639
 30
0.0
 10
112.5561960743449
 20
126.0380713275662
 30
0.0
 10
112.5566728537375
 20
126.0595255927229
 30
0.0
 10
112.5576195537867
 20
126.0809015176504
 30
0.0
  0
SPLINE
  5
24A
330
1F
100
AcDbEntity
  8
0
  6
Continuous
 62
     7
370
    25
100
AcDbSpline
210
0.0
220
0.0
230
1.0
 70
     8
 71
     3
 72
     8
 73
     4
 74
     0
 42
0.00000001
 43
0.00000001
 40
0.0
 40
0.0
 40
0.0
 40
0.0
 40
0.0000524698222113
 40
0.0000524698222113
 40
0.0000524698222113
 40
0.0000524698222113
 10
112.6098851248517
 20
126.0840339612828
 30
0.0
 10
112.5925788129971
 20
126.0829061320667
 30
0.0
 10
112.5750829887564
 20
126.0818640486825
 30
0.0
 10
112.5576195537842
 20
126.0809015176508
 30
0.0
  0
SPLINE
  5
24B
330
1F
100
AcDbEntity
  8
0
  6
Continuous
 62
     7
370
    25
100
AcDbSpline
210
0.0
220
0.0
230
1.0
 70
     8
 71
     3
 72
    10
 73
     6
 74
     0
 42
0.00000001
 43
0.00000001
 40
0.0
 40
0.0
 40
0.0
 40
0.0
 40
0.5
 40
0.5
 40
1.0
 40
1.0
 40
1.0
 40
1.0
 10
112.6098851248517
 20
126.0840339612828
 30
0.0
 10
112.6695138544534
 20
126.0879198859053
 30
0.0
 10
112.7196881462602
 20
126.1216555354099
 30
0.0
 10
112.799753252001
 20
126.1992636896775
 30
0.0
 10
112.8324680414162
 20
126.2438058051117
 30
0.0
 10
112.8645772811756
 20
126.2892053164227
 30
0.0
  0
SPLINE
  5
24C
330
1F
100
AcDbEntity
  8
0
  6
Continuous
 62
     7
370
    25
100
AcDbSpline
210
0.0
220
0.0
230
1.0
 70
     8
 71
     3
 72
     8
 73
     4
 74
     0
 42
0.00000001
 43
0.00000001
 40
0.0
 40
0.0
 40
0.0
 40
0.0
 40
0.0000524698222138
 40
0.0000524698222138
 40
0.0000524698222138
 40
0.0000524698222138
 10
94.35477259490347
 20
126.0809015176403
 30
0.0
 10
94.33730915993121
 20
126.0818640486718
 30
0.0
 10
94.31981333569115
 20
126.0829061320666
 30
0.0
 10
94.30250702383653
 20
126.0840339612828
 30
0.0
  0
SPLINE
  5
24D
330
1F
100
AcDbEntity
  8
0
  6
Continuous
 62
     7
370
    25
100
AcDbSpline
210
0.0
220
0.0
230
1.0
 70
     8
 71
     3
 72
     8
 73
     4
 74
     0
 42
0.00000001
 43
0.00000001
 40
0.0
 40
0.0
 40
0.0
 40
0.0
 40
1.0
 40
1.0
 40
1.0
 40
1.0
 10
94.35477259490347
 20
126.0809015176403
 30
0.0
 10
94.35571929495238
 20
126.0595255927161
 30
0.0
 10
94.35619607434485
 20
126.0380713275628
 30
0.0
 10
94.35619607434485
 20
126.0165375787639
 30
0.0
  0
LINE
  5
24E
330
1F
100
AcDbEntity
  8
0
  6
Continuous
 62
     7
370
    25
100
AcDbLine
 10
93.9561960743
 20
126.0165375788
 30
0.0
 11
94.3561960743
 21
126.0165375788
 31
0.0
  0
SPLINE
  5
24F
330
1F
100
AcDbEntity
  8
0
  6
Continuous
 62
     7
370
    25
100
AcDbSpline
210
0.0
220
0.0
230
1.0
 70
     8
 71
     3
 72
    10
 73
     6
 74
     0
 42
0.00000001
 43
0.00000001
 40
0.0
 40
0.0
 40
0.0
 40
0.0
 40
0.5
 40
0.5
 40
1.0
 40
1.0
 40
1.0
 40
1.0
 10
94.30250702383665
 20
126.0840339612849
 30
0.0
 10
94.24287829423515
 20
126.0879198859079
 30
0.0
 10
94.19270400242767
 20
126.1216555354112
 30
0.0
 10
94.11263889668676
 20
126.1992636896799
 30
0.0
 10
94.07992410727144
 20
126.2438058051145
 30
0.0
 10
94.04781486751182
 20
126.2892053164259
 30
0.0
  0
LINE
  5
250
330
1F
100
AcDbEntity
  8
0
  6
Continuous
 62
     7
370
    25
100
AcDbLine
 10
93.9561960743
 20
105.1452654565
 30
0.0
 11
94.3561960743
 21
105.1452654565
 31
0.0
  0
SPLINE
  5
251
330
1F
100
AcDbEntity
  8
0
  6
Continuous
 62
     7
370
    25
100
AcDbSpline
210
0.0
220
0.0
230
1.0
 70
     8
 71
     3
 72
     8
 73
     4
 74
     0
 42
0.00000001
 43
0.00000001
 40
0.0
 40
0.0
 40
0.0
 40
0.0
 40
1.0
 40
1.0
 40
1.0
 40
1.0
 10
94.35619607434485
 20
105.1452654565381
 30
0.0
 10
94.35619607434485
 20
105.1237317077358
 30
0.0
 10
94.35571929495222
 20
105.102277442579
 30
0.0
 10
94.35477259490303
 20
105.0809015176515
 30
0.0
  0
SPLINE
  5
252
330
1F
100
AcDbEntity
  8
0
  6
Continuous
 62
     7
370
    25
100
AcDbSpline
210
0.0
220
0.0
230
1.0
 70
     8
 71
     3
 72
     8
 73
     4
 74
     0
 42
0.00000001
 43
0.00000001
 40
0.0
 40
0.0
 40
0.0
 40
0.0
 40
0.0000524698222113
 40
0.0000524698222113
 40
0.0000524698222113
 40
0.0000524698222113
 10
94.30250702383799
 20
105.0777690740191
 30
0.0
 10
94.3198133356926
 20
105.0788969032352
 30
0.0
 10
94.33730915993328
 20
105.0799389866194
 30
0.0
 10
94.35477259490548
 20
105.0809015176511
 30
0.0
  0
SPLINE
  5
253
330
1F
100
AcDbEntity
  8
0
  6
Continuous
 62
     7
370
    25
100
AcDbSpline
210
0.0
220
0.0
230
1.0
 70
     8
 71
     3
 72
    10
 73
     6
 74
     0
 42
0.00000001
 43
0.00000001
 40
0.0
 40
0.0
 40
0.0
 40
0.0
 40
0.5
 40
0.5
 40
1.0
 40
1.0
 40
1.0
 40
1.0
 10
94.30250702383799
 20
105.0777690740191
 30
0.0
 10
94.24287829423629
 20
105.0738831493966
 30
0.0
 10
94.19270400242951
 20
105.0401474998921
 30
0.0
 10
94.11263889668874
 20
104.9625393456244
 30
0.0
 10
94.07992410727351
 20
104.9179972301902
 30
0.0
 10
94.04781486751409
 20
104.8725977188792
 30
0.0
  0
SPLINE
  5
254
330
1F
100
AcDbEntity
  8
0
  6
Continuous
 62
     7
370
    25
100
AcDbSpline
210
0.0
220
0.0
230
1.0
 70
     8
 71
     3
 72
     8
 73
     4
 74
     0
 42
0.00000001
 43
0.00000001
 40
0.0
 40
0.0
 40
0.0
 40
0.0
 40
0.0000524698222138
 40
0.0000524698222138
 40
0.0000524698222138
 40
0.0000524698222138
 10
112.5576195537863
 20
105.0809015176617
 30
0.0
 10
112.5750829887585
 20
105.0799389866302
 30
0.0
 10
112.5925788129986
 20
105.0788969032353
 30
0.0
 10
112.6098851248532
 20
105.0777690740191
 30
0.0
  0
SPLINE
  5
255
330
1F
100
AcDbEntity
  8
0
  6
Continuous
 62
     7
370
    25
100
AcDbSpline
210
0.0
220
0.0
230
1.0
 70
     8
 71
     3
 72
     8
 73
     4
 74
     0
 42
0.00000001
 43
0.00000001
 40
0.0
 40
0.0
 40
0.0
 40
0.0
 40
1.0
 40
1.0
 40
1.0
 40
1.0
 10
112.5576195537863
 20
105.0809015176617
 30
0.0
 10
112.5566728537373
 20
105.1022774425858
 30
0.0
 10
112.5561960743449
 20
105.1237317077392
 30
0.0
 10
112.5561960743449
 20
105.1452654565381
 30
0.0
  0
LINE
  5
256
330
1F
100
AcDbEntity
  8
0
  6
Continuous
 62
     7
370
    25
100
AcDbLine
 10
112.5561960743
 20
105.1452654565
 30
0.0
 11
112.9561960743
 21
105.1452654565
 31
0.0
  0
SPLINE
  5
257
330
1F
100
AcDbEntity
  8
0
  6
Continuous
 62
     7
370
    25
100
AcDbSpline
210
0.0
220
0.0
230
1.0
 70
     8
 71
     3
 72
    10
 73
     6
 74
     0
 42
0.00000001
 43
0.00000001
 40
0.0
 40
0.0
 40
0.0
 40
0.0
 40
0.5
 40
0.5
 40
1.0
 40
1.0
 40
1.0
 40
1.0
 10
112.6098851248531
 20
105.077769074017
 30
0.0
 10
112.6695138544545
 20
105.0738831493939
 30
0.0
 10
112.7196881462621
 20
105.0401474998907
 30
0.0
 10
112.7997532520029
 20
104.962539345622
 30
0.0
 10
112.8324680414183
 20
104.9179972301874
 30
0.0
 10
112.8645772811779
 20
104.872597718876
 30
0.0
  0
LINE
  5
258
330
1F
100
AcDbEntity
  8
0
  6
Continuous
 62
     7
370
    25
100
AcDbLine
 10
94.3561960743
 20
126.0165375788
 30
0.0
 11
94.3561960743
 21
125.680406456
 31
0.0
  0
LINE
  5
259
330
1F
100
AcDbEntity
  8
0
  6
Continuous
 62
     7
370
    25
100
AcDbLine
 10
112.5561960743
 20
125.680406456
 30
0.0
 11
112.5561960743
 21
126.0165375788
 31
0.0
  0
LINE
  5
25A
330
1F
100
AcDbEntity
  8
0
  6
Continuous
 62
     7
370
    25
100
AcDbLine
 10
94.3561960743
 20
105.4813965793
 30
0.0
 11
94.3561960743
 21
105.1452654565
 31
0.0
  0
LINE
  5
25B
330
1F
100
AcDbEntity
  8
0
  6
Continuous
 62
     7
370
    25
100
AcDbLine
 10
112.5561960743
 20
105.1452654565
 30
0.0
 11
112.5561960743
 21
105.4813965793
 31
0.0
  0
LINE
  5
25C
330
1F
100
AcDbEntity
  8
0
  6
Continuous
 62
     7
370
    25
100
AcDbLine
 10
94.3561960743
 20
125.680406456
 30
0.0
 11
112.5561960743
 21
125.680406456
 31
0.0
  0
LINE
  5
25D
330
1F
100
AcDbEntity
  8
0
  6
Continuous
 62
     7
370
    25
100
AcDbLine
 10
112.5561960743
 20
105.4813965793
 30
0.0
 11
94.3561960743
 21
105.4813965793
 31
0.0
  0
ARC
  5
25E
330
1F
100
AcDbEntity
  8
0
  6
Continuous
 62
     7
370
    25
100
AcDbCircle
 10
93.3002693233
 20
126.2055955943
 30
0.0
 40
1.009582903495901
100
AcDbArc
 50
353.0843628815
 51
21.8231862158
  0
SPLINE
  5
25F
330
1F
100
AcDbEntity
  8
0
  6
Continuous
 62
     7
370
    25
100
AcDbSpline
210
0.0
220
0.0
230
1.0
 70
     8
 71
     3
 72
    16
 73
    12
 74
     0
 42
0.00000001
 43
0.00000001
 40
0.0
 40
0.0
 40
0.0
 40
0.0
 40
0.0761065009127368
 40
0.149479093119197
 40
0.2974911001276658
 40
0.4337219070480748
 40
0.5582000385649541
 40
0.6744773661246137
 40
0.7859690394832728
 40
0.8939353462389598
 40
1.0
 40
1.0
 40
1.0
 40
1.0
 10
94.06267579045475
 20
126.6064963942037
 30
0.0
 10
94.0700921614915
 20
126.6023995518371
 30
0.0
 10
94.08465849161462
 20
126.5943530344664
 30
0.0
 10
94.10687727993705
 20
126.5739366133093
 30
0.0
 10
94.12423078809903
 20
126.5436723039666
 30
0.0
 10
94.13053552602778
 20
126.5017096739818
 30
0.0
 10
94.12644011101455
 20
126.4584293861545
 30
0.0
 10
94.11491216166432
 20
126.4152438333239
 30
0.0
 10
94.09748925843492
 20
126.3725819725943
 30
0.0
 10
94.07547185021286
 20
126.3305173985062
 30
0.0
 10
94.05697909271049
 20
126.3028942002665
 30
0.0
 10
94.04781486751223
 20
126.2892053164246
 30
0.0
  0
SPLINE
  5
260
330
1F
100
AcDbEntity
  8
0
  6
Continuous
 62
     7
370
    25
100
AcDbSpline
210
0.0
220
0.0
230
1.0
 70
     8
 71
     3
 72
     8
 73
     4
 74
     0
 42
0.00000001
 43
0.00000001
 40
0.0
 40
0.0
 40
0.0
 40
0.0
 40
1.0
 40
1.0
 40
1.0
 40
1.0
 10
94.23750093975833
 20
126.580901517651
 30
0.0
 10
94.16510096959927
 20
126.580901517651
 30
0.0
 10
94.11067075201031
 20
126.5938817611723
 30
0.0
 10
94.0626757904504
 20
126.6064963941979
 30
0.0
  0
ARC
  5
261
330
1F
100
AcDbEntity
  8
0
  6
Continuous
 62
     7
370
    25
100
AcDbCircle
 10
113.6121228254
 20
104.956207441
 30
0.0
 40
1.009582903481116
100
AcDbArc
 50
173.0843628813
 51
201.823186216
  0
SPLINE
  5
262
330
1F
100
AcDbEntity
  8
0
  6
Continuous
 62
     7
370
    25
100
AcDbSpline
210
0.0
220
0.0
230
1.0
 70
     8
 71
     3
 72
    16
 73
    12
 74
     0
 42
0.00000001
 43
0.00000001
 40
0.0
 40
0.0
 40
0.0
 40
0.0
 40
0.0761065009174363
 40
0.1494790931192237
 40
0.297491100127681
 40
0.4337219070480782
 40
0.5582000385649595
 40
0.674477366124627
 40
0.785969039483262
 40
0.8939353462389532
 40
0.9999999999999999
 40
0.9999999999999999
 40
0.9999999999999999
 40
0.9999999999999999
 10
112.849716358235
 20
104.5553066410983
 30
0.0
 10
112.8422999871977
 20
104.5594034834652
 30
0.0
 10
112.8277336570745
 20
104.5674500008359
 30
0.0
 10
112.8055148687525
 20
104.587866421993
 30
0.0
 10
112.7881613605906
 20
104.6181307313354
 30
0.0
 10
112.7818566226619
 20
104.6600933613202
 30
0.0
 10
112.7859520376751
 20
104.7033736491474
 30
0.0
 10
112.7974799870254
 20
104.746559201978
 30
0.0
 10
112.8149028902548
 20
104.7892210627076
 30
0.0
 10
112.8369202984768
 20
104.8312856367957
 30
0.0
 10
112.8554130559792
 20
104.8589088350355
 30
0.0
 10
112.8645772811775
 20
104.8725977188773
 30
0.0
  0
SPLINE
  5
263
330
1F
100
AcDbEntity
  8
0
  6
Continuous
 62
     7
370
    25
100
AcDbSpline
210
0.0
220
0.0
230
1.0
 70
     8
 71
     3
 72
     8
 73
     4
 74
     0
 42
0.00000001
 43
0.00000001
 40
0.0
 40
0.0
 40
0.0
 40
0.0
 40
1.0
 40
1.0
 40
1.0
 40
1.0
 10
112.6748912089314
 20
104.580901517651
 30
0.0
 10
112.7472911790905
 20
104.580901517651
 30
0.0
 10
112.8017213966792
 20
104.5679212741297
 30
0.0
 10
112.8497163582393
 20
104.555306641104
 30
0.0
  0
ARC
  5
264
330
1F
100
AcDbEntity
  8
0
  6
Continuous
 62
     7
370
    25
100
AcDbCircle
 10
113.6121228254
 20
126.2055955943
 30
0.0
 40
1.009582903518317
100
AcDbArc
 50
158.1768137846
 51
186.9156371183
  0
SPLINE
  5
265
330
1F
100
AcDbEntity
  8
0
  6
Continuous
 62
     7
370
    25
100
AcDbSpline
210
0.0
220
0.0
230
1.0
 70
     8
 71
     3
 72
     8
 73
     4
 74
     0
 42
0.00000001
 43
0.00000001
 40
0.0
 40
0.0
 40
0.0
 40
0.0
 40
1.0
 40
1.0
 40
1.0
 40
1.0
 10
112.6748912089263
 20
126.580901517651
 30
0.0
 10
112.7472911790879
 20
126.5809015176499
 30
0.0
 10
112.8017213966781
 20
126.5938817611719
 30
0.0
 10
112.8497163582393
 20
126.6064963941979
 30
0.0
  0
SPLINE
  5
266
330
1F
100
AcDbEntity
  8
0
  6
Continuous
 62
     7
370
    25
100
AcDbSpline
210
0.0
220
0.0
230
1.0
 70
     8
 71
     3
 72
    20
 73
    16
 74
     0
 42
0.00000001
 43
0.00000001
 40
0.0
 40
0.0
 40
0.0
 40
0.0
 40
0.1060317657589788
 40
0.2138409733616794
 40
0.2689060619626883
 40
0.325101453918644
 40
0.3827863485580691
 40
0.4420118601153487
 40
0.5669442188445762
 40
0.6333957081063157
 40
0.7030323386080312
 40
0.7761748201544842
 40
0.8511692721702314
 40
0.9263894086763254
 40
1.0
 40
1.0
 40
1.0
 40
1.0
 10
112.8645772811754
 20
126.2892053164217
 30
0.0
 10
112.8554110865179
 20
126.3028956959743
 30
0.0
 10
112.8369250415714
 20
126.3305059509602
 30
0.0
 10
112.8187432435193
 20
126.3652755068904
 30
0.0
 10
112.8064430923257
 20
126.3932296727257
 30
0.0
 10
112.7984843444502
 20
126.4145221247574
 30
0.0
 10
112.7919575957073
 20
126.4359462592743
 30
0.0
 10
112.7852996645511
 20
126.4651386574252
 30
0.0
 10
112.7825981823565
 20
126.4939345195315
 30
0.0
 10
112.7848523736816
 20
126.5215337216323
 30
0.0
 10
112.7897284613697
 20
126.5421013462026
 30
0.0
 10
112.7983348606561
 20
126.5615791964844
 30
0.0
 10
112.8112086859336
 20
126.5792075543428
 30
0.0
 10
112.8279783161103
 20
126.5945393412853
 30
0.0
 10
112.8425227750411
 20
126.6025395495888
 30
0.0
 10
112.8497163582345
 20
126.6064963942036
 30
0.0
  0
ARC
  5
267
330
1F
100
AcDbEntity
  8
0
  6
Continuous
 62
     7
370
    25
100
AcDbCircle
 10
93.3002693233
 20
104.956207441
 30
0.0
 40
1.009582903457876
100
AcDbArc
 50
338.1768137837
 51
6.9156371192
  0
SPLINE
  5
268
330
1F
100
AcDbEntity
  8
0
  6
Continuous
 62
     7
370
    25
100
AcDbSpline
210
0.0
220
0.0
230
1.0
 70
     8
 71
     3
 72
     8
 73
     4
 74
     0
 42
0.00000001
 43
0.00000001
 40
0.0
 40
0.0
 40
0.0
 40
0.0
 40
1.0
 40
1.0
 40
1.0
 40
1.0
 10
94.23750093976341
 20
104.580901517651
 30
0.0
 10
94.16510096960181
 20
104.580901517652
 30
0.0
 10
94.11067075201157
 20
104.56792127413
 30
0.0
 10
94.06267579045038
 20
104.555306641104
 30
0.0
  0
SPLINE
  5
269
330
1F
100
AcDbEntity
  8
0
  6
Continuous
 62
     7
370
    25
100
AcDbSpline
210
0.0
220
0.0
230
1.0
 70
     8
 71
     3
 72
    20
 73
    16
 74
     0
 42
0.00000001
 43
0.00000001
 40
0.0
 40
0.0
 40
0.0
 40
0.0
 40
0.1060317657589631
 40
0.2138409733617976
 40
0.268906061948247
 40
0.3251014539057976
 40
0.382786348557697
 40
0.4420118601150135
 40
0.5669442188443142
 40
0.6333957081061092
 40
0.703032338607854
 40
0.7761748201543405
 40
0.8511692721701473
 40
0.9263894086762869
 40
1.0
 40
1.0
 40
1.0
 40
1.0
 10
94.04781486751423
 20
104.8725977188801
 30
0.0
 10
94.05698106217133
 20
104.8589073393273
 30
0.0
 10
94.07546710711708
 20
104.8312970843407
 30
0.0
 10
94.09364890517351
 20
104.796527528417
 30
0.0
 10
94.10594905635514
 20
104.7685733625733
 30
0.0
 10
94.11390780423098
 20
104.7472809105423
 30
0.0
 10
94.12043455298414
 20
104.7258567760307
 30
0.0
 10
94.12709248413734
 20
104.6966643778758
 30
0.0
 10
94.12979396633341
 20
104.6678685157706
 30
0.0
 10
94.12753977500809
 20
104.6402693136696
 30
0.0
 10
94.12266368731997
 20
104.6197016890993
 30
0.0
 10
94.11405728803359
 20
104.6002238388175
 30
0.0
 10
94.10118346275614
 20
104.5825954809591
 30
0.0
 10
94.08441383257939
 20
104.5672636940167
 30
0.0
 10
94.06986937364861
 20
104.5592634857132
 30
0.0
 10
94.06267579045522
 20
104.5553066410983
 30
0.0
  0
LINE
  5
26A
330
1F
100
AcDbEntity
  8
0
  6
Continuous
 62
     7
370
    25
100
AcDbLine
 10
93.9792177929
 20
126.6043872145
 30
0.0
 11
94.0626757905
 21
126.6064963942
 31
0.0
  0
LINE
  5
26B
330
1F
100
AcDbEntity
  8
0
  6
Continuous
 62
     7
370
    25
100
AcDbLine
 10
112.8497163582
 20
104.5553066411
 30
0.0
 11
112.9331743558
 21
104.5574158208
 31
0.0
  0
LINE
  5
26C
330
1F
100
AcDbEntity
  8
0
  6
Continuous
 62
     7
370
    25
100
AcDbLine
 10
112.8497163582
 20
126.6064963942
 30
0.0
 11
112.9331743558
 21
126.6043872145
 31
0.0
  0
LINE
  5
26D
330
1F
100
AcDbEntity
  8
0
  6
Continuous
 62
     7
370
    25
100
AcDbLine
 10
93.9792177929
 20
104.5574158208
 30
0.0
 11
94.0626757905
 21
104.5553066411
 31
0.0
  0
SPLINE
  5
26E
330
1F
100
AcDbEntity
  8
0
  6
Continuous
 62
     7
370
    25
100
AcDbSpline
210
0.0
220
0.0
230
1.0
 70
    24
 71
     3
 72
     8
 73
     4
 74
     0
 42
0.00000001
 43
0.00000001
 40
0.0
 40
0.0
 40
0.0
 40
0.0
 40
0.0001175213404591
 40
0.0001175213404591
 40
0.0001175213404591
 40
0.0001175213404591
 10
94.23750093975833
 20
126.580901517651
 30
0.0
 10
94.276342215365
 20
126.580901517651
 30
0.0
 10
94.31559881475103
 20
126.580901517651
 30
0.0
 10
94.35477259490405
 20
126.580901517651
 30
0.0
  0
LINE
  5
26F
330
1F
100
AcDbEntity
  8
0
  6
Continuous
 62
     7
370
    25
100
AcDbLine
 10
94.3547725949
 20
126.5809015177
 30
0.0
 11
94.3547725949
 21
126.0809015176
 31
0.0
  0
SPLINE
  5
270
330
1F
100
AcDbEntity
  8
0
  6
Continuous
 62
     7
370
    25
100
AcDbSpline
210
0.0
220
0.0
230
1.0
 70
    24
 71
     3
 72
     8
 73
     4
 74
     0
 42
0.00000001
 43
0.00000001
 40
0.0
 40
0.0
 40
0.0
 40
0.0
 40
0.0001175213404591
 40
0.0001175213404591
 40
0.0001175213404591
 40
0.0001175213404591
 10
112.6748912089314
 20
104.580901517651
 30
0.0
 10
112.6360499333247
 20
104.580901517651
 30
0.0
 10
112.5967933339387
 20
104.580901517651
 30
0.0
 10
112.5576195537857
 20
104.580901517651
 30
0.0
  0
LINE
  5
271
330
1F
100
AcDbEntity
  8
0
  6
Continuous
 62
     7
370
    25
100
AcDbLine
 10
112.5576195538
 20
105.0809015177
 30
0.0
 11
112.5576195538
 21
104.5809015177
 31
0.0
  0
SPLINE
  5
272
330
1F
100
AcDbEntity
  8
0
  6
Continuous
 62
     7
370
    25
100
AcDbSpline
210
0.0
220
0.0
230
1.0
 70
    24
 71
     3
 72
     8
 73
     4
 74
     0
 42
0.00000001
 43
0.00000001
 40
0.0
 40
0.0
 40
0.0
 40
0.0
 40
0.0001175213404538
 40
0.0001175213404538
 40
0.0001175213404538
 40
0.0001175213404538
 10
112.5576195537856
 20
126.580901517651
 30
0.0
 10
112.5967933339369
 20
126.580901517651
 30
0.0
 10
112.6360499333211
 20
126.580901517651
 30
0.0
 10
112.6748912089261
 20
126.580901517651
 30
0.0
  0
LINE
  5
273
330
1F
100
AcDbEntity
  8
0
  6
Continuous
 62
     7
370
    25
100
AcDbLine
 10
112.5576195538
 20
126.5809015177
 30
0.0
 11
112.5576195538
 21
126.0809015177
 31
0.0
  0
LINE
  5
274
330
1F
100
AcDbEntity
  8
0
  6
Continuous
 62
     7
370
    25
100
AcDbLine
 10
94.3547725949
 20
105.0809015177
 30
0.0
 11
94.3547725949
 21
104.5809015177
 31
0.0
  0
SPLINE
  5
275
330
1F
100
AcDbEntity
  8
0
  6
Continuous
 62
     7
370
    25
100
AcDbSpline
210
0.0
220
0.0
230
1.0
 70
    24
 71
     3
 72
     8
 73
     4
 74
     0
 42
0.00000001
 43
0.00000001
 40
0.0
 40
0.0
 40
0.0
 40
0.0
 40
0.0001175213404538
 40
0.0001175213404538
 40
0.0001175213404538
 40
0.0001175213404538
 10
94.3547725949041
 20
104.580901517651
 30
0.0
 10
94.31559881475285
 20
104.580901517651
 30
0.0
 10
94.2763422153686
 20
104.580901517651
 30
0.0
 10
94.23750093976363
 20
104.580901517651
 30
0.0
  0
LINE
  5
276
330
1F
100
AcDbEntity
  8
0
  6
Continuous
 62
     7
370
    25
100
AcDbLine
 10
94.3547725949
 20
126.5809015177
 30
0.0
 11
112.5576195538
 21
126.5809015177
 31
0.0
  0
LINE
  5
277
330
1F
100
AcDbEntity
  8
0
  6
Continuous
 62
     7
370
    25
100
AcDbLine
 10
112.5576195538
 20
126.0809015177
 30
0.0
 11
94.3547725949
 21
126.0809015176
 31
0.0
  0
LINE
  5
278
330
1F
100
AcDbEntity
  8
0
  6
Continuous
 62
     7
370
    25
100
AcDbLine
 10
94.3547725949
 20
105.0809015177
 30
0.0
 11
112.5576195538
 21
105.0809015177
 31
0.0
  0
LINE
  5
279
330
1F
100
AcDbEntity
  8
0
  6
Continuous
 62
     7
370
    25
100
AcDbLine
 10
112.5576195538
 20
104.5809015177
 30
0.0
 11
94.3547725949
 21
104.5809015177
 31
0.0
  0
LINE
  5
27A
330
1F
100
AcDbEntity
  8
0
  6
Continuous
 62
     7
370
    25
100
AcDbLine
 10
93.7133028555
 20
127.2126157438
 30
0.0
 11
93.9561620798
 21
126.977209986
 31
0.0
  0
SPLINE
  5
27B
330
1F
100
AcDbEntity
  8
0
  6
Continuous
 62
     7
370
    25
100
AcDbSpline
210
0.0
220
0.0
230
1.0
 70
     8
 71
     3
 72
    16
 73
    12
 74
     0
 42
0.00000001
 43
0.00000001
 40
0.0
 40
0.0
 40
0.0
 40
0.0
 40
0.1358424562093261
 40
0.2585567702396716
 40
0.5157338482660032
 40
0.6432966940871808
 40
0.7692102787448635
 40
0.8342664723226236
 40
0.8905766424117051
 40
0.9515952839433239
 40
1.0
 40
1.0
 40
1.0
 40
1.0
 10
93.95616207978901
 20
126.9772099859738
 30
0.0
 10
93.95612369404287
 20
126.9642004691754
 30
0.0
 10
93.95605063224156
 20
126.9394387066187
 30
0.0
 10
93.95678118386822
 20
126.8851595484052
 30
0.0
 10
93.95884660613528
 20
126.8264519101354
 30
0.0
 10
93.96628640689478
 20
126.7612862449413
 30
0.0
 10
93.97563822524187
 20
126.7180145000838
 30
0.0
 10
93.9889661367608
 20
126.6826724437351
 30
0.0
 10
94.00448244337151
 20
126.6558060012639
 30
0.0
 10
94.02390148270649
 20
126.6305158218631
 30
0.0
 10
94.05078399380764
 20
126.6138629770231
 30
0.0
 10
94.06267579045345
 20
126.606496394204
 30
0.0
  0
SPLINE
  5
27C
330
1F
100
AcDbEntity
  8
0
  6
Continuous
 62
     7
370
    25
100
AcDbSpline
210
0.0
220
0.0
230
1.0
 70
     8
 71
     3
 72
    18
 73
    14
 74
     0
 42
0.00000001
 43
0.00000001
 40
0.0
 40
0.0
 40
0.0
 40
0.0
 40
0.0228877262663134
 40
0.0487507054354238
 40
0.0778154834704291
 40
0.110236483015608
 40
0.1666044227712953
 40
0.2317742085792253
 40
0.3567811110102955
 40
0.4838932701832982
 40
0.7413824458060067
 40
0.864106461387062
 40
0.9999999999999999
 40
0.9999999999999999
 40
0.9999999999999999
 40
0.9999999999999999
 10
112.8497163582363
 20
126.606496394204
 30
0.0
 10
112.8558798241615
 20
126.6099428371203
 30
0.0
 10
112.8690079657813
 20
126.6172837377174
 30
0.0
 10
112.8838698694139
 20
126.6292406591977
 30
0.0
 10
112.8971727084895
 20
126.6425625675525
 30
0.0
 10
112.9108554631617
 20
126.6603370884521
 30
0.0
 10
112.9234784973145
 20
126.683034382589
 30
0.0
 10
112.9368695379233
 20
126.7182471615558
 30
0.0
 10
112.946086814905
 20
126.7613498247389
 30
0.0
 10
112.9535559369227
 20
126.8263924389149
 30
0.0
 10
112.9556078114285
 20
126.8850983361788
 30
0.0
 10
112.9563419719139
 20
126.9394246980951
 30
0.0
 10
112.9562686150829
 20
126.9641944419977
 30
0.0
 10
112.9562300689007
 20
126.9772099859732
 30
0.0
  0
LINE
  5
27D
330
1F
100
AcDbEntity
  8
0
  6
Continuous
 62
     7
370
    25
100
AcDbLine
 10
112.9562300689
 20
126.977209986
 30
0.0
 11
113.1990892932
 21
127.2126157438
 31
0.0
  0
SPLINE
  5
27E
330
1F
100
AcDbEntity
  8
0
  6
Continuous
 62
     7
370
    25
100
AcDbSpline
210
0.0
220
0.0
230
1.0
 70
     8
 71
     3
 72
    18
 73
    14
 74
     0
 42
0.00000001
 43
0.00000001
 40
0.0
 40
0.0
 40
0.0
 40
0.0
 40
0.0228877262659284
 40
0.0487507054349101
 40
0.0778154834700411
 40
0.1102364830155919
 40
0.1666044227654431
 40
0.231774208579201
 40
0.3567811110102737
 40
0.4838932701832798
 40
0.741382445805996
 40
0.8641064613662746
 40
1.0
 40
1.0
 40
1.0
 40
1.0
 10
94.06267579045338
 20
104.5553066410979
 30
0.0
 10
94.05651232452834
 20
104.5518601981816
 30
0.0
 10
94.04338418290874
 20
104.5445192975847
 30
0.0
 10
94.02852227927619
 20
104.5325623761045
 30
0.0
 10
94.0152194402005
 20
104.5192404677497
 30
0.0
 10
94.00153668552846
 20
104.5014659468506
 30
0.0
 10
93.98891365137638
 20
104.4787686527144
 30
0.0
 10
93.97552261076612
 20
104.4435558737465
 30
0.0
 10
93.96630533378486
 20
104.4004532105632
 30
0.0
 10
93.95883621176687
 20
104.3354105963869
 30
0.0
 10
93.95678433726138
 20
104.276704699126
 30
0.0
 10
93.9560501767757
 20
104.2223783372082
 30
0.0
 10
93.95612353360681
 20
104.197608593306
 30
0.0
 10
93.956162079789
 20
104.1845930493287
 30
0.0
  0
LINE
  5
27F
330
1F
100
AcDbEntity
  8
0
  6
Continuous
 62
     7
370
    25
100
AcDbLine
 10
93.7133028555
 20
103.9491872915
 30
0.0
 11
93.9561620798
 21
104.1845930493
 31
0.0
  0
SPLINE
  5
280
330
1F
100
AcDbEntity
  8
0
  6
Continuous
 62
     7
370
    25
100
AcDbSpline
210
0.0
220
0.0
230
1.0
 70
     8
 71
     3
 72
    16
 73
    12
 74
     0
 42
0.00000001
 43
0.00000001
 40
0.0
 40
0.0
 40
0.0
 40
0.0
 40
0.1358424561976651
 40
0.2585567702396391
 40
0.5157338482659424
 40
0.6432966940871057
 40
0.7692102787447741
 40
0.8342664723077616
 40
0.8905766424116071
 40
0.9515952839399333
 40
1.0
 40
1.0
 40
1.0
 40
1.0
 10
112.9562300689007
 20
104.1845930493282
 30
0.0
 10
112.9562684546468
 20
104.1976025661256
 30
0.0
 10
112.9563415164481
 20
104.2223643286825
 30
0.0
 10
112.9556109648216
 20
104.2766434868951
 30
0.0
 10
112.9535455425544
 20
104.3353511251667
 30
0.0
 10
112.9461057417951
 20
104.4005167903605
 30
0.0
 10
112.9367539234479
 20
104.4437885352164
 30
0.0
 10
112.9234260119304
 20
104.4791305915642
 30
0.0
 10
112.9079097053196
 20
104.5059970340357
 30
0.0
 10
112.8884906659856
 20
104.5312872134374
 30
0.0
 10
112.8616081548834
 20
104.547940058278
 30
0.0
 10
112.8497163582363
 20
104.5553066410979
 30
0.0
  0
LINE
  5
281
330
1F
100
AcDbEntity
  8
0
  6
Continuous
 62
     7
370
    25
100
AcDbLine
 10
112.9562300689
 20
104.1845930493
 30
0.0
 11
113.1990892932
 21
103.9491872915
 31
0.0
  0
ARC
  5
282
330
1F
100
AcDbEntity
  8
0
  6
Continuous
 62
     7
370
    25
100
AcDbCircle
 10
112.5561960743
 20
126.9809015177
 30
0.0
 40
0.4000000000000057
100
AcDbArc
 50
270.0
 51
0.0
  0
SPLINE
  5
283
330
1F
100
AcDbEntity
  8
0
  6
Continuous
 62
     7
370
    25
100
AcDbSpline
210
0.0
220
0.0
230
1.0
 70
     8
 71
     3
 72
     8
 73
     4
 74
     0
 42
0.00000001
 43
0.00000001
 40
0.0
 40
0.0
 40
0.0
 40
0.0
 40
1.0
 40
1.0
 40
1.0
 40
1.0
 10
112.9561960743449
 20
126.980901517651
 30
0.0
 10
112.9561960743449
 20
126.9796794076534
 30
0.0
 10
112.956207229651
 20
126.9784488815895
 30
0.0
 10
112.9562300689007
 20
126.9772099859732
 30
0.0
  0
ARC
  5
284
330
1F
100
AcDbEntity
  8
0
  6
Continuous
 62
     7
370
    25
100
AcDbCircle
 10
94.3561960743
 20
126.9809015177
 30
0.0
 40
0.3999999999999915
100
AcDbArc
 50
180.0
 51
270.0
  0
SPLINE
  5
285
330
1F
100
AcDbEntity
  8
0
  6
Continuous
 62
     7
370
    25
100
AcDbSpline
210
0.0
220
0.0
230
1.0
 70
     8
 71
     3
 72
     8
 73
     4
 74
     0
 42
0.00000001
 43
0.00000001
 40
0.0
 40
0.0
 40
0.0
 40
0.0
 40
1.0
 40
1.0
 40
1.0
 40
1.0
 10
93.95616207978901
 20
126.9772099859738
 30
0.0
 10
93.95618491764759
 20
126.9784488061276
 30
0.0
 10
93.95619607434486
 20
126.9796793341546
 30
0.0
 10
93.95619607434486
 20
126.980901517651
 30
0.0
  0
ARC
  5
286
330
1F
100
AcDbEntity
  8
0
  6
Continuous
 62
     7
370
    25
100
AcDbCircle
 10
94.3561960743
 20
104.1809015177
 30
0.0
 40
0.4000000000000057
100
AcDbArc
 50
90.0
 51
180.0
  0
SPLINE
  5
287
330
1F
100
AcDbEntity
  8
0
  6
Continuous
 62
     7
370
    25
100
AcDbSpline
210
0.0
220
0.0
230
1.0
 70
     8
 71
     3
 72
     8
 73
     4
 74
     0
 42
0.00000001
 43
0.00000001
 40
0.0
 40
0.0
 40
0.0
 40
0.0
 40
1.0
 40
1.0
 40
1.0
 40
1.0
 10
93.95619607434486
 20
104.180901517651
 30
0.0
 10
93.95619607434486
 20
104.1821236276485
 30
0.0
 10
93.95618491903875
 20
104.1833541537125
 30
0.0
 10
93.95616207978901
 20
104.1845930493287
 30
0.0
  0
ARC
  5
288
330
1F
100
AcDbEntity
  8
0
  6
Continuous
 62
     7
370
    25
100
AcDbCircle
 10
112.5561960743
 20
104.1809015177
 30
0.0
 40
0.4000000000000057
100
AcDbArc
 50
0.0
 51
90.0
  0
SPLINE
  5
289
330
1F
100
AcDbEntity
  8
0
  6
Continuous
 62
     7
370
    25
100
AcDbSpline
210
0.0
220
0.0
230
1.0
 70
     8
 71
     3
 72
     8
 73
     4
 74
     0
 42
0.00000001
 43
0.00000001
 40
0.0
 40
0.0
 40
0.0
 40
0.0
 40
1.0
 40
1.0
 40
1.0
 40
1.0
 10
112.9562300689007
 20
104.1845930493282
 30
0.0
 10
112.9562072310421
 20
104.1833542291743
 30
0.0
 10
112.9561960743449
 20
104.1821237011473
 30
0.0
 10
112.9561960743449
 20
104.180901517651
 30
0.0
  0
LINE
  5
28A
330
1F
100
AcDbEntity
  8
0
  6
Continuous
 62
     7
370
    25
100
AcDbLine
 10
112.9562300689
 20
126.977209986
 30
0.0
 11
112.9562300689
 21
127.3380422934
 31
0.0
  0
LINE
  5
28B
330
1F
100
AcDbEntity
  8
0
  6
Continuous
 62
     7
370
    25
100
AcDbLine
 10
93.9561620798
 20
104.1845930493
 30
0.0
 11
93.9561620798
 21
103.8237607419
 31
0.0
  0
LINE
  5
28C
330
1F
100
AcDbEntity
  8
0
  6
Continuous
 62
     7
370
    25
100
AcDbLine
 10
112.9562300689
 20
103.8237607419
 30
0.0
 11
112.9562300689
 21
104.1845930493
 31
0.0
  0
LINE
  5
28D
330
1F
100
AcDbEntity
  8
0
  6
Continuous
 62
     7
370
    25
100
AcDbLine
 10
93.9561620798
 20
127.3380422934
 30
0.0
 11
93.9561620798
 21
126.977209986
 31
0.0
  0
LINE
  5
28E
330
1F
100
AcDbEntity
  8
0
  6
Continuous
 62
     7
370
    25
100
AcDbLine
 10
112.9561960743
 20
126.9809015177
 30
0.0
 11
112.9561960743
 21
127.3309015177
 31
0.0
  0
LINE
  5
28F
330
1F
100
AcDbEntity
  8
0
  6
Continuous
 62
     7
370
    25
100
AcDbLine
 10
93.9561960743
 20
104.1809015177
 30
0.0
 11
93.9561960743
 21
103.8309015177
 31
0.0
  0
LINE
  5
290
330
1F
100
AcDbEntity
  8
0
  6
Continuous
 62
     7
370
    25
100
AcDbLine
 10
93.9561960743
 20
127.3309015177
 30
0.0
 11
93.9561960743
 21
126.9809015177
 31
0.0
  0
LINE
  5
291
330
1F
100
AcDbEntity
  8
0
  6
Continuous
 62
     7
370
    25
100
AcDbLine
 10
112.9561960743
 20
103.8309015177
 30
0.0
 11
112.9561960743
 21
104.1809015177
 31
0.0
  0
SPLINE
  5
292
330
1F
100
AcDbEntity
  8
0
  6
Continuous
 62
     7
370
    25
100
AcDbSpline
210
0.0
220
0.0
230
1.0
 70
     8
 71
     3
 72
    15
 73
    11
 74
     0
 42
0.00000001
 43
0.00000001
 40
0.0
 40
0.0
 40
0.0
 40
0.0
 40
0.0090459071881971
 40
0.1032433785236876
 40
0.1542564497735193
 40
0.3133169026715107
 40
0.524372039941443
 40
0.6678060008509185
 40
0.9918332554187027
 40
0.9999999999999999
 40
0.9999999999999999
 40
0.9999999999999999
 40
0.9999999999999999
 10
98.21711074168674
 20
117.2548145611292
 30
0.0
 10
98.21711643365342
 20
117.2547969154047
 30
0.0
 10
98.2171813976042
 20
117.2545955199922
 30
0.0
 10
98.21917708404008
 20
117.248405899326
 30
0.0
 10
98.22699408025655
 20
117.2242039674819
 30
0.0
 10
98.24416390401151
 20
117.1711849754802
 30
0.0
 10
98.27074780057906
 20
117.0898140882836
 30
0.0
 10
98.30857709906768
 20
116.9752350162611
 30
0.0
 10
98.33685787907795
 20
116.890809838542
 30
0.0
 10
98.3566890266092
 20
116.83233898059
 30
0.0
 10
98.35717656075208
 20
116.830901517651
 30
0.0
  0
ARC
  5
293
330
1F
100
AcDbEntity
  8
0
  6
Continuous
 62
     7
370
    25
100
AcDbCircle
 10
103.4561960743
 20
115.5809015177
 30
0.0
 40
5.500000000000007
100
AcDbArc
 50
17.7189318734
 51
162.2810681266
  0
SPLINE
  5
294
330
1F
100
AcDbEntity
  8
0
  6
Continuous
 62
     7
370
    25
100
AcDbSpline
210
0.0
220
0.0
230
1.0
 70
     8
 71
     3
 72
    15
 73
    11
 74
     0
 42
0.00000001
 43
0.00000001
 40
0.0
 40
0.0
 40
0.0
 40
0.0
 40
0.0081667445812973
 40
0.3321939991490809
 40
0.4756279600585568
 40
0.6866830973284904
 40
0.8457435502264812
 40
0.8967566214763185
 40
0.9909540928118029
 40
1.0
 40
1.0
 40
1.0
 40
1.0
 10
108.5552155879376
 20
116.830901517651
 30
0.0
 10
108.5557031220805
 20
116.83233898059
 30
0.0
 10
108.5755342696118
 20
116.890809838542
 30
0.0
 10
108.603815049622
 20
116.9752350162612
 30
0.0
 10
108.6416443481107
 20
117.0898140882837
 30
0.0
 10
108.6682282446782
 20
117.1711849754802
 30
0.0
 10
108.6853980684331
 20
117.2242039674819
 30
0.0
 10
108.6932150646496
 20
117.248405899326
 30
0.0
 10
108.6952107510855
 20
117.2545955199922
 30
0.0
 10
108.6952757150363
 20
117.2547969154048
 30
0.0
 10
108.695281407003
 20
117.2548145611292
 30
0.0
  0
ARC
  5
295
330
1F
100
AcDbEntity
  8
0
  6
Continuous
 62
     7
370
    25
100
AcDbCircle
 10
103.4561960743
 20
115.5809015177
 30
0.0
 40
5.249999999999998
100
AcDbArc
 50
13.774146998
 51
166.225853002
  0
SPLINE
  5
296
330
1F
100
AcDbEntity
  8
0
  6
Continuous
 62
     7
370
    25
100
AcDbSpline
210
0.0
220
0.0
230
1.0
 70
     8
 71
     3
 72
    15
 73
    11
 74
     0
 42
0.00000001
 43
0.00000001
 40
0.0
 40
0.0
 40
0.0
 40
0.0
 40
0.0089557228015919
 40
0.0999003359608152
 40
0.1531632460581696
 40
0.3125636920784856
 40
0.5249666935695052
 40
0.6689893599351763
 40
0.991915253381045
 40
1.0
 40
1.0
 40
1.0
 40
1.0
 10
108.9334216493965
 20
117.080901517651
 30
0.0
 10
108.9334058938179
 20
117.0808907332878
 30
0.0
 10
108.9332301416613
 20
117.0807704346223
 30
0.0
 10
108.9278011256418
 20
117.0770519837042
 30
0.0
 10
108.9062656419345
 20
117.0623409426379
 30
0.0
 10
108.8585602136697
 20
117.0298920811794
 30
0.0
 10
108.7861692686778
 20
116.981308040836
 30
0.0
 10
108.6842501566601
 20
116.9139375685676
 30
0.0
 10
108.608895065205
 20
116.8651240038337
 30
0.0
 10
108.5564954194818
 20
116.8317174536393
 30
0.0
 10
108.5552155879376
 20
116.830901517651
 30
0.0
  0
ARC
  5
297
330
1F
100
AcDbEntity
  8
0
  6
Continuous
 62
     7
370
    25
100
AcDbCircle
 10
108.9334216494
 20
117.3309015177
 30
0.0
 40
0.2500000000000142
100
AcDbArc
 50
197.7189318734
 51
270.0
  0
SPLINE
  5
298
330
1F
100
AcDbEntity
  8
0
  6
Continuous
 62
     7
370
    25
100
AcDbSpline
210
0.0
220
0.0
230
1.0
 70
     8
 71
     3
 72
    15
 73
    11
 74
     0
 42
0.00000001
 43
0.00000001
 40
0.0
 40
0.0
 40
0.0
 40
0.0
 40
0.0080847466189582
 40
0.3310106400648242
 40
0.4750333064304956
 40
0.6874363079215146
 40
0.8468367539418304
 40
0.9000996640391847
 40
0.991044277198408
 40
1.0
 40
1.0
 40
1.0
 40
1.0
 10
98.35717656075208
 20
116.830901517651
 30
0.0
 10
98.35589672920794
 20
116.8317174536392
 30
0.0
 10
98.30349708348474
 20
116.8651240038338
 30
0.0
 10
98.22814199202959
 20
116.9139375685676
 30
0.0
 10
98.12622288001194
 20
116.9813080408359
 30
0.0
 10
98.05383193502001
 20
117.0298920811793
 30
0.0
 10
98.0061265067552
 20
117.0623409426379
 30
0.0
 10
97.98459102304788
 20
117.0770519837042
 30
0.0
 10
97.97916200702836
 20
117.0807704346223
 30
0.0
 10
97.9789862548718
 20
117.0808907332878
 30
0.0
 10
97.97897049929318
 20
117.0809015176509
 30
0.0
  0
ARC
  5
299
330
1F
100
AcDbEntity
  8
0
  6
Continuous
 62
     7
370
    25
100
AcDbCircle
 10
97.9789704993
 20
117.3309015177
 30
0.0
 40
0.2500000000000034
100
AcDbArc
 50
270.0
 51
342.2810681266
  0
SPLINE
  5
29A
330
1F
100
AcDbEntity
  8
0
  6
Continuous
 62
     7
370
    25
100
AcDbSpline
210
0.0
220
0.0
230
1.0
 70
     8
 71
     3
 72
    15
 73
    11
 74
     0
 42
0.00000001
 43
0.00000001
 40
0.0
 40
0.0
 40
0.0
 40
0.0
 40
0.0081667445812695
 40
0.3321939991490077
 40
0.4756279600585577
 40
0.6866830973284904
 40
0.8457435502264811
 40
0.8967566214763185
 40
0.9909540928118028
 40
1.0
 40
1.0
 40
1.0
 40
1.0
 10
98.35717656075208
 20
114.3309015176509
 30
0.0
 10
98.35668902660919
 20
114.3294640547119
 30
0.0
 10
98.33685787907712
 20
114.2709931967602
 30
0.0
 10
98.30857709906785
 20
114.1865680190407
 30
0.0
 10
98.27074780057903
 20
114.0719889470183
 30
0.0
 10
98.24416390401153
 20
113.9906180598217
 30
0.0
 10
98.22699408025656
 20
113.93759906782
 30
0.0
 10
98.2191770840401
 20
113.9133971359759
 30
0.0
 10
98.21718139760421
 20
113.9072075153097
 30
0.0
 10
98.21711643365343
 20
113.9070061198971
 30
0.0
 10
98.21711074168675
 20
113.9069884741727
 30
0.0
  0
ARC
  5
29B
330
1F
100
AcDbEntity
  8
0
  6
Continuous
 62
     7
370
    25
100
AcDbCircle
 10
103.4561960743
 20
115.5809015177
 30
0.0
 40
5.250000000000005
100
AcDbArc
 50
193.774146998
 51
346.225853002
  0
SPLINE
  5
29C
330
1F
100
AcDbEntity
  8
0
  6
Continuous
 62
     7
370
    25
100
AcDbSpline
210
0.0
220
0.0
230
1.0
 70
     8
 71
     3
 72
    15
 73
    11
 74
     0
 42
0.00000001
 43
0.00000001
 40
0.0
 40
0.0
 40
0.0
 40
0.0
 40
0.0090459071881971
 40
0.1032433785236875
 40
0.1542564497735191
 40
0.3133169026715104
 40
0.5243720399414422
 40
0.6678060008509901
 40
0.9918332554187291
 40
1.0
 40
1.0
 40
1.0
 40
1.0
 10
108.695281407003
 20
113.9069884741727
 30
0.0
 10
108.6952757150363
 20
113.9070061198972
 30
0.0
 10
108.6952107510855
 20
113.9072075153097
 30
0.0
 10
108.6932150646496
 20
113.9133971359759
 30
0.0
 10
108.6853980684332
 20
113.9375990678201
 30
0.0
 10
108.6682282446782
 20
113.9906180598217
 30
0.0
 10
108.6416443481107
 20
114.0719889470183
 30
0.0
 10
108.6038150496219
 20
114.1865680190408
 30
0.0
 10
108.5755342696126
 20
114.2709931967602
 30
0.0
 10
108.5557031220805
 20
114.329464054712
 30
0.0
 10
108.5552155879377
 20
114.330901517651
 30
0.0
  0
ARC
  5
29D
330
1F
100
AcDbEntity
  8
0
  6
Continuous
 62
     7
370
    25
100
AcDbCircle
 10
103.4561960743
 20
115.5809015177
 30
0.0
 40
5.500000000000003
100
AcDbArc
 50
197.7189318734
 51
342.2810681266
  0
ARC
  5
29E
330
1F
100
AcDbEntity
  8
0
  6
Continuous
 62
     7
370
    25
100
AcDbCircle
 10
108.9334216494
 20
113.8309015177
 30
0.0
 40
0.25
100
AcDbArc
 50
90.0
 51
162.2810681266
  0
SPLINE
  5
29F
330
1F
100
AcDbEntity
  8
0
  6
Continuous
 62
     7
370
    25
100
AcDbSpline
210
0.0
220
0.0
230
1.0
 70
     8
 71
     3
 72
    15
 73
    11
 74
     0
 42
0.00000001
 43
0.00000001
 40
0.0
 40
0.0
 40
0.0
 40
0.0
 40
0.0080847466189818
 40
0.3310106400647562
 40
0.4750333064304981
 40
0.6874363079215148
 40
0.8468367539418311
 40
0.9000996640391854
 40
0.9910442771984082
 40
1.0
 40
1.0
 40
1.0
 40
1.0
 10
108.5552155879377
 20
114.330901517651
 30
0.0
 10
108.5564954194818
 20
114.3300855816627
 30
0.0
 10
108.6088950652056
 20
114.2966790314691
 30
0.0
 10
108.68425015666
 20
114.2478654667342
 30
0.0
 10
108.7861692686778
 20
114.1804949944661
 30
0.0
 10
108.8585602136697
 20
114.1319109541226
 30
0.0
 10
108.9062656419345
 20
114.099462092664
 30
0.0
 10
108.9278011256418
 20
114.0847510515978
 30
0.0
 10
108.9332301416614
 20
114.0810326006796
 30
0.0
 10
108.9334058938179
 20
114.0809123020141
 30
0.0
 10
108.9334216493965
 20
114.080901517651
 30
0.0
  0
ARC
  5
2A0
330
1F
100
AcDbEntity
  8
0
  6
Continuous
 62
     7
370
    25
100
AcDbCircle
 10
97.9789704993
 20
113.8309015177
 30
0.0
 40
0.2500000000000077
100
AcDbArc
 50
17.7189318734
 51
90.0
  0
SPLINE
  5
2A1
330
1F
100
AcDbEntity
  8
0
  6
Continuous
 62
     7
370
    25
100
AcDbSpline
210
0.0
220
0.0
230
1.0
 70
     8
 71
     3
 72
    15
 73
    11
 74
     0
 42
0.00000001
 43
0.00000001
 40
0.0
 40
0.0
 40
0.0
 40
0.0
 40
0.0089557228015919
 40
0.0999003359608148
 40
0.1531632460581691
 40
0.3125636920784849
 40
0.5249666935695004
 40
0.6689893599352447
 40
0.9919152533810159
 40
1.0
 40
1.0
 40
1.0
 40
1.0
 10
97.9789704992932
 20
114.0809015176509
 30
0.0
 10
97.97898625487181
 20
114.0809123020141
 30
0.0
 10
97.97916200702838
 20
114.0810326006796
 30
0.0
 10
97.9845910230479
 20
114.0847510515977
 30
0.0
 10
98.00612650675521
 20
114.099462092664
 30
0.0
 10
98.05383193502003
 20
114.1319109541225
 30
0.0
 10
98.12622288001194
 20
114.180494994466
 30
0.0
 10
98.22814199202972
 20
114.2478654667342
 30
0.0
 10
98.30349708348417
 20
114.2966790314689
 30
0.0
 10
98.35589672920794
 20
114.3300855816627
 30
0.0
 10
98.35717656075208
 20
114.3309015176509
 30
0.0
  0
LINE
  5
2A2
330
1F
100
AcDbEntity
  8
0
  6
Continuous
 62
     7
370
    25
100
AcDbLine
 10
98.4561960743
 20
114.9809015177
 30
0.0
 11
108.4561960743
 21
114.9809015177
 31
0.0
  0
LINE
  5
2A3
330
1F
100
AcDbEntity
  8
0
  6
Continuous
 62
     7
370
    25
100
AcDbLine
 10
108.4561960743
 20
114.9809015177
 30
0.0
 11
108.4561960743
 21
116.1809015177
 31
0.0
  0
LINE
  5
2A4
330
1F
100
AcDbEntity
  8
0
  6
Continuous
 62
     7
370
    25
100
AcDbLine
 10
108.4561960743
 20
116.1809015177
 30
0.0
 11
98.4561960743
 21
116.1809015177
 31
0.0
  0
LINE
  5
2A5
330
1F
100
AcDbEntity
  8
0
  6
Continuous
 62
     7
370
    25
100
AcDbLine
 10
98.4561960743
 20
116.1809015177
 30
0.0
 11
98.4561960743
 21
114.9809015177
 31
0.0
  0
LINE
  5
2A6
330
1F
100
AcDbEntity
  8
0
  6
Continuous
 62
     7
370
    25
100
AcDbLine
 10
97.7061960743
 20
114.3309015177
 30
0.0
 11
98.3571765608
 21
114.3309015177
 31
0.0
  0
LINE
  5
2A7
330
1F
100
AcDbEntity
  8
0
  6
Continuous
 62
     7
370
    25
100
AcDbLine
 10
97.7061960743
 20
116.8309015177
 30
0.0
 11
97.7061960743
 21
114.3309015177
 31
0.0
  0
LINE
  5
2A8
330
1F
100
AcDbEntity
  8
0
  6
Continuous
 62
     7
370
    25
100
AcDbLine
 10
98.3571765608
 20
116.8309015177
 30
0.0
 11
97.7061960743
 21
116.8309015177
 31
0.0
  0
LINE
  5
2A9
330
1F
100
AcDbEntity
  8
0
  6
Continuous
 62
     7
370
    25
100
AcDbLine
 10
109.2061960743
 20
116.8309015177
 30
0.0
 11
108.5552155879
 21
116.8309015177
 31
0.0
  0
LINE
  5
2AA
330
1F
100
AcDbEntity
  8
0
  6
Continuous
 62
     7
370
    25
100
AcDbLine
 10
109.2061960743
 20
114.3309015177
 30
0.0
 11
109.2061960743
 21
116.8309015177
 31
0.0
  0
LINE
  5
2AB
330
1F
100
AcDbEntity
  8
0
  6
Continuous
 62
     7
370
    25
100
AcDbLine
 10
108.5552155879
 20
114.3309015177
 30
0.0
 11
109.2061960743
 21
114.3309015177
 31
0.0
  0
LINE
  5
2AC
330
1F
100
AcDbEntity
  8
0
  6
Continuous
 62
     7
370
    25
100
AcDbLine
 10
97.7061960743
 20
117.0809015177
 30
0.0
 11
97.7061960743
 21
116.8309015177
 31
0.0
  0
LINE
  5
2AD
330
1F
100
AcDbEntity
  8
0
  6
Continuous
 62
     7
370
    25
100
AcDbLine
 10
97.7061960743
 20
117.0809015177
 30
0.0
 11
97.9789704993
 21
117.0809015177
 31
0.0
  0
LINE
  5
2AE
330
1F
100
AcDbEntity
  8
0
  6
Continuous
 62
     7
370
    25
100
AcDbLine
 10
108.9334216494
 20
117.0809015177
 30
0.0
 11
109.2061960743
 21
117.0809015177
 31
0.0
  0
LINE
  5
2AF
330
1F
100
AcDbEntity
  8
0
  6
Continuous
 62
     7
370
    25
100
AcDbLine
 10
109.2061960743
 20
116.8309015177
 30
0.0
 11
109.2061960743
 21
117.0809015177
 31
0.0
  0
ARC
  5
2B0
330
1F
100
AcDbEntity
  8
0
  6
Continuous
 62
     7
370
    25
100
AcDbCircle
 10
97.7061960743
 20
116.8309015177
 30
0.0
 40
0.25
100
AcDbArc
 50
90.0
 51
180.0
  0
LINE
  5
2B1
330
1F
100
AcDbEntity
  8
0
  6
Continuous
 62
     7
370
    25
100
AcDbLine
 10
97.7061960743
 20
116.8309015177
 30
0.0
 11
97.4561960743
 21
116.8309015177
 31
0.0
  0
LINE
  5
2B2
330
1F
100
AcDbEntity
  8
0
  6
Continuous
 62
     7
370
    25
100
AcDbLine
 10
109.4561960743
 20
116.8309015177
 30
0.0
 11
109.2061960743
 21
116.8309015177
 31
0.0
  0
ARC
  5
2B3
330
1F
100
AcDbEntity
  8
0
  6
Continuous
 62
     7
370
    25
100
AcDbCircle
 10
109.2061960743
 20
116.8309015177
 30
0.0
 40
0.25
100
AcDbArc
 50
0.0
 51
90.0
  0
LINE
  5
2B4
330
1F
100
AcDbEntity
  8
0
  6
Continuous
 62
     7
370
    25
100
AcDbLine
 10
97.4561960743
 20
114.3309015177
 30
0.0
 11
97.7061960743
 21
114.3309015177
 31
0.0
  0
LINE
  5
2B5
330
1F
100
AcDbEntity
  8
0
  6
Continuous
 62
     7
370
    25
100
AcDbLine
 10
97.4561960743
 20
114.3309015177
 30
0.0
 11
97.4561960743
 21
116.8309015177
 31
0.0
  0
LINE
  5
2B6
330
1F
100
AcDbEntity
  8
0
  6
Continuous
 62
     7
370
    25
100
AcDbLine
 10
109.4561960743
 20
116.8309015177
 30
0.0
 11
109.4561960743
 21
114.3309015177
 31
0.0
  0
LINE
  5
2B7
330
1F
100
AcDbEntity
  8
0
  6
Continuous
 62
     7
370
    25
100
AcDbLine
 10
109.2061960743
 20
114.3309015177
 30
0.0
 11
109.4561960743
 21
114.3309015177
 31
0.0
  0
LINE
  5
2B8
330
1F
100
AcDbEntity
  8
0
  6
Continuous
 62
     7
370
    25
100
AcDbLine
 10
109.2061960743
 20
114.0809015177
 30
0.0
 11
109.2061960743
 21
114.3309015177
 31
0.0
  0
ARC
  5
2B9
330
1F
100
AcDbEntity
  8
0
  6
Continuous
 62
     7
370
    25
100
AcDbCircle
 10
109.2061960743
 20
114.3309015177
 30
0.0
 40
0.25
100
AcDbArc
 50
270.0
 51
0.0
  0
LINE
  5
2BA
330
1F
100
AcDbEntity
  8
0
  6
Continuous
 62
     7
370
    25
100
AcDbLine
 10
109.2061960743
 20
114.0809015177
 30
0.0
 11
108.9334216494
 21
114.0809015177
 31
0.0
  0
LINE
  5
2BB
330
1F
100
AcDbEntity
  8
0
  6
Continuous
 62
     7
370
    25
100
AcDbLine
 10
97.7061960743
 20
114.3309015177
 30
0.0
 11
97.7061960743
 21
114.0809015177
 31
0.0
  0
LINE
  5
2BC
330
1F
100
AcDbEntity
  8
0
  6
Continuous
 62
     7
370
    25
100
AcDbLine
 10
97.9789704993
 20
114.0809015177
 30
0.0
 11
97.7061960743
 21
114.0809015177
 31
0.0
  0
ARC
  5
2BD
330
1F
100
AcDbEntity
  8
0
  6
Continuous
 62
     7
370
    25
100
AcDbCircle
 10
97.7061960743
 20
114.3309015177
 30
0.0
 40
0.25
100
AcDbArc
 50
180.0
 51
270.0
  0
LINE
  5
2BE
330
1F
100
AcDbEntity
  8
0
  6
Continuous
 62
     7
370
    25
100
AcDbLine
 10
83.4561960743
 20
112.3092022536
 30
0.0
 11
83.4561960743
 21
118.8526007817
 31
0.0
  0
LINE
  5
2BF
330
1F
100
AcDbEntity
  8
0
  6
Continuous
 62
     7
370
    25
100
AcDbLine
 10
81.2807592128
 20
112.0809015177
 30
0.0
 11
83.4561960743
 21
112.3092022536
 31
0.0
  0
LINE
  5
2C0
330
1F
100
AcDbEntity
  8
0
  6
Continuous
 62
     7
370
    25
100
AcDbLine
 10
63.4561960743
 20
112.0809015177
 30
0.0
 11
81.2807592128
 21
112.0809015177
 31
0.0
  0
LINE
  5
2C1
330
1F
100
AcDbEntity
  8
0
  6
Continuous
 62
     7
370
    25
100
AcDbLine
 10
63.4561960743
 20
119.0809015177
 30
0.0
 11
63.4561960743
 21
112.0809015177
 31
0.0
  0
LINE
  5
2C2
330
1F
100
AcDbEntity
  8
0
  6
Continuous
 62
     7
370
    25
100
AcDbLine
 10
83.4561960743
 20
118.8526007817
 30
0.0
 11
81.2807592128
 21
119.0809015177
 31
0.0
  0
LINE
  5
2C3
330
1F
100
AcDbEntity
  8
0
  6
Continuous
 62
     7
370
    25
100
AcDbLine
 10
81.2807592128
 20
119.0809015177
 30
0.0
 11
63.4561960743
 21
119.0809015177
 31
0.0
  0
LINE
  5
2C4
330
1F
100
AcDbEntity
  8
0
  6
Continuous
 62
     7
370
    25
100
AcDbLine
 10
98.2323939
 20
117.3019159985
 30
0.0
 11
98.1039848613
 21
117.117774365
 31
0.0
  0
LINE
  5
2C5
330
1F
100
AcDbEntity
  8
0
  6
Continuous
 62
     7
370
    25
100
AcDbLine
 10
98.1135522021
 20
114.0356838503
 30
0.0
 11
98.2323939
 21
113.8598870368
 31
0.0
  0
LINE
  5
2C6
330
1F
100
AcDbEntity
  8
0
  6
Continuous
 62
     7
370
    25
100
AcDbLine
 10
90.0396264207
 20
118.1617041532
 30
0.0
 11
90.0396264207
 21
113.0000988821
 31
0.0
  0
LINE
  5
2C7
330
1F
100
AcDbEntity
  8
0
  6
Continuous
 62
     7
370
    25
100
AcDbLine
 10
98.2323939
 20
113.8598870368
 30
0.0
 11
90.0396264207
 21
113.0000988821
 31
0.0
  0
LINE
  5
2C8
330
1F
100
AcDbEntity
  8
0
  6
Continuous
 62
     7
370
    25
100
AcDbLine
 10
90.0396264207
 20
118.1617041532
 30
0.0
 11
98.2323939
 21
117.3019159985
 31
0.0
  0
LINE
  5
2C9
330
1F
100
AcDbEntity
  8
0
  6
Continuous
 62
     7
370
    25
100
AcDbLine
 10
90.0396264207
 20
113.0000988821
 30
0.0
 11
83.4561960743
 21
112.3092022536
 31
0.0
  0
LINE
  5
2CA
330
1F
100
AcDbEntity
  8
0
  6
Continuous
 62
     7
370
    25
100
AcDbLine
 10
83.4561960743
 20
118.8526007817
 30
0.0
 11
90.0396264207
 21
118.1617041532
 31
0.0
  0
ARC
  5
2CB
330
1F
100
AcDbEntity
  8
0
  6
Continuous
 62
     7
370
    25
100
AcDbCircle
 10
103.4561960743
 20
115.5809015177
 30
0.0
 40
7.450000000000641
100
AcDbArc
 50
233.0863788866
 51
126.9136211134
  0
ARC
  5
2CC
330
1F
100
AcDbEntity
  8
0
  6
Continuous
 62
     7
370
    25
100
AcDbCircle
 10
103.4561960743
 20
115.5809015177
 30
0.0
 40
7.207531252870776
100
AcDbArc
 50
195.3041237151
 51
238.9797515565
  0
ARC
  5
2CD
330
1F
100
AcDbEntity
  8
0
  6
Continuous
 62
     7
370
    25
100
AcDbCircle
 10
103.4561960743
 20
115.5809015177
 30
0.0
 40
7.207531252872426
100
AcDbArc
 50
121.0202484435
 51
164.6958762849
  0
ARC
  5
2CE
330
1F
100
AcDbEntity
  8
0
  6
Continuous
 62
     7
370
    25
100
AcDbCircle
 10
81.2807592128
 20
184.0809015177
 30
0.0
 40
64.99999999999997
100
AcDbArc
 50
270.0
 51
286.5000949923
  0
ARC
  5
2CF
330
1F
100
AcDbEntity
  8
0
  6
Continuous
 62
     7
370
    25
100
AcDbCircle
 10
81.2807592128
 20
47.0809015177
 30
0.0
 40
65.00000000000001
100
AcDbArc
 50
73.4999050077
 51
90.0
  0
LINE
  5
2D0
330
1F
100
AcDbEntity
  8
0
  6
Continuous
 62
     7
370
    25
100
AcDbLine
 10
94.3561960743
 20
125.2412975456
 30
0.0
 11
94.3561960743
 21
120.4096132404
 31
0.0
  0
LINE
  5
2D1
330
1F
100
AcDbEntity
  8
0
  6
Continuous
 62
     7
370
    25
100
AcDbLine
 10
94.3561960743
 20
110.7521897949
 30
0.0
 11
94.3561960743
 21
105.9205054897
 31
0.0
  0
INSERT
  5
2DD
330
1F
100
AcDbEntity
  8
FORMAT
100
AcDbBlockReference
  2
SW_CENTERMARKSYMBOL_1
 10
103.4561960743
 20
115.5809015177
 30
0.0
  0
ENDSEC
  0
SECTION
  2
OBJECTS
  0
DICTIONARY
  5
C
330
0
100
AcDbDictionary
281
     1
  3
ACAD_GROUP
350
D
  3
ACAD_LAYOUT
350
1A
  3
ACAD_MLINESTYLE
350
17
  3
ACAD_PLOTSETTINGS
350
19
  3
ACAD_PLOTSTYLENAME
350
E
  3
ACAD_SCALELIST
350
47
  3
DWGPROPS
350
2DE
  0
DICTIONARY
  5
D
102
{ACAD_REACTORS
330
C
102
}
330
C
100
AcDbDictionary
281
     1
  0
DICTIONARY
  5
1A
102
{ACAD_REACTORS
330
C
102
}
330
C
100
AcDbDictionary
281
     1
  3
Layout1
350
1E
  3
Layout2
350
26
  3
Model
350
22
  0
DICTIONARY
  5
17
102
{ACAD_REACTORS
330
C
102
}
330
C
100
AcDbDictionary
281
     1
  3
Standard
350
18
  0
DICTIONARY
  5
19
102
{ACAD_REACTORS
330
C
102
}
330
C
100
AcDbDictionary
281
     1
  0
ACDBDICTIONARYWDFLT
  5
E
102
{ACAD_REACTORS
330
C
102
}
330
C
100
AcDbDictionary
281
     1
  3
Normal
350
F
100
AcDbDictionaryWithDefault
340
F
  0
DICTIONARY
  5
47
102
{ACAD_REACTORS
330
C
102
}
330
C
100
AcDbDictionary
281
     1
  3
A0
350
48
  3
A1
350
49
  3
A2
350
4A
  3
A3
350
4B
  3
A4
350
4C
  3
A5
350
4D
  3
A6
350
4E
  3
A7
350
4F
  3
A8
350
50
  3
A9
350
51
  3
B0
350
52
  3
B1
350
53
  3
B2
350
54
  3
B3
350
55
  3
B4
350
56
  3
B5
350
57
  3
B6
350
58
  0
XRECORD
  5
2DE
102
{ACAD_REACTORS
330
C
102
}
330
C
100
AcDbXrecord
280
     1
  1
DWGPROPS COOKIE
  2

  3

  4

  6

  7

  8
user28
  9

300
=
301
=
302
=
303
=
304
=
305
=
306
=
307
=
308
=
309
=
 40
0.0
 41
2460424.316588819
 42
2460424.31659
  1

 90
        0
  0
LAYOUT
  5
1E
102
{ACAD_REACTORS
330
1A
102
}
330
1A
100
AcDbPlotSettings
  1

  2
none_device
  4

  6

 40
0.0
 41
0.0
 42
0.0
 43
0.0
 44
0.0
 45
0.0
 46
0.0
 47
0.0
 48
0.0
 49
0.0
140
0.0
141
0.0
142
1.0
143
1.0
 70
   688
 72
     1
 73
     0
 74
     5
  7

 75
    16
147
1.0
148
0.0
149
0.0
100
AcDbLayout
  1
Layout1
 70
     1
 71
     1
 10
0.0
 20
0.0
 11
420.0
 21
297.0
 12
0.0
 22
0.0
 32
0.0
 14
1.0000000000E+20
 24
1.0000000000E+20
 34
1.0000000000E+20
 15
-1.0000000000E+20
 25
-1.0000000000E+20
 35
-1.0000000000E+20
146
0.0
 13
0.0
 23
0.0
 33
0.0
 16
1.0
 26
0.0
 36
0.0
 17
0.0
 27
1.0
 37
0.0
 76
     0
330
1B
  0
LAYOUT
  5
26
102
{ACAD_REACTORS
330
1A
102
}
330
1A
100
AcDbPlotSettings
  1

  2
none_device
  4

  6

 40
0.0
 41
0.0
 42
0.0
 43
0.0
 44
0.0
 45
0.0
 46
0.0
 47
0.0
 48
0.0
 49
0.0
140
0.0
141
0.0
142
1.0
143
1.0
 70
   688
 72
     1
 73
     0
 74
     5
  7

 75
    16
147
1.0
148
0.0
149
0.0
100
AcDbLayout
  1
Layout2
 70
     1
 71
     2
 10
0.0
 20
0.0
 11
0.0
 21
0.0
 12
0.0
 22
0.0
 32
0.0
 14
0.0
 24
0.0
 34
0.0
 15
0.0
 25
0.0
 35
0.0
146
0.0
 13
0.0
 23
0.0
 33
0.0
 16
1.0
 26
0.0
 36
0.0
 17
0.0
 27
1.0
 37
0.0
 76
     0
330
23
  0
LAYOUT
  5
22
102
{ACAD_REACTORS
330
1A
102
}
330
1A
100
AcDbPlotSettings
  1

  2
none_device
  4
Letter_(8.50_x_11.00_Inches)
  6

 40
6.35
 41
6.35
 42
6.35000508
 43
6.35000508
 44
215.9
 45
279.4
 46
0.0
 47
0.0
 48
0.0
 49
0.0
140
0.0
141
0.0
142
1.0
143
1.0
 70
  1712
 72
     1
 73
     0
 74
     0
  7

 75
     0
147
1.0
148
0.0
149
0.0
100
AcDbLayout
  1
Model
 70
     1
 71
     0
 10
0.0
 20
0.0
 11
297.0
 21
210.0
 12
0.0
 22
0.0
 32
0.0
 14
0.0
 24
0.0
 34
0.0
 15
297.0
 25
210.0
 35
0.0
146
0.0
 13
0.0
 23
0.0
 33
0.0
 16
1.0
 26
0.0
 36
0.0
 17
0.0
 27
1.0
 37
0.0
 76
     0
330
1F
331
29
  0
MLINESTYLE
  5
18
102
{ACAD_REACTORS
330
17
102
}
330
17
100
AcDbMlineStyle
  2
Standard
 70
     0
  3

 62
   256
 51
90.0
 52
90.0
 71
     2
 49
0.5
 62
   256
  6
BYLAYER
 49
-0.5
 62
   256
  6
BYLAYER
  0
ACDBPLACEHOLDER
  5
F
102
{ACAD_REACTORS
330
E
102
}
330
E
  0
SCALE
  5
48
102
{ACAD_REACTORS
330
47
102
}
330
47
100
AcDbScale
 70
     0
300
1:1
140
1.0
141
1.0
290
     1
  0
SCALE
  5
49
102
{ACAD_REACTORS
330
47
102
}
330
47
100
AcDbScale
 70
     0
300
1:2
140
1.0
141
2.0
290
     0
  0
SCALE
  5
4A
102
{ACAD_REACTORS
330
47
102
}
330
47
100
AcDbScale
 70
     0
300
1:4
140
1.0
141
4.0
290
     0
  0
SCALE
  5
4B
102
{ACAD_REACTORS
330
47
102
}
330
47
100
AcDbScale
 70
     0
300
1:5
140
1.0
141
5.0
290
     0
  0
SCALE
  5
4C
102
{ACAD_REACTORS
330
47
102
}
330
47
100
AcDbScale
 70
     0
300
1:8
140
1.0
141
8.0
290
     0
  0
SCALE
  5
4D
102
{ACAD_REACTORS
330
47
102
}
330
47
100
AcDbScale
 70
     0
300
1:10
140
1.0
141
10.0
290
     0
  0
SCALE
  5
4E
102
{ACAD_REACTORS
330
47
102
}
330
47
100
AcDbScale
 70
     0
300
1:16
140
1.0
141
16.0
290
     0
  0
SCALE
  5
4F
102
{ACAD_REACTORS
330
47
102
}
330
47
100
AcDbScale
 70
     0
300
1:20
140
1.0
141
20.0
290
     0
  0
SCALE
  5
50
102
{ACAD_REACTORS
330
47
102
}
330
47
100
AcDbScale
 70
     0
300
1:30
140
1.0
141
30.0
290
     0
  0
SCALE
  5
51
102
{ACAD_REACTORS
330
47
102
}
330
47
100
AcDbScale
 70
     0
300
1:40
140
1.0
141
40.0
290
     0
  0
SCALE
  5
52
102
{ACAD_REACTORS
330
47
102
}
330
47
100
AcDbScale
 70
     0
300
1:50
140
1.0
141
50.0
290
     0
  0
SCALE
  5
53
102
{ACAD_REACTORS
330
47
102
}
330
47
100
AcDbScale
 70
     0
300
1:100
140
1.0
141
100.0
290
     0
  0
SCALE
  5
54
102
{ACAD_REACTORS
330
47
102
}
330
47
100
AcDbScale
 70
     0
300
2:1
140
2.0
141
1.0
290
     0
  0
SCALE
  5
55
102
{ACAD_REACTORS
330
47
102
}
330
47
100
AcDbScale
 70
     0
300
4:1
140
4.0
141
1.0
290
     0
  0
SCALE
  5
56
102
{ACAD_REACTORS
330
47
102
}
330
47
100
AcDbScale
 70
     0
300
8:1
140
8.0
141
1.0
290
     0
  0
SCALE
  5
57
102
{ACAD_REACTORS
330
47
102
}
330
47
100
AcDbScale
 70
     0
300
10:1
140
10.0
141
1.0
290
     0
  0
SCALE
  5
58
102
{ACAD_REACTORS
330
47
102
}
330
47
100
AcDbScale
 70
     0
300
100:1
140
100.0
141
1.0
290
     0
  0
ENDSEC
  0
EOF
