  0
SECTION
  2
HEADER
  9
$ACADVER
  1
AC1015
  9
$ACADMAINTVER
 70
     6
  9
$DWGCODEPAGE
  3
DOS932
  9
$INSBASE
 10
0.0
 20
0.0
 30
0.0
  9
$EXTMIN
 10
0.0
 20
0.0
 30
0.0
  9
$EXTMAX
 10
297.0
 20
210.0
 30
0.0
  9
$LIMMIN
 10
0.0
 20
0.0
  9
$LIMMAX
 10
297.0
 20
210.0
  9
$ORTHOMODE
 70
     0
  9
$REGENMODE
 70
     1
  9
$FILLMODE
 70
     1
  9
$QTEXTMODE
 70
     0
  9
$MIRRTEXT
 70
     1
  9
$LTSCALE
 40
1.0
  9
$ATTMODE
 70
     1
  9
$TEXTSIZE
 40
3.5277777778
  9
$TRACEWID
 40
1.0
  9
$TEXTSTYLE
  7
Standard
  9
$CLAYER
  8
0
  9
$CELTYPE
  6
ByLayer
  9
$CECOLOR
 62
   256
  9
$CELTSCALE
 40
1.0
  9
$DISPSILH
 70
     0
  9
$DIMSCALE
 40
1.0
  9
$DIMASZ
 40
2.728515625
  9
$DIMEXO
 40
1.0
  9
$DIMDLI
 40
3.75
  9
$DIMRND
 40
0.0
  9
$DIMDLE
 40
0.0
  9
$DIMEXE
 40
1.0
  9
$DIMTP
 40
0.0
  9
$DIMTM
 40
0.0
  9
$DIMTXT
 40
3.5277777778
  9
$DIMCEN
 40
2.5
  9
$DIMTSZ
 40
0.0
  9
$DIMTOL
 70
     0
  9
$DIMLIM
 70
     0
  9
$DIMTIH
 70
     1
  9
$DIMTOH
 70
     1
  9
$DIMSE1
 70
     0
  9
$DIMSE2
 70
     0
  9
$DIMTAD
 70
     1
  9
$DIMZIN
 70
     0
  9
$DIMBLK
  1

  9
$DIMASO
 70
     1
  9
$DIMSHO
 70
     1
  9
$DIMPOST
  1

  9
$DIMAPOST
  1

  9
$DIMALT
 70
     0
  9
$DIMALTD
 70
     3
  9
$DIMALTF
 40
0.0393700787
  9
$DIMLFAC
 40
1.0
  9
$DIMTOFL
 70
     1
  9
$DIMTVP
 40
0.0
  9
$DIMTIX
 70
     0
  9
$DIMSOXD
 70
     0
  9
$DIMSAH
 70
     0
  9
$DIMBLK1
  1

  9
$DIMBLK2
  1

  9
$DIMSTYLE
  2
ISO-25
  9
$DIMCLRD
 70
     0
  9
$DIMCLRE
 70
     0
  9
$DIMCLRT
 70
     0
  9
$DIMTFAC
 40
1.0
  9
$DIMGAP
 40
1.524
  9
$DIMJUST
 70
     0
  9
$DIMSD1
 70
     0
  9
$DIMSD2
 70
     0
  9
$DIMTOLJ
 70
     0
  9
$DIMTZIN
 70
     0
  9
$DIMALTZ
 70
     0
  9
$DIMALTTZ
 70
     0
  9
$DIMUPT
 70
     0
  9
$DIMDEC
 70
     2
  9
$DIMTDEC
 70
     2
  9
$DIMALTU
 70
     2
  9
$DIMALTTD
 70
     3
  9
$DIMTXSTY
  7
Standard
  9
$DIMAUNIT
 70
     0
  9
$DIMADEC
 70
     2
  9
$DIMALTRND
 40
0.0
  9
$DIMAZIN
 70
     0
  9
$DIMDSEP
 70
    44
  9
$DIMATFIT
 70
     3
  9
$DIMFRAC
 70
     0
  9
$DIMLDRBLK
  1

  9
$DIMLUNIT
 70
     2
  9
$DIMLWD
 70
    -2
  9
$DIMLWE
 70
    -2
  9
$DIMTMOVE
 70
     0
  9
$LUNITS
 70
     2
  9
$LUPREC
 70
     2
  9
$SKETCHINC
 40
1.0
  9
$FILLETRAD
 40
0.0
  9
$AUNITS
 70
     0
  9
$AUPREC
 70
     2
  9
$MENU
  1
.
  9
$ELEVATION
 40
0.0
  9
$PELEVATION
 40
0.0
  9
$THICKNESS
 40
0.0
  9
$LIMCHECK
 70
     0
  9
$CHAMFERA
 40
0.0
  9
$CHAMFERB
 40
0.0
  9
$CHAMFERC
 40
0.0
  9
$CHAMFERD
 40
0.0
  9
$SKPOLY
 70
     0
  9
$TDCREATE
 40
2460424.690139815
  9
$TDUCREATE
 40
2460424.315139815
  9
$TDUPDATE
 40
2460424.690140579
  9
$TDUUPDATE
 40
2460424.315140579
  9
$TDINDWG
 40
0.0000000116
  9
$TDUSRTIMER
 40
0.0000000116
  9
$USRTIMER
 70
     1
  9
$ANGBASE
 50
0.0
  9
$ANGDIR
 70
     0
  9
$PDMODE
 70
     0
  9
$PDSIZE
 40
-1.0
  9
$PLINEWID
 40
0.0
  9
$SPLFRAME
 70
     0
  9
$SPLINETYPE
 70
     6
  9
$SPLINESEGS
 70
     8
  9
$HANDSEED
  5
240
  9
$SURFTAB1
 70
     6
  9
$SURFTAB2
 70
     6
  9
$SURFTYPE
 70
     6
  9
$SURFU
 70
     6
  9
$SURFV
 70
     6
  9
$UCSBASE
  2

  9
$UCSNAME
  2

  9
$UCSORG
 10
0.0
 20
0.0
 30
0.0
  9
$UCSXDIR
 10
1.0
 20
0.0
 30
0.0
  9
$UCSYDIR
 10
0.0
 20
1.0
 30
0.0
  9
$UCSORTHOREF
  2

  9
$UCSORTHOVIEW
 70
     0
  9
$UCSORGTOP
 10
0.0
 20
0.0
 30
0.0
  9
$UCSORGBOTTOM
 10
0.0
 20
0.0
 30
0.0
  9
$UCSORGLEFT
 10
0.0
 20
0.0
 30
0.0
  9
$UCSORGRIGHT
 10
0.0
 20
0.0
 30
0.0
  9
$UCSORGFRONT
 10
0.0
 20
0.0
 30
0.0
  9
$UCSORGBACK
 10
0.0
 20
0.0
 30
0.0
  9
$PUCSBASE
  2

  9
$PUCSNAME
  2

  9
$PUCSORG
 10
0.0
 20
0.0
 30
0.0
  9
$PUCSXDIR
 10
1.0
 20
0.0
 30
0.0
  9
$PUCSYDIR
 10
0.0
 20
1.0
 30
0.0
  9
$PUCSORTHOREF
  2

  9
$PUCSORTHOVIEW
 70
     0
  9
$PUCSORGTOP
 10
0.0
 20
0.0
 30
0.0
  9
$PUCSORGBOTTOM
 10
0.0
 20
0.0
 30
0.0
  9
$PUCSORGLEFT
 10
0.0
 20
0.0
 30
0.0
  9
$PUCSORGRIGHT
 10
0.0
 20
0.0
 30
0.0
  9
$PUCSORGFRONT
 10
0.0
 20
0.0
 30
0.0
  9
$PUCSORGBACK
 10
0.0
 20
0.0
 30
0.0
  9
$USERI1
 70
     0
  9
$USERI2
 70
     0
  9
$USERI3
 70
     0
  9
$USERI4
 70
     0
  9
$USERI5
 70
     0
  9
$USERR1
 40
0.0
  9
$USERR2
 40
0.0
  9
$USERR3
 40
0.0
  9
$USERR4
 40
0.0
  9
$USERR5
 40
0.0
  9
$WORLDVIEW
 70
     1
  9
$SHADEDGE
 70
     3
  9
$SHADEDIF
 70
    70
  9
$TILEMODE
 70
     1
  9
$MAXACTVP
 70
    64
  9
$PINSBASE
 10
0.0
 20
0.0
 30
0.0
  9
$PLIMCHECK
 70
     0
  9
$PEXTMIN
 10
1.0000000000E+20
 20
1.0000000000E+20
 30
1.0000000000E+20
  9
$PEXTMAX
 10
-1.0000000000E+20
 20
-1.0000000000E+20
 30
-1.0000000000E+20
  9
$PLIMMIN
 10
0.0
 20
0.0
  9
$PLIMMAX
 10
420.0
 20
297.0
  9
$UNITMODE
 70
     0
  9
$VISRETAIN
 70
     1
  9
$PLINEGEN
 70
     0
  9
$PSLTSCALE
 70
     1
  9
$TREEDEPTH
 70
  3020
  9
$CMLSTYLE
  2
Standard
  9
$CMLJUST
 70
     0
  9
$CMLSCALE
 40
20.0
  9
$PROXYGRAPHICS
 70
     1
  9
$MEASUREMENT
 70
     1
  9
$CELWEIGHT
370
    -1
  9
$ENDCAPS
280
     0
  9
$JOINSTYLE
280
     0
  9
$LWDISPLAY
290
     1
  9
$INSUNITS
 70
     4
  9
$HYPERLINKBASE
  1

  9
$STYLESHEET
  1

  9
$XEDIT
290
     1
  9
$CEPSNTYPE
380
     0
  9
$PSTYLEMODE
290
     1
  9
$FINGERPRINTGUID
  2
{427615cd-ce70-4155-8a1a-4fd9ff0a1f70}
  9
$VERSIONGUID
  2
{FAEB1C32-E019-11D5-929B-00C0DF256EC4}
  9
$EXTNAMES
290
     1
  9
$PSVPSCALE
 40
0.0
  9
$OLESTARTUP
290
     0
  0
ENDSEC
  0
SECTION
  2
CLASSES
  0
CLASS
  1
ACDBDICTIONARYWDFLT
  2
AcDbDictionaryWithDefault
  3
ObjectDBX Classes
 90
        0
280
     0
281
     0
  0
CLASS
  1
VISUALSTYLE
  2
AcDbVisualStyle
  3
ObjectDBX Classes
 90
     4095
280
     0
281
     0
  0
CLASS
  1
MATERIAL
  2
AcDbMaterial
  3
ObjectDBX Classes
 90
     1153
280
     0
281
     0
  0
CLASS
  1
SCALE
  2
AcDbScale
  3
ObjectDBX Classes
 90
     1153
280
     0
281
     0
  0
CLASS
  1
TABLESTYLE
  2
AcDbTableStyle
  3
ObjectDBX Classes
 90
     4095
280
     0
281
     0
  0
CLASS
  1
MLEADERSTYLE
  2
AcDbMLeaderStyle
  3
ACDB_MLEADERSTYLE_CLASS
 90
     4095
280
     0
281
     0
  0
CLASS
  1
SUN
  2
AcDbSun
  3
SCENEOE
 90
     1153
280
     0
281
     0
  0
CLASS
  1
ACDBPLACEHOLDER
  2
AcDbPlaceHolder
  3
ObjectDBX Classes
 90
        0
280
     0
281
     0
  0
CLASS
  1
LAYOUT
  2
AcDbLayout
  3
ObjectDBX Classes
 90
        0
280
     0
281
     0
  0
ENDSEC
  0
SECTION
  2
TABLES
  0
TABLE
  2
VPORT
  5
8
330
0
100
AcDbSymbolTable
 70
     1
  0
VPORT
  5
29
330
8
100
AcDbSymbolTableRecord
100
AcDbViewportTableRecord
  2
*Active
 70
     0
 10
0.0
 20
0.0
 11
1.0
 21
1.0
 12
148.5
 22
105.0
 13
0.0
 23
0.0
 14
10.0
 24
10.0
 15
10.0
 25
10.0
 16
0.0
 26
0.0
 36
1.0
 17
0.0
 27
0.0
 37
0.0
 40
210.0
 41
1.4142857143
 42
50.0
 43
0.0
 44
0.0
 50
0.0
 51
0.0
 71
     0
 72
  2000
 73
     1
 74
     3
 75
     0
 76
     0
 77
     0
 78
     0
281
     0
 65
     1
110
0.0
120
0.0
130
0.0
111
1.0
121
0.0
131
0.0
112
0.0
122
1.0
132
0.0
 79
     0
146
0.0
  0
ENDTAB
  0
TABLE
  2
LTYPE
  5
5
330
0
100
AcDbSymbolTable
 70
     6
  0
LTYPE
  5
14
330
5
100
AcDbSymbolTableRecord
100
AcDbLinetypeTableRecord
  2
ByBlock
 70
     0
  3

 72
    65
 73
     0
 40
0.0
  0
LTYPE
  5
15
330
5
100
AcDbSymbolTableRecord
100
AcDbLinetypeTableRecord
  2
ByLayer
 70
     0
  3

 72
    65
 73
     0
 40
0.0
  0
LTYPE
  5
16
330
5
100
AcDbSymbolTableRecord
100
AcDbLinetypeTableRecord
  2
Continuous
 70
     0
  3
Solid line
 72
    65
 73
     0
 40
0.0
  0
LTYPE
  5
5E
330
5
100
AcDbSymbolTableRecord
100
AcDbLinetypeTableRecord
  2
HIDDEN
 70
     0
  3
Hidden __ __ __ __ __ __ __ __ __ __ __ __ __ __
 72
    65
 73
     2
 40
1.905
 49
1.27
 74
     0
 49
-0.635
 74
     0
  0
LTYPE
  5
5F
330
5
100
AcDbSymbolTableRecord
100
AcDbLinetypeTableRecord
  2
PHANTOM
 70
     0
  3
Phantom ______  __  __  ______  __  __  ______
 72
    65
 73
     6
 40
12.7
 49
6.35
 74
     0
 49
-1.27
 74
     0
 49
1.27
 74
     0
 49
-1.27
 74
     0
 49
1.27
 74
     0
 49
-1.27
 74
     0
  0
LTYPE
  5
60
330
5
100
AcDbSymbolTableRecord
100
AcDbLinetypeTableRecord
  2
CENTER
 70
     0
  3
Center ____ _ ____ _ ____ _ ____ _ ____ _ ____
 72
    65
 73
     4
 40
10.16
 49
6.35
 74
     0
 49
-1.27
 74
     0
 49
1.27
 74
     0
 49
-1.27
 74
     0
  0
LTYPE
  5
61
330
5
100
AcDbSymbolTableRecord
100
AcDbLinetypeTableRecord
  2
CENTERX2
 70
     0
  3
Center (2x) ________  __  ________  __  _____
 72
    65
 73
     4
 40
20.32
 49
12.7
 74
     0
 49
-2.54
 74
     0
 49
2.54
 74
     0
 49
-2.54
 74
     0
  0
LTYPE
  5
62
330
5
100
AcDbSymbolTableRecord
100
AcDbLinetypeTableRecord
  2
DOT2
 70
     0
  3
Dot (.5x) ........................................
 72
    65
 73
     2
 40
0.635
 49
0.0
 74
     0
 49
-0.635
 74
     0
  0
ENDTAB
  0
TABLE
  2
LAYER
  5
2
330
0
100
AcDbSymbolTable
 70
     2
  0
LAYER
  5
10
330
2
100
AcDbSymbolTableRecord
100
AcDbLayerTableRecord
  2
0
 70
     0
 62
     7
  6
Continuous
370
    -3
390
F
  0
LAYER
  5
63
330
2
100
AcDbSymbolTableRecord
100
AcDbLayerTableRecord
  2
FORMAT
 70
     0
 62
     7
  6
Continuous
370
    -3
390
F
  0
ENDTAB
  0
TABLE
  2
STYLE
  5
3
330
0
100
AcDbSymbolTable
 70
     2
  0
STYLE
  5
11
330
3
100
AcDbSymbolTableRecord
100
AcDbTextStyleTableRecord
  2
Standard
 70
     0
 40
0.0
 41
1.0
 50
0.0
 71
     0
 42
3.5277777778
  3
txt
  4
bigfont
  0
STYLE
  5
64
330
3
100
AcDbSymbolTableRecord
100
AcDbTextStyleTableRecord
  2
SLDTEXTSTYLE0
 70
     0
 40
0.0
 41
0.7
 50
0.0
 71
     0
 42
3.5277777778
  3
TXT
  4
bigfont
  0
ENDTAB
  0
TABLE
  2
VIEW
  5
6
330
0
100
AcDbSymbolTable
 70
     0
  0
ENDTAB
  0
TABLE
  2
UCS
  5
7
330
0
100
AcDbSymbolTable
 70
     0
  0
ENDTAB
  0
TABLE
  2
APPID
  5
9
330
0
100
AcDbSymbolTable
 70
     1
  0
APPID
  5
12
330
9
100
AcDbSymbolTableRecord
100
AcDbRegAppTableRecord
  2
ACAD
 70
     0
  0
ENDTAB
  0
TABLE
  2
DIMSTYLE
  5
A
330
0
100
AcDbSymbolTable
 70
     1
100
AcDbDimStyleTable
  0
DIMSTYLE
105
27
330
A
100
AcDbSymbolTableRecord
100
AcDbDimStyleTableRecord
  2
ISO-25
 70
     0
 41
2.5
 42
0.625
 43
3.75
 44
1.25
 73
     0
 74
     0
 77
     1
 78
     8
140
2.5
141
2.5
143
0.0393700787
147
0.625
171
     3
172
     1
178
     0
271
     2
272
     2
274
     3
278
    44
283
     0
284
     8
340
11
  0
ENDTAB
  0
TABLE
  2
BLOCK_RECORD
  5
1
330
0
100
AcDbSymbolTable
 70
     3
  0
BLOCK_RECORD
  5
1F
330
1
100
AcDbSymbolTableRecord
100
AcDbBlockTableRecord
  2
*Model_Space
340
22
  0
BLOCK_RECORD
  5
1B
330
1
100
AcDbSymbolTableRecord
100
AcDbBlockTableRecord
  2
*Paper_Space
340
1E
  0
BLOCK_RECORD
  5
23
330
1
100
AcDbSymbolTableRecord
100
AcDbBlockTableRecord
  2
*Paper_Space0
340
26
  0
BLOCK_RECORD
  5
17F
330
1
100
AcDbSymbolTableRecord
100
AcDbBlockTableRecord
  2
SW_CENTERMARKSYMBOL_0
340
0
102
{BLKREFS
331
18A
102
}
  0
BLOCK_RECORD
  5
233
330
1
100
AcDbSymbolTableRecord
100
AcDbBlockTableRecord
  2
SW_CENTERMARKSYMBOL_1
340
0
102
{BLKREFS
331
23E
102
}
  0
ENDTAB
  0
ENDSEC
  0
SECTION
  2
BLOCKS
  0
BLOCK
  5
20
330
1F
100
AcDbEntity
  8
0
100
AcDbBlockBegin
  2
*Model_Space
 70
     0
 10
0.0
 20
0.0
 30
0.0
  3
*Model_Space
  1

  0
ENDBLK
  5
21
330
1F
100
AcDbEntity
  8
0
100
AcDbBlockEnd
  0
BLOCK
  5
1C
330
1B
100
AcDbEntity
 67
     1
  8
0
100
AcDbBlockBegin
  2
*Paper_Space
 70
     0
 10
0.0
 20
0.0
 30
0.0
  3
*Paper_Space
  1

  0
ENDBLK
  5
1D
330
1B
100
AcDbEntity
 67
     1
  8
0
100
AcDbBlockEnd
  0
BLOCK
  5
24
330
23
100
AcDbEntity
  8
0
100
AcDbBlockBegin
  2
*Paper_Space0
 70
     0
 10
0.0
 20
0.0
 30
0.0
  3
*Paper_Space0
  1

  0
ENDBLK
  5
25
330
23
100
AcDbEntity
  8
0
100
AcDbBlockEnd
  0
BLOCK
  5
180
330
17F
100
AcDbEntity
  8
0
100
AcDbBlockBegin
  2
SW_CENTERMARKSYMBOL_0
 70
     0
 10
0.0
 20
0.0
 30
0.0
  3
SW_CENTERMARKSYMBOL_0
  1

  0
LINE
  5
182
330
17F
100
AcDbEntity
  8
FORMAT
 62
     0
100
AcDbLine
 10
0.0
 20
0.0
 30
0.0
 11
0.0
 21
2.5
 31
0.0
  0
LINE
  5
183
330
17F
100
AcDbEntity
  8
FORMAT
 62
     0
100
AcDbLine
 10
0.0
 20
0.0
 30
0.0
 11
-2.5
 21
0.0
 31
0.0
  0
LINE
  5
184
330
17F
100
AcDbEntity
  8
FORMAT
 62
     0
100
AcDbLine
 10
0.0
 20
0.0
 30
0.0
 11
0.0
 21
-2.5
 31
0.0
  0
LINE
  5
185
330
17F
100
AcDbEntity
  8
FORMAT
 62
     0
100
AcDbLine
 10
0.0
 20
0.0
 30
0.0
 11
2.5
 21
0.0
 31
0.0
  0
LINE
  5
186
330
17F
100
AcDbEntity
  8
FORMAT
 62
     0
100
AcDbLine
 10
0.0
 20
5.0
 30
0.0
 11
0.0
 21
29.6839271612
 31
0.0
  0
LINE
  5
187
330
17F
100
AcDbEntity
  8
FORMAT
 62
     0
100
AcDbLine
 10
-5.0
 20
0.0
 30
0.0
 11
-12.5
 21
0.0
 31
0.0
  0
LINE
  5
188
330
17F
100
AcDbEntity
  8
FORMAT
 62
     0
100
AcDbLine
 10
0.0
 20
-5.0
 30
0.0
 11
0.0
 21
-12.5
 31
0.0
  0
LINE
  5
189
330
17F
100
AcDbEntity
  8
FORMAT
 62
     0
100
AcDbLine
 10
5.0
 20
0.0
 30
0.0
 11
12.5
 21
0.0
 31
0.0
  0
ENDBLK
  5
181
330
17F
100
AcDbEntity
  8
0
100
AcDbBlockEnd
  0
BLOCK
  5
234
330
233
100
AcDbEntity
  8
0
100
AcDbBlockBegin
  2
SW_CENTERMARKSYMBOL_1
 70
     0
 10
0.0
 20
0.0
 30
0.0
  3
SW_CENTERMARKSYMBOL_1
  1

  0
LINE
  5
236
330
233
100
AcDbEntity
  8
FORMAT
 62
     0
100
AcDbLine
 10
0.0
 20
0.0
 30
0.0
 11
0.0
 21
2.5
 31
0.0
  0
LINE
  5
237
330
233
100
AcDbEntity
  8
FORMAT
 62
     0
100
AcDbLine
 10
0.0
 20
0.0
 30
0.0
 11
-2.5
 21
0.0
 31
0.0
  0
LINE
  5
238
330
233
100
AcDbEntity
  8
FORMAT
 62
     0
100
AcDbLine
 10
0.0
 20
0.0
 30
0.0
 11
0.0
 21
-2.5
 31
0.0
  0
LINE
  5
239
330
233
100
AcDbEntity
  8
FORMAT
 62
     0
100
AcDbLine
 10
0.0
 20
0.0
 30
0.0
 11
2.5
 21
0.0
 31
0.0
  0
LINE
  5
23A
330
233
100
AcDbEntity
  8
FORMAT
 62
     0
100
AcDbLine
 10
0.0
 20
5.0
 30
0.0
 11
0.0
 21
9.95
 31
0.0
  0
LINE
  5
23B
330
233
100
AcDbEntity
  8
FORMAT
 62
     0
100
AcDbLine
 10
-5.0
 20
0.0
 30
0.0
 11
-41.5636599675
 21
0.0
 31
0.0
  0
LINE
  5
23C
330
233
100
AcDbEntity
  8
FORMAT
 62
     0
100
AcDbLine
 10
0.0
 20
-5.0
 30
0.0
 11
0.0
 21
-9.95
 31
0.0
  0
LINE
  5
23D
330
233
100
AcDbEntity
  8
FORMAT
 62
     0
100
AcDbLine
 10
5.0
 20
0.0
 30
0.0
 11
21.4582931761
 21
0.0
 31
0.0
  0
ENDBLK
  5
235
330
233
100
AcDbEntity
  8
0
100
AcDbBlockEnd
  0
ENDSEC
  0
SECTION
  2
ENTITIES
  0
MTEXT
  5
65
330
1F
100
AcDbEntity
  8
FORMAT
100
AcDbMText
 10
114.1863279613
 20
97.5432381774
 30
0.0
 40
3.7041666667
 41
0.0
 71
     1
 72
     1
  1
エースボール　BW-9022R
  7
SLDTEXTSTYLE0
 73
     1
 44
1.0
  0
LINE
  5
66
330
1F
100
AcDbEntity
  8
0
  6
Continuous
 62
     7
370
    25
100
AcDbLine
 10
83.597767708
 20
64.1660495119
 30
0.0
 11
82.6942407621
 21
62.6010949357
 31
0.0
  0
LINE
  5
67
330
1F
100
AcDbEntity
  8
0
  6
Continuous
 62
     7
370
    25
100
AcDbLine
 10
82.6942407621
 20
46.1010949357
 30
0.0
 11
83.597767708
 21
44.5361403594
 31
0.0
  0
LINE
  5
68
330
1F
100
AcDbEntity
  8
0
  6
Continuous
 62
     7
370
    25
100
AcDbLine
 10
94.7907138163
 20
44.5361403594
 30
0.0
 11
95.6942407621
 21
46.1010949357
 31
0.0
  0
LINE
  5
69
330
1F
100
AcDbEntity
  8
0
  6
Continuous
 62
     7
370
    25
100
AcDbLine
 10
95.6942407621
 20
62.6010949357
 30
0.0
 11
94.7907138163
 21
64.1660495119
 31
0.0
  0
LINE
  5
6A
330
1F
100
AcDbEntity
  8
0
  6
Continuous
 62
     7
370
    25
100
AcDbLine
 10
95.9442407621
 20
64.3510949357
 30
0.0
 11
95.6942407621
 21
64.1010949357
 31
0.0
  0
LINE
  5
6B
330
1F
100
AcDbEntity
  8
0
  6
Continuous
 62
     7
370
    25
100
AcDbLine
 10
95.6942407621
 20
44.6010949357
 30
0.0
 11
95.9442407621
 21
44.3510949357
 31
0.0
  0
LINE
  5
6C
330
1F
100
AcDbEntity
  8
0
  6
Continuous
 62
     7
370
    25
100
AcDbLine
 10
115.4442407621
 20
64.3510949357
 30
0.0
 11
113.5762067734
 21
64.3510949357
 31
0.0
  0
LINE
  5
6D
330
1F
100
AcDbEntity
  8
0
  6
Continuous
 62
     7
370
    25
100
AcDbLine
 10
113.5762067734
 20
44.3510949357
 30
0.0
 11
115.4442407621
 21
44.3510949357
 31
0.0
  0
LINE
  5
6E
330
1F
100
AcDbEntity
  8
0
  6
Continuous
 62
     7
370
    25
100
AcDbLine
 10
95.9442407621
 20
44.3510949357
 30
0.0
 11
97.8122747509
 21
44.3510949357
 31
0.0
  0
LINE
  5
6F
330
1F
100
AcDbEntity
  8
0
  6
Continuous
 62
     7
370
    25
100
AcDbLine
 10
97.8122747509
 20
64.3510949357
 30
0.0
 11
95.9442407621
 21
64.3510949357
 31
0.0
  0
ARC
  5
70
330
1F
100
AcDbEntity
  8
0
  6
Continuous
 62
     7
370
    25
100
AcDbCircle
 10
114.6942407621
 20
63.3510949357
 30
0.0
 40
1.5
100
AcDbArc
 50
138.1896851042
 51
180.0
  0
ARC
  5
71
330
1F
100
AcDbEntity
  8
0
  6
Continuous
 62
     7
370
    25
100
AcDbCircle
 10
114.6942407621
 20
45.3510949357
 30
0.0
 40
1.5
100
AcDbArc
 50
180.0
 51
221.8103148958
  0
LINE
  5
72
330
1F
100
AcDbEntity
  8
0
  6
Continuous
 62
     7
370
    25
100
AcDbLine
 10
115.4442407621
 20
44.3510949357
 30
0.0
 11
115.6942407621
 21
44.6010949357
 31
0.0
  0
LINE
  5
73
330
1F
100
AcDbEntity
  8
0
  6
Continuous
 62
     7
370
    25
100
AcDbLine
 10
115.6942407621
 20
64.1010949357
 30
0.0
 11
115.4442407621
 21
64.3510949357
 31
0.0
  0
ARC
  5
74
330
1F
100
AcDbEntity
  8
0
  6
Continuous
 62
     7
370
    25
100
AcDbCircle
 10
96.6942407621
 20
45.3510949357
 30
0.0
 40
1.5
100
AcDbArc
 50
318.1896851042
 51
0.0
  0
ARC
  5
75
330
1F
100
AcDbEntity
  8
0
  6
Continuous
 62
     7
370
    25
100
AcDbCircle
 10
96.6942407621
 20
63.3510949357
 30
0.0
 40
1.500000000000004
100
AcDbArc
 50
0.0
 51
41.8103148958
  0
LINE
  5
76
330
1F
100
AcDbEntity
  8
0
  6
Continuous
 62
     7
370
    25
100
AcDbLine
 10
125.4442407621
 20
46.1010949357
 30
0.0
 11
125.6942407621
 21
46.3510949357
 31
0.0
  0
LINE
  5
77
330
1F
100
AcDbEntity
  8
0
  6
Continuous
 62
     7
370
    25
100
AcDbLine
 10
125.6942407621
 20
62.3510949357
 30
0.0
 11
125.4442407621
 21
62.6010949357
 31
0.0
  0
LINE
  5
78
330
1F
100
AcDbEntity
  8
0
  6
Continuous
 62
     7
370
    25
100
AcDbLine
 10
125.4442407621
 20
62.6010949357
 30
0.0
 11
115.6942407621
 21
62.6010949357
 31
0.0
  0
LINE
  5
79
330
1F
100
AcDbEntity
  8
0
  6
Continuous
 62
     7
370
    25
100
AcDbLine
 10
115.6942407621
 20
46.1010949357
 30
0.0
 11
125.4442407621
 21
46.1010949357
 31
0.0
  0
ARC
  5
7A
330
1F
100
AcDbEntity
  8
0
  6
Continuous
 62
     7
370
    25
100
AcDbCircle
 10
112.6942407621
 20
63.3510949357
 30
0.0
 40
0.5
100
AcDbArc
 50
270.0
 51
0.0
  0
ARC
  5
7B
330
1F
100
AcDbEntity
  8
0
  6
Continuous
 62
     7
370
    25
100
AcDbCircle
 10
98.6942407621
 20
63.3510949357
 30
0.0
 40
0.5
100
AcDbArc
 50
180.0
 51
270.0
  0
ARC
  5
7C
330
1F
100
AcDbEntity
  8
0
  6
Continuous
 62
     7
370
    25
100
AcDbCircle
 10
98.6942407621
 20
45.3510949357
 30
0.0
 40
0.5
100
AcDbArc
 50
90.0
 51
180.0
  0
ARC
  5
7D
330
1F
100
AcDbEntity
  8
0
  6
Continuous
 62
     7
370
    25
100
AcDbCircle
 10
112.6942407621
 20
45.3510949357
 30
0.0
 40
0.5
100
AcDbArc
 50
0.0
 51
90.0
  0
LINE
  5
7E
330
1F
100
AcDbEntity
  8
0
  6
Continuous
 62
     7
370
    25
100
AcDbLine
 10
99.3119198872
 20
62.8510949357
 30
0.0
 11
98.6942407621
 21
62.8510949357
 31
0.0
  0
LINE
  5
7F
330
1F
100
AcDbEntity
  8
0
  6
Continuous
 62
     7
370
    25
100
AcDbLine
 10
112.6942407621
 20
62.8510949357
 30
0.0
 11
112.0942407621
 21
62.8510949357
 31
0.0
  0
LINE
  5
80
330
1F
100
AcDbEntity
  8
0
  6
Continuous
 62
     7
370
    25
100
AcDbLine
 10
98.6942407621
 20
45.8510949357
 30
0.0
 11
112.6942407621
 21
45.8510949357
 31
0.0
  0
SPLINE
  5
81
330
1F
100
AcDbEntity
  8
0
  6
Continuous
 62
     7
370
    25
100
AcDbSpline
210
0.0
220
0.0
230
1.0
 70
     8
 71
     3
 72
    13
 73
     9
 74
     0
 42
0.00000001
 43
0.00000001
 40
0.0
 40
0.0
 40
0.0
 40
0.0
 40
0.1657648999013929
 40
0.3288516425910938
 40
0.5079757807440833
 40
0.6908230418584143
 40
0.8659232900064849
 40
1.0
 40
1.0
 40
1.0
 40
1.0
 10
112.0945487093069
 20
62.85442830724375
 30
0.0
 10
112.0508545430077
 20
62.85631072435265
 30
0.0
 10
111.9641721490407
 20
62.86004514556411
 30
0.0
 10
111.8399883243455
 20
62.91420323542411
 30
0.0
 10
111.7296208627314
 20
62.99863866954541
 30
0.0
 10
111.6468083922471
 20
63.11443352656161
 30
0.0
 10
111.600375323319
 20
63.2371959808545
 30
0.0
 10
111.5970886451744
 20
63.31843050865402
 30
0.0
 10
111.5956633546382
 20
63.35365841920306
 30
0.0
  0
SPLINE
  5
82
330
1F
100
AcDbEntity
  8
0
  6
Continuous
 62
     7
370
    25
100
AcDbSpline
210
0.0
220
0.0
230
1.0
 70
     8
 71
     3
 72
    13
 73
     9
 74
     0
 42
0.00000001
 43
0.00000001
 40
0.0
 40
0.0
 40
0.0
 40
0.0
 40
0.1607063118245939
 40
0.3468543103550863
 40
0.5363367921067442
 40
0.7155426209750598
 40
0.8707860443061729
 40
0.9999999999999999
 40
0.9999999999999999
 40
0.9999999999999999
 40
0.9999999999999999
 10
99.79314068552137
 20
63.34198311997241
 30
0.0
 10
99.78991645689018
 20
63.30127685834312
 30
0.0
 10
99.7829575665666
 20
63.2134200582943
 30
0.0
 10
99.72647183578815
 20
63.0872309570021
 30
0.0
 10
99.63666320575875
 20
62.97739896748458
 30
0.0
 10
99.52583085381578
 20
62.90223264015408
 30
0.0
 10
99.41468364304511
 20
62.86046811603163
 30
0.0
 10
99.34279141711868
 20
62.85457266513417
 30
0.0
 10
99.31013457788521
 20
62.85189467332508
 30
0.0
  0
LINE
  5
83
330
1F
100
AcDbEntity
  8
0
  6
Continuous
 62
     7
370
    25
100
AcDbLine
 10
111.5942407621
 20
63.3510949357
 30
0.0
 11
111.5942407621
 21
64.8510949357
 31
0.0
  0
LINE
  5
84
330
1F
100
AcDbEntity
  8
0
  6
Continuous
 62
     7
370
    25
100
AcDbLine
 10
99.7942407621
 20
64.8510949357
 30
0.0
 11
99.7942407621
 21
63.3398241957
 31
0.0
  0
LINE
  5
85
330
1F
100
AcDbEntity
  8
0
  6
Continuous
 62
     7
370
    25
100
AcDbLine
 10
113.1442407621
 20
72.8510949357
 30
0.0
 11
111.1942407621
 21
80.8510949356
 31
0.0
  0
LINE
  5
86
330
1F
100
AcDbEntity
  8
0
  6
Continuous
 62
     7
370
    25
100
AcDbLine
 10
112.6942407621
 20
64.8510949357
 30
0.0
 11
113.1442407621
 21
72.8510949357
 31
0.0
  0
LINE
  5
87
330
1F
100
AcDbEntity
  8
0
  6
Continuous
 62
     7
370
    25
100
AcDbLine
 10
98.6235841364
 20
66.107212727
 30
0.0
 11
98.6942407621
 21
64.8510949357
 31
0.0
  0
LINE
  5
88
330
1F
100
AcDbEntity
  8
0
  6
Continuous
 62
     7
370
    25
100
AcDbLine
 10
100.1942407621
 20
80.8510949356
 30
0.0
 11
99.9402639218
 21
79.8091386678
 31
0.0
  0
SPLINE
  5
89
330
1F
100
AcDbEntity
  8
0
  6
Continuous
 62
     7
370
    25
100
AcDbSpline
210
0.0
220
0.0
230
1.0
 70
     8
 71
     3
 72
    15
 73
    11
 74
     0
 42
0.00000001
 43
0.00000001
 40
0.0
 40
0.0
 40
0.0
 40
0.0
 40
0.1323052378296956
 40
0.2645730682660304
 40
0.3997997819746812
 40
0.5350020935366635
 40
0.6501929590834555
 40
0.7654017933211806
 40
0.8826895567076665
 40
1.0
 40
1.0
 40
1.0
 40
1.0
 10
83.59776770797694
 20
59.25857222377664
 30
0.0
 10
83.48219773613695
 20
59.47059476743313
 30
0.0
 10
83.25109046819578
 20
59.89457990843694
 30
0.0
 10
83.00242783661945
 20
60.54747949409207
 30
0.0
 10
82.85291388946592
 20
61.21268634631492
 30
0.0
 10
82.82330360241754
 20
61.85379699261227
 30
0.0
 10
82.90012500506818
 20
62.4602717574756
 30
0.0
 10
83.0575344761892
 20
63.03263471722798
 30
0.0
 10
83.28843683672018
 20
63.60240985748219
 30
0.0
 10
83.49465077227757
 20
63.97815751855165
 30
0.0
 10
83.59776770797694
 20
64.16604951188842
 30
0.0
  0
SPLINE
  5
8A
330
1F
100
AcDbEntity
  8
0
  6
Continuous
 62
     7
370
    25
100
AcDbSpline
210
0.0
220
0.0
230
1.0
 70
     8
 71
     3
 72
    15
 73
    11
 74
     0
 42
0.00000001
 43
0.00000001
 40
0.0
 40
0.0
 40
0.0
 40
0.0
 40
0.1885618541530433
 40
0.2837576363273393
 40
0.3789430702419546
 40
0.504520301881791
 40
0.63009842196169
 40
0.7590237271263157
 40
0.887984899289504
 40
1.0
 40
1.0
 40
1.0
 40
1.0
 10
83.59776770797694
 20
49.44361764755298
 30
0.0
 10
83.43610795540624
 20
50.04910317109587
 30
0.0
 10
83.19283399374112
 20
50.96026912119045
 30
0.0
 10
82.9845480499774
 20
52.2023953759895
 30
0.0
 10
82.86614798178987
 20
53.24547725425654
 30
0.0
 10
82.82172638744018
 20
54.39627524911059
 30
0.0
 10
82.87822066587853
 20
55.6587774716996
 30
0.0
 10
83.04340679070496
 20
56.92275409222592
 30
0.0
 10
83.28682919258318
 20
58.12804185951559
 30
0.0
 10
83.49909728222984
 20
58.89981990832161
 30
0.0
 10
83.59776770797694
 20
59.25857222377664
 30
0.0
  0
SPLINE
  5
8B
330
1F
100
AcDbEntity
  8
0
  6
Continuous
 62
     7
370
    25
100
AcDbSpline
210
0.0
220
0.0
230
1.0
 70
     8
 71
     3
 72
    15
 73
    11
 74
     0
 42
0.00000001
 43
0.00000001
 40
0.0
 40
0.0
 40
0.0
 40
0.0
 40
0.1323052378296956
 40
0.2645730682660303
 40
0.3997997819746811
 40
0.5350020935366634
 40
0.6501929590834553
 40
0.7654017933211805
 40
0.8826895567076666
 40
1.0
 40
1.0
 40
1.0
 40
1.0
 10
83.59776770797694
 20
44.53614035944113
 30
0.0
 10
83.48219773613695
 20
44.74816290309762
 30
0.0
 10
83.25109046819578
 20
45.17214804410144
 30
0.0
 10
83.00242783661945
 20
45.82504762975658
 30
0.0
 10
82.85291388946592
 20
46.49025448197943
 30
0.0
 10
82.82330360241755
 20
47.13136512827678
 30
0.0
 10
82.90012500506818
 20
47.73783989314012
 30
0.0
 10
83.0575344761892
 20
48.3102028528925
 30
0.0
 10
83.28843683672018
 20
48.87997799314674
 30
0.0
 10
83.49465077227755
 20
49.2557256542162
 30
0.0
 10
83.59776770797694
 20
49.44361764755298
 30
0.0
  0
LINE
  5
8C
330
1F
100
AcDbEntity
  8
0
  6
Continuous
 62
     7
370
    25
100
AcDbLine
 10
82.6942407621
 20
46.1010949357
 30
0.0
 11
82.6942407621
 21
62.6010949357
 31
0.0
  0
LINE
  5
8D
330
1F
100
AcDbEntity
  8
0
  6
Continuous
 62
     7
370
    25
100
AcDbLine
 10
83.597767708
 20
59.2585722238
 30
0.0
 11
94.7907138163
 21
59.2585722238
 31
0.0
  0
SPLINE
  5
8E
330
1F
100
AcDbEntity
  8
0
  6
Continuous
 62
     7
370
    25
100
AcDbSpline
210
0.0
220
0.0
230
1.0
 70
     8
 71
     3
 72
    15
 73
    11
 74
     0
 42
0.00000001
 43
0.00000001
 40
0.0
 40
0.0
 40
0.0
 40
0.0
 40
0.1885618541530433
 40
0.2837576363273393
 40
0.3789430702419546
 40
0.504520301881791
 40
0.63009842196169
 40
0.7590237271263156
 40
0.887984899289504
 40
1.0
 40
1.0
 40
1.0
 40
1.0
 10
94.79071381627244
 20
49.44361764755298
 30
0.0
 10
94.95237356884317
 20
50.04910317109587
 30
0.0
 10
95.1956475305083
 20
50.96026912119045
 30
0.0
 10
95.40393347427198
 20
52.2023953759895
 30
0.0
 10
95.52233354245952
 20
53.24547725425654
 30
0.0
 10
95.56675513680922
 20
54.39627524911059
 30
0.0
 10
95.51026085837086
 20
55.6587774716996
 30
0.0
 10
95.34507473354444
 20
56.92275409222592
 30
0.0
 10
95.1016523316662
 20
58.12804185951559
 30
0.0
 10
94.88938424201953
 20
58.89981990832161
 30
0.0
 10
94.79071381627244
 20
59.25857222377664
 30
0.0
  0
LINE
  5
8F
330
1F
100
AcDbEntity
  8
0
  6
Continuous
 62
     7
370
    25
100
AcDbLine
 10
83.597767708
 20
49.4436176476
 30
0.0
 11
94.7907138163
 21
49.4436176476
 31
0.0
  0
SPLINE
  5
90
330
1F
100
AcDbEntity
  8
0
  6
Continuous
 62
     7
370
    25
100
AcDbSpline
210
0.0
220
0.0
230
1.0
 70
     8
 71
     3
 72
    15
 73
    11
 74
     0
 42
0.00000001
 43
0.00000001
 40
0.0
 40
0.0
 40
0.0
 40
0.0
 40
0.1323052378296956
 40
0.2645730682660303
 40
0.3997997819746811
 40
0.5350020935366634
 40
0.6501929590834553
 40
0.7654017933211805
 40
0.8826895567076666
 40
1.0
 40
1.0
 40
1.0
 40
1.0
 10
94.79071381627244
 20
44.53614035944113
 30
0.0
 10
94.90628378811245
 20
44.74816290309762
 30
0.0
 10
95.1373910560536
 20
45.17214804410144
 30
0.0
 10
95.38605368762997
 20
45.82504762975658
 30
0.0
 10
95.53556763478349
 20
46.49025448197943
 30
0.0
 10
95.56517792183186
 20
47.13136512827678
 30
0.0
 10
95.48835651918122
 20
47.73783989314012
 30
0.0
 10
95.3309470480602
 20
48.3102028528925
 30
0.0
 10
95.1000446875292
 20
48.87997799314674
 30
0.0
 10
94.89383075197183
 20
49.2557256542162
 30
0.0
 10
94.79071381627244
 20
49.44361764755298
 30
0.0
  0
LINE
  5
91
330
1F
100
AcDbEntity
  8
0
  6
Continuous
 62
     7
370
    25
100
AcDbLine
 10
83.597767708
 20
44.5361403594
 30
0.0
 11
94.7907138163
 21
44.5361403594
 31
0.0
  0
SPLINE
  5
92
330
1F
100
AcDbEntity
  8
0
  6
Continuous
 62
     7
370
    25
100
AcDbSpline
210
0.0
220
0.0
230
1.0
 70
     8
 71
     3
 72
    15
 73
    11
 74
     0
 42
0.00000001
 43
0.00000001
 40
0.0
 40
0.0
 40
0.0
 40
0.0
 40
0.1323052378296956
 40
0.2645730682660303
 40
0.3997997819746812
 40
0.5350020935366635
 40
0.6501929590834555
 40
0.7654017933211806
 40
0.8826895567076665
 40
1.0
 40
1.0
 40
1.0
 40
1.0
 10
94.79071381627244
 20
59.25857222377664
 30
0.0
 10
94.90628378811245
 20
59.47059476743313
 30
0.0
 10
95.1373910560536
 20
59.89457990843694
 30
0.0
 10
95.38605368762995
 20
60.54747949409207
 30
0.0
 10
95.53556763478349
 20
61.21268634631492
 30
0.0
 10
95.56517792183186
 20
61.85379699261227
 30
0.0
 10
95.48835651918122
 20
62.4602717574756
 30
0.0
 10
95.3309470480602
 20
63.03263471722798
 30
0.0
 10
95.1000446875292
 20
63.60240985748219
 30
0.0
 10
94.89383075197183
 20
63.97815751855165
 30
0.0
 10
94.79071381627244
 20
64.16604951188842
 30
0.0
  0
LINE
  5
93
330
1F
100
AcDbEntity
  8
0
  6
Continuous
 62
     7
370
    25
100
AcDbLine
 10
83.597767708
 20
64.1660495119
 30
0.0
 11
94.7907138163
 21
64.1660495119
 31
0.0
  0
LINE
  5
94
330
1F
100
AcDbEntity
  8
0
  6
Continuous
 62
     7
370
    25
100
AcDbLine
 10
95.6942407621
 20
54.3510949357
 30
0.0
 11
95.6942407621
 21
64.1010949357
 31
0.0
  0
LINE
  5
95
330
1F
100
AcDbEntity
  8
0
  6
Continuous
 62
     7
370
    25
100
AcDbLine
 10
95.6942407621
 20
44.6010949357
 30
0.0
 11
95.6942407621
 21
54.3510949357
 31
0.0
  0
LINE
  5
96
330
1F
100
AcDbEntity
  8
0
  6
Continuous
 62
     7
370
    25
100
AcDbLine
 10
95.9442407621
 20
54.3510949357
 30
0.0
 11
95.9442407621
 21
44.3510949357
 31
0.0
  0
LINE
  5
97
330
1F
100
AcDbEntity
  8
0
  6
Continuous
 62
     7
370
    25
100
AcDbLine
 10
95.9442407621
 20
64.3510949357
 30
0.0
 11
95.9442407621
 21
54.3510949357
 31
0.0
  0
LINE
  5
98
330
1F
100
AcDbEntity
  8
0
  6
Continuous
 62
     7
370
    25
100
AcDbLine
 10
113.5762067734
 20
44.3510949357
 30
0.0
 11
113.5762067734
 21
64.3510949357
 31
0.0
  0
LINE
  5
99
330
1F
100
AcDbEntity
  8
0
  6
Continuous
 62
     7
370
    25
100
AcDbLine
 10
115.4442407621
 20
44.3510949357
 30
0.0
 11
115.4442407621
 21
64.3510949357
 31
0.0
  0
LINE
  5
9A
330
1F
100
AcDbEntity
  8
0
  6
Continuous
 62
     7
370
    25
100
AcDbLine
 10
97.8122747509
 20
54.3510949357
 30
0.0
 11
97.8122747509
 21
44.3510949357
 31
0.0
  0
LINE
  5
9B
330
1F
100
AcDbEntity
  8
0
  6
Continuous
 62
     7
370
    25
100
AcDbLine
 10
97.8122747509
 20
64.3510949357
 30
0.0
 11
97.8122747509
 21
54.3510949357
 31
0.0
  0
SPLINE
  5
9C
330
1F
100
AcDbEntity
  8
0
  6
Continuous
 62
     7
370
    25
100
AcDbSpline
210
0.0
220
0.0
230
1.0
 70
     8
 71
     3
 72
     8
 73
     4
 74
     0
 42
0.00000001
 43
0.00000001
 40
0.0
 40
0.0
 40
0.0
 40
0.0
 40
1.0
 40
1.0
 40
1.0
 40
1.0
 10
113.2914418867786
 20
48.95140508416888
 30
0.0
 10
113.2236054692026
 20
48.92004214315811
 30
0.0
 10
113.1942407621247
 20
48.88657398250855
 30
0.0
 10
113.1942407621247
 20
48.85109493566478
 30
0.0
  0
SPLINE
  5
9D
330
1F
100
AcDbEntity
  8
0
  6
Continuous
 62
     7
370
    25
100
AcDbSpline
210
0.0
220
0.0
230
1.0
 70
     8
 71
     3
 72
    12
 73
     8
 74
     0
 42
0.00000001
 43
0.00000001
 40
0.0
 40
0.0
 40
0.0
 40
0.0
 40
0.5000000000000001
 40
0.5000000000000001
 40
0.75
 40
0.75
 40
1.0
 40
1.0
 40
1.0
 40
1.0
 10
113.2914418867786
 20
48.95140508416888
 30
0.0
 10
113.3593116467884
 20
48.98278344045098
 30
0.0
 10
113.4353461980422
 20
49.11649196094953
 30
0.0
 10
113.4819907964192
 20
49.39451807061532
 30
0.0
 10
113.4864297929418
 20
49.50136425461927
 30
0.0
 10
113.470699179149
 20
49.72824572867501
 30
0.0
 10
113.4508187492066
 20
49.84841470097964
 30
0.0
 10
113.4233268292267
 20
49.96986434578987
 30
0.0
  0
SPLINE
  5
9E
330
1F
100
AcDbEntity
  8
0
  6
Continuous
 62
     7
370
    25
100
AcDbSpline
210
0.0
220
0.0
230
1.0
 70
     8
 71
     3
 72
    12
 73
     8
 74
     0
 42
0.00000001
 43
0.00000001
 40
0.0
 40
0.0
 40
0.0
 40
0.0
 40
0.5
 40
0.5
 40
0.75
 40
0.75
 40
1.0
 40
1.0
 40
1.0
 40
1.0
 10
113.1942407621247
 20
54.35109493566478
 30
0.0
 10
113.1942407621247
 20
53.61713791350757
 30
0.0
 10
113.1896833671255
 20
52.88415946914476
 30
0.0
 10
113.2168670315047
 20
51.78733535619835
 30
0.0
 10
113.2323167024219
 20
51.42218776762792
 30
0.0
 10
113.2951803039538
 20
50.69339975376387
 30
0.0
 10
113.3422102271221
 20
50.32820899836555
 30
0.0
 10
113.4233268292267
 20
49.96986434578987
 30
0.0
  0
SPLINE
  5
9F
330
1F
100
AcDbEntity
  8
0
  6
Continuous
 62
     7
370
    25
100
AcDbSpline
210
0.0
220
0.0
230
1.0
 70
     8
 71
     3
 72
    12
 73
     8
 74
     0
 42
0.00000001
 43
0.00000001
 40
0.0
 40
0.0
 40
0.0
 40
0.0
 40
0.25
 40
0.25
 40
0.5
 40
0.5
 40
1.0
 40
1.0
 40
1.0
 40
1.0
 10
113.4233268292267
 20
58.73232552553969
 30
0.0
 10
113.3422102271221
 20
58.37398087296401
 30
0.0
 10
113.2951803039538
 20
58.00879011756569
 30
0.0
 10
113.2323167024219
 20
57.28000210370164
 30
0.0
 10
113.2168670315047
 20
56.91485451513121
 30
0.0
 10
113.1896833671255
 20
55.8180304021848
 30
0.0
 10
113.1942407621247
 20
55.085051957822
 30
0.0
 10
113.1942407621247
 20
54.35109493566478
 30
0.0
  0
SPLINE
  5
A0
330
1F
100
AcDbEntity
  8
0
  6
Continuous
 62
     7
370
    25
100
AcDbSpline
210
0.0
220
0.0
230
1.0
 70
     8
 71
     3
 72
    14
 73
    10
 74
     0
 42
0.00000001
 43
0.00000001
 40
0.0
 40
0.0
 40
0.0
 40
0.0
 40
0.25
 40
0.25
 40
0.5
 40
0.5
 40
0.75
 40
0.75
 40
1.0
 40
1.0
 40
1.0
 40
1.0
 10
113.4233268292267
 20
58.73232552553969
 30
0.0
 10
113.4508478169718
 20
58.8539035815254
 30
0.0
 10
113.4707677388082
 20
58.97442831855053
 30
0.0
 10
113.4864347806263
 20
59.20140457765864
 30
0.0
 10
113.481942948814
 20
59.30837455522481
 30
0.0
 10
113.4506866035304
 20
59.49384010700454
 30
0.0
 10
113.4243140201486
 20
59.57272536812337
 30
0.0
 10
113.3614774690043
 20
59.69336315929647
 30
0.0
 10
113.3254378901442
 20
59.73506734973908
 30
0.0
 10
113.2914418867786
 20
59.75078478716068
 30
0.0
  0
SPLINE
  5
A1
330
1F
100
AcDbEntity
  8
0
  6
Continuous
 62
     7
370
    25
100
AcDbSpline
210
0.0
220
0.0
230
1.0
 70
     8
 71
     3
 72
     8
 73
     4
 74
     0
 42
0.00000001
 43
0.00000001
 40
0.0
 40
0.0
 40
0.0
 40
0.0
 40
1.0
 40
1.0
 40
1.0
 40
1.0
 10
113.1942407621247
 20
59.85109493566478
 30
0.0
 10
113.1942407621247
 20
59.81561588882101
 30
0.0
 10
113.2236054692026
 20
59.78214772817145
 30
0.0
 10
113.2914418867786
 20
59.75078478716068
 30
0.0
  0
LINE
  5
A2
330
1F
100
AcDbEntity
  8
0
  6
Continuous
 62
     7
370
    25
100
AcDbLine
 10
113.1942407621
 20
59.8510949357
 30
0.0
 11
113.1942407621
 21
63.3510949357
 31
0.0
  0
LINE
  5
A3
330
1F
100
AcDbEntity
  8
0
  6
Continuous
 62
     7
370
    25
100
AcDbLine
 10
113.1942407621
 20
45.3510949357
 30
0.0
 11
113.1942407621
 21
48.8510949357
 31
0.0
  0
LINE
  5
A4
330
1F
100
AcDbEntity
  8
0
  6
Continuous
 62
     7
370
    25
100
AcDbLine
 10
115.6942407621
 20
64.1010949357
 30
0.0
 11
115.6942407621
 21
44.6010949357
 31
0.0
  0
LINE
  5
A5
330
1F
100
AcDbEntity
  8
0
  6
Continuous
 62
     7
370
    25
100
AcDbLine
 10
98.1942407621
 20
63.3510949357
 30
0.0
 11
98.1942407621
 21
59.8510949357
 31
0.0
  0
SPLINE
  5
A6
330
1F
100
AcDbEntity
  8
0
  6
Continuous
 62
     7
370
    25
100
AcDbSpline
210
0.0
220
0.0
230
1.0
 70
     8
 71
     3
 72
     8
 73
     4
 74
     0
 42
0.00000001
 43
0.00000001
 40
0.0
 40
0.0
 40
0.0
 40
0.0
 40
1.0
 40
1.0
 40
1.0
 40
1.0
 10
98.09703963747079
 20
59.75078478716068
 30
0.0
 10
98.16487605504685
 20
59.78214772817145
 30
0.0
 10
98.19424076212469
 20
59.81561588882101
 30
0.0
 10
98.19424076212469
 20
59.85109493566478
 30
0.0
  0
SPLINE
  5
A7
330
1F
100
AcDbEntity
  8
0
  6
Continuous
 62
     7
370
    25
100
AcDbSpline
210
0.0
220
0.0
230
1.0
 70
     8
 71
     3
 72
    12
 73
     8
 74
     0
 42
0.00000001
 43
0.00000001
 40
0.0
 40
0.0
 40
0.0
 40
0.0
 40
0.4999999999999992
 40
0.4999999999999992
 40
0.7499999999999996
 40
0.7499999999999996
 40
1.0
 40
1.0
 40
1.0
 40
1.0
 10
98.09703963747079
 20
59.75078478716068
 30
0.0
 10
98.02916987746097
 20
59.71940643087858
 30
0.0
 10
97.95313532620723
 20
59.58569791038003
 30
0.0
 10
97.90649072783023
 20
59.30767180071425
 30
0.0
 10
97.9020517313076
 20
59.20082561671029
 30
0.0
 10
97.91778234510043
 20
58.97394414265454
 30
0.0
 10
97.9376627750428
 20
58.85377517034993
 30
0.0
 10
97.96515469502266
 20
58.73232552553969
 30
0.0
  0
SPLINE
  5
A8
330
1F
100
AcDbEntity
  8
0
  6
Continuous
 62
     7
370
    25
100
AcDbSpline
210
0.0
220
0.0
230
1.0
 70
     8
 71
     3
 72
    12
 73
     8
 74
     0
 42
0.00000001
 43
0.00000001
 40
0.0
 40
0.0
 40
0.0
 40
0.0
 40
0.4999999999999998
 40
0.4999999999999998
 40
0.7499999999999999
 40
0.7499999999999999
 40
1.0
 40
1.0
 40
1.0
 40
1.0
 10
98.19424076212469
 20
54.35109493566476
 30
0.0
 10
98.19424076212469
 20
55.08505195782198
 30
0.0
 10
98.19879815712393
 20
55.8180304021848
 30
0.0
 10
98.17161449274465
 20
56.91485451513121
 30
0.0
 10
98.15616482182746
 20
57.28000210370164
 30
0.0
 10
98.09330122029561
 20
58.00879011756569
 30
0.0
 10
98.0462712971273
 20
58.37398087296401
 30
0.0
 10
97.96515469502266
 20
58.73232552553969
 30
0.0
  0
SPLINE
  5
A9
330
1F
100
AcDbEntity
  8
0
  6
Continuous
 62
     7
370
    25
100
AcDbSpline
210
0.0
220
0.0
230
1.0
 70
     8
 71
     3
 72
    12
 73
     8
 74
     0
 42
0.00000001
 43
0.00000001
 40
0.0
 40
0.0
 40
0.0
 40
0.0
 40
0.2500000000000001
 40
0.2500000000000001
 40
0.5000000000000002
 40
0.5000000000000002
 40
1.0
 40
1.0
 40
1.0
 40
1.0
 10
97.96515469502266
 20
49.96986434578987
 30
0.0
 10
98.0462712971273
 20
50.32820899836555
 30
0.0
 10
98.09330122029561
 20
50.69339975376387
 30
0.0
 10
98.15616482182746
 20
51.42218776762792
 30
0.0
 10
98.17161449274465
 20
51.78733535619835
 30
0.0
 10
98.19879815712393
 20
52.88415946914476
 30
0.0
 10
98.19424076212469
 20
53.61713791350756
 30
0.0
 10
98.19424076212469
 20
54.35109493566478
 30
0.0
  0
SPLINE
  5
AA
330
1F
100
AcDbEntity
  8
0
  6
Continuous
 62
     7
370
    25
100
AcDbSpline
210
0.0
220
0.0
230
1.0
 70
     8
 71
     3
 72
    14
 73
    10
 74
     0
 42
0.00000001
 43
0.00000001
 40
0.0
 40
0.0
 40
0.0
 40
0.0
 40
0.25
 40
0.25
 40
0.5
 40
0.5
 40
0.75
 40
0.75
 40
1.0
 40
1.0
 40
1.0
 40
1.0
 10
97.96515469502266
 20
49.96986434578987
 30
0.0
 10
97.93763370727758
 20
49.84828628980416
 30
0.0
 10
97.91771378544118
 20
49.72776155277904
 30
0.0
 10
97.90204674362312
 20
49.50078529367093
 30
0.0
 10
97.90653857543543
 20
49.39381531610476
 30
0.0
 10
97.93779492071901
 20
49.20834976432503
 30
0.0
 10
97.96416750410079
 20
49.12946450320619
 30
0.0
 10
98.02700405524509
 20
49.0088267120331
 30
0.0
 10
98.06304363410517
 20
48.96712252159049
 30
0.0
 10
98.09703963747079
 20
48.95140508416888
 30
0.0
  0
SPLINE
  5
AB
330
1F
100
AcDbEntity
  8
0
  6
Continuous
 62
     7
370
    25
100
AcDbSpline
210
0.0
220
0.0
230
1.0
 70
     8
 71
     3
 72
     8
 73
     4
 74
     0
 42
0.00000001
 43
0.00000001
 40
0.0
 40
0.0
 40
0.0
 40
0.0
 40
1.0
 40
1.0
 40
1.0
 40
1.0
 10
98.19424076212469
 20
48.85109493566478
 30
0.0
 10
98.19424076212469
 20
48.88657398250855
 30
0.0
 10
98.16487605504685
 20
48.92004214315811
 30
0.0
 10
98.09703963747079
 20
48.95140508416888
 30
0.0
  0
LINE
  5
AC
330
1F
100
AcDbEntity
  8
0
  6
Continuous
 62
     7
370
    25
100
AcDbLine
 10
98.1942407621
 20
48.8510949357
 30
0.0
 11
98.1942407621
 21
45.3510949357
 31
0.0
  0
LINE
  5
AD
330
1F
100
AcDbEntity
  8
0
  6
Continuous
 62
     7
370
    25
100
AcDbLine
 10
113.1942407621
 20
54.3510949357
 30
0.0
 11
112.6942407621
 21
54.3510949357
 31
0.0
  0
SPLINE
  5
AE
330
1F
100
AcDbEntity
  8
0
  6
Continuous
 62
     7
370
    25
100
AcDbSpline
210
0.0
220
0.0
230
1.0
 70
     8
 71
     3
 72
    14
 73
    10
 74
     0
 42
0.00000001
 43
0.00000001
 40
0.0
 40
0.0
 40
0.0
 40
0.0
 40
0.2499999999999999
 40
0.2499999999999999
 40
0.4999999999999999
 40
0.4999999999999999
 40
0.7499999999999999
 40
0.7499999999999999
 40
1.0
 40
1.0
 40
1.0
 40
1.0
 10
112.6942407621247
 20
54.35109493566478
 30
0.0
 10
112.6942407621247
 20
54.72761164775175
 30
0.0
 10
112.693831500405
 20
55.1041477053807
 30
0.0
 10
112.6971428485109
 20
55.85702460422929
 30
0.0
 10
112.7009063339756
 20
56.23336341874464
 30
0.0
 10
112.7266795897553
 20
56.98517855745978
 30
0.0
 10
112.7485976844338
 20
57.36065921510879
 30
0.0
 10
112.8338153476191
 20
58.10966445437747
 30
0.0
 10
112.89712833377
 20
58.48527236981892
 30
0.0
 10
112.9996888515941
 20
58.85109493566478
 30
0.0
  0
LINE
  5
AF
330
1F
100
AcDbEntity
  8
0
  6
Continuous
 62
     7
370
    25
100
AcDbLine
 10
113.4233268292
 20
58.7323255255
 30
0.0
 11
112.9996888516
 21
58.8510949357
 31
0.0
  0
SPLINE
  5
B0
330
1F
100
AcDbEntity
  8
0
  6
Continuous
 62
     7
370
    25
100
AcDbSpline
210
0.0
220
0.0
230
1.0
 70
     8
 71
     3
 72
    14
 73
    10
 74
     0
 42
0.00000001
 43
0.00000001
 40
0.0
 40
0.0
 40
0.0
 40
0.0
 40
0.2500000000000001
 40
0.2500000000000001
 40
0.5000000000000001
 40
0.5000000000000001
 40
0.7500000000000001
 40
0.7500000000000001
 40
1.0
 40
1.0
 40
1.0
 40
1.0
 10
98.69424076212469
 20
54.35109493566478
 30
0.0
 10
98.69424076212469
 20
53.97457822357781
 30
0.0
 10
98.69465002384433
 20
53.59804216594884
 30
0.0
 10
98.69133867573845
 20
52.84516526710026
 30
0.0
 10
98.68757519027379
 20
52.46882645258491
 30
0.0
 10
98.6618019344941
 20
51.71701131386977
 30
0.0
 10
98.63988383981558
 20
51.34153065622077
 30
0.0
 10
98.5546661766303
 20
50.59252541695209
 30
0.0
 10
98.49135319047942
 20
50.21691750151064
 30
0.0
 10
98.38879267265531
 20
49.85109493566478
 30
0.0
  0
LINE
  5
B1
330
1F
100
AcDbEntity
  8
0
  6
Continuous
 62
     7
370
    25
100
AcDbLine
 10
98.3887926727
 20
49.8510949357
 30
0.0
 11
97.965154695
 21
49.9698643458
 31
0.0
  0
LINE
  5
B2
330
1F
100
AcDbEntity
  8
0
  6
Continuous
 62
     7
370
    25
100
AcDbLine
 10
98.6942407621
 20
54.3510949357
 30
0.0
 11
98.1942407621
 21
54.3510949357
 31
0.0
  0
LINE
  5
B3
330
1F
100
AcDbEntity
  8
0
  6
Continuous
 62
     7
370
    25
100
AcDbLine
 10
113.4233268292
 20
49.9698643458
 30
0.0
 11
112.9996888516
 21
49.8510949357
 31
0.0
  0
SPLINE
  5
B4
330
1F
100
AcDbEntity
  8
0
  6
Continuous
 62
     7
370
    25
100
AcDbSpline
210
0.0
220
0.0
230
1.0
 70
     8
 71
     3
 72
    14
 73
    10
 74
     0
 42
0.00000001
 43
0.00000001
 40
0.0
 40
0.0
 40
0.0
 40
0.0
 40
0.2500000000000002
 40
0.2500000000000002
 40
0.5000000000000003
 40
0.5000000000000003
 40
0.7500000000000002
 40
0.7500000000000002
 40
1.0
 40
1.0
 40
1.0
 40
1.0
 10
112.9996888515941
 20
49.85109493566478
 30
0.0
 10
112.89712833377
 20
50.21691750151064
 30
0.0
 10
112.8338153476191
 20
50.59252541695209
 30
0.0
 10
112.7485976844338
 20
51.34153065622077
 30
0.0
 10
112.7266795897553
 20
51.71701131386978
 30
0.0
 10
112.7009063339756
 20
52.46882645258492
 30
0.0
 10
112.6971428485109
 20
52.84516526710026
 30
0.0
 10
112.6938315004051
 20
53.59804216594885
 30
0.0
 10
112.6942407621247
 20
53.97457822357782
 30
0.0
 10
112.6942407621247
 20
54.35109493566478
 30
0.0
  0
SPLINE
  5
B5
330
1F
100
AcDbEntity
  8
0
  6
Continuous
 62
     7
370
    25
100
AcDbSpline
210
0.0
220
0.0
230
1.0
 70
     8
 71
     3
 72
    14
 73
    10
 74
     0
 42
0.00000001
 43
0.00000001
 40
0.0
 40
0.0
 40
0.0
 40
0.0
 40
0.2500000000000001
 40
0.2500000000000001
 40
0.5000000000000001
 40
0.5000000000000001
 40
0.75
 40
0.75
 40
1.0
 40
1.0
 40
1.0
 40
1.0
 10
98.38879267265531
 20
58.85109493566478
 30
0.0
 10
98.49135319047942
 20
58.48527236981892
 30
0.0
 10
98.5546661766303
 20
58.10966445437747
 30
0.0
 10
98.63988383981558
 20
57.36065921510879
 30
0.0
 10
98.6618019344941
 20
56.98517855745978
 30
0.0
 10
98.68757519027379
 20
56.23336341874463
 30
0.0
 10
98.69133867573845
 20
55.85702460422928
 30
0.0
 10
98.69465002384433
 20
55.1041477053807
 30
0.0
 10
98.69424076212469
 20
54.72761164775174
 30
0.0
 10
98.69424076212469
 20
54.35109493566477
 30
0.0
  0
LINE
  5
B6
330
1F
100
AcDbEntity
  8
0
  6
Continuous
 62
     7
370
    25
100
AcDbLine
 10
98.3887926727
 20
58.8510949357
 30
0.0
 11
97.965154695
 21
58.7323255255
 31
0.0
  0
SPLINE
  5
B7
330
1F
100
AcDbEntity
  8
0
  6
Continuous
 62
     7
370
    25
100
AcDbSpline
210
0.0
220
0.0
230
1.0
 70
     8
 71
     3
 72
    14
 73
    10
 74
     0
 42
0.00000001
 43
0.00000001
 40
0.0
 40
0.0
 40
0.0
 40
0.0
 40
0.25
 40
0.25
 40
0.5
 40
0.5
 40
0.75
 40
0.75
 40
1.0
 40
1.0
 40
1.0
 40
1.0
 10
98.56463926258613
 20
49.35109493566478
 30
0.0
 10
98.52616377896454
 20
49.35109493566478
 30
0.0
 10
98.48507485749452
 20
49.361881506648
 30
0.0
 10
98.40579201005396
 20
49.40481329371315
 30
0.0
 10
98.3685091089435
 20
49.43623080201803
 30
0.0
 10
98.31570334963172
 20
49.52754564759424
 30
0.0
 10
98.30373408953808
 20
49.5887761303585
 30
0.0
 10
98.32373587791025
 20
49.71963949101423
 30
0.0
 10
98.35319233346256
 20
49.78760360535182
 30
0.0
 10
98.38879267265531
 20
49.85109493566478
 30
0.0
  0
ARC
  5
B8
330
1F
100
AcDbEntity
  8
0
  6
Continuous
 62
     7
370
    25
100
AcDbCircle
 10
98.5731878461
 20
48.867725125
 30
0.0
 40
0.4834453973191646
100
AcDbArc
 50
91.0131925738
 51
170.032425387
  0
SPLINE
  5
B9
330
1F
100
AcDbEntity
  8
0
  6
Continuous
 62
     7
370
    25
100
AcDbSpline
210
0.0
220
0.0
230
1.0
 70
     8
 71
     3
 72
    14
 73
    10
 74
     0
 42
0.00000001
 43
0.00000001
 40
0.0
 40
0.0
 40
0.0
 40
0.0
 40
0.25
 40
0.25
 40
0.5
 40
0.5
 40
0.75
 40
0.75
 40
1.0
 40
1.0
 40
1.0
 40
1.0
 10
112.8238422616633
 20
59.35109493566478
 30
0.0
 10
112.8623177452849
 20
59.35109493566478
 30
0.0
 10
112.9034066667549
 20
59.34030836468155
 30
0.0
 10
112.9826895141954
 20
59.2973765776164
 30
0.0
 10
113.0199724153059
 20
59.26595906931153
 30
0.0
 10
113.0727781746177
 20
59.17464422373531
 30
0.0
 10
113.0847474347113
 20
59.11341374097105
 30
0.0
 10
113.0647456463391
 20
58.98255038031533
 30
0.0
 10
113.0352891907868
 20
58.91458626597775
 30
0.0
 10
112.9996888515941
 20
58.85109493566478
 30
0.0
  0
ARC
  5
BA
330
1F
100
AcDbEntity
  8
0
  6
Continuous
 62
     7
370
    25
100
AcDbCircle
 10
112.8152936781
 20
59.8344647464
 30
0.0
 40
0.483445397319143
100
AcDbArc
 50
271.0131925738
 51
350.032425387
  0
SPLINE
  5
BB
330
1F
100
AcDbEntity
  8
0
  6
Continuous
 62
     7
370
    25
100
AcDbSpline
210
0.0
220
0.0
230
1.0
 70
     8
 71
     3
 72
    16
 73
    12
 74
     0
 42
0.00000001
 43
0.00000001
 40
0.0
 40
0.0
 40
0.0
 40
0.0
 40
0.2500000000000049
 40
0.2500000000000049
 40
0.3750000000000051
 40
0.3750000000000051
 40
0.5000000000000052
 40
0.5000000000000052
 40
0.7500000000000026
 40
0.7500000000000026
 40
1.0
 40
1.0
 40
1.0
 40
1.0
 10
98.38879267265531
 20
58.85109493566478
 30
0.0
 10
98.35323874320666
 20
58.91450349664298
 30
0.0
 10
98.32396660197797
 20
58.98177079696379
 30
0.0
 10
98.30875405175709
 20
59.08021010810613
 30
0.0
 10
98.30869338358356
 20
59.11268551446143
 30
0.0
 10
98.31890396806088
 20
59.17131072158762
 30
0.0
 10
98.3286872975861
 20
59.19693353314061
 30
0.0
 10
98.36785184611806
 20
59.26514237683605
 30
0.0
 10
98.40572491939132
 20
59.29730513200183
 30
0.0
 10
98.4847978923829
 20
59.34019335111772
 30
0.0
 10
98.52618502497371
 20
59.35109493566478
 30
0.0
 10
98.56463926258613
 20
59.35109493566478
 30
0.0
  0
ARC
  5
BC
330
1F
100
AcDbEntity
  8
0
  6
Continuous
 62
     7
370
    25
100
AcDbCircle
 10
98.5731878461
 20
59.8344647464
 30
0.0
 40
0.4834453973191529
100
AcDbArc
 50
189.967574613
 51
268.9868074262
  0
ARC
  5
BD
330
1F
100
AcDbEntity
  8
0
  6
Continuous
 62
     7
370
    25
100
AcDbCircle
 10
112.8152936781
 20
48.867725125
 30
0.0
 40
0.4834453973191716
100
AcDbArc
 50
9.967574613
 51
88.9868074262
  0
SPLINE
  5
BE
330
1F
100
AcDbEntity
  8
0
  6
Continuous
 62
     7
370
    25
100
AcDbSpline
210
0.0
220
0.0
230
1.0
 70
     8
 71
     3
 72
    16
 73
    12
 74
     0
 42
0.00000001
 43
0.00000001
 40
0.0
 40
0.0
 40
0.0
 40
0.0
 40
0.2499999999999999
 40
0.2499999999999999
 40
0.3750000000000003
 40
0.3750000000000003
 40
0.5000000000000007
 40
0.5000000000000007
 40
0.7500000000000003
 40
0.7500000000000003
 40
1.0
 40
1.0
 40
1.0
 40
1.0
 10
112.9996888515941
 20
49.85109493566478
 30
0.0
 10
113.0352427810427
 20
49.78768637468659
 30
0.0
 10
113.0645149222714
 20
49.72041907436576
 30
0.0
 10
113.0797274724923
 20
49.62197976322343
 30
0.0
 10
113.0797881406659
 20
49.58950435686814
 30
0.0
 10
113.0695775561885
 20
49.53087914974193
 30
0.0
 10
113.0597942266633
 20
49.50525633818896
 30
0.0
 10
113.0206296781313
 20
49.4370474944935
 30
0.0
 10
112.9827566048581
 20
49.40488473932773
 30
0.0
 10
112.9036836318665
 20
49.36199652021184
 30
0.0
 10
112.8622964992757
 20
49.35109493566478
 30
0.0
 10
112.8238422616633
 20
49.35109493566478
 30
0.0
  0
LINE
  5
BF
330
1F
100
AcDbEntity
  8
0
  6
Continuous
 62
     7
370
    25
100
AcDbLine
 10
102.4002972811
 20
53.7959553118
 30
0.0
 11
102.8861759682
 21
53.7959553118
 31
0.0
  0
ELLIPSE
  5
C0
330
1F
100
AcDbEntity
  8
0
  6
Continuous
 62
     7
370
    25
100
AcDbEllipse
 10
102.4002972811
 20
53.8606286855
 30
0.0
 11
0.06784129479235901
 21
0.0
 31
0.0
210
0.0
220
0.0
230
1.0
 40
0.9533039403
 41
2.798568711307251
 42
4.712388980384703
  0
ELLIPSE
  5
C1
330
1F
100
AcDbEntity
  8
0
  6
Continuous
 62
     7
370
    25
100
AcDbEllipse
 10
102.6432366261
 20
54.5090947791
 30
0.0
 11
0.06784129479271428
 21
0.0
 31
0.0
210
0.0
220
0.0
230
1.0
 40
0.9533039403
 41
0.3430239385580914
 42
2.798568711309012
  0
LINE
  5
C2
330
1F
100
AcDbEntity
  8
0
  6
Continuous
 62
     7
370
    25
100
AcDbLine
 10
102.9500649588
 20
53.8823806949
 30
0.0
 11
102.7071256168
 21
54.5308467885
 31
0.0
  0
ELLIPSE
  5
C3
330
1F
100
AcDbEntity
  8
0
  6
Continuous
 62
     7
370
    25
100
AcDbEllipse
 10
102.8861759682
 20
53.8606286855
 30
0.0
 11
-0.06784129479237322
 21
0.0
 31
0.0
210
0.0
220
0.0
230
1.0
 40
0.9533039403
 41
1.570796326794897
 42
3.484616592149794
  0
LINE
  5
C4
330
1F
100
AcDbEntity
  8
0
  6
Continuous
 62
     7
370
    25
100
AcDbLine
 10
102.5793476355
 20
54.5308467887
 30
0.0
 11
102.3364082905
 21
53.8823806951
 31
0.0
  0
LINE
  5
C5
330
1F
100
AcDbEntity
  8
0
  6
Continuous
 62
     7
370
    25
100
AcDbLine
 10
112.8238422617
 20
49.3510949357
 30
0.0
 11
98.5646392626
 21
49.3510949357
 31
0.0
  0
LINE
  5
C6
330
1F
100
AcDbEntity
  8
0
  6
Continuous
 62
     7
370
    25
100
AcDbLine
 10
98.3887926727
 20
49.8510949357
 30
0.0
 11
112.9996888516
 21
49.8510949357
 31
0.0
  0
LINE
  5
C7
330
1F
100
AcDbEntity
  8
0
  6
Continuous
 62
     7
370
    25
100
AcDbLine
 10
107.3867855137
 20
54.0489431379
 30
0.0
 11
107.7600738222
 21
54.4222314464
 31
0.0
  0
ARC
  5
C8
330
1F
100
AcDbEntity
  8
0
  6
Continuous
 62
     7
370
    25
100
AcDbCircle
 10
109.557606848
 20
53.5460487952
 30
0.0
 40
0.7112000000000839
100
AcDbArc
 50
200.9248324276
 51
315.0
  0
ARC
  5
C9
330
1F
100
AcDbEntity
  8
0
  6
Continuous
 62
     7
370
    25
100
AcDbCircle
 10
109.557606848
 20
53.5460487952
 30
0.0
 40
0.7112000000000388
100
AcDbArc
 50
45.0
 51
159.0751675723
  0
LINE
  5
CA
330
1F
100
AcDbEntity
  8
0
  6
Continuous
 62
     7
370
    25
100
AcDbLine
 10
110.0605011908
 20
54.0489431379
 30
0.0
 11
110.4337894993
 21
54.4222314464
 31
0.0
  0
ARC
  5
CB
330
1F
100
AcDbEntity
  8
0
  6
Continuous
 62
     7
370
    25
100
AcDbCircle
 10
109.557606848
 20
53.5460487952
 30
0.0
 40
1.239109388553842
100
AcDbArc
 50
45.0
 51
315.0
  0
LINE
  5
CC
330
1F
100
AcDbEntity
  8
0
  6
Continuous
 62
     7
370
    25
100
AcDbLine
 10
110.4337894993
 20
52.6698661439
 30
0.0
 11
110.0605011908
 21
53.0431544524
 31
0.0
  0
LINE
  5
CD
330
1F
100
AcDbEntity
  8
0
  6
Continuous
 62
     7
370
    25
100
AcDbLine
 10
104.3128257198
 20
52.3227241361
 30
0.0
 11
104.9498406474
 21
53.5372618173
 31
0.0
  0
LINE
  5
CE
330
1F
100
AcDbEntity
  8
0
  6
Continuous
 62
     7
370
    25
100
AcDbLine
 10
104.9498406474
 20
53.5372618173
 30
0.0
 11
104.916520392
 21
53.5182178734
 31
0.0
  0
ELLIPSE
  5
CF
330
1F
100
AcDbEntity
  8
0
  6
Continuous
 62
     7
370
    25
100
AcDbEllipse
 10
104.6374458483
 20
53.9619638504
 30
0.0
 11
0.5427303583402932
 21
3.623767952376511E-13
 31
0.0
210
0.0
220
0.0
230
1.0
 40
0.9533039404
 41
3.470145824142391
 42
5.252469180527857
  0
ELLIPSE
  5
D0
330
1F
100
AcDbEntity
  8
0
  6
Continuous
 62
     7
370
    25
100
AcDbEllipse
 10
102.6432366244
 20
56.4031006869
 30
0.0
 11
0.5215299537176605
 21
0.0
 31
0.0
210
0.0
220
0.0
230
1.0
 40
0.9533039403
 41
0.4357918987553373
 42
2.705800754834434
  0
LINE
  5
D1
330
1F
100
AcDbEntity
  8
0
  6
Continuous
 62
     7
370
    25
100
AcDbLine
 10
102.1704509236
 20
56.6129730418
 30
0.0
 11
101.1629620507
 21
53.7956732455
 31
0.0
  0
ELLIPSE
  5
D2
330
1F
100
AcDbEntity
  8
0
  6
Continuous
 62
     7
370
    25
100
AcDbEllipse
 10
100.6492622371
 20
53.9626205375
 30
0.0
 11
-0.5427303583406484
 21
3.552713678800501E-13
 31
0.0
210
0.0
220
0.0
230
1.0
 40
0.9533039403
 41
1.047197551196598
 42
2.813039483039299
  0
LINE
  5
D3
330
1F
100
AcDbEntity
  8
0
  6
Continuous
 62
     7
370
    25
100
AcDbLine
 10
100.3778970579
 20
53.5145502613
 30
0.0
 11
100.3366326015
 21
53.5372618173
 31
0.0
  0
LINE
  5
D4
330
1F
100
AcDbEntity
  8
0
  6
Continuous
 62
     7
370
    25
100
AcDbLine
 10
100.3366326015
 20
53.5372618173
 30
0.0
 11
100.9736475291
 21
52.3227241361
 31
0.0
  0
LINE
  5
D5
330
1F
100
AcDbEntity
  8
0
  6
Continuous
 62
     7
370
    25
100
AcDbLine
 10
112.9996888516
 20
58.8510949357
 30
0.0
 11
98.3887926727
 21
58.8510949357
 31
0.0
  0
LINE
  5
D6
330
1F
100
AcDbEntity
  8
0
  6
Continuous
 62
     7
370
    25
100
AcDbLine
 10
110.4337894993
 20
53.8000487952
 30
0.0
 11
108.893310649
 21
53.8000487952
 31
0.0
  0
ELLIPSE
  5
D7
330
1F
100
AcDbEntity
  8
0
  6
Continuous
 62
     7
370
    25
100
AcDbEllipse
 10
104.252146621
 20
52.3516469481
 30
0.0
 11
0.0678412947923448
 21
0.0
 31
0.0
210
0.0
220
0.0
230
1.0
 40
0.9533039403
 41
3.962594650555063
 42
5.819537698174962
  0
ELLIPSE
  5
D8
330
1F
100
AcDbEntity
  8
0
  6
Continuous
 62
     7
370
    25
100
AcDbEllipse
 10
102.6432366244
 20
50.7045680517
 30
0.0
 11
2.293035763987604
 21
-1.072919530997751E-12
 31
0.0
210
0.0
220
0.0
230
1.0
 40
0.9533039403
 41
0.8210019969645973
 42
2.320590656625126
  0
ELLIPSE
  5
D9
330
1F
100
AcDbEntity
  8
0
  6
Continuous
 62
     7
370
    25
100
AcDbEllipse
 10
101.0343266279
 20
52.3516469481
 30
0.0
 11
0.06784129479235901
 21
0.0
 31
0.0
210
0.0
220
0.0
230
1.0
 40
0.9533039403
 41
3.605240262580542
 42
5.462183310227002
  0
LINE
  5
DA
330
1F
100
AcDbEntity
  8
0
  6
Continuous
 62
     7
370
    25
100
AcDbLine
 10
104.1237460347
 20
53.7950165584
 30
0.0
 11
103.1160223253
 21
56.6129730418
 31
0.0
  0
LINE
  5
DB
330
1F
100
AcDbEntity
  8
0
  6
Continuous
 62
     7
370
    25
100
AcDbLine
 10
108.893310649
 20
53.2920487952
 30
0.0
 11
110.4337894993
 21
53.2920487952
 31
0.0
  0
ARC
  5
DC
330
1F
100
AcDbEntity
  8
0
  6
Continuous
 62
     7
370
    25
100
AcDbCircle
 10
106.8838911709
 20
53.5460487952
 30
0.0
 40
0.7111999999997624
100
AcDbArc
 50
45.0
 51
315.0
  0
LINE
  5
DD
330
1F
100
AcDbEntity
  8
0
  6
Continuous
 62
     7
370
    25
100
AcDbLine
 10
107.7600738222
 20
52.6698661439
 30
0.0
 11
107.3867855137
 21
53.0431544524
 31
0.0
  0
ARC
  5
DE
330
1F
100
AcDbEntity
  8
0
  6
Continuous
 62
     7
370
    25
100
AcDbCircle
 10
106.8838911709
 20
53.5460487952
 30
0.0
 40
1.239109388553842
100
AcDbArc
 50
45.0
 51
315.0
  0
LINE
  5
DF
330
1F
100
AcDbEntity
  8
0
  6
Continuous
 62
     7
370
    25
100
AcDbLine
 10
110.4337894993
 20
53.2920487952
 30
0.0
 11
110.4337894993
 21
53.8000487952
 31
0.0
  0
LINE
  5
E0
330
1F
100
AcDbEntity
  8
0
  6
Continuous
 62
     7
370
    25
100
AcDbLine
 10
98.5646392626
 20
59.3510949357
 30
0.0
 11
112.8238422617
 21
59.3510949357
 31
0.0
  0
LINE
  5
E1
330
1F
100
AcDbEntity
  8
0
  6
Continuous
 62
     7
370
    25
100
AcDbLine
 10
125.6942407621
 20
54.3510949357
 30
0.0
 11
125.6942407621
 21
46.3510949357
 31
0.0
  0
LINE
  5
E2
330
1F
100
AcDbEntity
  8
0
  6
Continuous
 62
     7
370
    25
100
AcDbLine
 10
125.6942407621
 20
62.3510949357
 30
0.0
 11
125.6942407621
 21
54.3510949357
 31
0.0
  0
LINE
  5
E3
330
1F
100
AcDbEntity
  8
0
  6
Continuous
 62
     7
370
    25
100
AcDbLine
 10
125.4442407621
 20
54.3510949357
 30
0.0
 11
125.4442407621
 21
62.6010949357
 31
0.0
  0
LINE
  5
E4
330
1F
100
AcDbEntity
  8
0
  6
Continuous
 62
     7
370
    25
100
AcDbLine
 10
125.4442407621
 20
46.1010949357
 30
0.0
 11
125.4442407621
 21
54.3510949357
 31
0.0
  0
ARC
  5
E5
330
1F
100
AcDbEntity
  8
0
  6
Continuous
 62
     7
370
    25
100
AcDbCircle
 10
98.6942407621
 20
48.8510949357
 30
0.0
 40
0.5
100
AcDbArc
 50
90.0
 51
180.0
  0
ARC
  5
E6
330
1F
100
AcDbEntity
  8
0
  6
Continuous
 62
     7
370
    25
100
AcDbCircle
 10
112.6942407621
 20
48.8510949357
 30
0.0
 40
0.5
100
AcDbArc
 50
0.0
 51
90.0
  0
ARC
  5
E7
330
1F
100
AcDbEntity
  8
0
  6
Continuous
 62
     7
370
    25
100
AcDbCircle
 10
98.6942407621
 20
59.8510949357
 30
0.0
 40
0.5
100
AcDbArc
 50
180.0
 51
270.0
  0
ARC
  5
E8
330
1F
100
AcDbEntity
  8
0
  6
Continuous
 62
     7
370
    25
100
AcDbCircle
 10
112.6942407621
 20
59.8510949357
 30
0.0
 40
0.5
100
AcDbArc
 50
270.0
 51
0.0
  0
LWPOLYLINE
  5
E9
330
1F
100
AcDbEntity
  8
0
  6
Continuous
 62
     7
370
    25
100
AcDbPolyline
 90
        9
 70
   128
 43
0.0
 10
112.6942407621
 20
59.5455393801
 10
112.7917859231
 20
59.5514105444
 10
112.8855824783
 20
59.5687984118
 10
112.9720258786
 20
59.5970347764
 10
113.0477941527
 20
59.6350345303
 10
113.1099755683
 20
59.6813373645
 10
113.1561805284
 20
59.7341638869
 10
113.1846334023
 20
59.7914840039
 10
113.1942407621
 20
59.8510949357
  0
LINE
  5
EA
330
1F
100
AcDbEntity
  8
0
  6
Continuous
 62
     7
370
    25
100
AcDbLine
 10
112.6942407621
 20
59.3510949357
 30
0.0
 11
112.6942407621
 21
59.5455393801
 31
0.0
  0
LWPOLYLINE
  5
EB
330
1F
100
AcDbEntity
  8
0
  6
Continuous
 62
     7
370
    25
100
AcDbPolyline
 90
        9
 70
   128
 43
0.0
 10
98.1942407621
 20
59.8510949357
 10
98.2038481219
 20
59.7914840039
 10
98.2323009959
 20
59.7341638869
 10
98.278505956
 20
59.6813373645
 10
98.3406873715
 20
59.6350345303
 10
98.4164556456
 20
59.5970347764
 10
98.5028990459
 20
59.5687984118
 10
98.5966956011
 20
59.5514105444
 10
98.6942407621
 20
59.5455393801
  0
LINE
  5
EC
330
1F
100
AcDbEntity
  8
0
  6
Continuous
 62
     7
370
    25
100
AcDbLine
 10
98.6942407621
 20
59.3510949357
 30
0.0
 11
98.6942407621
 21
59.5455393801
 31
0.0
  0
LWPOLYLINE
  5
ED
330
1F
100
AcDbEntity
  8
0
  6
Continuous
 62
     7
370
    25
100
AcDbPolyline
 90
        9
 70
   128
 43
0.0
 10
98.6942407621
 20
49.1566504912
 10
98.5966956011
 20
49.1507793269
 10
98.5028990459
 20
49.1333914595
 10
98.4164556456
 20
49.105155095
 10
98.3406873715
 20
49.067155341
 10
98.278505956
 20
49.0208525069
 10
98.2323009959
 20
48.9680259844
 10
98.2038481219
 20
48.9107058674
 10
98.1942407621
 20
48.8510949357
  0
LINE
  5
EE
330
1F
100
AcDbEntity
  8
0
  6
Continuous
 62
     7
370
    25
100
AcDbLine
 10
98.6942407621
 20
49.1566504912
 30
0.0
 11
98.6942407621
 21
49.3510949357
 31
0.0
  0
LINE
  5
EF
330
1F
100
AcDbEntity
  8
0
  6
Continuous
 62
     7
370
    25
100
AcDbLine
 10
112.6942407621
 20
49.1566504912
 30
0.0
 11
98.6942407621
 21
49.1566504912
 31
0.0
  0
LINE
  5
F0
330
1F
100
AcDbEntity
  8
0
  6
Continuous
 62
     7
370
    25
100
AcDbLine
 10
112.6942407621
 20
49.1566504912
 30
0.0
 11
112.6942407621
 21
49.3510949357
 31
0.0
  0
LWPOLYLINE
  5
F1
330
1F
100
AcDbEntity
  8
0
  6
Continuous
 62
     7
370
    25
100
AcDbPolyline
 90
        9
 70
   128
 43
0.0
 10
113.1942407621
 20
48.8510949357
 10
113.1846334023
 20
48.9107058674
 10
113.1561805284
 20
48.9680259844
 10
113.1099755683
 20
49.0208525069
 10
113.0477941527
 20
49.067155341
 10
112.9720258786
 20
49.105155095
 10
112.8855824783
 20
49.1333914595
 10
112.7917859231
 20
49.1507793269
 10
112.6942407621
 20
49.1566504912
  0
LINE
  5
F2
330
1F
100
AcDbEntity
  8
0
  6
Continuous
 62
     7
370
    25
100
AcDbLine
 10
98.6942407621
 20
59.5455393801
 30
0.0
 11
112.6942407621
 21
59.5455393801
 31
0.0
  0
SPLINE
  5
F3
330
1F
100
AcDbEntity
  8
0
  6
Continuous
 62
     7
370
    25
100
AcDbSpline
210
0.0
220
0.0
230
1.0
 70
    11
 71
     3
 72
    26
 73
    22
 74
     0
 42
0.00000001
 43
0.00000001
 40
0.0
 40
0.0
 40
0.0
 40
0.0
 40
0.125
 40
0.125
 40
0.1875
 40
0.1875
 40
0.25
 40
0.25
 40
0.3125
 40
0.3125
 40
0.375
 40
0.375
 40
0.5
 40
0.5
 40
0.625
 40
0.625
 40
0.75
 40
0.75
 40
0.875
 40
0.875
 40
1.0
 40
1.0
 40
1.0
 40
1.0
 10
106.2075597309731
 20
62.35109493566478
 30
0.0
 10
106.2075597309731
 20
62.49021396689361
 30
0.0
 10
106.1547637598241
 20
62.62594166986908
 30
0.0
 10
106.0133081699468
 20
62.77896040636485
 30
0.0
 10
105.9567542335749
 20
62.82046330738539
 30
0.0
 10
105.8312100821315
 20
62.87766320117908
 30
0.0
 10
105.7620584690235
 20
62.8929471899234
 30
0.0
 10
105.62490009428
 20
62.89272631615977
 30
0.0
 10
105.5557855114739
 20
62.87716625487211
 30
0.0
 10
105.4310257428428
 20
62.8199604203781
 30
0.0
 10
105.3743946545084
 20
62.77820899311114
 30
0.0
 10
105.2342810279854
 20
62.62636812482769
 30
0.0
 10
105.1809604940388
 20
62.49031579755984
 30
0.0
 10
105.1808831354627
 20
62.21218310385647
 30
0.0
 10
105.2345715174844
 20
62.07538109383648
 30
0.0
 10
105.4212663317921
 20
61.87331229017143
 30
0.0
 10
105.5571475411557
 20
61.80914253048588
 30
0.0
 10
105.8327786751941
 20
61.80956358328688
 30
0.0
 10
105.9677537136078
 20
61.87383226571019
 30
0.0
 10
106.1536011906738
 20
62.07510981693433
 30
0.0
 10
106.2075597309731
 20
62.21197590443596
 30
0.0
 10
106.2075597309731
 20
62.35109493566478
 30
0.0
  0
SPLINE
  5
F4
330
1F
100
AcDbEntity
  8
0
  6
Continuous
 62
     7
370
    25
100
AcDbSpline
210
0.0
220
0.0
230
1.0
 70
    11
 71
     3
 72
    38
 73
    34
 74
     0
 42
0.00000001
 43
0.00000001
 40
0.0
 40
0.0
 40
0.0
 40
0.0
 40
0.0625
 40
0.0625
 40
0.125
 40
0.125
 40
0.1874999999999999
 40
0.1874999999999999
 40
0.2499999999999999
 40
0.2499999999999999
 40
0.3125
 40
0.3125
 40
0.375
 40
0.375
 40
0.4375000000000001
 40
0.4375000000000001
 40
0.5000000000000001
 40
0.5000000000000001
 40
0.5625000000000001
 40
0.5625000000000001
 40
0.6250000000000001
 40
0.6250000000000001
 40
0.6875000000000001
 40
0.6875000000000001
 40
0.75
 40
0.75
 40
0.8125
 40
0.8125
 40
0.875
 40
0.875
 40
0.9375
 40
0.9375
 40
1.0
 40
1.0
 40
1.0
 40
1.0
 10
104.6942407621247
 20
62.35109493566478
 30
0.0
 10
104.6942407621247
 20
62.21870902075447
 30
0.0
 10
104.7203893132675
 20
62.08882169427577
 30
0.0
 10
104.8208549827253
 20
61.8467426996899
 30
0.0
 10
104.8951398491219
 20
61.73596134563387
 30
0.0
 10
105.0792890288566
 20
61.55185406552811
 30
0.0
 10
105.1906646514509
 20
61.47738539423212
 30
0.0
 10
105.4312131559848
 20
61.37755821810342
 30
0.0
 10
105.5629710519722
 20
61.35117029803011
 30
0.0
 10
105.8243597441361
 20
61.35101990434329
 30
0.0
 10
105.9555318147277
 20
61.37695972475333
 30
0.0
 10
106.1979695007274
 20
61.47732735717861
 30
0.0
 10
106.308023668877
 20
61.55071626032384
 30
0.0
 10
106.4942769862879
 20
61.73686572715338
 30
0.0
 10
106.5677033141811
 20
61.84690424455338
 30
0.0
 10
106.66806806181
 20
62.08878696164206
 30
0.0
 10
106.6941893261062
 20
62.22006148015337
 30
0.0
 10
106.6942920435914
 20
62.48134212952589
 30
0.0
 10
106.6680484154977
 20
62.61315753303881
 30
0.0
 10
106.5683800586995
 20
62.85394545112029
 30
0.0
 10
106.494099266731
 20
62.96527765251829
 30
0.0
 10
106.3099125262974
 20
63.14980784771329
 30
0.0
 10
106.1994889522348
 20
63.22399417698707
 30
0.0
 10
105.9571042369949
 20
63.32481543595722
 30
0.0
 10
105.8271800574285
 20
63.35098966526226
 30
0.0
 10
105.5628899479115
 20
63.35119957524916
 30
0.0
 10
105.4326561892495
 20
63.32511185288599
 30
0.0
 10
105.1907635180788
 20
63.22496340890739
 30
0.0
 10
105.0797475926722
 20
63.15067711374223
 30
0.0
 10
104.8955798566922
 20
62.96678501430544
 30
0.0
 10
104.8209811851901
 20
62.85545486375143
 30
0.0
 10
104.720930371645
 20
62.6149663239428
 30
0.0
 10
104.6942407621247
 20
62.48348085057508
 30
0.0
 10
104.6942407621247
 20
62.35109493566478
 30
0.0
  0
SPLINE
  5
F5
330
1F
100
AcDbEntity
  8
0
  6
Continuous
 62
     7
370
    25
100
AcDbSpline
210
0.0
220
0.0
230
1.0
 70
     8
 71
     3
 72
    15
 73
    11
 74
     0
 42
0.00000001
 43
0.00000001
 40
0.0
 40
0.0
 40
0.0
 40
0.0
 40
0.0081667445812695
 40
0.3321939991490078
 40
0.4756279600585575
 40
0.6866830973284898
 40
0.8457435502264807
 40
0.8967566214763126
 40
0.9909540928118029
 40
1.0
 40
1.0
 40
1.0
 40
1.0
 10
100.5952212485319
 20
81.70109493566477
 30
0.0
 10
100.594733714389
 20
81.701092259319
 30
0.0
 10
100.5749025668569
 20
81.70098339513221
 30
0.0
 10
100.5466217868477
 20
81.69143738286277
 30
0.0
 10
100.5087924883588
 20
81.65407499960821
 30
0.0
 10
100.4822085917914
 20
81.60920948487355
 30
0.0
 10
100.4650387680364
 20
81.55133318529663
 30
0.0
 10
100.4572217718199
 20
81.50065714532471
 30
0.0
 10
100.455226085384
 20
81.47196286580468
 30
0.0
 10
100.4551611214332
 20
81.4527760342492
 30
0.0
 10
100.4551554294666
 20
81.45109493566477
 30
0.0
  0
LINE
  5
F6
330
1F
100
AcDbEntity
  8
0
  6
Continuous
 62
     7
370
    25
100
AcDbLine
 10
100.5952212485
 20
81.7010949357
 30
0.0
 11
110.7932602757
 21
81.7010949357
 31
0.0
  0
SPLINE
  5
F7
330
1F
100
AcDbEntity
  8
0
  6
Continuous
 62
     7
370
    25
100
AcDbSpline
210
0.0
220
0.0
230
1.0
 70
     8
 71
     3
 72
    15
 73
    11
 74
     0
 42
0.00000001
 43
0.00000001
 40
0.0
 40
0.0
 40
0.0
 40
0.0
 40
0.0090459071881971
 40
0.1032433785236875
 40
0.1542564497735192
 40
0.3133169026715105
 40
0.5243720399414424
 40
0.66780600085099
 40
0.9918332554187292
 40
1.0
 40
1.0
 40
1.0
 40
1.0
 10
110.9333260947828
 20
81.45109493566477
 30
0.0
 10
110.9333204028162
 20
81.4527760342492
 30
0.0
 10
110.9332554388653
 20
81.47196286580471
 30
0.0
 10
110.9312597524295
 20
81.5006571453247
 30
0.0
 10
110.923442756213
 20
81.55133318529663
 30
0.0
 10
110.906272932458
 20
81.60920948487353
 30
0.0
 10
110.8796890358906
 20
81.65407499960823
 30
0.0
 10
110.8418597374017
 20
81.69143738286273
 30
0.0
 10
110.8135789573925
 20
81.70098339513233
 30
0.0
 10
110.7937478098604
 20
81.701092259319
 30
0.0
 10
110.7932602757175
 20
81.70109493566477
 30
0.0
  0
LINE
  5
F8
330
1F
100
AcDbEntity
  8
0
  6
Continuous
 62
     7
370
    25
100
AcDbLine
 10
110.9333260948
 20
81.4510949357
 30
0.0
 11
100.4551554295
 21
81.4510949357
 31
0.0
  0
LINE
  5
F9
330
1F
100
AcDbEntity
  8
0
  6
Continuous
 62
     7
370
    25
100
AcDbLine
 10
100.4551554295
 20
81.4510949357
 30
0.0
 11
100.4551554295
 21
80.8510949357
 31
0.0
  0
LINE
  5
FA
330
1F
100
AcDbEntity
  8
0
  6
Continuous
 62
     7
370
    25
100
AcDbLine
 10
110.9333260948
 20
80.8510949357
 30
0.0
 11
110.9333260948
 21
81.4510949357
 31
0.0
  0
LINE
  5
FB
330
1F
100
AcDbEntity
  8
0
  6
Continuous
 62
     7
370
    25
100
AcDbLine
 10
100.4551554295
 20
80.8510949357
 30
0.0
 11
110.9333260948
 21
80.8510949357
 31
0.0
  0
LINE
  5
FC
330
1F
100
AcDbEntity
  8
0
  6
Continuous
 62
     7
370
    25
100
AcDbLine
 10
100.2170151871
 20
81.4510949357
 30
0.0
 11
100.4551554295
 21
81.4510949357
 31
0.0
  0
SPLINE
  5
FD
330
1F
100
AcDbEntity
  8
0
  6
Continuous
 62
     7
370
    25
100
AcDbSpline
210
0.0
220
0.0
230
1.0
 70
     8
 71
     3
 72
    15
 73
    11
 74
     0
 42
0.00000001
 43
0.00000001
 40
0.0
 40
0.0
 40
0.0
 40
0.0
 40
0.0089557228015919
 40
0.0999003359608147
 40
0.1531632460581689
 40
0.3125636920784844
 40
0.5249666935695022
 40
0.6689893599352454
 40
0.9919152533810159
 40
1.0
 40
1.0
 40
1.0
 40
1.0
 10
100.217015187073
 20
81.45109493566477
 30
0.0
 10
100.2170309426516
 20
81.45277606123769
 30
0.0
 10
100.2172066948082
 20
81.47152887586215
 30
0.0
 10
100.2226357108277
 20
81.50029110496962
 30
0.0
 10
100.244171194535
 20
81.55117817843794
 30
0.0
 10
100.2918766227999
 20
81.60931382857059
 30
0.0
 10
100.3642675677918
 20
81.65402170175399
 30
0.0
 10
100.4661866798095
 20
81.69130352521579
 30
0.0
 10
100.5415417712641
 20
81.70098268005314
 30
0.0
 10
100.5939414169878
 20
81.70109225925509
 30
0.0
 10
100.5952212485319
 20
81.70109493566477
 30
0.0
  0
LINE
  5
FE
330
1F
100
AcDbEntity
  8
0
  6
Continuous
 62
     7
370
    25
100
AcDbLine
 10
110.9333260948
 20
81.4510949357
 30
0.0
 11
111.1714663372
 21
81.4510949357
 31
0.0
  0
SPLINE
  5
FF
330
1F
100
AcDbEntity
  8
0
  6
Continuous
 62
     7
370
    25
100
AcDbSpline
210
0.0
220
0.0
230
1.0
 70
     8
 71
     3
 72
    15
 73
    11
 74
     0
 42
0.00000001
 43
0.00000001
 40
0.0
 40
0.0
 40
0.0
 40
0.0
 40
0.0080847466189818
 40
0.3310106400647567
 40
0.4750333064304976
 40
0.6874363079215146
 40
0.846836753941831
 40
0.9000996640391853
 40
0.9910442771984082
 40
1.0
 40
1.0
 40
1.0
 40
1.0
 10
110.7932602757175
 20
81.70109493566477
 30
0.0
 10
110.7945401072616
 20
81.70109225925509
 30
0.0
 10
110.8469397529854
 20
81.7009826800533
 30
0.0
 10
110.9222948444398
 20
81.69130352521576
 30
0.0
 10
111.0242139564576
 20
81.654021701754
 30
0.0
 10
111.0966049014495
 20
81.60931382857058
 30
0.0
 10
111.1443103297143
 20
81.55117817843794
 30
0.0
 10
111.1658458134217
 20
81.50029110496962
 30
0.0
 10
111.1712748294412
 20
81.47152887586212
 30
0.0
 10
111.1714505815978
 20
81.45277606123769
 30
0.0
 10
111.1714663371764
 20
81.45109493566477
 30
0.0
  0
LINE
  5
100
330
1F
100
AcDbEntity
  8
0
  6
Continuous
 62
     7
370
    25
100
AcDbLine
 10
100.2170151871
 20
80.8510949357
 30
0.0
 11
100.2170151871
 21
81.4510949357
 31
0.0
  0
LINE
  5
101
330
1F
100
AcDbEntity
  8
0
  6
Continuous
 62
     7
370
    25
100
AcDbLine
 10
100.4551554295
 20
80.8510949357
 30
0.0
 11
100.2170151871
 21
80.8510949357
 31
0.0
  0
LINE
  5
102
330
1F
100
AcDbEntity
  8
0
  6
Continuous
 62
     7
370
    25
100
AcDbLine
 10
111.1714663372
 20
81.4510949357
 30
0.0
 11
111.1714663372
 21
80.8510949357
 31
0.0
  0
LINE
  5
103
330
1F
100
AcDbEntity
  8
0
  6
Continuous
 62
     7
370
    25
100
AcDbLine
 10
111.1714663372
 20
80.8510949357
 30
0.0
 11
110.9333260948
 21
80.8510949357
 31
0.0
  0
LINE
  5
104
330
1F
100
AcDbEntity
  8
0
  6
Continuous
 62
     7
370
    25
100
AcDbLine
 10
99.6942407621
 20
81.4510949357
 30
0.0
 11
99.9442407621
 21
81.4510949357
 31
0.0
  0
ARC
  5
105
330
1F
100
AcDbEntity
  8
0
  6
Continuous
 62
     7
370
    25
100
AcDbCircle
 10
99.9442407621
 20
81.4510949357
 30
0.0
 40
0.25
100
AcDbArc
 50
90.0
 51
180.0
  0
LINE
  5
106
330
1F
100
AcDbEntity
  8
0
  6
Continuous
 62
     7
370
    25
100
AcDbLine
 10
99.9442407621
 20
81.7010949357
 30
0.0
 11
99.9442407621
 21
81.4510949357
 31
0.0
  0
LINE
  5
107
330
1F
100
AcDbEntity
  8
0
  6
Continuous
 62
     7
370
    25
100
AcDbLine
 10
99.6942407621
 20
80.8510949357
 30
0.0
 11
99.6942407621
 21
81.4510949357
 31
0.0
  0
LINE
  5
108
330
1F
100
AcDbEntity
  8
0
  6
Continuous
 62
     7
370
    25
100
AcDbLine
 10
99.9442407621
 20
81.4510949357
 30
0.0
 11
99.9442407621
 21
80.8510949357
 31
0.0
  0
LINE
  5
109
330
1F
100
AcDbEntity
  8
0
  6
Continuous
 62
     7
370
    25
100
AcDbLine
 10
99.9442407621
 20
80.8510949357
 30
0.0
 11
99.6942407621
 21
80.8510949357
 31
0.0
  0
LINE
  5
10A
330
1F
100
AcDbEntity
  8
0
  6
Continuous
 62
     7
370
    25
100
AcDbLine
 10
100.2170151871
 20
81.4510949357
 30
0.0
 11
99.9442407621
 21
81.4510949357
 31
0.0
  0
LINE
  5
10B
330
1F
100
AcDbEntity
  8
0
  6
Continuous
 62
     7
370
    25
100
AcDbLine
 10
99.9442407621
 20
81.7010949357
 30
0.0
 11
100.5952212485
 21
81.7010949357
 31
0.0
  0
LINE
  5
10C
330
1F
100
AcDbEntity
  8
0
  6
Continuous
 62
     7
370
    25
100
AcDbLine
 10
100.2170151871
 20
80.8510949357
 30
0.0
 11
99.9442407621
 21
80.8510949357
 31
0.0
  0
LINE
  5
10D
330
1F
100
AcDbEntity
  8
0
  6
Continuous
 62
     7
370
    25
100
AcDbLine
 10
111.4442407621
 20
81.4510949357
 30
0.0
 11
111.4442407621
 21
81.7010949357
 31
0.0
  0
LINE
  5
10E
330
1F
100
AcDbEntity
  8
0
  6
Continuous
 62
     7
370
    25
100
AcDbLine
 10
111.4442407621
 20
81.4510949357
 30
0.0
 11
111.1714663372
 21
81.4510949357
 31
0.0
  0
LINE
  5
10F
330
1F
100
AcDbEntity
  8
0
  6
Continuous
 62
     7
370
    25
100
AcDbLine
 10
110.7932602757
 20
81.7010949357
 30
0.0
 11
111.4442407621
 21
81.7010949357
 31
0.0
  0
ARC
  5
110
330
1F
100
AcDbEntity
  8
0
  6
Continuous
 62
     7
370
    25
100
AcDbCircle
 10
111.4442407621
 20
81.4510949357
 30
0.0
 40
0.25
100
AcDbArc
 50
0.0
 51
90.0
  0
LINE
  5
111
330
1F
100
AcDbEntity
  8
0
  6
Continuous
 62
     7
370
    25
100
AcDbLine
 10
111.4442407621
 20
81.4510949357
 30
0.0
 11
111.6942407621
 21
81.4510949357
 31
0.0
  0
LINE
  5
112
330
1F
100
AcDbEntity
  8
0
  6
Continuous
 62
     7
370
    25
100
AcDbLine
 10
111.4442407621
 20
80.8510949357
 30
0.0
 11
111.4442407621
 21
81.4510949357
 31
0.0
  0
LINE
  5
113
330
1F
100
AcDbEntity
  8
0
  6
Continuous
 62
     7
370
    25
100
AcDbLine
 10
111.4442407621
 20
80.8510949357
 30
0.0
 11
111.1714663372
 21
80.8510949357
 31
0.0
  0
LINE
  5
114
330
1F
100
AcDbEntity
  8
0
  6
Continuous
 62
     7
370
    25
100
AcDbLine
 10
111.6942407621
 20
81.4510949357
 30
0.0
 11
111.6942407621
 21
80.8510949357
 31
0.0
  0
LINE
  5
115
330
1F
100
AcDbEntity
  8
0
  6
Continuous
 62
     7
370
    25
100
AcDbLine
 10
111.6942407621
 20
80.8510949357
 30
0.0
 11
111.4442407621
 21
80.8510949357
 31
0.0
  0
LINE
  5
116
330
1F
100
AcDbEntity
  8
0
  6
Continuous
 62
     7
370
    25
100
AcDbLine
 10
100.6942407621
 20
81.7110949357
 30
0.0
 11
110.6942407621
 21
81.7110949357
 31
0.0
  0
LINE
  5
117
330
1F
100
AcDbEntity
  8
0
  6
Continuous
 62
     7
370
    25
100
AcDbLine
 10
110.6942407621
 20
81.7010949357
 30
0.0
 11
110.6942407621
 21
81.7110949357
 31
0.0
  0
LINE
  5
118
330
1F
100
AcDbEntity
  8
0
  6
Continuous
 62
     7
370
    25
100
AcDbLine
 10
100.6942407621
 20
81.7010949357
 30
0.0
 11
100.6942407621
 21
81.7110949357
 31
0.0
  0
LINE
  5
119
330
1F
100
AcDbEntity
  8
0
  6
Continuous
 62
     7
370
    25
100
AcDbLine
 10
101.219693878
 20
72.8510949357
 30
0.0
 11
113.1442407621
 21
72.8510949356
 31
0.0
  0
SPLINE
  5
11A
330
1F
100
AcDbEntity
  8
0
  6
Continuous
 62
     7
370
    25
100
AcDbSpline
210
0.0
220
0.0
230
1.0
 70
     8
 71
     3
 72
     9
 73
     5
 74
     0
 42
0.00000001
 43
0.00000001
 40
0.0
 40
0.0
 40
0.0
 40
0.0
 40
0.4978401817595095
 40
1.0
 40
1.0
 40
1.0
 40
1.0
 10
101.9799046338043
 20
73.8458385136317
 30
0.0
 10
101.8435827254336
 20
73.68932733093911
 30
0.0
 10
101.5697560771128
 20
73.37494695662008
 30
0.0
 10
101.3367168260161
 20
73.02621440859383
 30
0.0
 10
101.2196938780425
 20
72.85109493566242
 30
0.0
  0
LINE
  5
11B
330
1F
100
AcDbEntity
  8
0
  6
Continuous
 62
     7
370
    25
100
AcDbLine
 10
100.4704385878
 20
80.8510949356
 30
0.0
 11
98.7422999238
 21
73.8458385136
 31
0.0
  0
LINE
  5
11C
330
1F
100
AcDbEntity
  8
0
  6
Continuous
 62
     7
370
    25
100
AcDbLine
 10
110.9333260948
 20
80.8510949356
 30
0.0
 11
100.4704385878
 21
80.8510949356
 31
0.0
  0
LINE
  5
11D
330
1F
100
AcDbEntity
  8
0
  6
Continuous
 62
     7
370
    25
100
AcDbLine
 10
103.6942407621
 20
64.8510949357
 30
0.0
 11
112.6942407621
 21
64.8510949357
 31
0.0
  0
LINE
  5
11E
330
1F
100
AcDbEntity
  8
0
  6
Continuous
 62
     7
370
    25
100
AcDbLine
 10
103.6942407621
 20
64.8889118595
 30
0.0
 11
103.6942407621
 21
64.8510949357
 31
0.0
  0
SPLINE
  5
11F
330
1F
100
AcDbEntity
  8
0
  6
Continuous
 62
     7
370
    25
100
AcDbSpline
210
0.0
220
0.0
230
1.0
 70
     8
 71
     3
 72
     9
 73
     5
 74
     0
 42
0.00000001
 43
0.00000001
 40
0.0
 40
0.0
 40
0.0
 40
0.0
 40
0.4875141023677166
 40
1.0
 40
1.0
 40
1.0
 40
1.0
 10
103.5382955116975
 20
64.85109493566483
 30
0.0
 10
103.5646020856201
 20
64.85282228163653
 30
0.0
 10
103.6185627275683
 20
64.85636545292802
 30
0.0
 10
103.6685982582631
 20
64.87788393887733
 30
0.0
 10
103.6942407621247
 20
64.88891185946476
 30
0.0
  0
SPLINE
  5
120
330
1F
100
AcDbEntity
  8
0
  6
Continuous
 62
     7
370
    25
100
AcDbSpline
210
0.0
220
0.0
230
1.0
 70
     8
 71
     3
 72
    17
 73
    13
 74
     0
 42
0.00000001
 43
0.00000001
 40
0.0
 40
0.0
 40
0.0
 40
0.0
 40
0.3241697628029873
 40
0.542275846362072
 40
0.6895090526939281
 40
0.7894036290694507
 40
0.8577090008137828
 40
0.9049823971474139
 40
0.955171222970087
 40
0.9753097783197819
 40
0.9919572060138849
 40
1.0
 40
1.0
 40
1.0
 40
1.0
 10
101.2196938780425
 20
72.85109493566242
 30
0.0
 10
101.3624092380597
 20
71.93848143305672
 30
0.0
 10
101.6011455470017
 20
70.41184842679539
 30
0.0
 10
101.9807327414533
 20
68.48507552451443
 30
0.0
 10
102.2898669498004
 20
67.19744005358164
 30
0.0
 10
102.5459804780005
 20
66.3382880868599
 30
0.0
 10
102.7602914808955
 20
65.76482019848251
 30
0.0
 10
102.9635257019234
 20
65.34328804445254
 30
0.0
 10
103.148070966466
 20
65.0627955016571
 30
0.0
 10
103.3341420528342
 20
64.90724683307644
 30
0.0
 10
103.4493526520901
 20
64.85663623387896
 30
0.0
 10
103.516441457563
 20
64.85245648207432
 30
0.0
 10
103.5382955116975
 20
64.85109493566483
 30
0.0
  0
SPLINE
  5
121
330
1F
100
AcDbEntity
  8
0
  6
Continuous
 62
     7
370
    25
100
AcDbSpline
210
0.0
220
0.0
230
1.0
 70
     8
 71
     3
 72
    14
 73
    10
 74
     0
 42
0.00000001
 43
0.00000001
 40
0.0
 40
0.0
 40
0.0
 40
0.0
 40
0.1576095309202821
 40
0.3152382602707093
 40
0.4726926441579496
 40
0.6301650083177253
 40
0.79073131911659
 40
0.9513050385928076
 40
1.0
 40
1.0
 40
1.0
 40
1.0
 10
99.19424076212469
 20
64.85109493566478
 30
0.0
 10
99.12766974734268
 20
65.06459672414218
 30
0.0
 10
98.99451960875773
 20
65.49162630776769
 30
0.0
 10
98.66595264700703
 20
66.076873386624
 30
0.0
 10
98.25256300627503
 20
66.59902792744641
 30
0.0
 10
97.75688808733038
 20
67.04800605486629
 30
0.0
 10
97.19059838204588
 20
67.40728778667268
 30
0.0
 10
96.71434772565283
 20
67.61185396577385
 30
0.0
 10
96.43415315746007
 20
67.69264851412515
 30
0.0
 10
96.36895437268704
 20
67.71144868717194
 30
0.0
  0
LINE
  5
122
330
1F
100
AcDbEntity
  8
0
  6
Continuous
 62
     7
370
    25
100
AcDbLine
 10
96.3689543727
 20
67.7114486872
 30
0.0
 11
90.5891975228
 21
69.2800701277
 31
0.0
  0
SPLINE
  5
123
330
1F
100
AcDbEntity
  8
0
  6
Continuous
 62
     7
370
    25
100
AcDbSpline
210
0.0
220
0.0
230
1.0
 70
     8
 71
     3
 72
    11
 73
     7
 74
     0
 42
0.00000001
 43
0.00000001
 40
0.0
 40
0.0
 40
0.0
 40
0.0
 40
0.2488466353289361
 40
0.4976946020535204
 40
0.7488461225871278
 40
1.0
 40
1.0
 40
1.0
 40
1.0
 10
83.51880390058805
 20
70.60327062864033
 30
0.0
 10
84.1132399497243
 20
70.53374625214668
 30
0.0
 10
85.3021152283877
 20
70.39469712718552
 30
0.0
 10
87.07683989909674
 20
70.09436838906024
 30
0.0
 10
88.84342054083912
 20
69.73245877080508
 30
0.0
 10
90.00727004185879
 20
69.43086681374052
 30
0.0
 10
90.58919752283178
 20
69.2800701276548
 30
0.0
  0
LINE
  5
124
330
1F
100
AcDbEntity
  8
0
  6
Continuous
 62
     7
370
    25
100
AcDbLine
 10
83.5188039006
 20
70.6032706286
 30
0.0
 11
83.5188039006
 21
73.8458385137
 31
0.0
  0
LINE
  5
125
330
1F
100
AcDbEntity
  8
0
  6
Continuous
 62
     7
370
    25
100
AcDbLine
 10
83.5188039006
 20
73.8458385137
 30
0.0
 11
101.9799046338
 21
73.8458385136
 31
0.0
  0
LINE
  5
126
330
1F
100
AcDbEntity
  8
0
  6
Continuous
 62
     7
370
    25
100
AcDbLine
 10
103.5382955117
 20
64.8510949357
 30
0.0
 11
99.1942407621
 21
64.8510949357
 31
0.0
  0
LINE
  5
127
330
1F
100
AcDbEntity
  8
0
  6
Continuous
 62
     7
370
    25
100
AcDbLine
 10
103.6942407621
 20
64.8889118595
 30
0.0
 11
103.6874414042
 21
64.8510949357
 31
0.0
  0
LINE
  5
128
330
1F
100
AcDbEntity
  8
0
  6
Continuous
 62
     7
370
    25
100
AcDbLine
 10
103.6942407621
 20
64.8510949357
 30
0.0
 11
103.6874414042
 21
64.8510949357
 31
0.0
  0
LINE
  5
129
330
1F
100
AcDbEntity
  8
0
  6
Continuous
 62
     7
370
    25
100
AcDbLine
 10
103.6874414042
 20
64.8510949357
 30
0.0
 11
103.5382955117
 21
64.8510949357
 31
0.0
  0
LINE
  5
12A
330
1F
100
AcDbEntity
  8
0
  6
Continuous
 62
     7
370
    25
100
AcDbLine
 10
65.6942407621
 20
82.8510949357
 30
0.0
 11
83.5188039006
 21
82.8510949357
 31
0.0
  0
LINE
  5
12B
330
1F
100
AcDbEntity
  8
0
  6
Continuous
 62
     7
370
    25
100
AcDbLine
 10
83.5188039006
 20
82.8510949357
 30
0.0
 11
83.5188039006
 21
73.8458385137
 31
0.0
  0
LINE
  5
12C
330
1F
100
AcDbEntity
  8
0
  6
Continuous
 62
     7
370
    25
100
AcDbLine
 10
78.8025729044
 20
70.8510949357
 30
0.0
 11
70.6942407621
 21
70.8510949357
 31
0.0
  0
ARC
  5
12D
330
1F
100
AcDbEntity
  8
0
  6
Continuous
 62
     7
370
    25
100
AcDbCircle
 10
70.6942407621
 20
75.8510949357
 30
0.0
 40
5.0
100
AcDbArc
 50
180.0
 51
270.0
  0
LINE
  5
12E
330
1F
100
AcDbEntity
  8
0
  6
Continuous
 62
     7
370
    25
100
AcDbLine
 10
65.6942407621
 20
75.8510949357
 30
0.0
 11
65.6942407621
 21
82.8510949357
 31
0.0
  0
ARC
  5
12F
330
1F
100
AcDbEntity
  8
0
  6
Continuous
 62
     7
370
    25
100
AcDbCircle
 10
78.8025729044
 20
25.8509656815
 30
0.0
 40
45.00012925418374
100
AcDbArc
 50
83.9840777705
 51
90.0
  0
LINE
  5
130
330
1F
100
AcDbEntity
  8
0
  6
Continuous
 62
     7
370
    25
100
AcDbLine
 10
85.6942407621
 20
82.8510949357
 30
0.0
 11
85.6942407621
 21
80.870050459
 31
0.0
  0
ARC
  5
131
330
1F
100
AcDbEntity
  8
0
  6
Continuous
 62
     7
370
    25
100
AcDbCircle
 10
91.6942407621
 20
80.870050459
 30
0.0
 40
6.000000000000003
100
AcDbArc
 50
180.0
 51
275.5801667845
  0
ARC
  5
132
330
1F
100
AcDbEntity
  8
0
  6
Continuous
 62
     7
370
    25
100
AcDbCircle
 10
91.3052871979
 20
84.8510949357
 30
0.0
 40
10.00000000000848
100
AcDbArc
 50
275.5801667845
 51
336.4218215217
  0
LINE
  5
133
330
1F
100
AcDbEntity
  8
0
  6
Continuous
 62
     7
370
    25
100
AcDbLine
 10
83.5188039006
 20
82.8510949357
 30
0.0
 11
85.6942407621
 21
82.8510949357
 31
0.0
  0
LINE
  5
134
330
1F
100
AcDbEntity
  8
0
  6
Continuous
 62
     7
370
    25
100
AcDbLine
 10
99.1942407621
 20
64.8510949357
 30
0.0
 11
98.6942407621
 21
64.8510949357
 31
0.0
  0
LINE
  5
135
330
1F
100
AcDbEntity
  8
0
  6
Continuous
 62
     7
370
    25
100
AcDbLine
 10
100.4551554295
 20
80.8510949356
 30
0.0
 11
100.4704385878
 21
80.8510949356
 31
0.0
  0
LINE
  5
136
330
1F
100
AcDbEntity
  8
0
  6
Continuous
 62
     7
370
    25
100
AcDbLine
 10
112.6942407621
 20
59.5455393801
 30
0.0
 11
112.6942407621
 21
62.8510949357
 31
0.0
  0
LINE
  5
137
330
1F
100
AcDbEntity
  8
0
  6
Continuous
 62
     7
370
    25
100
AcDbLine
 10
98.6942407621
 20
62.8510949357
 30
0.0
 11
98.6942407621
 21
59.5455393801
 31
0.0
  0
LINE
  5
138
330
1F
100
AcDbEntity
  8
0
  6
Continuous
 62
     7
370
    25
100
AcDbLine
 10
98.6942407621
 20
49.1566504912
 30
0.0
 11
98.6942407621
 21
45.8510949357
 31
0.0
  0
LINE
  5
139
330
1F
100
AcDbEntity
  8
0
  6
Continuous
 62
     7
370
    25
100
AcDbLine
 10
112.6942407621
 20
45.8510949357
 30
0.0
 11
112.6942407621
 21
49.1566504912
 31
0.0
  0
SPLINE
  5
13A
330
1F
100
AcDbEntity
  8
0
  6
Continuous
 62
     7
370
    25
100
AcDbSpline
210
0.0
220
0.0
230
1.0
 70
     8
 71
     3
 72
    32
 73
    28
 74
     0
 42
0.00000001
 43
0.00000001
 40
0.0
 40
0.0
 40
0.0
 40
0.0
 40
0.0401450235848357
 40
0.0814946510747366
 40
0.1230108374273918
 40
0.1655335881087852
 40
0.213102689944118
 40
0.2616869956899938
 40
0.3186512837064658
 40
0.3479268696243464
 40
0.3771976325562726
 40
0.4187548087056146
 40
0.4612652019558922
 40
0.5031787598671369
 40
0.5464778200637773
 40
0.5837150053189375
 40
0.6216789039917089
 40
0.649608003238977
 40
0.6775412817538382
 40
0.7348752066615024
 40
0.7907587055724206
 40
0.8195305177303107
 40
0.848297267517085
 40
0.8930422512982819
 40
0.939068727387773
 40
0.9835429316127413
 40
1.0
 40
1.0
 40
1.0
 40
1.0
 10
112.0942407621247
 20
62.85109493566478
 30
0.0
 10
112.0829219517563
 20
62.84347625368253
 30
0.0
 10
112.05994469532
 20
62.82801028120699
 30
0.0
 10
111.8752682628236
 20
62.70479100497008
 30
0.0
 10
111.5846884903773
 20
62.51476707191168
 30
0.0
 10
111.1737482015135
 20
62.2542323311927
 30
0.0
 10
110.641116267139
 20
61.93242803689144
 30
0.0
 10
109.9526715432524
 20
61.54656840193414
 30
0.0
 10
109.2607155905435
 20
61.20239988559782
 30
0.0
 10
108.6147969815714
 20
60.9283579977763
 30
0.0
 10
108.0246109557074
 20
60.7112715696286
 30
0.0
 10
107.316718208021
 20
60.50572242214065
 30
0.0
 10
106.4866212047828
 20
60.35628473610783
 30
0.0
 10
105.6198263467372
 20
60.30870185144543
 30
0.0
 10
104.7907485341466
 20
60.37217009243324
 30
0.0
 10
104.0150062749004
 20
60.52239559668234
 30
0.0
 10
103.3716894081574
 20
60.70980470975508
 30
0.0
 10
102.8168379906493
 20
60.91173943128141
 30
0.0
 10
102.180108565276
 20
61.17817089441475
 30
0.0
 10
101.4500077726026
 20
61.53759745174266
 30
0.0
 10
100.8111290960634
 20
61.89656390344514
 30
0.0
 10
100.3675201599746
 20
62.16170679129228
 30
0.0
 10
100.0125896342472
 20
62.38145510320599
 30
0.0
 10
99.6692676519304
 20
62.60200556035214
 30
0.0
 10
99.41260994144078
 20
62.77162175184736
 30
0.0
 10
99.28953176855357
 20
62.85425168827649
 30
0.0
 10
99.30715892714241
 20
62.842426484102
 30
0.0
 10
99.31191988718695
 20
62.83923258734835
 30
0.0
  0
SPLINE
  5
13B
330
1F
100
AcDbEntity
  8
0
  6
Continuous
 62
     7
370
    25
100
AcDbSpline
210
0.0
220
0.0
230
1.0
 70
     8
 71
     3
 72
    32
 73
    28
 74
     0
 42
0.00000001
 43
0.00000001
 40
0.0
 40
0.0
 40
0.0
 40
0.0
 40
0.0148226906036678
 40
0.0619098642308405
 40
0.1074419255042467
 40
0.1543358594329046
 40
0.182598153298089
 40
0.2108647534549355
 40
0.2690259379277178
 40
0.3246070981579414
 40
0.3531531900241039
 40
0.3816927019323051
 40
0.4179901534316578
 40
0.4550296659437936
 40
0.4953226362402814
 40
0.5372317715994345
 40
0.5776049808321276
 40
0.6191596213353762
 40
0.6475096399520571
 40
0.6758659597953307
 40
0.7341701314178916
 40
0.7822939425002001
 40
0.8313627427680195
 40
0.8736469360376942
 40
0.9168681617688612
 40
0.9578489936169664
 40
1.0
 40
1.0
 40
1.0
 40
1.0
 10
99.80874646433357
 20
63.33991590781977
 30
0.0
 10
99.80480246865774
 20
63.34295514746238
 30
0.0
 10
99.78832959990903
 20
63.35564912581419
 30
0.0
 10
99.89910348627386
 20
63.27019647418904
 30
0.0
 10
100.1365361931609
 20
63.08995686937188
 30
0.0
 10
100.4493542183474
 20
62.85896094404816
 30
0.0
 10
100.7744765615387
 20
62.627662759783
 30
0.0
 10
101.1805654012369
 20
62.34840687470641
 30
0.0
 10
101.7627909864812
 20
61.97171107634686
 30
0.0
 10
102.4385821634861
 20
61.58860128928352
 30
0.0
 10
103.0251550130771
 20
61.30478604755788
 30
0.0
 10
103.540416363648
 20
61.08865055400494
 30
0.0
 10
104.1379158135878
 20
60.88778315750417
 30
0.0
 10
104.844004782619
 20
60.72929661258338
 30
0.0
 10
105.6153784237693
 20
60.6591999546624
 30
0.0
 10
106.4122275600419
 20
60.70750078439203
 30
0.0
 10
107.1881675234041
 20
60.86720288345191
 30
0.0
 10
107.8370631587756
 20
61.08330473302144
 30
0.0
 10
108.3781108798451
 20
61.31157166548739
 30
0.0
 10
108.9758132340234
 20
61.60178773293325
 30
0.0
 10
109.6131596570578
 20
61.96568869403931
 30
0.0
 10
110.2525564681525
 20
62.37695595147761
 30
0.0
 10
110.7405999299951
 20
62.71554343321392
 30
0.0
 10
111.1224210537571
 20
62.99342712916064
 30
0.0
 10
111.3887403084887
 20
63.1934361881512
 30
0.0
 10
111.5615169450264
 20
63.32579133657796
 30
0.0
 10
111.5832309400885
 20
63.3425816218914
 30
0.0
 10
111.5942407621247
 20
63.35109493566478
 30
0.0
  0
LINE
  5
13C
330
1F
100
AcDbEntity
  8
FORMAT
  6
CENTERX2
370
    18
100
AcDbLine
 10
81.597767708
 20
54.3510949357
 30
0.0
 11
126.9840260421
 21
54.3510949357
 31
0.0
  0
LINE
  5
13D
330
1F
100
AcDbEntity
  8
FORMAT
  6
CENTERX2
370
    18
100
AcDbLine
 10
105.6942407621
 20
44.3818376007
 30
0.0
 11
105.6942407621
 21
82.8858918609
 31
0.0
  0
LINE
  5
13E
330
1F
100
AcDbEntity
  8
0
  6
Continuous
 62
     7
370
    25
100
AcDbLine
 10
163.3119597493
 20
62.4251273854
 30
0.0
 11
163.3119597493
 21
64.8510949357
 31
0.0
  0
LINE
  5
13F
330
1F
100
AcDbEntity
  8
0
  6
Continuous
 62
     7
370
    25
100
AcDbLine
 10
151.5119597493
 20
64.8510949357
 30
0.0
 11
151.5119597493
 21
63.349188606
 31
0.0
  0
ARC
  5
140
330
1F
100
AcDbEntity
  8
0
  6
Continuous
 62
     7
370
    25
100
AcDbCircle
 10
151.7119597493
 20
62.892837366
 30
0.0
 40
0.4999999999999851
100
AcDbArc
 50
113.6449780875
 51
180.007858636
  0
ARC
  5
141
330
1F
100
AcDbEntity
  8
0
  6
Continuous
 62
     7
370
    25
100
AcDbCircle
 10
162.6619597493
 20
81.4510949357
 30
0.0
 40
0.25
100
AcDbArc
 50
0.0
 51
90.0
  0
ARC
  5
142
330
1F
100
AcDbEntity
  8
0
  6
Continuous
 62
     7
370
    25
100
AcDbCircle
 10
152.1619597493
 20
81.4510949357
 30
0.0
 40
0.25
100
AcDbArc
 50
90.0
 51
180.0
  0
LINE
  5
143
330
1F
100
AcDbEntity
  8
0
  6
Continuous
 62
     7
370
    25
100
AcDbLine
 10
162.9119597493
 20
80.8510949357
 30
0.0
 11
162.9119597493
 21
81.4510949357
 31
0.0
  0
LINE
  5
144
330
1F
100
AcDbEntity
  8
0
  6
Continuous
 62
     7
370
    25
100
AcDbLine
 10
151.9119597493
 20
81.4510949357
 30
0.0
 11
151.9119597493
 21
80.8510949357
 31
0.0
  0
LINE
  5
145
330
1F
100
AcDbEntity
  8
0
  6
Continuous
 62
     7
370
    25
100
AcDbLine
 10
164.8619597493
 20
72.8510949357
 30
0.0
 11
162.9119597493
 21
80.8510949356
 31
0.0
  0
LINE
  5
146
330
1F
100
AcDbEntity
  8
0
  6
Continuous
 62
     7
370
    25
100
AcDbLine
 10
151.9119597493
 20
80.8510949356
 30
0.0
 11
149.9619597493
 21
72.8510949357
 31
0.0
  0
LINE
  5
147
330
1F
100
AcDbEntity
  8
0
  6
Continuous
 62
     7
370
    25
100
AcDbLine
 10
149.9619597493
 20
72.8510949357
 30
0.0
 11
150.4119597493
 21
64.8510949357
 31
0.0
  0
LINE
  5
148
330
1F
100
AcDbEntity
  8
0
  6
Continuous
 62
     7
370
    25
100
AcDbLine
 10
164.4119597493
 20
64.8510949357
 30
0.0
 11
164.8619597493
 21
72.8510949357
 31
0.0
  0
CIRCLE
  5
149
330
1F
100
AcDbEntity
  8
0
  6
Continuous
 62
     7
370
    25
100
AcDbCircle
 10
157.4119597493
 20
54.3510949357
 30
0.0
 40
2.900000000000006
  0
CIRCLE
  5
14A
330
1F
100
AcDbEntity
  8
0
  6
Continuous
 62
     7
370
    25
100
AcDbCircle
 10
157.4119597493
 20
54.3510949357
 30
0.0
 40
6.75
  0
CIRCLE
  5
14B
330
1F
100
AcDbEntity
  8
0
  6
Continuous
 62
     7
370
    25
100
AcDbCircle
 10
157.4119597493
 20
54.3510949357
 30
0.0
 40
8.0
  0
CIRCLE
  5
14C
330
1F
100
AcDbEntity
  8
0
  6
Continuous
 62
     7
370
    25
100
AcDbCircle
 10
157.4119597493
 20
54.3510949357
 30
0.0
 40
8.25
  0
CIRCLE
  5
14D
330
1F
100
AcDbEntity
  8
0
  6
Continuous
 62
     7
370
    25
100
AcDbCircle
 10
157.4119597493
 20
54.3510949357
 30
0.0
 40
6.083631787923167
  0
CIRCLE
  5
14E
330
1F
100
AcDbEntity
  8
0
  6
Continuous
 62
     7
370
    25
100
AcDbCircle
 10
157.4119597493
 20
54.3510949357
 30
0.0
 40
5.810616951453397
  0
CIRCLE
  5
14F
330
1F
100
AcDbEntity
  8
0
  6
Continuous
 62
     7
370
    25
100
AcDbCircle
 10
157.4119597493
 20
54.3510949357
 30
0.0
 40
5.474999999999966
  0
CIRCLE
  5
150
330
1F
100
AcDbEntity
  8
0
  6
Continuous
 62
     7
370
    25
100
AcDbCircle
 10
157.4119597493
 20
54.3510949357
 30
0.0
 40
9.999999999999972
  0
CIRCLE
  5
151
330
1F
100
AcDbEntity
  8
0
  6
Continuous
 62
     7
370
    25
100
AcDbCircle
 10
157.4119597493
 20
54.3510949357
 30
0.0
 40
9.75
  0
CIRCLE
  5
152
330
1F
100
AcDbEntity
  8
0
  6
Continuous
 62
     7
370
    25
100
AcDbCircle
 10
157.4119597493
 20
54.3510949357
 30
0.0
 40
2.999999999999972
  0
SPLINE
  5
153
330
1F
100
AcDbEntity
  8
0
  6
Continuous
 62
     7
370
    25
100
AcDbSpline
210
0.0
220
0.0
230
1.0
 70
     8
 71
     3
 72
    13
 73
     9
 74
     0
 42
0.00000001
 43
0.00000001
 40
0.0
 40
0.0
 40
0.0
 40
0.0
 40
0.0709002556126968
 40
0.2985326187209603
 40
0.5283503324641388
 40
0.7606230766495085
 40
0.9918193887712566
 40
1.0
 40
1.0
 40
1.0
 40
1.0
 10
151.5942280196451
 20
62.46208853225227
 30
0.0
 10
151.5941434676351
 20
62.49661751998942
 30
0.0
 10
151.593787452939
 20
62.6420052769429
 30
0.0
 10
151.5746867359916
 20
62.88167946916409
 30
0.0
 10
151.5453595807576
 20
63.14115183047317
 30
0.0
 10
151.5206456270488
 20
63.30029044998961
 30
0.0
 10
151.5091075916616
 20
63.36834530226005
 30
0.0
 10
151.5121703997583
 20
63.3498216446271
 30
0.0
 10
151.5122750700079
 20
63.34918860598868
 30
0.0
  0
SPLINE
  5
154
330
1F
100
AcDbEntity
  8
0
  6
Continuous
 62
     7
370
    25
100
AcDbSpline
210
0.0
220
0.0
230
1.0
 70
    24
 71
     3
 72
    14
 73
    10
 74
     0
 42
0.00000001
 43
0.00000001
 40
0.0
 40
0.0
 40
0.0
 40
0.0
 40
0.0686782875714484
 40
0.293216909137959
 40
0.2935197863693179
 40
0.5073359099559678
 40
0.7069537562193142
 40
0.9001971037285486
 40
1.0
 40
1.0
 40
1.0
 40
1.0
 10
151.2119597492576
 20
62.35109493566562
 30
0.0
 10
151.2119597492576
 20
62.36994703689324
 30
0.0
 10
151.2119597492576
 20
62.45043469970756
 30
0.0
 10
151.2119597492575
 20
62.53012370605059
 30
0.0
 10
151.2119597492577
 20
62.6393354288269
 30
0.0
 10
151.2119597492576
 20
62.73603150933715
 30
0.0
 10
151.2119597492576
 20
62.8376140516273
 30
0.0
 10
151.2119597492576
 20
62.89116612108163
 30
0.0
 10
151.2119597492576
 20
62.88695931981676
 30
0.0
 10
151.2119597492576
 20
62.88552660754291
 30
0.0
  0
SPLINE
  5
155
330
1F
100
AcDbEntity
  8
0
  6
Continuous
 62
     7
370
    25
100
AcDbSpline
210
0.0
220
0.0
230
1.0
 70
    24
 71
     3
 72
     9
 73
     5
 74
     0
 42
0.00000001
 43
0.00000001
 40
0.0
 40
0.0
 40
0.0
 40
0.0
 40
0.3143288738672225
 40
1.0
 40
1.0
 40
1.0
 40
1.0
 10
151.2119597492576
 20
62.16567253265541
 30
0.0
 10
151.2119597492576
 20
62.18385580447247
 30
0.0
 10
151.2119597492576
 20
62.24170372532478
 30
0.0
 10
151.2119597492576
 20
62.30659847771447
 30
0.0
 10
151.2119597492576
 20
62.35109493566562
 30
0.0
  0
LINE
  5
156
330
1F
100
AcDbEntity
  8
0
  6
Continuous
 62
     7
370
    25
100
AcDbLine
 10
158.6619597493
 20
81.4510949357
 30
0.0
 11
158.6619597493
 21
81.7010949357
 31
0.0
  0
ARC
  5
157
330
1F
100
AcDbEntity
  8
0
  6
Continuous
 62
     7
370
    25
100
AcDbCircle
 10
158.6619597493
 20
81.4510949357
 30
0.0
 40
0.25
100
AcDbArc
 50
0.0
 51
90.0
  0
LINE
  5
158
330
1F
100
AcDbEntity
  8
0
  6
Continuous
 62
     7
370
    25
100
AcDbLine
 10
158.6619597493
 20
81.4510949357
 30
0.0
 11
158.9119597493
 21
81.4510949357
 31
0.0
  0
LINE
  5
159
330
1F
100
AcDbEntity
  8
0
  6
Continuous
 62
     7
370
    25
100
AcDbLine
 10
158.6619597493
 20
80.8510949357
 30
0.0
 11
158.6619597493
 21
81.4510949357
 31
0.0
  0
LINE
  5
15A
330
1F
100
AcDbEntity
  8
0
  6
Continuous
 62
     7
370
    25
100
AcDbLine
 10
158.9119597493
 20
81.4510949357
 30
0.0
 11
158.9119597493
 21
80.8510949357
 31
0.0
  0
LINE
  5
15B
330
1F
100
AcDbEntity
  8
0
  6
Continuous
 62
     7
370
    25
100
AcDbLine
 10
158.9119597493
 20
80.8510949357
 30
0.0
 11
158.6619597493
 21
80.8510949357
 31
0.0
  0
LINE
  5
15C
330
1F
100
AcDbEntity
  8
0
  6
Continuous
 62
     7
370
    25
100
AcDbLine
 10
158.6619597493
 20
81.4510949357
 30
0.0
 11
156.1619597493
 21
81.4510949357
 31
0.0
  0
LINE
  5
15D
330
1F
100
AcDbEntity
  8
0
  6
Continuous
 62
     7
370
    25
100
AcDbLine
 10
156.1619597493
 20
81.7010949357
 30
0.0
 11
156.1619597493
 21
81.4510949357
 31
0.0
  0
LINE
  5
15E
330
1F
100
AcDbEntity
  8
0
  6
Continuous
 62
     7
370
    25
100
AcDbLine
 10
156.1619597493
 20
81.7010949357
 30
0.0
 11
158.6619597493
 21
81.7010949357
 31
0.0
  0
LINE
  5
15F
330
1F
100
AcDbEntity
  8
0
  6
Continuous
 62
     7
370
    25
100
AcDbLine
 10
156.1619597493
 20
81.4510949357
 30
0.0
 11
156.1619597493
 21
80.8510949357
 31
0.0
  0
LINE
  5
160
330
1F
100
AcDbEntity
  8
0
  6
Continuous
 62
     7
370
    25
100
AcDbLine
 10
158.6619597493
 20
80.8510949357
 30
0.0
 11
156.1619597493
 21
80.8510949357
 31
0.0
  0
ARC
  5
161
330
1F
100
AcDbEntity
  8
0
  6
Continuous
 62
     7
370
    25
100
AcDbCircle
 10
156.1619597493
 20
81.4510949357
 30
0.0
 40
0.25
100
AcDbArc
 50
90.0
 51
180.0
  0
LINE
  5
162
330
1F
100
AcDbEntity
  8
0
  6
Continuous
 62
     7
370
    25
100
AcDbLine
 10
155.9119597493
 20
81.4510949357
 30
0.0
 11
156.1619597493
 21
81.4510949357
 31
0.0
  0
LINE
  5
163
330
1F
100
AcDbEntity
  8
0
  6
Continuous
 62
     7
370
    25
100
AcDbLine
 10
155.9119597493
 20
80.8510949357
 30
0.0
 11
155.9119597493
 21
81.4510949357
 31
0.0
  0
LINE
  5
164
330
1F
100
AcDbEntity
  8
0
  6
Continuous
 62
     7
370
    25
100
AcDbLine
 10
156.1619597493
 20
80.8510949357
 30
0.0
 11
155.9119597493
 21
80.8510949357
 31
0.0
  0
SPLINE
  5
165
330
1F
100
AcDbEntity
  8
0
  6
Continuous
 62
     7
370
    25
100
AcDbSpline
210
0.0
220
0.0
230
1.0
 70
     8
 71
     3
 72
    15
 73
    11
 74
     0
 42
0.00000001
 43
0.00000001
 40
0.0
 40
0.0
 40
0.0
 40
0.0
 40
0.0081667445812973
 40
0.3321939991490814
 40
0.475627960058559
 40
0.6866830973284898
 40
0.8457435502264808
 40
0.8967566214763184
 40
0.9909540928118028
 40
1.0
 40
1.0
 40
1.0
 40
1.0
 10
158.6619597492576
 20
81.70109493566477
 30
0.0
 10
158.6633972121966
 20
81.701092259319
 30
0.0
 10
158.7218680701486
 20
81.70098339513227
 30
0.0
 10
158.8062932478678
 20
81.69143738286274
 30
0.0
 10
158.9208723198903
 20
81.65407499960821
 30
0.0
 10
159.0022432070868
 20
81.60920948487355
 30
0.0
 10
159.0552621990885
 20
81.55133318529661
 30
0.0
 10
159.0794641309326
 20
81.50065714532471
 30
0.0
 10
159.0856537515989
 20
81.47196286580466
 30
0.0
 10
159.0858551470114
 20
81.45277603424921
 30
0.0
 10
159.0858727927359
 20
81.45109493566478
 30
0.0
  0
LINE
  5
166
330
1F
100
AcDbEntity
  8
0
  6
Continuous
 62
     7
370
    25
100
AcDbLine
 10
158.9119597493
 20
81.4510949357
 30
0.0
 11
159.0858727927
 21
81.4510949357
 31
0.0
  0
LINE
  5
167
330
1F
100
AcDbEntity
  8
0
  6
Continuous
 62
     7
370
    25
100
AcDbLine
 10
155.7380467058
 20
81.4510949357
 30
0.0
 11
155.9119597493
 21
81.4510949357
 31
0.0
  0
SPLINE
  5
168
330
1F
100
AcDbEntity
  8
0
  6
Continuous
 62
     7
370
    25
100
AcDbSpline
210
0.0
220
0.0
230
1.0
 70
     8
 71
     3
 72
    15
 73
    11
 74
     0
 42
0.00000001
 43
0.00000001
 40
0.0
 40
0.0
 40
0.0
 40
0.0
 40
0.0090459071881971
 40
0.1032433785236875
 40
0.1542564497735192
 40
0.3133169026715105
 40
0.5243720399414424
 40
0.66780600085099
 40
0.9918332554187292
 40
1.0
 40
1.0
 40
1.0
 40
1.0
 10
155.7380467057793
 20
81.45109493566477
 30
0.0
 10
155.7380643515038
 20
81.4527760342492
 30
0.0
 10
155.7382657469163
 20
81.47196286580471
 30
0.0
 10
155.7444553675826
 20
81.5006571453247
 30
0.0
 10
155.7686572994267
 20
81.55133318529663
 30
0.0
 10
155.8216762914284
 20
81.60920948487353
 30
0.0
 10
155.903047178625
 20
81.65407499960823
 30
0.0
 10
156.0176262506474
 20
81.69143738286273
 30
0.0
 10
156.1020514283668
 20
81.70098339513233
 30
0.0
 10
156.1605222863186
 20
81.701092259319
 30
0.0
 10
156.1619597492576
 20
81.70109493566477
 30
0.0
  0
LINE
  5
169
330
1F
100
AcDbEntity
  8
0
  6
Continuous
 62
     7
370
    25
100
AcDbLine
 10
159.0858727927
 20
81.4510949357
 30
0.0
 11
159.0858727927
 21
80.8510949357
 31
0.0
  0
LINE
  5
16A
330
1F
100
AcDbEntity
  8
0
  6
Continuous
 62
     7
370
    25
100
AcDbLine
 10
159.0858727927
 20
80.8510949357
 30
0.0
 11
158.9119597493
 21
80.8510949357
 31
0.0
  0
LINE
  5
16B
330
1F
100
AcDbEntity
  8
0
  6
Continuous
 62
     7
370
    25
100
AcDbLine
 10
155.7380467058
 20
80.8510949357
 30
0.0
 11
155.7380467058
 21
81.4510949357
 31
0.0
  0
LINE
  5
16C
330
1F
100
AcDbEntity
  8
0
  6
Continuous
 62
     7
370
    25
100
AcDbLine
 10
155.9119597493
 20
80.8510949357
 30
0.0
 11
155.7380467058
 21
80.8510949357
 31
0.0
  0
LINE
  5
16D
330
1F
100
AcDbEntity
  8
0
  6
Continuous
 62
     7
370
    25
100
AcDbLine
 10
158.6619597493
 20
81.7010949357
 30
0.0
 11
162.6619597493
 21
81.7010949357
 31
0.0
  0
LINE
  5
16E
330
1F
100
AcDbEntity
  8
0
  6
Continuous
 62
     7
370
    25
100
AcDbLine
 10
152.1619597493
 20
81.7010949357
 30
0.0
 11
156.1619597493
 21
81.7010949357
 31
0.0
  0
LINE
  5
16F
330
1F
100
AcDbEntity
  8
0
  6
Continuous
 62
     7
370
    25
100
AcDbLine
 10
159.0858727927
 20
80.8510949357
 30
0.0
 11
162.9119597493
 21
80.8510949357
 31
0.0
  0
LINE
  5
170
330
1F
100
AcDbEntity
  8
0
  6
Continuous
 62
     7
370
    25
100
AcDbLine
 10
151.9119597493
 20
80.8510949357
 30
0.0
 11
155.7380467058
 21
80.8510949357
 31
0.0
  0
LINE
  5
171
330
1F
100
AcDbEntity
  8
0
  6
Continuous
 62
     7
370
    25
100
AcDbLine
 10
156.8119597493
 20
81.7010949357
 30
0.0
 11
156.8119597493
 21
81.7110949357
 31
0.0
  0
LINE
  5
172
330
1F
100
AcDbEntity
  8
0
  6
Continuous
 62
     7
370
    25
100
AcDbLine
 10
156.8119597493
 20
81.7110949357
 30
0.0
 11
158.0119597493
 21
81.7110949357
 31
0.0
  0
LINE
  5
173
330
1F
100
AcDbEntity
  8
0
  6
Continuous
 62
     7
370
    25
100
AcDbLine
 10
158.0119597493
 20
81.7010949357
 30
0.0
 11
158.0119597493
 21
81.7110949357
 31
0.0
  0
LINE
  5
174
330
1F
100
AcDbEntity
  8
0
  6
Continuous
 62
     7
370
    25
100
AcDbLine
 10
149.9619597493
 20
72.8510949356
 30
0.0
 11
164.8619597493
 21
72.8510949356
 31
0.0
  0
LINE
  5
175
330
1F
100
AcDbEntity
  8
0
  6
Continuous
 62
     7
370
    25
100
AcDbLine
 10
150.4119597493
 20
64.8510949357
 30
0.0
 11
164.4119597493
 21
64.8510949357
 31
0.0
  0
LINE
  5
176
330
1F
100
AcDbEntity
  8
0
  6
Continuous
 62
     7
370
    25
100
AcDbLine
 10
160.6836590133
 20
82.8510949357
 30
0.0
 11
160.6836590133
 21
81.7010949357
 31
0.0
  0
LINE
  5
177
330
1F
100
AcDbEntity
  8
0
  6
Continuous
 62
     7
370
    25
100
AcDbLine
 10
160.6836590133
 20
82.8510949357
 30
0.0
 11
160.9119597493
 21
82.8510949357
 31
0.0
  0
LINE
  5
178
330
1F
100
AcDbEntity
  8
0
  6
Continuous
 62
     7
370
    25
100
AcDbLine
 10
160.9119597493
 20
81.7010949357
 30
0.0
 11
160.9119597493
 21
82.8510949357
 31
0.0
  0
LINE
  5
179
330
1F
100
AcDbEntity
  8
0
  6
Continuous
 62
     7
370
    25
100
AcDbLine
 10
153.9119597493
 20
82.8510949357
 30
0.0
 11
153.9119597493
 21
81.7010949357
 31
0.0
  0
LINE
  5
17A
330
1F
100
AcDbEntity
  8
0
  6
Continuous
 62
     7
370
    25
100
AcDbLine
 10
153.9119597493
 20
82.8510949357
 30
0.0
 11
154.1402604852
 21
82.8510949357
 31
0.0
  0
LINE
  5
17B
330
1F
100
AcDbEntity
  8
0
  6
Continuous
 62
     7
370
    25
100
AcDbLine
 10
154.1402604852
 20
82.8510949357
 30
0.0
 11
154.1402604852
 21
81.7010949357
 31
0.0
  0
LINE
  5
17C
330
1F
100
AcDbEntity
  8
0
  6
Continuous
 62
     7
370
    25
100
AcDbLine
 10
154.1402604852
 20
82.8510949357
 30
0.0
 11
160.6836590133
 21
82.8510949357
 31
0.0
  0
LINE
  5
17D
330
1F
100
AcDbEntity
  8
0
  6
Continuous
 62
     7
370
    25
100
AcDbLine
 10
162.9119597493
 20
81.4510949357
 30
0.0
 11
159.0858727927
 21
81.4510949357
 31
0.0
  0
LINE
  5
17E
330
1F
100
AcDbEntity
  8
0
  6
Continuous
 62
     7
370
    25
100
AcDbLine
 10
155.7380467058
 20
81.4510949357
 30
0.0
 11
151.9119597493
 21
81.4510949357
 31
0.0
  0
INSERT
  5
18A
330
1F
100
AcDbEntity
  8
FORMAT
100
AcDbBlockReference
  2
SW_CENTERMARKSYMBOL_0
 10
157.4119597493
 20
54.3510949357
 30
0.0
  0
LINE
  5
18B
330
1F
100
AcDbEntity
  8
0
  6
Continuous
 62
     7
370
    25
100
AcDbLine
 10
82.8385783294
 20
121.9879412735
 30
0.0
 11
82.6942407621
 21
121.7379412735
 31
0.0
  0
LINE
  5
18C
330
1F
100
AcDbEntity
  8
0
  6
Continuous
 62
     7
370
    25
100
AcDbLine
 10
82.6942407621
 20
105.2379412735
 30
0.0
 11
82.8385783294
 21
104.9879412735
 31
0.0
  0
LINE
  5
18D
330
1F
100
AcDbEntity
  8
0
  6
Continuous
 62
     7
370
    25
100
AcDbLine
 10
95.5499031948
 20
104.9879412735
 30
0.0
 11
95.6942407621
 21
105.2379412735
 31
0.0
  0
LINE
  5
18E
330
1F
100
AcDbEntity
  8
0
  6
Continuous
 62
     7
370
    25
100
AcDbLine
 10
95.6942407621
 20
121.7379412735
 30
0.0
 11
95.5499031948
 21
121.9879412735
 31
0.0
  0
LINE
  5
18F
330
1F
100
AcDbEntity
  8
0
  6
Continuous
 62
     7
370
    25
100
AcDbLine
 10
95.9442407621
 20
103.4879412735
 30
0.0
 11
97.8122747509
 21
103.4879412735
 31
0.0
  0
LINE
  5
190
330
1F
100
AcDbEntity
  8
0
  6
Continuous
 62
     7
370
    25
100
AcDbLine
 10
97.8122747509
 20
123.4879412735
 30
0.0
 11
95.9442407621
 21
123.4879412735
 31
0.0
  0
LINE
  5
191
330
1F
100
AcDbEntity
  8
0
  6
Continuous
 62
     7
370
    25
100
AcDbLine
 10
115.4442407621
 20
123.4879412735
 30
0.0
 11
113.5762067734
 21
123.4879412735
 31
0.0
  0
LINE
  5
192
330
1F
100
AcDbEntity
  8
0
  6
Continuous
 62
     7
370
    25
100
AcDbLine
 10
113.5762067734
 20
103.4879412735
 30
0.0
 11
115.4442407621
 21
103.4879412735
 31
0.0
  0
LINE
  5
193
330
1F
100
AcDbEntity
  8
0
  6
Continuous
 62
     7
370
    25
100
AcDbLine
 10
115.4442407621
 20
103.4879412735
 30
0.0
 11
115.6942407621
 21
103.7379412735
 31
0.0
  0
LINE
  5
194
330
1F
100
AcDbEntity
  8
0
  6
Continuous
 62
     7
370
    25
100
AcDbLine
 10
115.6942407621
 20
123.2379412735
 30
0.0
 11
115.4442407621
 21
123.4879412735
 31
0.0
  0
ARC
  5
195
330
1F
100
AcDbEntity
  8
0
  6
Continuous
 62
     7
370
    25
100
AcDbCircle
 10
114.6942407621
 20
122.4879412735
 30
0.0
 40
1.5
100
AcDbArc
 50
138.1896851042
 51
180.0
  0
ARC
  5
196
330
1F
100
AcDbEntity
  8
0
  6
Continuous
 62
     7
370
    25
100
AcDbCircle
 10
114.6942407621
 20
104.4879412735
 30
0.0
 40
1.5
100
AcDbArc
 50
180.0
 51
221.8103148958
  0
LINE
  5
197
330
1F
100
AcDbEntity
  8
0
  6
Continuous
 62
     7
370
    25
100
AcDbLine
 10
95.9442407621
 20
123.4879412735
 30
0.0
 11
95.6942407621
 21
123.2379412735
 31
0.0
  0
LINE
  5
198
330
1F
100
AcDbEntity
  8
0
  6
Continuous
 62
     7
370
    25
100
AcDbLine
 10
95.6942407621
 20
103.7379412735
 30
0.0
 11
95.9442407621
 21
103.4879412735
 31
0.0
  0
ARC
  5
199
330
1F
100
AcDbEntity
  8
0
  6
Continuous
 62
     7
370
    25
100
AcDbCircle
 10
96.6942407621
 20
104.4879412735
 30
0.0
 40
1.500000000000004
100
AcDbArc
 50
318.1896851042
 51
0.0
  0
ARC
  5
19A
330
1F
100
AcDbEntity
  8
0
  6
Continuous
 62
     7
370
    25
100
AcDbCircle
 10
96.6942407621
 20
122.4879412735
 30
0.0
 40
1.500000000000004
100
AcDbArc
 50
0.0
 51
41.8103148958
  0
LINE
  5
19B
330
1F
100
AcDbEntity
  8
0
  6
Continuous
 62
     7
370
    25
100
AcDbLine
 10
125.4442407621
 20
121.7379412735
 30
0.0
 11
115.6942407621
 21
121.7379412735
 31
0.0
  0
LINE
  5
19C
330
1F
100
AcDbEntity
  8
0
  6
Continuous
 62
     7
370
    25
100
AcDbLine
 10
115.6942407621
 20
105.2379412735
 30
0.0
 11
125.4442407621
 21
105.2379412735
 31
0.0
  0
LINE
  5
19D
330
1F
100
AcDbEntity
  8
0
  6
Continuous
 62
     7
370
    25
100
AcDbLine
 10
125.4442407621
 20
105.2379412735
 30
0.0
 11
125.6942407621
 21
105.4879412735
 31
0.0
  0
LINE
  5
19E
330
1F
100
AcDbEntity
  8
0
  6
Continuous
 62
     7
370
    25
100
AcDbLine
 10
125.6942407621
 20
121.4879412735
 30
0.0
 11
125.4442407621
 21
121.7379412735
 31
0.0
  0
SPLINE
  5
19F
330
1F
100
AcDbEntity
  8
0
  6
Continuous
 62
     7
370
    25
100
AcDbSpline
210
0.0
220
0.0
230
1.0
 70
     8
 71
     3
 72
    12
 73
     8
 74
     0
 42
0.00000001
 43
0.00000001
 40
0.0
 40
0.0
 40
0.0
 40
0.0
 40
0.2078104264825513
 40
0.4040543264705481
 40
0.600328838660039
 40
0.8001451001194476
 40
1.0
 40
1.0
 40
1.0
 40
1.0
 10
82.86987422863076
 20
116.987941273507
 30
0.0
 10
82.85315192681186
 20
117.3387119687877
 30
0.0
 10
82.82063807025116
 20
118.0207298031485
 30
0.0
 10
82.90154713305995
 20
119.0335160879901
 30
0.0
 10
83.0571475698563
 20
120.0247906128655
 30
0.0
 10
83.28853430495589
 20
121.0116934532251
 30
0.0
 10
83.49468326378336
 20
121.6625043609168
 30
0.0
 10
83.59776770797697
 20
121.9879412735071
 30
0.0
  0
LINE
  5
1A0
330
1F
100
AcDbEntity
  8
0
  6
Continuous
 62
     7
370
    25
100
AcDbLine
 10
83.597767708
 20
121.9879412735
 30
0.0
 11
94.7907138163
 21
121.9879412735
 31
0.0
  0
SPLINE
  5
1A1
330
1F
100
AcDbEntity
  8
0
  6
Continuous
 62
     7
370
    25
100
AcDbSpline
210
0.0
220
0.0
230
1.0
 70
     8
 71
     3
 72
    11
 73
     7
 74
     0
 42
0.00000001
 43
0.00000001
 40
0.0
 40
0.0
 40
0.0
 40
0.0
 40
0.2316679599470109
 40
0.4847178654322365
 40
0.7423340251295206
 40
1.0
 40
1.0
 40
1.0
 40
1.0
 10
95.53974777522181
 20
118.1238362386365
 30
0.0
 10
95.52324186531307
 20
118.4269982061199
 30
0.0
 10
95.48870662176961
 20
119.0613026727039
 30
0.0
 10
95.32960733885335
 20
120.0247670805784
 30
0.0
 10
95.10038218289085
 20
121.0116993814054
 30
0.0
 10
94.89394325767606
 20
121.6625063371042
 30
0.0
 10
94.79071381627247
 20
121.9879412735071
 30
0.0
  0
SPLINE
  5
1A2
330
1F
100
AcDbEntity
  8
0
  6
Continuous
 62
     7
370
    25
100
AcDbSpline
210
0.0
220
0.0
230
1.0
 70
    24
 71
     3
 72
    12
 73
     8
 74
     0
 42
0.00000001
 43
0.00000001
 40
0.0
 40
0.0
 40
0.0
 40
0.0
 40
0.2240396278447896
 40
0.4755285849040536
 40
0.7269524773201248
 40
0.9845595962295707
 40
1.0
 40
1.0
 40
1.0
 40
1.0
 10
83.59776770797697
 20
121.9879412735071
 30
0.0
 10
83.49922902952996
 20
121.9879412735071
 30
0.0
 10
83.29007871638677
 20
121.9879412735071
 30
0.0
 10
83.04751745746242
 20
121.9879412735071
 30
0.0
 10
82.88956453503411
 20
121.9879412735071
 30
0.0
 10
82.82309167737917
 20
121.9879412735071
 30
0.0
 10
82.84117046838226
 20
121.9879412735071
 30
0.0
 10
82.84219279530186
 20
121.9879412735071
 30
0.0
  0
SPLINE
  5
1A3
330
1F
100
AcDbEntity
  8
0
  6
Continuous
 62
     7
370
    25
100
AcDbSpline
210
0.0
220
0.0
230
1.0
 70
     8
 71
     3
 72
    12
 73
     8
 74
     0
 42
0.00000001
 43
0.00000001
 40
0.0
 40
0.0
 40
0.0
 40
0.0
 40
0.225392325347857
 40
0.4507209242740463
 40
0.6810902123832188
 40
0.9114179295261067
 40
1.0
 40
1.0
 40
1.0
 40
1.0
 10
83.59776770797697
 20
104.9879412735071
 30
0.0
 10
83.48228061864299
 20
105.3551706732534
 30
0.0
 10
83.25133909228003
 20
106.0895256439418
 30
0.0
 10
83.0014244019388
 20
107.2204476420193
 30
0.0
 10
82.85677063667667
 20
108.3723606259523
 30
0.0
 10
82.81751276041017
 20
109.3015977644266
 30
0.0
 10
82.86245164622476
 20
109.838741411268
 30
0.0
 10
82.87493410899266
 20
109.987941273507
 30
0.0
  0
SPLINE
  5
1A4
330
1F
100
AcDbEntity
  8
0
  6
Continuous
 62
     7
370
    25
100
AcDbSpline
210
0.0
220
0.0
230
1.0
 70
    24
 71
     3
 72
    12
 73
     8
 74
     0
 42
0.00000001
 43
0.00000001
 40
0.0
 40
0.0
 40
0.0
 40
0.0
 40
0.0089981824723248
 40
0.2601651742048465
 40
0.5180268226814562
 40
0.7759602082260016
 40
1.0
 40
1.0
 40
1.0
 40
1.0
 10
82.84085141835394
 20
104.9879412735071
 30
0.0
 10
82.84025221569775
 20
104.9879412735071
 30
0.0
 10
82.82292742106151
 20
104.9879412735071
 30
0.0
 10
82.8860280984461
 20
104.9879412735071
 30
0.0
 10
83.04129114039286
 20
104.9879412735071
 30
0.0
 10
83.2872778874342
 20
104.9879412735071
 30
0.0
 10
83.49923966700945
 20
104.9879412735071
 30
0.0
 10
83.59776770797697
 20
104.9879412735071
 30
0.0
  0
LINE
  5
1A5
330
1F
100
AcDbEntity
  8
0
  6
Continuous
 62
     7
370
    25
100
AcDbLine
 10
82.6942407621
 20
105.2379412735
 30
0.0
 11
82.6942407621
 21
109.9879412735
 31
0.0
  0
LINE
  5
1A6
330
1F
100
AcDbEntity
  8
0
  6
Continuous
 62
     7
370
    25
100
AcDbLine
 10
82.6942407621
 20
116.9879412735
 30
0.0
 11
82.6942407621
 21
121.7379412735
 31
0.0
  0
SPLINE
  5
1A7
330
1F
100
AcDbEntity
  8
0
  6
Continuous
 62
     7
370
    25
100
AcDbSpline
210
0.0
220
0.0
230
1.0
 70
    24
 71
     3
 72
    12
 73
     8
 74
     0
 42
0.00000001
 43
0.00000001
 40
0.0
 40
0.0
 40
0.0
 40
0.0
 40
0.0089981824723248
 40
0.2601651742048465
 40
0.5180268226814562
 40
0.7759602082260016
 40
1.0
 40
1.0
 40
1.0
 40
1.0
 10
95.54763010589548
 20
104.9879412735071
 30
0.0
 10
95.54822930855168
 20
104.9879412735071
 30
0.0
 10
95.56555410318798
 20
104.9879412735071
 30
0.0
 10
95.5024534258033
 20
104.9879412735071
 30
0.0
 10
95.34719038385659
 20
104.9879412735071
 30
0.0
 10
95.10120363681521
 20
104.9879412735071
 30
0.0
 10
94.88924185723997
 20
104.9879412735071
 30
0.0
 10
94.79071381627247
 20
104.9879412735071
 30
0.0
  0
SPLINE
  5
1A8
330
1F
100
AcDbEntity
  8
0
  6
Continuous
 62
     7
370
    25
100
AcDbSpline
210
0.0
220
0.0
230
1.0
 70
     8
 71
     3
 72
    11
 73
     7
 74
     0
 42
0.00000001
 43
0.00000001
 40
0.0
 40
0.0
 40
0.0
 40
0.0
 40
0.2910741074149761
 40
0.582065917833916
 40
0.8795673292449433
 40
1.0
 40
1.0
 40
1.0
 40
1.0
 10
94.79071381627247
 20
104.9879412735071
 30
0.0
 10
94.9066614714725
 20
105.3551664822366
 30
0.0
 10
95.13852399934925
 20
106.0895130720765
 30
0.0
 10
95.38148118373304
 20
107.2204983814549
 30
0.0
 10
95.51884359400518
 20
108.1420572250267
 30
0.0
 10
95.525837274036
 20
108.6886010077183
 30
0.0
 10
95.52785258602049
 20
108.846094091539
 30
0.0
  0
SPLINE
  5
1A9
330
1F
100
AcDbEntity
  8
0
  6
Continuous
 62
     7
370
    25
100
AcDbSpline
210
0.0
220
0.0
230
1.0
 70
    24
 71
     3
 72
    12
 73
     8
 74
     0
 42
0.00000001
 43
0.00000001
 40
0.0
 40
0.0
 40
0.0
 40
0.0
 40
0.2240396278447896
 40
0.4755285849040536
 40
0.7269524773201248
 40
0.9845595962295707
 40
1.0
 40
1.0
 40
1.0
 40
1.0
 10
94.79071381627247
 20
121.9879412735071
 30
0.0
 10
94.88925249471947
 20
121.9879412735071
 30
0.0
 10
95.09840280786267
 20
121.9879412735071
 30
0.0
 10
95.34096406678698
 20
121.9879412735071
 30
0.0
 10
95.49891698921535
 20
121.9879412735071
 30
0.0
 10
95.56538984687022
 20
121.9879412735071
 30
0.0
 10
95.54731105586717
 20
121.9879412735071
 30
0.0
 10
95.54628872894756
 20
121.9879412735071
 30
0.0
  0
LINE
  5
1AA
330
1F
100
AcDbEntity
  8
0
  6
Continuous
 62
     7
370
    25
100
AcDbLine
 10
83.597767708
 20
104.9879412735
 30
0.0
 11
94.7907138163
 21
104.9879412735
 31
0.0
  0
LINE
  5
1AB
330
1F
100
AcDbEntity
  8
0
  6
Continuous
 62
     7
370
    25
100
AcDbLine
 10
97.8122747509
 20
123.4879412735
 30
0.0
 11
97.8122747509
 21
118.5789774667
 31
0.0
  0
LINE
  5
1AC
330
1F
100
AcDbEntity
  8
0
  6
Continuous
 62
     7
370
    25
100
AcDbLine
 10
97.8122747509
 20
108.3969050803
 30
0.0
 11
97.8122747509
 21
103.4879412735
 31
0.0
  0
LINE
  5
1AD
330
1F
100
AcDbEntity
  8
0
  6
Continuous
 62
     7
370
    25
100
AcDbLine
 10
95.9442407621
 20
123.4879412735
 30
0.0
 11
95.9442407621
 21
118.1866206069
 31
0.0
  0
LINE
  5
1AE
330
1F
100
AcDbEntity
  8
0
  6
Continuous
 62
     7
370
    25
100
AcDbLine
 10
95.9442407621
 20
108.7892619401
 30
0.0
 11
95.9442407621
 21
103.4879412735
 31
0.0
  0
LINE
  5
1AF
330
1F
100
AcDbEntity
  8
0
  6
Continuous
 62
     7
370
    25
100
AcDbLine
 10
113.5762067734
 20
103.4879412735
 30
0.0
 11
113.5762067734
 21
123.4879412735
 31
0.0
  0
LINE
  5
1B0
330
1F
100
AcDbEntity
  8
0
  6
Continuous
 62
     7
370
    25
100
AcDbLine
 10
115.4442407621
 20
103.4879412735
 30
0.0
 11
115.4442407621
 21
123.4879412735
 31
0.0
  0
LINE
  5
1B1
330
1F
100
AcDbEntity
  8
0
  6
Continuous
 62
     7
370
    25
100
AcDbLine
 10
115.6942407621
 20
123.2379412735
 30
0.0
 11
115.6942407621
 21
103.7379412735
 31
0.0
  0
SPLINE
  5
1B2
330
1F
100
AcDbEntity
  8
0
  6
Continuous
 62
     7
370
    25
100
AcDbSpline
210
0.0
220
0.0
230
1.0
 70
     8
 71
     3
 72
    12
 73
     8
 74
     0
 42
0.00000001
 43
0.00000001
 40
0.0
 40
0.0
 40
0.0
 40
0.0
 40
0.25
 40
0.25
 40
0.5
 40
0.5
 40
1.0
 40
1.0
 40
1.0
 40
1.0
 10
113.4233268292268
 20
104.7254800937573
 30
0.0
 10
113.3422102271221
 20
104.6909749558972
 30
0.0
 10
113.2951803039538
 20
104.6581298845967
 30
0.0
 10
113.232316702422
 20
104.5997773563501
 30
0.0
 10
113.2168670315048
 20
104.5741229927215
 30
0.0
 10
113.1896833671255
 20
104.5110237399817
 30
0.0
 10
113.1942407621247
 20
104.4879412735071
 30
0.0
 10
113.1942407621247
 20
104.4879412735071
 30
0.0
  0
SPLINE
  5
1B3
330
1F
100
AcDbEntity
  8
0
  6
Continuous
 62
     7
370
    25
100
AcDbSpline
210
0.0
220
0.0
230
1.0
 70
     8
 71
     3
 72
    14
 73
    10
 74
     0
 42
0.00000001
 43
0.00000001
 40
0.0
 40
0.0
 40
0.0
 40
0.0
 40
0.25
 40
0.25
 40
0.5
 40
0.5
 40
0.75
 40
0.75
 40
1.0
 40
1.0
 40
1.0
 40
1.0
 10
113.4233268292268
 20
104.7254800937573
 30
0.0
 10
113.4508478169718
 20
104.7371868893028
 30
0.0
 10
113.4707677388082
 20
104.7692288423844
 30
0.0
 10
113.4864347806263
 20
104.8685525930494
 30
0.0
 10
113.481942948814
 20
104.9363760358302
 30
0.0
 10
113.4506866035304
 20
105.098817653243
 30
0.0
 10
113.4243140201486
 20
105.1932630499787
 30
0.0
 10
113.3614774690043
 20
105.4014921575753
 30
0.0
 10
113.3254378901442
 20
105.5140905504584
 30
0.0
 10
113.2914418867786
 20
105.6338469440585
 30
0.0
  0
SPLINE
  5
1B4
330
1F
100
AcDbEntity
  8
0
  6
Continuous
 62
     7
370
    25
100
AcDbSpline
210
0.0
220
0.0
230
1.0
 70
     8
 71
     3
 72
     8
 73
     4
 74
     0
 42
0.00000001
 43
0.00000001
 40
0.0
 40
0.0
 40
0.0
 40
0.0
 40
1.0
 40
1.0
 40
1.0
 40
1.0
 10
113.1942407621247
 20
106.3640378491196
 30
0.0
 10
113.1942407621247
 20
106.1166083923246
 30
0.0
 10
113.2236054692026
 20
105.8728116434173
 30
0.0
 10
113.2914418867786
 20
105.6338469440585
 30
0.0
  0
LINE
  5
1B5
330
1F
100
AcDbEntity
  8
0
  6
Continuous
 62
     7
370
    25
100
AcDbLine
 10
113.1942407621
 20
106.3640378491
 30
0.0
 11
113.1942407621
 21
120.6118446979
 31
0.0
  0
SPLINE
  5
1B6
330
1F
100
AcDbEntity
  8
0
  6
Continuous
 62
     7
370
    25
100
AcDbSpline
210
0.0
220
0.0
230
1.0
 70
     8
 71
     3
 72
     8
 73
     4
 74
     0
 42
0.00000001
 43
0.00000001
 40
0.0
 40
0.0
 40
0.0
 40
0.0
 40
1.0
 40
1.0
 40
1.0
 40
1.0
 10
113.2914418867786
 20
121.3420356029557
 30
0.0
 10
113.2236054692026
 20
121.1030709035969
 30
0.0
 10
113.1942407621247
 20
120.8592741546896
 30
0.0
 10
113.1942407621247
 20
120.6118446978946
 30
0.0
  0
SPLINE
  5
1B7
330
1F
100
AcDbEntity
  8
0
  6
Continuous
 62
     7
370
    25
100
AcDbSpline
210
0.0
220
0.0
230
1.0
 70
     8
 71
     3
 72
    12
 73
     8
 74
     0
 42
0.00000001
 43
0.00000001
 40
0.0
 40
0.0
 40
0.0
 40
0.0
 40
0.4999999999999992
 40
0.4999999999999992
 40
0.7499999999999996
 40
0.7499999999999996
 40
1.0
 40
1.0
 40
1.0
 40
1.0
 10
113.2914418867786
 20
121.3420356029557
 30
0.0
 10
113.3593116467884
 20
121.5811177564038
 30
0.0
 10
113.4353461980422
 20
121.7968878635806
 30
0.0
 10
113.4819907964192
 20
122.0399824562845
 30
0.0
 10
113.4864297929418
 20
122.1076477317606
 30
0.0
 10
113.470699179149
 20
122.2068008479172
 30
0.0
 10
113.4508187492066
 20
122.2387080224705
 30
0.0
 10
113.4233268292268
 20
122.2504024532569
 30
0.0
  0
SPLINE
  5
1B8
330
1F
100
AcDbEntity
  8
0
  6
Continuous
 62
     7
370
    25
100
AcDbSpline
210
0.0
220
0.0
230
1.0
 70
     8
 71
     3
 72
    12
 73
     8
 74
     0
 42
0.00000001
 43
0.00000001
 40
0.0
 40
0.0
 40
0.0
 40
0.0
 40
0.5000000000000002
 40
0.5000000000000002
 40
0.7500000000000001
 40
0.7500000000000001
 40
1.0
 40
1.0
 40
1.0
 40
1.0
 10
113.1942407621247
 20
122.4879412735071
 30
0.0
 10
113.1942407621247
 20
122.4879412735071
 30
0.0
 10
113.1896833671255
 20
122.4648588070325
 30
0.0
 10
113.2168670315048
 20
122.4017595542927
 30
0.0
 10
113.232316702422
 20
122.3761051906641
 30
0.0
 10
113.2951803039538
 20
122.3177526624174
 30
0.0
 10
113.3422102271221
 20
122.284907591117
 30
0.0
 10
113.4233268292268
 20
122.2504024532569
 30
0.0
  0
LINE
  5
1B9
330
1F
100
AcDbEntity
  8
0
  6
Continuous
 62
     7
370
    25
100
AcDbLine
 10
95.6942407621
 20
103.7379412735
 30
0.0
 11
95.6942407621
 21
108.8374419546
 31
0.0
  0
LINE
  5
1BA
330
1F
100
AcDbEntity
  8
0
  6
Continuous
 62
     7
370
    25
100
AcDbLine
 10
95.6942407621
 20
118.1384405924
 30
0.0
 11
95.6942407621
 21
123.2379412735
 31
0.0
  0
SPLINE
  5
1BB
330
1F
100
AcDbEntity
  8
0
  6
Continuous
 62
     7
370
    25
100
AcDbSpline
210
0.0
220
0.0
230
1.0
 70
     8
 71
     3
 72
    12
 73
     8
 74
     0
 42
0.00000001
 43
0.00000001
 40
0.0
 40
0.0
 40
0.0
 40
0.0
 40
0.2500000000000001
 40
0.2500000000000001
 40
0.5000000000000001
 40
0.5000000000000001
 40
1.0
 40
1.0
 40
1.0
 40
1.0
 10
97.96515469502268
 20
122.2504024532569
 30
0.0
 10
98.04627129712732
 20
122.284907591117
 30
0.0
 10
98.09330122029564
 20
122.3177526624174
 30
0.0
 10
98.15616482182747
 20
122.3761051906641
 30
0.0
 10
98.17161449274467
 20
122.4017595542927
 30
0.0
 10
98.19879815712395
 20
122.4648588070325
 30
0.0
 10
98.1942407621247
 20
122.4879412735071
 30
0.0
 10
98.1942407621247
 20
122.4879412735071
 30
0.0
  0
SPLINE
  5
1BC
330
1F
100
AcDbEntity
  8
0
  6
Continuous
 62
     7
370
    25
100
AcDbSpline
210
0.0
220
0.0
230
1.0
 70
     8
 71
     3
 72
    14
 73
    10
 74
     0
 42
0.00000001
 43
0.00000001
 40
0.0
 40
0.0
 40
0.0
 40
0.0
 40
0.25
 40
0.25
 40
0.5
 40
0.5
 40
0.75
 40
0.75
 40
1.0
 40
1.0
 40
1.0
 40
1.0
 10
97.96515469502268
 20
122.2504024532569
 30
0.0
 10
97.9376337072776
 20
122.2386956577113
 30
0.0
 10
97.9177137854412
 20
122.2066537046298
 30
0.0
 10
97.90204674362313
 20
122.1073299539648
 30
0.0
 10
97.90653857543545
 20
122.039506511184
 30
0.0
 10
97.93779492071903
 20
121.8770648937712
 30
0.0
 10
97.9641675041008
 20
121.7826194970355
 30
0.0
 10
98.02700405524509
 20
121.5743903894389
 30
0.0
 10
98.06304363410518
 20
121.4617919965558
 30
0.0
 10
98.0970396374708
 20
121.3420356029557
 30
0.0
  0
SPLINE
  5
1BD
330
1F
100
AcDbEntity
  8
0
  6
Continuous
 62
     7
370
    25
100
AcDbSpline
210
0.0
220
0.0
230
1.0
 70
     8
 71
     3
 72
     8
 73
     4
 74
     0
 42
0.00000001
 43
0.00000001
 40
0.0
 40
0.0
 40
0.0
 40
0.0
 40
1.0
 40
1.0
 40
1.0
 40
1.0
 10
98.1942407621247
 20
120.6118446978946
 30
0.0
 10
98.1942407621247
 20
120.8592741546896
 30
0.0
 10
98.16487605504686
 20
121.1030709035969
 30
0.0
 10
98.0970396374708
 20
121.3420356029557
 30
0.0
  0
LINE
  5
1BE
330
1F
100
AcDbEntity
  8
0
  6
Continuous
 62
     7
370
    25
100
AcDbLine
 10
98.1942407621
 20
120.6118446979
 30
0.0
 11
98.1942407621
 21
118.6662897401
 31
0.0
  0
LINE
  5
1BF
330
1F
100
AcDbEntity
  8
0
  6
Continuous
 62
     7
370
    25
100
AcDbLine
 10
98.1942407621
 20
108.309592807
 30
0.0
 11
98.1942407621
 21
106.3640378491
 31
0.0
  0
SPLINE
  5
1C0
330
1F
100
AcDbEntity
  8
0
  6
Continuous
 62
     7
370
    25
100
AcDbSpline
210
0.0
220
0.0
230
1.0
 70
     8
 71
     3
 72
     8
 73
     4
 74
     0
 42
0.00000001
 43
0.00000001
 40
0.0
 40
0.0
 40
0.0
 40
0.0
 40
1.0
 40
1.0
 40
1.0
 40
1.0
 10
98.0970396374708
 20
105.6338469440585
 30
0.0
 10
98.16487605504686
 20
105.8728116434173
 30
0.0
 10
98.1942407621247
 20
106.1166083923246
 30
0.0
 10
98.1942407621247
 20
106.3640378491196
 30
0.0
  0
SPLINE
  5
1C1
330
1F
100
AcDbEntity
  8
0
  6
Continuous
 62
     7
370
    25
100
AcDbSpline
210
0.0
220
0.0
230
1.0
 70
     8
 71
     3
 72
    12
 73
     8
 74
     0
 42
0.00000001
 43
0.00000001
 40
0.0
 40
0.0
 40
0.0
 40
0.0
 40
0.4999999999999992
 40
0.4999999999999992
 40
0.7499999999999996
 40
0.7499999999999996
 40
1.0
 40
1.0
 40
1.0
 40
1.0
 10
98.0970396374708
 20
105.6338469440585
 30
0.0
 10
98.02916987746099
 20
105.3947647906104
 30
0.0
 10
97.95313532620725
 20
105.1789946834336
 30
0.0
 10
97.90649072783026
 20
104.9359000907297
 30
0.0
 10
97.90205173130761
 20
104.8682348152536
 30
0.0
 10
97.91778234510045
 20
104.7690816990969
 30
0.0
 10
97.93766277504281
 20
104.7371745245437
 30
0.0
 10
97.96515469502268
 20
104.7254800937573
 30
0.0
  0
SPLINE
  5
1C2
330
1F
100
AcDbEntity
  8
0
  6
Continuous
 62
     7
370
    25
100
AcDbSpline
210
0.0
220
0.0
230
1.0
 70
     8
 71
     3
 72
    12
 73
     8
 74
     0
 42
0.00000001
 43
0.00000001
 40
0.0
 40
0.0
 40
0.0
 40
0.0
 40
0.4999999999999998
 40
0.4999999999999998
 40
0.7499999999999999
 40
0.7499999999999999
 40
1.0
 40
1.0
 40
1.0
 40
1.0
 10
98.1942407621247
 20
104.4879412735071
 30
0.0
 10
98.1942407621247
 20
104.4879412735071
 30
0.0
 10
98.19879815712395
 20
104.5110237399817
 30
0.0
 10
98.17161449274467
 20
104.5741229927215
 30
0.0
 10
98.15616482182747
 20
104.5997773563501
 30
0.0
 10
98.09330122029564
 20
104.6581298845967
 30
0.0
 10
98.04627129712732
 20
104.6909749558972
 30
0.0
 10
97.96515469502268
 20
104.7254800937573
 30
0.0
  0
ARC
  5
1C3
330
1F
100
AcDbEntity
  8
0
  6
Continuous
 62
     7
370
    25
100
AcDbCircle
 10
98.6475586634
 20
120.6708206362
 30
0.0
 40
0.4571381420089228
100
AcDbArc
 50
187.4124568466
 51
275.861155744
  0
ARC
  5
1C4
330
1F
100
AcDbEntity
  8
0
  6
Continuous
 62
     7
370
    25
100
AcDbCircle
 10
98.6475586634
 20
106.3050619108
 30
0.0
 40
0.4571381420089051
100
AcDbArc
 50
84.138844256
 51
172.5875431534
  0
ARC
  5
1C5
330
1F
100
AcDbEntity
  8
0
  6
Continuous
 62
     7
370
    25
100
AcDbCircle
 10
112.7409228609
 20
120.6708206362
 30
0.0
 40
0.4571381420088769
100
AcDbArc
 50
264.138844256
 51
352.5875431534
  0
ARC
  5
1C6
330
1F
100
AcDbEntity
  8
0
  6
Continuous
 62
     7
370
    25
100
AcDbCircle
 10
112.7409228609
 20
106.3050619108
 30
0.0
 40
0.4571381420088732
100
AcDbArc
 50
7.4124568466
 51
95.861155744
  0
LINE
  5
1C7
330
1F
100
AcDbEntity
  8
0
  6
Continuous
 62
     7
370
    25
100
AcDbLine
 10
125.4442407621
 20
105.2379412735
 30
0.0
 11
125.4442407621
 21
121.7379412735
 31
0.0
  0
LINE
  5
1C8
330
1F
100
AcDbEntity
  8
0
  6
Continuous
 62
     7
370
    25
100
AcDbLine
 10
125.6942407621
 20
121.4879412735
 30
0.0
 11
125.6942407621
 21
105.4879412735
 31
0.0
  0
LINE
  5
1C9
330
1F
100
AcDbEntity
  8
0
  6
Continuous
 62
     7
370
    25
100
AcDbLine
 10
98.0970396375
 20
121.342035603
 30
0.0
 11
98.5646392626
 21
121.4879412735
 31
0.0
  0
SPLINE
  5
1CA
330
1F
100
AcDbEntity
  8
0
  6
Continuous
 62
     7
370
    25
100
AcDbSpline
210
0.0
220
0.0
230
1.0
 70
     8
 71
     3
 72
     8
 73
     4
 74
     0
 42
0.00000001
 43
0.00000001
 40
0.0
 40
0.0
 40
0.0
 40
0.0
 40
1.0
 40
1.0
 40
1.0
 40
1.0
 10
98.56463926258614
 20
121.4879412735071
 30
0.0
 10
98.65364795797457
 20
121.2026855158773
 30
0.0
 10
98.6942407621247
 20
120.9102675659954
 30
0.0
 10
98.6942407621247
 20
120.6118446978946
 30
0.0
  0
LINE
  5
1CB
330
1F
100
AcDbEntity
  8
0
  6
Continuous
 62
     7
370
    25
100
AcDbLine
 10
98.1942407621
 20
120.6118446979
 30
0.0
 11
98.6942407621
 21
120.6118446979
 31
0.0
  0
SPLINE
  5
1CC
330
1F
100
AcDbEntity
  8
0
  6
Continuous
 62
     7
370
    25
100
AcDbSpline
210
0.0
220
0.0
230
1.0
 70
     8
 71
     3
 72
     8
 73
     4
 74
     0
 42
0.00000001
 43
0.00000001
 40
0.0
 40
0.0
 40
0.0
 40
0.0
 40
1.0
 40
1.0
 40
1.0
 40
1.0
 10
112.6942407621247
 20
120.6118446978946
 30
0.0
 10
112.6942407621247
 20
120.9102675659954
 30
0.0
 10
112.7348335662749
 20
121.2026855158773
 30
0.0
 10
112.8238422616633
 20
121.4879412735071
 30
0.0
  0
LINE
  5
1CD
330
1F
100
AcDbEntity
  8
0
  6
Continuous
 62
     7
370
    25
100
AcDbLine
 10
112.8238422617
 20
121.4879412735
 30
0.0
 11
113.2914418868
 21
121.342035603
 31
0.0
  0
LINE
  5
1CE
330
1F
100
AcDbEntity
  8
0
  6
Continuous
 62
     7
370
    25
100
AcDbLine
 10
112.6942407621
 20
120.6118446979
 30
0.0
 11
113.1942407621
 21
120.6118446979
 31
0.0
  0
SPLINE
  5
1CF
330
1F
100
AcDbEntity
  8
0
  6
Continuous
 62
     7
370
    25
100
AcDbSpline
210
0.0
220
0.0
230
1.0
 70
     8
 71
     3
 72
     8
 73
     4
 74
     0
 42
0.00000001
 43
0.00000001
 40
0.0
 40
0.0
 40
0.0
 40
0.0
 40
1.0
 40
1.0
 40
1.0
 40
1.0
 10
98.6942407621247
 20
106.3640378491196
 30
0.0
 10
98.6942407621247
 20
106.0656149810188
 30
0.0
 10
98.65364795797457
 20
105.7731970311369
 30
0.0
 10
98.56463926258616
 20
105.4879412735071
 30
0.0
  0
LINE
  5
1D0
330
1F
100
AcDbEntity
  8
0
  6
Continuous
 62
     7
370
    25
100
AcDbLine
 10
98.5646392626
 20
105.4879412735
 30
0.0
 11
98.0970396375
 21
105.6338469441
 31
0.0
  0
LINE
  5
1D1
330
1F
100
AcDbEntity
  8
0
  6
Continuous
 62
     7
370
    25
100
AcDbLine
 10
98.1942407621
 20
106.3640378491
 30
0.0
 11
98.6942407621
 21
106.3640378491
 31
0.0
  0
LINE
  5
1D2
330
1F
100
AcDbEntity
  8
0
  6
Continuous
 62
     7
370
    25
100
AcDbLine
 10
113.2914418868
 20
105.6338469441
 30
0.0
 11
112.8238422617
 21
105.4879412735
 31
0.0
  0
SPLINE
  5
1D3
330
1F
100
AcDbEntity
  8
0
  6
Continuous
 62
     7
370
    25
100
AcDbSpline
210
0.0
220
0.0
230
1.0
 70
     8
 71
     3
 72
     8
 73
     4
 74
     0
 42
0.00000001
 43
0.00000001
 40
0.0
 40
0.0
 40
0.0
 40
0.0
 40
1.0
 40
1.0
 40
1.0
 40
1.0
 10
112.8238422616633
 20
105.4879412735071
 30
0.0
 10
112.7348335662749
 20
105.7731970311369
 30
0.0
 10
112.6942407621247
 20
106.0656149810188
 30
0.0
 10
112.6942407621247
 20
106.3640378491196
 30
0.0
  0
LINE
  5
1D4
330
1F
100
AcDbEntity
  8
0
  6
Continuous
 62
     7
370
    25
100
AcDbLine
 10
113.1942407621
 20
106.3640378491
 30
0.0
 11
112.6942407621
 21
106.3640378491
 31
0.0
  0
LINE
  5
1D5
330
1F
100
AcDbEntity
  8
0
  6
Continuous
 62
     7
370
    25
100
AcDbLine
 10
98.6942407621
 20
120.2160722854
 30
0.0
 11
98.6942407621
 21
120.6118446979
 31
0.0
  0
LINE
  5
1D6
330
1F
100
AcDbEntity
  8
0
  6
Continuous
 62
     7
370
    25
100
AcDbLine
 10
112.6942407621
 20
120.2160722854
 30
0.0
 11
112.6942407621
 21
120.6118446979
 31
0.0
  0
LINE
  5
1D7
330
1F
100
AcDbEntity
  8
0
  6
Continuous
 62
     7
370
    25
100
AcDbLine
 10
98.6942407621
 20
106.3640378491
 30
0.0
 11
98.6942407621
 21
106.7598102616
 31
0.0
  0
LINE
  5
1D8
330
1F
100
AcDbEntity
  8
0
  6
Continuous
 62
     7
370
    25
100
AcDbLine
 10
112.6942407621
 20
106.3640378491
 30
0.0
 11
112.6942407621
 21
106.7598102616
 31
0.0
  0
ARC
  5
1D9
330
1F
100
AcDbEntity
  8
0
  6
Continuous
 62
     7
370
    25
100
AcDbCircle
 10
98.3926224856
 20
122.467250091
 30
0.0
 40
0.4793241179195416
100
AcDbArc
 50
206.8979585986
 51
269.5422002632
  0
SPLINE
  5
1DA
330
1F
100
AcDbEntity
  8
0
  6
Continuous
 62
     7
370
    25
100
AcDbSpline
210
0.0
220
0.0
230
1.0
 70
     8
 71
     3
 72
    14
 73
    10
 74
     0
 42
0.00000001
 43
0.00000001
 40
0.0
 40
0.0
 40
0.0
 40
0.0
 40
0.25
 40
0.25
 40
0.5
 40
0.5
 40
0.75
 40
0.75
 40
1.0
 40
1.0
 40
1.0
 40
1.0
 10
98.56463926258614
 20
121.4879412735071
 30
0.0
 10
98.52616377896456
 20
121.5495945377346
 30
0.0
 10
98.48507485749454
 20
121.6077784830075
 30
0.0
 10
98.40579201005397
 20
121.7214438044744
 30
0.0
 10
98.36850910894351
 20
121.7751204031742
 30
0.0
 10
98.31570334963175
 20
121.8751104356209
 30
0.0
 10
98.3037340895381
 20
121.9195149358438
 30
0.0
 10
98.32373587791027
 20
121.9755747913376
 30
0.0
 10
98.35319233346257
 20
121.9879412735071
 30
0.0
 10
98.38879267265533
 20
121.9879412735071
 30
0.0
  0
ARC
  5
1DB
330
1F
100
AcDbEntity
  8
0
  6
Continuous
 62
     7
370
    25
100
AcDbCircle
 10
112.9958590386
 20
104.508632456
 30
0.0
 40
0.4793241179194606
100
AcDbArc
 50
26.8979585986
 51
89.5422002632
  0
SPLINE
  5
1DC
330
1F
100
AcDbEntity
  8
0
  6
Continuous
 62
     7
370
    25
100
AcDbSpline
210
0.0
220
0.0
230
1.0
 70
     8
 71
     3
 72
    14
 73
    10
 74
     0
 42
0.00000001
 43
0.00000001
 40
0.0
 40
0.0
 40
0.0
 40
0.0
 40
0.25
 40
0.25
 40
0.5
 40
0.5
 40
0.75
 40
0.75
 40
1.0
 40
1.0
 40
1.0
 40
1.0
 10
112.8238422616633
 20
105.4879412735071
 30
0.0
 10
112.8623177452849
 20
105.4262880092796
 30
0.0
 10
112.9034066667549
 20
105.3681040640067
 30
0.0
 10
112.9826895141954
 20
105.2544387425397
 30
0.0
 10
113.0199724153059
 20
105.20076214384
 30
0.0
 10
113.0727781746177
 20
105.1007721113933
 30
0.0
 10
113.0847474347113
 20
105.0563676111704
 30
0.0
 10
113.0647456463392
 20
105.0003077556766
 30
0.0
 10
113.0352891907869
 20
104.9879412735071
 30
0.0
 10
112.9996888515941
 20
104.9879412735071
 30
0.0
  0
SPLINE
  5
1DD
330
1F
100
AcDbEntity
  8
0
  6
Continuous
 62
     7
370
    25
100
AcDbSpline
210
0.0
220
0.0
230
1.0
 70
     8
 71
     3
 72
    16
 73
    12
 74
     0
 42
0.00000001
 43
0.00000001
 40
0.0
 40
0.0
 40
0.0
 40
0.0
 40
0.2500000000000011
 40
0.2500000000000011
 40
0.3749999999999992
 40
0.3749999999999992
 40
0.4999999999999974
 40
0.4999999999999974
 40
0.7499999999999987
 40
0.7499999999999987
 40
1.0
 40
1.0
 40
1.0
 40
1.0
 10
112.9996888515941
 20
121.9879412735071
 30
0.0
 10
113.0352427810428
 20
121.9879412735071
 30
0.0
 10
113.0645149222714
 20
121.9758095230913
 30
0.0
 10
113.0797274724923
 20
121.9337878168119
 30
0.0
 10
113.0797881406659
 20
121.9155734473053
 30
0.0
 10
113.0695775561885
 20
121.8736364347788
 30
0.0
 10
113.0597942266633
 20
121.8506088712845
 30
0.0
 10
113.0206296781314
 20
121.7762001925125
 30
0.0
 10
112.9827566048581
 20
121.72154231633
 30
0.0
 10
112.9036836318665
 20
121.6081732431512
 30
0.0
 10
112.8622964992757
 20
121.549560493047
 30
0.0
 10
112.8238422616633
 20
121.4879412735071
 30
0.0
  0
ARC
  5
1DE
330
1F
100
AcDbEntity
  8
0
  6
Continuous
 62
     7
370
    25
100
AcDbCircle
 10
112.9958590386
 20
122.467250091
 30
0.0
 40
0.479324117919499
100
AcDbArc
 50
270.4577997368
 51
333.1020414014
  0
SPLINE
  5
1DF
330
1F
100
AcDbEntity
  8
0
  6
Continuous
 62
     7
370
    25
100
AcDbSpline
210
0.0
220
0.0
230
1.0
 70
     8
 71
     3
 72
    16
 73
    12
 74
     0
 42
0.00000001
 43
0.00000001
 40
0.0
 40
0.0
 40
0.0
 40
0.0
 40
0.2500000000000049
 40
0.2500000000000049
 40
0.3750000000000051
 40
0.3750000000000051
 40
0.5000000000000052
 40
0.5000000000000052
 40
0.7500000000000026
 40
0.7500000000000026
 40
1.0
 40
1.0
 40
1.0
 40
1.0
 10
98.38879267265533
 20
104.9879412735071
 30
0.0
 10
98.35323874320667
 20
104.9879412735071
 30
0.0
 10
98.32396660197799
 20
105.0000730239229
 30
0.0
 10
98.3087540517571
 20
105.0420947302023
 30
0.0
 10
98.30869338358357
 20
105.0603090997089
 30
0.0
 10
98.3189039680609
 20
105.1022461122354
 30
0.0
 10
98.32868729758611
 20
105.1252736757297
 30
0.0
 10
98.36785184611807
 20
105.1996823545017
 30
0.0
 10
98.40572491939133
 20
105.2543402306842
 30
0.0
 10
98.48479789238291
 20
105.367709303863
 30
0.0
 10
98.52618502497373
 20
105.4263220539672
 30
0.0
 10
98.56463926258614
 20
105.4879412735071
 30
0.0
  0
ARC
  5
1E0
330
1F
100
AcDbEntity
  8
0
  6
Continuous
 62
     7
370
    25
100
AcDbCircle
 10
98.3926224856
 20
104.508632456
 30
0.0
 40
0.4793241179194419
100
AcDbArc
 50
90.4577997368
 51
153.1020414014
  0
LINE
  5
1E1
330
1F
100
AcDbEntity
  8
0
  6
Continuous
 62
     7
370
    25
100
AcDbLine
 10
112.8238422617
 20
121.4879412735
 30
0.0
 11
98.5646392626
 21
121.4879412735
 31
0.0
  0
LINE
  5
1E2
330
1F
100
AcDbEntity
  8
0
  6
Continuous
 62
     7
370
    25
100
AcDbLine
 10
98.3887926727
 20
121.9879412735
 30
0.0
 11
112.9996888516
 21
121.9879412735
 31
0.0
  0
LINE
  5
1E3
330
1F
100
AcDbEntity
  8
0
  6
Continuous
 62
     7
370
    25
100
AcDbLine
 10
98.5646392626
 20
105.4879412735
 30
0.0
 11
112.8238422617
 21
105.4879412735
 31
0.0
  0
LINE
  5
1E4
330
1F
100
AcDbEntity
  8
0
  6
Continuous
 62
     7
370
    25
100
AcDbLine
 10
112.9996888516
 20
104.9879412735
 30
0.0
 11
98.3887926727
 21
104.9879412735
 31
0.0
  0
ARC
  5
1E5
330
1F
100
AcDbEntity
  8
0
  6
Continuous
 62
     7
370
    25
100
AcDbCircle
 10
98.6942407621
 20
122.4879412735
 30
0.0
 40
0.5
100
AcDbArc
 50
180.0
 51
270.0
  0
ARC
  5
1E6
330
1F
100
AcDbEntity
  8
0
  6
Continuous
 62
     7
370
    25
100
AcDbCircle
 10
112.6942407621
 20
122.4879412735
 30
0.0
 40
0.5
100
AcDbArc
 50
270.0
 51
0.0
  0
ARC
  5
1E7
330
1F
100
AcDbEntity
  8
0
  6
Continuous
 62
     7
370
    25
100
AcDbCircle
 10
112.6942407621
 20
104.4879412735
 30
0.0
 40
0.5
100
AcDbArc
 50
0.0
 51
90.0
  0
ARC
  5
1E8
330
1F
100
AcDbEntity
  8
0
  6
Continuous
 62
     7
370
    25
100
AcDbCircle
 10
98.6942407621
 20
104.4879412735
 30
0.0
 40
0.5
100
AcDbArc
 50
90.0
 51
180.0
  0
SPLINE
  5
1E9
330
1F
100
AcDbEntity
  8
0
  6
Continuous
 62
     7
370
    25
100
AcDbSpline
210
0.0
220
0.0
230
1.0
 70
     8
 71
     3
 72
    15
 73
    11
 74
     0
 42
0.00000001
 43
0.00000001
 40
0.0
 40
0.0
 40
0.0
 40
0.0
 40
0.0090459071881971
 40
0.1032433785236877
 40
0.1542564497735194
 40
0.3133169026715105
 40
0.5243720399414432
 40
0.6678060008509185
 40
0.9918332554187028
 40
1.0
 40
1.0
 40
1.0
 40
1.0
 10
100.4551554294666
 20
115.1618543169854
 30
0.0
 10
100.4551611214333
 20
115.1618366712609
 30
0.0
 10
100.4552260853841
 20
115.1616352758483
 30
0.0
 10
100.45722177182
 20
115.1554456551821
 30
0.0
 10
100.4650387680364
 20
115.131243723338
 30
0.0
 10
100.4822085917914
 20
115.0782247313363
 30
0.0
 10
100.5087924883589
 20
114.9968538441398
 30
0.0
 10
100.5466217868475
 20
114.8822747721173
 30
0.0
 10
100.5749025668578
 20
114.7978495943981
 30
0.0
 10
100.5947337143891
 20
114.7393787364461
 30
0.0
 10
100.5952212485319
 20
114.7379412735071
 30
0.0
  0
ARC
  5
1EA
330
1F
100
AcDbEntity
  8
0
  6
Continuous
 62
     7
370
    25
100
AcDbCircle
 10
105.6942407621
 20
113.4879412735
 30
0.0
 40
5.499999999999997
100
AcDbArc
 50
17.7189318734
 51
162.2810681266
  0
SPLINE
  5
1EB
330
1F
100
AcDbEntity
  8
0
  6
Continuous
 62
     7
370
    25
100
AcDbSpline
210
0.0
220
0.0
230
1.0
 70
     8
 71
     3
 72
    15
 73
    11
 74
     0
 42
0.00000001
 43
0.00000001
 40
0.0
 40
0.0
 40
0.0
 40
0.0
 40
0.0081667445812973
 40
0.3321939991490814
 40
0.475627960058559
 40
0.6866830973284898
 40
0.8457435502264808
 40
0.8967566214763184
 40
0.9909540928118028
 40
1.0
 40
1.0
 40
1.0
 40
1.0
 10
110.7932602757175
 20
114.7379412735071
 30
0.0
 10
110.7937478098604
 20
114.7393787364461
 30
0.0
 10
110.8135789573916
 20
114.7978495943981
 30
0.0
 10
110.8418597374019
 20
114.8822747721173
 30
0.0
 10
110.8796890358905
 20
114.9968538441398
 30
0.0
 10
110.9062729324581
 20
115.0782247313363
 30
0.0
 10
110.923442756213
 20
115.131243723338
 30
0.0
 10
110.9312597524295
 20
115.1554456551821
 30
0.0
 10
110.9332554388654
 20
115.1616352758483
 30
0.0
 10
110.9333204028162
 20
115.1618366712609
 30
0.0
 10
110.9333260947828
 20
115.1618543169854
 30
0.0
  0
ARC
  5
1EC
330
1F
100
AcDbEntity
  8
0
  6
Continuous
 62
     7
370
    25
100
AcDbCircle
 10
105.6942407621
 20
113.4879412735
 30
0.0
 40
5.250000000000009
100
AcDbArc
 50
13.774146998
 51
166.225853002
  0
SPLINE
  5
1ED
330
1F
100
AcDbEntity
  8
0
  6
Continuous
 62
     7
370
    25
100
AcDbSpline
210
0.0
220
0.0
230
1.0
 70
     8
 71
     3
 72
    15
 73
    11
 74
     0
 42
0.00000001
 43
0.00000001
 40
0.0
 40
0.0
 40
0.0
 40
0.0
 40
0.0080847466189581
 40
0.3310106400648243
 40
0.4750333064304945
 40
0.6874363079215134
 40
0.8468367539418246
 40
0.9000996640391788
 40
0.991044277198408
 40
1.0
 40
1.0
 40
1.0
 40
1.0
 10
100.5952212485319
 20
114.7379412735071
 30
0.0
 10
100.5939414169878
 20
114.7387572094954
 30
0.0
 10
100.5415417712646
 20
114.7721637596899
 30
0.0
 10
100.4661866798095
 20
114.8209773244237
 30
0.0
 10
100.3642675677918
 20
114.8883477966921
 30
0.0
 10
100.2918766227999
 20
114.9369318370355
 30
0.0
 10
100.2441711945351
 20
114.969380698494
 30
0.0
 10
100.2226357108277
 20
114.9840917395603
 30
0.0
 10
100.2172066948082
 20
114.9878101904784
 30
0.0
 10
100.2170309426517
 20
114.9879304891439
 30
0.0
 10
100.217015187073
 20
114.9879412735071
 30
0.0
  0
ARC
  5
1EE
330
1F
100
AcDbEntity
  8
0
  6
Continuous
 62
     7
370
    25
100
AcDbCircle
 10
100.2170151871
 20
115.2379412735
 30
0.0
 40
0.2500000000000034
100
AcDbArc
 50
270.0
 51
342.2810681266
  0
SPLINE
  5
1EF
330
1F
100
AcDbEntity
  8
0
  6
Continuous
 62
     7
370
    25
100
AcDbSpline
210
0.0
220
0.0
230
1.0
 70
     8
 71
     3
 72
    15
 73
    11
 74
     0
 42
0.00000001
 43
0.00000001
 40
0.0
 40
0.0
 40
0.0
 40
0.0
 40
0.0089557228015919
 40
0.0999003359608153
 40
0.1531632460581696
 40
0.3125636920784854
 40
0.5249666935695049
 40
0.668989359935177
 40
0.9919152533810449
 40
1.0
 40
1.0
 40
1.0
 40
1.0
 10
111.1714663371764
 20
114.9879412735071
 30
0.0
 10
111.1714505815978
 20
114.9879304891439
 30
0.0
 10
111.1712748294412
 20
114.9878101904784
 30
0.0
 10
111.1658458134217
 20
114.9840917395603
 30
0.0
 10
111.1443103297144
 20
114.969380698494
 30
0.0
 10
111.0966049014495
 20
114.9369318370355
 30
0.0
 10
111.0242139564576
 20
114.8883477966921
 30
0.0
 10
110.9222948444399
 20
114.8209773244237
 30
0.0
 10
110.8469397529849
 20
114.7721637596898
 30
0.0
 10
110.7945401072616
 20
114.7387572094954
 30
0.0
 10
110.7932602757175
 20
114.7379412735071
 30
0.0
  0
ARC
  5
1F0
330
1F
100
AcDbEntity
  8
0
  6
Continuous
 62
     7
370
    25
100
AcDbCircle
 10
111.1714663372
 20
115.2379412735
 30
0.0
 40
0.2500000000000034
100
AcDbArc
 50
197.7189318734
 51
270.0
  0
SPLINE
  5
1F1
330
1F
100
AcDbEntity
  8
0
  6
Continuous
 62
     7
370
    25
100
AcDbSpline
210
0.0
220
0.0
230
1.0
 70
     8
 71
     3
 72
    15
 73
    11
 74
     0
 42
0.00000001
 43
0.00000001
 40
0.0
 40
0.0
 40
0.0
 40
0.0
 40
0.0081667445812695
 40
0.3321939991490078
 40
0.4756279600585575
 40
0.6866830973284898
 40
0.8457435502264807
 40
0.8967566214763126
 40
0.9909540928118029
 40
1.0
 40
1.0
 40
1.0
 40
1.0
 10
100.5952212485319
 20
112.2379412735071
 30
0.0
 10
100.594733714389
 20
112.2365038105681
 30
0.0
 10
100.574902566857
 20
112.1780329526164
 30
0.0
 10
100.5466217868477
 20
112.0936077748969
 30
0.0
 10
100.5087924883589
 20
111.9790287028744
 30
0.0
 10
100.4822085917914
 20
111.8976578156778
 30
0.0
 10
100.4650387680364
 20
111.8446388236762
 30
0.0
 10
100.4572217718199
 20
111.820436891832
 30
0.0
 10
100.4552260853841
 20
111.8142472711658
 30
0.0
 10
100.4551611214333
 20
111.8140458757533
 30
0.0
 10
100.4551554294666
 20
111.8140282300288
 30
0.0
  0
ARC
  5
1F2
330
1F
100
AcDbEntity
  8
0
  6
Continuous
 62
     7
370
    25
100
AcDbCircle
 10
105.6942407621
 20
113.4879412735
 30
0.0
 40
5.250000000000009
100
AcDbArc
 50
193.774146998
 51
346.225853002
  0
SPLINE
  5
1F3
330
1F
100
AcDbEntity
  8
0
  6
Continuous
 62
     7
370
    25
100
AcDbSpline
210
0.0
220
0.0
230
1.0
 70
     8
 71
     3
 72
    15
 73
    11
 74
     0
 42
0.00000001
 43
0.00000001
 40
0.0
 40
0.0
 40
0.0
 40
0.0
 40
0.0090459071881971
 40
0.1032433785236875
 40
0.1542564497735192
 40
0.3133169026715105
 40
0.5243720399414424
 40
0.66780600085099
 40
0.9918332554187292
 40
1.0
 40
1.0
 40
1.0
 40
1.0
 10
110.9333260947828
 20
111.8140282300288
 30
0.0
 10
110.9333204028162
 20
111.8140458757533
 30
0.0
 10
110.9332554388654
 20
111.8142472711658
 30
0.0
 10
110.9312597524295
 20
111.820436891832
 30
0.0
 10
110.923442756213
 20
111.8446388236762
 30
0.0
 10
110.906272932458
 20
111.8976578156778
 30
0.0
 10
110.8796890358906
 20
111.9790287028744
 30
0.0
 10
110.8418597374017
 20
112.0936077748969
 30
0.0
 10
110.8135789573925
 20
112.1780329526163
 30
0.0
 10
110.7937478098604
 20
112.2365038105681
 30
0.0
 10
110.7932602757175
 20
112.2379412735071
 30
0.0
  0
ARC
  5
1F4
330
1F
100
AcDbEntity
  8
0
  6
Continuous
 62
     7
370
    25
100
AcDbCircle
 10
105.6942407621
 20
113.4879412735
 30
0.0
 40
5.499999999999997
100
AcDbArc
 50
197.7189318734
 51
342.2810681266
  0
ARC
  5
1F5
330
1F
100
AcDbEntity
  8
0
  6
Continuous
 62
     7
370
    25
100
AcDbCircle
 10
100.2170151871
 20
111.7379412735
 30
0.0
 40
0.2500000000000034
100
AcDbArc
 50
17.7189318734
 51
90.0
  0
SPLINE
  5
1F6
330
1F
100
AcDbEntity
  8
0
  6
Continuous
 62
     7
370
    25
100
AcDbSpline
210
0.0
220
0.0
230
1.0
 70
     8
 71
     3
 72
    15
 73
    11
 74
     0
 42
0.00000001
 43
0.00000001
 40
0.0
 40
0.0
 40
0.0
 40
0.0
 40
0.0089557228015919
 40
0.0999003359608147
 40
0.1531632460581689
 40
0.3125636920784844
 40
0.5249666935695022
 40
0.6689893599352454
 40
0.9919152533810159
 40
1.0
 40
1.0
 40
1.0
 40
1.0
 10
100.217015187073
 20
111.9879412735071
 30
0.0
 10
100.2170309426516
 20
111.9879520578702
 30
0.0
 10
100.2172066948082
 20
111.9880723565357
 30
0.0
 10
100.2226357108277
 20
111.9917908074539
 30
0.0
 10
100.244171194535
 20
112.0065018485201
 30
0.0
 10
100.2918766227999
 20
112.0389507099787
 30
0.0
 10
100.3642675677918
 20
112.0875347503221
 30
0.0
 10
100.4661866798096
 20
112.1549052225903
 30
0.0
 10
100.5415417712641
 20
112.2037187873251
 30
0.0
 10
100.5939414169878
 20
112.2371253375188
 30
0.0
 10
100.5952212485319
 20
112.2379412735071
 30
0.0
  0
ARC
  5
1F7
330
1F
100
AcDbEntity
  8
0
  6
Continuous
 62
     7
370
    25
100
AcDbCircle
 10
111.1714663372
 20
111.7379412735
 30
0.0
 40
0.2500000000000034
100
AcDbArc
 50
90.0
 51
162.2810681266
  0
SPLINE
  5
1F8
330
1F
100
AcDbEntity
  8
0
  6
Continuous
 62
     7
370
    25
100
AcDbSpline
210
0.0
220
0.0
230
1.0
 70
     8
 71
     3
 72
    15
 73
    11
 74
     0
 42
0.00000001
 43
0.00000001
 40
0.0
 40
0.0
 40
0.0
 40
0.0
 40
0.0080847466189818
 40
0.3310106400647567
 40
0.4750333064304976
 40
0.6874363079215146
 40
0.846836753941831
 40
0.9000996640391853
 40
0.9910442771984082
 40
1.0
 40
1.0
 40
1.0
 40
1.0
 10
110.7932602757175
 20
112.2379412735071
 30
0.0
 10
110.7945401072616
 20
112.2371253375188
 30
0.0
 10
110.8469397529854
 20
112.2037187873252
 30
0.0
 10
110.9222948444399
 20
112.1549052225903
 30
0.0
 10
111.0242139564576
 20
112.0875347503222
 30
0.0
 10
111.0966049014495
 20
112.0389507099787
 30
0.0
 10
111.1443103297144
 20
112.0065018485201
 30
0.0
 10
111.1658458134217
 20
111.9917908074539
 30
0.0
 10
111.1712748294412
 20
111.9880723565358
 30
0.0
 10
111.1714505815978
 20
111.9879520578702
 30
0.0
 10
111.1714663371764
 20
111.9879412735071
 30
0.0
  0
LINE
  5
1F9
330
1F
100
AcDbEntity
  8
0
  6
Continuous
 62
     7
370
    25
100
AcDbLine
 10
100.6942407621
 20
112.8879412735
 30
0.0
 11
110.6942407621
 21
112.8879412735
 31
0.0
  0
LINE
  5
1FA
330
1F
100
AcDbEntity
  8
0
  6
Continuous
 62
     7
370
    25
100
AcDbLine
 10
100.6942407621
 20
114.0879412735
 30
0.0
 11
100.6942407621
 21
112.8879412735
 31
0.0
  0
LINE
  5
1FB
330
1F
100
AcDbEntity
  8
0
  6
Continuous
 62
     7
370
    25
100
AcDbLine
 10
110.6942407621
 20
114.0879412735
 30
0.0
 11
100.6942407621
 21
114.0879412735
 31
0.0
  0
LINE
  5
1FC
330
1F
100
AcDbEntity
  8
0
  6
Continuous
 62
     7
370
    25
100
AcDbLine
 10
110.6942407621
 20
112.8879412735
 30
0.0
 11
110.6942407621
 21
114.0879412735
 31
0.0
  0
LINE
  5
1FD
330
1F
100
AcDbEntity
  8
0
  6
Continuous
 62
     7
370
    25
100
AcDbLine
 10
99.9442407621
 20
112.2379412735
 30
0.0
 11
100.5952212485
 21
112.2379412735
 31
0.0
  0
LINE
  5
1FE
330
1F
100
AcDbEntity
  8
0
  6
Continuous
 62
     7
370
    25
100
AcDbLine
 10
99.9442407621
 20
114.7379412735
 30
0.0
 11
99.9442407621
 21
112.2379412735
 31
0.0
  0
LINE
  5
1FF
330
1F
100
AcDbEntity
  8
0
  6
Continuous
 62
     7
370
    25
100
AcDbLine
 10
100.5952212485
 20
114.7379412735
 30
0.0
 11
99.9442407621
 21
114.7379412735
 31
0.0
  0
LINE
  5
200
330
1F
100
AcDbEntity
  8
0
  6
Continuous
 62
     7
370
    25
100
AcDbLine
 10
111.4442407621
 20
114.7379412735
 30
0.0
 11
110.7932602757
 21
114.7379412735
 31
0.0
  0
LINE
  5
201
330
1F
100
AcDbEntity
  8
0
  6
Continuous
 62
     7
370
    25
100
AcDbLine
 10
111.4442407621
 20
112.2379412735
 30
0.0
 11
111.4442407621
 21
114.7379412735
 31
0.0
  0
LINE
  5
202
330
1F
100
AcDbEntity
  8
0
  6
Continuous
 62
     7
370
    25
100
AcDbLine
 10
110.7932602757
 20
112.2379412735
 30
0.0
 11
111.4442407621
 21
112.2379412735
 31
0.0
  0
ARC
  5
203
330
1F
100
AcDbEntity
  8
0
  6
Continuous
 62
     7
370
    25
100
AcDbCircle
 10
99.9442407621
 20
114.7379412735
 30
0.0
 40
0.25
100
AcDbArc
 50
90.0
 51
180.0
  0
LINE
  5
204
330
1F
100
AcDbEntity
  8
0
  6
Continuous
 62
     7
370
    25
100
AcDbLine
 10
99.9442407621
 20
114.9879412735
 30
0.0
 11
99.9442407621
 21
114.7379412735
 31
0.0
  0
LINE
  5
205
330
1F
100
AcDbEntity
  8
0
  6
Continuous
 62
     7
370
    25
100
AcDbLine
 10
99.9442407621
 20
114.7379412735
 30
0.0
 11
99.6942407621
 21
114.7379412735
 31
0.0
  0
LINE
  5
206
330
1F
100
AcDbEntity
  8
0
  6
Continuous
 62
     7
370
    25
100
AcDbLine
 10
111.6942407621
 20
114.7379412735
 30
0.0
 11
111.4442407621
 21
114.7379412735
 31
0.0
  0
LINE
  5
207
330
1F
100
AcDbEntity
  8
0
  6
Continuous
 62
     7
370
    25
100
AcDbLine
 10
111.4442407621
 20
114.7379412735
 30
0.0
 11
111.4442407621
 21
114.9879412735
 31
0.0
  0
ARC
  5
208
330
1F
100
AcDbEntity
  8
0
  6
Continuous
 62
     7
370
    25
100
AcDbCircle
 10
111.4442407621
 20
114.7379412735
 30
0.0
 40
0.25
100
AcDbArc
 50
0.0
 51
90.0
  0
LINE
  5
209
330
1F
100
AcDbEntity
  8
0
  6
Continuous
 62
     7
370
    25
100
AcDbLine
 10
99.9442407621
 20
114.9879412735
 30
0.0
 11
100.2170151871
 21
114.9879412735
 31
0.0
  0
LINE
  5
20A
330
1F
100
AcDbEntity
  8
0
  6
Continuous
 62
     7
370
    25
100
AcDbLine
 10
111.1714663372
 20
114.9879412735
 30
0.0
 11
111.4442407621
 21
114.9879412735
 31
0.0
  0
LINE
  5
20B
330
1F
100
AcDbEntity
  8
0
  6
Continuous
 62
     7
370
    25
100
AcDbLine
 10
111.6942407621
 20
114.7379412735
 30
0.0
 11
111.6942407621
 21
112.2379412735
 31
0.0
  0
LINE
  5
20C
330
1F
100
AcDbEntity
  8
0
  6
Continuous
 62
     7
370
    25
100
AcDbLine
 10
111.4442407621
 20
112.2379412735
 30
0.0
 11
111.6942407621
 21
112.2379412735
 31
0.0
  0
LINE
  5
20D
330
1F
100
AcDbEntity
  8
0
  6
Continuous
 62
     7
370
    25
100
AcDbLine
 10
99.6942407621
 20
112.2379412735
 30
0.0
 11
99.9442407621
 21
112.2379412735
 31
0.0
  0
LINE
  5
20E
330
1F
100
AcDbEntity
  8
0
  6
Continuous
 62
     7
370
    25
100
AcDbLine
 10
99.6942407621
 20
112.2379412735
 30
0.0
 11
99.6942407621
 21
114.7379412735
 31
0.0
  0
LINE
  5
20F
330
1F
100
AcDbEntity
  8
0
  6
Continuous
 62
     7
370
    25
100
AcDbLine
 10
111.4442407621
 20
111.9879412735
 30
0.0
 11
111.4442407621
 21
112.2379412735
 31
0.0
  0
ARC
  5
210
330
1F
100
AcDbEntity
  8
0
  6
Continuous
 62
     7
370
    25
100
AcDbCircle
 10
111.4442407621
 20
112.2379412735
 30
0.0
 40
0.25
100
AcDbArc
 50
270.0
 51
0.0
  0
LINE
  5
211
330
1F
100
AcDbEntity
  8
0
  6
Continuous
 62
     7
370
    25
100
AcDbLine
 10
99.9442407621
 20
112.2379412735
 30
0.0
 11
99.9442407621
 21
111.9879412735
 31
0.0
  0
LINE
  5
212
330
1F
100
AcDbEntity
  8
0
  6
Continuous
 62
     7
370
    25
100
AcDbLine
 10
100.2170151871
 20
111.9879412735
 30
0.0
 11
99.9442407621
 21
111.9879412735
 31
0.0
  0
LINE
  5
213
330
1F
100
AcDbEntity
  8
0
  6
Continuous
 62
     7
370
    25
100
AcDbLine
 10
111.4442407621
 20
111.9879412735
 30
0.0
 11
111.1714663372
 21
111.9879412735
 31
0.0
  0
ARC
  5
214
330
1F
100
AcDbEntity
  8
0
  6
Continuous
 62
     7
370
    25
100
AcDbCircle
 10
99.9442407621
 20
112.2379412735
 30
0.0
 40
0.25
100
AcDbArc
 50
180.0
 51
270.0
  0
LINE
  5
215
330
1F
100
AcDbEntity
  8
0
  6
Continuous
 62
     7
370
    25
100
AcDbLine
 10
85.6942407621
 20
116.7596405376
 30
0.0
 11
83.5188039006
 21
116.9879412735
 31
0.0
  0
LINE
  5
216
330
1F
100
AcDbEntity
  8
0
  6
Continuous
 62
     7
370
    25
100
AcDbLine
 10
85.6942407621
 20
110.2162420095
 30
0.0
 11
85.6942407621
 21
116.7596405376
 31
0.0
  0
LINE
  5
217
330
1F
100
AcDbEntity
  8
0
  6
Continuous
 62
     7
370
    25
100
AcDbLine
 10
83.5188039006
 20
109.9879412735
 30
0.0
 11
85.6942407621
 21
110.2162420095
 31
0.0
  0
LINE
  5
218
330
1F
100
AcDbEntity
  8
0
  6
Continuous
 62
     7
370
    25
100
AcDbLine
 10
65.6942407621
 20
109.9879412735
 30
0.0
 11
83.5188039006
 21
109.9879412735
 31
0.0
  0
LINE
  5
219
330
1F
100
AcDbEntity
  8
0
  6
Continuous
 62
     7
370
    25
100
AcDbLine
 10
65.6942407621
 20
116.9879412735
 30
0.0
 11
65.6942407621
 21
109.9879412735
 31
0.0
  0
LINE
  5
21A
330
1F
100
AcDbEntity
  8
0
  6
Continuous
 62
     7
370
    25
100
AcDbLine
 10
83.5188039006
 20
116.9879412735
 30
0.0
 11
65.6942407621
 21
116.9879412735
 31
0.0
  0
LINE
  5
21B
330
1F
100
AcDbEntity
  8
0
  6
Continuous
 62
     7
370
    25
100
AcDbLine
 10
100.4704385878
 20
115.2089557543
 30
0.0
 11
100.3420295491
 21
115.0248141209
 31
0.0
  0
LINE
  5
21C
330
1F
100
AcDbEntity
  8
0
  6
Continuous
 62
     7
370
    25
100
AcDbLine
 10
100.3515968898
 20
111.9427236061
 30
0.0
 11
100.4704385878
 21
111.7669267927
 31
0.0
  0
LINE
  5
21D
330
1F
100
AcDbEntity
  8
0
  6
Continuous
 62
     7
370
    25
100
AcDbLine
 10
92.2776711085
 20
116.0687439091
 30
0.0
 11
92.2776711085
 21
110.9071386379
 31
0.0
  0
LINE
  5
21E
330
1F
100
AcDbEntity
  8
0
  6
Continuous
 62
     7
370
    25
100
AcDbLine
 10
100.4704385878
 20
111.7669267927
 30
0.0
 11
92.2776711085
 21
110.9071386379
 31
0.0
  0
LINE
  5
21F
330
1F
100
AcDbEntity
  8
0
  6
Continuous
 62
     7
370
    25
100
AcDbLine
 10
92.2776711085
 20
116.0687439091
 30
0.0
 11
100.4704385878
 21
115.2089557543
 31
0.0
  0
LINE
  5
220
330
1F
100
AcDbEntity
  8
0
  6
Continuous
 62
     7
370
    25
100
AcDbLine
 10
92.2776711085
 20
110.9071386379
 30
0.0
 11
85.6942407621
 21
110.2162420095
 31
0.0
  0
LINE
  5
221
330
1F
100
AcDbEntity
  8
0
  6
Continuous
 62
     7
370
    25
100
AcDbLine
 10
85.6942407621
 20
116.7596405376
 30
0.0
 11
92.2776711085
 21
116.0687439091
 31
0.0
  0
ARC
  5
222
330
1F
100
AcDbEntity
  8
0
  6
Continuous
 62
     7
370
    25
100
AcDbCircle
 10
105.6942407621
 20
113.4879412735
 30
0.0
 40
7.450000000000656
100
AcDbArc
 50
233.0863788866
 51
126.9136211134
  0
ARC
  5
223
330
1F
100
AcDbEntity
  8
0
  6
Continuous
 62
     7
370
    25
100
AcDbCircle
 10
105.6942407621
 20
113.4879412735
 30
0.0
 40
7.207531252870786
100
AcDbArc
 50
195.3041237151
 51
238.9797515565
  0
ARC
  5
224
330
1F
100
AcDbEntity
  8
0
  6
Continuous
 62
     7
370
    25
100
AcDbCircle
 10
105.6942407621
 20
113.4879412735
 30
0.0
 40
7.207531252872443
100
AcDbArc
 50
121.0202484435
 51
164.6958762849
  0
ARC
  5
225
330
1F
100
AcDbEntity
  8
0
  6
Continuous
 62
     7
370
    25
100
AcDbCircle
 10
83.5188039006
 20
181.9879412735
 30
0.0
 40
64.99999999999997
100
AcDbArc
 50
270.0
 51
286.5000949923
  0
ARC
  5
226
330
1F
100
AcDbEntity
  8
0
  6
Continuous
 62
     7
370
    25
100
AcDbCircle
 10
83.5188039006
 20
44.9879412735
 30
0.0
 40
65.0
100
AcDbArc
 50
73.4999050077
 51
90.0
  0
LINE
  5
227
330
1F
100
AcDbEntity
  8
0
  6
Continuous
 62
     7
370
    25
100
AcDbLine
 10
98.6942407621
 20
120.2160722854
 30
0.0
 11
98.6942407621
 21
118.784253754
 31
0.0
  0
LINE
  5
228
330
1F
100
AcDbEntity
  8
0
  6
Continuous
 62
     7
370
    25
100
AcDbLine
 10
98.6942407621
 20
108.191628793
 30
0.0
 11
98.6942407621
 21
106.7598102616
 31
0.0
  0
LINE
  5
229
330
1F
100
AcDbEntity
  8
0
  6
Continuous
 62
     7
370
    25
100
AcDbLine
 10
112.6942407621
 20
106.7598102616
 30
0.0
 11
112.6942407621
 21
110.9379412735
 31
0.0
  0
LINE
  5
22A
330
1F
100
AcDbEntity
  8
0
  6
Continuous
 62
     7
370
    25
100
AcDbLine
 10
112.6942407621
 20
116.0379412735
 30
0.0
 11
112.6942407621
 21
120.2160722854
 31
0.0
  0
LINE
  5
22B
330
1F
100
AcDbEntity
  8
0
  6
Continuous
 62
     7
370
    25
100
AcDbLine
 10
112.6942407621
 20
120.2160722854
 30
0.0
 11
108.8934208268
 21
120.2160722854
 31
0.0
  0
LINE
  5
22C
330
1F
100
AcDbEntity
  8
0
  6
Continuous
 62
     7
370
    25
100
AcDbLine
 10
102.4950606974
 20
120.2160722854
 30
0.0
 11
98.6942407621
 21
120.2160722854
 31
0.0
  0
LINE
  5
22D
330
1F
100
AcDbEntity
  8
0
  6
Continuous
 62
     7
370
    25
100
AcDbLine
 10
98.6942407621
 20
106.7598102616
 30
0.0
 11
102.4950606974
 21
106.7598102616
 31
0.0
  0
LINE
  5
22E
330
1F
100
AcDbEntity
  8
0
  6
Continuous
 62
     7
370
    25
100
AcDbLine
 10
108.8934208268
 20
106.7598102616
 30
0.0
 11
112.6942407621
 21
106.7598102616
 31
0.0
  0
LINE
  5
22F
330
1F
100
AcDbEntity
  8
0
  6
Continuous
 62
     7
370
    25
100
AcDbLine
 10
98.6942407621
 20
120.6118446979
 30
0.0
 11
103.5142178264
 21
120.6118446979
 31
0.0
  0
LINE
  5
230
330
1F
100
AcDbEntity
  8
0
  6
Continuous
 62
     7
370
    25
100
AcDbLine
 10
107.8742636978
 20
120.6118446979
 30
0.0
 11
112.6942407621
 21
120.6118446979
 31
0.0
  0
LINE
  5
231
330
1F
100
AcDbEntity
  8
0
  6
Continuous
 62
     7
370
    25
100
AcDbLine
 10
112.6942407621
 20
106.3640378491
 30
0.0
 11
107.8742636978
 21
106.3640378491
 31
0.0
  0
LINE
  5
232
330
1F
100
AcDbEntity
  8
0
  6
Continuous
 62
     7
370
    25
100
AcDbLine
 10
103.5142178264
 20
106.3640378491
 30
0.0
 11
98.6942407621
 21
106.3640378491
 31
0.0
  0
INSERT
  5
23E
330
1F
100
AcDbEntity
  8
FORMAT
100
AcDbBlockReference
  2
SW_CENTERMARKSYMBOL_1
 10
105.6942407621
 20
113.4879412735
 30
0.0
  0
ENDSEC
  0
SECTION
  2
OBJECTS
  0
DICTIONARY
  5
C
330
0
100
AcDbDictionary
281
     1
  3
ACAD_GROUP
350
D
  3
ACAD_LAYOUT
350
1A
  3
ACAD_MLINESTYLE
350
17
  3
ACAD_PLOTSETTINGS
350
19
  3
ACAD_PLOTSTYLENAME
350
E
  3
ACAD_SCALELIST
350
47
  3
DWGPROPS
350
23F
  0
DICTIONARY
  5
D
102
{ACAD_REACTORS
330
C
102
}
330
C
100
AcDbDictionary
281
     1
  0
DICTIONARY
  5
1A
102
{ACAD_REACTORS
330
C
102
}
330
C
100
AcDbDictionary
281
     1
  3
Layout1
350
1E
  3
Layout2
350
26
  3
Model
350
22
  0
DICTIONARY
  5
17
102
{ACAD_REACTORS
330
C
102
}
330
C
100
AcDbDictionary
281
     1
  3
Standard
350
18
  0
DICTIONARY
  5
19
102
{ACAD_REACTORS
330
C
102
}
330
C
100
AcDbDictionary
281
     1
  0
ACDBDICTIONARYWDFLT
  5
E
102
{ACAD_REACTORS
330
C
102
}
330
C
100
AcDbDictionary
281
     1
  3
Normal
350
F
100
AcDbDictionaryWithDefault
340
F
  0
DICTIONARY
  5
47
102
{ACAD_REACTORS
330
C
102
}
330
C
100
AcDbDictionary
281
     1
  3
A0
350
48
  3
A1
350
49
  3
A2
350
4A
  3
A3
350
4B
  3
A4
350
4C
  3
A5
350
4D
  3
A6
350
4E
  3
A7
350
4F
  3
A8
350
50
  3
A9
350
51
  3
B0
350
52
  3
B1
350
53
  3
B2
350
54
  3
B3
350
55
  3
B4
350
56
  3
B5
350
57
  3
B6
350
58
  0
XRECORD
  5
23F
102
{ACAD_REACTORS
330
C
102
}
330
C
100
AcDbXrecord
280
     1
  1
DWGPROPS COOKIE
  2

  3

  4

  6

  7

  8
user28
  9

300
=
301
=
302
=
303
=
304
=
305
=
306
=
307
=
308
=
309
=
 40
0.0
 41
2460424.315139815
 42
2460424.315140579
  1

 90
        0
  0
LAYOUT
  5
1E
102
{ACAD_REACTORS
330
1A
102
}
330
1A
100
AcDbPlotSettings
  1

  2
none_device
  4

  6

 40
0.0
 41
0.0
 42
0.0
 43
0.0
 44
0.0
 45
0.0
 46
0.0
 47
0.0
 48
0.0
 49
0.0
140
0.0
141
0.0
142
1.0
143
1.0
 70
   688
 72
     1
 73
     0
 74
     5
  7

 75
    16
147
1.0
148
0.0
149
0.0
100
AcDbLayout
  1
Layout1
 70
     1
 71
     1
 10
0.0
 20
0.0
 11
420.0
 21
297.0
 12
0.0
 22
0.0
 32
0.0
 14
1.0000000000E+20
 24
1.0000000000E+20
 34
1.0000000000E+20
 15
-1.0000000000E+20
 25
-1.0000000000E+20
 35
-1.0000000000E+20
146
0.0
 13
0.0
 23
0.0
 33
0.0
 16
1.0
 26
0.0
 36
0.0
 17
0.0
 27
1.0
 37
0.0
 76
     0
330
1B
  0
LAYOUT
  5
26
102
{ACAD_REACTORS
330
1A
102
}
330
1A
100
AcDbPlotSettings
  1

  2
none_device
  4

  6

 40
0.0
 41
0.0
 42
0.0
 43
0.0
 44
0.0
 45
0.0
 46
0.0
 47
0.0
 48
0.0
 49
0.0
140
0.0
141
0.0
142
1.0
143
1.0
 70
   688
 72
     1
 73
     0
 74
     5
  7

 75
    16
147
1.0
148
0.0
149
0.0
100
AcDbLayout
  1
Layout2
 70
     1
 71
     2
 10
0.0
 20
0.0
 11
0.0
 21
0.0
 12
0.0
 22
0.0
 32
0.0
 14
0.0
 24
0.0
 34
0.0
 15
0.0
 25
0.0
 35
0.0
146
0.0
 13
0.0
 23
0.0
 33
0.0
 16
1.0
 26
0.0
 36
0.0
 17
0.0
 27
1.0
 37
0.0
 76
     0
330
23
  0
LAYOUT
  5
22
102
{ACAD_REACTORS
330
1A
102
}
330
1A
100
AcDbPlotSettings
  1

  2
none_device
  4
Letter_(8.50_x_11.00_Inches)
  6

 40
6.35
 41
6.35
 42
6.35000508
 43
6.35000508
 44
215.9
 45
279.4
 46
0.0
 47
0.0
 48
0.0
 49
0.0
140
0.0
141
0.0
142
1.0
143
1.0
 70
  1712
 72
     1
 73
     0
 74
     0
  7

 75
     0
147
1.0
148
0.0
149
0.0
100
AcDbLayout
  1
Model
 70
     1
 71
     0
 10
0.0
 20
0.0
 11
297.0
 21
210.0
 12
0.0
 22
0.0
 32
0.0
 14
0.0
 24
0.0
 34
0.0
 15
297.0
 25
210.0
 35
0.0
146
0.0
 13
0.0
 23
0.0
 33
0.0
 16
1.0
 26
0.0
 36
0.0
 17
0.0
 27
1.0
 37
0.0
 76
     0
330
1F
331
29
  0
MLINESTYLE
  5
18
102
{ACAD_REACTORS
330
17
102
}
330
17
100
AcDbMlineStyle
  2
Standard
 70
     0
  3

 62
   256
 51
90.0
 52
90.0
 71
     2
 49
0.5
 62
   256
  6
BYLAYER
 49
-0.5
 62
   256
  6
BYLAYER
  0
ACDBPLACEHOLDER
  5
F
102
{ACAD_REACTORS
330
E
102
}
330
E
  0
SCALE
  5
48
102
{ACAD_REACTORS
330
47
102
}
330
47
100
AcDbScale
 70
     0
300
1:1
140
1.0
141
1.0
290
     1
  0
SCALE
  5
49
102
{ACAD_REACTORS
330
47
102
}
330
47
100
AcDbScale
 70
     0
300
1:2
140
1.0
141
2.0
290
     0
  0
SCALE
  5
4A
102
{ACAD_REACTORS
330
47
102
}
330
47
100
AcDbScale
 70
     0
300
1:4
140
1.0
141
4.0
290
     0
  0
SCALE
  5
4B
102
{ACAD_REACTORS
330
47
102
}
330
47
100
AcDbScale
 70
     0
300
1:5
140
1.0
141
5.0
290
     0
  0
SCALE
  5
4C
102
{ACAD_REACTORS
330
47
102
}
330
47
100
AcDbScale
 70
     0
300
1:8
140
1.0
141
8.0
290
     0
  0
SCALE
  5
4D
102
{ACAD_REACTORS
330
47
102
}
330
47
100
AcDbScale
 70
     0
300
1:10
140
1.0
141
10.0
290
     0
  0
SCALE
  5
4E
102
{ACAD_REACTORS
330
47
102
}
330
47
100
AcDbScale
 70
     0
300
1:16
140
1.0
141
16.0
290
     0
  0
SCALE
  5
4F
102
{ACAD_REACTORS
330
47
102
}
330
47
100
AcDbScale
 70
     0
300
1:20
140
1.0
141
20.0
290
     0
  0
SCALE
  5
50
102
{ACAD_REACTORS
330
47
102
}
330
47
100
AcDbScale
 70
     0
300
1:30
140
1.0
141
30.0
290
     0
  0
SCALE
  5
51
102
{ACAD_REACTORS
330
47
102
}
330
47
100
AcDbScale
 70
     0
300
1:40
140
1.0
141
40.0
290
     0
  0
SCALE
  5
52
102
{ACAD_REACTORS
330
47
102
}
330
47
100
AcDbScale
 70
     0
300
1:50
140
1.0
141
50.0
290
     0
  0
SCALE
  5
53
102
{ACAD_REACTORS
330
47
102
}
330
47
100
AcDbScale
 70
     0
300
1:100
140
1.0
141
100.0
290
     0
  0
SCALE
  5
54
102
{ACAD_REACTORS
330
47
102
}
330
47
100
AcDbScale
 70
     0
300
2:1
140
2.0
141
1.0
290
     0
  0
SCALE
  5
55
102
{ACAD_REACTORS
330
47
102
}
330
47
100
AcDbScale
 70
     0
300
4:1
140
4.0
141
1.0
290
     0
  0
SCALE
  5
56
102
{ACAD_REACTORS
330
47
102
}
330
47
100
AcDbScale
 70
     0
300
8:1
140
8.0
141
1.0
290
     0
  0
SCALE
  5
57
102
{ACAD_REACTORS
330
47
102
}
330
47
100
AcDbScale
 70
     0
300
10:1
140
10.0
141
1.0
290
     0
  0
SCALE
  5
58
102
{ACAD_REACTORS
330
47
102
}
330
47
100
AcDbScale
 70
     0
300
100:1
140
100.0
141
1.0
290
     0
  0
ENDSEC
  0
EOF
