  0
SECTION
  2
HEADER
  9
$ACADVER
  1
AC1015
  9
$ACADMAINTVER
 70
     6
  9
$DWGCODEPAGE
  3
DOS932
  9
$INSBASE
 10
0.0
 20
0.0
 30
0.0
  9
$EXTMIN
 10
0.0
 20
0.0
 30
0.0
  9
$EXTMAX
 10
297.0
 20
210.0
 30
0.0
  9
$LIMMIN
 10
0.0
 20
0.0
  9
$LIMMAX
 10
297.0
 20
210.0
  9
$ORTHOMODE
 70
     0
  9
$REGENMODE
 70
     1
  9
$FILLMODE
 70
     1
  9
$QTEXTMODE
 70
     0
  9
$MIRRTEXT
 70
     1
  9
$LTSCALE
 40
1.0
  9
$ATTMODE
 70
     1
  9
$TEXTSIZE
 40
3.5277777778
  9
$TRACEWID
 40
1.0
  9
$TEXTSTYLE
  7
Standard
  9
$CLAYER
  8
0
  9
$CELTYPE
  6
ByLayer
  9
$CECOLOR
 62
   256
  9
$CELTSCALE
 40
1.0
  9
$DISPSILH
 70
     0
  9
$DIMSCALE
 40
1.0
  9
$DIMASZ
 40
2.728515625
  9
$DIMEXO
 40
1.0
  9
$DIMDLI
 40
3.75
  9
$DIMRND
 40
0.0
  9
$DIMDLE
 40
0.0
  9
$DIMEXE
 40
1.0
  9
$DIMTP
 40
0.0
  9
$DIMTM
 40
0.0
  9
$DIMTXT
 40
3.5277777778
  9
$DIMCEN
 40
2.5
  9
$DIMTSZ
 40
0.0
  9
$DIMTOL
 70
     0
  9
$DIMLIM
 70
     0
  9
$DIMTIH
 70
     1
  9
$DIMTOH
 70
     1
  9
$DIMSE1
 70
     0
  9
$DIMSE2
 70
     0
  9
$DIMTAD
 70
     1
  9
$DIMZIN
 70
     0
  9
$DIMBLK
  1

  9
$DIMASO
 70
     1
  9
$DIMSHO
 70
     1
  9
$DIMPOST
  1

  9
$DIMAPOST
  1

  9
$DIMALT
 70
     0
  9
$DIMALTD
 70
     3
  9
$DIMALTF
 40
0.0393700787
  9
$DIMLFAC
 40
1.0
  9
$DIMTOFL
 70
     1
  9
$DIMTVP
 40
0.0
  9
$DIMTIX
 70
     0
  9
$DIMSOXD
 70
     0
  9
$DIMSAH
 70
     0
  9
$DIMBLK1
  1

  9
$DIMBLK2
  1

  9
$DIMSTYLE
  2
ISO-25
  9
$DIMCLRD
 70
     0
  9
$DIMCLRE
 70
     0
  9
$DIMCLRT
 70
     0
  9
$DIMTFAC
 40
1.0
  9
$DIMGAP
 40
1.524
  9
$DIMJUST
 70
     0
  9
$DIMSD1
 70
     0
  9
$DIMSD2
 70
     0
  9
$DIMTOLJ
 70
     0
  9
$DIMTZIN
 70
     0
  9
$DIMALTZ
 70
     0
  9
$DIMALTTZ
 70
     0
  9
$DIMUPT
 70
     0
  9
$DIMDEC
 70
     2
  9
$DIMTDEC
 70
     2
  9
$DIMALTU
 70
     2
  9
$DIMALTTD
 70
     3
  9
$DIMTXSTY
  7
Standard
  9
$DIMAUNIT
 70
     0
  9
$DIMADEC
 70
     2
  9
$DIMALTRND
 40
0.0
  9
$DIMAZIN
 70
     0
  9
$DIMDSEP
 70
    44
  9
$DIMATFIT
 70
     3
  9
$DIMFRAC
 70
     0
  9
$DIMLDRBLK
  1

  9
$DIMLUNIT
 70
     2
  9
$DIMLWD
 70
    -2
  9
$DIMLWE
 70
    -2
  9
$DIMTMOVE
 70
     0
  9
$LUNITS
 70
     2
  9
$LUPREC
 70
     2
  9
$SKETCHINC
 40
1.0
  9
$FILLETRAD
 40
0.0
  9
$AUNITS
 70
     0
  9
$AUPREC
 70
     2
  9
$MENU
  1
.
  9
$ELEVATION
 40
0.0
  9
$PELEVATION
 40
0.0
  9
$THICKNESS
 40
0.0
  9
$LIMCHECK
 70
     0
  9
$CHAMFERA
 40
0.0
  9
$CHAMFERB
 40
0.0
  9
$CHAMFERC
 40
0.0
  9
$CHAMFERD
 40
0.0
  9
$SKPOLY
 70
     0
  9
$TDCREATE
 40
2460424.688999827
  9
$TDUCREATE
 40
2460424.313999827
  9
$TDUPDATE
 40
2460424.689000857
  9
$TDUUPDATE
 40
2460424.314000857
  9
$TDINDWG
 40
0.0000000116
  9
$TDUSRTIMER
 40
0.0000000116
  9
$USRTIMER
 70
     1
  9
$ANGBASE
 50
0.0
  9
$ANGDIR
 70
     0
  9
$PDMODE
 70
     0
  9
$PDSIZE
 40
-1.0
  9
$PLINEWID
 40
0.0
  9
$SPLFRAME
 70
     0
  9
$SPLINETYPE
 70
     6
  9
$SPLINESEGS
 70
     8
  9
$HANDSEED
  5
23F
  9
$SURFTAB1
 70
     6
  9
$SURFTAB2
 70
     6
  9
$SURFTYPE
 70
     6
  9
$SURFU
 70
     6
  9
$SURFV
 70
     6
  9
$UCSBASE
  2

  9
$UCSNAME
  2

  9
$UCSORG
 10
0.0
 20
0.0
 30
0.0
  9
$UCSXDIR
 10
1.0
 20
0.0
 30
0.0
  9
$UCSYDIR
 10
0.0
 20
1.0
 30
0.0
  9
$UCSORTHOREF
  2

  9
$UCSORTHOVIEW
 70
     0
  9
$UCSORGTOP
 10
0.0
 20
0.0
 30
0.0
  9
$UCSORGBOTTOM
 10
0.0
 20
0.0
 30
0.0
  9
$UCSORGLEFT
 10
0.0
 20
0.0
 30
0.0
  9
$UCSORGRIGHT
 10
0.0
 20
0.0
 30
0.0
  9
$UCSORGFRONT
 10
0.0
 20
0.0
 30
0.0
  9
$UCSORGBACK
 10
0.0
 20
0.0
 30
0.0
  9
$PUCSBASE
  2

  9
$PUCSNAME
  2

  9
$PUCSORG
 10
0.0
 20
0.0
 30
0.0
  9
$PUCSXDIR
 10
1.0
 20
0.0
 30
0.0
  9
$PUCSYDIR
 10
0.0
 20
1.0
 30
0.0
  9
$PUCSORTHOREF
  2

  9
$PUCSORTHOVIEW
 70
     0
  9
$PUCSORGTOP
 10
0.0
 20
0.0
 30
0.0
  9
$PUCSORGBOTTOM
 10
0.0
 20
0.0
 30
0.0
  9
$PUCSORGLEFT
 10
0.0
 20
0.0
 30
0.0
  9
$PUCSORGRIGHT
 10
0.0
 20
0.0
 30
0.0
  9
$PUCSORGFRONT
 10
0.0
 20
0.0
 30
0.0
  9
$PUCSORGBACK
 10
0.0
 20
0.0
 30
0.0
  9
$USERI1
 70
     0
  9
$USERI2
 70
     0
  9
$USERI3
 70
     0
  9
$USERI4
 70
     0
  9
$USERI5
 70
     0
  9
$USERR1
 40
0.0
  9
$USERR2
 40
0.0
  9
$USERR3
 40
0.0
  9
$USERR4
 40
0.0
  9
$USERR5
 40
0.0
  9
$WORLDVIEW
 70
     1
  9
$SHADEDGE
 70
     3
  9
$SHADEDIF
 70
    70
  9
$TILEMODE
 70
     1
  9
$MAXACTVP
 70
    64
  9
$PINSBASE
 10
0.0
 20
0.0
 30
0.0
  9
$PLIMCHECK
 70
     0
  9
$PEXTMIN
 10
1.0000000000E+20
 20
1.0000000000E+20
 30
1.0000000000E+20
  9
$PEXTMAX
 10
-1.0000000000E+20
 20
-1.0000000000E+20
 30
-1.0000000000E+20
  9
$PLIMMIN
 10
0.0
 20
0.0
  9
$PLIMMAX
 10
420.0
 20
297.0
  9
$UNITMODE
 70
     0
  9
$VISRETAIN
 70
     1
  9
$PLINEGEN
 70
     0
  9
$PSLTSCALE
 70
     1
  9
$TREEDEPTH
 70
  3020
  9
$CMLSTYLE
  2
Standard
  9
$CMLJUST
 70
     0
  9
$CMLSCALE
 40
20.0
  9
$PROXYGRAPHICS
 70
     1
  9
$MEASUREMENT
 70
     1
  9
$CELWEIGHT
370
    -1
  9
$ENDCAPS
280
     0
  9
$JOINSTYLE
280
     0
  9
$LWDISPLAY
290
     1
  9
$INSUNITS
 70
     4
  9
$HYPERLINKBASE
  1

  9
$STYLESHEET
  1

  9
$XEDIT
290
     1
  9
$CEPSNTYPE
380
     0
  9
$PSTYLEMODE
290
     1
  9
$FINGERPRINTGUID
  2
{9bd4fa06-75e6-48c5-8098-c5fabf1ffc0f}
  9
$VERSIONGUID
  2
{FAEB1C32-E019-11D5-929B-00C0DF256EC4}
  9
$EXTNAMES
290
     1
  9
$PSVPSCALE
 40
0.0
  9
$OLESTARTUP
290
     0
  0
ENDSEC
  0
SECTION
  2
CLASSES
  0
CLASS
  1
ACDBDICTIONARYWDFLT
  2
AcDbDictionaryWithDefault
  3
ObjectDBX Classes
 90
        0
280
     0
281
     0
  0
CLASS
  1
VISUALSTYLE
  2
AcDbVisualStyle
  3
ObjectDBX Classes
 90
     4095
280
     0
281
     0
  0
CLASS
  1
MATERIAL
  2
AcDbMaterial
  3
ObjectDBX Classes
 90
     1153
280
     0
281
     0
  0
CLASS
  1
SCALE
  2
AcDbScale
  3
ObjectDBX Classes
 90
     1153
280
     0
281
     0
  0
CLASS
  1
TABLESTYLE
  2
AcDbTableStyle
  3
ObjectDBX Classes
 90
     4095
280
     0
281
     0
  0
CLASS
  1
MLEADERSTYLE
  2
AcDbMLeaderStyle
  3
ACDB_MLEADERSTYLE_CLASS
 90
     4095
280
     0
281
     0
  0
CLASS
  1
SUN
  2
AcDbSun
  3
SCENEOE
 90
     1153
280
     0
281
     0
  0
CLASS
  1
ACDBPLACEHOLDER
  2
AcDbPlaceHolder
  3
ObjectDBX Classes
 90
        0
280
     0
281
     0
  0
CLASS
  1
LAYOUT
  2
AcDbLayout
  3
ObjectDBX Classes
 90
        0
280
     0
281
     0
  0
ENDSEC
  0
SECTION
  2
TABLES
  0
TABLE
  2
VPORT
  5
8
330
0
100
AcDbSymbolTable
 70
     1
  0
VPORT
  5
29
330
8
100
AcDbSymbolTableRecord
100
AcDbViewportTableRecord
  2
*Active
 70
     0
 10
0.0
 20
0.0
 11
1.0
 21
1.0
 12
148.5
 22
105.0
 13
0.0
 23
0.0
 14
10.0
 24
10.0
 15
10.0
 25
10.0
 16
0.0
 26
0.0
 36
1.0
 17
0.0
 27
0.0
 37
0.0
 40
210.0
 41
1.4142857143
 42
50.0
 43
0.0
 44
0.0
 50
0.0
 51
0.0
 71
     0
 72
  2000
 73
     1
 74
     3
 75
     0
 76
     0
 77
     0
 78
     0
281
     0
 65
     1
110
0.0
120
0.0
130
0.0
111
1.0
121
0.0
131
0.0
112
0.0
122
1.0
132
0.0
 79
     0
146
0.0
  0
ENDTAB
  0
TABLE
  2
LTYPE
  5
5
330
0
100
AcDbSymbolTable
 70
     6
  0
LTYPE
  5
14
330
5
100
AcDbSymbolTableRecord
100
AcDbLinetypeTableRecord
  2
ByBlock
 70
     0
  3

 72
    65
 73
     0
 40
0.0
  0
LTYPE
  5
15
330
5
100
AcDbSymbolTableRecord
100
AcDbLinetypeTableRecord
  2
ByLayer
 70
     0
  3

 72
    65
 73
     0
 40
0.0
  0
LTYPE
  5
16
330
5
100
AcDbSymbolTableRecord
100
AcDbLinetypeTableRecord
  2
Continuous
 70
     0
  3
Solid line
 72
    65
 73
     0
 40
0.0
  0
LTYPE
  5
5E
330
5
100
AcDbSymbolTableRecord
100
AcDbLinetypeTableRecord
  2
HIDDEN
 70
     0
  3
Hidden __ __ __ __ __ __ __ __ __ __ __ __ __ __
 72
    65
 73
     2
 40
1.905
 49
1.27
 74
     0
 49
-0.635
 74
     0
  0
LTYPE
  5
5F
330
5
100
AcDbSymbolTableRecord
100
AcDbLinetypeTableRecord
  2
PHANTOM
 70
     0
  3
Phantom ______  __  __  ______  __  __  ______
 72
    65
 73
     6
 40
12.7
 49
6.35
 74
     0
 49
-1.27
 74
     0
 49
1.27
 74
     0
 49
-1.27
 74
     0
 49
1.27
 74
     0
 49
-1.27
 74
     0
  0
LTYPE
  5
60
330
5
100
AcDbSymbolTableRecord
100
AcDbLinetypeTableRecord
  2
CENTER
 70
     0
  3
Center ____ _ ____ _ ____ _ ____ _ ____ _ ____
 72
    65
 73
     4
 40
10.16
 49
6.35
 74
     0
 49
-1.27
 74
     0
 49
1.27
 74
     0
 49
-1.27
 74
     0
  0
LTYPE
  5
61
330
5
100
AcDbSymbolTableRecord
100
AcDbLinetypeTableRecord
  2
CENTERX2
 70
     0
  3
Center (2x) ________  __  ________  __  _____
 72
    65
 73
     4
 40
20.32
 49
12.7
 74
     0
 49
-2.54
 74
     0
 49
2.54
 74
     0
 49
-2.54
 74
     0
  0
LTYPE
  5
62
330
5
100
AcDbSymbolTableRecord
100
AcDbLinetypeTableRecord
  2
DOT2
 70
     0
  3
Dot (.5x) ........................................
 72
    65
 73
     2
 40
0.635
 49
0.0
 74
     0
 49
-0.635
 74
     0
  0
ENDTAB
  0
TABLE
  2
LAYER
  5
2
330
0
100
AcDbSymbolTable
 70
     2
  0
LAYER
  5
10
330
2
100
AcDbSymbolTableRecord
100
AcDbLayerTableRecord
  2
0
 70
     0
 62
     7
  6
Continuous
370
    -3
390
F
  0
LAYER
  5
63
330
2
100
AcDbSymbolTableRecord
100
AcDbLayerTableRecord
  2
FORMAT
 70
     0
 62
     7
  6
Continuous
370
    -3
390
F
  0
ENDTAB
  0
TABLE
  2
STYLE
  5
3
330
0
100
AcDbSymbolTable
 70
     2
  0
STYLE
  5
11
330
3
100
AcDbSymbolTableRecord
100
AcDbTextStyleTableRecord
  2
Standard
 70
     0
 40
0.0
 41
1.0
 50
0.0
 71
     0
 42
3.5277777778
  3
txt
  4
bigfont
  0
STYLE
  5
64
330
3
100
AcDbSymbolTableRecord
100
AcDbTextStyleTableRecord
  2
SLDTEXTSTYLE0
 70
     0
 40
0.0
 41
0.7
 50
0.0
 71
     0
 42
3.5277777778
  3
TXT
  4
bigfont
  0
ENDTAB
  0
TABLE
  2
VIEW
  5
6
330
0
100
AcDbSymbolTable
 70
     0
  0
ENDTAB
  0
TABLE
  2
UCS
  5
7
330
0
100
AcDbSymbolTable
 70
     0
  0
ENDTAB
  0
TABLE
  2
APPID
  5
9
330
0
100
AcDbSymbolTable
 70
     1
  0
APPID
  5
12
330
9
100
AcDbSymbolTableRecord
100
AcDbRegAppTableRecord
  2
ACAD
 70
     0
  0
ENDTAB
  0
TABLE
  2
DIMSTYLE
  5
A
330
0
100
AcDbSymbolTable
 70
     1
100
AcDbDimStyleTable
  0
DIMSTYLE
105
27
330
A
100
AcDbSymbolTableRecord
100
AcDbDimStyleTableRecord
  2
ISO-25
 70
     0
 41
2.5
 42
0.625
 43
3.75
 44
1.25
 73
     0
 74
     0
 77
     1
 78
     8
140
2.5
141
2.5
143
0.0393700787
147
0.625
171
     3
172
     1
178
     0
271
     2
272
     2
274
     3
278
    44
283
     0
284
     8
340
11
  0
ENDTAB
  0
TABLE
  2
BLOCK_RECORD
  5
1
330
0
100
AcDbSymbolTable
 70
     3
  0
BLOCK_RECORD
  5
1F
330
1
100
AcDbSymbolTableRecord
100
AcDbBlockTableRecord
  2
*Model_Space
340
22
  0
BLOCK_RECORD
  5
1B
330
1
100
AcDbSymbolTableRecord
100
AcDbBlockTableRecord
  2
*Paper_Space
340
1E
  0
BLOCK_RECORD
  5
23
330
1
100
AcDbSymbolTableRecord
100
AcDbBlockTableRecord
  2
*Paper_Space0
340
26
  0
BLOCK_RECORD
  5
17E
330
1
100
AcDbSymbolTableRecord
100
AcDbBlockTableRecord
  2
SW_CENTERMARKSYMBOL_0
340
0
102
{BLKREFS
331
189
102
}
  0
BLOCK_RECORD
  5
232
330
1
100
AcDbSymbolTableRecord
100
AcDbBlockTableRecord
  2
SW_CENTERMARKSYMBOL_1
340
0
102
{BLKREFS
331
23D
102
}
  0
ENDTAB
  0
ENDSEC
  0
SECTION
  2
BLOCKS
  0
BLOCK
  5
20
330
1F
100
AcDbEntity
  8
0
100
AcDbBlockBegin
  2
*Model_Space
 70
     0
 10
0.0
 20
0.0
 30
0.0
  3
*Model_Space
  1

  0
ENDBLK
  5
21
330
1F
100
AcDbEntity
  8
0
100
AcDbBlockEnd
  0
BLOCK
  5
1C
330
1B
100
AcDbEntity
 67
     1
  8
0
100
AcDbBlockBegin
  2
*Paper_Space
 70
     0
 10
0.0
 20
0.0
 30
0.0
  3
*Paper_Space
  1

  0
ENDBLK
  5
1D
330
1B
100
AcDbEntity
 67
     1
  8
0
100
AcDbBlockEnd
  0
BLOCK
  5
24
330
23
100
AcDbEntity
  8
0
100
AcDbBlockBegin
  2
*Paper_Space0
 70
     0
 10
0.0
 20
0.0
 30
0.0
  3
*Paper_Space0
  1

  0
ENDBLK
  5
25
330
23
100
AcDbEntity
  8
0
100
AcDbBlockEnd
  0
BLOCK
  5
17F
330
17E
100
AcDbEntity
  8
0
100
AcDbBlockBegin
  2
SW_CENTERMARKSYMBOL_0
 70
     0
 10
0.0
 20
0.0
 30
0.0
  3
SW_CENTERMARKSYMBOL_0
  1

  0
LINE
  5
181
330
17E
100
AcDbEntity
  8
FORMAT
 62
     0
100
AcDbLine
 10
0.0
 20
0.0
 30
0.0
 11
0.0
 21
2.5
 31
0.0
  0
LINE
  5
182
330
17E
100
AcDbEntity
  8
FORMAT
 62
     0
100
AcDbLine
 10
0.0
 20
0.0
 30
0.0
 11
-2.5
 21
0.0
 31
0.0
  0
LINE
  5
183
330
17E
100
AcDbEntity
  8
FORMAT
 62
     0
100
AcDbLine
 10
0.0
 20
0.0
 30
0.0
 11
0.0
 21
-2.5
 31
0.0
  0
LINE
  5
184
330
17E
100
AcDbEntity
  8
FORMAT
 62
     0
100
AcDbLine
 10
0.0
 20
0.0
 30
0.0
 11
2.5
 21
0.0
 31
0.0
  0
LINE
  5
185
330
17E
100
AcDbEntity
  8
FORMAT
 62
     0
100
AcDbLine
 10
0.0
 20
5.0
 30
0.0
 11
0.0
 21
29.5095893862
 31
0.0
  0
LINE
  5
186
330
17E
100
AcDbEntity
  8
FORMAT
 62
     0
100
AcDbLine
 10
-5.0
 20
0.0
 30
0.0
 11
-12.5
 21
0.0
 31
0.0
  0
LINE
  5
187
330
17E
100
AcDbEntity
  8
FORMAT
 62
     0
100
AcDbLine
 10
0.0
 20
-5.0
 30
0.0
 11
0.0
 21
-12.5
 31
0.0
  0
LINE
  5
188
330
17E
100
AcDbEntity
  8
FORMAT
 62
     0
100
AcDbLine
 10
5.0
 20
0.0
 30
0.0
 11
12.5
 21
0.0
 31
0.0
  0
ENDBLK
  5
180
330
17E
100
AcDbEntity
  8
0
100
AcDbBlockEnd
  0
BLOCK
  5
233
330
232
100
AcDbEntity
  8
0
100
AcDbBlockBegin
  2
SW_CENTERMARKSYMBOL_1
 70
     0
 10
0.0
 20
0.0
 30
0.0
  3
SW_CENTERMARKSYMBOL_1
  1

  0
LINE
  5
235
330
232
100
AcDbEntity
  8
FORMAT
 62
     0
100
AcDbLine
 10
0.0
 20
0.0
 30
0.0
 11
0.0
 21
2.5
 31
0.0
  0
LINE
  5
236
330
232
100
AcDbEntity
  8
FORMAT
 62
     0
100
AcDbLine
 10
0.0
 20
0.0
 30
0.0
 11
-2.5
 21
0.0
 31
0.0
  0
LINE
  5
237
330
232
100
AcDbEntity
  8
FORMAT
 62
     0
100
AcDbLine
 10
0.0
 20
0.0
 30
0.0
 11
0.0
 21
-2.5
 31
0.0
  0
LINE
  5
238
330
232
100
AcDbEntity
  8
FORMAT
 62
     0
100
AcDbLine
 10
0.0
 20
0.0
 30
0.0
 11
2.5
 21
0.0
 31
0.0
  0
LINE
  5
239
330
232
100
AcDbEntity
  8
FORMAT
 62
     0
100
AcDbLine
 10
0.0
 20
5.0
 30
0.0
 11
0.0
 21
9.95
 31
0.0
  0
LINE
  5
23A
330
232
100
AcDbEntity
  8
FORMAT
 62
     0
100
AcDbLine
 10
-5.0
 20
0.0
 30
0.0
 11
-40.920797053
 21
0.0
 31
0.0
  0
LINE
  5
23B
330
232
100
AcDbEntity
  8
FORMAT
 62
     0
100
AcDbLine
 10
0.0
 20
-5.0
 30
0.0
 11
0.0
 21
-9.95
 31
0.0
  0
LINE
  5
23C
330
232
100
AcDbEntity
  8
FORMAT
 62
     0
100
AcDbLine
 10
5.0
 20
0.0
 30
0.0
 11
21.1060679861
 21
0.0
 31
0.0
  0
ENDBLK
  5
234
330
232
100
AcDbEntity
  8
0
100
AcDbBlockEnd
  0
ENDSEC
  0
SECTION
  2
ENTITIES
  0
MTEXT
  5
65
330
1F
100
AcDbEntity
  8
FORMAT
100
AcDbMText
 10
114.1863279613
 20
97.5432381774
 30
0.0
 40
3.7041666667
 41
0.0
 71
     1
 72
     1
  1
エースボール　BW-9011R
  7
SLDTEXTSTYLE0
 73
     1
 44
1.0
  0
LINE
  5
66
330
1F
100
AcDbEntity
  8
0
  6
Continuous
 62
     7
370
    25
100
AcDbLine
 10
91.2020157793
 20
46.8546759088
 30
0.0
 11
92.1055427252
 21
48.419630485
 31
0.0
  0
LINE
  5
67
330
1F
100
AcDbEntity
  8
0
  6
Continuous
 62
     7
370
    25
100
AcDbLine
 10
92.1055427252
 20
64.919630485
 30
0.0
 11
91.2020157793
 21
66.4845850612
 31
0.0
  0
LINE
  5
68
330
1F
100
AcDbEntity
  8
0
  6
Continuous
 62
     7
370
    25
100
AcDbLine
 10
80.009069671
 20
66.4845850612
 30
0.0
 11
79.1055427252
 21
64.919630485
 31
0.0
  0
LINE
  5
69
330
1F
100
AcDbEntity
  8
0
  6
Continuous
 62
     7
370
    25
100
AcDbLine
 10
79.1055427252
 20
48.419630485
 30
0.0
 11
80.009069671
 21
46.8546759088
 31
0.0
  0
LINE
  5
6A
330
1F
100
AcDbEntity
  8
0
  6
Continuous
 62
     7
370
    25
100
AcDbLine
 10
109.1055427252
 20
67.169630485
 30
0.0
 11
109.5555427252
 21
75.169630485
 31
0.0
  0
LINE
  5
6B
330
1F
100
AcDbEntity
  8
0
  6
Continuous
 62
     7
370
    25
100
AcDbLine
 10
109.5555427252
 20
75.169630485
 30
0.0
 11
107.6055427252
 21
83.169630485
 31
0.0
  0
LINE
  5
6C
330
1F
100
AcDbEntity
  8
0
  6
Continuous
 62
     7
370
    25
100
AcDbLine
 10
95.0348860994
 20
68.4257482763
 30
0.0
 11
95.1055427252
 21
67.169630485
 31
0.0
  0
LINE
  5
6D
330
1F
100
AcDbEntity
  8
0
  6
Continuous
 62
     7
370
    25
100
AcDbLine
 10
96.6055427252
 20
83.169630485
 30
0.0
 11
96.3515658849
 21
82.1276742171
 31
0.0
  0
LINE
  5
6E
330
1F
100
AcDbEntity
  8
0
  6
Continuous
 62
     7
370
    25
100
AcDbLine
 10
111.8055427252
 20
46.669630485
 30
0.0
 11
112.1055427252
 21
46.969630485
 31
0.0
  0
LINE
  5
6F
330
1F
100
AcDbEntity
  8
0
  6
Continuous
 62
     7
370
    25
100
AcDbLine
 10
112.1055427252
 20
66.369630485
 30
0.0
 11
111.8055427252
 21
66.669630485
 31
0.0
  0
ARC
  5
70
330
1F
100
AcDbEntity
  8
0
  6
Continuous
 62
     7
370
    25
100
AcDbCircle
 10
93.1055427252
 20
47.669630485
 30
0.0
 40
1.500000000000009
100
AcDbArc
 50
318.1896851042
 51
0.0
  0
ARC
  5
71
330
1F
100
AcDbEntity
  8
0
  6
Continuous
 62
     7
370
    25
100
AcDbCircle
 10
93.1055427252
 20
65.669630485
 30
0.0
 40
1.500000000000004
100
AcDbArc
 50
0.0
 51
41.8103148958
  0
LINE
  5
72
330
1F
100
AcDbEntity
  8
0
  6
Continuous
 62
     7
370
    25
100
AcDbLine
 10
111.8055427252
 20
66.669630485
 30
0.0
 11
109.9875087364
 21
66.669630485
 31
0.0
  0
LINE
  5
73
330
1F
100
AcDbEntity
  8
0
  6
Continuous
 62
     7
370
    25
100
AcDbLine
 10
109.9875087364
 20
46.669630485
 30
0.0
 11
111.8055427252
 21
46.669630485
 31
0.0
  0
LINE
  5
74
330
1F
100
AcDbEntity
  8
0
  6
Continuous
 62
     7
370
    25
100
AcDbLine
 10
92.3555427252
 20
66.669630485
 30
0.0
 11
92.1055427252
 21
66.419630485
 31
0.0
  0
LINE
  5
75
330
1F
100
AcDbEntity
  8
0
  6
Continuous
 62
     7
370
    25
100
AcDbLine
 10
92.1055427252
 20
46.919630485
 30
0.0
 11
92.3555427252
 21
46.669630485
 31
0.0
  0
ARC
  5
76
330
1F
100
AcDbEntity
  8
0
  6
Continuous
 62
     7
370
    25
100
AcDbCircle
 10
111.1055427252
 20
65.669630485
 30
0.0
 40
1.5
100
AcDbArc
 50
138.1896851042
 51
180.0
  0
ARC
  5
77
330
1F
100
AcDbEntity
  8
0
  6
Continuous
 62
     7
370
    25
100
AcDbCircle
 10
111.1055427252
 20
47.669630485
 30
0.0
 40
1.5
100
AcDbArc
 50
180.0
 51
221.8103148958
  0
LINE
  5
78
330
1F
100
AcDbEntity
  8
0
  6
Continuous
 62
     7
370
    25
100
AcDbLine
 10
92.3555427252
 20
46.669630485
 30
0.0
 11
94.2235767139
 21
46.669630485
 31
0.0
  0
LINE
  5
79
330
1F
100
AcDbEntity
  8
0
  6
Continuous
 62
     7
370
    25
100
AcDbLine
 10
94.2235767139
 20
66.669630485
 30
0.0
 11
92.3555427252
 21
66.669630485
 31
0.0
  0
ARC
  5
7A
330
1F
100
AcDbEntity
  8
0
  6
Continuous
 62
     7
370
    25
100
AcDbCircle
 10
109.1055427252
 20
65.669630485
 30
0.0
 40
0.5
100
AcDbArc
 50
270.0
 51
0.0
  0
ARC
  5
7B
330
1F
100
AcDbEntity
  8
0
  6
Continuous
 62
     7
370
    25
100
AcDbCircle
 10
95.1055427252
 20
47.669630485
 30
0.0
 40
0.5
100
AcDbArc
 50
90.0
 51
180.0
  0
ARC
  5
7C
330
1F
100
AcDbEntity
  8
0
  6
Continuous
 62
     7
370
    25
100
AcDbCircle
 10
95.1055427252
 20
65.669630485
 30
0.0
 40
0.5
100
AcDbArc
 50
180.0
 51
270.0
  0
ARC
  5
7D
330
1F
100
AcDbEntity
  8
0
  6
Continuous
 62
     7
370
    25
100
AcDbCircle
 10
109.1055427252
 20
47.669630485
 30
0.0
 40
0.5
100
AcDbArc
 50
0.0
 51
90.0
  0
LINE
  5
7E
330
1F
100
AcDbEntity
  8
0
  6
Continuous
 62
     7
370
    25
100
AcDbLine
 10
95.7232218502
 20
65.169630485
 30
0.0
 11
95.1055427252
 21
65.169630485
 31
0.0
  0
LINE
  5
7F
330
1F
100
AcDbEntity
  8
0
  6
Continuous
 62
     7
370
    25
100
AcDbLine
 10
109.1055427252
 20
65.169630485
 30
0.0
 11
108.5055427252
 21
65.169630485
 31
0.0
  0
LINE
  5
80
330
1F
100
AcDbEntity
  8
0
  6
Continuous
 62
     7
370
    25
100
AcDbLine
 10
95.1055427252
 20
48.169630485
 30
0.0
 11
109.1055427252
 21
48.169630485
 31
0.0
  0
LINE
  5
81
330
1F
100
AcDbEntity
  8
0
  6
Continuous
 62
     7
370
    25
100
AcDbLine
 10
121.6055427252
 20
50.169630485
 30
0.0
 11
122.1055427252
 21
50.669630485
 31
0.0
  0
LINE
  5
82
330
1F
100
AcDbEntity
  8
0
  6
Continuous
 62
     7
370
    25
100
AcDbLine
 10
122.1055427252
 20
62.669630485
 30
0.0
 11
121.6055427252
 21
63.169630485
 31
0.0
  0
LINE
  5
83
330
1F
100
AcDbEntity
  8
0
  6
Continuous
 62
     7
370
    25
100
AcDbLine
 10
121.6055427252
 20
63.169630485
 30
0.0
 11
112.1055427252
 21
63.169630485
 31
0.0
  0
LINE
  5
84
330
1F
100
AcDbEntity
  8
0
  6
Continuous
 62
     7
370
    25
100
AcDbLine
 10
112.1055427252
 20
50.169630485
 30
0.0
 11
121.6055427252
 21
50.169630485
 31
0.0
  0
SPLINE
  5
85
330
1F
100
AcDbEntity
  8
0
  6
Continuous
 62
     7
370
    25
100
AcDbSpline
210
0.0
220
0.0
230
1.0
 70
     8
 71
     3
 72
    13
 73
     9
 74
     0
 42
0.00000001
 43
0.00000001
 40
0.0
 40
0.0
 40
0.0
 40
0.0
 40
0.1657648999013929
 40
0.3288516425910938
 40
0.5079757807440833
 40
0.6908230418584143
 40
0.8659232900064849
 40
1.0
 40
1.0
 40
1.0
 40
1.0
 10
108.5058506723554
 20
65.17296385656742
 30
0.0
 10
108.4621565060561
 20
65.17484627367631
 30
0.0
 10
108.3754741120892
 20
65.17858069488776
 30
0.0
 10
108.251290287394
 20
65.23273878474778
 30
0.0
 10
108.1409228257799
 20
65.31717421886908
 30
0.0
 10
108.0581103552956
 20
65.43296907588528
 30
0.0
 10
108.0116772863675
 20
65.55573153017816
 30
0.0
 10
108.0083906082228
 20
65.63696605797769
 30
0.0
 10
108.0069653176867
 20
65.67219396852673
 30
0.0
  0
SPLINE
  5
86
330
1F
100
AcDbEntity
  8
0
  6
Continuous
 62
     7
370
    25
100
AcDbSpline
210
0.0
220
0.0
230
1.0
 70
     8
 71
     3
 72
    13
 73
     9
 74
     0
 42
0.00000001
 43
0.00000001
 40
0.0
 40
0.0
 40
0.0
 40
0.0
 40
0.1607063118245939
 40
0.3468543103550863
 40
0.5363367921067442
 40
0.7155426209750598
 40
0.8707860443061729
 40
0.9999999999999999
 40
0.9999999999999999
 40
0.9999999999999999
 40
0.9999999999999999
 10
96.20444264856985
 20
65.66051866929607
 30
0.0
 10
96.20121841993867
 20
65.61981240766679
 30
0.0
 10
96.19425952961508
 20
65.53195560761796
 30
0.0
 10
96.13777379883663
 20
65.40576650632576
 30
0.0
 10
96.04796516880724
 20
65.29593451680825
 30
0.0
 10
95.93713281686426
 20
65.22076818947775
 30
0.0
 10
95.8259856060936
 20
65.1790036653553
 30
0.0
 10
95.75409338016716
 20
65.17310821445784
 30
0.0
 10
95.7214365409337
 20
65.17043022264875
 30
0.0
  0
LINE
  5
87
330
1F
100
AcDbEntity
  8
0
  6
Continuous
 62
     7
370
    25
100
AcDbLine
 10
108.0055427252
 20
65.669630485
 30
0.0
 11
108.0055427252
 21
67.169630485
 31
0.0
  0
LINE
  5
88
330
1F
100
AcDbEntity
  8
0
  6
Continuous
 62
     7
370
    25
100
AcDbLine
 10
96.2055427252
 20
67.169630485
 30
0.0
 11
96.2055427252
 21
65.658359745
 31
0.0
  0
LINE
  5
89
330
1F
100
AcDbEntity
  8
0
  6
Continuous
 62
     7
370
    25
100
AcDbLine
 10
96.8664573925
 20
83.769630485
 30
0.0
 11
96.8664573925
 21
83.169630485
 31
0.0
  0
LINE
  5
8A
330
1F
100
AcDbEntity
  8
0
  6
Continuous
 62
     7
370
    25
100
AcDbLine
 10
107.3446280578
 20
83.769630485
 30
0.0
 11
96.8664573925
 21
83.769630485
 31
0.0
  0
LINE
  5
8B
330
1F
100
AcDbEntity
  8
0
  6
Continuous
 62
     7
370
    25
100
AcDbLine
 10
107.3446280578
 20
83.169630485
 30
0.0
 11
107.3446280578
 21
83.769630485
 31
0.0
  0
LINE
  5
8C
330
1F
100
AcDbEntity
  8
0
  6
Continuous
 62
     7
370
    25
100
AcDbLine
 10
96.8664573925
 20
83.169630485
 30
0.0
 11
107.3446280578
 21
83.169630485
 31
0.0
  0
SPLINE
  5
8D
330
1F
100
AcDbEntity
  8
0
  6
Continuous
 62
     7
370
    25
100
AcDbSpline
210
0.0
220
0.0
230
1.0
 70
     8
 71
     3
 72
    15
 73
    11
 74
     0
 42
0.00000001
 43
0.00000001
 40
0.0
 40
0.0
 40
0.0
 40
0.0
 40
0.0081667445812695
 40
0.3321939991490078
 40
0.4756279600585575
 40
0.6866830973284898
 40
0.8457435502264807
 40
0.8967566214763126
 40
0.9909540928118029
 40
1.0
 40
1.0
 40
1.0
 40
1.0
 10
97.0065232115804
 20
84.01963048498845
 30
0.0
 10
97.00603567743751
 20
84.01962780864267
 30
0.0
 10
96.98620452990544
 20
84.01951894445591
 30
0.0
 10
96.95792374989617
 20
84.00997293218643
 30
0.0
 10
96.92009445140734
 20
83.97261054893187
 30
0.0
 10
96.89351055483985
 20
83.9277450341972
 30
0.0
 10
96.87634073108488
 20
83.8698687346203
 30
0.0
 10
96.86852373486843
 20
83.81919269464838
 30
0.0
 10
96.86652804843253
 20
83.79049841512835
 30
0.0
 10
96.86646308448174
 20
83.77131158357285
 30
0.0
 10
96.86645739251507
 20
83.76963048498845
 30
0.0
  0
LINE
  5
8E
330
1F
100
AcDbEntity
  8
0
  6
Continuous
 62
     7
370
    25
100
AcDbLine
 10
97.0065232116
 20
84.019630485
 30
0.0
 11
107.2045622388
 21
84.019630485
 31
0.0
  0
SPLINE
  5
8F
330
1F
100
AcDbEntity
  8
0
  6
Continuous
 62
     7
370
    25
100
AcDbSpline
210
0.0
220
0.0
230
1.0
 70
     8
 71
     3
 72
    15
 73
    11
 74
     0
 42
0.00000001
 43
0.00000001
 40
0.0
 40
0.0
 40
0.0
 40
0.0
 40
0.0090459071881971
 40
0.1032433785236875
 40
0.1542564497735192
 40
0.3133169026715105
 40
0.5243720399414424
 40
0.66780600085099
 40
0.9918332554187292
 40
1.0
 40
1.0
 40
1.0
 40
1.0
 10
107.3446280578313
 20
83.76963048498845
 30
0.0
 10
107.3446223658646
 20
83.77131158357285
 30
0.0
 10
107.3445574019138
 20
83.79049841512837
 30
0.0
 10
107.342561715478
 20
83.81919269464838
 30
0.0
 10
107.3347447192615
 20
83.8698687346203
 30
0.0
 10
107.3175748955065
 20
83.9277450341972
 30
0.0
 10
107.290990998939
 20
83.97261054893188
 30
0.0
 10
107.2531617004502
 20
84.00997293218641
 30
0.0
 10
107.224880920441
 20
84.01951894445598
 30
0.0
 10
107.2050497729089
 20
84.01962780864267
 30
0.0
 10
107.204562238766
 20
84.01963048498845
 30
0.0
  0
LINE
  5
90
330
1F
100
AcDbEntity
  8
0
  6
Continuous
 62
     7
370
    25
100
AcDbLine
 10
96.6283171501
 20
83.769630485
 30
0.0
 11
96.8664573925
 21
83.769630485
 31
0.0
  0
SPLINE
  5
91
330
1F
100
AcDbEntity
  8
0
  6
Continuous
 62
     7
370
    25
100
AcDbSpline
210
0.0
220
0.0
230
1.0
 70
     8
 71
     3
 72
    15
 73
    11
 74
     0
 42
0.00000001
 43
0.00000001
 40
0.0
 40
0.0
 40
0.0
 40
0.0
 40
0.0089557228015919
 40
0.0999003359608147
 40
0.1531632460581689
 40
0.3125636920784844
 40
0.5249666935695022
 40
0.6689893599352454
 40
0.9919152533810159
 40
1.0
 40
1.0
 40
1.0
 40
1.0
 10
96.62831715012152
 20
83.76963048498845
 30
0.0
 10
96.62833290570012
 20
83.77131161056136
 30
0.0
 10
96.62850865785668
 20
83.7900644251858
 30
0.0
 10
96.6339376738762
 20
83.81882665429329
 30
0.0
 10
96.65547315758351
 20
83.8697137277616
 30
0.0
 10
96.70317858584836
 20
83.92784937789425
 30
0.0
 10
96.77556953084026
 20
83.97255725107766
 30
0.0
 10
96.87748864285803
 20
84.00983907453944
 30
0.0
 10
96.95284373431254
 20
84.01951822937681
 30
0.0
 10
97.00524338003626
 20
84.01962780857878
 30
0.0
 10
97.0065232115804
 20
84.01963048498845
 30
0.0
  0
LINE
  5
92
330
1F
100
AcDbEntity
  8
0
  6
Continuous
 62
     7
370
    25
100
AcDbLine
 10
107.3446280578
 20
83.769630485
 30
0.0
 11
107.5827683002
 21
83.769630485
 31
0.0
  0
SPLINE
  5
93
330
1F
100
AcDbEntity
  8
0
  6
Continuous
 62
     7
370
    25
100
AcDbSpline
210
0.0
220
0.0
230
1.0
 70
     8
 71
     3
 72
    15
 73
    11
 74
     0
 42
0.00000001
 43
0.00000001
 40
0.0
 40
0.0
 40
0.0
 40
0.0
 40
0.0080847466189818
 40
0.3310106400647567
 40
0.4750333064304976
 40
0.6874363079215146
 40
0.846836753941831
 40
0.9000996640391853
 40
0.9910442771984082
 40
1.0
 40
1.0
 40
1.0
 40
1.0
 10
107.204562238766
 20
84.01963048498845
 30
0.0
 10
107.2058420703101
 20
84.01962780857878
 30
0.0
 10
107.2582417160339
 20
84.01951822937696
 30
0.0
 10
107.3335968074883
 20
84.00983907453941
 30
0.0
 10
107.4355159195061
 20
83.97255725107766
 30
0.0
 10
107.507906864498
 20
83.92784937789425
 30
0.0
 10
107.5556122927628
 20
83.8697137277616
 30
0.0
 10
107.5771477764702
 20
83.81882665429328
 30
0.0
 10
107.5825767924897
 20
83.7900644251858
 30
0.0
 10
107.5827525446462
 20
83.77131161056136
 30
0.0
 10
107.5827683002248
 20
83.76963048498845
 30
0.0
  0
LINE
  5
94
330
1F
100
AcDbEntity
  8
0
  6
Continuous
 62
     7
370
    25
100
AcDbLine
 10
96.6283171501
 20
83.169630485
 30
0.0
 11
96.6283171501
 21
83.769630485
 31
0.0
  0
LINE
  5
95
330
1F
100
AcDbEntity
  8
0
  6
Continuous
 62
     7
370
    25
100
AcDbLine
 10
96.8664573925
 20
83.169630485
 30
0.0
 11
96.6283171501
 21
83.169630485
 31
0.0
  0
LINE
  5
96
330
1F
100
AcDbEntity
  8
0
  6
Continuous
 62
     7
370
    25
100
AcDbLine
 10
107.5827683002
 20
83.769630485
 30
0.0
 11
107.5827683002
 21
83.169630485
 31
0.0
  0
LINE
  5
97
330
1F
100
AcDbEntity
  8
0
  6
Continuous
 62
     7
370
    25
100
AcDbLine
 10
107.5827683002
 20
83.169630485
 30
0.0
 11
107.3446280578
 21
83.169630485
 31
0.0
  0
LINE
  5
98
330
1F
100
AcDbEntity
  8
0
  6
Continuous
 62
     7
370
    25
100
AcDbLine
 10
96.3555427252
 20
83.769630485
 30
0.0
 11
96.3555427252
 21
83.169630485
 31
0.0
  0
LINE
  5
99
330
1F
100
AcDbEntity
  8
0
  6
Continuous
 62
     7
370
    25
100
AcDbLine
 10
96.6283171501
 20
83.769630485
 30
0.0
 11
96.3555427252
 21
83.769630485
 31
0.0
  0
LINE
  5
9A
330
1F
100
AcDbEntity
  8
0
  6
Continuous
 62
     7
370
    25
100
AcDbLine
 10
96.6283171501
 20
83.169630485
 30
0.0
 11
96.3555427252
 21
83.169630485
 31
0.0
  0
LINE
  5
9B
330
1F
100
AcDbEntity
  8
0
  6
Continuous
 62
     7
370
    25
100
AcDbLine
 10
96.1055427252
 20
83.169630485
 30
0.0
 11
96.1055427252
 21
83.769630485
 31
0.0
  0
LINE
  5
9C
330
1F
100
AcDbEntity
  8
0
  6
Continuous
 62
     7
370
    25
100
AcDbLine
 10
96.1055427252
 20
83.769630485
 30
0.0
 11
96.3555427252
 21
83.769630485
 31
0.0
  0
LINE
  5
9D
330
1F
100
AcDbEntity
  8
0
  6
Continuous
 62
     7
370
    25
100
AcDbLine
 10
96.3555427252
 20
83.169630485
 30
0.0
 11
96.1055427252
 21
83.169630485
 31
0.0
  0
LINE
  5
9E
330
1F
100
AcDbEntity
  8
0
  6
Continuous
 62
     7
370
    25
100
AcDbLine
 10
96.3555427252
 20
84.019630485
 30
0.0
 11
96.3555427252
 21
83.769630485
 31
0.0
  0
LINE
  5
9F
330
1F
100
AcDbEntity
  8
0
  6
Continuous
 62
     7
370
    25
100
AcDbLine
 10
96.3555427252
 20
84.019630485
 30
0.0
 11
97.0065232116
 21
84.019630485
 31
0.0
  0
ARC
  5
A0
330
1F
100
AcDbEntity
  8
0
  6
Continuous
 62
     7
370
    25
100
AcDbCircle
 10
96.3555427252
 20
83.769630485
 30
0.0
 40
0.25
100
AcDbArc
 50
90.0
 51
180.0
  0
LINE
  5
A1
330
1F
100
AcDbEntity
  8
0
  6
Continuous
 62
     7
370
    25
100
AcDbLine
 10
107.8555427252
 20
83.769630485
 30
0.0
 11
107.8555427252
 21
84.019630485
 31
0.0
  0
LINE
  5
A2
330
1F
100
AcDbEntity
  8
0
  6
Continuous
 62
     7
370
    25
100
AcDbLine
 10
107.8555427252
 20
83.769630485
 30
0.0
 11
107.5827683002
 21
83.769630485
 31
0.0
  0
LINE
  5
A3
330
1F
100
AcDbEntity
  8
0
  6
Continuous
 62
     7
370
    25
100
AcDbLine
 10
107.2045622388
 20
84.019630485
 30
0.0
 11
107.8555427252
 21
84.019630485
 31
0.0
  0
LINE
  5
A4
330
1F
100
AcDbEntity
  8
0
  6
Continuous
 62
     7
370
    25
100
AcDbLine
 10
107.8555427252
 20
83.169630485
 30
0.0
 11
107.8555427252
 21
83.769630485
 31
0.0
  0
LINE
  5
A5
330
1F
100
AcDbEntity
  8
0
  6
Continuous
 62
     7
370
    25
100
AcDbLine
 10
107.8555427252
 20
83.169630485
 30
0.0
 11
107.5827683002
 21
83.169630485
 31
0.0
  0
LINE
  5
A6
330
1F
100
AcDbEntity
  8
0
  6
Continuous
 62
     7
370
    25
100
AcDbLine
 10
107.8555427252
 20
83.769630485
 30
0.0
 11
108.1055427252
 21
83.769630485
 31
0.0
  0
LINE
  5
A7
330
1F
100
AcDbEntity
  8
0
  6
Continuous
 62
     7
370
    25
100
AcDbLine
 10
108.1055427252
 20
83.769630485
 30
0.0
 11
108.1055427252
 21
83.169630485
 31
0.0
  0
LINE
  5
A8
330
1F
100
AcDbEntity
  8
0
  6
Continuous
 62
     7
370
    25
100
AcDbLine
 10
108.1055427252
 20
83.169630485
 30
0.0
 11
107.8555427252
 21
83.169630485
 31
0.0
  0
ARC
  5
A9
330
1F
100
AcDbEntity
  8
0
  6
Continuous
 62
     7
370
    25
100
AcDbCircle
 10
107.8555427252
 20
83.769630485
 30
0.0
 40
0.25
100
AcDbArc
 50
0.0
 51
90.0
  0
LINE
  5
AA
330
1F
100
AcDbEntity
  8
0
  6
Continuous
 62
     7
370
    25
100
AcDbLine
 10
97.1055427252
 20
84.029630485
 30
0.0
 11
107.1055427252
 21
84.029630485
 31
0.0
  0
LINE
  5
AB
330
1F
100
AcDbEntity
  8
0
  6
Continuous
 62
     7
370
    25
100
AcDbLine
 10
107.1055427252
 20
84.019630485
 30
0.0
 11
107.1055427252
 21
84.029630485
 31
0.0
  0
LINE
  5
AC
330
1F
100
AcDbEntity
  8
0
  6
Continuous
 62
     7
370
    25
100
AcDbLine
 10
97.1055427252
 20
84.019630485
 30
0.0
 11
97.1055427252
 21
84.029630485
 31
0.0
  0
SPLINE
  5
AD
330
1F
100
AcDbEntity
  8
0
  6
Continuous
 62
     7
370
    25
100
AcDbSpline
210
0.0
220
0.0
230
1.0
 70
     8
 71
     3
 72
    15
 73
    11
 74
     0
 42
0.00000001
 43
0.00000001
 40
0.0
 40
0.0
 40
0.0
 40
0.0
 40
0.1323052378296956
 40
0.2645730682660304
 40
0.3997997819746812
 40
0.5350020935366635
 40
0.6501929590834555
 40
0.7654017933211809
 40
0.8826895567076667
 40
1.0
 40
1.0
 40
1.0
 40
1.0
 10
91.20201577932094
 20
46.8546759087648
 30
0.0
 10
91.31758575116093
 20
47.06669845242129
 30
0.0
 10
91.54869301910209
 20
47.4906835934251
 30
0.0
 10
91.79735565067844
 20
48.14358317908025
 30
0.0
 10
91.94686959783196
 20
48.8087900313031
 30
0.0
 10
91.97647988488035
 20
49.44990067760045
 30
0.0
 10
91.8996584822297
 20
50.05637544246378
 30
0.0
 10
91.74224901110868
 20
50.62873840221617
 30
0.0
 10
91.51134665057769
 20
51.1985135424704
 30
0.0
 10
91.30513271502032
 20
51.57426120353986
 30
0.0
 10
91.20201577932093
 20
51.76215319687664
 30
0.0
  0
SPLINE
  5
AE
330
1F
100
AcDbEntity
  8
0
  6
Continuous
 62
     7
370
    25
100
AcDbSpline
210
0.0
220
0.0
230
1.0
 70
     8
 71
     3
 72
    15
 73
    11
 74
     0
 42
0.00000001
 43
0.00000001
 40
0.0
 40
0.0
 40
0.0
 40
0.0
 40
0.1926493030250993
 40
0.2899599040566652
 40
0.3872593454458907
 40
0.5133929671398145
 40
0.6395292617303824
 40
0.7690248624621469
 40
0.8985571217444398
 40
1.0
 40
1.0
 40
1.0
 40
1.0
 10
91.20201577932094
 20
51.76215319687665
 30
0.0
 10
91.36691814458817
 20
52.38085850771066
 30
0.0
 10
91.61511563744583
 20
53.31208291263574
 30
0.0
 10
91.82420732675189
 20
54.58214665752228
 30
0.0
 10
91.93961232047096
 20
55.64158703461637
 30
0.0
 10
91.97766071168824
 20
56.80337362096773
 30
0.0
 10
91.91307742363531
 20
58.07108932329191
 30
0.0
 10
91.7396437636459
 20
59.33965377903498
 30
0.0
 10
91.49599138200703
 20
60.51284441589249
 30
0.0
 10
91.2917273167724
 20
61.25233013456167
 30
0.0
 10
91.20201577932094
 20
61.5771077731003
 30
0.0
  0
SPLINE
  5
AF
330
1F
100
AcDbEntity
  8
0
  6
Continuous
 62
     7
370
    25
100
AcDbSpline
210
0.0
220
0.0
230
1.0
 70
     8
 71
     3
 72
    15
 73
    11
 74
     0
 42
0.00000001
 43
0.00000001
 40
0.0
 40
0.0
 40
0.0
 40
0.0
 40
0.1323052378296955
 40
0.2645730682660304
 40
0.3997997819746811
 40
0.5350020935366635
 40
0.6501929590834555
 40
0.7654017933211806
 40
0.8826895567076665
 40
1.0
 40
1.0
 40
1.0
 40
1.0
 10
91.20201577932094
 20
61.5771077731003
 30
0.0
 10
91.31758575116093
 20
61.7891303167568
 30
0.0
 10
91.54869301910209
 20
62.21311545776061
 30
0.0
 10
91.79735565067844
 20
62.86601504341574
 30
0.0
 10
91.94686959783198
 20
63.53122189563859
 30
0.0
 10
91.97647988488035
 20
64.17233254193593
 30
0.0
 10
91.89965848222971
 20
64.77880730679927
 30
0.0
 10
91.74224901110868
 20
65.35117026655163
 30
0.0
 10
91.51134665057769
 20
65.92094540680586
 30
0.0
 10
91.30513271502033
 20
66.29669306787532
 30
0.0
 10
91.20201577932094
 20
66.48458506121209
 30
0.0
  0
SPLINE
  5
B0
330
1F
100
AcDbEntity
  8
0
  6
Continuous
 62
     7
370
    25
100
AcDbSpline
210
0.0
220
0.0
230
1.0
 70
     8
 71
     3
 72
    15
 73
    11
 74
     0
 42
0.00000001
 43
0.00000001
 40
0.0
 40
0.0
 40
0.0
 40
0.0
 40
0.1323052378296956
 40
0.2645730682660304
 40
0.3997997819746811
 40
0.5350020935366634
 40
0.6501929590834554
 40
0.7654017933211805
 40
0.8826895567076664
 40
1.0
 40
1.0
 40
1.0
 40
1.0
 10
80.00906967102544
 20
61.5771077731003
 30
0.0
 10
79.89349969918544
 20
61.7891303167568
 30
0.0
 10
79.66239243124429
 20
62.21311545776061
 30
0.0
 10
79.41372979966792
 20
62.86601504341574
 30
0.0
 10
79.26421585251441
 20
63.53122189563859
 30
0.0
 10
79.23460556546603
 20
64.17233254193593
 30
0.0
 10
79.31142696811666
 20
64.77880730679927
 30
0.0
 10
79.46883643923769
 20
65.35117026655163
 30
0.0
 10
79.69973879976867
 20
65.92094540680586
 30
0.0
 10
79.90595273532605
 20
66.29669306787532
 30
0.0
 10
80.00906967102544
 20
66.48458506121209
 30
0.0
  0
SPLINE
  5
B1
330
1F
100
AcDbEntity
  8
0
  6
Continuous
 62
     7
370
    25
100
AcDbSpline
210
0.0
220
0.0
230
1.0
 70
     8
 71
     3
 72
    15
 73
    11
 74
     0
 42
0.00000001
 43
0.00000001
 40
0.0
 40
0.0
 40
0.0
 40
0.0
 40
0.1926493030250993
 40
0.2899599040566652
 40
0.3872593454458908
 40
0.5133929671398144
 40
0.6395292617303823
 40
0.7690248624621467
 40
0.8985571217444398
 40
1.0
 40
1.0
 40
1.0
 40
1.0
 10
80.00906967102543
 20
51.76215319687664
 30
0.0
 10
79.8441673057582
 20
52.38085850771066
 30
0.0
 10
79.59596981290053
 20
53.31208291263574
 30
0.0
 10
79.38687812359447
 20
54.58214665752228
 30
0.0
 10
79.27147312987543
 20
55.64158703461637
 30
0.0
 10
79.23342473865812
 20
56.80337362096773
 30
0.0
 10
79.29800802671106
 20
58.07108932329191
 30
0.0
 10
79.47144168670044
 20
59.33965377903498
 30
0.0
 10
79.71509406833934
 20
60.51284441589249
 30
0.0
 10
79.91935813357398
 20
61.25233013456167
 30
0.0
 10
80.00906967102544
 20
61.5771077731003
 30
0.0
  0
SPLINE
  5
B2
330
1F
100
AcDbEntity
  8
0
  6
Continuous
 62
     7
370
    25
100
AcDbSpline
210
0.0
220
0.0
230
1.0
 70
     8
 71
     3
 72
    15
 73
    11
 74
     0
 42
0.00000001
 43
0.00000001
 40
0.0
 40
0.0
 40
0.0
 40
0.0
 40
0.1323052378296956
 40
0.2645730682660304
 40
0.3997997819746812
 40
0.5350020935366635
 40
0.6501929590834555
 40
0.7654017933211809
 40
0.8826895567076667
 40
1.0
 40
1.0
 40
1.0
 40
1.0
 10
80.00906967102544
 20
46.8546759087648
 30
0.0
 10
79.89349969918544
 20
47.06669845242129
 30
0.0
 10
79.66239243124426
 20
47.4906835934251
 30
0.0
 10
79.41372979966793
 20
48.14358317908025
 30
0.0
 10
79.2642158525144
 20
48.8087900313031
 30
0.0
 10
79.23460556546603
 20
49.44990067760045
 30
0.0
 10
79.31142696811666
 20
50.05637544246378
 30
0.0
 10
79.46883643923769
 20
50.62873840221617
 30
0.0
 10
79.69973879976867
 20
51.1985135424704
 30
0.0
 10
79.90595273532605
 20
51.57426120353986
 30
0.0
 10
80.00906967102543
 20
51.76215319687664
 30
0.0
  0
LINE
  5
B3
330
1F
100
AcDbEntity
  8
0
  6
Continuous
 62
     7
370
    25
100
AcDbLine
 10
79.1055427252
 20
48.419630485
 30
0.0
 11
79.1055427252
 21
64.919630485
 31
0.0
  0
LINE
  5
B4
330
1F
100
AcDbEntity
  8
0
  6
Continuous
 62
     7
370
    25
100
AcDbLine
 10
80.009069671
 20
51.7621531969
 30
0.0
 11
91.2020157793
 21
51.7621531969
 31
0.0
  0
LINE
  5
B5
330
1F
100
AcDbEntity
  8
0
  6
Continuous
 62
     7
370
    25
100
AcDbLine
 10
80.009069671
 20
46.8546759088
 30
0.0
 11
91.2020157793
 21
46.8546759088
 31
0.0
  0
LINE
  5
B6
330
1F
100
AcDbEntity
  8
0
  6
Continuous
 62
     7
370
    25
100
AcDbLine
 10
80.009069671
 20
61.5771077731
 30
0.0
 11
91.2020157793
 21
61.5771077731
 31
0.0
  0
LINE
  5
B7
330
1F
100
AcDbEntity
  8
0
  6
Continuous
 62
     7
370
    25
100
AcDbLine
 10
80.009069671
 20
66.4845850612
 30
0.0
 11
91.2020157793
 21
66.4845850612
 31
0.0
  0
LINE
  5
B8
330
1F
100
AcDbEntity
  8
0
  6
Continuous
 62
     7
370
    25
100
AcDbLine
 10
100.1055427252
 20
67.169630485
 30
0.0
 11
109.1055427252
 21
67.169630485
 31
0.0
  0
LINE
  5
B9
330
1F
100
AcDbEntity
  8
0
  6
Continuous
 62
     7
370
    25
100
AcDbLine
 10
100.1055427252
 20
67.2074474088
 30
0.0
 11
100.1055427252
 21
67.169630485
 31
0.0
  0
SPLINE
  5
BA
330
1F
100
AcDbEntity
  8
0
  6
Continuous
 62
     7
370
    25
100
AcDbSpline
210
0.0
220
0.0
230
1.0
 70
     8
 71
     3
 72
     9
 73
     5
 74
     0
 42
0.00000001
 43
0.00000001
 40
0.0
 40
0.0
 40
0.0
 40
0.0
 40
0.4875141023677128
 40
0.9999999999999999
 40
0.9999999999999999
 40
0.9999999999999999
 40
0.9999999999999999
 10
99.94959747474599
 20
67.1696304849885
 30
0.0
 10
99.97590404866857
 20
67.1713578309602
 30
0.0
 10
100.0298646906168
 20
67.17490100225169
 30
0.0
 10
100.0799002213116
 20
67.196419488201
 30
0.0
 10
100.1055427251732
 20
67.20744740878843
 30
0.0
  0
SPLINE
  5
BB
330
1F
100
AcDbEntity
  8
0
  6
Continuous
 62
     7
370
    25
100
AcDbSpline
210
0.0
220
0.0
230
1.0
 70
     8
 71
     3
 72
    17
 73
    13
 74
     0
 42
0.00000001
 43
0.00000001
 40
0.0
 40
0.0
 40
0.0
 40
0.0
 40
0.3241697628029873
 40
0.542275846362072
 40
0.689509052693928
 40
0.7894036290694506
 40
0.8577090008137827
 40
0.9049823971474139
 40
0.9551712229700868
 40
0.9753097783197817
 40
0.9919572060138849
 40
1.0
 40
1.0
 40
1.0
 40
1.0
 10
97.63099584109102
 20
75.16963048498609
 30
0.0
 10
97.7737112011082
 20
74.25701698238039
 30
0.0
 10
98.01244751005017
 20
72.73038397611906
 30
0.0
 10
98.39203470450182
 20
70.80361107383808
 30
0.0
 10
98.7011689128489
 20
69.51597560290531
 30
0.0
 10
98.95728244104902
 20
68.65682363618359
 30
0.0
 10
99.171593443944
 20
68.08335574780618
 30
0.0
 10
99.3748276649719
 20
67.6618235937762
 30
0.0
 10
99.55937292951451
 20
67.38133105098078
 30
0.0
 10
99.74544401588265
 20
67.22578238240013
 30
0.0
 10
99.86065461513857
 20
67.17517178320261
 30
0.0
 10
99.92774342061146
 20
67.17099203139799
 30
0.0
 10
99.94959747474599
 20
67.1696304849885
 30
0.0
  0
LINE
  5
BC
330
1F
100
AcDbEntity
  8
0
  6
Continuous
 62
     7
370
    25
100
AcDbLine
 10
97.6309958411
 20
75.169630485
 30
0.0
 11
109.5555427252
 21
75.169630485
 31
0.0
  0
SPLINE
  5
BD
330
1F
100
AcDbEntity
  8
0
  6
Continuous
 62
     7
370
    25
100
AcDbSpline
210
0.0
220
0.0
230
1.0
 70
     8
 71
     3
 72
     9
 73
     5
 74
     0
 42
0.00000001
 43
0.00000001
 40
0.0
 40
0.0
 40
0.0
 40
0.0
 40
0.4978401817595074
 40
1.0
 40
1.0
 40
1.0
 40
1.0
 10
98.3912065968528
 20
76.16437406295537
 30
0.0
 10
98.25488468848214
 20
76.00786288026278
 30
0.0
 10
97.98105804016124
 20
75.69348250594376
 30
0.0
 10
97.74801878906462
 20
75.3447499579175
 30
0.0
 10
97.63099584109102
 20
75.16963048498609
 30
0.0
  0
LINE
  5
BE
330
1F
100
AcDbEntity
  8
0
  6
Continuous
 62
     7
370
    25
100
AcDbLine
 10
96.8817405508
 20
83.169630485
 30
0.0
 11
95.1536018869
 21
76.164374063
 31
0.0
  0
LINE
  5
BF
330
1F
100
AcDbEntity
  8
0
  6
Continuous
 62
     7
370
    25
100
AcDbLine
 10
107.3446280578
 20
83.169630485
 30
0.0
 11
96.8817405508
 21
83.169630485
 31
0.0
  0
SPLINE
  5
C0
330
1F
100
AcDbEntity
  8
0
  6
Continuous
 62
     7
370
    25
100
AcDbSpline
210
0.0
220
0.0
230
1.0
 70
     8
 71
     3
 72
    14
 73
    10
 74
     0
 42
0.00000001
 43
0.00000001
 40
0.0
 40
0.0
 40
0.0
 40
0.0
 40
0.1576095309202822
 40
0.3152382602707094
 40
0.4726926441579498
 40
0.6301650083177254
 40
0.7907313191165901
 40
0.9513050385928076
 40
1.0
 40
1.0
 40
1.0
 40
1.0
 10
95.6055427251732
 20
67.16963048498845
 30
0.0
 10
95.53897171039117
 20
67.38313227346585
 30
0.0
 10
95.40582157180621
 20
67.81016185709134
 30
0.0
 10
95.07725461005552
 20
68.39540893594767
 30
0.0
 10
94.66386496932351
 20
68.91756347677008
 30
0.0
 10
94.16819005037885
 20
69.36654160418995
 30
0.0
 10
93.60190034509436
 20
69.72582333599634
 30
0.0
 10
93.12564968870133
 20
69.93038951509752
 30
0.0
 10
92.84545512050856
 20
70.01118406344884
 30
0.0
 10
92.78025633573553
 20
70.02998423649561
 30
0.0
  0
LINE
  5
C1
330
1F
100
AcDbEntity
  8
0
  6
Continuous
 62
     7
370
    25
100
AcDbLine
 10
92.7802563357
 20
70.0299842365
 30
0.0
 11
87.0004994859
 21
71.598605677
 31
0.0
  0
SPLINE
  5
C2
330
1F
100
AcDbEntity
  8
0
  6
Continuous
 62
     7
370
    25
100
AcDbSpline
210
0.0
220
0.0
230
1.0
 70
     8
 71
     3
 72
    11
 73
     7
 74
     0
 42
0.00000001
 43
0.00000001
 40
0.0
 40
0.0
 40
0.0
 40
0.0
 40
0.2488466353289361
 40
0.4976946020535204
 40
0.7488461225871278
 40
1.0
 40
1.0
 40
1.0
 40
1.0
 10
79.93010586363653
 20
72.92180617796399
 30
0.0
 10
80.52454191277279
 20
72.85228180147035
 30
0.0
 10
81.71341719143618
 20
72.71323267650918
 30
0.0
 10
83.48814186214523
 20
72.4129039383839
 30
0.0
 10
85.2547225038876
 20
72.05099432012875
 30
0.0
 10
86.41857200490728
 20
71.74940236306419
 30
0.0
 10
87.00049948588025
 20
71.59860567697847
 30
0.0
  0
LINE
  5
C3
330
1F
100
AcDbEntity
  8
0
  6
Continuous
 62
     7
370
    25
100
AcDbLine
 10
79.9301058636
 20
72.921806178
 30
0.0
 11
79.9301058636
 21
76.164374063
 31
0.0
  0
LINE
  5
C4
330
1F
100
AcDbEntity
  8
0
  6
Continuous
 62
     7
370
    25
100
AcDbLine
 10
79.9301058636
 20
76.164374063
 30
0.0
 11
98.3912065969
 21
76.164374063
 31
0.0
  0
LINE
  5
C5
330
1F
100
AcDbEntity
  8
0
  6
Continuous
 62
     7
370
    25
100
AcDbLine
 10
99.9495974747
 20
67.169630485
 30
0.0
 11
95.6055427252
 21
67.169630485
 31
0.0
  0
LINE
  5
C6
330
1F
100
AcDbEntity
  8
0
  6
Continuous
 62
     7
370
    25
100
AcDbLine
 10
100.1055427252
 20
67.2074474088
 30
0.0
 11
100.0987433673
 21
67.169630485
 31
0.0
  0
LINE
  5
C7
330
1F
100
AcDbEntity
  8
0
  6
Continuous
 62
     7
370
    25
100
AcDbLine
 10
100.0987433673
 20
67.169630485
 30
0.0
 11
99.9495974747
 21
67.169630485
 31
0.0
  0
LINE
  5
C8
330
1F
100
AcDbEntity
  8
0
  6
Continuous
 62
     7
370
    25
100
AcDbLine
 10
100.1055427252
 20
67.169630485
 30
0.0
 11
100.0987433673
 21
67.169630485
 31
0.0
  0
LINE
  5
C9
330
1F
100
AcDbEntity
  8
0
  6
Continuous
 62
     7
370
    25
100
AcDbLine
 10
62.1055427252
 20
85.169630485
 30
0.0
 11
79.9301058636
 21
85.169630485
 31
0.0
  0
LINE
  5
CA
330
1F
100
AcDbEntity
  8
0
  6
Continuous
 62
     7
370
    25
100
AcDbLine
 10
79.9301058636
 20
85.169630485
 30
0.0
 11
79.9301058636
 21
76.164374063
 31
0.0
  0
LINE
  5
CB
330
1F
100
AcDbEntity
  8
0
  6
Continuous
 62
     7
370
    25
100
AcDbLine
 10
75.2138748674
 20
73.169630485
 30
0.0
 11
67.1055427252
 21
73.169630485
 31
0.0
  0
ARC
  5
CC
330
1F
100
AcDbEntity
  8
0
  6
Continuous
 62
     7
370
    25
100
AcDbCircle
 10
67.1055427252
 20
78.169630485
 30
0.0
 40
5.000000000000007
100
AcDbArc
 50
180.0
 51
270.0
  0
LINE
  5
CD
330
1F
100
AcDbEntity
  8
0
  6
Continuous
 62
     7
370
    25
100
AcDbLine
 10
62.1055427252
 20
78.169630485
 30
0.0
 11
62.1055427252
 21
85.169630485
 31
0.0
  0
ARC
  5
CE
330
1F
100
AcDbEntity
  8
0
  6
Continuous
 62
     7
370
    25
100
AcDbCircle
 10
75.2138748674
 20
28.1695012308
 30
0.0
 40
45.00012925418373
100
AcDbArc
 50
83.9840777705
 51
90.0
  0
LINE
  5
CF
330
1F
100
AcDbEntity
  8
0
  6
Continuous
 62
     7
370
    25
100
AcDbLine
 10
82.1055427252
 20
85.169630485
 30
0.0
 11
82.1055427252
 21
83.1885860084
 31
0.0
  0
ARC
  5
D0
330
1F
100
AcDbEntity
  8
0
  6
Continuous
 62
     7
370
    25
100
AcDbCircle
 10
88.1055427252
 20
83.1885860084
 30
0.0
 40
6.0
100
AcDbArc
 50
180.0
 51
275.5801667845
  0
ARC
  5
D1
330
1F
100
AcDbEntity
  8
0
  6
Continuous
 62
     7
370
    25
100
AcDbCircle
 10
87.7165891609
 20
87.169630485
 30
0.0
 40
10.00000000000847
100
AcDbArc
 50
275.5801667845
 51
336.4218215217
  0
LINE
  5
D2
330
1F
100
AcDbEntity
  8
0
  6
Continuous
 62
     7
370
    25
100
AcDbLine
 10
79.9301058636
 20
85.169630485
 30
0.0
 11
82.1055427252
 21
85.169630485
 31
0.0
  0
LINE
  5
D3
330
1F
100
AcDbEntity
  8
0
  6
Continuous
 62
     7
370
    25
100
AcDbLine
 10
95.6055427252
 20
67.169630485
 30
0.0
 11
95.1055427252
 21
67.169630485
 31
0.0
  0
LINE
  5
D4
330
1F
100
AcDbEntity
  8
0
  6
Continuous
 62
     7
370
    25
100
AcDbLine
 10
96.8664573925
 20
83.169630485
 30
0.0
 11
96.8817405508
 21
83.169630485
 31
0.0
  0
LINE
  5
D5
330
1F
100
AcDbEntity
  8
0
  6
Continuous
 62
     7
370
    25
100
AcDbLine
 10
112.1055427252
 20
66.369630485
 30
0.0
 11
112.1055427252
 21
46.969630485
 31
0.0
  0
LINE
  5
D6
330
1F
100
AcDbEntity
  8
0
  6
Continuous
 62
     7
370
    25
100
AcDbLine
 10
111.8055427252
 20
46.669630485
 30
0.0
 11
111.8055427252
 21
66.669630485
 31
0.0
  0
LINE
  5
D7
330
1F
100
AcDbEntity
  8
0
  6
Continuous
 62
     7
370
    25
100
AcDbLine
 10
94.2235767139
 20
56.669630485
 30
0.0
 11
94.2235767139
 21
46.669630485
 31
0.0
  0
LINE
  5
D8
330
1F
100
AcDbEntity
  8
0
  6
Continuous
 62
     7
370
    25
100
AcDbLine
 10
94.2235767139
 20
66.669630485
 30
0.0
 11
94.2235767139
 21
56.669630485
 31
0.0
  0
LINE
  5
D9
330
1F
100
AcDbEntity
  8
0
  6
Continuous
 62
     7
370
    25
100
AcDbLine
 10
94.6055427252
 20
65.669630485
 30
0.0
 11
94.6055427252
 21
62.169630485
 31
0.0
  0
SPLINE
  5
DA
330
1F
100
AcDbEntity
  8
0
  6
Continuous
 62
     7
370
    25
100
AcDbSpline
210
0.0
220
0.0
230
1.0
 70
     8
 71
     3
 72
     8
 73
     4
 74
     0
 42
0.00000001
 43
0.00000001
 40
0.0
 40
0.0
 40
0.0
 40
0.0
 40
1.0
 40
1.0
 40
1.0
 40
1.0
 10
94.50834160051927
 20
62.06932033648434
 30
0.0
 10
94.57617801809533
 20
62.10068327749512
 30
0.0
 10
94.60554272517318
 20
62.13415143814467
 30
0.0
 10
94.60554272517318
 20
62.16963048498844
 30
0.0
  0
SPLINE
  5
DB
330
1F
100
AcDbEntity
  8
0
  6
Continuous
 62
     7
370
    25
100
AcDbSpline
210
0.0
220
0.0
230
1.0
 70
     8
 71
     3
 72
    12
 73
     8
 74
     0
 42
0.00000001
 43
0.00000001
 40
0.0
 40
0.0
 40
0.0
 40
0.0
 40
0.4999999999999992
 40
0.4999999999999992
 40
0.7499999999999996
 40
0.7499999999999996
 40
1.0
 40
1.0
 40
1.0
 40
1.0
 10
94.50834160051927
 20
62.06932033648434
 30
0.0
 10
94.44047184050946
 20
62.03794198020225
 30
0.0
 10
94.36443728925573
 20
61.9042334597037
 30
0.0
 10
94.31779269087873
 20
61.62620735003791
 30
0.0
 10
94.31335369435608
 20
61.51936116603395
 30
0.0
 10
94.32908430814892
 20
61.29247969197821
 30
0.0
 10
94.3489647380913
 20
61.17231071967359
 30
0.0
 10
94.37645665807115
 20
61.05086107486335
 30
0.0
  0
SPLINE
  5
DC
330
1F
100
AcDbEntity
  8
0
  6
Continuous
 62
     7
370
    25
100
AcDbSpline
210
0.0
220
0.0
230
1.0
 70
     8
 71
     3
 72
    12
 73
     8
 74
     0
 42
0.00000001
 43
0.00000001
 40
0.0
 40
0.0
 40
0.0
 40
0.0
 40
0.4999999999999998
 40
0.4999999999999998
 40
0.7499999999999999
 40
0.7499999999999999
 40
1.0
 40
1.0
 40
1.0
 40
1.0
 10
94.60554272517318
 20
56.66963048498843
 30
0.0
 10
94.60554272517318
 20
57.40358750714564
 30
0.0
 10
94.61010012017242
 20
58.13656595150847
 30
0.0
 10
94.58291645579314
 20
59.23339006445487
 30
0.0
 10
94.56746678487595
 20
59.5985376530253
 30
0.0
 10
94.50460318334412
 20
60.32732566688935
 30
0.0
 10
94.45757326017579
 20
60.69251642228767
 30
0.0
 10
94.37645665807115
 20
61.05086107486335
 30
0.0
  0
SPLINE
  5
DD
330
1F
100
AcDbEntity
  8
0
  6
Continuous
 62
     7
370
    25
100
AcDbSpline
210
0.0
220
0.0
230
1.0
 70
     8
 71
     3
 72
    12
 73
     8
 74
     0
 42
0.00000001
 43
0.00000001
 40
0.0
 40
0.0
 40
0.0
 40
0.0
 40
0.2500000000000001
 40
0.2500000000000001
 40
0.5000000000000002
 40
0.5000000000000002
 40
1.0
 40
1.0
 40
1.0
 40
1.0
 10
94.37645665807115
 20
52.28839989511354
 30
0.0
 10
94.45757326017579
 20
52.64674454768921
 30
0.0
 10
94.50460318334412
 20
53.01193530308754
 30
0.0
 10
94.56746678487595
 20
53.74072331695158
 30
0.0
 10
94.58291645579314
 20
54.10587090552202
 30
0.0
 10
94.61010012017242
 20
55.20269501846843
 30
0.0
 10
94.60554272517318
 20
55.93567346283123
 30
0.0
 10
94.60554272517318
 20
56.66963048498845
 30
0.0
  0
SPLINE
  5
DE
330
1F
100
AcDbEntity
  8
0
  6
Continuous
 62
     7
370
    25
100
AcDbSpline
210
0.0
220
0.0
230
1.0
 70
     8
 71
     3
 72
    14
 73
    10
 74
     0
 42
0.00000001
 43
0.00000001
 40
0.0
 40
0.0
 40
0.0
 40
0.0
 40
0.25
 40
0.25
 40
0.5
 40
0.5
 40
0.75
 40
0.75
 40
1.0
 40
1.0
 40
1.0
 40
1.0
 10
94.37645665807115
 20
52.28839989511354
 30
0.0
 10
94.34893567032607
 20
52.16682183912783
 30
0.0
 10
94.32901574848967
 20
52.0462971021027
 30
0.0
 10
94.3133487066716
 20
51.81932084299459
 30
0.0
 10
94.31784053848392
 20
51.71235086542841
 30
0.0
 10
94.3490968837675
 20
51.52688531364868
 30
0.0
 10
94.37546946714927
 20
51.44800005252986
 30
0.0
 10
94.43830601829356
 20
51.32736226135675
 30
0.0
 10
94.47434559715366
 20
51.28565807091415
 30
0.0
 10
94.50834160051927
 20
51.26994063349255
 30
0.0
  0
SPLINE
  5
DF
330
1F
100
AcDbEntity
  8
0
  6
Continuous
 62
     7
370
    25
100
AcDbSpline
210
0.0
220
0.0
230
1.0
 70
     8
 71
     3
 72
     8
 73
     4
 74
     0
 42
0.00000001
 43
0.00000001
 40
0.0
 40
0.0
 40
0.0
 40
0.0
 40
1.0
 40
1.0
 40
1.0
 40
1.0
 10
94.60554272517318
 20
51.16963048498845
 30
0.0
 10
94.60554272517318
 20
51.20510953183221
 30
0.0
 10
94.57617801809533
 20
51.23857769248177
 30
0.0
 10
94.50834160051927
 20
51.26994063349255
 30
0.0
  0
LINE
  5
E0
330
1F
100
AcDbEntity
  8
0
  6
Continuous
 62
     7
370
    25
100
AcDbLine
 10
94.6055427252
 20
51.169630485
 30
0.0
 11
94.6055427252
 21
47.669630485
 31
0.0
  0
LINE
  5
E1
330
1F
100
AcDbEntity
  8
0
  6
Continuous
 62
     7
370
    25
100
AcDbLine
 10
109.9875087364
 20
46.669630485
 30
0.0
 11
109.9875087364
 21
66.669630485
 31
0.0
  0
LINE
  5
E2
330
1F
100
AcDbEntity
  8
0
  6
Continuous
 62
     7
370
    25
100
AcDbLine
 10
92.1055427252
 20
56.669630485
 30
0.0
 11
92.1055427252
 21
66.419630485
 31
0.0
  0
LINE
  5
E3
330
1F
100
AcDbEntity
  8
0
  6
Continuous
 62
     7
370
    25
100
AcDbLine
 10
92.1055427252
 20
46.919630485
 30
0.0
 11
92.1055427252
 21
56.669630485
 31
0.0
  0
LINE
  5
E4
330
1F
100
AcDbEntity
  8
0
  6
Continuous
 62
     7
370
    25
100
AcDbLine
 10
92.3555427252
 20
56.669630485
 30
0.0
 11
92.3555427252
 21
46.669630485
 31
0.0
  0
LINE
  5
E5
330
1F
100
AcDbEntity
  8
0
  6
Continuous
 62
     7
370
    25
100
AcDbLine
 10
92.3555427252
 20
66.669630485
 30
0.0
 11
92.3555427252
 21
56.669630485
 31
0.0
  0
SPLINE
  5
E6
330
1F
100
AcDbEntity
  8
0
  6
Continuous
 62
     7
370
    25
100
AcDbSpline
210
0.0
220
0.0
230
1.0
 70
     8
 71
     3
 72
     8
 73
     4
 74
     0
 42
0.00000001
 43
0.00000001
 40
0.0
 40
0.0
 40
0.0
 40
0.0
 40
1.0
 40
1.0
 40
1.0
 40
1.0
 10
109.7027438498271
 20
51.26994063349255
 30
0.0
 10
109.634907432251
 20
51.23857769248177
 30
0.0
 10
109.6055427251732
 20
51.20510953183221
 30
0.0
 10
109.6055427251732
 20
51.16963048498845
 30
0.0
  0
SPLINE
  5
E7
330
1F
100
AcDbEntity
  8
0
  6
Continuous
 62
     7
370
    25
100
AcDbSpline
210
0.0
220
0.0
230
1.0
 70
     8
 71
     3
 72
    12
 73
     8
 74
     0
 42
0.00000001
 43
0.00000001
 40
0.0
 40
0.0
 40
0.0
 40
0.0
 40
0.5000000000000001
 40
0.5000000000000001
 40
0.75
 40
0.75
 40
1.0
 40
1.0
 40
1.0
 40
1.0
 10
109.7027438498271
 20
51.26994063349255
 30
0.0
 10
109.7706136098369
 20
51.30131898977464
 30
0.0
 10
109.8466481610906
 20
51.43502751027319
 30
0.0
 10
109.8932927594677
 20
51.71305361993898
 30
0.0
 10
109.8977317559903
 20
51.81989980394293
 30
0.0
 10
109.8820011421975
 20
52.04678127799868
 30
0.0
 10
109.8621207122551
 20
52.16695025030329
 30
0.0
 10
109.8346287922752
 20
52.28839989511354
 30
0.0
  0
SPLINE
  5
E8
330
1F
100
AcDbEntity
  8
0
  6
Continuous
 62
     7
370
    25
100
AcDbSpline
210
0.0
220
0.0
230
1.0
 70
     8
 71
     3
 72
    12
 73
     8
 74
     0
 42
0.00000001
 43
0.00000001
 40
0.0
 40
0.0
 40
0.0
 40
0.0
 40
0.5
 40
0.5
 40
0.75
 40
0.75
 40
1.0
 40
1.0
 40
1.0
 40
1.0
 10
109.6055427251732
 20
56.66963048498845
 30
0.0
 10
109.6055427251732
 20
55.93567346283123
 30
0.0
 10
109.600985330174
 20
55.20269501846843
 30
0.0
 10
109.6281689945532
 20
54.10587090552202
 30
0.0
 10
109.6436186654704
 20
53.74072331695158
 30
0.0
 10
109.7064822670023
 20
53.01193530308754
 30
0.0
 10
109.7535121901706
 20
52.64674454768922
 30
0.0
 10
109.8346287922752
 20
52.28839989511354
 30
0.0
  0
SPLINE
  5
E9
330
1F
100
AcDbEntity
  8
0
  6
Continuous
 62
     7
370
    25
100
AcDbSpline
210
0.0
220
0.0
230
1.0
 70
     8
 71
     3
 72
    12
 73
     8
 74
     0
 42
0.00000001
 43
0.00000001
 40
0.0
 40
0.0
 40
0.0
 40
0.0
 40
0.25
 40
0.25
 40
0.5
 40
0.5
 40
1.0
 40
1.0
 40
1.0
 40
1.0
 10
109.8346287922752
 20
61.05086107486335
 30
0.0
 10
109.7535121901706
 20
60.69251642228767
 30
0.0
 10
109.7064822670023
 20
60.32732566688935
 30
0.0
 10
109.6436186654704
 20
59.59853765302531
 30
0.0
 10
109.6281689945532
 20
59.23339006445487
 30
0.0
 10
109.600985330174
 20
58.13656595150847
 30
0.0
 10
109.6055427251732
 20
57.40358750714566
 30
0.0
 10
109.6055427251732
 20
56.66963048498844
 30
0.0
  0
SPLINE
  5
EA
330
1F
100
AcDbEntity
  8
0
  6
Continuous
 62
     7
370
    25
100
AcDbSpline
210
0.0
220
0.0
230
1.0
 70
     8
 71
     3
 72
    14
 73
    10
 74
     0
 42
0.00000001
 43
0.00000001
 40
0.0
 40
0.0
 40
0.0
 40
0.0
 40
0.25
 40
0.25
 40
0.5
 40
0.5
 40
0.75
 40
0.75
 40
1.0
 40
1.0
 40
1.0
 40
1.0
 10
109.8346287922752
 20
61.05086107486335
 30
0.0
 10
109.8621497800203
 20
61.17243913084906
 30
0.0
 10
109.8820697018567
 20
61.29296386787419
 30
0.0
 10
109.8977367436748
 20
61.51994012698229
 30
0.0
 10
109.8932449118625
 20
61.62691010454846
 30
0.0
 10
109.8619885665789
 20
61.81237565632819
 30
0.0
 10
109.8356159831971
 20
61.89126091744703
 30
0.0
 10
109.7727794320528
 20
62.01189870862012
 30
0.0
 10
109.7367398531927
 20
62.05360289906273
 30
0.0
 10
109.7027438498271
 20
62.06932033648434
 30
0.0
  0
SPLINE
  5
EB
330
1F
100
AcDbEntity
  8
0
  6
Continuous
 62
     7
370
    25
100
AcDbSpline
210
0.0
220
0.0
230
1.0
 70
     8
 71
     3
 72
     8
 73
     4
 74
     0
 42
0.00000001
 43
0.00000001
 40
0.0
 40
0.0
 40
0.0
 40
0.0
 40
1.0
 40
1.0
 40
1.0
 40
1.0
 10
109.6055427251732
 20
62.16963048498844
 30
0.0
 10
109.6055427251732
 20
62.13415143814467
 30
0.0
 10
109.634907432251
 20
62.10068327749512
 30
0.0
 10
109.7027438498271
 20
62.06932033648434
 30
0.0
  0
LINE
  5
EC
330
1F
100
AcDbEntity
  8
0
  6
Continuous
 62
     7
370
    25
100
AcDbLine
 10
109.6055427252
 20
62.169630485
 30
0.0
 11
109.6055427252
 21
65.669630485
 31
0.0
  0
LINE
  5
ED
330
1F
100
AcDbEntity
  8
0
  6
Continuous
 62
     7
370
    25
100
AcDbLine
 10
109.6055427252
 20
47.669630485
 30
0.0
 11
109.6055427252
 21
51.169630485
 31
0.0
  0
LINE
  5
EE
330
1F
100
AcDbEntity
  8
0
  6
Continuous
 62
     7
370
    25
100
AcDbLine
 10
109.6055427252
 20
56.669630485
 30
0.0
 11
109.1055427252
 21
56.669630485
 31
0.0
  0
SPLINE
  5
EF
330
1F
100
AcDbEntity
  8
0
  6
Continuous
 62
     7
370
    25
100
AcDbSpline
210
0.0
220
0.0
230
1.0
 70
     8
 71
     3
 72
    14
 73
    10
 74
     0
 42
0.00000001
 43
0.00000001
 40
0.0
 40
0.0
 40
0.0
 40
0.0
 40
0.2499999999999999
 40
0.2499999999999999
 40
0.4999999999999999
 40
0.4999999999999999
 40
0.7499999999999999
 40
0.7499999999999999
 40
1.0
 40
1.0
 40
1.0
 40
1.0
 10
109.1055427251732
 20
56.66963048498844
 30
0.0
 10
109.1055427251732
 20
57.04614719707541
 30
0.0
 10
109.1051334634535
 20
57.42268325470437
 30
0.0
 10
109.1084448115594
 20
58.17556015355296
 30
0.0
 10
109.1122082970241
 20
58.5518989680683
 30
0.0
 10
109.1379815528038
 20
59.30371410678345
 30
0.0
 10
109.1598996474823
 20
59.67919476443245
 30
0.0
 10
109.2451173106676
 20
60.42820000370114
 30
0.0
 10
109.3084302968185
 20
60.80380791914259
 30
0.0
 10
109.4109908146426
 20
61.16963048498844
 30
0.0
  0
LINE
  5
F0
330
1F
100
AcDbEntity
  8
0
  6
Continuous
 62
     7
370
    25
100
AcDbLine
 10
109.8346287923
 20
61.0508610749
 30
0.0
 11
109.4109908146
 21
61.169630485
 31
0.0
  0
SPLINE
  5
F1
330
1F
100
AcDbEntity
  8
0
  6
Continuous
 62
     7
370
    25
100
AcDbSpline
210
0.0
220
0.0
230
1.0
 70
     8
 71
     3
 72
    14
 73
    10
 74
     0
 42
0.00000001
 43
0.00000001
 40
0.0
 40
0.0
 40
0.0
 40
0.0
 40
0.2500000000000001
 40
0.2500000000000001
 40
0.5000000000000001
 40
0.5000000000000001
 40
0.7500000000000001
 40
0.7500000000000001
 40
1.0
 40
1.0
 40
1.0
 40
1.0
 10
95.10554272517318
 20
56.66963048498845
 30
0.0
 10
95.10554272517318
 20
56.29311377290148
 30
0.0
 10
95.10595198689282
 20
55.9165777152725
 30
0.0
 10
95.10264063878694
 20
55.16370081642393
 30
0.0
 10
95.09887715332229
 20
54.78736200190858
 30
0.0
 10
95.07310389754258
 20
54.03554686319343
 30
0.0
 10
95.05118580286407
 20
53.66006620554442
 30
0.0
 10
94.9659681396788
 20
52.91106096627575
 30
0.0
 10
94.9026551535279
 20
52.5354530508343
 30
0.0
 10
94.8000946357038
 20
52.16963048498845
 30
0.0
  0
LINE
  5
F2
330
1F
100
AcDbEntity
  8
0
  6
Continuous
 62
     7
370
    25
100
AcDbLine
 10
94.8000946357
 20
52.169630485
 30
0.0
 11
94.3764566581
 21
52.2883998951
 31
0.0
  0
LINE
  5
F3
330
1F
100
AcDbEntity
  8
0
  6
Continuous
 62
     7
370
    25
100
AcDbLine
 10
95.1055427252
 20
56.669630485
 30
0.0
 11
94.6055427252
 21
56.669630485
 31
0.0
  0
LINE
  5
F4
330
1F
100
AcDbEntity
  8
0
  6
Continuous
 62
     7
370
    25
100
AcDbLine
 10
109.8346287923
 20
52.2883998951
 30
0.0
 11
109.4109908146
 21
52.169630485
 31
0.0
  0
SPLINE
  5
F5
330
1F
100
AcDbEntity
  8
0
  6
Continuous
 62
     7
370
    25
100
AcDbSpline
210
0.0
220
0.0
230
1.0
 70
     8
 71
     3
 72
    14
 73
    10
 74
     0
 42
0.00000001
 43
0.00000001
 40
0.0
 40
0.0
 40
0.0
 40
0.0
 40
0.2500000000000002
 40
0.2500000000000002
 40
0.5000000000000003
 40
0.5000000000000003
 40
0.7500000000000002
 40
0.7500000000000002
 40
1.0
 40
1.0
 40
1.0
 40
1.0
 10
109.4109908146426
 20
52.16963048498845
 30
0.0
 10
109.3084302968185
 20
52.5354530508343
 30
0.0
 10
109.2451173106676
 20
52.91106096627575
 30
0.0
 10
109.1598996474823
 20
53.66006620554443
 30
0.0
 10
109.1379815528038
 20
54.03554686319344
 30
0.0
 10
109.1122082970241
 20
54.78736200190858
 30
0.0
 10
109.1084448115594
 20
55.16370081642393
 30
0.0
 10
109.1051334634535
 20
55.91657771527252
 30
0.0
 10
109.1055427251732
 20
56.29311377290148
 30
0.0
 10
109.1055427251732
 20
56.66963048498845
 30
0.0
  0
SPLINE
  5
F6
330
1F
100
AcDbEntity
  8
0
  6
Continuous
 62
     7
370
    25
100
AcDbSpline
210
0.0
220
0.0
230
1.0
 70
     8
 71
     3
 72
    14
 73
    10
 74
     0
 42
0.00000001
 43
0.00000001
 40
0.0
 40
0.0
 40
0.0
 40
0.0
 40
0.2500000000000001
 40
0.2500000000000001
 40
0.5000000000000001
 40
0.5000000000000001
 40
0.75
 40
0.75
 40
1.0
 40
1.0
 40
1.0
 40
1.0
 10
94.8000946357038
 20
61.16963048498844
 30
0.0
 10
94.9026551535279
 20
60.80380791914259
 30
0.0
 10
94.9659681396788
 20
60.42820000370113
 30
0.0
 10
95.05118580286407
 20
59.67919476443245
 30
0.0
 10
95.07310389754258
 20
59.30371410678344
 30
0.0
 10
95.09887715332229
 20
58.5518989680683
 30
0.0
 10
95.10264063878694
 20
58.17556015355294
 30
0.0
 10
95.10595198689283
 20
57.42268325470436
 30
0.0
 10
95.10554272517318
 20
57.04614719707541
 30
0.0
 10
95.10554272517318
 20
56.66963048498843
 30
0.0
  0
LINE
  5
F7
330
1F
100
AcDbEntity
  8
0
  6
Continuous
 62
     7
370
    25
100
AcDbLine
 10
94.8000946357
 20
61.169630485
 30
0.0
 11
94.3764566581
 21
61.0508610749
 31
0.0
  0
SPLINE
  5
F8
330
1F
100
AcDbEntity
  8
0
  6
Continuous
 62
     7
370
    25
100
AcDbSpline
210
0.0
220
0.0
230
1.0
 70
     8
 71
     3
 72
    14
 73
    10
 74
     0
 42
0.00000001
 43
0.00000001
 40
0.0
 40
0.0
 40
0.0
 40
0.0
 40
0.25
 40
0.25
 40
0.5
 40
0.5
 40
0.75
 40
0.75
 40
1.0
 40
1.0
 40
1.0
 40
1.0
 10
94.97594122563461
 20
51.66963048498845
 30
0.0
 10
94.93746574201303
 20
51.66963048498845
 30
0.0
 10
94.89637682054301
 20
51.68041705597167
 30
0.0
 10
94.81709397310244
 20
51.72334884303682
 30
0.0
 10
94.77981107199199
 20
51.75476635134169
 30
0.0
 10
94.72700531268022
 20
51.84608119691791
 30
0.0
 10
94.71503605258658
 20
51.90731167968217
 30
0.0
 10
94.73503784095874
 20
52.03817504033789
 30
0.0
 10
94.76449429651105
 20
52.10613915467547
 30
0.0
 10
94.8000946357038
 20
52.16963048498845
 30
0.0
  0
ARC
  5
F9
330
1F
100
AcDbEntity
  8
0
  6
Continuous
 62
     7
370
    25
100
AcDbCircle
 10
94.9844898092
 20
51.1862606743
 30
0.0
 40
0.4834453973191716
100
AcDbArc
 50
91.0131925738
 51
170.032425387
  0
SPLINE
  5
FA
330
1F
100
AcDbEntity
  8
0
  6
Continuous
 62
     7
370
    25
100
AcDbSpline
210
0.0
220
0.0
230
1.0
 70
     8
 71
     3
 72
    14
 73
    10
 74
     0
 42
0.00000001
 43
0.00000001
 40
0.0
 40
0.0
 40
0.0
 40
0.0
 40
0.25
 40
0.25
 40
0.5
 40
0.5
 40
0.75
 40
0.75
 40
1.0
 40
1.0
 40
1.0
 40
1.0
 10
109.2351442247118
 20
61.66963048498844
 30
0.0
 10
109.2736197083333
 20
61.66963048498844
 30
0.0
 10
109.3147086298034
 20
61.65884391400522
 30
0.0
 10
109.3939914772439
 20
61.61591212694007
 30
0.0
 10
109.4312743783544
 20
61.5844946186352
 30
0.0
 10
109.4840801376662
 20
61.49317977305898
 30
0.0
 10
109.4960493977598
 20
61.43194929029472
 30
0.0
 10
109.4760476093876
 20
61.30108592963899
 30
0.0
 10
109.4465911538353
 20
61.23312181530141
 30
0.0
 10
109.4109908146426
 20
61.16963048498844
 30
0.0
  0
ARC
  5
FB
330
1F
100
AcDbEntity
  8
0
  6
Continuous
 62
     7
370
    25
100
AcDbCircle
 10
109.2265956412
 20
62.1530002957
 30
0.0
 40
0.4834453973191935
100
AcDbArc
 50
271.0131925738
 51
350.032425387
  0
SPLINE
  5
FC
330
1F
100
AcDbEntity
  8
0
  6
Continuous
 62
     7
370
    25
100
AcDbSpline
210
0.0
220
0.0
230
1.0
 70
     8
 71
     3
 72
    16
 73
    12
 74
     0
 42
0.00000001
 43
0.00000001
 40
0.0
 40
0.0
 40
0.0
 40
0.0
 40
0.2500000000000049
 40
0.2500000000000049
 40
0.3750000000000051
 40
0.3750000000000051
 40
0.5000000000000052
 40
0.5000000000000052
 40
0.7500000000000026
 40
0.7500000000000026
 40
1.0
 40
1.0
 40
1.0
 40
1.0
 10
94.8000946357038
 20
61.16963048498844
 30
0.0
 10
94.76454070625515
 20
61.23303904596663
 30
0.0
 10
94.73526856502646
 20
61.30030634628746
 30
0.0
 10
94.72005601480558
 20
61.39874565742979
 30
0.0
 10
94.71999534663205
 20
61.43122106378508
 30
0.0
 10
94.73020593110937
 20
61.48984627091128
 30
0.0
 10
94.73998926063459
 20
61.51546908246426
 30
0.0
 10
94.77915380916654
 20
61.58367792615972
 30
0.0
 10
94.8170268824398
 20
61.61584068132549
 30
0.0
 10
94.89609985543139
 20
61.65872890044138
 30
0.0
 10
94.9374869880222
 20
61.66963048498844
 30
0.0
 10
94.97594122563461
 20
61.66963048498844
 30
0.0
  0
ARC
  5
FD
330
1F
100
AcDbEntity
  8
0
  6
Continuous
 62
     7
370
    25
100
AcDbCircle
 10
94.9844898092
 20
62.1530002957
 30
0.0
 40
0.4834453973191529
100
AcDbArc
 50
189.967574613
 51
268.9868074262
  0
ARC
  5
FE
330
1F
100
AcDbEntity
  8
0
  6
Continuous
 62
     7
370
    25
100
AcDbCircle
 10
109.2265956412
 20
51.1862606743
 30
0.0
 40
0.483445397319206
100
AcDbArc
 50
9.967574613
 51
88.9868074262
  0
SPLINE
  5
FF
330
1F
100
AcDbEntity
  8
0
  6
Continuous
 62
     7
370
    25
100
AcDbSpline
210
0.0
220
0.0
230
1.0
 70
     8
 71
     3
 72
    16
 73
    12
 74
     0
 42
0.00000001
 43
0.00000001
 40
0.0
 40
0.0
 40
0.0
 40
0.0
 40
0.2499999999999999
 40
0.2499999999999999
 40
0.3750000000000003
 40
0.3750000000000003
 40
0.5000000000000007
 40
0.5000000000000007
 40
0.7500000000000003
 40
0.7500000000000003
 40
1.0
 40
1.0
 40
1.0
 40
1.0
 10
109.4109908146426
 20
52.16963048498845
 30
0.0
 10
109.4465447440912
 20
52.10622192401025
 30
0.0
 10
109.4758168853199
 20
52.03895462368943
 30
0.0
 10
109.4910294355408
 20
51.94051531254709
 30
0.0
 10
109.4910901037143
 20
51.9080399061918
 30
0.0
 10
109.480879519237
 20
51.8494146990656
 30
0.0
 10
109.4710961897118
 20
51.82379188751261
 30
0.0
 10
109.4319316411798
 20
51.75558304381717
 30
0.0
 10
109.3940585679066
 20
51.72342028865139
 30
0.0
 10
109.314985594915
 20
51.6805320695355
 30
0.0
 10
109.2735984623242
 20
51.66963048498845
 30
0.0
 10
109.2351442247118
 20
51.66963048498845
 30
0.0
  0
LINE
  5
100
330
1F
100
AcDbEntity
  8
0
  6
Continuous
 62
     7
370
    25
100
AcDbLine
 10
109.4109908146
 20
61.169630485
 30
0.0
 11
94.8000946357
 21
61.169630485
 31
0.0
  0
LINE
  5
101
330
1F
100
AcDbEntity
  8
0
  6
Continuous
 62
     7
370
    25
100
AcDbLine
 10
94.9759412256
 20
61.669630485
 30
0.0
 11
109.2351442247
 21
61.669630485
 31
0.0
  0
LINE
  5
102
330
1F
100
AcDbEntity
  8
0
  6
Continuous
 62
     7
370
    25
100
AcDbLine
 10
109.2351442247
 20
51.669630485
 30
0.0
 11
94.9759412256
 21
51.669630485
 31
0.0
  0
LINE
  5
103
330
1F
100
AcDbEntity
  8
0
  6
Continuous
 62
     7
370
    25
100
AcDbLine
 10
94.8000946357
 20
52.169630485
 30
0.0
 11
109.4109908146
 21
52.169630485
 31
0.0
  0
ELLIPSE
  5
104
330
1F
100
AcDbEntity
  8
0
  6
Continuous
 62
     7
370
    25
100
AcDbEllipse
 10
98.8115992442
 20
56.1791642348
 30
0.0
 11
0.06784129479237322
 21
0.0
 31
0.0
210
0.0
220
0.0
230
1.0
 40
0.9533039403
 41
2.79856871130715
 42
4.712388980384703
  0
LINE
  5
105
330
1F
100
AcDbEntity
  8
0
  6
Continuous
 62
     7
370
    25
100
AcDbLine
 10
98.9906495985
 20
56.849382338
 30
0.0
 11
98.7477102536
 21
56.2009162444
 31
0.0
  0
ELLIPSE
  5
106
330
1F
100
AcDbEntity
  8
0
  6
Continuous
 62
     7
370
    25
100
AcDbEllipse
 10
99.0545385891
 20
56.8276303284
 30
0.0
 11
0.06784129479271428
 21
0.0
 31
0.0
210
0.0
220
0.0
230
1.0
 40
0.9533039403
 41
0.3430239385580566
 42
2.79856871130884
  0
LINE
  5
107
330
1F
100
AcDbEntity
  8
0
  6
Continuous
 62
     7
370
    25
100
AcDbLine
 10
99.3613669219
 20
56.2009162442
 30
0.0
 11
99.1184275798
 21
56.8493823378
 31
0.0
  0
ELLIPSE
  5
108
330
1F
100
AcDbEntity
  8
0
  6
Continuous
 62
     7
370
    25
100
AcDbEllipse
 10
99.2974779312
 20
56.1791642348
 30
0.0
 11
-0.06784129479235901
 21
0.0
 31
0.0
210
0.0
220
0.0
230
1.0
 40
0.9533039403
 41
1.570796326794897
 42
3.484616592149589
  0
LINE
  5
109
330
1F
100
AcDbEntity
  8
0
  6
Continuous
 62
     7
370
    25
100
AcDbLine
 10
98.8115992442
 20
56.1144908612
 30
0.0
 11
99.2974779312
 21
56.1144908612
 31
0.0
  0
ARC
  5
10A
330
1F
100
AcDbEntity
  8
0
  6
Continuous
 62
     7
370
    25
100
AcDbCircle
 10
105.968908811
 20
55.8645843445
 30
0.0
 40
0.7112000000000839
100
AcDbArc
 50
200.9248324276
 51
315.0
  0
LINE
  5
10B
330
1F
100
AcDbEntity
  8
0
  6
Continuous
 62
     7
370
    25
100
AcDbLine
 10
106.8450914623
 20
54.9884016932
 30
0.0
 11
106.4718031538
 21
55.3616900017
 31
0.0
  0
LINE
  5
10C
330
1F
100
AcDbEntity
  8
0
  6
Continuous
 62
     7
370
    25
100
AcDbLine
 10
100.7241276828
 20
54.6412596855
 30
0.0
 11
101.3611426104
 21
55.8557973666
 31
0.0
  0
ELLIPSE
  5
10D
330
1F
100
AcDbEntity
  8
0
  6
Continuous
 62
     7
370
    25
100
AcDbEllipse
 10
101.0487478114
 20
56.2804993997
 30
0.0
 11
0.5427303583402932
 21
3.552713678800501E-13
 31
0.0
210
0.0
220
0.0
230
1.0
 40
0.9533039404
 41
3.470145824142405
 42
5.252469180527877
  0
ELLIPSE
  5
10E
330
1F
100
AcDbEntity
  8
0
  6
Continuous
 62
     7
370
    25
100
AcDbEllipse
 10
99.0545385875
 20
58.7216362362
 30
0.0
 11
0.5215299537176605
 21
0.0
 31
0.0
210
0.0
220
0.0
230
1.0
 40
0.9533039403
 41
0.4357918987553298
 42
2.705800754834466
  0
LINE
  5
10F
330
1F
100
AcDbEntity
  8
0
  6
Continuous
 62
     7
370
    25
100
AcDbLine
 10
98.5817528866
 20
58.9315085911
 30
0.0
 11
97.5742640138
 21
56.1142087948
 31
0.0
  0
ELLIPSE
  5
110
330
1F
100
AcDbEntity
  8
0
  6
Continuous
 62
     7
370
    25
100
AcDbEllipse
 10
97.0605642002
 20
56.2811560868
 30
0.0
 11
-0.5427303583406342
 21
3.552713678800501E-13
 31
0.0
210
0.0
220
0.0
230
1.0
 40
0.9533039403
 41
1.047197551196587
 42
2.813039483039307
  0
LINE
  5
111
330
1F
100
AcDbEntity
  8
0
  6
Continuous
 62
     7
370
    25
100
AcDbLine
 10
96.7479345646
 20
55.8557973666
 30
0.0
 11
97.3849494922
 21
54.6412596855
 31
0.0
  0
LINE
  5
112
330
1F
100
AcDbEntity
  8
0
  6
Continuous
 62
     7
370
    25
100
AcDbLine
 10
106.4718031538
 20
56.3674786873
 30
0.0
 11
106.8450914623
 21
56.7407669958
 31
0.0
  0
ARC
  5
113
330
1F
100
AcDbEntity
  8
0
  6
Continuous
 62
     7
370
    25
100
AcDbCircle
 10
105.968908811
 20
55.8645843445
 30
0.0
 40
0.7112000000000388
100
AcDbArc
 50
45.0
 51
159.0751675723
  0
LINE
  5
114
330
1F
100
AcDbEntity
  8
0
  6
Continuous
 62
     7
370
    25
100
AcDbLine
 10
106.8450914623
 20
56.1185843445
 30
0.0
 11
105.3046126121
 21
56.1185843445
 31
0.0
  0
ELLIPSE
  5
115
330
1F
100
AcDbEntity
  8
0
  6
Continuous
 62
     7
370
    25
100
AcDbEllipse
 10
100.6634485841
 20
54.6701824974
 30
0.0
 11
0.06784129479235901
 21
0.0
 31
0.0
210
0.0
220
0.0
230
1.0
 40
0.9533039403
 41
3.962594650555222
 42
5.81953769817474
  0
ELLIPSE
  5
116
330
1F
100
AcDbEntity
  8
0
  6
Continuous
 62
     7
370
    25
100
AcDbEllipse
 10
99.0545385875
 20
53.023103601
 30
0.0
 11
2.293035763987604
 21
-1.058708676282549E-12
 31
0.0
210
0.0
220
0.0
230
1.0
 40
0.9533039403
 41
0.8210019969645971
 42
2.320590656625118
  0
ARC
  5
117
330
1F
100
AcDbEntity
  8
0
  6
Continuous
 62
     7
370
    25
100
AcDbCircle
 10
105.968908811
 20
55.8645843445
 30
0.0
 40
1.239109388553836
100
AcDbArc
 50
45.0
 51
315.0
  0
LINE
  5
118
330
1F
100
AcDbEntity
  8
0
  6
Continuous
 62
     7
370
    25
100
AcDbLine
 10
100.5350479978
 20
56.1135521077
 30
0.0
 11
99.5273242884
 21
58.9315085911
 31
0.0
  0
LINE
  5
119
330
1F
100
AcDbEntity
  8
0
  6
Continuous
 62
     7
370
    25
100
AcDbLine
 10
103.7980874767
 20
56.3674786873
 30
0.0
 11
104.1713757852
 21
56.7407669958
 31
0.0
  0
ARC
  5
11A
330
1F
100
AcDbEntity
  8
0
  6
Continuous
 62
     7
370
    25
100
AcDbCircle
 10
103.295193134
 20
55.8645843445
 30
0.0
 40
0.7111999999997624
100
AcDbArc
 50
45.0
 51
315.0
  0
LINE
  5
11B
330
1F
100
AcDbEntity
  8
0
  6
Continuous
 62
     7
370
    25
100
AcDbLine
 10
104.1713757852
 20
54.9884016932
 30
0.0
 11
103.7980874767
 21
55.3616900017
 31
0.0
  0
LINE
  5
11C
330
1F
100
AcDbEntity
  8
0
  6
Continuous
 62
     7
370
    25
100
AcDbLine
 10
96.789199021
 20
55.8330858106
 30
0.0
 11
96.7479345646
 21
55.8557973666
 31
0.0
  0
LINE
  5
11D
330
1F
100
AcDbEntity
  8
0
  6
Continuous
 62
     7
370
    25
100
AcDbLine
 10
105.3046126121
 20
55.6105843445
 30
0.0
 11
106.8450914623
 21
55.6105843445
 31
0.0
  0
ELLIPSE
  5
11E
330
1F
100
AcDbEntity
  8
0
  6
Continuous
 62
     7
370
    25
100
AcDbEllipse
 10
97.4456285909
 20
54.6701824974
 30
0.0
 11
0.06784129479235901
 21
0.0
 31
0.0
210
0.0
220
0.0
230
1.0
 40
0.9533039403
 41
3.605240262580685
 42
5.462183310226797
  0
ARC
  5
11F
330
1F
100
AcDbEntity
  8
0
  6
Continuous
 62
     7
370
    25
100
AcDbCircle
 10
103.295193134
 20
55.8645843445
 30
0.0
 40
1.239109388553836
100
AcDbArc
 50
45.0
 51
315.0
  0
LINE
  5
120
330
1F
100
AcDbEntity
  8
0
  6
Continuous
 62
     7
370
    25
100
AcDbLine
 10
106.8450914623
 20
55.6105843445
 30
0.0
 11
106.8450914623
 21
56.1185843445
 31
0.0
  0
LINE
  5
121
330
1F
100
AcDbEntity
  8
0
  6
Continuous
 62
     7
370
    25
100
AcDbLine
 10
101.3611426104
 20
55.8557973666
 30
0.0
 11
101.327822355
 21
55.8367534227
 31
0.0
  0
ARC
  5
122
330
1F
100
AcDbEntity
  8
0
  6
Continuous
 62
     7
370
    25
100
AcDbCircle
 10
109.1055427252
 20
51.169630485
 30
0.0
 40
0.5
100
AcDbArc
 50
0.0
 51
90.0
  0
ARC
  5
123
330
1F
100
AcDbEntity
  8
0
  6
Continuous
 62
     7
370
    25
100
AcDbCircle
 10
95.1055427252
 20
51.169630485
 30
0.0
 40
0.5
100
AcDbArc
 50
90.0
 51
180.0
  0
ARC
  5
124
330
1F
100
AcDbEntity
  8
0
  6
Continuous
 62
     7
370
    25
100
AcDbCircle
 10
109.1055427252
 20
62.169630485
 30
0.0
 40
0.5
100
AcDbArc
 50
270.0
 51
0.0
  0
ARC
  5
125
330
1F
100
AcDbEntity
  8
0
  6
Continuous
 62
     7
370
    25
100
AcDbCircle
 10
95.1055427252
 20
62.169630485
 30
0.0
 40
0.5
100
AcDbArc
 50
180.0
 51
270.0
  0
LWPOLYLINE
  5
126
330
1F
100
AcDbEntity
  8
0
  6
Continuous
 62
     7
370
    25
100
AcDbPolyline
 90
        9
 70
   128
 43
0.0
 10
109.1055427252
 20
61.8640749294
 10
109.2030878862
 20
61.8699460938
 10
109.2968844414
 20
61.8873339612
 10
109.3833278417
 20
61.9155703257
 10
109.4590961158
 20
61.9535700796
 10
109.5212775313
 20
61.9998729138
 10
109.5674824914
 20
62.0526994362
 10
109.5959353654
 20
62.1100195533
 10
109.6055427252
 20
62.169630485
  0
LINE
  5
127
330
1F
100
AcDbEntity
  8
0
  6
Continuous
 62
     7
370
    25
100
AcDbLine
 10
109.1055427252
 20
61.669630485
 30
0.0
 11
109.1055427252
 21
61.8640749294
 31
0.0
  0
LWPOLYLINE
  5
128
330
1F
100
AcDbEntity
  8
0
  6
Continuous
 62
     7
370
    25
100
AcDbPolyline
 90
        9
 70
   128
 43
0.0
 10
95.1055427252
 20
51.4751860405
 10
95.0079975642
 20
51.4693148762
 10
94.914201009
 20
51.4519270088
 10
94.8277576087
 20
51.4236906443
 10
94.7519893346
 20
51.3856908904
 10
94.689807919
 20
51.3393880562
 10
94.6436029589
 20
51.2865615338
 10
94.615150085
 20
51.2292414167
 10
94.6055427252
 20
51.169630485
  0
LWPOLYLINE
  5
129
330
1F
100
AcDbEntity
  8
0
  6
Continuous
 62
     7
370
    25
100
AcDbPolyline
 90
        9
 70
   128
 43
0.0
 10
94.6055427252
 20
62.169630485
 10
94.615150085
 20
62.1100195533
 10
94.6436029589
 20
62.0526994362
 10
94.689807919
 20
61.9998729138
 10
94.7519893346
 20
61.9535700796
 10
94.8277576087
 20
61.9155703257
 10
94.914201009
 20
61.8873339612
 10
95.0079975642
 20
61.8699460938
 10
95.1055427252
 20
61.8640749294
  0
LINE
  5
12A
330
1F
100
AcDbEntity
  8
0
  6
Continuous
 62
     7
370
    25
100
AcDbLine
 10
95.1055427252
 20
61.669630485
 30
0.0
 11
95.1055427252
 21
61.8640749294
 31
0.0
  0
LINE
  5
12B
330
1F
100
AcDbEntity
  8
0
  6
Continuous
 62
     7
370
    25
100
AcDbLine
 10
95.1055427252
 20
51.4751860405
 30
0.0
 11
95.1055427252
 21
51.669630485
 31
0.0
  0
LINE
  5
12C
330
1F
100
AcDbEntity
  8
0
  6
Continuous
 62
     7
370
    25
100
AcDbLine
 10
109.1055427252
 20
51.4751860405
 30
0.0
 11
95.1055427252
 21
51.4751860405
 31
0.0
  0
LINE
  5
12D
330
1F
100
AcDbEntity
  8
0
  6
Continuous
 62
     7
370
    25
100
AcDbLine
 10
109.1055427252
 20
51.4751860405
 30
0.0
 11
109.1055427252
 21
51.669630485
 31
0.0
  0
LWPOLYLINE
  5
12E
330
1F
100
AcDbEntity
  8
0
  6
Continuous
 62
     7
370
    25
100
AcDbPolyline
 90
        9
 70
   128
 43
0.0
 10
109.6055427252
 20
51.169630485
 10
109.5959353654
 20
51.2292414167
 10
109.5674824914
 20
51.2865615338
 10
109.5212775313
 20
51.3393880562
 10
109.4590961158
 20
51.3856908904
 10
109.3833278417
 20
51.4236906443
 10
109.2968844414
 20
51.4519270088
 10
109.2030878862
 20
51.4693148762
 10
109.1055427252
 20
51.4751860405
  0
LINE
  5
12F
330
1F
100
AcDbEntity
  8
0
  6
Continuous
 62
     7
370
    25
100
AcDbLine
 10
95.1055427252
 20
61.8640749294
 30
0.0
 11
109.1055427252
 21
61.8640749294
 31
0.0
  0
LINE
  5
130
330
1F
100
AcDbEntity
  8
0
  6
Continuous
 62
     7
370
    25
100
AcDbLine
 10
122.1055427252
 20
56.669630485
 30
0.0
 11
122.1055427252
 21
50.669630485
 31
0.0
  0
LINE
  5
131
330
1F
100
AcDbEntity
  8
0
  6
Continuous
 62
     7
370
    25
100
AcDbLine
 10
122.1055427252
 20
62.669630485
 30
0.0
 11
122.1055427252
 21
56.669630485
 31
0.0
  0
LINE
  5
132
330
1F
100
AcDbEntity
  8
0
  6
Continuous
 62
     7
370
    25
100
AcDbLine
 10
121.6055427252
 20
56.669630485
 30
0.0
 11
121.6055427252
 21
63.169630485
 31
0.0
  0
LINE
  5
133
330
1F
100
AcDbEntity
  8
0
  6
Continuous
 62
     7
370
    25
100
AcDbLine
 10
121.6055427252
 20
50.169630485
 30
0.0
 11
121.6055427252
 21
56.669630485
 31
0.0
  0
SPLINE
  5
134
330
1F
100
AcDbEntity
  8
0
  6
Continuous
 62
     7
370
    25
100
AcDbSpline
210
0.0
220
0.0
230
1.0
 70
    11
 71
     3
 72
    26
 73
    22
 74
     0
 42
0.00000001
 43
0.00000001
 40
0.0
 40
0.0
 40
0.0
 40
0.0
 40
0.125
 40
0.125
 40
0.1875
 40
0.1875
 40
0.25
 40
0.25
 40
0.3125
 40
0.3125
 40
0.375
 40
0.375
 40
0.5
 40
0.5
 40
0.625
 40
0.625
 40
0.75
 40
0.75
 40
0.875
 40
0.875
 40
1.0
 40
1.0
 40
1.0
 40
1.0
 10
102.6188616940216
 20
64.66963048498845
 30
0.0
 10
102.6188616940216
 20
64.80874951621726
 30
0.0
 10
102.5660657228726
 20
64.94447721919275
 30
0.0
 10
102.4246101329953
 20
65.09749595568852
 30
0.0
 10
102.3680561966234
 20
65.13899885670905
 30
0.0
 10
102.24251204518
 20
65.19619875050275
 30
0.0
 10
102.173360432072
 20
65.21148273924707
 30
0.0
 10
102.0362020573285
 20
65.21126186548342
 30
0.0
 10
101.9670874745224
 20
65.19570180419578
 30
0.0
 10
101.8423277058913
 20
65.13849596970175
 30
0.0
 10
101.7856966175568
 20
65.0967445424348
 30
0.0
 10
101.6455829910339
 20
64.94490367415136
 30
0.0
 10
101.5922624570873
 20
64.8088513468835
 30
0.0
 10
101.5921850985112
 20
64.53071865318013
 30
0.0
 10
101.6458734805329
 20
64.39391664316014
 30
0.0
 10
101.8325682948406
 20
64.1918478394951
 30
0.0
 10
101.9684495042041
 20
64.12767807980954
 30
0.0
 10
102.2440806382426
 20
64.12809913261054
 30
0.0
 10
102.3790556766563
 20
64.19236781503386
 30
0.0
 10
102.5649031537223
 20
64.393645366258
 30
0.0
 10
102.6188616940216
 20
64.53051145375963
 30
0.0
 10
102.6188616940216
 20
64.66963048498845
 30
0.0
  0
SPLINE
  5
135
330
1F
100
AcDbEntity
  8
0
  6
Continuous
 62
     7
370
    25
100
AcDbSpline
210
0.0
220
0.0
230
1.0
 70
    11
 71
     3
 72
    38
 73
    34
 74
     0
 42
0.00000001
 43
0.00000001
 40
0.0
 40
0.0
 40
0.0
 40
0.0
 40
0.0625
 40
0.0625
 40
0.125
 40
0.125
 40
0.1874999999999999
 40
0.1874999999999999
 40
0.2499999999999999
 40
0.2499999999999999
 40
0.3125
 40
0.3125
 40
0.375
 40
0.375
 40
0.4375000000000001
 40
0.4375000000000001
 40
0.5000000000000001
 40
0.5000000000000001
 40
0.5625000000000001
 40
0.5625000000000001
 40
0.6250000000000001
 40
0.6250000000000001
 40
0.6875000000000001
 40
0.6875000000000001
 40
0.75
 40
0.75
 40
0.8125
 40
0.8125
 40
0.875
 40
0.875
 40
0.9375
 40
0.9375
 40
1.0
 40
1.0
 40
1.0
 40
1.0
 10
101.1055427251732
 20
64.66963048498843
 30
0.0
 10
101.1055427251732
 20
64.53724457007813
 30
0.0
 10
101.131691276316
 20
64.40735724359944
 30
0.0
 10
101.2321569457738
 20
64.16527824901357
 30
0.0
 10
101.3064418121704
 20
64.05449689495754
 30
0.0
 10
101.4905909919051
 20
63.87038961485178
 30
0.0
 10
101.6019666144994
 20
63.79592094355578
 30
0.0
 10
101.8425151190332
 20
63.69609376742709
 30
0.0
 10
101.9742730150207
 20
63.66970584735378
 30
0.0
 10
102.2356617071845
 20
63.66955545366695
 30
0.0
 10
102.3668337777762
 20
63.69549527407699
 30
0.0
 10
102.6092714637759
 20
63.79586290650227
 30
0.0
 10
102.7193256319255
 20
63.8692518096475
 30
0.0
 10
102.9055789493364
 20
64.05540127647704
 30
0.0
 10
102.9790052772295
 20
64.16543979387704
 30
0.0
 10
103.0793700248584
 20
64.40732251096571
 30
0.0
 10
103.1054912891547
 20
64.53859702947703
 30
0.0
 10
103.1055940066399
 20
64.79987767884955
 30
0.0
 10
103.0793503785462
 20
64.93169308236247
 30
0.0
 10
102.979682021748
 20
65.17248100044395
 30
0.0
 10
102.9054012297795
 20
65.28381320184194
 30
0.0
 10
102.7212144893459
 20
65.46834339703696
 30
0.0
 10
102.6107909152833
 20
65.54252972631072
 30
0.0
 10
102.3684062000434
 20
65.64335098528089
 30
0.0
 10
102.238482020477
 20
65.66952521458593
 30
0.0
 10
101.97419191096
 20
65.66973512457282
 30
0.0
 10
101.843958152298
 20
65.64364740220965
 30
0.0
 10
101.6020654811273
 20
65.54349895823105
 30
0.0
 10
101.4910495557207
 20
65.46921266306589
 30
0.0
 10
101.3068818197407
 20
65.28532056362911
 30
0.0
 10
101.2322831482386
 20
65.17399041307509
 30
0.0
 10
101.1322323346935
 20
64.93350187326647
 30
0.0
 10
101.1055427251732
 20
64.80201639989875
 30
0.0
 10
101.1055427251732
 20
64.66963048498843
 30
0.0
  0
LINE
  5
136
330
1F
100
AcDbEntity
  8
0
  6
Continuous
 62
     7
370
    25
100
AcDbLine
 10
109.1055427252
 20
61.8640749294
 30
0.0
 11
109.1055427252
 21
65.169630485
 31
0.0
  0
LINE
  5
137
330
1F
100
AcDbEntity
  8
0
  6
Continuous
 62
     7
370
    25
100
AcDbLine
 10
95.1055427252
 20
51.4751860405
 30
0.0
 11
95.1055427252
 21
48.169630485
 31
0.0
  0
LINE
  5
138
330
1F
100
AcDbEntity
  8
0
  6
Continuous
 62
     7
370
    25
100
AcDbLine
 10
95.1055427252
 20
65.169630485
 30
0.0
 11
95.1055427252
 21
61.8640749294
 31
0.0
  0
LINE
  5
139
330
1F
100
AcDbEntity
  8
0
  6
Continuous
 62
     7
370
    25
100
AcDbLine
 10
109.1055427252
 20
48.169630485
 30
0.0
 11
109.1055427252
 21
51.4751860405
 31
0.0
  0
SPLINE
  5
13A
330
1F
100
AcDbEntity
  8
0
  6
Continuous
 62
     7
370
    25
100
AcDbSpline
210
0.0
220
0.0
230
1.0
 70
     8
 71
     3
 72
    32
 73
    28
 74
     0
 42
0.00000001
 43
0.00000001
 40
0.0
 40
0.0
 40
0.0
 40
0.0
 40
0.0401450235848357
 40
0.0814946510747366
 40
0.1230108374273918
 40
0.1655335881087852
 40
0.213102689944118
 40
0.2616869956899938
 40
0.3186512837064658
 40
0.3479268696243464
 40
0.3771976325562726
 40
0.4187548087056146
 40
0.4612652019558922
 40
0.5031787598671369
 40
0.5464778200637773
 40
0.5837150053189375
 40
0.6216789039917089
 40
0.649608003238977
 40
0.6775412817538382
 40
0.7348752066615024
 40
0.7907587055724206
 40
0.8195305177303107
 40
0.848297267517085
 40
0.8930422512982819
 40
0.939068727387773
 40
0.9835429316127413
 40
1.0
 40
1.0
 40
1.0
 40
1.0
 10
108.5055427251732
 20
65.16963048498845
 30
0.0
 10
108.4942239148048
 20
65.1620118030062
 30
0.0
 10
108.4712466583685
 20
65.14654583053066
 30
0.0
 10
108.2865702258721
 20
65.02332655429375
 30
0.0
 10
107.9959904534258
 20
64.83330262123533
 30
0.0
 10
107.585050164562
 20
64.57276788051635
 30
0.0
 10
107.0524182301875
 20
64.25096358621511
 30
0.0
 10
106.3639735063009
 20
63.8651039512578
 30
0.0
 10
105.672017553592
 20
63.52093543492149
 30
0.0
 10
105.0260989446199
 20
63.24689354709996
 30
0.0
 10
104.4359129187558
 20
63.02980711895226
 30
0.0
 10
103.7280201710695
 20
62.82425797146431
 30
0.0
 10
102.8979231678313
 20
62.67482028543149
 30
0.0
 10
102.0311283097857
 20
62.62723740076909
 30
0.0
 10
101.2020504971951
 20
62.6907056417569
 30
0.0
 10
100.4263082379488
 20
62.840931146006
 30
0.0
 10
99.7829913712059
 20
63.02834025907875
 30
0.0
 10
99.22813995369779
 20
63.23027498060507
 30
0.0
 10
98.59141052832452
 20
63.4967064437384
 30
0.0
 10
97.86130973565108
 20
63.85613300106633
 30
0.0
 10
97.22243105911184
 20
64.21509945276881
 30
0.0
 10
96.77882212302305
 20
64.48024234061594
 30
0.0
 10
96.4238915972957
 20
64.69999065252965
 30
0.0
 10
96.08056961497891
 20
64.9205411096758
 30
0.0
 10
95.82391190448925
 20
65.09015730117102
 30
0.0
 10
95.70083373160206
 20
65.17278723760016
 30
0.0
 10
95.7184608901909
 20
65.16096203342566
 30
0.0
 10
95.72322185023543
 20
65.15776813667202
 30
0.0
  0
SPLINE
  5
13B
330
1F
100
AcDbEntity
  8
0
  6
Continuous
 62
     7
370
    25
100
AcDbSpline
210
0.0
220
0.0
230
1.0
 70
     8
 71
     3
 72
    32
 73
    28
 74
     0
 42
0.00000001
 43
0.00000001
 40
0.0
 40
0.0
 40
0.0
 40
0.0
 40
0.0148226906036678
 40
0.0619098642308405
 40
0.1074419255042467
 40
0.1543358594329046
 40
0.182598153298089
 40
0.2108647534549355
 40
0.2690259379277178
 40
0.3246070981579414
 40
0.3531531900241039
 40
0.3816927019323051
 40
0.4179901534316578
 40
0.4550296659437936
 40
0.4953226362402814
 40
0.5372317715994345
 40
0.5776049808321276
 40
0.6191596213353762
 40
0.6475096399520571
 40
0.6758659597953307
 40
0.7341701314178916
 40
0.7822939425002001
 40
0.8313627427680195
 40
0.8736469360376942
 40
0.9168681617688612
 40
0.9578489936169664
 40
1.0
 40
1.0
 40
1.0
 40
1.0
 10
96.22004842738205
 20
65.65845145714344
 30
0.0
 10
96.21610443170623
 20
65.66149069678605
 30
0.0
 10
96.19963156295752
 20
65.67418467513787
 30
0.0
 10
96.31040544932235
 20
65.5887320235127
 30
0.0
 10
96.5478381562094
 20
65.40849241869553
 30
0.0
 10
96.8606561813959
 20
65.17749649337183
 30
0.0
 10
97.1857785245872
 20
64.94619830910666
 30
0.0
 10
97.59186736428536
 20
64.66694242403007
 30
0.0
 10
98.17409294952972
 20
64.2902466256705
 30
0.0
 10
98.8498841265346
 20
63.90713683860717
 30
0.0
 10
99.4364569761256
 20
63.62332159688154
 30
0.0
 10
99.95171832669651
 20
63.4071861033286
 30
0.0
 10
100.5492177766363
 20
63.20631870682784
 30
0.0
 10
101.2553067456675
 20
63.04783216190704
 30
0.0
 10
102.0266803868178
 20
62.97773550398605
 30
0.0
 10
102.8235295230904
 20
63.0260363337157
 30
0.0
 10
103.5994694864526
 20
63.18573843277557
 30
0.0
 10
104.2483651218241
 20
63.40184028234511
 30
0.0
 10
104.7894128428936
 20
63.63010721481105
 30
0.0
 10
105.3871151970719
 20
63.92032328225692
 30
0.0
 10
106.0244616201063
 20
64.28422424336297
 30
0.0
 10
106.663858431201
 20
64.69549150080127
 30
0.0
 10
107.1519018930436
 20
65.0340789825376
 30
0.0
 10
107.5337230168056
 20
65.3119626784843
 30
0.0
 10
107.8000422715372
 20
65.51197173747485
 30
0.0
 10
107.9728189080749
 20
65.64432688590163
 30
0.0
 10
107.994532903137
 20
65.66111717121507
 30
0.0
 10
108.0055427251732
 20
65.66963048498845
 30
0.0
  0
LINE
  5
13C
330
1F
100
AcDbEntity
  8
FORMAT
  6
CENTERX2
370
    18
100
AcDbLine
 10
78.009069671
 20
56.669630485
 30
0.0
 11
123.4033475429
 21
56.669630485
 31
0.0
  0
LINE
  5
13D
330
1F
100
AcDbEntity
  8
FORMAT
  6
CENTERX2
370
    18
100
AcDbLine
 10
102.1055427252
 20
46.5855641353
 30
0.0
 11
102.1055427252
 21
85.220535713
 31
0.0
  0
ARC
  5
13E
330
1F
100
AcDbEntity
  8
0
  6
Continuous
 62
     7
370
    25
100
AcDbCircle
 10
160.6756351039
 20
83.769630485
 30
0.0
 40
0.25
100
AcDbArc
 50
0.0
 51
90.0
  0
ARC
  5
13F
330
1F
100
AcDbEntity
  8
0
  6
Continuous
 62
     7
370
    25
100
AcDbCircle
 10
150.1756351039
 20
83.769630485
 30
0.0
 40
0.25
100
AcDbArc
 50
90.0
 51
180.0
  0
LINE
  5
140
330
1F
100
AcDbEntity
  8
0
  6
Continuous
 62
     7
370
    25
100
AcDbLine
 10
160.9256351039
 20
83.169630485
 30
0.0
 11
160.9256351039
 21
83.769630485
 31
0.0
  0
LINE
  5
141
330
1F
100
AcDbEntity
  8
0
  6
Continuous
 62
     7
370
    25
100
AcDbLine
 10
149.9256351039
 20
83.769630485
 30
0.0
 11
149.9256351039
 21
83.169630485
 31
0.0
  0
LINE
  5
142
330
1F
100
AcDbEntity
  8
0
  6
Continuous
 62
     7
370
    25
100
AcDbLine
 10
147.9756351039
 20
75.169630485
 30
0.0
 11
148.4256351039
 21
67.169630485
 31
0.0
  0
LINE
  5
143
330
1F
100
AcDbEntity
  8
0
  6
Continuous
 62
     7
370
    25
100
AcDbLine
 10
162.4256351039
 20
67.169630485
 30
0.0
 11
162.8756351039
 21
75.169630485
 31
0.0
  0
LINE
  5
144
330
1F
100
AcDbEntity
  8
0
  6
Continuous
 62
     7
370
    25
100
AcDbLine
 10
162.8756351039
 20
75.169630485
 30
0.0
 11
160.9256351039
 21
83.169630485
 31
0.0
  0
LINE
  5
145
330
1F
100
AcDbEntity
  8
0
  6
Continuous
 62
     7
370
    25
100
AcDbLine
 10
149.9256351039
 20
83.169630485
 30
0.0
 11
147.9756351039
 21
75.169630485
 31
0.0
  0
LINE
  5
146
330
1F
100
AcDbEntity
  8
0
  6
Continuous
 62
     7
370
    25
100
AcDbLine
 10
161.3256351039
 20
64.7436629348
 30
0.0
 11
161.3256351039
 21
67.169630485
 31
0.0
  0
LINE
  5
147
330
1F
100
AcDbEntity
  8
0
  6
Continuous
 62
     7
370
    25
100
AcDbLine
 10
149.5256351039
 20
67.169630485
 30
0.0
 11
149.5256351039
 21
65.6677241553
 31
0.0
  0
ARC
  5
148
330
1F
100
AcDbEntity
  8
0
  6
Continuous
 62
     7
370
    25
100
AcDbCircle
 10
149.7256351039
 20
65.2113729153
 30
0.0
 40
0.5000000000000135
100
AcDbArc
 50
113.6449780875
 51
180.007858636
  0
LINE
  5
149
330
1F
100
AcDbEntity
  8
0
  6
Continuous
 62
     7
370
    25
100
AcDbLine
 10
156.6756351039
 20
83.769630485
 30
0.0
 11
156.6756351039
 21
84.019630485
 31
0.0
  0
ARC
  5
14A
330
1F
100
AcDbEntity
  8
0
  6
Continuous
 62
     7
370
    25
100
AcDbCircle
 10
156.6756351039
 20
83.769630485
 30
0.0
 40
0.25
100
AcDbArc
 50
0.0
 51
90.0
  0
LINE
  5
14B
330
1F
100
AcDbEntity
  8
0
  6
Continuous
 62
     7
370
    25
100
AcDbLine
 10
156.6756351039
 20
83.769630485
 30
0.0
 11
156.9256351039
 21
83.769630485
 31
0.0
  0
LINE
  5
14C
330
1F
100
AcDbEntity
  8
0
  6
Continuous
 62
     7
370
    25
100
AcDbLine
 10
156.6756351039
 20
83.169630485
 30
0.0
 11
156.6756351039
 21
83.769630485
 31
0.0
  0
LINE
  5
14D
330
1F
100
AcDbEntity
  8
0
  6
Continuous
 62
     7
370
    25
100
AcDbLine
 10
156.9256351039
 20
83.769630485
 30
0.0
 11
156.9256351039
 21
83.169630485
 31
0.0
  0
LINE
  5
14E
330
1F
100
AcDbEntity
  8
0
  6
Continuous
 62
     7
370
    25
100
AcDbLine
 10
156.9256351039
 20
83.169630485
 30
0.0
 11
156.6756351039
 21
83.169630485
 31
0.0
  0
LINE
  5
14F
330
1F
100
AcDbEntity
  8
0
  6
Continuous
 62
     7
370
    25
100
AcDbLine
 10
156.6756351039
 20
83.769630485
 30
0.0
 11
154.1756351039
 21
83.769630485
 31
0.0
  0
LINE
  5
150
330
1F
100
AcDbEntity
  8
0
  6
Continuous
 62
     7
370
    25
100
AcDbLine
 10
154.1756351039
 20
84.019630485
 30
0.0
 11
154.1756351039
 21
83.769630485
 31
0.0
  0
LINE
  5
151
330
1F
100
AcDbEntity
  8
0
  6
Continuous
 62
     7
370
    25
100
AcDbLine
 10
154.1756351039
 20
84.019630485
 30
0.0
 11
156.6756351039
 21
84.019630485
 31
0.0
  0
LINE
  5
152
330
1F
100
AcDbEntity
  8
0
  6
Continuous
 62
     7
370
    25
100
AcDbLine
 10
154.1756351039
 20
83.769630485
 30
0.0
 11
154.1756351039
 21
83.169630485
 31
0.0
  0
LINE
  5
153
330
1F
100
AcDbEntity
  8
0
  6
Continuous
 62
     7
370
    25
100
AcDbLine
 10
156.6756351039
 20
83.169630485
 30
0.0
 11
154.1756351039
 21
83.169630485
 31
0.0
  0
ARC
  5
154
330
1F
100
AcDbEntity
  8
0
  6
Continuous
 62
     7
370
    25
100
AcDbCircle
 10
154.1756351039
 20
83.769630485
 30
0.0
 40
0.25
100
AcDbArc
 50
90.0
 51
180.0
  0
LINE
  5
155
330
1F
100
AcDbEntity
  8
0
  6
Continuous
 62
     7
370
    25
100
AcDbLine
 10
153.9256351039
 20
83.769630485
 30
0.0
 11
154.1756351039
 21
83.769630485
 31
0.0
  0
LINE
  5
156
330
1F
100
AcDbEntity
  8
0
  6
Continuous
 62
     7
370
    25
100
AcDbLine
 10
153.9256351039
 20
83.169630485
 30
0.0
 11
153.9256351039
 21
83.769630485
 31
0.0
  0
LINE
  5
157
330
1F
100
AcDbEntity
  8
0
  6
Continuous
 62
     7
370
    25
100
AcDbLine
 10
154.1756351039
 20
83.169630485
 30
0.0
 11
153.9256351039
 21
83.169630485
 31
0.0
  0
SPLINE
  5
158
330
1F
100
AcDbEntity
  8
0
  6
Continuous
 62
     7
370
    25
100
AcDbSpline
210
0.0
220
0.0
230
1.0
 70
     8
 71
     3
 72
    15
 73
    11
 74
     0
 42
0.00000001
 43
0.00000001
 40
0.0
 40
0.0
 40
0.0
 40
0.0
 40
0.0081667445812973
 40
0.332193999149081
 40
0.4756279600585566
 40
0.6866830973284902
 40
0.8457435502264811
 40
0.8967566214763184
 40
0.9909540928118028
 40
1.0
 40
1.0
 40
1.0
 40
1.0
 10
156.6756351039261
 20
84.01963048498845
 30
0.0
 10
156.6770725668651
 20
84.01962780864267
 30
0.0
 10
156.7355434248171
 20
84.01951894445597
 30
0.0
 10
156.8199686025362
 20
84.00997293218641
 30
0.0
 10
156.9345476745587
 20
83.97261054893187
 30
0.0
 10
157.0159185617553
 20
83.9277450341972
 30
0.0
 10
157.0689375537569
 20
83.8698687346203
 30
0.0
 10
157.0931394856011
 20
83.81919269464838
 30
0.0
 10
157.0993291062673
 20
83.79049841512834
 30
0.0
 10
157.0995305016798
 20
83.77131158357287
 30
0.0
 10
157.0995481474043
 20
83.76963048498845
 30
0.0
  0
LINE
  5
159
330
1F
100
AcDbEntity
  8
0
  6
Continuous
 62
     7
370
    25
100
AcDbLine
 10
156.9256351039
 20
83.769630485
 30
0.0
 11
157.0995481474
 21
83.769630485
 31
0.0
  0
LINE
  5
15A
330
1F
100
AcDbEntity
  8
0
  6
Continuous
 62
     7
370
    25
100
AcDbLine
 10
153.7517220604
 20
83.769630485
 30
0.0
 11
153.9256351039
 21
83.769630485
 31
0.0
  0
SPLINE
  5
15B
330
1F
100
AcDbEntity
  8
0
  6
Continuous
 62
     7
370
    25
100
AcDbSpline
210
0.0
220
0.0
230
1.0
 70
     8
 71
     3
 72
    15
 73
    11
 74
     0
 42
0.00000001
 43
0.00000001
 40
0.0
 40
0.0
 40
0.0
 40
0.0
 40
0.0090459071881971
 40
0.1032433785236875
 40
0.1542564497735192
 40
0.3133169026715105
 40
0.5243720399414424
 40
0.66780600085099
 40
0.9918332554187292
 40
1.0
 40
1.0
 40
1.0
 40
1.0
 10
153.7517220604478
 20
83.76963048498845
 30
0.0
 10
153.7517397061722
 20
83.77131158357285
 30
0.0
 10
153.7519411015848
 20
83.79049841512837
 30
0.0
 10
153.758130722251
 20
83.81919269464838
 30
0.0
 10
153.7823326540951
 20
83.8698687346203
 30
0.0
 10
153.8353516460968
 20
83.9277450341972
 30
0.0
 10
153.9167225332934
 20
83.97261054893188
 30
0.0
 10
154.0313016053158
 20
84.00997293218641
 30
0.0
 10
154.1157267830353
 20
84.01951894445598
 30
0.0
 10
154.174197640987
 20
84.01962780864267
 30
0.0
 10
154.175635103926
 20
84.01963048498845
 30
0.0
  0
LINE
  5
15C
330
1F
100
AcDbEntity
  8
0
  6
Continuous
 62
     7
370
    25
100
AcDbLine
 10
157.0995481474
 20
83.769630485
 30
0.0
 11
157.0995481474
 21
83.169630485
 31
0.0
  0
LINE
  5
15D
330
1F
100
AcDbEntity
  8
0
  6
Continuous
 62
     7
370
    25
100
AcDbLine
 10
157.0995481474
 20
83.169630485
 30
0.0
 11
156.9256351039
 21
83.169630485
 31
0.0
  0
LINE
  5
15E
330
1F
100
AcDbEntity
  8
0
  6
Continuous
 62
     7
370
    25
100
AcDbLine
 10
153.7517220604
 20
83.169630485
 30
0.0
 11
153.7517220604
 21
83.769630485
 31
0.0
  0
LINE
  5
15F
330
1F
100
AcDbEntity
  8
0
  6
Continuous
 62
     7
370
    25
100
AcDbLine
 10
153.9256351039
 20
83.169630485
 30
0.0
 11
153.7517220604
 21
83.169630485
 31
0.0
  0
LINE
  5
160
330
1F
100
AcDbEntity
  8
0
  6
Continuous
 62
     7
370
    25
100
AcDbLine
 10
156.6756351039
 20
84.019630485
 30
0.0
 11
160.6756351039
 21
84.019630485
 31
0.0
  0
LINE
  5
161
330
1F
100
AcDbEntity
  8
0
  6
Continuous
 62
     7
370
    25
100
AcDbLine
 10
150.1756351039
 20
84.019630485
 30
0.0
 11
154.1756351039
 21
84.019630485
 31
0.0
  0
LINE
  5
162
330
1F
100
AcDbEntity
  8
0
  6
Continuous
 62
     7
370
    25
100
AcDbLine
 10
157.0995481474
 20
83.169630485
 30
0.0
 11
160.9256351039
 21
83.169630485
 31
0.0
  0
LINE
  5
163
330
1F
100
AcDbEntity
  8
0
  6
Continuous
 62
     7
370
    25
100
AcDbLine
 10
149.9256351039
 20
83.169630485
 30
0.0
 11
153.7517220604
 21
83.169630485
 31
0.0
  0
LINE
  5
164
330
1F
100
AcDbEntity
  8
0
  6
Continuous
 62
     7
370
    25
100
AcDbLine
 10
154.8256351039
 20
84.019630485
 30
0.0
 11
154.8256351039
 21
84.029630485
 31
0.0
  0
LINE
  5
165
330
1F
100
AcDbEntity
  8
0
  6
Continuous
 62
     7
370
    25
100
AcDbLine
 10
156.0256351039
 20
84.019630485
 30
0.0
 11
156.0256351039
 21
84.029630485
 31
0.0
  0
LINE
  5
166
330
1F
100
AcDbEntity
  8
0
  6
Continuous
 62
     7
370
    25
100
AcDbLine
 10
154.8256351039
 20
84.029630485
 30
0.0
 11
156.0256351039
 21
84.029630485
 31
0.0
  0
LINE
  5
167
330
1F
100
AcDbEntity
  8
0
  6
Continuous
 62
     7
370
    25
100
AcDbLine
 10
148.4256351039
 20
67.169630485
 30
0.0
 11
162.4256351039
 21
67.169630485
 31
0.0
  0
LINE
  5
168
330
1F
100
AcDbEntity
  8
0
  6
Continuous
 62
     7
370
    25
100
AcDbLine
 10
147.9756351039
 20
75.169630485
 30
0.0
 11
162.8756351039
 21
75.169630485
 31
0.0
  0
LINE
  5
169
330
1F
100
AcDbEntity
  8
0
  6
Continuous
 62
     7
370
    25
100
AcDbLine
 10
158.697334368
 20
85.169630485
 30
0.0
 11
158.697334368
 21
84.019630485
 31
0.0
  0
LINE
  5
16A
330
1F
100
AcDbEntity
  8
0
  6
Continuous
 62
     7
370
    25
100
AcDbLine
 10
158.697334368
 20
85.169630485
 30
0.0
 11
158.9256351039
 21
85.169630485
 31
0.0
  0
LINE
  5
16B
330
1F
100
AcDbEntity
  8
0
  6
Continuous
 62
     7
370
    25
100
AcDbLine
 10
158.9256351039
 20
84.019630485
 30
0.0
 11
158.9256351039
 21
85.169630485
 31
0.0
  0
LINE
  5
16C
330
1F
100
AcDbEntity
  8
0
  6
Continuous
 62
     7
370
    25
100
AcDbLine
 10
151.9256351039
 20
85.169630485
 30
0.0
 11
151.9256351039
 21
84.019630485
 31
0.0
  0
LINE
  5
16D
330
1F
100
AcDbEntity
  8
0
  6
Continuous
 62
     7
370
    25
100
AcDbLine
 10
151.9256351039
 20
85.169630485
 30
0.0
 11
152.1539358399
 21
85.169630485
 31
0.0
  0
LINE
  5
16E
330
1F
100
AcDbEntity
  8
0
  6
Continuous
 62
     7
370
    25
100
AcDbLine
 10
152.1539358399
 20
85.169630485
 30
0.0
 11
152.1539358399
 21
84.019630485
 31
0.0
  0
LINE
  5
16F
330
1F
100
AcDbEntity
  8
0
  6
Continuous
 62
     7
370
    25
100
AcDbLine
 10
152.1539358399
 20
85.169630485
 30
0.0
 11
158.697334368
 21
85.169630485
 31
0.0
  0
CIRCLE
  5
170
330
1F
100
AcDbEntity
  8
0
  6
Continuous
 62
     7
370
    25
100
AcDbCircle
 10
155.4256351039
 20
56.669630485
 30
0.0
 40
6.0
  0
CIRCLE
  5
171
330
1F
100
AcDbEntity
  8
0
  6
Continuous
 62
     7
370
    25
100
AcDbCircle
 10
155.4256351039
 20
56.669630485
 30
0.0
 40
6.5
  0
CIRCLE
  5
172
330
1F
100
AcDbEntity
  8
0
  6
Continuous
 62
     7
370
    25
100
AcDbCircle
 10
155.4256351039
 20
56.669630485
 30
0.0
 40
5.000000000000028
  0
CIRCLE
  5
173
330
1F
100
AcDbEntity
  8
0
  6
Continuous
 62
     7
370
    25
100
AcDbCircle
 10
155.4256351039
 20
56.669630485
 30
0.0
 40
4.601922962747381
  0
CIRCLE
  5
174
330
1F
100
AcDbEntity
  8
0
  6
Continuous
 62
     7
370
    25
100
AcDbCircle
 10
155.4256351039
 20
56.669630485
 30
0.0
 40
4.342496910412166
  0
CIRCLE
  5
175
330
1F
100
AcDbEntity
  8
0
  6
Continuous
 62
     7
370
    25
100
AcDbCircle
 10
155.4256351039
 20
56.669630485
 30
0.0
 40
4.282999999999987
  0
CIRCLE
  5
176
330
1F
100
AcDbEntity
  8
0
  6
Continuous
 62
     7
370
    25
100
AcDbCircle
 10
155.4256351039
 20
56.669630485
 30
0.0
 40
3.0
  0
CIRCLE
  5
177
330
1F
100
AcDbEntity
  8
0
  6
Continuous
 62
     7
370
    25
100
AcDbCircle
 10
155.4256351039
 20
56.669630485
 30
0.0
 40
9.699999999999989
  0
CIRCLE
  5
178
330
1F
100
AcDbEntity
  8
0
  6
Continuous
 62
     7
370
    25
100
AcDbCircle
 10
155.4256351039
 20
56.669630485
 30
0.0
 40
10.0
  0
SPLINE
  5
179
330
1F
100
AcDbEntity
  8
0
  6
Continuous
 62
     7
370
    25
100
AcDbSpline
210
0.0
220
0.0
230
1.0
 70
     8
 71
     3
 72
    13
 73
     9
 74
     0
 42
0.00000001
 43
0.00000001
 40
0.0
 40
0.0
 40
0.0
 40
0.0
 40
0.0709002556126979
 40
0.2985326187209611
 40
0.5283503324641392
 40
0.7606230766495086
 40
0.9918193887712565
 40
0.9999999999999999
 40
0.9999999999999999
 40
0.9999999999999999
 40
0.9999999999999999
 10
149.6079033743135
 20
64.78062408157592
 30
0.0
 10
149.6078188223035
 20
64.81515306931308
 30
0.0
 10
149.6074628076074
 20
64.96054082626655
 30
0.0
 10
149.58836209066
 20
65.20021501848775
 30
0.0
 10
149.559034935426
 20
65.45968737979683
 30
0.0
 10
149.5343209817173
 20
65.61882599931324
 30
0.0
 10
149.52278294633
 20
65.68688085158375
 30
0.0
 10
149.5258457544267
 20
65.66835719395077
 30
0.0
 10
149.5259504246763
 20
65.66772415531234
 30
0.0
  0
SPLINE
  5
17A
330
1F
100
AcDbEntity
  8
0
  6
Continuous
 62
     7
370
    25
100
AcDbSpline
210
0.0
220
0.0
230
1.0
 70
    24
 71
     3
 72
    14
 73
    10
 74
     0
 42
0.00000001
 43
0.00000001
 40
0.0
 40
0.0
 40
0.0
 40
0.0
 40
0.0686782875714484
 40
0.293216909137959
 40
0.2935197863693179
 40
0.5073359099559678
 40
0.7069537562193142
 40
0.9001971037285486
 40
1.0
 40
1.0
 40
1.0
 40
1.0
 10
149.225635103926
 20
64.66963048498928
 30
0.0
 10
149.225635103926
 20
64.6884825862169
 30
0.0
 10
149.225635103926
 20
64.76897024903123
 30
0.0
 10
149.225635103926
 20
64.84865925537426
 30
0.0
 10
149.2256351039261
 20
64.95787097815057
 30
0.0
 10
149.225635103926
 20
65.05456705866082
 30
0.0
 10
149.225635103926
 20
65.15614960095097
 30
0.0
 10
149.225635103926
 20
65.2097016704053
 30
0.0
 10
149.225635103926
 20
65.20549486914042
 30
0.0
 10
149.225635103926
 20
65.20406215686658
 30
0.0
  0
SPLINE
  5
17B
330
1F
100
AcDbEntity
  8
0
  6
Continuous
 62
     7
370
    25
100
AcDbSpline
210
0.0
220
0.0
230
1.0
 70
    24
 71
     3
 72
     9
 73
     5
 74
     0
 42
0.00000001
 43
0.00000001
 40
0.0
 40
0.0
 40
0.0
 40
0.0
 40
0.3143288738672232
 40
1.0
 40
1.0
 40
1.0
 40
1.0
 10
149.225635103926
 20
64.48420808197906
 30
0.0
 10
149.225635103926
 20
64.50239135379614
 30
0.0
 10
149.225635103926
 20
64.56023927464844
 30
0.0
 10
149.225635103926
 20
64.62513402703814
 30
0.0
 10
149.225635103926
 20
64.66963048498928
 30
0.0
  0
LINE
  5
17C
330
1F
100
AcDbEntity
  8
0
  6
Continuous
 62
     7
370
    25
100
AcDbLine
 10
160.9256351039
 20
83.769630485
 30
0.0
 11
157.0995481474
 21
83.769630485
 31
0.0
  0
LINE
  5
17D
330
1F
100
AcDbEntity
  8
0
  6
Continuous
 62
     7
370
    25
100
AcDbLine
 10
153.7517220604
 20
83.769630485
 30
0.0
 11
149.9256351039
 21
83.769630485
 31
0.0
  0
INSERT
  5
189
330
1F
100
AcDbEntity
  8
FORMAT
100
AcDbBlockReference
  2
SW_CENTERMARKSYMBOL_0
 10
155.4256351039
 20
56.669630485
 30
0.0
  0
LINE
  5
18A
330
1F
100
AcDbEntity
  8
0
  6
Continuous
 62
     7
370
    25
100
AcDbLine
 10
79.2498802925
 20
124.6304849885
 30
0.0
 11
79.1055427252
 21
124.3804849885
 31
0.0
  0
LINE
  5
18B
330
1F
100
AcDbEntity
  8
0
  6
Continuous
 62
     7
370
    25
100
AcDbLine
 10
79.1055427252
 20
107.8804849885
 30
0.0
 11
79.2498802925
 21
107.6304849885
 31
0.0
  0
LINE
  5
18C
330
1F
100
AcDbEntity
  8
0
  6
Continuous
 62
     7
370
    25
100
AcDbLine
 10
91.9612051579
 20
107.6304849885
 30
0.0
 11
92.1055427252
 21
107.8804849885
 31
0.0
  0
LINE
  5
18D
330
1F
100
AcDbEntity
  8
0
  6
Continuous
 62
     7
370
    25
100
AcDbLine
 10
92.1055427252
 20
124.3804849885
 30
0.0
 11
91.9612051579
 21
124.6304849885
 31
0.0
  0
LINE
  5
18E
330
1F
100
AcDbEntity
  8
0
  6
Continuous
 62
     7
370
    25
100
AcDbLine
 10
92.3555427252
 20
106.1304849885
 30
0.0
 11
94.2235767139
 21
106.1304849885
 31
0.0
  0
LINE
  5
18F
330
1F
100
AcDbEntity
  8
0
  6
Continuous
 62
     7
370
    25
100
AcDbLine
 10
94.2235767139
 20
126.1304849885
 30
0.0
 11
92.3555427252
 21
126.1304849885
 31
0.0
  0
ARC
  5
190
330
1F
100
AcDbEntity
  8
0
  6
Continuous
 62
     7
370
    25
100
AcDbCircle
 10
111.1055427252
 20
125.1304849885
 30
0.0
 40
1.5
100
AcDbArc
 50
138.1896851042
 51
180.0
  0
ARC
  5
191
330
1F
100
AcDbEntity
  8
0
  6
Continuous
 62
     7
370
    25
100
AcDbCircle
 10
111.1055427252
 20
107.1304849885
 30
0.0
 40
1.5
100
AcDbArc
 50
180.0
 51
221.8103148958
  0
ARC
  5
192
330
1F
100
AcDbEntity
  8
0
  6
Continuous
 62
     7
370
    25
100
AcDbCircle
 10
93.1055427252
 20
107.1304849885
 30
0.0
 40
1.500000000000004
100
AcDbArc
 50
318.1896851042
 51
0.0
  0
ARC
  5
193
330
1F
100
AcDbEntity
  8
0
  6
Continuous
 62
     7
370
    25
100
AcDbCircle
 10
93.1055427252
 20
125.1304849885
 30
0.0
 40
1.500000000000004
100
AcDbArc
 50
0.0
 51
41.8103148958
  0
LINE
  5
194
330
1F
100
AcDbEntity
  8
0
  6
Continuous
 62
     7
370
    25
100
AcDbLine
 10
92.3555427252
 20
126.1304849885
 30
0.0
 11
92.1055427252
 21
125.8804849885
 31
0.0
  0
LINE
  5
195
330
1F
100
AcDbEntity
  8
0
  6
Continuous
 62
     7
370
    25
100
AcDbLine
 10
92.1055427252
 20
106.3804849885
 30
0.0
 11
92.3555427252
 21
106.1304849885
 31
0.0
  0
LINE
  5
196
330
1F
100
AcDbEntity
  8
0
  6
Continuous
 62
     7
370
    25
100
AcDbLine
 10
111.8055427252
 20
126.1304849885
 30
0.0
 11
109.9875087364
 21
126.1304849885
 31
0.0
  0
LINE
  5
197
330
1F
100
AcDbEntity
  8
0
  6
Continuous
 62
     7
370
    25
100
AcDbLine
 10
109.9875087364
 20
106.1304849885
 30
0.0
 11
111.8055427252
 21
106.1304849885
 31
0.0
  0
LINE
  5
198
330
1F
100
AcDbEntity
  8
0
  6
Continuous
 62
     7
370
    25
100
AcDbLine
 10
111.8055427252
 20
106.1304849885
 30
0.0
 11
112.1055427252
 21
106.4304849885
 31
0.0
  0
LINE
  5
199
330
1F
100
AcDbEntity
  8
0
  6
Continuous
 62
     7
370
    25
100
AcDbLine
 10
112.1055427252
 20
125.8304849885
 30
0.0
 11
111.8055427252
 21
126.1304849885
 31
0.0
  0
LINE
  5
19A
330
1F
100
AcDbEntity
  8
0
  6
Continuous
 62
     7
370
    25
100
AcDbLine
 10
121.6055427252
 20
109.6304849885
 30
0.0
 11
122.1055427252
 21
110.1304849885
 31
0.0
  0
LINE
  5
19B
330
1F
100
AcDbEntity
  8
0
  6
Continuous
 62
     7
370
    25
100
AcDbLine
 10
122.1055427252
 20
122.1304849885
 30
0.0
 11
121.6055427252
 21
122.6304849885
 31
0.0
  0
LINE
  5
19C
330
1F
100
AcDbEntity
  8
0
  6
Continuous
 62
     7
370
    25
100
AcDbLine
 10
121.6055427252
 20
122.6304849885
 30
0.0
 11
112.1055427252
 21
122.6304849885
 31
0.0
  0
LINE
  5
19D
330
1F
100
AcDbEntity
  8
0
  6
Continuous
 62
     7
370
    25
100
AcDbLine
 10
112.1055427252
 20
109.6304849885
 30
0.0
 11
121.6055427252
 21
109.6304849885
 31
0.0
  0
SPLINE
  5
19E
330
1F
100
AcDbEntity
  8
0
  6
Continuous
 62
     7
370
    25
100
AcDbSpline
210
0.0
220
0.0
230
1.0
 70
     8
 71
     3
 72
    15
 73
    11
 74
     0
 42
0.00000001
 43
0.00000001
 40
0.0
 40
0.0
 40
0.0
 40
0.0
 40
0.0090459071881971
 40
0.1032433785236877
 40
0.1542564497735194
 40
0.3133169026715105
 40
0.5243720399414432
 40
0.6678060008509185
 40
0.9918332554187028
 40
1.0
 40
1.0
 40
1.0
 40
1.0
 10
96.86645739251509
 20
117.8043980319309
 30
0.0
 10
96.86646308448175
 20
117.8043803862065
 30
0.0
 10
96.86652804843256
 20
117.8041789907939
 30
0.0
 10
96.86852373486845
 20
117.7979893701277
 30
0.0
 10
96.8763407310849
 20
117.7737874382836
 30
0.0
 10
96.89351055483985
 20
117.7207684462819
 30
0.0
 10
96.9200944514074
 20
117.6393975590853
 30
0.0
 10
96.95792374989603
 20
117.5248184870628
 30
0.0
 10
96.98620452990626
 20
117.4403933093437
 30
0.0
 10
97.00603567743754
 20
117.3819224513917
 30
0.0
 10
97.00652321158042
 20
117.3804849884527
 30
0.0
  0
ARC
  5
19F
330
1F
100
AcDbEntity
  8
0
  6
Continuous
 62
     7
370
    25
100
AcDbCircle
 10
102.1055427252
 20
116.1304849885
 30
0.0
 40
5.499999999999993
100
AcDbArc
 50
17.7189318734
 51
162.2810681266
  0
SPLINE
  5
1A0
330
1F
100
AcDbEntity
  8
0
  6
Continuous
 62
     7
370
    25
100
AcDbSpline
210
0.0
220
0.0
230
1.0
 70
     8
 71
     3
 72
    15
 73
    11
 74
     0
 42
0.00000001
 43
0.00000001
 40
0.0
 40
0.0
 40
0.0
 40
0.0
 40
0.0081667445812973
 40
0.332193999149081
 40
0.4756279600585566
 40
0.6866830973284902
 40
0.8457435502264811
 40
0.8967566214763184
 40
0.9909540928118028
 40
1.0
 40
1.0
 40
1.0
 40
1.0
 10
107.204562238766
 20
117.3804849884527
 30
0.0
 10
107.2050497729089
 20
117.3819224513917
 30
0.0
 10
107.2248809204401
 20
117.4403933093437
 30
0.0
 10
107.2531617004504
 20
117.5248184870628
 30
0.0
 10
107.290990998939
 20
117.6393975590853
 30
0.0
 10
107.3175748955065
 20
117.7207684462819
 30
0.0
 10
107.3347447192615
 20
117.7737874382836
 30
0.0
 10
107.342561715478
 20
117.7979893701277
 30
0.0
 10
107.3445574019138
 20
117.8041789907939
 30
0.0
 10
107.3446223658647
 20
117.8043803862065
 30
0.0
 10
107.3446280578313
 20
117.8043980319309
 30
0.0
  0
ARC
  5
1A1
330
1F
100
AcDbEntity
  8
0
  6
Continuous
 62
     7
370
    25
100
AcDbCircle
 10
102.1055427252
 20
116.1304849885
 30
0.0
 40
5.250000000000009
100
AcDbArc
 50
13.774146998
 51
166.225853002
  0
SPLINE
  5
1A2
330
1F
100
AcDbEntity
  8
0
  6
Continuous
 62
     7
370
    25
100
AcDbSpline
210
0.0
220
0.0
230
1.0
 70
     8
 71
     3
 72
    15
 73
    11
 74
     0
 42
0.00000001
 43
0.00000001
 40
0.0
 40
0.0
 40
0.0
 40
0.0
 40
0.0080847466189582
 40
0.3310106400648245
 40
0.4750333064304948
 40
0.6874363079215139
 40
0.8468367539418251
 40
0.9000996640391848
 40
0.9910442771984082
 40
1.0
 40
1.0
 40
1.0
 40
1.0
 10
97.00652321158042
 20
117.3804849884527
 30
0.0
 10
97.00524338003629
 20
117.3813009244409
 30
0.0
 10
96.95284373431308
 20
117.4147074746355
 30
0.0
 10
96.87748864285794
 20
117.4635210393693
 30
0.0
 10
96.7755695308403
 20
117.5308915116376
 30
0.0
 10
96.70317858584836
 20
117.5794755519811
 30
0.0
 10
96.65547315758354
 20
117.6119244134396
 30
0.0
 10
96.63393767387623
 20
117.6266354545059
 30
0.0
 10
96.6285086578567
 20
117.630353905424
 30
0.0
 10
96.62833290570013
 20
117.6304742040895
 30
0.0
 10
96.62831715012155
 20
117.6304849884527
 30
0.0
  0
ARC
  5
1A3
330
1F
100
AcDbEntity
  8
0
  6
Continuous
 62
     7
370
    25
100
AcDbCircle
 10
96.6283171501
 20
117.8804849885
 30
0.0
 40
0.25
100
AcDbArc
 50
270.0
 51
342.2810681266
  0
SPLINE
  5
1A4
330
1F
100
AcDbEntity
  8
0
  6
Continuous
 62
     7
370
    25
100
AcDbSpline
210
0.0
220
0.0
230
1.0
 70
     8
 71
     3
 72
    15
 73
    11
 74
     0
 42
0.00000001
 43
0.00000001
 40
0.0
 40
0.0
 40
0.0
 40
0.0
 40
0.0089557228015919
 40
0.0999003359608153
 40
0.1531632460581696
 40
0.3125636920784854
 40
0.5249666935695049
 40
0.668989359935177
 40
0.9919152533810449
 40
1.0
 40
1.0
 40
1.0
 40
1.0
 10
107.5827683002249
 20
117.6304849884527
 30
0.0
 10
107.5827525446463
 20
117.6304742040895
 30
0.0
 10
107.5825767924897
 20
117.630353905424
 30
0.0
 10
107.5771477764702
 20
117.6266354545059
 30
0.0
 10
107.5556122927628
 20
117.6119244134396
 30
0.0
 10
107.507906864498
 20
117.5794755519811
 30
0.0
 10
107.4355159195061
 20
117.5308915116376
 30
0.0
 10
107.3335968074884
 20
117.4635210393693
 30
0.0
 10
107.2582417160334
 20
117.4147074746354
 30
0.0
 10
107.2058420703101
 20
117.3813009244409
 30
0.0
 10
107.204562238766
 20
117.3804849884527
 30
0.0
  0
ARC
  5
1A5
330
1F
100
AcDbEntity
  8
0
  6
Continuous
 62
     7
370
    25
100
AcDbCircle
 10
107.5827683002
 20
117.8804849885
 30
0.0
 40
0.2500000000000077
100
AcDbArc
 50
197.7189318734
 51
270.0
  0
SPLINE
  5
1A6
330
1F
100
AcDbEntity
  8
0
  6
Continuous
 62
     7
370
    25
100
AcDbSpline
210
0.0
220
0.0
230
1.0
 70
     8
 71
     3
 72
    15
 73
    11
 74
     0
 42
0.00000001
 43
0.00000001
 40
0.0
 40
0.0
 40
0.0
 40
0.0
 40
0.0081667445812695
 40
0.3321939991490078
 40
0.4756279600585575
 40
0.6866830973284898
 40
0.8457435502264807
 40
0.8967566214763126
 40
0.9909540928118029
 40
1.0
 40
1.0
 40
1.0
 40
1.0
 10
97.00652321158042
 20
114.8804849884527
 30
0.0
 10
97.00603567743752
 20
114.8790475255136
 30
0.0
 10
96.98620452990545
 20
114.8205766675619
 30
0.0
 10
96.95792374989618
 20
114.7361514898424
 30
0.0
 10
96.92009445140735
 20
114.62157241782
 30
0.0
 10
96.89351055483986
 20
114.5402015306234
 30
0.0
 10
96.8763407310849
 20
114.4871825386218
 30
0.0
 10
96.86852373486843
 20
114.4629806067776
 30
0.0
 10
96.86652804843254
 20
114.4567909861114
 30
0.0
 10
96.86646308448175
 20
114.4565895906989
 30
0.0
 10
96.86645739251509
 20
114.4565719449744
 30
0.0
  0
ARC
  5
1A7
330
1F
100
AcDbEntity
  8
0
  6
Continuous
 62
     7
370
    25
100
AcDbCircle
 10
102.1055427252
 20
116.1304849885
 30
0.0
 40
5.250000000000009
100
AcDbArc
 50
193.774146998
 51
346.225853002
  0
SPLINE
  5
1A8
330
1F
100
AcDbEntity
  8
0
  6
Continuous
 62
     7
370
    25
100
AcDbSpline
210
0.0
220
0.0
230
1.0
 70
     8
 71
     3
 72
    15
 73
    11
 74
     0
 42
0.00000001
 43
0.00000001
 40
0.0
 40
0.0
 40
0.0
 40
0.0
 40
0.0090459071881971
 40
0.1032433785236875
 40
0.1542564497735192
 40
0.3133169026715105
 40
0.5243720399414424
 40
0.66780600085099
 40
0.9918332554187292
 40
1.0
 40
1.0
 40
1.0
 40
1.0
 10
107.3446280578313
 20
114.4565719449744
 30
0.0
 10
107.3446223658647
 20
114.4565895906989
 30
0.0
 10
107.3445574019139
 20
114.4567909861114
 30
0.0
 10
107.342561715478
 20
114.4629806067776
 30
0.0
 10
107.3347447192615
 20
114.4871825386218
 30
0.0
 10
107.3175748955065
 20
114.5402015306234
 30
0.0
 10
107.2909909989391
 20
114.62157241782
 30
0.0
 10
107.2531617004502
 20
114.7361514898425
 30
0.0
 10
107.224880920441
 20
114.8205766675619
 30
0.0
 10
107.2050497729089
 20
114.8790475255136
 30
0.0
 10
107.204562238766
 20
114.8804849884527
 30
0.0
  0
ARC
  5
1A9
330
1F
100
AcDbEntity
  8
0
  6
Continuous
 62
     7
370
    25
100
AcDbCircle
 10
102.1055427252
 20
116.1304849885
 30
0.0
 40
5.499999999999997
100
AcDbArc
 50
197.7189318734
 51
342.2810681266
  0
ARC
  5
1AA
330
1F
100
AcDbEntity
  8
0
  6
Continuous
 62
     7
370
    25
100
AcDbCircle
 10
107.5827683002
 20
114.3804849885
 30
0.0
 40
0.2500000000000142
100
AcDbArc
 50
90.0
 51
162.2810681266
  0
SPLINE
  5
1AB
330
1F
100
AcDbEntity
  8
0
  6
Continuous
 62
     7
370
    25
100
AcDbSpline
210
0.0
220
0.0
230
1.0
 70
     8
 71
     3
 72
    15
 73
    11
 74
     0
 42
0.00000001
 43
0.00000001
 40
0.0
 40
0.0
 40
0.0
 40
0.0
 40
0.0080847466189818
 40
0.3310106400647567
 40
0.4750333064304976
 40
0.6874363079215146
 40
0.846836753941831
 40
0.9000996640391853
 40
0.9910442771984082
 40
1.0
 40
1.0
 40
1.0
 40
1.0
 10
107.204562238766
 20
114.8804849884527
 30
0.0
 10
107.2058420703101
 20
114.8796690524644
 30
0.0
 10
107.2582417160339
 20
114.8462625022708
 30
0.0
 10
107.3335968074883
 20
114.7974489375359
 30
0.0
 10
107.4355159195061
 20
114.7300784652677
 30
0.0
 10
107.507906864498
 20
114.6814944249243
 30
0.0
 10
107.5556122927628
 20
114.6490455634657
 30
0.0
 10
107.5771477764702
 20
114.6343345223994
 30
0.0
 10
107.5825767924897
 20
114.6306160714813
 30
0.0
 10
107.5827525446463
 20
114.6304957728158
 30
0.0
 10
107.5827683002249
 20
114.6304849884527
 30
0.0
  0
ARC
  5
1AC
330
1F
100
AcDbEntity
  8
0
  6
Continuous
 62
     7
370
    25
100
AcDbCircle
 10
96.6283171501
 20
114.3804849885
 30
0.0
 40
0.2500000000000142
100
AcDbArc
 50
17.7189318734
 51
90.0
  0
SPLINE
  5
1AD
330
1F
100
AcDbEntity
  8
0
  6
Continuous
 62
     7
370
    25
100
AcDbSpline
210
0.0
220
0.0
230
1.0
 70
     8
 71
     3
 72
    15
 73
    11
 74
     0
 42
0.00000001
 43
0.00000001
 40
0.0
 40
0.0
 40
0.0
 40
0.0
 40
0.0089557228015919
 40
0.0999003359608147
 40
0.1531632460581689
 40
0.3125636920784844
 40
0.5249666935695022
 40
0.6689893599352454
 40
0.9919152533810159
 40
1.0
 40
1.0
 40
1.0
 40
1.0
 10
96.62831715012155
 20
114.6304849884527
 30
0.0
 10
96.62833290570013
 20
114.6304957728158
 30
0.0
 10
96.6285086578567
 20
114.6306160714813
 30
0.0
 10
96.63393767387623
 20
114.6343345223994
 30
0.0
 10
96.65547315758354
 20
114.6490455634657
 30
0.0
 10
96.70317858584838
 20
114.6814944249243
 30
0.0
 10
96.77556953084027
 20
114.7300784652677
 30
0.0
 10
96.87748864285805
 20
114.7974489375359
 30
0.0
 10
96.95284373431255
 20
114.8462625022707
 30
0.0
 10
97.00524338003628
 20
114.8796690524644
 30
0.0
 10
97.00652321158042
 20
114.8804849884527
 30
0.0
  0
LINE
  5
1AE
330
1F
100
AcDbEntity
  8
0
  6
Continuous
 62
     7
370
    25
100
AcDbLine
 10
97.1055427252
 20
115.5304849885
 30
0.0
 11
107.1055427252
 21
115.5304849885
 31
0.0
  0
LINE
  5
1AF
330
1F
100
AcDbEntity
  8
0
  6
Continuous
 62
     7
370
    25
100
AcDbLine
 10
97.1055427252
 20
116.7304849885
 30
0.0
 11
97.1055427252
 21
115.5304849885
 31
0.0
  0
LINE
  5
1B0
330
1F
100
AcDbEntity
  8
0
  6
Continuous
 62
     7
370
    25
100
AcDbLine
 10
107.1055427252
 20
116.7304849885
 30
0.0
 11
97.1055427252
 21
116.7304849885
 31
0.0
  0
LINE
  5
1B1
330
1F
100
AcDbEntity
  8
0
  6
Continuous
 62
     7
370
    25
100
AcDbLine
 10
107.1055427252
 20
115.5304849885
 30
0.0
 11
107.1055427252
 21
116.7304849885
 31
0.0
  0
LINE
  5
1B2
330
1F
100
AcDbEntity
  8
0
  6
Continuous
 62
     7
370
    25
100
AcDbLine
 10
96.3555427252
 20
114.8804849885
 30
0.0
 11
97.0065232116
 21
114.8804849885
 31
0.0
  0
LINE
  5
1B3
330
1F
100
AcDbEntity
  8
0
  6
Continuous
 62
     7
370
    25
100
AcDbLine
 10
96.3555427252
 20
117.3804849885
 30
0.0
 11
96.3555427252
 21
114.8804849885
 31
0.0
  0
LINE
  5
1B4
330
1F
100
AcDbEntity
  8
0
  6
Continuous
 62
     7
370
    25
100
AcDbLine
 10
97.0065232116
 20
117.3804849885
 30
0.0
 11
96.3555427252
 21
117.3804849885
 31
0.0
  0
LINE
  5
1B5
330
1F
100
AcDbEntity
  8
0
  6
Continuous
 62
     7
370
    25
100
AcDbLine
 10
107.8555427252
 20
117.3804849885
 30
0.0
 11
107.2045622388
 21
117.3804849885
 31
0.0
  0
LINE
  5
1B6
330
1F
100
AcDbEntity
  8
0
  6
Continuous
 62
     7
370
    25
100
AcDbLine
 10
107.8555427252
 20
114.8804849885
 30
0.0
 11
107.8555427252
 21
117.3804849885
 31
0.0
  0
LINE
  5
1B7
330
1F
100
AcDbEntity
  8
0
  6
Continuous
 62
     7
370
    25
100
AcDbLine
 10
107.2045622388
 20
114.8804849885
 30
0.0
 11
107.8555427252
 21
114.8804849885
 31
0.0
  0
LINE
  5
1B8
330
1F
100
AcDbEntity
  8
0
  6
Continuous
 62
     7
370
    25
100
AcDbLine
 10
96.3555427252
 20
117.6304849885
 30
0.0
 11
96.3555427252
 21
117.3804849885
 31
0.0
  0
LINE
  5
1B9
330
1F
100
AcDbEntity
  8
0
  6
Continuous
 62
     7
370
    25
100
AcDbLine
 10
96.3555427252
 20
117.6304849885
 30
0.0
 11
96.6283171501
 21
117.6304849885
 31
0.0
  0
LINE
  5
1BA
330
1F
100
AcDbEntity
  8
0
  6
Continuous
 62
     7
370
    25
100
AcDbLine
 10
107.5827683002
 20
117.6304849885
 30
0.0
 11
107.8555427252
 21
117.6304849885
 31
0.0
  0
LINE
  5
1BB
330
1F
100
AcDbEntity
  8
0
  6
Continuous
 62
     7
370
    25
100
AcDbLine
 10
107.8555427252
 20
117.3804849885
 30
0.0
 11
107.8555427252
 21
117.6304849885
 31
0.0
  0
LINE
  5
1BC
330
1F
100
AcDbEntity
  8
0
  6
Continuous
 62
     7
370
    25
100
AcDbLine
 10
108.1055427252
 20
117.3804849885
 30
0.0
 11
107.8555427252
 21
117.3804849885
 31
0.0
  0
ARC
  5
1BD
330
1F
100
AcDbEntity
  8
0
  6
Continuous
 62
     7
370
    25
100
AcDbCircle
 10
107.8555427252
 20
117.3804849885
 30
0.0
 40
0.25
100
AcDbArc
 50
0.0
 51
90.0
  0
ARC
  5
1BE
330
1F
100
AcDbEntity
  8
0
  6
Continuous
 62
     7
370
    25
100
AcDbCircle
 10
96.3555427252
 20
117.3804849885
 30
0.0
 40
0.25
100
AcDbArc
 50
90.0
 51
180.0
  0
LINE
  5
1BF
330
1F
100
AcDbEntity
  8
0
  6
Continuous
 62
     7
370
    25
100
AcDbLine
 10
96.3555427252
 20
117.3804849885
 30
0.0
 11
96.1055427252
 21
117.3804849885
 31
0.0
  0
LINE
  5
1C0
330
1F
100
AcDbEntity
  8
0
  6
Continuous
 62
     7
370
    25
100
AcDbLine
 10
96.1055427252
 20
114.8804849885
 30
0.0
 11
96.3555427252
 21
114.8804849885
 31
0.0
  0
LINE
  5
1C1
330
1F
100
AcDbEntity
  8
0
  6
Continuous
 62
     7
370
    25
100
AcDbLine
 10
96.1055427252
 20
114.8804849885
 30
0.0
 11
96.1055427252
 21
117.3804849885
 31
0.0
  0
LINE
  5
1C2
330
1F
100
AcDbEntity
  8
0
  6
Continuous
 62
     7
370
    25
100
AcDbLine
 10
108.1055427252
 20
117.3804849885
 30
0.0
 11
108.1055427252
 21
114.8804849885
 31
0.0
  0
LINE
  5
1C3
330
1F
100
AcDbEntity
  8
0
  6
Continuous
 62
     7
370
    25
100
AcDbLine
 10
107.8555427252
 20
114.8804849885
 30
0.0
 11
108.1055427252
 21
114.8804849885
 31
0.0
  0
LINE
  5
1C4
330
1F
100
AcDbEntity
  8
0
  6
Continuous
 62
     7
370
    25
100
AcDbLine
 10
107.8555427252
 20
114.6304849885
 30
0.0
 11
107.8555427252
 21
114.8804849885
 31
0.0
  0
LINE
  5
1C5
330
1F
100
AcDbEntity
  8
0
  6
Continuous
 62
     7
370
    25
100
AcDbLine
 10
107.8555427252
 20
114.6304849885
 30
0.0
 11
107.5827683002
 21
114.6304849885
 31
0.0
  0
ARC
  5
1C6
330
1F
100
AcDbEntity
  8
0
  6
Continuous
 62
     7
370
    25
100
AcDbCircle
 10
107.8555427252
 20
114.8804849885
 30
0.0
 40
0.25
100
AcDbArc
 50
270.0
 51
0.0
  0
ARC
  5
1C7
330
1F
100
AcDbEntity
  8
0
  6
Continuous
 62
     7
370
    25
100
AcDbCircle
 10
96.3555427252
 20
114.8804849885
 30
0.0
 40
0.25
100
AcDbArc
 50
180.0
 51
270.0
  0
LINE
  5
1C8
330
1F
100
AcDbEntity
  8
0
  6
Continuous
 62
     7
370
    25
100
AcDbLine
 10
96.3555427252
 20
114.8804849885
 30
0.0
 11
96.3555427252
 21
114.6304849885
 31
0.0
  0
LINE
  5
1C9
330
1F
100
AcDbEntity
  8
0
  6
Continuous
 62
     7
370
    25
100
AcDbLine
 10
96.6283171501
 20
114.6304849885
 30
0.0
 11
96.3555427252
 21
114.6304849885
 31
0.0
  0
SPLINE
  5
1CA
330
1F
100
AcDbEntity
  8
0
  6
Continuous
 62
     7
370
    25
100
AcDbSpline
210
0.0
220
0.0
230
1.0
 70
    24
 71
     3
 72
    12
 73
     8
 74
     0
 42
0.00000001
 43
0.00000001
 40
0.0
 40
0.0
 40
0.0
 40
0.0
 40
0.2028923759417917
 40
0.4555148412085767
 40
0.7080708384788343
 40
0.9667982463836126
 40
1.0
 40
1.0
 40
1.0
 40
1.0
 10
80.00906967102544
 20
124.6304849884527
 30
0.0
 10
79.9194588160785
 20
124.6304849884527
 30
0.0
 10
79.71827296977824
 20
124.6304849884527
 30
0.0
 10
79.47593267211951
 20
124.6304849884527
 30
0.0
 10
79.30885100417923
 20
124.6304849884527
 30
0.0
 10
79.23700760829865
 20
124.6304849884527
 30
0.0
 10
79.25461183196913
 20
124.6304849884527
 30
0.0
 10
79.25661399952878
 20
124.6304849884527
 30
0.0
  0
SPLINE
  5
1CB
330
1F
100
AcDbEntity
  8
0
  6
Continuous
 62
     7
370
    25
100
AcDbSpline
210
0.0
220
0.0
230
1.0
 70
     8
 71
     3
 72
    12
 73
     8
 74
     0
 42
0.00000001
 43
0.00000001
 40
0.0
 40
0.0
 40
0.0
 40
0.0
 40
0.2078104264825517
 40
0.4040543264705484
 40
0.6003288386600394
 40
0.8001451001194478
 40
1.0
 40
1.0
 40
1.0
 40
1.0
 10
79.28117619167925
 20
119.6304849884526
 30
0.0
 10
79.26445388986035
 20
119.9812556837333
 30
0.0
 10
79.23194003329964
 20
120.6632735180941
 30
0.0
 10
79.31284909610845
 20
121.6760598029357
 30
0.0
 10
79.4684495329048
 20
122.6673343278111
 30
0.0
 10
79.69983626800438
 20
123.6542371681707
 30
0.0
 10
79.90598522683185
 20
124.3050480758623
 30
0.0
 10
80.00906967102544
 20
124.6304849884527
 30
0.0
  0
SPLINE
  5
1CC
330
1F
100
AcDbEntity
  8
0
  6
Continuous
 62
     7
370
    25
100
AcDbSpline
210
0.0
220
0.0
230
1.0
 70
     8
 71
     3
 72
    12
 73
     8
 74
     0
 42
0.00000001
 43
0.00000001
 40
0.0
 40
0.0
 40
0.0
 40
0.0
 40
0.225392325347857
 40
0.4507209242740465
 40
0.6810902123832189
 40
0.9114179295261068
 40
1.0
 40
1.0
 40
1.0
 40
1.0
 10
80.00906967102544
 20
107.6304849884527
 30
0.0
 10
79.89358258169148
 20
107.9977143881989
 30
0.0
 10
79.66264105532852
 20
108.7320693588874
 30
0.0
 10
79.4127263649873
 20
109.8629913569649
 30
0.0
 10
79.26807259972514
 20
111.0149043408978
 30
0.0
 10
79.22881472345865
 20
111.9441414793722
 30
0.0
 10
79.27375360927324
 20
112.4812851262135
 30
0.0
 10
79.28623607204115
 20
112.6304849884526
 30
0.0
  0
SPLINE
  5
1CD
330
1F
100
AcDbEntity
  8
0
  6
Continuous
 62
     7
370
    25
100
AcDbSpline
210
0.0
220
0.0
230
1.0
 70
    24
 71
     3
 72
    12
 73
     8
 74
     0
 42
0.00000001
 43
0.00000001
 40
0.0
 40
0.0
 40
0.0
 40
0.0
 40
0.02675317519884
 40
0.2790342560555698
 40
0.5380341753479827
 40
0.7971074142093585
 40
1.0
 40
1.0
 40
1.0
 40
1.0
 10
79.25536169220476
 20
107.6304849884527
 30
0.0
 10
79.25373341830998
 20
107.6304849884527
 30
0.0
 10
79.23675060443811
 20
107.6304849884527
 30
0.0
 10
79.30498301382622
 20
107.6304849884527
 30
0.0
 10
79.46954508854701
 20
107.6304849884527
 30
0.0
 10
79.71545038774447
 20
107.6304849884527
 30
0.0
 10
79.91946687035814
 20
107.6304849884527
 30
0.0
 10
80.00906967102544
 20
107.6304849884527
 30
0.0
  0
LINE
  5
1CE
330
1F
100
AcDbEntity
  8
0
  6
Continuous
 62
     7
370
    25
100
AcDbLine
 10
79.1055427252
 20
107.8804849885
 30
0.0
 11
79.1055427252
 21
112.6304849885
 31
0.0
  0
LINE
  5
1CF
330
1F
100
AcDbEntity
  8
0
  6
Continuous
 62
     7
370
    25
100
AcDbLine
 10
79.1055427252
 20
119.6304849885
 30
0.0
 11
79.1055427252
 21
124.3804849885
 31
0.0
  0
SPLINE
  5
1D0
330
1F
100
AcDbEntity
  8
0
  6
Continuous
 62
     7
370
    25
100
AcDbSpline
210
0.0
220
0.0
230
1.0
 70
    24
 71
     3
 72
    12
 73
     8
 74
     0
 42
0.00000001
 43
0.00000001
 40
0.0
 40
0.0
 40
0.0
 40
0.0
 40
0.02675317519884
 40
0.2790342560555698
 40
0.5380341753479827
 40
0.7971074142093585
 40
1.0
 40
1.0
 40
1.0
 40
1.0
 10
91.95572375814163
 20
107.6304849884527
 30
0.0
 10
91.95735203203641
 20
107.6304849884527
 30
0.0
 10
91.97433484590826
 20
107.6304849884527
 30
0.0
 10
91.9061024365202
 20
107.6304849884527
 30
0.0
 10
91.7415403617994
 20
107.6304849884527
 30
0.0
 10
91.49563506260193
 20
107.6304849884527
 30
0.0
 10
91.29161857998824
 20
107.6304849884527
 30
0.0
 10
91.20201577932094
 20
107.6304849884527
 30
0.0
  0
SPLINE
  5
1D1
330
1F
100
AcDbEntity
  8
0
  6
Continuous
 62
     7
370
    25
100
AcDbSpline
210
0.0
220
0.0
230
1.0
 70
     8
 71
     3
 72
    11
 73
     7
 74
     0
 42
0.00000001
 43
0.00000001
 40
0.0
 40
0.0
 40
0.0
 40
0.0
 40
0.2910741074149761
 40
0.5820659178339165
 40
0.8795673292449435
 40
1.0
 40
1.0
 40
1.0
 40
1.0
 10
91.20201577932094
 20
107.6304849884527
 30
0.0
 10
91.31796343452099
 20
107.9977101971822
 30
0.0
 10
91.54982596239773
 20
108.732056787022
 30
0.0
 10
91.79278314678153
 20
109.8630420964005
 30
0.0
 10
91.93014555705366
 20
110.7846009399723
 30
0.0
 10
91.93713923708448
 20
111.3311447226638
 30
0.0
 10
91.93915454906897
 20
111.4886378064845
 30
0.0
  0
SPLINE
  5
1D2
330
1F
100
AcDbEntity
  8
0
  6
Continuous
 62
     7
370
    25
100
AcDbSpline
210
0.0
220
0.0
230
1.0
 70
     8
 71
     3
 72
    11
 73
     7
 74
     0
 42
0.00000001
 43
0.00000001
 40
0.0
 40
0.0
 40
0.0
 40
0.0
 40
0.2316679599470134
 40
0.4847178654322421
 40
0.7423340251295245
 40
1.0
 40
1.0
 40
1.0
 40
1.0
 10
91.95104973827031
 20
120.7663799535821
 30
0.0
 10
91.93454382836156
 20
121.0695419210655
 30
0.0
 10
91.90000858481811
 20
121.7038463876495
 30
0.0
 10
91.74090930190182
 20
122.6673107955238
 30
0.0
 10
91.51168414593951
 20
123.6542430963509
 30
0.0
 10
91.30524522072481
 20
124.3050500520498
 30
0.0
 10
91.20201577932127
 20
124.6304849884527
 30
0.0
  0
SPLINE
  5
1D3
330
1F
100
AcDbEntity
  8
0
  6
Continuous
 62
     7
370
    25
100
AcDbSpline
210
0.0
220
0.0
230
1.0
 70
    24
 71
     3
 72
    12
 73
     8
 74
     0
 42
0.00000001
 43
0.00000001
 40
0.0
 40
0.0
 40
0.0
 40
0.0
 40
0.2028923759418531
 40
0.4555148412086186
 40
0.7080708384788568
 40
0.966798246383615
 40
1.0
 40
1.0
 40
1.0
 40
1.0
 10
91.20201577932127
 20
124.6304849884527
 30
0.0
 10
91.29162663426807
 20
124.6304849884527
 30
0.0
 10
91.49281248056799
 20
124.6304849884527
 30
0.0
 10
91.73515277822693
 20
124.6304849884527
 30
0.0
 10
91.90223444616717
 20
124.6304849884527
 30
0.0
 10
91.97407784204772
 20
124.6304849884527
 30
0.0
 10
91.95647361837727
 20
124.6304849884527
 30
0.0
 10
91.95447145081762
 20
124.6304849884527
 30
0.0
  0
LINE
  5
1D4
330
1F
100
AcDbEntity
  8
0
  6
Continuous
 62
     7
370
    25
100
AcDbLine
 10
80.009069671
 20
124.6304849885
 30
0.0
 11
91.2020157793
 21
124.6304849885
 31
0.0
  0
LINE
  5
1D5
330
1F
100
AcDbEntity
  8
0
  6
Continuous
 62
     7
370
    25
100
AcDbLine
 10
80.009069671
 20
107.6304849885
 30
0.0
 11
91.2020157793
 21
107.6304849885
 31
0.0
  0
LINE
  5
1D6
330
1F
100
AcDbEntity
  8
0
  6
Continuous
 62
     7
370
    25
100
AcDbLine
 10
82.1055427252
 20
112.8587857244
 30
0.0
 11
82.1055427252
 21
119.4021842525
 31
0.0
  0
LINE
  5
1D7
330
1F
100
AcDbEntity
  8
0
  6
Continuous
 62
     7
370
    25
100
AcDbLine
 10
79.9301058636
 20
112.6304849885
 30
0.0
 11
82.1055427252
 21
112.8587857244
 31
0.0
  0
LINE
  5
1D8
330
1F
100
AcDbEntity
  8
0
  6
Continuous
 62
     7
370
    25
100
AcDbLine
 10
62.1055427252
 20
112.6304849885
 30
0.0
 11
79.9301058636
 21
112.6304849885
 31
0.0
  0
LINE
  5
1D9
330
1F
100
AcDbEntity
  8
0
  6
Continuous
 62
     7
370
    25
100
AcDbLine
 10
82.1055427252
 20
119.4021842525
 30
0.0
 11
79.9301058636
 21
119.6304849885
 31
0.0
  0
LINE
  5
1DA
330
1F
100
AcDbEntity
  8
0
  6
Continuous
 62
     7
370
    25
100
AcDbLine
 10
79.9301058636
 20
119.6304849885
 30
0.0
 11
62.1055427252
 21
119.6304849885
 31
0.0
  0
LINE
  5
1DB
330
1F
100
AcDbEntity
  8
0
  6
Continuous
 62
     7
370
    25
100
AcDbLine
 10
62.1055427252
 20
119.6304849885
 30
0.0
 11
62.1055427252
 21
112.6304849885
 31
0.0
  0
LINE
  5
1DC
330
1F
100
AcDbEntity
  8
0
  6
Continuous
 62
     7
370
    25
100
AcDbLine
 10
96.8817405508
 20
117.8514994693
 30
0.0
 11
96.7533315121
 21
117.6673578358
 31
0.0
  0
LINE
  5
1DD
330
1F
100
AcDbEntity
  8
0
  6
Continuous
 62
     7
370
    25
100
AcDbLine
 10
96.7628988529
 20
114.5852673211
 30
0.0
 11
96.8817405508
 21
114.4094705076
 31
0.0
  0
LINE
  5
1DE
330
1F
100
AcDbEntity
  8
0
  6
Continuous
 62
     7
370
    25
100
AcDbLine
 10
88.6889730716
 20
118.711287624
 30
0.0
 11
88.6889730716
 21
113.5496823529
 31
0.0
  0
LINE
  5
1DF
330
1F
100
AcDbEntity
  8
0
  6
Continuous
 62
     7
370
    25
100
AcDbLine
 10
96.8817405508
 20
114.4094705076
 30
0.0
 11
88.6889730716
 21
113.5496823529
 31
0.0
  0
LINE
  5
1E0
330
1F
100
AcDbEntity
  8
0
  6
Continuous
 62
     7
370
    25
100
AcDbLine
 10
88.6889730716
 20
118.711287624
 30
0.0
 11
96.8817405508
 21
117.8514994693
 31
0.0
  0
LINE
  5
1E1
330
1F
100
AcDbEntity
  8
0
  6
Continuous
 62
     7
370
    25
100
AcDbLine
 10
88.6889730716
 20
113.5496823529
 30
0.0
 11
82.1055427252
 21
112.8587857244
 31
0.0
  0
LINE
  5
1E2
330
1F
100
AcDbEntity
  8
0
  6
Continuous
 62
     7
370
    25
100
AcDbLine
 10
82.1055427252
 20
119.4021842525
 30
0.0
 11
88.6889730716
 21
118.711287624
 31
0.0
  0
ARC
  5
1E3
330
1F
100
AcDbEntity
  8
0
  6
Continuous
 62
     7
370
    25
100
AcDbCircle
 10
102.1055427252
 20
116.1304849885
 30
0.0
 40
7.450000000000647
100
AcDbArc
 50
233.0863788866
 51
126.9136211134
  0
ARC
  5
1E4
330
1F
100
AcDbEntity
  8
0
  6
Continuous
 62
     7
370
    25
100
AcDbCircle
 10
102.1055427252
 20
116.1304849885
 30
0.0
 40
7.207531252870791
100
AcDbArc
 50
195.3041237151
 51
238.9797515565
  0
ARC
  5
1E5
330
1F
100
AcDbEntity
  8
0
  6
Continuous
 62
     7
370
    25
100
AcDbCircle
 10
102.1055427252
 20
116.1304849885
 30
0.0
 40
7.20753125287243
100
AcDbArc
 50
121.0202484435
 51
164.6958762849
  0
ARC
  5
1E6
330
1F
100
AcDbEntity
  8
0
  6
Continuous
 62
     7
370
    25
100
AcDbCircle
 10
79.9301058636
 20
184.6304849885
 30
0.0
 40
64.99999999999999
100
AcDbArc
 50
270.0
 51
286.5000949923
  0
ARC
  5
1E7
330
1F
100
AcDbEntity
  8
0
  6
Continuous
 62
     7
370
    25
100
AcDbCircle
 10
79.9301058636
 20
47.6304849885
 30
0.0
 40
65.0
100
AcDbArc
 50
73.4999050077
 51
90.0
  0
LINE
  5
1E8
330
1F
100
AcDbEntity
  8
0
  6
Continuous
 62
     7
370
    25
100
AcDbLine
 10
94.2235767139
 20
126.1304849885
 30
0.0
 11
94.2235767139
 21
121.2215211817
 31
0.0
  0
LINE
  5
1E9
330
1F
100
AcDbEntity
  8
0
  6
Continuous
 62
     7
370
    25
100
AcDbLine
 10
94.2235767139
 20
111.0394487953
 30
0.0
 11
94.2235767139
 21
106.1304849885
 31
0.0
  0
LINE
  5
1EA
330
1F
100
AcDbEntity
  8
0
  6
Continuous
 62
     7
370
    25
100
AcDbLine
 10
92.3555427252
 20
126.1304849885
 30
0.0
 11
92.3555427252
 21
120.8291643219
 31
0.0
  0
LINE
  5
1EB
330
1F
100
AcDbEntity
  8
0
  6
Continuous
 62
     7
370
    25
100
AcDbLine
 10
92.3555427252
 20
111.431805655
 30
0.0
 11
92.3555427252
 21
106.1304849885
 31
0.0
  0
LINE
  5
1EC
330
1F
100
AcDbEntity
  8
0
  6
Continuous
 62
     7
370
    25
100
AcDbLine
 10
109.9875087364
 20
106.1304849885
 30
0.0
 11
109.9875087364
 21
126.1304849885
 31
0.0
  0
SPLINE
  5
1ED
330
1F
100
AcDbEntity
  8
0
  6
Continuous
 62
     7
370
    25
100
AcDbSpline
210
0.0
220
0.0
230
1.0
 70
     8
 71
     3
 72
    12
 73
     8
 74
     0
 42
0.00000001
 43
0.00000001
 40
0.0
 40
0.0
 40
0.0
 40
0.0
 40
0.25
 40
0.25
 40
0.5
 40
0.5
 40
1.0
 40
1.0
 40
1.0
 40
1.0
 10
109.8346287922752
 20
107.3680238087028
 30
0.0
 10
109.7535121901706
 20
107.3335186708428
 30
0.0
 10
109.7064822670023
 20
107.3006735995423
 30
0.0
 10
109.6436186654704
 20
107.2423210712956
 30
0.0
 10
109.6281689945532
 20
107.216666707667
 30
0.0
 10
109.600985330174
 20
107.1535674549273
 30
0.0
 10
109.6055427251732
 20
107.1304849884527
 30
0.0
 10
109.6055427251732
 20
107.1304849884527
 30
0.0
  0
SPLINE
  5
1EE
330
1F
100
AcDbEntity
  8
0
  6
Continuous
 62
     7
370
    25
100
AcDbSpline
210
0.0
220
0.0
230
1.0
 70
     8
 71
     3
 72
    14
 73
    10
 74
     0
 42
0.00000001
 43
0.00000001
 40
0.0
 40
0.0
 40
0.0
 40
0.0
 40
0.25
 40
0.25
 40
0.5
 40
0.5
 40
0.75
 40
0.75
 40
1.0
 40
1.0
 40
1.0
 40
1.0
 10
109.8346287922752
 20
107.3680238087028
 30
0.0
 10
109.8621497800203
 20
107.3797306042484
 30
0.0
 10
109.8820697018567
 20
107.41177255733
 30
0.0
 10
109.8977367436748
 20
107.511096307995
 30
0.0
 10
109.8932449118625
 20
107.5789197507757
 30
0.0
 10
109.8619885665789
 20
107.7413613681886
 30
0.0
 10
109.8356159831971
 20
107.8358067649243
 30
0.0
 10
109.7727794320528
 20
108.0440358725208
 30
0.0
 10
109.7367398531927
 20
108.156634265404
 30
0.0
 10
109.7027438498271
 20
108.2763906590041
 30
0.0
  0
SPLINE
  5
1EF
330
1F
100
AcDbEntity
  8
0
  6
Continuous
 62
     7
370
    25
100
AcDbSpline
210
0.0
220
0.0
230
1.0
 70
     8
 71
     3
 72
     8
 73
     4
 74
     0
 42
0.00000001
 43
0.00000001
 40
0.0
 40
0.0
 40
0.0
 40
0.0
 40
1.0
 40
1.0
 40
1.0
 40
1.0
 10
109.6055427251732
 20
109.0065815640652
 30
0.0
 10
109.6055427251732
 20
108.7591521072702
 30
0.0
 10
109.6349074322511
 20
108.5153553583628
 30
0.0
 10
109.7027438498271
 20
108.2763906590041
 30
0.0
  0
LINE
  5
1F0
330
1F
100
AcDbEntity
  8
0
  6
Continuous
 62
     7
370
    25
100
AcDbLine
 10
109.6055427252
 20
109.0065815641
 30
0.0
 11
109.6055427252
 21
123.2543884128
 31
0.0
  0
SPLINE
  5
1F1
330
1F
100
AcDbEntity
  8
0
  6
Continuous
 62
     7
370
    25
100
AcDbSpline
210
0.0
220
0.0
230
1.0
 70
     8
 71
     3
 72
     8
 73
     4
 74
     0
 42
0.00000001
 43
0.00000001
 40
0.0
 40
0.0
 40
0.0
 40
0.0
 40
1.0
 40
1.0
 40
1.0
 40
1.0
 10
109.7027438498271
 20
123.9845793179013
 30
0.0
 10
109.6349074322511
 20
123.7456146185425
 30
0.0
 10
109.6055427251732
 20
123.5018178696352
 30
0.0
 10
109.6055427251732
 20
123.2543884128402
 30
0.0
  0
SPLINE
  5
1F2
330
1F
100
AcDbEntity
  8
0
  6
Continuous
 62
     7
370
    25
100
AcDbSpline
210
0.0
220
0.0
230
1.0
 70
     8
 71
     3
 72
    12
 73
     8
 74
     0
 42
0.00000001
 43
0.00000001
 40
0.0
 40
0.0
 40
0.0
 40
0.0
 40
0.4999999999999992
 40
0.4999999999999992
 40
0.7499999999999996
 40
0.7499999999999996
 40
1.0
 40
1.0
 40
1.0
 40
1.0
 10
109.7027438498271
 20
123.9845793179013
 30
0.0
 10
109.7706136098369
 20
124.2236614713493
 30
0.0
 10
109.8466481610907
 20
124.4394315785262
 30
0.0
 10
109.8932927594677
 20
124.6825261712301
 30
0.0
 10
109.8977317559903
 20
124.7501914467062
 30
0.0
 10
109.8820011421975
 20
124.8493445628628
 30
0.0
 10
109.8621207122551
 20
124.8812517374161
 30
0.0
 10
109.8346287922752
 20
124.8929461682025
 30
0.0
  0
SPLINE
  5
1F3
330
1F
100
AcDbEntity
  8
0
  6
Continuous
 62
     7
370
    25
100
AcDbSpline
210
0.0
220
0.0
230
1.0
 70
     8
 71
     3
 72
    12
 73
     8
 74
     0
 42
0.00000001
 43
0.00000001
 40
0.0
 40
0.0
 40
0.0
 40
0.0
 40
0.5000000000000002
 40
0.5000000000000002
 40
0.7500000000000001
 40
0.7500000000000001
 40
1.0
 40
1.0
 40
1.0
 40
1.0
 10
109.6055427251732
 20
125.1304849884527
 30
0.0
 10
109.6055427251732
 20
125.1304849884527
 30
0.0
 10
109.600985330174
 20
125.107402521978
 30
0.0
 10
109.6281689945532
 20
125.0443032692383
 30
0.0
 10
109.6436186654704
 20
125.0186489056097
 30
0.0
 10
109.7064822670023
 20
124.960296377363
 30
0.0
 10
109.7535121901706
 20
124.9274513060626
 30
0.0
 10
109.8346287922752
 20
124.8929461682025
 30
0.0
  0
SPLINE
  5
1F4
330
1F
100
AcDbEntity
  8
0
  6
Continuous
 62
     7
370
    25
100
AcDbSpline
210
0.0
220
0.0
230
1.0
 70
     8
 71
     3
 72
    12
 73
     8
 74
     0
 42
0.00000001
 43
0.00000001
 40
0.0
 40
0.0
 40
0.0
 40
0.0
 40
0.2500000000000001
 40
0.2500000000000001
 40
0.5000000000000001
 40
0.5000000000000001
 40
1.0
 40
1.0
 40
1.0
 40
1.0
 10
94.37645665807116
 20
124.8929461682025
 30
0.0
 10
94.4575732601758
 20
124.9274513060626
 30
0.0
 10
94.50460318334412
 20
124.960296377363
 30
0.0
 10
94.56746678487596
 20
125.0186489056097
 30
0.0
 10
94.58291645579315
 20
125.0443032692383
 30
0.0
 10
94.61010012017243
 20
125.107402521978
 30
0.0
 10
94.6055427251732
 20
125.1304849884527
 30
0.0
 10
94.6055427251732
 20
125.1304849884527
 30
0.0
  0
SPLINE
  5
1F5
330
1F
100
AcDbEntity
  8
0
  6
Continuous
 62
     7
370
    25
100
AcDbSpline
210
0.0
220
0.0
230
1.0
 70
     8
 71
     3
 72
    14
 73
    10
 74
     0
 42
0.00000001
 43
0.00000001
 40
0.0
 40
0.0
 40
0.0
 40
0.0
 40
0.25
 40
0.25
 40
0.5
 40
0.5
 40
0.75
 40
0.75
 40
1.0
 40
1.0
 40
1.0
 40
1.0
 10
94.37645665807116
 20
124.8929461682025
 30
0.0
 10
94.3489356703261
 20
124.8812393726569
 30
0.0
 10
94.32901574848968
 20
124.8491974195753
 30
0.0
 10
94.31334870667162
 20
124.7498736689103
 30
0.0
 10
94.31784053848394
 20
124.6820502261296
 30
0.0
 10
94.34909688376752
 20
124.5196086087168
 30
0.0
 10
94.37546946714929
 20
124.425163211981
 30
0.0
 10
94.43830601829359
 20
124.2169341043845
 30
0.0
 10
94.47434559715367
 20
124.1043357115013
 30
0.0
 10
94.50834160051929
 20
123.9845793179013
 30
0.0
  0
SPLINE
  5
1F6
330
1F
100
AcDbEntity
  8
0
  6
Continuous
 62
     7
370
    25
100
AcDbSpline
210
0.0
220
0.0
230
1.0
 70
     8
 71
     3
 72
     8
 73
     4
 74
     0
 42
0.00000001
 43
0.00000001
 40
0.0
 40
0.0
 40
0.0
 40
0.0
 40
1.0
 40
1.0
 40
1.0
 40
1.0
 10
94.6055427251732
 20
123.2543884128402
 30
0.0
 10
94.6055427251732
 20
123.5018178696352
 30
0.0
 10
94.57617801809535
 20
123.7456146185425
 30
0.0
 10
94.50834160051929
 20
123.9845793179013
 30
0.0
  0
LINE
  5
1F7
330
1F
100
AcDbEntity
  8
0
  6
Continuous
 62
     7
370
    25
100
AcDbLine
 10
94.6055427252
 20
123.2543884128
 30
0.0
 11
94.6055427252
 21
121.308833455
 31
0.0
  0
LINE
  5
1F8
330
1F
100
AcDbEntity
  8
0
  6
Continuous
 62
     7
370
    25
100
AcDbLine
 10
94.6055427252
 20
110.9521365219
 30
0.0
 11
94.6055427252
 21
109.0065815641
 31
0.0
  0
SPLINE
  5
1F9
330
1F
100
AcDbEntity
  8
0
  6
Continuous
 62
     7
370
    25
100
AcDbSpline
210
0.0
220
0.0
230
1.0
 70
     8
 71
     3
 72
     8
 73
     4
 74
     0
 42
0.00000001
 43
0.00000001
 40
0.0
 40
0.0
 40
0.0
 40
0.0
 40
1.0
 40
1.0
 40
1.0
 40
1.0
 10
94.50834160051929
 20
108.2763906590041
 30
0.0
 10
94.57617801809535
 20
108.5153553583628
 30
0.0
 10
94.6055427251732
 20
108.7591521072702
 30
0.0
 10
94.6055427251732
 20
109.0065815640652
 30
0.0
  0
SPLINE
  5
1FA
330
1F
100
AcDbEntity
  8
0
  6
Continuous
 62
     7
370
    25
100
AcDbSpline
210
0.0
220
0.0
230
1.0
 70
     8
 71
     3
 72
    12
 73
     8
 74
     0
 42
0.00000001
 43
0.00000001
 40
0.0
 40
0.0
 40
0.0
 40
0.0
 40
0.4999999999999992
 40
0.4999999999999992
 40
0.7499999999999996
 40
0.7499999999999996
 40
1.0
 40
1.0
 40
1.0
 40
1.0
 10
94.50834160051929
 20
108.2763906590041
 30
0.0
 10
94.44047184050947
 20
108.037308505556
 30
0.0
 10
94.36443728925573
 20
107.8215383983792
 30
0.0
 10
94.31779269087873
 20
107.5784438056753
 30
0.0
 10
94.3133536943561
 20
107.5107785301991
 30
0.0
 10
94.32908430814894
 20
107.4116254140425
 30
0.0
 10
94.3489647380913
 20
107.3797182394893
 30
0.0
 10
94.37645665807116
 20
107.3680238087029
 30
0.0
  0
SPLINE
  5
1FB
330
1F
100
AcDbEntity
  8
0
  6
Continuous
 62
     7
370
    25
100
AcDbSpline
210
0.0
220
0.0
230
1.0
 70
     8
 71
     3
 72
    12
 73
     8
 74
     0
 42
0.00000001
 43
0.00000001
 40
0.0
 40
0.0
 40
0.0
 40
0.0
 40
0.4999999999999998
 40
0.4999999999999998
 40
0.7499999999999999
 40
0.7499999999999999
 40
1.0
 40
1.0
 40
1.0
 40
1.0
 10
94.6055427251732
 20
107.1304849884527
 30
0.0
 10
94.6055427251732
 20
107.1304849884527
 30
0.0
 10
94.61010012017243
 20
107.1535674549273
 30
0.0
 10
94.58291645579315
 20
107.216666707667
 30
0.0
 10
94.56746678487596
 20
107.2423210712956
 30
0.0
 10
94.50460318334412
 20
107.3006735995423
 30
0.0
 10
94.4575732601758
 20
107.3335186708428
 30
0.0
 10
94.37645665807116
 20
107.3680238087028
 30
0.0
  0
LINE
  5
1FC
330
1F
100
AcDbEntity
  8
0
  6
Continuous
 62
     7
370
    25
100
AcDbLine
 10
92.1055427252
 20
106.3804849885
 30
0.0
 11
92.1055427252
 21
111.4799856696
 31
0.0
  0
LINE
  5
1FD
330
1F
100
AcDbEntity
  8
0
  6
Continuous
 62
     7
370
    25
100
AcDbLine
 10
92.1055427252
 20
120.7809843073
 30
0.0
 11
92.1055427252
 21
125.8804849885
 31
0.0
  0
LINE
  5
1FE
330
1F
100
AcDbEntity
  8
0
  6
Continuous
 62
     7
370
    25
100
AcDbLine
 10
111.8055427252
 20
106.1304849885
 30
0.0
 11
111.8055427252
 21
126.1304849885
 31
0.0
  0
LINE
  5
1FF
330
1F
100
AcDbEntity
  8
0
  6
Continuous
 62
     7
370
    25
100
AcDbLine
 10
112.1055427252
 20
125.8304849885
 30
0.0
 11
112.1055427252
 21
106.4304849885
 31
0.0
  0
ARC
  5
200
330
1F
100
AcDbEntity
  8
0
  6
Continuous
 62
     7
370
    25
100
AcDbCircle
 10
95.0588606264
 20
123.3133643512
 30
0.0
 40
0.4571381420089529
100
AcDbArc
 50
187.4124568466
 51
275.861155744
  0
ARC
  5
201
330
1F
100
AcDbEntity
  8
0
  6
Continuous
 62
     7
370
    25
100
AcDbCircle
 10
95.0588606264
 20
108.9476056258
 30
0.0
 40
0.4571381420089388
100
AcDbArc
 50
84.138844256
 51
172.5875431534
  0
ARC
  5
202
330
1F
100
AcDbEntity
  8
0
  6
Continuous
 62
     7
370
    25
100
AcDbCircle
 10
109.1522248239
 20
123.3133643512
 30
0.0
 40
0.4571381420089263
100
AcDbArc
 50
264.138844256
 51
352.5875431534
  0
ARC
  5
203
330
1F
100
AcDbEntity
  8
0
  6
Continuous
 62
     7
370
    25
100
AcDbCircle
 10
109.1522248239
 20
108.9476056258
 30
0.0
 40
0.457138142008891
100
AcDbArc
 50
7.4124568466
 51
95.861155744
  0
LINE
  5
204
330
1F
100
AcDbEntity
  8
0
  6
Continuous
 62
     7
370
    25
100
AcDbLine
 10
122.1055427252
 20
122.1304849885
 30
0.0
 11
122.1055427252
 21
110.1304849885
 31
0.0
  0
LINE
  5
205
330
1F
100
AcDbEntity
  8
0
  6
Continuous
 62
     7
370
    25
100
AcDbLine
 10
121.6055427252
 20
109.6304849885
 30
0.0
 11
121.6055427252
 21
122.6304849885
 31
0.0
  0
LINE
  5
206
330
1F
100
AcDbEntity
  8
0
  6
Continuous
 62
     7
370
    25
100
AcDbLine
 10
94.5083416005
 20
123.9845793179
 30
0.0
 11
94.9759412256
 21
124.1304849885
 31
0.0
  0
SPLINE
  5
207
330
1F
100
AcDbEntity
  8
0
  6
Continuous
 62
     7
370
    25
100
AcDbSpline
210
0.0
220
0.0
230
1.0
 70
     8
 71
     3
 72
     8
 73
     4
 74
     0
 42
0.00000001
 43
0.00000001
 40
0.0
 40
0.0
 40
0.0
 40
0.0
 40
1.0
 40
1.0
 40
1.0
 40
1.0
 10
94.97594122563463
 20
124.1304849884527
 30
0.0
 10
95.06494992102304
 20
123.8452292308229
 30
0.0
 10
95.1055427251732
 20
123.5528112809409
 30
0.0
 10
95.1055427251732
 20
123.2543884128402
 30
0.0
  0
LINE
  5
208
330
1F
100
AcDbEntity
  8
0
  6
Continuous
 62
     7
370
    25
100
AcDbLine
 10
94.6055427252
 20
123.2543884128
 30
0.0
 11
95.1055427252
 21
123.2543884128
 31
0.0
  0
SPLINE
  5
209
330
1F
100
AcDbEntity
  8
0
  6
Continuous
 62
     7
370
    25
100
AcDbSpline
210
0.0
220
0.0
230
1.0
 70
     8
 71
     3
 72
     8
 73
     4
 74
     0
 42
0.00000001
 43
0.00000001
 40
0.0
 40
0.0
 40
0.0
 40
0.0
 40
1.0
 40
1.0
 40
1.0
 40
1.0
 10
109.1055427251732
 20
123.2543884128402
 30
0.0
 10
109.1055427251732
 20
123.5528112809409
 30
0.0
 10
109.1461355293233
 20
123.8452292308229
 30
0.0
 10
109.2351442247118
 20
124.1304849884527
 30
0.0
  0
LINE
  5
20A
330
1F
100
AcDbEntity
  8
0
  6
Continuous
 62
     7
370
    25
100
AcDbLine
 10
109.2351442247
 20
124.1304849885
 30
0.0
 11
109.7027438498
 21
123.9845793179
 31
0.0
  0
LINE
  5
20B
330
1F
100
AcDbEntity
  8
0
  6
Continuous
 62
     7
370
    25
100
AcDbLine
 10
109.1055427252
 20
123.2543884128
 30
0.0
 11
109.6055427252
 21
123.2543884128
 31
0.0
  0
SPLINE
  5
20C
330
1F
100
AcDbEntity
  8
0
  6
Continuous
 62
     7
370
    25
100
AcDbSpline
210
0.0
220
0.0
230
1.0
 70
     8
 71
     3
 72
     8
 73
     4
 74
     0
 42
0.00000001
 43
0.00000001
 40
0.0
 40
0.0
 40
0.0
 40
0.0
 40
1.0
 40
1.0
 40
1.0
 40
1.0
 10
95.1055427251732
 20
109.0065815640652
 30
0.0
 10
95.1055427251732
 20
108.7081586959644
 30
0.0
 10
95.06494992102304
 20
108.4157407460825
 30
0.0
 10
94.97594122563463
 20
108.1304849884527
 30
0.0
  0
LINE
  5
20D
330
1F
100
AcDbEntity
  8
0
  6
Continuous
 62
     7
370
    25
100
AcDbLine
 10
94.9759412256
 20
108.1304849885
 30
0.0
 11
94.5083416005
 21
108.276390659
 31
0.0
  0
LINE
  5
20E
330
1F
100
AcDbEntity
  8
0
  6
Continuous
 62
     7
370
    25
100
AcDbLine
 10
94.6055427252
 20
109.0065815641
 30
0.0
 11
95.1055427252
 21
109.0065815641
 31
0.0
  0
LINE
  5
20F
330
1F
100
AcDbEntity
  8
0
  6
Continuous
 62
     7
370
    25
100
AcDbLine
 10
109.7027438498
 20
108.276390659
 30
0.0
 11
109.2351442247
 21
108.1304849885
 31
0.0
  0
SPLINE
  5
210
330
1F
100
AcDbEntity
  8
0
  6
Continuous
 62
     7
370
    25
100
AcDbSpline
210
0.0
220
0.0
230
1.0
 70
     8
 71
     3
 72
     8
 73
     4
 74
     0
 42
0.00000001
 43
0.00000001
 40
0.0
 40
0.0
 40
0.0
 40
0.0
 40
1.0
 40
1.0
 40
1.0
 40
1.0
 10
109.2351442247118
 20
108.1304849884527
 30
0.0
 10
109.1461355293233
 20
108.4157407460825
 30
0.0
 10
109.1055427251732
 20
108.7081586959644
 30
0.0
 10
109.1055427251732
 20
109.0065815640652
 30
0.0
  0
LINE
  5
211
330
1F
100
AcDbEntity
  8
0
  6
Continuous
 62
     7
370
    25
100
AcDbLine
 10
109.6055427252
 20
109.0065815641
 30
0.0
 11
109.1055427252
 21
109.0065815641
 31
0.0
  0
LINE
  5
212
330
1F
100
AcDbEntity
  8
0
  6
Continuous
 62
     7
370
    25
100
AcDbLine
 10
95.1055427252
 20
122.8586160004
 30
0.0
 11
95.1055427252
 21
123.2543884128
 31
0.0
  0
LINE
  5
213
330
1F
100
AcDbEntity
  8
0
  6
Continuous
 62
     7
370
    25
100
AcDbLine
 10
109.1055427252
 20
122.8586160004
 30
0.0
 11
109.1055427252
 21
123.2543884128
 31
0.0
  0
LINE
  5
214
330
1F
100
AcDbEntity
  8
0
  6
Continuous
 62
     7
370
    25
100
AcDbLine
 10
95.1055427252
 20
109.0065815641
 30
0.0
 11
95.1055427252
 21
109.4023539765
 31
0.0
  0
LINE
  5
215
330
1F
100
AcDbEntity
  8
0
  6
Continuous
 62
     7
370
    25
100
AcDbLine
 10
109.1055427252
 20
109.0065815641
 30
0.0
 11
109.1055427252
 21
109.4023539765
 31
0.0
  0
ARC
  5
216
330
1F
100
AcDbEntity
  8
0
  6
Continuous
 62
     7
370
    25
100
AcDbCircle
 10
94.8039244487
 20
125.109793806
 30
0.0
 40
0.4793241179195131
100
AcDbArc
 50
206.8979585986
 51
269.5422002632
  0
SPLINE
  5
217
330
1F
100
AcDbEntity
  8
0
  6
Continuous
 62
     7
370
    25
100
AcDbSpline
210
0.0
220
0.0
230
1.0
 70
     8
 71
     3
 72
    14
 73
    10
 74
     0
 42
0.00000001
 43
0.00000001
 40
0.0
 40
0.0
 40
0.0
 40
0.0
 40
0.25
 40
0.25
 40
0.5
 40
0.5
 40
0.75
 40
0.75
 40
1.0
 40
1.0
 40
1.0
 40
1.0
 10
94.97594122563463
 20
124.1304849884527
 30
0.0
 10
94.93746574201305
 20
124.1921382526802
 30
0.0
 10
94.89637682054303
 20
124.2503221979531
 30
0.0
 10
94.81709397310246
 20
124.36398751942
 30
0.0
 10
94.779811071992
 20
124.4176641181198
 30
0.0
 10
94.72700531268023
 20
124.5176541505664
 30
0.0
 10
94.71503605258658
 20
124.5620586507894
 30
0.0
 10
94.73503784095875
 20
124.6181185062832
 30
0.0
 10
94.76449429651106
 20
124.6304849884527
 30
0.0
 10
94.80009463570381
 20
124.6304849884527
 30
0.0
  0
ARC
  5
218
330
1F
100
AcDbEntity
  8
0
  6
Continuous
 62
     7
370
    25
100
AcDbCircle
 10
109.4071610017
 20
107.1511761709
 30
0.0
 40
0.4793241179194861
100
AcDbArc
 50
26.8979585986
 51
89.5422002632
  0
SPLINE
  5
219
330
1F
100
AcDbEntity
  8
0
  6
Continuous
 62
     7
370
    25
100
AcDbSpline
210
0.0
220
0.0
230
1.0
 70
     8
 71
     3
 72
    14
 73
    10
 74
     0
 42
0.00000001
 43
0.00000001
 40
0.0
 40
0.0
 40
0.0
 40
0.0
 40
0.25
 40
0.25
 40
0.5
 40
0.5
 40
0.75
 40
0.75
 40
1.0
 40
1.0
 40
1.0
 40
1.0
 10
109.2351442247118
 20
108.1304849884527
 30
0.0
 10
109.2736197083334
 20
108.0688317242252
 30
0.0
 10
109.3147086298034
 20
108.0106477789523
 30
0.0
 10
109.3939914772439
 20
107.8969824574853
 30
0.0
 10
109.4312743783544
 20
107.8433058587856
 30
0.0
 10
109.4840801376662
 20
107.7433158263389
 30
0.0
 10
109.4960493977598
 20
107.698911326116
 30
0.0
 10
109.4760476093876
 20
107.6428514706222
 30
0.0
 10
109.4465911538353
 20
107.6304849884527
 30
0.0
 10
109.4109908146426
 20
107.6304849884527
 30
0.0
  0
SPLINE
  5
21A
330
1F
100
AcDbEntity
  8
0
  6
Continuous
 62
     7
370
    25
100
AcDbSpline
210
0.0
220
0.0
230
1.0
 70
     8
 71
     3
 72
    16
 73
    12
 74
     0
 42
0.00000001
 43
0.00000001
 40
0.0
 40
0.0
 40
0.0
 40
0.0
 40
0.2500000000000011
 40
0.2500000000000011
 40
0.3749999999999992
 40
0.3749999999999992
 40
0.4999999999999974
 40
0.4999999999999974
 40
0.7499999999999987
 40
0.7499999999999987
 40
1.0
 40
1.0
 40
1.0
 40
1.0
 10
109.4109908146426
 20
124.6304849884527
 30
0.0
 10
109.4465447440912
 20
124.6304849884527
 30
0.0
 10
109.4758168853199
 20
124.6183532380369
 30
0.0
 10
109.4910294355408
 20
124.5763315317574
 30
0.0
 10
109.4910901037144
 20
124.5581171622509
 30
0.0
 10
109.480879519237
 20
124.5161801497243
 30
0.0
 10
109.4710961897118
 20
124.4931525862301
 30
0.0
 10
109.4319316411798
 20
124.418743907458
 30
0.0
 10
109.3940585679066
 20
124.3640860312755
 30
0.0
 10
109.314985594915
 20
124.2507169580968
 30
0.0
 10
109.2735984623242
 20
124.1921042079926
 30
0.0
 10
109.2351442247118
 20
124.1304849884527
 30
0.0
  0
ARC
  5
21B
330
1F
100
AcDbEntity
  8
0
  6
Continuous
 62
     7
370
    25
100
AcDbCircle
 10
109.4071610017
 20
125.109793806
 30
0.0
 40
0.4793241179195181
100
AcDbArc
 50
270.4577997368
 51
333.1020414014
  0
SPLINE
  5
21C
330
1F
100
AcDbEntity
  8
0
  6
Continuous
 62
     7
370
    25
100
AcDbSpline
210
0.0
220
0.0
230
1.0
 70
     8
 71
     3
 72
    16
 73
    12
 74
     0
 42
0.00000001
 43
0.00000001
 40
0.0
 40
0.0
 40
0.0
 40
0.0
 40
0.2500000000000049
 40
0.2500000000000049
 40
0.3750000000000051
 40
0.3750000000000051
 40
0.5000000000000052
 40
0.5000000000000052
 40
0.7500000000000026
 40
0.7500000000000026
 40
1.0
 40
1.0
 40
1.0
 40
1.0
 10
94.80009463570381
 20
107.6304849884527
 30
0.0
 10
94.76454070625516
 20
107.6304849884527
 30
0.0
 10
94.73526856502647
 20
107.6426167388685
 30
0.0
 10
94.72005601480559
 20
107.6846384451479
 30
0.0
 10
94.71999534663206
 20
107.7028528146544
 30
0.0
 10
94.73020593110938
 20
107.744789827181
 30
0.0
 10
94.7399892606346
 20
107.7678173906753
 30
0.0
 10
94.77915380916656
 20
107.8422260694473
 30
0.0
 10
94.81702688243982
 20
107.8968839456298
 30
0.0
 10
94.8960998554314
 20
108.0102530188085
 30
0.0
 10
94.93748698802221
 20
108.0688657689127
 30
0.0
 10
94.97594122563463
 20
108.1304849884527
 30
0.0
  0
ARC
  5
21D
330
1F
100
AcDbEntity
  8
0
  6
Continuous
 62
     7
370
    25
100
AcDbCircle
 10
94.8039244487
 20
107.1511761709
 30
0.0
 40
0.4793241179194351
100
AcDbArc
 50
90.4577997368
 51
153.1020414014
  0
LINE
  5
21E
330
1F
100
AcDbEntity
  8
0
  6
Continuous
 62
     7
370
    25
100
AcDbLine
 10
109.2351442247
 20
124.1304849885
 30
0.0
 11
94.9759412256
 21
124.1304849885
 31
0.0
  0
LINE
  5
21F
330
1F
100
AcDbEntity
  8
0
  6
Continuous
 62
     7
370
    25
100
AcDbLine
 10
94.8000946357
 20
124.6304849885
 30
0.0
 11
109.4109908146
 21
124.6304849885
 31
0.0
  0
LINE
  5
220
330
1F
100
AcDbEntity
  8
0
  6
Continuous
 62
     7
370
    25
100
AcDbLine
 10
94.9759412256
 20
108.1304849885
 30
0.0
 11
109.2351442247
 21
108.1304849885
 31
0.0
  0
LINE
  5
221
330
1F
100
AcDbEntity
  8
0
  6
Continuous
 62
     7
370
    25
100
AcDbLine
 10
109.4109908146
 20
107.6304849885
 30
0.0
 11
94.8000946357
 21
107.6304849885
 31
0.0
  0
ARC
  5
222
330
1F
100
AcDbEntity
  8
0
  6
Continuous
 62
     7
370
    25
100
AcDbCircle
 10
95.1055427252
 20
125.1304849885
 30
0.0
 40
0.5
100
AcDbArc
 50
180.0
 51
270.0
  0
ARC
  5
223
330
1F
100
AcDbEntity
  8
0
  6
Continuous
 62
     7
370
    25
100
AcDbCircle
 10
109.1055427252
 20
125.1304849885
 30
0.0
 40
0.5
100
AcDbArc
 50
270.0
 51
0.0
  0
ARC
  5
224
330
1F
100
AcDbEntity
  8
0
  6
Continuous
 62
     7
370
    25
100
AcDbCircle
 10
95.1055427252
 20
107.1304849885
 30
0.0
 40
0.5
100
AcDbArc
 50
90.0
 51
180.0
  0
ARC
  5
225
330
1F
100
AcDbEntity
  8
0
  6
Continuous
 62
     7
370
    25
100
AcDbCircle
 10
109.1055427252
 20
107.1304849885
 30
0.0
 40
0.5
100
AcDbArc
 50
0.0
 51
90.0
  0
LINE
  5
226
330
1F
100
AcDbEntity
  8
0
  6
Continuous
 62
     7
370
    25
100
AcDbLine
 10
95.1055427252
 20
122.8586160004
 30
0.0
 11
95.1055427252
 21
121.426797469
 31
0.0
  0
LINE
  5
227
330
1F
100
AcDbEntity
  8
0
  6
Continuous
 62
     7
370
    25
100
AcDbLine
 10
95.1055427252
 20
110.8341725079
 30
0.0
 11
95.1055427252
 21
109.4023539765
 31
0.0
  0
LINE
  5
228
330
1F
100
AcDbEntity
  8
0
  6
Continuous
 62
     7
370
    25
100
AcDbLine
 10
109.1055427252
 20
109.4023539765
 30
0.0
 11
109.1055427252
 21
113.5804849884
 31
0.0
  0
LINE
  5
229
330
1F
100
AcDbEntity
  8
0
  6
Continuous
 62
     7
370
    25
100
AcDbLine
 10
109.1055427252
 20
118.6804849885
 30
0.0
 11
109.1055427252
 21
122.8586160004
 31
0.0
  0
LINE
  5
22A
330
1F
100
AcDbEntity
  8
0
  6
Continuous
 62
     7
370
    25
100
AcDbLine
 10
109.1055427252
 20
122.8586160004
 30
0.0
 11
105.3047227899
 21
122.8586160004
 31
0.0
  0
LINE
  5
22B
330
1F
100
AcDbEntity
  8
0
  6
Continuous
 62
     7
370
    25
100
AcDbLine
 10
98.9063626605
 20
122.8586160004
 30
0.0
 11
95.1055427252
 21
122.8586160004
 31
0.0
  0
LINE
  5
22C
330
1F
100
AcDbEntity
  8
0
  6
Continuous
 62
     7
370
    25
100
AcDbLine
 10
95.1055427252
 20
109.4023539765
 30
0.0
 11
98.9063626605
 21
109.4023539765
 31
0.0
  0
LINE
  5
22D
330
1F
100
AcDbEntity
  8
0
  6
Continuous
 62
     7
370
    25
100
AcDbLine
 10
105.3047227899
 20
109.4023539765
 30
0.0
 11
109.1055427252
 21
109.4023539765
 31
0.0
  0
LINE
  5
22E
330
1F
100
AcDbEntity
  8
0
  6
Continuous
 62
     7
370
    25
100
AcDbLine
 10
95.1055427252
 20
123.2543884128
 30
0.0
 11
99.9255197895
 21
123.2543884128
 31
0.0
  0
LINE
  5
22F
330
1F
100
AcDbEntity
  8
0
  6
Continuous
 62
     7
370
    25
100
AcDbLine
 10
104.2855656609
 20
123.2543884128
 30
0.0
 11
109.1055427252
 21
123.2543884128
 31
0.0
  0
LINE
  5
230
330
1F
100
AcDbEntity
  8
0
  6
Continuous
 62
     7
370
    25
100
AcDbLine
 10
109.1055427252
 20
109.0065815641
 30
0.0
 11
104.2855656609
 21
109.0065815641
 31
0.0
  0
LINE
  5
231
330
1F
100
AcDbEntity
  8
0
  6
Continuous
 62
     7
370
    25
100
AcDbLine
 10
99.9255197895
 20
109.0065815641
 30
0.0
 11
95.1055427252
 21
109.0065815641
 31
0.0
  0
INSERT
  5
23D
330
1F
100
AcDbEntity
  8
FORMAT
100
AcDbBlockReference
  2
SW_CENTERMARKSYMBOL_1
 10
102.1055427252
 20
116.1304849885
 30
0.0
  0
ENDSEC
  0
SECTION
  2
OBJECTS
  0
DICTIONARY
  5
C
330
0
100
AcDbDictionary
281
     1
  3
ACAD_GROUP
350
D
  3
ACAD_LAYOUT
350
1A
  3
ACAD_MLINESTYLE
350
17
  3
ACAD_PLOTSETTINGS
350
19
  3
ACAD_PLOTSTYLENAME
350
E
  3
ACAD_SCALELIST
350
47
  3
DWGPROPS
350
23E
  0
DICTIONARY
  5
D
102
{ACAD_REACTORS
330
C
102
}
330
C
100
AcDbDictionary
281
     1
  0
DICTIONARY
  5
1A
102
{ACAD_REACTORS
330
C
102
}
330
C
100
AcDbDictionary
281
     1
  3
Layout1
350
1E
  3
Layout2
350
26
  3
Model
350
22
  0
DICTIONARY
  5
17
102
{ACAD_REACTORS
330
C
102
}
330
C
100
AcDbDictionary
281
     1
  3
Standard
350
18
  0
DICTIONARY
  5
19
102
{ACAD_REACTORS
330
C
102
}
330
C
100
AcDbDictionary
281
     1
  0
ACDBDICTIONARYWDFLT
  5
E
102
{ACAD_REACTORS
330
C
102
}
330
C
100
AcDbDictionary
281
     1
  3
Normal
350
F
100
AcDbDictionaryWithDefault
340
F
  0
DICTIONARY
  5
47
102
{ACAD_REACTORS
330
C
102
}
330
C
100
AcDbDictionary
281
     1
  3
A0
350
48
  3
A1
350
49
  3
A2
350
4A
  3
A3
350
4B
  3
A4
350
4C
  3
A5
350
4D
  3
A6
350
4E
  3
A7
350
4F
  3
A8
350
50
  3
A9
350
51
  3
B0
350
52
  3
B1
350
53
  3
B2
350
54
  3
B3
350
55
  3
B4
350
56
  3
B5
350
57
  3
B6
350
58
  0
XRECORD
  5
23E
102
{ACAD_REACTORS
330
C
102
}
330
C
100
AcDbXrecord
280
     1
  1
DWGPROPS COOKIE
  2

  3

  4

  6

  7

  8
user28
  9

300
=
301
=
302
=
303
=
304
=
305
=
306
=
307
=
308
=
309
=
 40
0.0
 41
2460424.313999827
 42
2460424.314000857
  1

 90
        0
  0
LAYOUT
  5
1E
102
{ACAD_REACTORS
330
1A
102
}
330
1A
100
AcDbPlotSettings
  1

  2
none_device
  4

  6

 40
0.0
 41
0.0
 42
0.0
 43
0.0
 44
0.0
 45
0.0
 46
0.0
 47
0.0
 48
0.0
 49
0.0
140
0.0
141
0.0
142
1.0
143
1.0
 70
   688
 72
     1
 73
     0
 74
     5
  7

 75
    16
147
1.0
148
0.0
149
0.0
100
AcDbLayout
  1
Layout1
 70
     1
 71
     1
 10
0.0
 20
0.0
 11
420.0
 21
297.0
 12
0.0
 22
0.0
 32
0.0
 14
1.0000000000E+20
 24
1.0000000000E+20
 34
1.0000000000E+20
 15
-1.0000000000E+20
 25
-1.0000000000E+20
 35
-1.0000000000E+20
146
0.0
 13
0.0
 23
0.0
 33
0.0
 16
1.0
 26
0.0
 36
0.0
 17
0.0
 27
1.0
 37
0.0
 76
     0
330
1B
  0
LAYOUT
  5
26
102
{ACAD_REACTORS
330
1A
102
}
330
1A
100
AcDbPlotSettings
  1

  2
none_device
  4

  6

 40
0.0
 41
0.0
 42
0.0
 43
0.0
 44
0.0
 45
0.0
 46
0.0
 47
0.0
 48
0.0
 49
0.0
140
0.0
141
0.0
142
1.0
143
1.0
 70
   688
 72
     1
 73
     0
 74
     5
  7

 75
    16
147
1.0
148
0.0
149
0.0
100
AcDbLayout
  1
Layout2
 70
     1
 71
     2
 10
0.0
 20
0.0
 11
0.0
 21
0.0
 12
0.0
 22
0.0
 32
0.0
 14
0.0
 24
0.0
 34
0.0
 15
0.0
 25
0.0
 35
0.0
146
0.0
 13
0.0
 23
0.0
 33
0.0
 16
1.0
 26
0.0
 36
0.0
 17
0.0
 27
1.0
 37
0.0
 76
     0
330
23
  0
LAYOUT
  5
22
102
{ACAD_REACTORS
330
1A
102
}
330
1A
100
AcDbPlotSettings
  1

  2
none_device
  4
Letter_(8.50_x_11.00_Inches)
  6

 40
6.35
 41
6.35
 42
6.35000508
 43
6.35000508
 44
215.9
 45
279.4
 46
0.0
 47
0.0
 48
0.0
 49
0.0
140
0.0
141
0.0
142
1.0
143
1.0
 70
  1712
 72
     1
 73
     0
 74
     0
  7

 75
     0
147
1.0
148
0.0
149
0.0
100
AcDbLayout
  1
Model
 70
     1
 71
     0
 10
0.0
 20
0.0
 11
297.0
 21
210.0
 12
0.0
 22
0.0
 32
0.0
 14
0.0
 24
0.0
 34
0.0
 15
297.0
 25
210.0
 35
0.0
146
0.0
 13
0.0
 23
0.0
 33
0.0
 16
1.0
 26
0.0
 36
0.0
 17
0.0
 27
1.0
 37
0.0
 76
     0
330
1F
331
29
  0
MLINESTYLE
  5
18
102
{ACAD_REACTORS
330
17
102
}
330
17
100
AcDbMlineStyle
  2
Standard
 70
     0
  3

 62
   256
 51
90.0
 52
90.0
 71
     2
 49
0.5
 62
   256
  6
BYLAYER
 49
-0.5
 62
   256
  6
BYLAYER
  0
ACDBPLACEHOLDER
  5
F
102
{ACAD_REACTORS
330
E
102
}
330
E
  0
SCALE
  5
48
102
{ACAD_REACTORS
330
47
102
}
330
47
100
AcDbScale
 70
     0
300
1:1
140
1.0
141
1.0
290
     1
  0
SCALE
  5
49
102
{ACAD_REACTORS
330
47
102
}
330
47
100
AcDbScale
 70
     0
300
1:2
140
1.0
141
2.0
290
     0
  0
SCALE
  5
4A
102
{ACAD_REACTORS
330
47
102
}
330
47
100
AcDbScale
 70
     0
300
1:4
140
1.0
141
4.0
290
     0
  0
SCALE
  5
4B
102
{ACAD_REACTORS
330
47
102
}
330
47
100
AcDbScale
 70
     0
300
1:5
140
1.0
141
5.0
290
     0
  0
SCALE
  5
4C
102
{ACAD_REACTORS
330
47
102
}
330
47
100
AcDbScale
 70
     0
300
1:8
140
1.0
141
8.0
290
     0
  0
SCALE
  5
4D
102
{ACAD_REACTORS
330
47
102
}
330
47
100
AcDbScale
 70
     0
300
1:10
140
1.0
141
10.0
290
     0
  0
SCALE
  5
4E
102
{ACAD_REACTORS
330
47
102
}
330
47
100
AcDbScale
 70
     0
300
1:16
140
1.0
141
16.0
290
     0
  0
SCALE
  5
4F
102
{ACAD_REACTORS
330
47
102
}
330
47
100
AcDbScale
 70
     0
300
1:20
140
1.0
141
20.0
290
     0
  0
SCALE
  5
50
102
{ACAD_REACTORS
330
47
102
}
330
47
100
AcDbScale
 70
     0
300
1:30
140
1.0
141
30.0
290
     0
  0
SCALE
  5
51
102
{ACAD_REACTORS
330
47
102
}
330
47
100
AcDbScale
 70
     0
300
1:40
140
1.0
141
40.0
290
     0
  0
SCALE
  5
52
102
{ACAD_REACTORS
330
47
102
}
330
47
100
AcDbScale
 70
     0
300
1:50
140
1.0
141
50.0
290
     0
  0
SCALE
  5
53
102
{ACAD_REACTORS
330
47
102
}
330
47
100
AcDbScale
 70
     0
300
1:100
140
1.0
141
100.0
290
     0
  0
SCALE
  5
54
102
{ACAD_REACTORS
330
47
102
}
330
47
100
AcDbScale
 70
     0
300
2:1
140
2.0
141
1.0
290
     0
  0
SCALE
  5
55
102
{ACAD_REACTORS
330
47
102
}
330
47
100
AcDbScale
 70
     0
300
4:1
140
4.0
141
1.0
290
     0
  0
SCALE
  5
56
102
{ACAD_REACTORS
330
47
102
}
330
47
100
AcDbScale
 70
     0
300
8:1
140
8.0
141
1.0
290
     0
  0
SCALE
  5
57
102
{ACAD_REACTORS
330
47
102
}
330
47
100
AcDbScale
 70
     0
300
10:1
140
10.0
141
1.0
290
     0
  0
SCALE
  5
58
102
{ACAD_REACTORS
330
47
102
}
330
47
100
AcDbScale
 70
     0
300
100:1
140
100.0
141
1.0
290
     0
  0
ENDSEC
  0
EOF
