  0
SECTION
  2
HEADER
  9
$ACADVER
  1
AC1027
  9
$ACADMAINTVER
 70
    81
  9
$DWGCODEPAGE
  3
ANSI_932
  9
$AUTHOR
  1
水田
  9
$REVISIONNUMBER
  1
A
  9
$CUSTOMPROPERTYTAG
  1
マネージャ
  9
$CUSTOMPROPERTY
  1

  9
$CUSTOMPROPERTYTAG
  1
会社
  9
$CUSTOMPROPERTY
  1

  9
$CUSTOMPROPERTYTAG
  1
カテゴリ
  9
$CUSTOMPROPERTY
  1

  9
$CUSTOMPROPERTYTAG
  1
部品番号
  9
$CUSTOMPROPERTY
  1
DXF用
  9
$CUSTOMPROPERTYTAG
  1
説明
  9
$CUSTOMPROPERTY
  1

  9
$CUSTOMPROPERTYTAG
  1
プロジェクト
  9
$CUSTOMPROPERTY
  1

  9
$CUSTOMPROPERTYTAG
  1
設計者
  9
$CUSTOMPROPERTY
  1
水田
  9
$CUSTOMPROPERTYTAG
  1
エンジニア
  9
$CUSTOMPROPERTY
  1

  9
$CUSTOMPROPERTYTAG
  1
責任者
  9
$CUSTOMPROPERTY
  1
mizuta
  9
$CUSTOMPROPERTYTAG
  1
コスト センター
  9
$CUSTOMPROPERTY
  1

  9
$CUSTOMPROPERTYTAG
  1
原価
  9
$CUSTOMPROPERTY
  1

  9
$CUSTOMPROPERTYTAG
  1
ベンダー
  9
$CUSTOMPROPERTY
  1

  9
$CUSTOMPROPERTYTAG
  1
ユーザ ステータス
  9
$CUSTOMPROPERTY
  1

  9
$CUSTOMPROPERTYTAG
  1
設計ステータス
  9
$CUSTOMPROPERTY
  1
作業中
  9
$CUSTOMPROPERTYTAG
  1
確認者
  9
$CUSTOMPROPERTY
  1
mizuta
  9
$CUSTOMPROPERTYTAG
  1
エンジニアリング承認者
  9
$CUSTOMPROPERTY
  1

  9
$CUSTOMPROPERTYTAG
  1
製造承認者
  9
$CUSTOMPROPERTY
  1

  9
$CUSTOMPROPERTYTAG
  1
作成日
  9
$CUSTOMPROPERTY
  1
03/17/2014
  9
$CUSTOMPROPERTYTAG
  1
ストック番号
  9
$CUSTOMPROPERTY
  1

  9
$REQUIREDVERSIONS
160
                 0
  9
$INSBASE
 10
0.0
 20
0.0
 30
0.0
  9
$EXTMIN
 10
0.0
 20
0.0
 30
0.0
  9
$EXTMAX
 10
297.0
 20
210.0
 30
0.0
  9
$LIMMIN
 10
0.0
 20
0.0
  9
$LIMMAX
 10
297.0
 20
210.0
  9
$ORTHOMODE
 70
     0
  9
$REGENMODE
 70
     1
  9
$FILLMODE
 70
     1
  9
$QTEXTMODE
 70
     0
  9
$MIRRTEXT
 70
     0
  9
$LTSCALE
 40
1.0
  9
$ATTMODE
 70
     1
  9
$TEXTSIZE
 40
0.2
  9
$TRACEWID
 40
0.05
  9
$TEXTSTYLE
  7
Standard
  9
$CLAYER
  8
0
  9
$CELTYPE
  6
ByLayer
  9
$CECOLOR
 62
   256
  9
$CELTSCALE
 40
1.0
  9
$DISPSILH
 70
     0
  9
$DIMSCALE
 40
1.0
  9
$DIMASZ
 40
1.799999999999999
  9
$DIMEXO
 40
0.0625
  9
$DIMDLI
 40
0.38
  9
$DIMRND
 40
0.0
  9
$DIMDLE
 40
0.0
  9
$DIMEXE
 40
0.18
  9
$DIMTP
 40
0.0
  9
$DIMTM
 40
0.0
  9
$DIMTXT
 40
0.25
  9
$DIMCEN
 40
0.09
  9
$DIMTSZ
 40
0.0
  9
$DIMTOL
 70
     0
  9
$DIMLIM
 70
     0
  9
$DIMTIH
 70
     1
  9
$DIMTOH
 70
     1
  9
$DIMSE1
 70
     0
  9
$DIMSE2
 70
     0
  9
$DIMTAD
 70
     0
  9
$DIMZIN
 70
     0
  9
$DIMBLK
  1

  9
$DIMASO
 70
     1
  9
$DIMSHO
 70
     1
  9
$DIMPOST
  1

  9
$DIMAPOST
  1

  9
$DIMALT
 70
     0
  9
$DIMALTD
 70
     2
  9
$DIMALTF
 40
25.4
  9
$DIMLFAC
 40
1.0
  9
$DIMTOFL
 70
     0
  9
$DIMTVP
 40
0.0
  9
$DIMTIX
 70
     0
  9
$DIMSOXD
 70
     0
  9
$DIMSAH
 70
     0
  9
$DIMBLK1
  1

  9
$DIMBLK2
  1

  9
$DIMSTYLE
  2
Standard
  9
$DIMCLRD
 70
     0
  9
$DIMCLRE
 70
     0
  9
$DIMCLRT
 70
     0
  9
$DIMTFAC
 40
1.0
  9
$DIMGAP
 40
0.09
  9
$DIMJUST
 70
     0
  9
$DIMSD1
 70
     0
  9
$DIMSD2
 70
     0
  9
$DIMTOLJ
 70
     1
  9
$DIMTZIN
 70
     0
  9
$DIMALTZ
 70
     0
  9
$DIMALTTZ
 70
     0
  9
$DIMUPT
 70
     0
  9
$DIMDEC
 70
     4
  9
$DIMTDEC
 70
     4
  9
$DIMALTU
 70
     2
  9
$DIMALTTD
 70
     2
  9
$DIMTXSTY
  7
Standard
  9
$DIMAUNIT
 70
     0
  9
$DIMADEC
 70
     0
  9
$DIMALTRND
 40
0.0
  9
$DIMAZIN
 70
     0
  9
$DIMDSEP
 70
    46
  9
$DIMATFIT
 70
     3
  9
$DIMFRAC
 70
     0
  9
$DIMLDRBLK
  1

  9
$DIMLUNIT
 70
     2
  9
$DIMLWD
 70
    -2
  9
$DIMLWE
 70
    -2
  9
$DIMTMOVE
 70
     0
  9
$DIMFXL
 40
1.0
  9
$DIMFXLON
 70
     0
  9
$DIMJOGANG
 40
0.7853981633974483
  9
$DIMTFILL
 70
     0
  9
$DIMTFILLCLR
 70
     0
  9
$DIMARCSYM
 70
     0
  9
$DIMLTYPE
  6

  9
$DIMLTEX1
  6

  9
$DIMLTEX2
  6

  9
$DIMTXTDIRECTION
 70
     0
  9
$LUNITS
 70
     2
  9
$LUPREC
 70
     4
  9
$SKETCHINC
 40
0.1
  9
$FILLETRAD
 40
0.0
  9
$AUNITS
 70
     0
  9
$AUPREC
 70
     0
  9
$MENU
  1
.
  9
$ELEVATION
 40
0.0
  9
$PELEVATION
 40
0.0
  9
$THICKNESS
 40
0.0
  9
$LIMCHECK
 70
     0
  9
$CHAMFERA
 40
0.0
  9
$CHAMFERB
 40
0.0
  9
$CHAMFERC
 40
0.0
  9
$CHAMFERD
 40
0.0
  9
$SKPOLY
 70
     0
  9
$TDCREATE
 40
2459191.678433253
  9
$TDUCREATE
 40
2459191.303433253
  9
$TDUPDATE
 40
2459191.678433253
  9
$TDUUPDATE
 40
2459191.303433253
  9
$TDINDWG
 40
0.0000292708
  9
$TDUSRTIMER
 40
0.0000292708
  9
$USRTIMER
 70
     1
  9
$ANGBASE
 50
0.0
  9
$ANGDIR
 70
     0
  9
$PDMODE
 70
     0
  9
$PDSIZE
 40
0.0
  9
$PLINEWID
 40
0.0
  9
$SPLFRAME
 70
     0
  9
$SPLINETYPE
 70
     6
  9
$SPLINESEGS
 70
     8
  9
$HANDSEED
  5
328
  9
$SURFTAB1
 70
     6
  9
$SURFTAB2
 70
     6
  9
$SURFTYPE
 70
     6
  9
$SURFU
 70
     6
  9
$SURFV
 70
     6
  9
$UCSBASE
  2

  9
$UCSNAME
  2

  9
$UCSORG
 10
0.0
 20
0.0
 30
0.0
  9
$UCSXDIR
 10
1.0
 20
0.0
 30
0.0
  9
$UCSYDIR
 10
0.0
 20
1.0
 30
0.0
  9
$UCSORTHOREF
  2

  9
$UCSORTHOVIEW
 70
     0
  9
$UCSORGTOP
 10
0.0
 20
0.0
 30
0.0
  9
$UCSORGBOTTOM
 10
0.0
 20
0.0
 30
0.0
  9
$UCSORGLEFT
 10
0.0
 20
0.0
 30
0.0
  9
$UCSORGRIGHT
 10
0.0
 20
0.0
 30
0.0
  9
$UCSORGFRONT
 10
0.0
 20
0.0
 30
0.0
  9
$UCSORGBACK
 10
0.0
 20
0.0
 30
0.0
  9
$PUCSBASE
  2

  9
$PUCSNAME
  2

  9
$PUCSORG
 10
0.0
 20
0.0
 30
0.0
  9
$PUCSXDIR
 10
1.0
 20
0.0
 30
0.0
  9
$PUCSYDIR
 10
0.0
 20
1.0
 30
0.0
  9
$PUCSORTHOREF
  2

  9
$PUCSORTHOVIEW
 70
     0
  9
$PUCSORGTOP
 10
0.0
 20
0.0
 30
0.0
  9
$PUCSORGBOTTOM
 10
0.0
 20
0.0
 30
0.0
  9
$PUCSORGLEFT
 10
0.0
 20
0.0
 30
0.0
  9
$PUCSORGRIGHT
 10
0.0
 20
0.0
 30
0.0
  9
$PUCSORGFRONT
 10
0.0
 20
0.0
 30
0.0
  9
$PUCSORGBACK
 10
0.0
 20
0.0
 30
0.0
  9
$USERI1
 70
     0
  9
$USERI2
 70
     0
  9
$USERI3
 70
     0
  9
$USERI4
 70
     0
  9
$USERI5
 70
     0
  9
$USERR1
 40
0.0
  9
$USERR2
 40
0.0
  9
$USERR3
 40
0.0
  9
$USERR4
 40
0.0
  9
$USERR5
 40
0.0
  9
$WORLDVIEW
 70
     1
  9
$SHADEDGE
 70
     3
  9
$SHADEDIF
 70
    70
  9
$TILEMODE
 70
     1
  9
$MAXACTVP
 70
    64
  9
$PINSBASE
 10
0.0
 20
0.0
 30
0.0
  9
$PLIMCHECK
 70
     0
  9
$PEXTMIN
 10
0.0
 20
0.0
 30
0.0
  9
$PEXTMAX
 10
297.0
 20
210.0
 30
0.0
  9
$PLIMMIN
 10
0.0
 20
0.0
  9
$PLIMMAX
 10
297.0
 20
210.0
  9
$UNITMODE
 70
     0
  9
$VISRETAIN
 70
     1
  9
$PLINEGEN
 70
     0
  9
$PSLTSCALE
 70
     1
  9
$TREEDEPTH
 70
  3020
  9
$CMLSTYLE
  2
Standard
  9
$CMLJUST
 70
     0
  9
$CMLSCALE
 40
1.0
  9
$PROXYGRAPHICS
 70
     1
  9
$MEASUREMENT
 70
     1
  9
$CELWEIGHT
370
    -1
  9
$ENDCAPS
280
     0
  9
$JOINSTYLE
280
     0
  9
$LWDISPLAY
290
     0
  9
$INSUNITS
 70
     4
  9
$HYPERLINKBASE
  1

  9
$STYLESHEET
  1

  9
$XEDIT
290
     1
  9
$CEPSNTYPE
380
     0
  9
$PSTYLEMODE
290
     1
  9
$FINGERPRINTGUID
  2
{19425B93-B15C-4164-B79E-6BF1D905E7DB}
  9
$VERSIONGUID
  2
{81E45720-B55C-4A1E-BE4C-BE3FA3CDF40C}
  9
$EXTNAMES
290
     1
  9
$PSVPSCALE
 40
0.0
  9
$OLESTARTUP
290
     0
  9
$SORTENTS
280
   127
  9
$INDEXCTL
280
     0
  9
$HIDETEXT
280
     1
  9
$XCLIPFRAME
280
     2
  9
$HALOGAP
280
     0
  9
$OBSCOLOR
 70
   257
  9
$OBSLTYPE
280
     0
  9
$INTERSECTIONDISPLAY
280
     0
  9
$INTERSECTIONCOLOR
 70
   257
  9
$DIMASSOC
280
     1
  9
$PROJECTNAME
  1

  9
$CAMERADISPLAY
290
     0
  9
$LENSLENGTH
 40
50.0
  9
$CAMERAHEIGHT
 40
0.0
  9
$STEPSPERSEC
 40
2.0
  9
$STEPSIZE
 40
6.0
  9
$3DDWFPREC
 40
2.0
  9
$PSOLWIDTH
 40
0.25
  9
$PSOLHEIGHT
 40
4.0
  9
$LOFTANG1
 40
1.570796326794896
  9
$LOFTANG2
 40
1.570796326794896
  9
$LOFTMAG1
 40
0.0
  9
$LOFTMAG2
 40
0.0
  9
$LOFTPARAM
 70
     7
  9
$LOFTNORMALS
280
     1
  9
$LATITUDE
 40
37.795
  9
$LONGITUDE
 40
-122.394
  9
$NORTHDIRECTION
 40
0.0
  9
$TIMEZONE
 70
 -8000
  9
$LIGHTGLYPHDISPLAY
280
     1
  9
$TILEMODELIGHTSYNCH
280
     1
  9
$CMATERIAL
347
11
  9
$SOLIDHIST
280
     0
  9
$SHOWHIST
280
     1
  9
$DWFFRAME
280
     2
  9
$DGNFRAME
280
     0
  9
$REALWORLDSCALE
290
     1
  9
$INTERFERECOLOR
 62
     1
  9
$INTERFEREOBJVS
345
33
  9
$INTERFEREVPVS
346
30
  9
$CSHADOW
280
     0
  9
$SHADOWPLANELOCATION
 40
0.0
  0
ENDSEC
  0
SECTION
  2
CLASSES
  0
CLASS
  1
ACDBDICTIONARYWDFLT
  2
AcDbDictionaryWithDefault
  3
ObjectDBX Classes
 90
        0
 91
        1
280
     0
281
     0
  0
CLASS
  1
MATERIAL
  2
AcDbMaterial
  3
ObjectDBX Classes
 90
     1153
 91
        3
280
     0
281
     0
  0
CLASS
  1
VISUALSTYLE
  2
AcDbVisualStyle
  3
ObjectDBX Classes
 90
     4095
 91
       24
280
     0
281
     0
  0
CLASS
  1
SCALE
  2
AcDbScale
  3
ObjectDBX Classes
 90
     1153
 91
       17
280
     0
281
     0
  0
CLASS
  1
TABLESTYLE
  2
AcDbTableStyle
  3
ObjectDBX Classes
 90
     4095
 91
        1
280
     0
281
     0
  0
CLASS
  1
MLEADERSTYLE
  2
AcDbMLeaderStyle
  3
ACDB_MLEADERSTYLE_CLASS
 90
     4095
 91
        1
280
     0
281
     0
  0
CLASS
  1
ACDBSECTIONVIEWSTYLE
  2
AcDbSectionViewStyle
  3
ObjectDBX Classes
 90
     1025
 91
        1
280
     0
281
     0
  0
CLASS
  1
ACDBDETAILVIEWSTYLE
  2
AcDbDetailViewStyle
  3
ObjectDBX Classes
 90
     1025
 91
        1
280
     0
281
     0
  0
CLASS
  1
DICTIONARYVAR
  2
AcDbDictionaryVar
  3
ObjectDBX Classes
 90
        0
 91
        5
280
     0
281
     0
  0
CLASS
  1
CELLSTYLEMAP
  2
AcDbCellStyleMap
  3
ObjectDBX Classes
 90
     1152
 91
        1
280
     0
281
     0
  0
ENDSEC
  0
SECTION
  2
TABLES
  0
TABLE
  2
VPORT
  5
8
330
0
100
AcDbSymbolTable
 70
     1
  0
VPORT
  5
57
330
8
100
AcDbSymbolTableRecord
100
AcDbViewportTableRecord
  2
*Active
 70
     0
 10
0.0
 20
0.0
 11
1.0
 21
1.0
 12
148.5
 22
105.0
 13
0.0
 23
0.0
 14
1.0
 24
1.0
 15
0.0
 25
0.0
 16
0.0
 26
0.0
 36
1.0
 17
0.0
 27
0.0
 37
0.0
 40
210.0
 41
1.414285714285714
 42
50.0
 43
0.0
 44
0.0
 50
0.0
 51
0.0
 71
     0
 72
   100
 73
     1
 74
     1
 75
     0
 76
     0
 77
     0
 78
     0
281
     0
 65
     1
110
0.0
120
0.0
130
0.0
111
1.0
121
0.0
131
0.0
112
0.0
122
1.0
132
0.0
 79
     0
146
0.0
 60
     3
 61
     5
292
     1
282
     1
141
0.0
142
0.0
 63
   250
421
  3355443
  0
ENDTAB
  0
TABLE
  2
LTYPE
  5
5
330
0
100
AcDbSymbolTable
 70
    58
  0
LTYPE
  5
5B
330
5
100
AcDbSymbolTableRecord
100
AcDbLinetypeTableRecord
  2
ByBlock
 70
     0
  3

 72
    65
 73
     0
 40
0.0
  0
LTYPE
  5
5C
330
5
100
AcDbSymbolTableRecord
100
AcDbLinetypeTableRecord
  2
ByLayer
 70
     0
  3

 72
    65
 73
     0
 40
0.0
  0
LTYPE
  5
5D
330
5
100
AcDbSymbolTableRecord
100
AcDbLinetypeTableRecord
  2
Continuous
 70
     0
  3
Solid line
 72
    65
 73
     0
 40
0.0
  0
LTYPE
  5
78
330
5
100
AcDbSymbolTableRecord
100
AcDbLinetypeTableRecord
  2
CHAIN
 70
     0
  3
Chain ____ _ ____ _ ____ _ ____ _ ____ _ ____
 72
    65
 73
     4
 40
0.3543
 49
0.2362
 74
     0
 49
-0.0295
 74
     0
 49
0.0591
 74
     0
 49
-0.0295
 74
     0
  0
LTYPE
  5
79
330
5
100
AcDbSymbolTableRecord
100
AcDbLinetypeTableRecord
  2
DASH_DOT
 70
     0
  3
Dash dot __ . __ . __ . __ . __ . __ . __ . __
 72
    65
 73
     4
 40
0.37
 49
0.24
 74
     0
 49
-0.06
 74
     0
 49
0.01
 74
     0
 49
-0.06
 74
     0
  0
LTYPE
  5
7A
330
5
100
AcDbSymbolTableRecord
100
AcDbLinetypeTableRecord
  2
DASH_DOUBLE_DOT
 70
     0
  3
Dash Double-Dot __ . . __ . . __ . . __ . .
 72
    65
 73
     6
 40
0.4398
 49
0.24
 74
     0
 49
-0.06
 74
     0
 49
0.0098
 74
     0
 49
-0.06
 74
     0
 49
0.01
 74
     0
 49
-0.06
 74
     0
  0
LTYPE
  5
7B
330
5
100
AcDbSymbolTableRecord
100
AcDbLinetypeTableRecord
  2
DASH_TRIPLE_DOT
 70
     0
  3
Dash Triple-Dot _ . . . _ . . . _ . . . _
 72
    65
 73
     8
 40
0.51
 49
0.24
 74
     0
 49
-0.06
 74
     0
 49
0.01
 74
     0
 49
-0.06
 74
     0
 49
0.01
 74
     0
 49
-0.06
 74
     0
 49
0.01
 74
     0
 49
-0.06
 74
     0
  0
LTYPE
  5
7C
330
5
100
AcDbSymbolTableRecord
100
AcDbLinetypeTableRecord
  2
DASHED
 70
     0
  3
Dashed __ __ __ __ __ __ __ __ __ __ __ __ __ _
 72
    65
 73
     2
 40
0.2067
 49
0.1654
 74
     0
 49
-0.0413
 74
     0
  0
LTYPE
  5
7D
330
5
100
AcDbSymbolTableRecord
100
AcDbLinetypeTableRecord
  2
DASHED_SPACE
 70
     0
  3
Dashed Space __ __ __ __ __ __ __ __ __ __ __ _
 72
    65
 73
     2
 40
0.0826
 49
0.0413
 74
     0
 49
-0.0413
 74
     0
  0
LTYPE
  5
7E
330
5
100
AcDbSymbolTableRecord
100
AcDbLinetypeTableRecord
  2
DOTTED
 70
     0
  3
Dotted . . . . . . . . . . . . . . . . . . . . 
 72
    65
 73
     2
 40
0.0482
 49
0.0069
 74
     0
 49
-0.0413
 74
     0
  0
LTYPE
  5
7F
330
5
100
AcDbSymbolTableRecord
100
AcDbLinetypeTableRecord
  2
DOUBLE_DASH_CHAIN
 70
     0
  3
Double Dash Chain ___ _ _ ___ _ _ ___ _ _ ___ _
 72
    65
 73
     6
 40
1.240299999999999
 49
0.6614
 74
     0
 49
-0.0827
 74
     0
 49
0.1654
 74
     0
 49
-0.0827
 74
     0
 49
0.1654
 74
     0
 49
-0.0827
 74
     0
  0
LTYPE
  5
80
330
5
100
AcDbSymbolTableRecord
100
AcDbLinetypeTableRecord
  2
DOUBLE_DASH_DOT
 70
     0
  3
Double Dash Dot __ __ . __ __ . __ __ . __ _
 72
    65
 73
     6
 40
0.67
 49
0.24
 74
     0
 49
-0.06
 74
     0
 49
0.24
 74
     0
 49
-0.06
 74
     0
 49
0.01
 74
     0
 49
-0.06
 74
     0
  0
LTYPE
  5
81
330
5
100
AcDbSymbolTableRecord
100
AcDbLinetypeTableRecord
  2
DOUBLE_DASH_DOUBLE_DOT
 70
     0
  3
Double-dash double-dot _ _ . . _ _ . . _
 72
    65
 73
     8
 40
0.7400000000000001
 49
0.24
 74
     0
 49
-0.06
 74
     0
 49
0.24
 74
     0
 49
-0.06
 74
     0
 49
0.01
 74
     0
 49
-0.06
 74
     0
 49
0.01
 74
     0
 49
-0.06
 74
     0
  0
LTYPE
  5
82
330
5
100
AcDbSymbolTableRecord
100
AcDbLinetypeTableRecord
  2
DOUBLE_DASH_TRIPLE_DOT
 70
     0
  3
Double Dash Triple Dot __ __ . . . __ __ . . .
 72
    65
 73
    10
 40
0.8100000000000001
 49
0.24
 74
     0
 49
-0.06
 74
     0
 49
0.24
 74
     0
 49
-0.06
 74
     0
 49
0.01
 74
     0
 49
-0.06
 74
     0
 49
0.01
 74
     0
 49
-0.06
 74
     0
 49
0.01
 74
     0
 49
-0.06
 74
     0
  0
LTYPE
  5
83
330
5
100
AcDbSymbolTableRecord
100
AcDbLinetypeTableRecord
  2
LONG_DASH_DOTTED
 70
     0
  3
Long Dash Dotted ____ . ____ . ____ . ____ . _
 72
    65
 73
     4
 40
0.61
 49
0.48
 74
     0
 49
-0.06
 74
     0
 49
0.01
 74
     0
 49
-0.06
 74
     0
  0
LTYPE
  5
84
330
5
100
AcDbSymbolTableRecord
100
AcDbLinetypeTableRecord
  2
LONG_DASH_DOUBLE_DOT
 70
     0
  3
Long Dash Double Dot ____ . . ____ . . ____ . .
 72
    65
 73
     6
 40
0.3345
 49
0.2362
 74
     0
 49
-0.0295
 74
     0
 49
0.0049
 74
     0
 49
-0.0295
 74
     0
 49
0.0049
 74
     0
 49
-0.0295
 74
     0
  0
LTYPE
  5
85
330
5
100
AcDbSymbolTableRecord
100
AcDbLinetypeTableRecord
  2
LONG_DASH_TRIPLE_DOT
 70
     0
  3
Long Dash Triple Dot ____ ... ____ ... ____
 72
    65
 73
     8
 40
0.75
 49
0.48
 74
     0
 49
-0.06
 74
     0
 49
0.01
 74
     0
 49
-0.06
 74
     0
 49
0.01
 74
     0
 49
-0.06
 74
     0
 49
0.01
 74
     0
 49
-0.06
 74
     0
  0
LTYPE
  5
86
330
5
100
AcDbSymbolTableRecord
100
AcDbLinetypeTableRecord
  2
BORDER
 70
     0
  3
Border __ __ . __ __ . __ __ . __ __ . __ __ .
 72
    65
 73
     6
 40
44.45
 49
12.7
 74
     0
 49
-6.349999999999999
 74
     0
 49
12.7
 74
     0
 49
-6.349999999999999
 74
     0
 49
0.0
 74
     0
 49
-6.349999999999999
 74
     0
  0
LTYPE
  5
87
330
5
100
AcDbSymbolTableRecord
100
AcDbLinetypeTableRecord
  2
BORDER2
 70
     0
  3
Border (.5x) __.__.__.__.__.__.__.__.__.__.__.
 72
    65
 73
     6
 40
22.225
 49
6.349999999999999
 74
     0
 49
-3.174999999999999
 74
     0
 49
6.349999999999999
 74
     0
 49
-3.174999999999999
 74
     0
 49
0.0
 74
     0
 49
-3.174999999999999
 74
     0
  0
LTYPE
  5
88
330
5
100
AcDbSymbolTableRecord
100
AcDbLinetypeTableRecord
  2
BORDERX2
 70
     0
  3
Border (2x) ____  ____  .  ____  ____  .  ___
 72
    65
 73
     6
 40
88.9
 49
25.4
 74
     0
 49
-12.7
 74
     0
 49
25.4
 74
     0
 49
-12.7
 74
     0
 49
0.0
 74
     0
 49
-12.7
 74
     0
  0
LTYPE
  5
89
330
5
100
AcDbSymbolTableRecord
100
AcDbLinetypeTableRecord
  2
CENTER
 70
     0
  3
Center ____ _ ____ _ ____ _ ____ _ ____ _ ____
 72
    65
 73
     4
 40
50.8
 49
31.75
 74
     0
 49
-6.349999999999999
 74
     0
 49
6.349999999999999
 74
     0
 49
-6.349999999999999
 74
     0
  0
LTYPE
  5
8A
330
5
100
AcDbSymbolTableRecord
100
AcDbLinetypeTableRecord
  2
CENTER2
 70
     0
  3
Center (.5x) ___ _ ___ _ ___ _ ___ _ ___ _ ___
 72
    65
 73
     4
 40
28.575
 49
19.05
 74
     0
 49
-3.174999999999999
 74
     0
 49
3.174999999999999
 74
     0
 49
-3.174999999999999
 74
     0
  0
LTYPE
  5
8B
330
5
100
AcDbSymbolTableRecord
100
AcDbLinetypeTableRecord
  2
CENTERX2
 70
     0
  3
Center (2x) ________  __  ________  __  _____
 72
    65
 73
     4
 40
101.6
 49
63.5
 74
     0
 49
-12.7
 74
     0
 49
12.7
 74
     0
 49
-12.7
 74
     0
  0
LTYPE
  5
8C
330
5
100
AcDbSymbolTableRecord
100
AcDbLinetypeTableRecord
  2
DASHDOT
 70
     0
  3
Dash dot __ . __ . __ . __ . __ . __ . __ . __
 72
    65
 73
     4
 40
25.4
 49
12.7
 74
     0
 49
-6.349999999999999
 74
     0
 49
0.0
 74
     0
 49
-6.349999999999999
 74
     0
  0
LTYPE
  5
8D
330
5
100
AcDbSymbolTableRecord
100
AcDbLinetypeTableRecord
  2
DASHDOT2
 70
     0
  3
Dash dot (.5x) _._._._._._._._._._._._._._._.
 72
    65
 73
     4
 40
12.7
 49
6.349999999999999
 74
     0
 49
-3.174999999999999
 74
     0
 49
0.0
 74
     0
 49
-3.174999999999999
 74
     0
  0
LTYPE
  5
8E
330
5
100
AcDbSymbolTableRecord
100
AcDbLinetypeTableRecord
  2
DASHDOTX2
 70
     0
  3
Dash dot (2x) ____  .  ____  .  ____  .  ___
 72
    65
 73
     4
 40
50.8
 49
25.4
 74
     0
 49
-12.7
 74
     0
 49
0.0
 74
     0
 49
-12.7
 74
     0
  0
LTYPE
  5
8F
330
5
100
AcDbSymbolTableRecord
100
AcDbLinetypeTableRecord
  2
DASHED2
 70
     0
  3
Dashed (.5x) _ _ _ _ _ _ _ _ _ _ _ _ _ _ _ _ _
 72
    65
 73
     2
 40
9.524999999999998
 49
6.349999999999999
 74
     0
 49
-3.174999999999999
 74
     0
  0
LTYPE
  5
90
330
5
100
AcDbSymbolTableRecord
100
AcDbLinetypeTableRecord
  2
DASHEDX2
 70
     0
  3
Dashed (2x) ____  ____  ____  ____  ____  ___
 72
    65
 73
     2
 40
38.1
 49
25.4
 74
     0
 49
-12.7
 74
     0
  0
LTYPE
  5
91
330
5
100
AcDbSymbolTableRecord
100
AcDbLinetypeTableRecord
  2
DIVIDE
 70
     0
  3
Divide ____ . . ____ . . ____ . . ____ . . ____
 72
    65
 73
     6
 40
31.75
 49
12.7
 74
     0
 49
-6.349999999999999
 74
     0
 49
0.0
 74
     0
 49
-6.349999999999999
 74
     0
 49
0.0
 74
     0
 49
-6.349999999999999
 74
     0
  0
LTYPE
  5
92
330
5
100
AcDbSymbolTableRecord
100
AcDbLinetypeTableRecord
  2
DIVIDE2
 70
     0
  3
Divide (.5x) __..__..__..__..__..__..__..__.._
 72
    65
 73
     6
 40
15.875
 49
6.349999999999999
 74
     0
 49
-3.174999999999999
 74
     0
 49
0.0
 74
     0
 49
-3.174999999999999
 74
     0
 49
0.0
 74
     0
 49
-3.174999999999999
 74
     0
  0
LTYPE
  5
93
330
5
100
AcDbSymbolTableRecord
100
AcDbLinetypeTableRecord
  2
DIVIDEX2
 70
     0
  3
Divide (2x) ________  .  .  ________  .  .  _
 72
    65
 73
     6
 40
63.49999999999999
 49
25.4
 74
     0
 49
-12.7
 74
     0
 49
0.0
 74
     0
 49
-12.7
 74
     0
 49
0.0
 74
     0
 49
-12.7
 74
     0
  0
LTYPE
  5
94
330
5
100
AcDbSymbolTableRecord
100
AcDbLinetypeTableRecord
  2
DOT2
 70
     0
  3
Dot (.5x) .....................................
 72
    65
 73
     2
 40
3.174999999999999
 49
0.0
 74
     0
 49
-3.174999999999999
 74
     0
  0
LTYPE
  5
95
330
5
100
AcDbSymbolTableRecord
100
AcDbLinetypeTableRecord
  2
DOTX2
 70
     0
  3
Dot (2x) .  .  .  .  .  .  .  .  .  .  .  .  . 
 72
    65
 73
     2
 40
12.7
 49
0.0
 74
     0
 49
-12.7
 74
     0
  0
LTYPE
  5
96
330
5
100
AcDbSymbolTableRecord
100
AcDbLinetypeTableRecord
  2
HIDDEN
 70
     0
  3
Hidden __ __ __ __ __ __ __ __ __ __ __ __ __ _
 72
    65
 73
     2
 40
9.524999999999998
 49
6.349999999999999
 74
     0
 49
-3.174999999999999
 74
     0
  0
LTYPE
  5
97
330
5
100
AcDbSymbolTableRecord
100
AcDbLinetypeTableRecord
  2
HIDDEN2
 70
     0
  3
Hidden (.5x) _ _ _ _ _ _ _ _ _ _ _ _ _ _ _ _ _
 72
    65
 73
     2
 40
4.762499999999999
 49
3.174999999999999
 74
     0
 49
-1.587499999999999
 74
     0
  0
LTYPE
  5
98
330
5
100
AcDbSymbolTableRecord
100
AcDbLinetypeTableRecord
  2
HIDDENX2
 70
     0
  3
Hidden (2x) ____ ____ ____ ____ ____ ____ ____
 72
    65
 73
     2
 40
19.05
 49
12.7
 74
     0
 49
-6.349999999999999
 74
     0
  0
LTYPE
  5
99
330
5
100
AcDbSymbolTableRecord
100
AcDbLinetypeTableRecord
  2
PHANTOM
 70
     0
  3
Phantom ______  __  __  ______  __  __  ______
 72
    65
 73
     6
 40
63.5
 49
31.75
 74
     0
 49
-6.349999999999999
 74
     0
 49
6.349999999999999
 74
     0
 49
-6.349999999999999
 74
     0
 49
6.349999999999999
 74
     0
 49
-6.349999999999999
 74
     0
  0
LTYPE
  5
9A
330
5
100
AcDbSymbolTableRecord
100
AcDbLinetypeTableRecord
  2
PHANTOM2
 70
     0
  3
Phantom (.5x) ___ _ _ ___ _ _ ___ _ _ ___ _ _
 72
    65
 73
     6
 40
31.75
 49
15.875
 74
     0
 49
-3.174999999999999
 74
     0
 49
3.174999999999999
 74
     0
 49
-3.174999999999999
 74
     0
 49
3.174999999999999
 74
     0
 49
-3.174999999999999
 74
     0
  0
LTYPE
  5
9B
330
5
100
AcDbSymbolTableRecord
100
AcDbLinetypeTableRecord
  2
PHANTOMX2
 70
     0
  3
Phantom (2x) ____________    ____    ____   _
 72
    65
 73
     6
 40
127.0
 49
63.5
 74
     0
 49
-12.7
 74
     0
 49
12.7
 74
     0
 49
-12.7
 74
     0
 49
12.7
 74
     0
 49
-12.7
 74
     0
  0
LTYPE
  5
9C
330
5
100
AcDbSymbolTableRecord
100
AcDbLinetypeTableRecord
  2
ACAD_ISO02W100
 70
     0
  3
ISO dash __ __ __ __ __ __ __ __ __ __ __ __ __
 72
    65
 73
     2
 40
15.0
 49
12.0
 74
     0
 49
-3.0
 74
     0
  0
LTYPE
  5
9D
330
5
100
AcDbSymbolTableRecord
100
AcDbLinetypeTableRecord
  2
ACAD_ISO03W100
 70
     0
  3
ISO dash space __    __    __    __    __    __
 72
    65
 73
     2
 40
30.0
 49
12.0
 74
     0
 49
-18.0
 74
     0
  0
LTYPE
  5
9E
330
5
100
AcDbSymbolTableRecord
100
AcDbLinetypeTableRecord
  2
ACAD_ISO04W100
 70
     0
  3
ISO long-dash dot ____ . ____ . ____ . ____ . _
 72
    65
 73
     4
 40
30.0
 49
24.0
 74
     0
 49
-3.0
 74
     0
 49
0.0
 74
     0
 49
-3.0
 74
     0
  0
LTYPE
  5
9F
330
5
100
AcDbSymbolTableRecord
100
AcDbLinetypeTableRecord
  2
ACAD_ISO05W100
 70
     0
  3
ISO long-dash double-dot ____ .. ____ .. ____ .
 72
    65
 73
     6
 40
33.0
 49
24.0
 74
     0
 49
-3.0
 74
     0
 49
0.0
 74
     0
 49
-3.0
 74
     0
 49
0.0
 74
     0
 49
-3.0
 74
     0
  0
LTYPE
  5
A0
330
5
100
AcDbSymbolTableRecord
100
AcDbLinetypeTableRecord
  2
ACAD_ISO06W100
 70
     0
  3
ISO long-dash triple-dot ____ ... ____ ... ____
 72
    65
 73
     8
 40
36.0
 49
24.0
 74
     0
 49
-3.0
 74
     0
 49
0.0
 74
     0
 49
-3.0
 74
     0
 49
0.0
 74
     0
 49
-3.0
 74
     0
 49
0.0
 74
     0
 49
-3.0
 74
     0
  0
LTYPE
  5
A1
330
5
100
AcDbSymbolTableRecord
100
AcDbLinetypeTableRecord
  2
ACAD_ISO07W100
 70
     0
  3
ISO dot . . . . . . . . . . . . . . . . . . . .
 72
    65
 73
     2
 40
3.0
 49
0.0
 74
     0
 49
-3.0
 74
     0
  0
LTYPE
  5
A2
330
5
100
AcDbSymbolTableRecord
100
AcDbLinetypeTableRecord
  2
ACAD_ISO08W100
 70
     0
  3
ISO long-dash short-dash ____ __ ____ __ ____ _
 72
    65
 73
     4
 40
36.0
 49
24.0
 74
     0
 49
-3.0
 74
     0
 49
6.0
 74
     0
 49
-3.0
 74
     0
  0
LTYPE
  5
A3
330
5
100
AcDbSymbolTableRecord
100
AcDbLinetypeTableRecord
  2
ACAD_ISO09W100
 70
     0
  3
ISO long-dash double-short-dash ____ __ __ ____
 72
    65
 73
     6
 40
45.0
 49
24.0
 74
     0
 49
-3.0
 74
     0
 49
6.0
 74
     0
 49
-3.0
 74
     0
 49
6.0
 74
     0
 49
-3.0
 74
     0
  0
LTYPE
  5
A4
330
5
100
AcDbSymbolTableRecord
100
AcDbLinetypeTableRecord
  2
ACAD_ISO10W100
 70
     0
  3
ISO dash dot __ . __ . __ . __ . __ . __ . __ .
 72
    65
 73
     4
 40
18.0
 49
12.0
 74
     0
 49
-3.0
 74
     0
 49
0.0
 74
     0
 49
-3.0
 74
     0
  0
LTYPE
  5
A5
330
5
100
AcDbSymbolTableRecord
100
AcDbLinetypeTableRecord
  2
ACAD_ISO11W100
 70
     0
  3
ISO double-dash dot __ __ . __ __ . __ __ . __ 
 72
    65
 73
     6
 40
33.0
 49
12.0
 74
     0
 49
-3.0
 74
     0
 49
12.0
 74
     0
 49
-3.0
 74
     0
 49
0.0
 74
     0
 49
-3.0
 74
     0
  0
LTYPE
  5
A6
330
5
100
AcDbSymbolTableRecord
100
AcDbLinetypeTableRecord
  2
ACAD_ISO12W100
 70
     0
  3
ISO dash double-dot __ . . __ . . __ . . __ . .
 72
    65
 73
     6
 40
21.0
 49
12.0
 74
     0
 49
-3.0
 74
     0
 49
0.0
 74
     0
 49
-3.0
 74
     0
 49
0.0
 74
     0
 49
-3.0
 74
     0
  0
LTYPE
  5
A7
330
5
100
AcDbSymbolTableRecord
100
AcDbLinetypeTableRecord
  2
ACAD_ISO13W100
 70
     0
  3
ISO double-dash double-dot __ __ . . __ __ . . 
 72
    65
 73
     8
 40
36.0
 49
12.0
 74
     0
 49
-3.0
 74
     0
 49
12.0
 74
     0
 49
-3.0
 74
     0
 49
0.0
 74
     0
 49
-3.0
 74
     0
 49
0.0
 74
     0
 49
-3.0
 74
     0
  0
LTYPE
  5
A8
330
5
100
AcDbSymbolTableRecord
100
AcDbLinetypeTableRecord
  2
ACAD_ISO14W100
 70
     0
  3
ISO dash triple-dot __ . . . __ . . . __ . . . 
 72
    65
 73
     8
 40
24.0
 49
12.0
 74
     0
 49
-3.0
 74
     0
 49
0.0
 74
     0
 49
-3.0
 74
     0
 49
0.0
 74
     0
 49
-3.0
 74
     0
 49
0.0
 74
     0
 49
-3.0
 74
     0
  0
LTYPE
  5
A9
330
5
100
AcDbSymbolTableRecord
100
AcDbLinetypeTableRecord
  2
ACAD_ISO15W100
 70
     0
  3
ISO double-dash triple-dot __ __ . . . __ __ . 
 72
    65
 73
    10
 40
39.0
 49
12.0
 74
     0
 49
-3.0
 74
     0
 49
12.0
 74
     0
 49
-3.0
 74
     0
 49
0.0
 74
     0
 49
-3.0
 74
     0
 49
0.0
 74
     0
 49
-3.0
 74
     0
 49
0.0
 74
     0
 49
-3.0
 74
     0
  0
LTYPE
  5
AC
330
5
100
AcDbSymbolTableRecord
100
AcDbLinetypeTableRecord
  2
FENCELINE1
 70
     0
  3
Fenceline circle ----0-----0----0-----0----0---
 72
    65
 73
     4
 40
36.83
 49
6.349999999999999
 74
     0
 49
-2.54
 74
     4
 75
   133
340
AB
 46
2.54
 50
0.0
 44
-2.54
 45
0.0
 49
-2.54
 74
     0
 49
25.4
 74
     0
  0
LTYPE
  5
AD
330
5
100
AcDbSymbolTableRecord
100
AcDbLinetypeTableRecord
  2
FENCELINE2
 70
     0
  3
Fenceline square ----[]-----[]----[]-----[]----
 72
    65
 73
     4
 40
36.83
 49
6.349999999999999
 74
     0
 49
-2.54
 74
     4
 75
   132
340
AB
 46
2.54
 50
0.0
 44
-2.54
 45
0.0
 49
-2.54
 74
     0
 49
25.4
 74
     0
  0
LTYPE
  5
AE
330
5
100
AcDbSymbolTableRecord
100
AcDbLinetypeTableRecord
  2
TRACKS
 70
     0
  3
Tracks -|-|-|-|-|-|-|-|-|-|-|-|-|-|-|-|-|-|-|-|
 72
    65
 73
     2
 40
7.62
 49
3.81
 74
     4
 75
   130
340
AB
 46
6.349999999999999
 50
0.0
 44
0.0
 45
0.0
 49
3.81
 74
     0
  0
LTYPE
  5
AF
330
5
100
AcDbSymbolTableRecord
100
AcDbLinetypeTableRecord
  2
BATTING
 70
     0
  3
Batting SSSSSSSSSSSSSSSSSSSSSSSSSSSSSSSSSSSSSSS
 72
    65
 73
     4
 40
10.16254
 49
0.00254
 74
     0
 49
-2.54
 74
     4
 75
   134
340
AB
 46
2.54
 50
0.0
 44
-2.54
 45
0.0
 49
-5.08
 74
     4
 75
   134
340
AB
 46
2.54
 50
180.0
 44
2.54
 45
0.0
 49
-2.54
 74
     0
  0
LTYPE
  5
B0
330
5
100
AcDbSymbolTableRecord
100
AcDbLinetypeTableRecord
  2
HOT_WATER_SUPPLY
 70
     0
  3
Hot water supply ---- HW ---- HW ---- HW ----
 72
    65
 73
     3
 40
22.86
 49
12.7
 74
     0
 49
-5.08
 74
     2
 75
     0
340
55
 46
2.54
 50
0.0
 44
-2.54
 45
-1.27
  9
HW
 49
-5.08
 74
     0
  0
LTYPE
  5
B1
330
5
100
AcDbSymbolTableRecord
100
AcDbLinetypeTableRecord
  2
GAS_LINE
 70
     0
  3
Gas line ----GAS----GAS----GAS----GAS----GAS---
 72
    65
 73
     3
 40
24.13
 49
12.7
 74
     0
 49
-5.08
 74
     2
 75
     0
340
55
 46
2.54
 50
0.0
 44
-2.54
 45
-1.27
  9
GAS
 49
-6.349999999999999
 74
     0
  0
LTYPE
  5
B2
330
5
100
AcDbSymbolTableRecord
100
AcDbLinetypeTableRecord
  2
ZIGZAG
 70
     0
  3
Zig zag /\/\/\/\/\/\/\/\/\/\/\/\/\/\/\/\/\/\/\/
 72
    65
 73
     4
 40
20.32254
 49
0.00254
 74
     0
 49
-5.08
 74
     4
 75
   131
340
AB
 46
5.08
 50
0.0
 44
-5.08
 45
0.0
 49
-10.16
 74
     4
 75
   131
340
AB
 46
5.08
 50
180.0
 44
5.08
 45
0.0
 49
-5.08
 74
     0
  0
ENDTAB
  0
TABLE
  2
LAYER
  5
2
330
0
100
AcDbSymbolTable
 70
    30
  0
LAYER
  5
54
330
2
100
AcDbSymbolTableRecord
100
AcDbLayerTableRecord
  2
0
 70
     0
 62
     7
  6
Continuous
370
    25
390
F
347
21
348
0
  0
LAYER
  5
B3
330
2
100
AcDbSymbolTableRecord
100
AcDbLayerTableRecord
  2
1
 70
     0
 62
     9
420
 12566463
  6
Continuous
370
    25
390
F
347
21
348
0
  0
LAYER
  5
B5
330
2
100
AcDbSymbolTableRecord
100
AcDbLayerTableRecord
  2
6
 70
     0
 62
     2
420
 16776960
  6
Continuous
370
    25
390
F
347
21
348
0
  0
LAYER
  5
B6
330
2
100
AcDbSymbolTableRecord
100
AcDbLayerTableRecord
  2
AM_6
 70
     0
 62
     2
420
 16776960
  6
Continuous
370
    35
390
F
347
21
348
0
  0
LAYER
  5
C6
330
2
100
AcDbSymbolTableRecord
100
AcDbLayerTableRecord
  2
Sketch Geometry (ISO)
 70
     0
 62
     7
  6
Continuous
370
    25
390
F
347
21
348
0
  0
LAYER
  5
C7
330
2
100
AcDbSymbolTableRecord
100
AcDbLayerTableRecord
  2
Symbol (ISO)
 70
     0
 62
     7
  6
Continuous
370
    25
390
F
347
21
348
0
  0
LAYER
  5
CA
330
2
100
AcDbSymbolTableRecord
100
AcDbLayerTableRecord
  2
Visible (ISO)
 70
     0
 62
     7
  6
Continuous
370
    35
390
F
347
21
348
0
  0
ENDTAB
  0
TABLE
  2
STYLE
  5
3
330
0
100
AcDbSymbolTable
 70
    16
  0
STYLE
  5
55
330
3
100
AcDbSymbolTableRecord
100
AcDbTextStyleTableRecord
  2
Standard
 70
     0
 40
0.0
 41
1.0
 50
0.0
 71
     0
 42
0.2
  3
tahoma.ttf
  4

1001
ACAD
1000
Tahoma
1071
      256
  0
STYLE
  5
5A
330
3
100
AcDbSymbolTableRecord
100
AcDbTextStyleTableRecord
  2
Annotative
 70
     0
 40
0.0
 41
1.0
 50
0.0
 71
     0
 42
0.2
  3
txt
  4

1001
AcadAnnotative
1000
AnnotativeData
1002
{
1070
     1
1070
     1
1002
}
  0
STYLE
  5
AB
330
3
100
AcDbSymbolTableRecord
100
AcDbTextStyleTableRecord
  2

 70
     1
 40
0.0
 41
1.0
 50
0.0
 71
     0
 42
0.2
  3
ltypeshp.shx
  4

  0
STYLE
  5
D0
330
3
100
AcDbSymbolTableRecord
100
AcDbTextStyleTableRecord
  2
Label Text (JIS)
 70
     0
 40
0.0
 41
1.0
 50
0.0
 71
     0
 42
0.2
  3

  4

1001
ACAD
1000
MS PGothic
1071
      256
  0
STYLE
  5
D1
330
3
100
AcDbSymbolTableRecord
100
AcDbTextStyleTableRecord
  2
Note Text (JIS)
 70
     0
 40
0.0
 41
1.0
 50
0.0
 71
     0
 42
0.2
  3

  4

1001
ACAD
1000
MS PGothic
1071
      256
  0
STYLE
  5
D2
330
3
100
AcDbSymbolTableRecord
100
AcDbTextStyleTableRecord
  2
ｽﾀｲﾙ1_35
 70
     0
 40
0.0
 41
1.0
 50
0.0
 71
     0
 42
0.2
  3

  4

1001
ACAD
1000
HGPSoeiKakugothicUB
1071
      256
  0
STYLE
  5
10F
330
3
100
AcDbSymbolTableRecord
100
AcDbTextStyleTableRecord
  2
文字スタイル154
 70
     0
 40
0.0
 41
1.0
 50
0.0
 71
     0
 42
0.2
  3
ISOCP.shx
  4

  0
STYLE
  5
12F
330
3
100
AcDbSymbolTableRecord
100
AcDbTextStyleTableRecord
  2
文字スタイル74
 70
     0
 40
0.0
 41
0.5
 50
0.0
 71
     0
 42
0.2
  3
ISOCP.shx
  4

  0
STYLE
  5
134
330
3
100
AcDbSymbolTableRecord
100
AcDbTextStyleTableRecord
  2
文字スタイル77
 70
     0
 40
0.0
 41
0.8000000119209289
 50
0.0
 71
     0
 42
0.2
  3
ISOCP.shx
  4

  0
STYLE
  5
136
330
3
100
AcDbSymbolTableRecord
100
AcDbTextStyleTableRecord
  2
文字スタイル153
 70
     0
 40
0.0
 41
1.0
 50
0.0
 71
     0
 42
0.2
  3
ISOCP.shx
  4

  0
STYLE
  5
142
330
3
100
AcDbSymbolTableRecord
100
AcDbTextStyleTableRecord
  2
文字スタイル69
 70
     0
 40
0.0
 41
1.0
 50
0.0
 71
     0
 42
0.2
  3
tahoma.ttf
  4

1001
ACAD
1000
Tahoma
1071
      256
  0
STYLE
  5
14D
330
3
100
AcDbSymbolTableRecord
100
AcDbTextStyleTableRecord
  2
文字スタイル144
 70
     0
 40
0.0
 41
0.7031300067901612
 50
0.0
 71
     0
 42
0.2
  3
tahoma.ttf
  4

1001
ACAD
1000
Tahoma
1071
      256
  0
STYLE
  5
170
330
3
100
AcDbSymbolTableRecord
100
AcDbTextStyleTableRecord
  2
文字スタイル124
 70
     0
 40
0.0
 41
1.0
 50
0.0
 71
     0
 42
0.2
  3

  4

1001
ACAD
1000
MS PGothic
1071
      256
  0
STYLE
  5
176
330
3
100
AcDbSymbolTableRecord
100
AcDbTextStyleTableRecord
  2
文字スタイル125
 70
     0
 40
0.0
 41
1.0
 50
0.0
 71
     0
 42
0.2
  3
ISOCP.shx
  4

  0
STYLE
  5
186
330
3
100
AcDbSymbolTableRecord
100
AcDbTextStyleTableRecord
  2
文字スタイル126
 70
     0
 40
0.0
 41
1.0
 50
0.0
 71
     0
 42
0.2
  3

  4

1001
ACAD
1000
MS PGothic
1071
      256
  0
STYLE
  5
1A7
330
3
100
AcDbSymbolTableRecord
100
AcDbTextStyleTableRecord
  2
文字スタイル133
 70
     0
 40
0.0
 41
1.0
 50
0.0
 71
     0
 42
0.2
  3
ISOCP.shx
  4

  0
ENDTAB
  0
TABLE
  2
VIEW
  5
6
330
0
100
AcDbSymbolTable
 70
     0
  0
ENDTAB
  0
TABLE
  2
UCS
  5
7
330
0
100
AcDbSymbolTable
 70
     0
  0
ENDTAB
  0
TABLE
  2
APPID
  5
9
330
0
100
AcDbSymbolTable
 70
     2
  0
APPID
  5
56
330
9
100
AcDbSymbolTableRecord
100
AcDbRegAppTableRecord
  2
ACAD
 70
     0
  0
APPID
  5
5E
330
9
100
AcDbSymbolTableRecord
100
AcDbRegAppTableRecord
  2
AcadAnnotative
 70
     0
  0
ENDTAB
  0
TABLE
  2
DIMSTYLE
  5
A
330
0
100
AcDbSymbolTable
 70
    11
100
AcDbDimStyleTable
 71
     0
  0
DIMSTYLE
105
58
330
A
100
AcDbSymbolTableRecord
100
AcDbDimStyleTableRecord
  2
Standard
 70
     0
340
55
  0
DIMSTYLE
105
59
330
A
100
AcDbSymbolTableRecord
100
AcDbDimStyleTableRecord
  2
Annotative
 70
     0
340
55
1001
AcadAnnotative
1000
AnnotativeData
1002
{
1070
     1
1070
     1
1002
}
  0
DIMSTYLE
105
D3
330
A
100
AcDbSymbolTableRecord
100
AcDbDimStyleTableRecord
  2
Default - Method 1b (JIS)
 70
     0
 41
2.5
 42
0.0
 43
5.999999999999999
 44
3.174999999999999
 45
0.00000001
 46
10.0
 73
     0
 77
     1
 78
     8
 79
     2
140
2.5
143
0.03937
146
1.799999952316284
147
0.8
171
     3
172
     1
176
   256
177
   256
178
   256
271
     2
272
     2
274
     3
284
     8
286
     8
340
D1
371
    -1
372
    -1
  0
DIMSTYLE
105
D4
330
A
100
AcDbSymbolTableRecord
100
AcDbDimStyleTableRecord
  2
Default - Method 1b (JIS)$7
 70
     0
 41
2.5
 42
0.0
 43
5.999999999999999
 44
3.174999999999999
 45
0.00000001
 46
10.0
 73
     0
 77
     1
 78
     8
 79
     2
140
2.5
143
0.03937
146
1.799999952316284
147
0.8
171
     3
172
     1
176
   256
177
   256
178
   256
271
     2
272
     2
274
     3
284
     8
286
     8
340
D1
371
    -1
372
    -1
  0
DIMSTYLE
105
D5
330
A
100
AcDbSymbolTableRecord
100
AcDbDimStyleTableRecord
  2
Default - Method 2 (JIS)
 70
     0
 41
2.5
 42
0.0
 43
5.999999999999999
 44
3.174999999999999
 45
0.00000001
 46
10.0
 77
     1
 78
     8
 79
     2
140
2.5
143
0.03937
146
1.799999952316284
147
0.8
171
     3
172
     1
176
   256
177
   256
178
   256
271
     2
272
     2
274
     3
284
     8
286
     8
340
D1
371
    -1
372
    -1
  0
DIMSTYLE
105
D6
330
A
100
AcDbSymbolTableRecord
100
AcDbDimStyleTableRecord
  2
Default - Method 2 (JIS)$7
 70
     0
 41
2.5
 42
0.0
 43
5.999999999999999
 44
3.174999999999999
 45
0.00000001
 46
10.0
 77
     1
 78
     8
 79
     2
140
2.5
143
0.03937
146
1.799999952316284
147
0.8
171
     3
172
     1
176
   256
177
   256
178
   256
271
     2
272
     2
274
     3
284
     8
286
     8
340
D1
371
    -1
372
    -1
  0
DIMSTYLE
105
D7
330
A
100
AcDbSymbolTableRecord
100
AcDbDimStyleTableRecord
  2
Default (JIS)
 70
     0
 41
2.5
 42
0.0
 43
5.999999999999999
 44
1.0
 45
0.00000001
 46
10.0
 73
     0
 74
     0
 77
     1
 78
     8
 79
     2
140
2.5
143
0.03937
147
0.8
171
     3
172
     1
176
   256
177
   256
178
   256
271
     2
272
     2
274
     3
340
D1
371
    -1
372
    -1
  0
DIMSTYLE
105
D8
330
A
100
AcDbSymbolTableRecord
100
AcDbDimStyleTableRecord
  2
Default (JIS)$7
 70
     0
 41
2.5
 42
0.0
 43
5.999999999999999
 44
1.0
 45
0.00000001
 46
10.0
 73
     0
 74
     0
 77
     1
 78
     8
 79
     2
140
2.5
143
0.03937
147
0.8
171
     3
172
     1
176
   256
177
   256
178
   256
271
     2
272
     2
274
     3
340
D1
371
    -1
372
    -1
  0
DIMSTYLE
105
D9
330
A
100
AcDbSymbolTableRecord
100
AcDbDimStyleTableRecord
  2
Alternate (ISO)
 70
     0
 41
2.5
340
55
  0
DIMSTYLE
105
E5
330
A
100
AcDbSymbolTableRecord
100
AcDbDimStyleTableRecord
  2
Datum (ISO)
 70
     0
 41
2.5
340
55
  0
DIMSTYLE
105
F4
330
A
100
AcDbSymbolTableRecord
100
AcDbDimStyleTableRecord
  2
Large (ISO)
 70
     0
 41
5.0
340
55
  0
ENDTAB
  0
TABLE
  2
BLOCK_RECORD
  5
1
330
0
100
AcDbSymbolTable
 70
    14
  0
BLOCK_RECORD
  5
70
330
1
100
AcDbSymbolTableRecord
100
AcDbBlockTableRecord
  2
*Model_Space
340
73
 70
     0
280
     1
281
     0
  0
BLOCK_RECORD
  5
6C
330
1
100
AcDbSymbolTableRecord
100
AcDbBlockTableRecord
  2
*Paper_Space
340
6F
 70
     0
280
     1
281
     0
  0
BLOCK_RECORD
  5
74
330
1
100
AcDbSymbolTableRecord
100
AcDbBlockTableRecord
  2
*Paper_Space0
340
77
 70
     0
280
     1
281
     0
  0
BLOCK_RECORD
  5
DA
330
1
100
AcDbSymbolTableRecord
100
AcDbBlockTableRecord
  2
DatumFilled45
340
0
 70
     0
280
     1
281
     0
  0
BLOCK_RECORD
  5
E6
330
1
100
AcDbSymbolTableRecord
100
AcDbBlockTableRecord
  2
Filled-1
340
0
 70
     0
280
     1
281
     0
  0
BLOCK_RECORD
  5
F5
330
1
100
AcDbSymbolTableRecord
100
AcDbBlockTableRecord
  2
許容差
340
0
 70
     0
280
     1
281
     0
  0
BLOCK_RECORD
  5
162
330
1
100
AcDbSymbolTableRecord
100
AcDbBlockTableRecord
  2
バルブ仕様表
340
0
 70
     0
280
     1
281
     0
  0
BLOCK_RECORD
  5
17E
330
1
100
AcDbSymbolTableRecord
100
AcDbBlockTableRecord
  2
バルブ開閉R1
340
0
 70
     0
280
     1
281
     0
  0
BLOCK_RECORD
  5
189
330
1
100
AcDbSymbolTableRecord
100
AcDbBlockTableRecord
  2
バルブ開閉R2
340
0
 70
     0
280
     1
281
     0
  0
BLOCK_RECORD
  5
193
330
1
100
AcDbSymbolTableRecord
100
AcDbBlockTableRecord
  2
ｴｰｽﾎﾞｰﾙｿｹｯﾄ・本体注釈①
340
0
 70
     0
280
     1
281
     0
  0
BLOCK_RECORD
  5
197
330
1
100
AcDbSymbolTableRecord
100
AcDbBlockTableRecord
  2
バルブ仕様書①
340
0
 70
     0
280
     1
281
     0
  0
BLOCK_RECORD
  5
1A9
330
1
100
AcDbSymbolTableRecord
100
AcDbBlockTableRecord
  2
ストッパー加工注釈
340
0
 70
     0
280
     1
281
     0
  0
BLOCK_RECORD
  5
1AD
330
1
100
AcDbSymbolTableRecord
100
AcDbBlockTableRecord
  2
三方弁説明A
340
0
 70
     0
280
     1
281
     0
  0
BLOCK_RECORD
  5
1B1
330
1
100
AcDbSymbolTableRecord
100
AcDbBlockTableRecord
  2
三方弁説明B
340
0
 70
     0
280
     1
281
     0
  0
BLOCK_RECORD
  5
1B5
330
1
100
AcDbSymbolTableRecord
100
AcDbBlockTableRecord
  2
三方弁説明C
340
0
 70
     0
280
     1
281
     0
  0
BLOCK_RECORD
  5
1B9
330
1
100
AcDbSymbolTableRecord
100
AcDbBlockTableRecord
  2
三方弁流れ方向
340
0
 70
     0
280
     1
281
     0
  0
ENDTAB
  0
ENDSEC
  0
SECTION
  2
BLOCKS
  0
BLOCK
  5
71
330
70
100
AcDbEntity
  8
0
100
AcDbBlockBegin
  2
*Model_Space
 70
     0
 10
0.0
 20
0.0
 30
0.0
  3
*Model_Space
  1

  0
ENDBLK
  5
72
330
70
100
AcDbEntity
  8
0
100
AcDbBlockEnd
  0
BLOCK
  5
6D
330
6C
100
AcDbEntity
 67
     1
  8
0
100
AcDbBlockBegin
  2
*Paper_Space
 70
     0
 10
0.0
 20
0.0
 30
0.0
  3
*Paper_Space
  1

  0
ENDBLK
  5
6E
330
6C
100
AcDbEntity
 67
     1
  8
0
100
AcDbBlockEnd
  0
BLOCK
  5
75
330
74
100
AcDbEntity
 67
     1
  8
0
100
AcDbBlockBegin
  2
*Paper_Space0
 70
     0
 10
0.0
 20
0.0
 30
0.0
  3
*Paper_Space0
  1

  0
ENDBLK
  5
76
330
74
100
AcDbEntity
 67
     1
  8
0
100
AcDbBlockEnd
  0
BLOCK
  5
DB
330
DA
100
AcDbEntity
  8
0
100
AcDbBlockBegin
  2
DatumFilled45
 70
     0
 10
0.0
 20
0.0
 30
0.0
  3
DatumFilled45
  1

  0
POLYLINE
  5
DD
330
DA
100
AcDbEntity
  8
0
 62
     0
100
AcDb2dPolyline
 66
     1
 10
0.0
 20
0.0
 30
0.0
 70
   128
  0
VERTEX
  5
DE
330
DD
100
AcDbEntity
  8
0
 62
     0
100
AcDbVertex
100
AcDb2dVertex
 10
0.0
 20
1.0
 30
0.0
  0
VERTEX
  5
DF
330
DD
100
AcDbEntity
  8
0
 62
     0
100
AcDbVertex
100
AcDb2dVertex
 10
0.0
 20
-1.0
 30
0.0
  0
VERTEX
  5
E1
330
DD
100
AcDbEntity
  8
0
 62
     0
100
AcDbVertex
100
AcDb2dVertex
 10
-1.0
 20
0.0
 30
0.0
  0
VERTEX
  5
E2
330
DD
100
AcDbEntity
  8
0
 62
     0
100
AcDbVertex
100
AcDb2dVertex
 10
0.0
 20
1.0
 30
0.0
  0
SEQEND
  5
E0
330
DD
100
AcDbEntity
  8
0
 62
     0
  0
SOLID
  5
E4
330
DA
100
AcDbEntity
  8
0
 62
     0
100
AcDbTrace
 10
0.0
 20
1.0
 30
0.0
 11
0.0
 21
-1.0
 31
0.0
 12
-1.0
 22
0.0
 32
0.0
 13
0.0
 23
1.0
 33
0.0
  0
ENDBLK
  5
DC
330
DA
100
AcDbEntity
  8
0
100
AcDbBlockEnd
  0
BLOCK
  5
E7
330
E6
100
AcDbEntity
  8
0
100
AcDbBlockBegin
  2
Filled-1
 70
     0
 10
0.0
 20
0.0
 30
0.0
  3
Filled-1
  1

  0
LINE
  5
E9
330
E6
100
AcDbEntity
  8
0
 62
     0
100
AcDbLine
 10
-1.0
 20
0.0
 30
0.0
 11
0.0
 21
0.0
 31
0.0
  0
POLYLINE
  5
EA
330
E6
100
AcDbEntity
  8
0
 62
     0
100
AcDb2dPolyline
 66
     1
 10
0.0
 20
0.0
 30
0.0
 70
   128
  0
VERTEX
  5
EB
330
EA
100
AcDbEntity
  8
0
 62
     0
100
AcDbVertex
100
AcDb2dVertex
 10
-1.0
 20
-0.1
 30
0.0
  0
VERTEX
  5
EC
330
EA
100
AcDbEntity
  8
0
 62
     0
100
AcDbVertex
100
AcDb2dVertex
 10
0.0
 20
0.0
 30
0.0
  0
VERTEX
  5
EE
330
EA
100
AcDbEntity
  8
0
 62
     0
100
AcDbVertex
100
AcDb2dVertex
 10
-1.0
 20
0.1
 30
0.0
  0
VERTEX
  5
EF
330
EA
100
AcDbEntity
  8
0
 62
     0
100
AcDbVertex
100
AcDb2dVertex
 10
-1.0
 20
-0.1
 30
0.0
  0
SEQEND
  5
ED
330
EA
100
AcDbEntity
  8
0
 62
     0
  0
SOLID
  5
F0
330
E6
100
AcDbEntity
  8
0
 62
     0
100
AcDbTrace
 10
-1.0
 20
-0.1
 30
0.0
 11
0.0
 21
0.0
 31
0.0
 12
-1.0
 22
0.1
 32
0.0
 13
-1.0
 23
-0.1
 33
0.0
  0
LINE
  5
F1
330
E6
100
AcDbEntity
  8
0
 62
     0
100
AcDbLine
 10
-1.0
 20
-0.1
 30
0.0
 11
0.0
 21
0.0
 31
0.0
  0
LINE
  5
F2
330
E6
100
AcDbEntity
  8
0
 62
     0
100
AcDbLine
 10
0.0
 20
0.0
 30
0.0
 11
-1.0
 21
0.1
 31
0.0
  0
LINE
  5
F3
330
E6
100
AcDbEntity
  8
0
 62
     0
100
AcDbLine
 10
-1.0
 20
0.1
 30
0.0
 11
-1.0
 21
-0.1
 31
0.0
  0
ENDBLK
  5
E8
330
E6
100
AcDbEntity
  8
0
100
AcDbBlockEnd
  0
BLOCK
  5
F6
330
F5
100
AcDbEntity
  8
0
100
AcDbBlockBegin
  2
許容差
 70
     0
 10
0.0
 20
0.0
 30
0.0
  3
許容差
  1

  0
LINE
  5
F8
330
F5
100
AcDbEntity
  8
1
  6
Continuous
 62
     7
370
    25
100
AcDbLine
 10
-51.66713443007161
 20
-23.86585254105029
 30
0.0
 11
0.0
 21
-23.86585254105029
 31
0.0
  0
LINE
  5
F9
330
F5
100
AcDbEntity
  8
1
  6
Continuous
 62
     7
370
    25
100
AcDbLine
 10
0.0
 20
-23.86585254105029
 30
0.0
 11
0.0
 21
0.0
 31
0.0
  0
LINE
  5
FA
330
F5
100
AcDbEntity
  8
1
  6
Continuous
 62
     7
370
    25
100
AcDbLine
 10
0.0
 20
0.0
 30
0.0
 11
-51.66713443007161
 21
0.0
 31
0.0
  0
LINE
  5
FB
330
F5
100
AcDbEntity
  8
1
  6
Continuous
 62
     7
370
    25
100
AcDbLine
 10
-51.66713443007161
 20
0.0
 30
0.0
 11
-51.66713443007161
 21
-23.86585254105029
 31
0.0
  0
LINE
  5
FC
330
F5
100
AcDbEntity
  8
6
  6
Continuous
 62
     7
370
    25
100
AcDbLine
 10
0.0
 20
-20.36585254104949
 30
0.0
 11
-51.66713443007298
 21
-20.36585254104985
 31
0.0
  0
LINE
  5
FD
330
F5
100
AcDbEntity
  8
6
  6
Continuous
 62
     7
370
    25
100
AcDbLine
 10
0.0
 20
-16.86585254104663
 30
0.0
 11
-51.66713443007161
 21
-16.86585254104663
 31
0.0
  0
LINE
  5
FE
330
F5
100
AcDbEntity
  8
6
  6
Continuous
 62
     7
370
    25
100
AcDbLine
 10
0.0
 20
-13.36585254105678
 30
0.0
 11
-51.66713443007298
 21
-13.36585254105802
 31
0.0
  0
LINE
  5
FF
330
F5
100
AcDbEntity
  8
6
  6
Continuous
 62
     7
370
    25
100
AcDbLine
 10
0.0
 20
-9.865852541056767
 30
0.0
 11
-51.66713443007161
 21
-9.865852541056767
 31
0.0
  0
LINE
  5
100
330
F5
100
AcDbEntity
  8
6
  6
Continuous
 62
     7
370
    25
100
AcDbLine
 10
-4.616227731726674
 20
-23.86585254105029
 30
0.0
 11
-4.616227731726212
 21
-5.464305006752354
 31
0.0
  0
LINE
  5
101
330
F5
100
AcDbEntity
  8
6
  6
Continuous
 62
     7
370
    25
100
AcDbLine
 10
-13.84868319517728
 20
-23.86585254105075
 30
0.0
 11
-13.84868319517682
 21
-5.464305006752816
 31
0.0
  0
LINE
  5
102
330
F5
100
AcDbEntity
  8
6
  6
Continuous
 62
     7
370
    25
100
AcDbLine
 10
-9.232455463451998
 20
-23.86585254105075
 30
0.0
 11
-9.232455463451536
 21
-5.464305006752816
 31
0.0
  0
LINE
  5
103
330
F5
100
AcDbEntity
  8
6
  6
Continuous
 62
     7
370
    25
100
AcDbLine
 10
-18.46491092690303
 20
-23.86585254104951
 30
0.0
 11
-18.46491092690257
 21
-5.464305006751573
 31
0.0
  0
LINE
  5
104
330
F5
100
AcDbEntity
  8
6
  6
Continuous
 62
     7
370
    25
100
AcDbLine
 10
-23.0811386586279
 20
-23.86585254105075
 30
0.0
 11
-23.08113865862744
 21
-5.464305006752816
 31
0.0
  0
LINE
  5
105
330
F5
100
AcDbEntity
  8
6
  6
Continuous
 62
     7
370
    25
100
AcDbLine
 10
-27.69736639035319
 20
-23.86585254105075
 30
0.0
 11
-27.69736639035273
 21
-5.464305006752816
 31
0.0
  0
LINE
  5
106
330
F5
100
AcDbEntity
  8
6
  6
Continuous
 62
     7
370
    25
100
AcDbLine
 10
-32.31359412207805
 20
-23.86585254104951
 30
0.0
 11
-32.31359412207766
 21
-5.464305006752354
 31
0.0
  0
LINE
  5
107
330
F5
100
AcDbEntity
  8
1
  6
Continuous
 62
     7
370
    25
100
AcDbLine
 10
-36.92982185380334
 20
-23.86585254104951
 30
0.0
 11
-36.92982185380288
 21
-3.118521831198464
 31
0.0
  0
LINE
  5
108
330
F5
100
AcDbEntity
  8
1
  6
Continuous
 62
     7
370
    25
100
AcDbLine
 10
0.0
 20
-5.464305006752354
 30
0.0
 11
-51.66713443007161
 21
-5.464305006752354
 31
0.0
  0
LINE
  5
109
330
F5
100
AcDbEntity
  8
6
  6
Continuous
 62
     7
370
    25
100
AcDbLine
 10
-45.55750842881166
 20
-23.86585254104951
 30
0.0
 11
-45.55750842881121
 21
-5.464305006752354
 31
0.0
  0
LINE
  5
10A
330
F5
100
AcDbEntity
  8
1
  6
Continuous
 62
     7
370
    25
100
AcDbLine
 10
-51.66713443007161
 20
-3.118521831198464
 30
0.0
 11
0.0
 21
-3.118521831198464
 31
0.0
  0
MTEXT
  5
10B
330
F5
100
AcDbEntity
  8
6
 62
     7
100
AcDbMText
 10
-36.81060597032285
 20
-12.59117800523402
 30
0.0
 40
1.25
 41
0.0
 46
0.0
 71
     7
 72
     1
  1
\fAIGDT|b0|i0;\W0.80;\H1.2500;`\fISOCP|b0|i0;\W0.80;\H1.2500;0.05
 73
     2
 44
1.0
  0
MTEXT
  5
10D
330
F5
100
AcDbEntity
  8
6
 62
     7
100
AcDbMText
 10
-36.44022161292199
 20
-16.07925905417527
 30
0.0
 40
1.25
 41
0.0
 46
0.0
 71
     7
 72
     1
  1
\fAIGDT|b0|i0;\H1.2500;`\fISOCP|b0|i0;\H1.2500;0.1
 73
     2
 44
1.0
  0
MTEXT
  5
10E
330
F5
100
AcDbEntity
  8
6
 62
     7
100
AcDbMText
 10
-36.44022161292199
 20
-19.57925905417529
 30
0.0
 40
1.25
 41
0.0
 46
0.0
 71
     7
 72
     1
  1
\fAIGDT|b0|i0;\H1.2500;`\fISOCP|b0|i0;\H1.2500;0.2
 73
     2
 44
1.0
  0
TEXT
  5
110
330
F5
100
AcDbEntity
  8
6
 62
     7
100
AcDbText
 10
-36.60250576079687
 20
-24.08384699406547
 30
0.0
 40
5.0
  1
-
  7
文字スタイル154
100
AcDbText
  0
MTEXT
  5
113
330
F5
100
AcDbEntity
  8
6
 62
     7
100
AcDbMText
 10
-31.82399388119666
 20
-23.07925905417527
 30
0.0
 40
1.25
 41
0.0
 46
0.0
 71
     7
 72
     1
  1
\fAIGDT|b0|i0;\H1.2500;`\fISOCP|b0|i0;\H1.2500;0.5
 73
     2
 44
1.0
  0
MTEXT
  5
114
330
F5
100
AcDbEntity
  8
6
 62
     7
100
AcDbMText
 10
-31.82399388119666
 20
-19.57925905417529
 30
0.0
 40
1.25
 41
0.0
 46
0.0
 71
     7
 72
     1
  1
\fAIGDT|b0|i0;\H1.2500;`\fISOCP|b0|i0;\H1.2500;0.3
 73
     2
 44
1.0
  0
MTEXT
  5
115
330
F5
100
AcDbEntity
  8
6
 62
     7
100
AcDbMText
 10
-31.82399388119666
 20
-16.07925905417527
 30
0.0
 40
1.25
 41
0.0
 46
0.0
 71
     7
 72
     1
  1
\fAIGDT|b0|i0;\H1.2500;`\fISOCP|b0|i0;\H1.2500;0.1
 73
     2
 44
1.0
  0
MTEXT
  5
116
330
F5
100
AcDbEntity
  8
6
 62
     7
100
AcDbMText
 10
-31.82399388119666
 20
-12.57925905417526
 30
0.0
 40
1.25
 41
0.0
 46
0.0
 71
     7
 72
     1
  1
\fAIGDT|b0|i0;\W0.80;\H1.2500;`\fISOCP|b0|i0;\W0.80;\H1.2500;0.05
 73
     2
 44
1.0
  0
MTEXT
  5
117
330
F5
100
AcDbEntity
  8
6
 62
     7
100
AcDbMText
 10
-27.20776614947137
 20
-12.57925905417526
 30
0.0
 40
1.25
 41
0.0
 46
0.0
 71
     7
 72
     1
  1
\fAIGDT|b0|i0;\H1.2500;`\fISOCP|b0|i0;\H1.2500;0.1
 73
     2
 44
1.0
  0
MTEXT
  5
118
330
F5
100
AcDbEntity
  8
6
 62
     7
100
AcDbMText
 10
-27.20776614947137
 20
-16.07925905417527
 30
0.0
 40
1.25
 41
0.0
 46
0.0
 71
     7
 72
     1
  1
\fAIGDT|b0|i0;\H1.2500;`\fISOCP|b0|i0;\H1.2500;0.2
 73
     2
 44
1.0
  0
MTEXT
  5
119
330
F5
100
AcDbEntity
  8
6
 62
     7
100
AcDbMText
 10
-27.20776614947137
 20
-19.57925905417529
 30
0.0
 40
1.25
 41
0.0
 46
0.0
 71
     7
 72
     1
  1
\fAIGDT|b0|i0;\H1.2500;`\fISOCP|b0|i0;\H1.2500;0.5
 73
     2
 44
1.0
  0
MTEXT
  5
11A
330
F5
100
AcDbEntity
  8
6
 62
     7
100
AcDbMText
 10
-26.40217881270058
 20
-23.09117800523403
 30
0.0
 40
1.25
 41
0.0
 46
0.0
 71
     7
 72
     1
  1
\fAIGDT|b0|i0;\H1.2500;`\fISOCP|b0|i0;\H1.2500;1
 73
     2
 44
1.0
  0
MTEXT
  5
11B
330
F5
100
AcDbEntity
  8
6
 62
     7
100
AcDbMText
 10
-22.59153841774605
 20
-12.57925905417526
 30
0.0
 40
1.25
 41
0.0
 46
0.0
 71
     7
 72
     1
  1
\fAIGDT|b0|i0;\W0.80;\H1.2500;`\fISOCP|b0|i0;\W0.80;\H1.2500;0.15
 73
     2
 44
1.0
  0
MTEXT
  5
11C
330
F5
100
AcDbEntity
  8
6
 62
     7
100
AcDbMText
 10
-22.59153841774605
 20
-16.07925905417527
 30
0.0
 40
1.25
 41
0.0
 46
0.0
 71
     7
 72
     1
  1
\fAIGDT|b0|i0;\H1.2500;`\fISOCP|b0|i0;\H1.2500;0.3
 73
     2
 44
1.0
  0
MTEXT
  5
11D
330
F5
100
AcDbEntity
  8
6
 62
     7
100
AcDbMText
 10
-22.59153841774605
 20
-19.57925905417529
 30
0.0
 40
1.25
 41
0.0
 46
0.0
 71
     7
 72
     1
  1
\fAIGDT|b0|i0;\H1.2500;`\fISOCP|b0|i0;\H1.2500;0.8
 73
     2
 44
1.0
  0
MTEXT
  5
11E
330
F5
100
AcDbEntity
  8
6
 62
     7
100
AcDbMText
 10
-22.59153841774605
 20
-23.07925905417527
 30
0.0
 40
1.25
 41
0.0
 46
0.0
 71
     7
 72
     1
  1
\fAIGDT|b0|i0;\H1.2500;`\fISOCP|b0|i0;\H1.2500;1.5
 73
     2
 44
1.0
  0
MTEXT
  5
11F
330
F5
100
AcDbEntity
  8
6
 62
     7
100
AcDbMText
 10
-17.97531068602076
 20
-12.57925905417526
 30
0.0
 40
1.25
 41
0.0
 46
0.0
 71
     7
 72
     1
  1
\fAIGDT|b0|i0;\H1.2500;`\fISOCP|b0|i0;\H1.2500;0.2
 73
     2
 44
1.0
  0
MTEXT
  5
120
330
F5
100
AcDbEntity
  8
6
 62
     7
100
AcDbMText
 10
-17.97531068602076
 20
-16.07925905417527
 30
0.0
 40
1.25
 41
0.0
 46
0.0
 71
     7
 72
     1
  1
\fAIGDT|b0|i0;\H1.2500;`\fISOCP|b0|i0;\H1.2500;0.5
 73
     2
 44
1.0
  0
MTEXT
  5
121
330
F5
100
AcDbEntity
  8
6
 62
     7
100
AcDbMText
 10
-17.97531068602076
 20
-19.57925905417529
 30
0.0
 40
1.25
 41
0.0
 46
0.0
 71
     7
 72
     1
  1
\fAIGDT|b0|i0;\H1.2500;`\fISOCP|b0|i0;\H1.2500;1.2
 73
     2
 44
1.0
  0
MTEXT
  5
122
330
F5
100
AcDbEntity
  8
6
 62
     7
100
AcDbMText
 10
-17.97531068602076
 20
-23.07925905417527
 30
0.0
 40
1.25
 41
0.0
 46
0.0
 71
     7
 72
     1
  1
\fAIGDT|b0|i0;\H1.2500;`\fISOCP|b0|i0;\H1.2500;2.5
 73
     2
 44
1.0
  0
MTEXT
  5
123
330
F5
100
AcDbEntity
  8
6
 62
     7
100
AcDbMText
 10
-13.35908295429547
 20
-12.57925905417526
 30
0.0
 40
1.25
 41
0.0
 46
0.0
 71
     7
 72
     1
  1
\fAIGDT|b0|i0;\H1.2500;`\fISOCP|b0|i0;\H1.2500;0.3
 73
     2
 44
1.0
  0
MTEXT
  5
124
330
F5
100
AcDbEntity
  8
6
 62
     7
100
AcDbMText
 10
-13.35908295429547
 20
-16.07925905417527
 30
0.0
 40
1.25
 41
0.0
 46
0.0
 71
     7
 72
     1
  1
\fAIGDT|b0|i0;\H1.2500;`\fISOCP|b0|i0;\H1.2500;0.8
 73
     2
 44
1.0
  0
MTEXT
  5
125
330
F5
100
AcDbEntity
  8
6
 62
     7
100
AcDbMText
 10
-12.56499245203539
 20
-19.57925905417529
 30
0.0
 40
1.25
 41
0.0
 46
0.0
 71
     7
 72
     1
  1
\fAIGDT|b0|i0;\H1.2500;`\fISOCP|b0|i0;\H1.2500;2
 73
     2
 44
1.0
  0
MTEXT
  5
126
330
F5
100
AcDbEntity
  8
6
 62
     7
100
AcDbMText
 10
-12.56499245203539
 20
-23.09117800523403
 30
0.0
 40
1.25
 41
0.0
 46
0.0
 71
     7
 72
     1
  1
\fAIGDT|b0|i0;\H1.2500;`\fISOCP|b0|i0;\H1.2500;4
 73
     2
 44
1.0
  0
MTEXT
  5
127
330
F5
100
AcDbEntity
  8
6
 62
     7
100
AcDbMText
 10
-8.742855222570149
 20
-12.57925905417526
 30
0.0
 40
1.25
 41
0.0
 46
0.0
 71
     7
 72
     1
  1
\fAIGDT|b0|i0;\H1.2500;`\fISOCP|b0|i0;\H1.2500;0.5
 73
     2
 44
1.0
  0
MTEXT
  5
128
330
F5
100
AcDbEntity
  8
6
 62
     7
100
AcDbMText
 10
-8.742855222570149
 20
-16.07925905417527
 30
0.0
 40
1.25
 41
0.0
 46
0.0
 71
     7
 72
     1
  1
\fAIGDT|b0|i0;\H1.2500;`\fISOCP|b0|i0;\H1.2500;1.2
 73
     2
 44
1.0
  0
MTEXT
  5
129
330
F5
100
AcDbEntity
  8
6
 62
     7
100
AcDbMText
 10
-7.948764720310066
 20
-19.57925905417529
 30
0.0
 40
1.25
 41
0.0
 46
0.0
 71
     7
 72
     1
  1
\fAIGDT|b0|i0;\H1.2500;`\fISOCP|b0|i0;\H1.2500;3
 73
     2
 44
1.0
  0
MTEXT
  5
12A
330
F5
100
AcDbEntity
  8
6
 62
     7
100
AcDbMText
 10
-7.948764720310066
 20
-23.07925905417527
 30
0.0
 40
1.25
 41
0.0
 46
0.0
 71
     7
 72
     1
  1
\fAIGDT|b0|i0;\H1.2500;`\fISOCP|b0|i0;\H1.2500;6
 73
     2
 44
1.0
  0
TEXT
  5
12B
330
F5
100
AcDbEntity
  8
6
 62
     7
100
AcDbText
 10
-4.369788384236166
 20
-13.62049392307749
 30
0.0
 40
5.0
  1
-
 41
1.415104540911587
  7
文字スタイル154
 72
     5
 11
-0.4782508967292998
 21
-13.62049392307749
 31
0.0
100
AcDbText
  0
MTEXT
  5
12C
330
F5
100
AcDbEntity
  8
6
 62
     7
100
AcDbMText
 10
-2.579463550682987
 20
-16.07925905417527
 30
0.0
 40
1.25
 41
0.0
 46
0.0
 71
     8
 72
     1
  1
\fAIGDT|b0|i0;\H1.2500;`\fISOCP|b0|i0;\H1.2500;2
 73
     2
 44
1.0
  0
MTEXT
  5
12D
330
F5
100
AcDbEntity
  8
6
 62
     7
100
AcDbMText
 10
-3.532372386453879
 20
-19.59117800523405
 30
0.0
 40
1.25
 41
0.0
 46
0.0
 71
     7
 72
     1
  1
\fAIGDT|b0|i0;\H1.2500;`\fISOCP|b0|i0;\H1.2500;4
 73
     2
 44
1.0
  0
MTEXT
  5
12E
330
F5
100
AcDbEntity
  8
6
 62
     7
100
AcDbMText
 10
-3.532372192238213
 20
-23.07925905417527
 30
0.0
 40
1.25
 41
0.0
 46
0.0
 71
     7
 72
     1
  1
\fAIGDT|b0|i0;\H1.2500;`\fISOCP|b0|i0;\H1.2500;8
 73
     2
 44
1.0
  0
TEXT
  5
130
330
F5
100
AcDbEntity
  8
6
 62
     7
100
AcDbText
 10
-2.130444153016632
 20
-8.822556449203879
 30
0.0
 40
1.25
  1
4000
 41
0.5
  7
文字スタイル74
100
AcDbText
  0
TEXT
  5
131
330
F5
100
AcDbEntity
  8
6
 62
     7
100
AcDbText
 10
-6.78318767850552
 20
-8.822556449203879
 30
0.0
 40
1.25
  1
2000
 41
0.5
  7
文字スタイル74
100
AcDbText
  0
TEXT
  5
132
330
F5
100
AcDbEntity
  8
6
 62
     7
100
AcDbText
 10
-11.43593120399444
 20
-8.822556449203879
 30
0.0
 40
1.25
  1
1000
 41
0.5
  7
文字スタイル74
100
AcDbText
  0
TEXT
  5
133
330
F5
100
AcDbEntity
  8
6
 62
     7
100
AcDbText
 10
-15.72517906670867
 20
-8.822556449203879
 30
0.0
 40
1.25
  1
400
 41
0.5
  7
文字スタイル74
100
AcDbText
  0
TEXT
  5
135
330
F5
100
AcDbEntity
  8
6
 62
     7
100
AcDbText
 10
-20.5233209310019
 20
-8.822556449203879
 30
0.0
 40
1.25
  1
120
 41
0.7999999523162842
  7
文字スタイル77
100
AcDbText
  0
TEXT
  5
137
330
F5
100
AcDbEntity
  8
6
 62
     7
100
AcDbText
 10
-24.95796694828435
 20
-8.822556449203879
 30
0.0
 40
1.25
  1
30
 41
1.244508053920987
  7
文字スタイル153
 72
     5
 11
-23.01219820453092
 21
-8.822556449203879
 31
0.0
100
AcDbText
  0
TEXT
  5
138
330
F5
100
AcDbEntity
  8
6
 62
     7
100
AcDbText
 10
-28.88371933245988
 20
-8.822556449203879
 30
0.0
 40
1.25
  1
6
 41
1.29803088880728
  7
文字スタイル153
 72
     5
 11
-27.91083496058317
 21
-8.822556449203879
 31
0.0
100
AcDbText
  0
TEXT
  5
139
330
F5
100
AcDbEntity
  8
6
 62
     7
100
AcDbText
 10
-33.50670450149654
 20
-8.822556449203879
 30
0.0
 40
1.25
  1
3
 41
1.315994915119492
  7
文字スタイル153
 72
     5
 11
-32.53382012961982
 21
-8.822556449203879
 31
0.0
100
AcDbText
  0
TEXT
  5
13A
330
F5
100
AcDbEntity
  8
6
 62
     7
100
AcDbText
 10
-28.95641850186202
 20
-7.084943372489576
 30
0.0
 40
1.25
  1
3
 41
1.315994915119492
  7
文字スタイル153
 72
     5
 11
-27.9835341299853
 21
-7.084943372489576
 31
0.0
100
AcDbText
  0
TEXT
  5
13B
330
F5
100
AcDbEntity
  8
6
 62
     7
100
AcDbText
 10
-24.44907313094138
 20
-7.084943372489576
 30
0.0
 40
1.25
  1
6
 41
1.29803088880728
  7
文字スタイル153
 72
     5
 11
-23.47618875906466
 21
-7.084943372489576
 31
0.0
100
AcDbText
  0
TEXT
  5
13C
330
F5
100
AcDbEntity
  8
6
 62
     7
100
AcDbText
 10
-20.15982526822718
 20
-7.084943372489576
 30
0.0
 40
1.25
  1
30
 41
0.7999999523162842
  7
文字スタイル77
100
AcDbText
  0
TEXT
  5
13D
330
F5
100
AcDbEntity
  8
6
 62
     7
100
AcDbText
 10
-15.72517906670867
 20
-7.084943372489576
 30
0.0
 40
1.25
  1
120
 41
0.5
  7
文字スタイル74
100
AcDbText
  0
TEXT
  5
13E
330
F5
100
AcDbEntity
  8
6
 62
     7
100
AcDbText
 10
-11.29053304942619
 20
-7.084943372489576
 30
0.0
 40
1.25
  1
400
 41
0.5
  7
文字スタイル74
100
AcDbText
  0
TEXT
  5
13F
330
F5
100
AcDbEntity
  8
6
 62
     7
100
AcDbText
 10
-6.78318767850552
 20
-7.084943372489576
 30
0.0
 40
1.25
  1
1000
 41
0.5
  7
文字スタイル74
100
AcDbText
  0
TEXT
  5
140
330
F5
100
AcDbEntity
  8
6
 62
     7
100
AcDbText
 10
-2.203143322418803
 20
-7.084943372489576
 30
0.0
 40
1.25
  1
2000
 41
0.5
  7
文字スタイル74
100
AcDbText
  0
TEXT
  5
141
330
F5
100
AcDbEntity
  8
6
 62
     7
100
AcDbText
 10
-33.82725935132136
 20
-7.084943372488687
 30
0.0
 40
1.25
  1
0.5
 41
0.5
  7
文字スタイル74
100
AcDbText
  0
TEXT
  5
143
330
F5
100
AcDbEntity
  8
6
 62
     7
100
AcDbText
 10
-50.33159609932706
 20
-8.822556449203879
 30
0.0
 40
1.25
  1
指示
  7
文字スタイル69
 72
     1
 11
-48.61232142944142
 21
-8.822556449203879
 31
0.0
100
AcDbText
  0
TEXT
  5
144
330
F5
100
AcDbEntity
  8
6
 62
     7
100
AcDbText
 10
-42.76649229347249
 20
-12.17900373018512
 30
0.0
 40
1.25
  1
精級
  7
文字スタイル69
 72
     1
 11
-41.04721762358686
 21
-12.32255644920389
 31
0.0
100
AcDbText
 73
     1
  0
TEXT
  5
145
330
F5
100
AcDbEntity
  8
6
 62
     7
100
AcDbText
 10
-42.76649229347249
 20
-15.6790037301851
 30
0.0
 40
1.25
  1
中級
  7
文字スタイル69
 72
     1
 11
-41.04721762358686
 21
-15.82255644920387
 31
0.0
100
AcDbText
 73
     1
  0
TEXT
  5
146
330
F5
100
AcDbEntity
  8
6
 62
     7
100
AcDbText
 10
-42.76649229347249
 20
-19.17900373018511
 30
0.0
 40
1.25
  1
粗級
  7
文字スタイル69
 72
     1
 11
-41.04721762358686
 21
-19.32255644920388
 31
0.0
100
AcDbText
 73
     1
  0
TEXT
  5
147
330
F5
100
AcDbEntity
  8
6
 62
     7
100
AcDbText
 10
-48.87287911015231
 20
-22.4475564492039
 30
0.0
 40
1.25
  1
v
  7
文字スタイル153
 72
     1
 11
-48.43537911015231
 21
-22.8225564492039
 31
0.0
100
AcDbText
 73
     1
  0
TEXT
  5
148
330
F5
100
AcDbEntity
  8
6
 62
     7
100
AcDbText
 10
-43.62612962841531
 20
-22.96998733660555
 30
0.0
 40
1.25
  1
極粗級
  7
文字スタイル69
 72
     1
 11
-41.04721762358686
 21
-23.11354005562432
 31
0.0
100
AcDbText
 73
     1
  0
TEXT
  5
149
330
F5
100
AcDbEntity
  8
6
 62
     7
100
AcDbText
 10
-48.78772680596004
 20
-18.94755644920389
 30
0.0
 40
1.25
  1
c
  7
文字スタイル153
 72
     1
 11
-48.43537911015231
 21
-19.32255644920388
 31
0.0
100
AcDbText
 73
     1
  0
TEXT
  5
14A
330
F5
100
AcDbEntity
  8
6
 62
     7
100
AcDbText
 10
-49.02053141434459
 20
-15.44755644920387
 30
0.0
 40
1.25
  1
m
  7
文字スタイル153
 72
     1
 11
-48.43537911015231
 21
-15.82255644920387
 31
0.0
100
AcDbText
 73
     1
  0
TEXT
  5
14B
330
F5
100
AcDbEntity
  8
6
 62
     7
100
AcDbText
 10
-48.81037911015231
 20
-11.94755644920389
 30
0.0
 40
1.25
  1
f
  7
文字スタイル153
 72
     1
 11
-48.43537911015231
 21
-12.32255644920389
 31
0.0
100
AcDbText
 73
     1
  0
TEXT
  5
14C
330
F5
100
AcDbEntity
  8
6
 62
     7
100
AcDbText
 10
-42.96293981119269
 20
-8.822556449203879
 30
0.0
 40
1.25
  1
説明
  7
文字スタイル69
 72
     1
 11
-41.24366514130706
 21
-8.822556449203879
 31
0.0
100
AcDbText
  0
TEXT
  5
14E
330
F5
100
AcDbEntity
  8
6
 62
     7
100
AcDbText
 10
-36.81546896341402
 20
-7.084943372489576
 30
0.0
 40
1.25
  1
以上
 41
0.7031300067901612
  7
文字スタイル144
100
AcDbText
  0
TEXT
  5
14F
330
F5
100
AcDbEntity
  8
6
 62
     7
100
AcDbText
 10
-36.81546896341402
 20
-8.822556449203879
 30
0.0
 40
1.25
  1
以下
 41
0.7031300067901612
  7
文字スタイル144
100
AcDbText
  0
TEXT
  5
150
330
F5
100
AcDbEntity
  8
6
 62
     7
100
AcDbText
 10
-32.19924123168873
 20
-7.084943372489576
 30
0.0
 40
1.25
  1
以上
 41
0.7031300067901612
  7
文字スタイル144
100
AcDbText
  0
TEXT
  5
151
330
F5
100
AcDbEntity
  8
6
 62
     7
100
AcDbText
 10
-32.19924123168873
 20
-8.822556449203879
 30
0.0
 40
1.25
  1
以下
 41
0.7031300067901612
  7
文字スタイル144
100
AcDbText
  0
TEXT
  5
152
330
F5
100
AcDbEntity
  8
6
 62
     7
100
AcDbText
 10
-27.58301349996383
 20
-7.084943372489576
 30
0.0
 40
1.25
  1
以上
 41
0.7031300067901612
  7
文字スタイル144
100
AcDbText
  0
TEXT
  5
153
330
F5
100
AcDbEntity
  8
6
 62
     7
100
AcDbText
 10
-27.58301349996383
 20
-8.822556449203879
 30
0.0
 40
1.25
  1
以下
 41
0.7031300067901612
  7
文字スタイル144
100
AcDbText
  0
TEXT
  5
154
330
F5
100
AcDbEntity
  8
6
 62
     7
100
AcDbText
 10
-22.96678576823851
 20
-7.084943372489576
 30
0.0
 40
1.25
  1
以上
 41
0.7031300067901612
  7
文字スタイル144
100
AcDbText
  0
TEXT
  5
155
330
F5
100
AcDbEntity
  8
6
 62
     7
100
AcDbText
 10
-22.96678576823851
 20
-8.822556449203879
 30
0.0
 40
1.25
  1
以下
 41
0.7031300067901612
  7
文字スタイル144
100
AcDbText
  0
TEXT
  5
156
330
F5
100
AcDbEntity
  8
6
 62
     7
100
AcDbText
 10
-18.35055803651368
 20
-7.084943372489576
 30
0.0
 40
1.25
  1
以上
 41
0.7031300067901612
  7
文字スタイル144
100
AcDbText
  0
TEXT
  5
157
330
F5
100
AcDbEntity
  8
6
 62
     7
100
AcDbText
 10
-18.35055803651368
 20
-8.822556449203879
 30
0.0
 40
1.25
  1
以下
 41
0.7031300067901612
  7
文字スタイル144
100
AcDbText
  0
TEXT
  5
158
330
F5
100
AcDbEntity
  8
6
 62
     7
100
AcDbText
 10
-13.73433030478793
 20
-7.084943372489576
 30
0.0
 40
1.25
  1
以上
 41
0.7031300067901612
  7
文字スタイル144
100
AcDbText
  0
TEXT
  5
159
330
F5
100
AcDbEntity
  8
6
 62
     7
100
AcDbText
 10
-13.73433030478793
 20
-8.822556449203879
 30
0.0
 40
1.25
  1
以下
 41
0.7031300067901612
  7
文字スタイル144
100
AcDbText
  0
TEXT
  5
15A
330
F5
100
AcDbEntity
  8
6
 62
     7
100
AcDbText
 10
-9.118102573062607
 20
-7.084943372489576
 30
0.0
 40
1.25
  1
以上
 41
0.7031300067901612
  7
文字スタイル144
100
AcDbText
  0
TEXT
  5
15B
330
F5
100
AcDbEntity
  8
6
 62
     7
100
AcDbText
 10
-9.118102573062607
 20
-8.822556449203879
 30
0.0
 40
1.25
  1
以下
 41
0.7031300067901612
  7
文字スタイル144
100
AcDbText
  0
TEXT
  5
15C
330
F5
100
AcDbEntity
  8
6
 62
     7
100
AcDbText
 10
-4.501874841337318
 20
-7.084943372489576
 30
0.0
 40
1.25
  1
以上
 41
0.7031300067901612
  7
文字スタイル144
100
AcDbText
  0
TEXT
  5
15D
330
F5
100
AcDbEntity
  8
6
 62
     7
100
AcDbText
 10
-4.501874841337318
 20
-8.822556449203879
 30
0.0
 40
1.25
  1
以下
 41
0.7031300067901612
  7
文字スタイル144
100
AcDbText
  0
MTEXT
  5
15E
330
F5
100
AcDbEntity
  8
Symbol (ISO)
100
AcDbMText
 10
-45.46950148221842
 20
-0.7004528189525417
 30
0.0
 40
1.522842645645141
 41
0.0
 46
0.0
 71
     1
 72
     1
  1
\fTahoma|b0|i0;\H1.5228;面取り部分を除く長さ寸法に対する許容差
  7
Note Text (JIS)
 73
     1
 44
1.5
  0
MTEXT
  5
160
330
F5
100
AcDbEntity
  8
Symbol (ISO)
100
AcDbMText
 10
-47.96780922760598
 20
-3.425179725575979
 30
0.0
 40
1.522842645645141
 41
0.0
 46
0.0
 71
     1
 72
     1
  1
\fTahoma|b0|i0;\H1.5228;公差等級
  7
Note Text (JIS)
 73
     1
 44
1.5
  0
MTEXT
  5
161
330
F5
100
AcDbEntity
  8
Symbol (ISO)
100
AcDbMText
 10
-30.52603614519629
 20
-3.484726718636785
 30
0.0
 40
1.522842645645141
 41
0.0
 46
0.0
 71
     1
 72
     1
  1
\fTahoma|b0|i0;\H1.5228;基準寸法の区分
  7
Note Text (JIS)
 73
     1
 44
1.5
  0
ENDBLK
  5
F7
330
F5
100
AcDbEntity
  8
0
100
AcDbBlockEnd
  0
BLOCK
  5
163
330
162
100
AcDbEntity
  8
0
100
AcDbBlockBegin
  2
バルブ仕様表
 70
     0
 10
0.0
 20
0.0
 30
0.0
  3
バルブ仕様表
  1

  0
LINE
  5
165
330
162
100
AcDbEntity
  8
AM_6
 62
     7
100
AcDbLine
 10
-109.9999999999999
 20
27.99999999999997
 30
0.0
 11
0.0
 21
27.99999999999997
 31
0.0
  0
LINE
  5
166
330
162
100
AcDbEntity
  8
AM_6
 62
     7
100
AcDbLine
 10
-109.9999999999999
 20
13.99999999999998
 30
0.0
 11
0.0
 21
13.99999999999998
 31
0.0
  0
LINE
  5
167
330
162
100
AcDbEntity
  8
AM_6
 62
     7
100
AcDbLine
 10
-109.9999999999999
 20
20.99999999999994
 30
0.0
 11
0.0
 21
20.99999999999994
 31
0.0
  0
LINE
  5
168
330
162
100
AcDbEntity
  8
AM_6
 62
     7
100
AcDbLine
 10
-109.9999999999999
 20
0.0
 30
0.0
 11
0.0
 21
0.0
 31
0.0
  0
LINE
  5
169
330
162
100
AcDbEntity
  8
AM_6
 62
     7
100
AcDbLine
 10
-109.9999999999999
 20
6.999999999999957
 30
0.0
 11
0.0
 21
6.999999999999957
 31
0.0
  0
LINE
  5
16A
330
162
100
AcDbEntity
  8
AM_6
100
AcDbLine
 10
-109.9999999999999
 20
13.99999999999998
 30
0.0
 11
0.0
 21
13.99999999999998
 31
0.0
  0
LINE
  5
16B
330
162
100
AcDbEntity
  8
AM_6
 62
     7
100
AcDbLine
 10
-79.99999999999997
 20
0.0
 30
0.0
 11
-79.99999999999997
 21
13.99999999999998
 31
0.0
  0
LINE
  5
16C
330
162
100
AcDbEntity
  8
AM_6
 62
     7
100
AcDbLine
 10
-79.99999999999983
 20
27.99999999999997
 30
0.0
 11
-79.99999999999997
 21
13.99999999999998
 31
0.0
  0
LINE
  5
16D
330
162
100
AcDbEntity
  8
AM_6
 62
     7
100
AcDbLine
 10
-109.9999999999999
 20
0.0
 30
0.0
 11
-109.9999999999999
 21
13.99999999999998
 31
0.0
  0
LINE
  5
16E
330
162
100
AcDbEntity
  8
AM_6
 62
     7
100
AcDbLine
 10
-109.9999999999999
 20
27.99999999999997
 30
0.0
 11
-109.9999999999999
 21
13.99999999999998
 31
0.0
  0
LINE
  5
16F
330
162
100
AcDbEntity
  8
AM_6
 62
     7
100
AcDbLine
 10
0.0
 20
27.99999999999997
 30
0.0
 11
0.0
 21
0.0
 31
0.0
  0
TEXT
  5
171
330
162
100
AcDbEntity
  8
AM_6
 62
     7
100
AcDbText
 10
-102.9390916948839
 20
1.453793852345341
 30
0.0
 40
3.000000119209289
  1
気密試験
  7
文字スタイル124
100
AcDbText
  0
TEXT
  5
173
330
162
100
AcDbEntity
  8
AM_6
 62
     7
100
AcDbText
 10
-102.9390916948839
 20
8.45379385234537
 30
0.0
 40
3.000000119209289
  1
耐圧試験
  7
文字スタイル124
100
AcDbText
  0
TEXT
  5
174
330
162
100
AcDbEntity
  8
AM_6
 62
     7
100
AcDbText
 10
-102.9390916948839
 20
15.45379385234532
 30
0.0
 40
3.000000119209289
  1
使用温度
  7
文字スタイル124
100
AcDbText
  0
TEXT
  5
175
330
162
100
AcDbEntity
  8
AM_6
 62
     7
100
AcDbText
 10
-102.9390916948839
 20
22.45379385234536
 30
0.0
 40
3.000000119209289
  1
使用圧力
  7
文字スタイル124
100
AcDbText
  0
TEXT
  5
177
330
162
100
AcDbEntity
  8
AM_6
 62
     7
100
AcDbText
 10
-18.76317222497654
 20
24.43990877602957
 30
0.0
 40
1.000000014901161
  1
2
  7
文字スタイル125
100
AcDbText
  0
TEXT
  5
178
330
162
100
AcDbEntity
  8
AM_6
 62
     7
100
AcDbText
 10
-65.4524935694148
 20
8.45379385234537
 30
0.0
 40
3.000000119209289
  1
1.96Mpa (20Kg/cm )
  7
文字スタイル124
100
AcDbText
  0
TEXT
  5
179
330
162
100
AcDbEntity
  8
AM_6
 62
     7
100
AcDbText
 10
-65.4524935694148
 20
1.453793852345341
 30
0.0
 40
3.000000119209289
  1
0.59Mpa (6Kg/cm )
  7
文字スタイル124
100
AcDbText
  0
TEXT
  5
17A
330
162
100
AcDbEntity
  8
AM_6
 62
     7
100
AcDbText
 10
-65.4524935694148
 20
22.45379385234536
 30
0.0
 40
3.000000119209289
  1
MAX　0.98Mpa (10Kg/cm )
  7
文字スタイル124
100
AcDbText
  0
TEXT
  5
17B
330
162
100
AcDbEntity
  8
AM_6
 62
     7
100
AcDbText
 10
-65.4524935694148
 20
15.45379385234532
 30
0.0
 40
3.000000119209289
  1
-10℃～+80℃（凍結無き事）
  7
文字スタイル124
100
AcDbText
  0
TEXT
  5
17C
330
162
100
AcDbEntity
  8
AM_6
 62
     7
100
AcDbText
 10
-30.27841636708135
 20
10.1899658992977
 30
0.0
 40
1.000000014901161
  1
2
  7
文字スタイル125
100
AcDbText
  0
TEXT
  5
17D
330
162
100
AcDbEntity
  8
AM_6
 62
     7
100
AcDbText
 10
-32.65625957956317
 20
3.592593427809589
 30
0.0
 40
1.000000014901161
  1
2
  7
文字スタイル125
100
AcDbText
  0
ENDBLK
  5
164
330
162
100
AcDbEntity
  8
0
100
AcDbBlockEnd
  0
BLOCK
  5
17F
330
17E
100
AcDbEntity
  8
0
100
AcDbBlockBegin
  2
バルブ開閉R1
 70
     0
 10
0.0
 20
0.0
 30
0.0
  3
バルブ開閉R1
  1

  0
ARC
  5
181
330
17E
100
AcDbEntity
  8
AM_6
 62
     7
100
AcDbCircle
 10
0.0
 20
0.0
 30
0.0
 40
31.60554310523806
100
AcDbArc
 50
202.1518571539441
 51
242.8481428460548
  0
LINE
  5
182
330
17E
100
AcDbEntity
  8
AM_6
 62
     7
100
AcDbLine
 10
-14.42320326968719
 20
-28.12261656422398
 30
0.0
 11
-17.42320326968716
 21
-28.12261656422381
 31
0.0
  0
LINE
  5
183
330
17E
100
AcDbEntity
  8
AM_6
 62
     7
100
AcDbLine
 10
-14.42320326968719
 20
-28.12261656422398
 30
0.0
 11
-16.54452361324683
 21
-26.00129622066435
 31
0.0
  0
LINE
  5
184
330
17E
100
AcDbEntity
  8
AM_6
 62
     7
100
AcDbLine
 10
-29.27266651151672
 20
-11.9172710920999
 30
0.0
 11
-29.27266651151651
 21
-14.91727109209995
 31
0.0
  0
LINE
  5
185
330
17E
100
AcDbEntity
  8
AM_6
 62
     7
100
AcDbLine
 10
-29.27266651151672
 20
-11.9172710920999
 30
0.0
 11
-27.15134616795709
 21
-14.03859143565954
 31
0.0
  0
TEXT
  5
187
330
17E
100
AcDbEntity
  8
AM_6
 62
     7
100
AcDbText
 10
-17.58938102507702
 20
-32.173637407816
 30
0.0
 40
2.000000029802322
  1
閉
  7
文字スタイル126
100
AcDbText
  0
TEXT
  5
188
330
17E
100
AcDbEntity
  8
AM_6
 62
     7
100
AcDbText
 10
-34.07208754498853
 20
-14.71927959924537
 30
0.0
 40
2.000000029802322
  1
開
  7
文字スタイル126
100
AcDbText
  0
ENDBLK
  5
180
330
17E
100
AcDbEntity
  8
0
100
AcDbBlockEnd
  0
BLOCK
  5
18A
330
189
100
AcDbEntity
  8
0
100
AcDbBlockBegin
  2
バルブ開閉R2
 70
     0
 10
0.0
 20
0.0
 30
0.0
  3
バルブ開閉R2
  1

  0
ARC
  5
18C
330
189
100
AcDbEntity
  8
AM_6
 62
     7
100
AcDbCircle
 10
0.0
 20
0.0
 30
0.0
 40
31.60554310523806
100
AcDbArc
 50
112.1518571539441
 51
152.8481428460544
  0
LINE
  5
18D
330
189
100
AcDbEntity
  8
AM_6
 62
     7
100
AcDbLine
 10
-28.12261656422434
 20
14.42320326968785
 30
0.0
 11
-28.12261656422432
 21
17.42320326968792
 31
0.0
  0
LINE
  5
18E
330
189
100
AcDbEntity
  8
AM_6
 62
     7
100
AcDbLine
 10
-28.12261656422434
 20
14.42320326968785
 30
0.0
 11
-26.00129622066479
 21
16.54452361324784
 31
0.0
  0
LINE
  5
18F
330
189
100
AcDbEntity
  8
AM_6
 62
     7
100
AcDbLine
 10
-11.91727109210028
 20
29.27266651151738
 30
0.0
 11
-14.91727109210039
 21
29.27266651151745
 31
0.0
  0
LINE
  5
190
330
189
100
AcDbEntity
  8
AM_6
 62
     7
100
AcDbLine
 10
-11.91727109210028
 20
29.27266651151738
 30
0.0
 11
-14.03859143566027
 21
27.1513461679576
 31
0.0
  0
TEXT
  5
191
330
189
100
AcDbEntity
  8
AM_6
 62
     7
100
AcDbText
 10
-15.08194606405059
 20
31.4147512872629
 30
0.0
 40
2.000000029802322
  1
閉
  7
文字スタイル126
100
AcDbText
  0
TEXT
  5
192
330
189
100
AcDbEntity
  8
AM_6
 62
     7
100
AcDbText
 10
-34.27398386649212
 20
14.82775972083301
 30
0.0
 40
2.000000029802322
  1
開
  7
文字スタイル126
100
AcDbText
  0
ENDBLK
  5
18B
330
189
100
AcDbEntity
  8
0
100
AcDbBlockEnd
  0
BLOCK
  5
194
330
193
100
AcDbEntity
  8
0
100
AcDbBlockBegin
  2
ｴｰｽﾎﾞｰﾙｿｹｯﾄ・本体注釈①
 70
     0
 10
0.0
 20
0.0
 30
0.0
  3
ｴｰｽﾎﾞｰﾙｿｹｯﾄ・本体注釈①
  1

  0
MTEXT
  5
196
330
193
100
AcDbEntity
  8
Symbol (ISO)
100
AcDbMText
 10
-27.82894849777225
 20
3.352206237614154
 30
0.0
 40
2.5
 41
0.0
 46
0.0
 71
     1
 72
     1
  1
※本体仮組時に　本体（φ6ｽﾄﾚｰﾄ）\P・ｿｹｯﾄの隙間を0.5㎜とする事。
  7
Note Text (JIS)
 73
     2
 44
1.058181881904602
  0
ENDBLK
  5
195
330
193
100
AcDbEntity
  8
0
100
AcDbBlockEnd
  0
BLOCK
  5
198
330
197
100
AcDbEntity
  8
0
100
AcDbBlockBegin
  2
バルブ仕様書①
 70
     0
 10
0.0
 20
0.0
 30
0.0
  3
バルブ仕様書①
  1

  0
LINE
  5
19A
330
197
100
AcDbEntity
  8
AM_6
 62
     7
100
AcDbLine
 10
-109.9999999999999
 20
27.99999999999997
 30
0.0
 11
0.0
 21
27.99999999999997
 31
0.0
  0
LINE
  5
19B
330
197
100
AcDbEntity
  8
AM_6
 62
     7
100
AcDbLine
 10
-109.9999999999999
 20
13.99999999999998
 30
0.0
 11
0.0
 21
13.99999999999998
 31
0.0
  0
LINE
  5
19C
330
197
100
AcDbEntity
  8
AM_6
 62
     7
100
AcDbLine
 10
-109.9999999999999
 20
20.99999999999994
 30
0.0
 11
0.0
 21
20.99999999999994
 31
0.0
  0
LINE
  5
19D
330
197
100
AcDbEntity
  8
AM_6
 62
     7
100
AcDbLine
 10
-109.9999999999999
 20
0.0
 30
0.0
 11
0.0
 21
0.0
 31
0.0
  0
LINE
  5
19E
330
197
100
AcDbEntity
  8
AM_6
 62
     7
100
AcDbLine
 10
-109.9999999999999
 20
6.999999999999957
 30
0.0
 11
0.0
 21
6.999999999999957
 31
0.0
  0
LINE
  5
19F
330
197
100
AcDbEntity
  8
AM_6
100
AcDbLine
 10
-109.9999999999999
 20
13.99999999999998
 30
0.0
 11
0.0
 21
13.99999999999998
 31
0.0
  0
LINE
  5
1A0
330
197
100
AcDbEntity
  8
AM_6
 62
     7
100
AcDbLine
 10
-79.99999999999997
 20
0.0
 30
0.0
 11
-79.99999999999997
 21
13.99999999999998
 31
0.0
  0
LINE
  5
1A1
330
197
100
AcDbEntity
  8
AM_6
 62
     7
100
AcDbLine
 10
-79.99999999999983
 20
27.99999999999997
 30
0.0
 11
-79.99999999999997
 21
13.99999999999998
 31
0.0
  0
LINE
  5
1A2
330
197
100
AcDbEntity
  8
AM_6
 62
     7
100
AcDbLine
 10
-109.9999999999999
 20
0.0
 30
0.0
 11
-109.9999999999999
 21
13.99999999999998
 31
0.0
  0
LINE
  5
1A3
330
197
100
AcDbEntity
  8
AM_6
 62
     7
100
AcDbLine
 10
-109.9999999999999
 20
27.99999999999997
 30
0.0
 11
-109.9999999999999
 21
13.99999999999998
 31
0.0
  0
LINE
  5
1A4
330
197
100
AcDbEntity
  8
AM_6
 62
     7
100
AcDbLine
 10
0.0
 20
27.99999999999997
 30
0.0
 11
0.0
 21
0.0
 31
0.0
  0
TEXT
  5
1A5
330
197
100
AcDbEntity
  8
AM_6
 62
     7
100
AcDbText
 10
-109.5569312552745
 20
1.35119169264982
 30
0.0
 40
3.000000119209289
  1
気密・耐圧試験
  7
文字スタイル124
100
AcDbText
  0
TEXT
  5
1A6
330
197
100
AcDbEntity
  8
AM_6
 62
     7
100
AcDbText
 10
-65.4524935694148
 20
1.453793852345341
 30
0.0
 40
3.000000119209289
  1
空圧 0.59Mpa 全数
  7
文字スタイル124
100
AcDbText
  0
TEXT
  5
1A8
330
197
100
AcDbEntity
  8
AM_6
100
AcDbText
 10
-32.65625957956317
 20
3.592593427809589
 30
0.0
 40
1.000000014901161
  1
2
  7
文字スタイル133
100
AcDbText
  0
ENDBLK
  5
199
330
197
100
AcDbEntity
  8
0
100
AcDbBlockEnd
  0
BLOCK
  5
1AA
330
1A9
100
AcDbEntity
  8
0
100
AcDbBlockBegin
  2
ストッパー加工注釈
 70
     0
 10
0.0
 20
0.0
 30
0.0
  3
ストッパー加工注釈
  1

  0
MTEXT
  5
1AC
330
1A9
100
AcDbEntity
  8
Symbol (ISO)
100
AcDbMText
 10
-19.48830366134647
 20
3.352206274867057
 30
0.0
 40
2.5
 41
0.0
 46
0.0
 71
     1
 72
     1
  1
※ハンドル開閉治具にて\P角度を確認する事。
  7
Note Text (JIS)
 73
     2
 44
1.058181881904602
  0
ENDBLK
  5
1AB
330
1A9
100
AcDbEntity
  8
0
100
AcDbBlockEnd
  0
BLOCK
  5
1AE
330
1AD
100
AcDbEntity
  8
0
100
AcDbBlockBegin
  2
三方弁説明A
 70
     0
 10
0.0
 20
0.0
 30
0.0
  3
三方弁説明A
  1

  0
MTEXT
  5
1B0
330
1AD
100
AcDbEntity
  8
Symbol (ISO)
100
AcDbMText
 10
-26.24561548233032
 20
4.643620708957314
 30
0.0
 40
1.500000059604644
 41
0.0
 46
0.0
 71
     1
 72
     1
  1
\fＭＳ Ｐゴシック|b0|i0;\H1.5000;※ハンドル位置Aの時、ポートEの圧力がポートF及び\P　ポートGより高い場合、ポートEからポートF及びポートG\P　に漏れが発生する場合が御座います。\P※流路切り替え途中は、流体が混流致します。
  7
Note Text (JIS)
 73
     2
 44
1.058181881904602
  0
ENDBLK
  5
1AF
330
1AD
100
AcDbEntity
  8
0
100
AcDbBlockEnd
  0
BLOCK
  5
1B2
330
1B1
100
AcDbEntity
  8
0
100
AcDbBlockBegin
  2
三方弁説明B
 70
     0
 10
0.0
 20
0.0
 30
0.0
  3
三方弁説明B
  1

  0
MTEXT
  5
1B4
330
1B1
100
AcDbEntity
  8
Symbol (ISO)
100
AcDbMText
 10
-26.10087871551514
 20
4.643620708957314
 30
0.0
 40
1.500000059604644
 41
0.0
 46
0.0
 71
     1
 72
     1
  1
\fＭＳ Ｐゴシック|b0|i0;\H1.5000;※ハンドル位置Bの時、ポートGの圧力がポートE及び\P　ポートFより高い場合、ポートGからポートE及びポートF\P　に漏れが発生する場合が御座います。\P※流路切り替え途中は、流体が混流致します。
  7
Note Text (JIS)
 73
     2
 44
1.058181881904602
  0
ENDBLK
  5
1B3
330
1B1
100
AcDbEntity
  8
0
100
AcDbBlockEnd
  0
BLOCK
  5
1B6
330
1B5
100
AcDbEntity
  8
0
100
AcDbBlockBegin
  2
三方弁説明C
 70
     0
 10
0.0
 20
0.0
 30
0.0
  3
三方弁説明C
  1

  0
MTEXT
  5
1B8
330
1B5
100
AcDbEntity
  8
Symbol (ISO)
100
AcDbMText
 10
-26.24561548233032
 20
8.611802766099572
 30
0.0
 40
1.500000059604644
 41
0.0
 46
0.0
 71
     1
 72
     1
  1
\fＭＳ Ｐゴシック|b0|i0;\H1.5000;※流路F→Gの時、ポートEの圧力がポートF及び\P　ポートGより高い場合、ポートEからポートF及びポートG\P　に漏れが発生する場合が御座います。\P　また、流路F→Eの時、ポートGの圧力がポートF及び\P　ポートEより高い場合、ポートGからポートF及びポートE\P　に漏れが発生する場合が御座います。 \P※流路切り替え途中は、流体が混流致します。
  7
Note Text (JIS)
 73
     2
 44
1.058181881904602
  0
ENDBLK
  5
1B7
330
1B5
100
AcDbEntity
  8
0
100
AcDbBlockEnd
  0
BLOCK
  5
1BA
330
1B9
100
AcDbEntity
  8
0
100
AcDbBlockBegin
  2
三方弁流れ方向
 70
     0
 10
0.0
 20
0.0
 30
0.0
  3
三方弁流れ方向
  1

  0
LINE
  5
1BC
330
1B9
100
AcDbEntity
  8
Sketch Geometry (ISO)
100
AcDbLine
 10
15.0
 20
5.75000000000001
 30
0.0
 11
15.0
 21
-4.249999999999989
 31
0.0
  0
LINE
  5
1BD
330
1B9
100
AcDbEntity
  8
Sketch Geometry (ISO)
100
AcDbLine
 10
15.0
 20
-4.249999999999989
 30
0.0
 11
25.0
 21
-4.249999999999989
 31
0.0
  0
LINE
  5
1BE
330
1B9
100
AcDbEntity
  8
Sketch Geometry (ISO)
100
AcDbLine
 10
25.0
 20
-4.249999999999989
 30
0.0
 11
22.40192378864668
 21
-5.75000000000001
 31
0.0
  0
LINE
  5
1BF
330
1B9
100
AcDbEntity
  8
Sketch Geometry (ISO)
100
AcDbLine
 10
25.0
 20
-4.249999999999989
 30
0.0
 11
22.4019237886467
 21
-2.749999999999985
 31
0.0
  0
LINE
  5
1C0
330
1B9
100
AcDbEntity
  8
Sketch Geometry (ISO)
100
AcDbLine
 10
-15.0
 20
5.75000000000001
 30
0.0
 11
-15.0
 21
-4.249999999999989
 31
0.0
  0
LINE
  5
1C1
330
1B9
100
AcDbEntity
  8
Sketch Geometry (ISO)
100
AcDbLine
 10
-15.0
 20
-4.249999999999989
 30
0.0
 11
-25.0
 21
-4.249999999999989
 31
0.0
  0
LINE
  5
1C2
330
1B9
100
AcDbEntity
  8
Sketch Geometry (ISO)
100
AcDbLine
 10
-25.0
 20
-4.249999999999989
 30
0.0
 11
-22.40192378864668
 21
-5.749999999999992
 31
0.0
  0
LINE
  5
1C3
330
1B9
100
AcDbEntity
  8
Sketch Geometry (ISO)
100
AcDbLine
 10
-25.0
 20
-4.249999999999989
 30
0.0
 11
-22.40192378864668
 21
-2.749999999999985
 31
0.0
  0
ENDBLK
  5
1BB
330
1B9
100
AcDbEntity
  8
0
100
AcDbBlockEnd
  0
ENDSEC
  0
SECTION
  2
ENTITIES
  0
MTEXT
  5
1C4
330
70
100
AcDbEntity
  8
Symbol (ISO)
100
AcDbMText
 10
148.9472183533245
 20
113.8745568814301
 30
0.0
 40
2.5
 41
61.43274784088136
 46
0.0
 71
     1
 72
     1
  1
{エースボールRV ストレート　BW-7922R}
  7
Note Text (JIS)
 73
     1
 44
1.5
  0
LINE
  5
1C5
330
70
100
AcDbEntity
  8
Visible (ISO)
100
AcDbLine
 10
101.60436373908
 20
52.78963173287545
 30
0.0
 11
101.60436373908
 21
72.78963173287545
 31
0.0
  0
LINE
  5
1C6
330
70
100
AcDbEntity
  8
Visible (ISO)
100
AcDbLine
 10
101.85436373908
 20
72.53963173287544
 30
0.0
 11
101.85436373908
 21
53.03963173287545
 31
0.0
  0
LINE
  5
1C7
330
70
100
AcDbEntity
  8
Visible (ISO)
100
AcDbLine
 10
101.85436373908
 20
53.03963173287545
 30
0.0
 11
101.60436373908
 21
52.78963173287545
 31
0.0
  0
LINE
  5
1C8
330
70
100
AcDbEntity
  8
Visible (ISO)
100
AcDbLine
 10
101.85436373908
 20
72.53963173287544
 30
0.0
 11
101.60436373908
 21
72.78963173287545
 31
0.0
  0
LINE
  5
1C9
330
70
100
AcDbEntity
  8
Visible (ISO)
100
AcDbLine
 10
99.73632975033012
 20
72.78963173287545
 30
0.0
 11
99.73632975033012
 21
52.78963173287545
 31
0.0
  0
ARC
  5
1CA
330
70
100
AcDbEntity
  8
Visible (ISO)
100
AcDbCircle
 10
100.85436373908
 20
71.78963173287545
 30
0.0
 40
1.5
100
AcDbArc
 50
138.1896851042216
 51
180.0
  0
ARC
  5
1CB
330
70
100
AcDbEntity
  8
Visible (ISO)
100
AcDbCircle
 10
100.85436373908
 20
53.78963173287544
 30
0.0
 40
1.5
100
AcDbArc
 50
180.0
 51
221.8103148957783
  0
LINE
  5
1CC
330
70
100
AcDbEntity
  8
Visible (ISO)
100
AcDbLine
 10
83.9723977278299
 20
52.78963173287545
 30
0.0
 11
83.9723977278299
 21
72.78963173287545
 31
0.0
  0
ARC
  5
1CD
330
70
100
AcDbEntity
  8
Visible (ISO)
100
AcDbCircle
 10
82.85436373908
 20
53.78963173287544
 30
0.0
 40
1.5
100
AcDbArc
 50
318.1896851042214
 51
0.0
  0
ARC
  5
1CE
330
70
100
AcDbEntity
  8
Visible (ISO)
100
AcDbCircle
 10
82.85436373908
 20
71.78963173287545
 30
0.0
 40
1.5
100
AcDbArc
 50
0.0
 51
41.8103148957786
  0
LINE
  5
1CF
330
70
100
AcDbEntity
  8
Visible (ISO)
100
AcDbLine
 10
81.97239772782991
 20
52.78963173287545
 30
0.0
 11
81.97239772782991
 21
72.78963173287545
 31
0.0
  0
LINE
  5
1D0
330
70
100
AcDbEntity
  8
Visible (ISO)
100
AcDbLine
 10
81.97239772782991
 20
72.78963173287545
 30
0.0
 11
83.9723977278299
 21
72.78963173287545
 31
0.0
  0
LINE
  5
1D1
330
70
100
AcDbEntity
  8
Visible (ISO)
100
AcDbLine
 10
81.97239772782991
 20
52.78963173287545
 30
0.0
 11
83.9723977278299
 21
52.78963173287545
 31
0.0
  0
LINE
  5
1D2
330
70
100
AcDbEntity
  8
Visible (ISO)
100
AcDbLine
 10
79.85436373908
 20
69.23963173287545
 30
0.0
 11
81.97239772782991
 21
72.78963173287545
 31
0.0
  0
LINE
  5
1D3
330
70
100
AcDbEntity
  8
Visible (ISO)
100
AcDbLine
 10
79.85436373908
 20
56.33963173287546
 30
0.0
 11
81.97239772782991
 21
52.78963173287545
 31
0.0
  0
LINE
  5
1D4
330
70
100
AcDbEntity
  8
Visible (ISO)
100
AcDbLine
 10
98.98396523957565
 20
67.78963173733687
 30
0.0
 11
84.72476223858437
 21
67.78963173733687
 31
0.0
  0
LINE
  5
1D5
330
70
100
AcDbEntity
  8
Visible (ISO)
100
AcDbLine
 10
98.98396523766152
 20
57.78963173733687
 30
0.0
 11
84.72476224049851
 21
57.78963173733687
 31
0.0
  0
LINE
  5
1D6
330
70
100
AcDbEntity
  8
Visible (ISO)
100
AcDbLine
 10
101.60436373908
 20
52.78963173287545
 30
0.0
 11
99.73632975033012
 21
52.78963173287545
 31
0.0
  0
LINE
  5
1D7
330
70
100
AcDbEntity
  8
Visible (ISO)
100
AcDbLine
 10
101.60436373908
 20
72.78963173287545
 30
0.0
 11
99.73632975033012
 21
72.78963173287545
 31
0.0
  0
ARC
  5
1D8
330
70
100
AcDbEntity
  8
Visible (ISO)
100
AcDbCircle
 10
85.45436373908001
 20
71.78963173287545
 30
0.0
 40
0.5
100
AcDbArc
 50
270.0
 51
0.0
  0
ARC
  5
1D9
330
70
100
AcDbEntity
  8
Visible (ISO)
100
AcDbCircle
 10
98.25436373908003
 20
71.78963173287545
 30
0.0
 40
0.5
100
AcDbArc
 50
180.0
 51
270.0
  0
LINE
  5
1DA
330
70
100
AcDbEntity
  8
Visible (ISO)
100
AcDbLine
 10
85.95436373908
 20
71.78963173287545
 30
0.0
 11
85.95436373908
 21
73.28963173287546
 31
0.0
  0
LINE
  5
1DB
330
70
100
AcDbEntity
  8
Visible (ISO)
100
AcDbLine
 10
97.75436373908
 20
71.78963173287545
 30
0.0
 11
97.75436373908
 21
73.28963173287546
 31
0.0
  0
LINE
  5
1DC
330
70
100
AcDbEntity
  8
Visible (ISO)
100
AcDbLine
 10
84.85436373908001
 20
71.28963173287546
 30
0.0
 11
85.45436373908001
 21
71.28963173287546
 31
0.0
  0
LINE
  5
1DD
330
70
100
AcDbEntity
  8
Visible (ISO)
100
AcDbLine
 10
98.25436373908003
 20
71.28963173287546
 30
0.0
 11
98.85436373908
 21
71.28963173287546
 31
0.0
  0
LINE
  5
1DE
330
70
100
AcDbEntity
  8
Visible (ISO)
100
AcDbLine
 10
84.85436373908001
 20
54.28963173287545
 30
0.0
 11
98.85436373908
 21
54.28963173287545
 31
0.0
  0
ARC
  5
1DF
330
70
100
AcDbEntity
  8
Visible (ISO)
100
AcDbCircle
 10
84.85436373908001
 20
53.78963173287544
 30
0.0
 40
0.5
100
AcDbArc
 50
90.0
 51
180.0
  0
ARC
  5
1E0
330
70
100
AcDbEntity
  8
Visible (ISO)
100
AcDbCircle
 10
84.85436373908001
 20
71.78963173287545
 30
0.0
 40
0.5
100
AcDbArc
 50
180.0
 51
270.0
  0
ARC
  5
1E1
330
70
100
AcDbEntity
  8
Visible (ISO)
100
AcDbCircle
 10
98.85436373908
 20
53.78963173287544
 30
0.0
 40
0.5
100
AcDbArc
 50
0.0
 51
90.0
  0
ARC
  5
1E2
330
70
100
AcDbEntity
  8
Visible (ISO)
100
AcDbCircle
 10
98.85436373908
 20
71.78963173287545
 30
0.0
 40
0.5
100
AcDbArc
 50
270.0
 51
0.0
  0
LINE
  5
1E3
330
70
100
AcDbEntity
  8
Visible (ISO)
100
AcDbLine
 10
115.8543637390799
 20
54.78963173287546
 30
0.0
 11
115.8543637390799
 21
70.78963173287549
 31
0.0
  0
SPLINE
  5
1E4
330
70
100
AcDbEntity
  8
Visible (ISO)
100
AcDbSpline
210
0.0
220
0.0
230
1.0
 70
    12
 71
     2
 72
     6
 73
     3
 74
     0
 42
0.000000001
 43
0.0000000001
 40
0.1463461418658453
 40
0.1463461418658453
 40
0.1463461418658453
 40
1.198424304883157
 40
1.198424304883157
 40
1.198424304883157
 10
114.8064992259303
 20
67.69710902098729
 30
0.0
 41
1.051552365563892
 10
116.2231658925967
 20
70.15084766504327
 30
0.0
 41
1.21422808265058
 10
114.8064992259303
 20
72.60458630909912
 30
0.0
 41
1.051552365563892
  0
SPLINE
  5
1E5
330
70
100
AcDbEntity
  8
Visible (ISO)
100
AcDbSpline
210
0.0
220
0.0
230
1.0
 70
    12
 71
     2
 72
     6
 73
     3
 74
     0
 42
0.000000001
 43
0.0000000001
 40
0.1463461418658459
 40
0.1463461418658459
 40
0.1463461418658459
 40
1.198424304883158
 40
1.198424304883158
 40
1.198424304883158
 10
114.8064992259303
 20
57.88215444476364
 30
0.0
 41
1.051552365563891
 10
116.2231658925967
 20
62.78963173287557
 30
0.0
 41
1.214228082650577
 10
114.8064992259303
 20
67.69710902098729
 30
0.0
 41
1.051552365563891
  0
SPLINE
  5
1E6
330
70
100
AcDbEntity
  8
Visible (ISO)
100
AcDbSpline
210
0.0
220
0.0
230
1.0
 70
    12
 71
     2
 72
     6
 73
     3
 74
     0
 42
0.000000001
 43
0.0000000001
 40
0.146346141865845
 40
0.146346141865845
 40
0.146346141865845
 40
1.198424304883158
 40
1.198424304883158
 40
1.198424304883158
 10
114.8064992259303
 20
52.97467715665181
 30
0.0
 41
1.051552365563892
 10
116.2231658925967
 20
55.42841580070777
 30
0.0
 41
1.214228082650582
 10
114.8064992259303
 20
57.88215444476364
 30
0.0
 41
1.051552365563892
  0
LINE
  5
1E7
330
70
100
AcDbEntity
  8
Visible (ISO)
100
AcDbLine
 10
115.85436373908
 20
54.78963173287545
 30
0.0
 11
114.8064992259303
 21
52.97467715665181
 31
0.0
  0
LINE
  5
1E8
330
70
100
AcDbEntity
  8
Visible (ISO)
100
AcDbLine
 10
115.8543637390799
 20
70.78963173287549
 30
0.0
 11
114.8064992259303
 21
72.60458630909912
 31
0.0
  0
SPLINE
  5
1E9
330
70
100
AcDbEntity
  8
Visible (ISO)
100
AcDbSpline
210
0.0
220
0.0
230
1.0
 70
    12
 71
     2
 72
     6
 73
     3
 74
     0
 42
0.000000001
 43
0.0000000001
 40
0.0606773123555736
 40
0.0606773123555736
 40
0.0606773123555736
 40
1.07667678214846
 40
1.07667678214846
 40
1.07667678214846
 10
102.9022282522296
 20
67.69710902098728
 30
0.0
 41
1.019972620773999
 10
101.485561585563
 20
62.78963173287545
 30
0.0
 41
1.177762934339832
 10
102.9022282522296
 20
57.88215444476363
 30
0.0
 41
1.019972620773999
  0
SPLINE
  5
1EA
330
70
100
AcDbEntity
  8
Visible (ISO)
100
AcDbSpline
210
0.0
220
0.0
230
1.0
 70
    12
 71
     2
 72
     6
 73
     3
 74
     0
 42
0.000000001
 43
0.0000000001
 40
0.0606773123555735
 40
0.0606773123555735
 40
0.0606773123555735
 40
1.076676782148459
 40
1.076676782148459
 40
1.076676782148459
 10
102.9022282522296
 20
72.60458630909912
 30
0.0
 41
1.019972620774
 10
101.485561585563
 20
70.15084766504319
 30
0.0
 41
1.177762934339833
 10
102.9022282522296
 20
67.69710902098728
 30
0.0
 41
1.019972620773999
  0
SPLINE
  5
1EB
330
70
100
AcDbEntity
  8
Visible (ISO)
100
AcDbSpline
210
0.0
220
0.0
230
1.0
 70
    12
 71
     2
 72
     6
 73
     3
 74
     0
 42
0.000000001
 43
0.0000000001
 40
0.0606773123555737
 40
0.0606773123555737
 40
0.0606773123555737
 40
1.076676782148461
 40
1.076676782148461
 40
1.076676782148461
 10
102.9022282522296
 20
57.88215444476363
 30
0.0
 41
1.019972620773999
 10
101.485561585563
 20
55.42841580070771
 30
0.0
 41
1.177762934339833
 10
102.9022282522296
 20
52.97467715665178
 30
0.0
 41
1.019972620774
  0
LINE
  5
1EC
330
70
100
AcDbEntity
  8
Visible (ISO)
100
AcDbLine
 10
101.85436373908
 20
70.78963173287547
 30
0.0
 11
102.9022282522296
 21
72.60458630909912
 31
0.0
  0
LINE
  5
1ED
330
70
100
AcDbEntity
  8
Visible (ISO)
100
AcDbLine
 10
101.85436373908
 20
54.78963173287542
 30
0.0
 11
102.9022282522296
 21
52.97467715665178
 31
0.0
  0
LINE
  5
1EE
330
70
100
AcDbEntity
  8
Visible (ISO)
100
AcDbLine
 10
102.9022282522296
 20
72.60458630909912
 30
0.0
 11
114.8064992259303
 21
72.60458630909912
 31
0.0
  0
LINE
  5
1EF
330
70
100
AcDbEntity
  8
Visible (ISO)
100
AcDbLine
 10
102.9022282522296
 20
67.69710902098728
 30
0.0
 11
114.8064992259303
 21
67.69710902098729
 31
0.0
  0
LINE
  5
1F0
330
70
100
AcDbEntity
  8
Visible (ISO)
100
AcDbLine
 10
102.9022282522296
 20
57.88215444476363
 30
0.0
 11
114.8064992259303
 21
57.88215444476364
 31
0.0
  0
LINE
  5
1F1
330
70
100
AcDbEntity
  8
Visible (ISO)
100
AcDbLine
 10
102.9022282522296
 20
52.97467715665178
 30
0.0
 11
114.8064992259303
 21
52.97467715665181
 31
0.0
  0
LINE
  5
1F2
330
70
100
AcDbEntity
  8
Visible (ISO)
100
AcDbLine
 10
54.35436373908
 20
71.18963173287546
 30
0.0
 11
54.35436373908
 21
54.38963173287546
 31
0.0
  0
LINE
  5
1F3
330
70
100
AcDbEntity
  8
Visible (ISO)
100
AcDbLine
 10
53.85436373908
 20
54.88963173287545
 30
0.0
 11
53.85436373908
 21
70.68963173287546
 31
0.0
  0
LINE
  5
1F4
330
70
100
AcDbEntity
  8
Visible (ISO)
100
AcDbLine
 10
53.85436373908
 20
70.68963173287546
 30
0.0
 11
54.35436373908
 21
71.18963173287546
 31
0.0
  0
LINE
  5
1F5
330
70
100
AcDbEntity
  8
Visible (ISO)
100
AcDbLine
 10
53.85436373908
 20
54.88963173287545
 30
0.0
 11
54.35436373908
 21
54.38963173287544
 31
0.0
  0
LINE
  5
1F6
330
70
100
AcDbEntity
  8
Visible (ISO)
100
AcDbLine
 10
56.85436373908
 20
71.18963173287546
 30
0.0
 11
56.85436373908
 21
54.38963173287546
 31
0.0
  0
LINE
  5
1F7
330
70
100
AcDbEntity
  8
Visible (ISO)
100
AcDbLine
 10
54.35436373908
 20
71.18963173287546
 30
0.0
 11
56.85436373908
 21
71.18963173287546
 31
0.0
  0
LINE
  5
1F8
330
70
100
AcDbEntity
  8
Visible (ISO)
100
AcDbLine
 10
54.35436373908
 20
54.38963173287546
 30
0.0
 11
56.85436373908
 21
54.38963173287546
 31
0.0
  0
LINE
  5
1F9
330
70
100
AcDbEntity
  8
Visible (ISO)
100
AcDbLine
 10
79.85436373908
 20
70.53963173287545
 30
0.0
 11
79.85436373908
 21
55.03963173287544
 31
0.0
  0
LINE
  5
1FA
330
70
100
AcDbEntity
  8
Visible (ISO)
100
AcDbLine
 10
79.35436373908001
 20
54.53963173287545
 30
0.0
 11
79.35436373908001
 21
71.03963173287545
 31
0.0
  0
LINE
  5
1FB
330
70
100
AcDbEntity
  8
Visible (ISO)
100
AcDbLine
 10
79.85436373908
 20
55.03963173287544
 30
0.0
 11
79.35436373908001
 21
54.53963173287545
 31
0.0
  0
LINE
  5
1FC
330
70
100
AcDbEntity
  8
Visible (ISO)
100
AcDbLine
 10
79.85436373908
 20
70.53963173287545
 30
0.0
 11
79.35436373908001
 21
71.03963173287545
 31
0.0
  0
LINE
  5
1FD
330
70
100
AcDbEntity
  8
Visible (ISO)
100
AcDbLine
 10
74.85436373908
 20
71.03963173287545
 30
0.0
 11
74.85436373908
 21
54.53963173287545
 31
0.0
  0
SPLINE
  5
1FE
330
70
100
AcDbEntity
  8
Visible (ISO)
100
AcDbSpline
210
0.0
220
0.0
230
1.0
 70
     8
 71
     3
 72
     8
 73
     4
 74
     0
 42
0.000000001
 43
0.0000000001
 40
1.28234852082939
 40
1.28234852082939
 40
1.28234852082939
 40
1.28234852082939
 40
1.389636215210568
 40
1.389636215210568
 40
1.389636215210568
 40
1.389636215210568
 10
74.30042587770398
 20
71.93433560727601
 30
0.0
 10
74.30053545776189
 20
71.97793084544781
 30
0.0
 10
74.30058688834083
 20
71.99880137441116
 30
0.0
 10
74.3005849482286
 20
71.99880473478413
 30
0.0
  0
SPLINE
  5
1FF
330
70
100
AcDbEntity
  8
Visible (ISO)
100
AcDbSpline
210
0.0
220
0.0
230
1.0
 70
    12
 71
     2
 72
     6
 73
     3
 74
     0
 42
0.000000001
 43
0.0000000001
 40
0.3038347015407229
 40
0.3038347015407229
 40
0.3038347015407229
 40
1.123903861267265
 40
1.123903861267265
 40
1.123903861267265
 10
74.29112981235977
 20
68.28570572744441
 30
0.0
 41
1.099752732484698
 10
75.12962391698875
 20
70.11161403689211
 30
0.0
 41
1.198114783114956
 10
74.30042587770398
 20
71.93433560727601
 30
0.0
 41
1.100754619662588
  0
SPLINE
  5
200
330
70
100
AcDbEntity
  8
Visible (ISO)
100
AcDbSpline
210
0.0
220
0.0
230
1.0
 70
     8
 71
     3
 72
     8
 73
     4
 74
     0
 42
0.000000001
 43
0.0000000001
 40
0.3556734997605205
 40
0.3556734997605205
 40
0.3556734997605205
 40
0.3556734997605205
 40
0.5628189646857996
 40
0.5628189646857996
 40
0.5628189646857996
 40
0.5628189646857996
 10
74.28631334669635
 20
66.39743461502408
 30
0.0
 10
74.2880319536806
 20
67.07129760468911
 30
0.0
 10
74.28966205938732
 20
67.71033226103665
 30
0.0
 10
74.29112981235977
 20
68.28570572744441
 30
0.0
  0
SPLINE
  5
201
330
70
100
AcDbEntity
  8
Visible (ISO)
100
AcDbSpline
210
0.0
220
0.0
230
1.0
 70
    12
 71
     2
 72
     6
 73
     3
 74
     0
 42
0.000000001
 43
0.0000000001
 40
0.2980781999859086
 40
0.2980781999859086
 40
0.2980781999859086
 40
1.116223870764466
 40
1.116223870764466
 40
1.116223870764466
 10
74.26771796625756
 20
59.10017485536087
 30
0.0
 41
1.097044292848638
 10
75.10793226247483
 20
62.75515693214657
 30
0.0
 41
1.194926045466025
 10
74.28631334669635
 20
66.39743461502408
 30
0.0
 41
1.099036745105105
  0
SPLINE
  5
202
330
70
100
AcDbEntity
  8
Visible (ISO)
100
AcDbSpline
210
0.0
220
0.0
230
1.0
 70
     8
 71
     3
 72
     8
 73
     4
 74
     0
 42
0.000000001
 43
0.0000000001
 40
5.004219779514529
 40
5.004219779514529
 40
5.004219779514529
 40
5.004219779514529
 40
5.21153587569325
 40
5.21153587569325
 40
5.21153587569325
 40
5.21153587569325
 10
74.26291076217593
 20
57.21190374294055
 30
0.0
 10
74.26437449426899
 20
57.78690861480733
 30
0.0
 10
74.26600107798936
 20
58.42587118408414
 30
0.0
 10
74.26771796625756
 20
59.10017485536087
 30
0.0
  0
SPLINE
  5
203
330
70
100
AcDbEntity
  8
Visible (ISO)
100
AcDbSpline
210
0.0
220
0.0
230
1.0
 70
    12
 71
     2
 72
     6
 73
     3
 74
     0
 42
0.000000001
 43
0.0000000001
 40
0.2964618744956772
 40
0.2964618744956772
 40
0.2964618744956772
 40
1.112709618815164
 40
1.112709618815164
 40
1.112709618815164
 10
74.25361144520889
 20
53.56327386310895
 30
0.0
 41
1.095347893909633
 10
75.08626993498842
 20
55.38917157179641
 30
0.0
 41
1.191768356554789
 10
74.26291076217592
 20
57.21190374294055
 30
0.0
 41
1.096338511801206
  0
SPLINE
  5
204
330
70
100
AcDbEntity
  8
Visible (ISO)
100
AcDbSpline
210
0.0
220
0.0
230
1.0
 70
     8
 71
     3
 72
    10
 73
     6
 74
     0
 42
0.000000001
 43
0.0000000001
 40
4.17713294203936
 40
4.17713294203936
 40
4.17713294203936
 40
4.17713294203936
 40
4.177141633641301
 40
4.177141633641301
 40
4.284459251644188
 40
4.284459251644188
 40
4.284459251644188
 40
4.284459251644188
 10
74.2534419915532
 20
53.49880473519494
 30
0.0
 10
74.25344199170968
 20
53.49880473519331
 30
0.0
 10
74.25344199186651
 20
53.49880473532859
 30
0.0
 10
74.25344393267703
 20
53.49880809691104
 30
0.0
 10
74.25349887805032
 20
53.51968810822016
 30
0.0
 10
74.25361144520889
 20
53.56327386310894
 30
0.0
  0
LINE
  5
205
330
70
100
AcDbEntity
  8
Visible (ISO)
100
AcDbLine
 10
74.85436373908
 20
54.53963173287545
 30
0.0
 11
74.25344199202368
 21
53.49880473560083
 31
0.0
  0
LINE
  5
206
330
70
100
AcDbEntity
  8
Visible (ISO)
100
AcDbLine
 10
74.85436373908
 20
71.03963173287545
 30
0.0
 11
74.3005849482286
 21
71.99880473478413
 31
0.0
  0
LINE
  5
207
330
70
100
AcDbEntity
  8
Visible (ISO)
100
AcDbLine
 10
57.35440697152398
 20
59.10017485536087
 30
0.0
 11
74.26771796625756
 21
59.10017485536087
 31
0.0
  0
LINE
  5
208
330
70
100
AcDbEntity
  8
Visible (ISO)
100
AcDbLine
 10
57.35921417560562
 20
57.21190374294055
 30
0.0
 11
74.26291076217593
 21
57.21190374294055
 31
0.0
  0
LINE
  5
209
330
70
100
AcDbEntity
  8
Visible (ISO)
100
AcDbLine
 10
57.33581159108521
 20
66.39743461502408
 30
0.0
 11
74.28631334669635
 21
66.39743461502408
 31
0.0
  0
LINE
  5
20A
330
70
100
AcDbEntity
  8
Visible (ISO)
100
AcDbLine
 10
57.33099512542178
 20
68.28570572744441
 30
0.0
 11
74.29112981235977
 21
68.28570572744441
 31
0.0
  0
LINE
  5
20B
330
70
100
AcDbEntity
  8
Visible (ISO)
100
AcDbLine
 10
57.32169906007758
 20
71.93433560727601
 30
0.0
 11
74.30042587770398
 21
71.93433560727601
 31
0.0
  0
LINE
  5
20C
330
70
100
AcDbEntity
  8
Visible (ISO)
100
AcDbLine
 10
57.36851349257268
 20
53.56327386310895
 30
0.0
 11
74.25361144520889
 21
53.56327386310894
 31
0.0
  0
LINE
  5
20D
330
70
100
AcDbEntity
  8
Visible (ISO)
100
AcDbLine
 10
57.32153999002552
 20
71.99880473519248
 30
0.0
 11
74.30058494775605
 21
71.99880473519248
 31
0.0
  0
LINE
  5
20E
330
70
100
AcDbEntity
  8
Visible (ISO)
100
AcDbLine
 10
57.36868294622837
 20
53.49880473519249
 30
0.0
 11
74.25344199155318
 21
53.49880473519249
 31
0.0
  0
SPLINE
  5
20F
330
70
100
AcDbEntity
  8
Visible (ISO)
100
AcDbSpline
210
0.0
220
0.0
230
1.0
 70
     8
 71
     3
 72
     8
 73
     4
 74
     0
 42
0.000000001
 43
0.0000000001
 40
3.142729944404867
 40
3.142729944404867
 40
3.142729944404867
 40
3.142729944404867
 40
3.350046040583589
 40
3.350046040583589
 40
3.350046040583589
 40
3.350046040583589
 10
57.35440697152398
 20
59.10017485536087
 30
0.0
 10
57.35612366424259
 20
58.42594798671235
 30
0.0
 10
57.35775034066513
 20
57.78694901605762
 30
0.0
 10
57.35921417560563
 20
57.21190374294055
 30
0.0
  0
SPLINE
  5
210
330
70
100
AcDbEntity
  8
Visible (ISO)
100
AcDbSpline
210
0.0
220
0.0
230
1.0
 70
    12
 71
     2
 72
     6
 73
     3
 74
     0
 42
0.000000001
 43
0.0000000001
 40
0.3345778580324977
 40
0.3345778580324977
 40
0.3345778580324977
 40
1.162278844737916
 40
1.162278844737916
 40
1.162278844737916
 10
57.33581159108521
 20
66.39743461502408
 30
0.0
 41
1.110302891907628
 10
56.51419267531007
 20
62.75515693213866
 30
0.0
 41
1.207175146604821
 10
57.35440697152398
 20
59.10017485536088
 30
0.0
 41
1.108290015166093
  0
SPLINE
  5
211
330
70
100
AcDbEntity
  8
Visible (ISO)
100
AcDbSpline
210
0.0
220
0.0
230
1.0
 70
     8
 71
     3
 72
     8
 73
     4
 74
     0
 42
0.000000001
 43
0.0000000001
 40
2.216470924017538
 40
2.216470924017538
 40
2.216470924017538
 40
2.216470924017538
 40
2.423616388942817
 40
2.423616388942817
 40
2.423616388942817
 40
2.423616388942817
 10
57.33099512542178
 20
68.28570572744441
 30
0.0
 10
57.33246282162371
 20
67.71035451614024
 30
0.0
 10
57.33409286928602
 20
67.07134262311355
 30
0.0
 10
57.33581159108521
 20
66.39743461502408
 30
0.0
  0
SPLINE
  5
212
330
70
100
AcDbEntity
  8
Visible (ISO)
100
AcDbSpline
210
0.0
220
0.0
230
1.0
 70
    12
 71
     2
 72
     6
 73
     3
 74
     0
 42
0.000000001
 43
0.0000000001
 40
0.3359062158048642
 40
0.3359062158048642
 40
0.3359062158048642
 40
1.165567022915799
 40
1.165567022915799
 40
1.165567022915799
 10
57.32169906007756
 20
71.93433560727601
 30
0.0
 41
1.11205885821523
 10
56.49250102079683
 20
70.11161403688721
 30
0.0
 41
1.210418865314047
 10
57.33099512542178
 20
68.28570572744441
 30
0.0
 41
1.111046682121499
  0
SPLINE
  5
213
330
70
100
AcDbEntity
  8
Visible (ISO)
100
AcDbSpline
210
0.0
220
0.0
230
1.0
 70
     8
 71
     3
 72
    10
 73
     6
 74
     0
 42
0.000000001
 43
0.0000000001
 40
1.389644981891071
 40
1.389644981891071
 40
1.389644981891071
 40
1.389644981891071
 40
1.389653673492769
 40
1.389653673492769
 40
1.496941367873947
 40
1.496941367873947
 40
1.496941367873947
 40
1.496941367873947
 10
57.32153999002552
 20
71.99880473518998
 30
0.0
 10
57.32153998986764
 20
71.99880473519164
 30
0.0
 10
57.32153998971013
 20
71.99880473505636
 30
0.0
 10
57.32153804944072
 20
71.99880137441116
 30
0.0
 10
57.32158948001966
 20
71.97793084544781
 30
0.0
 10
57.32169906007756
 20
71.93433560727601
 30
0.0
  0
SPLINE
  5
214
330
70
100
AcDbEntity
  8
Visible (ISO)
100
AcDbSpline
210
0.0
220
0.0
230
1.0
 70
     8
 71
     3
 72
     8
 73
     4
 74
     0
 42
0.000000001
 43
0.0000000001
 40
4.069806568453928
 40
4.069806568453928
 40
4.069806568453928
 40
4.069806568453928
 40
4.177124186456814
 40
4.177124186456814
 40
4.177124186456814
 40
4.177124186456814
 10
57.36851349257268
 20
53.56327386310895
 30
0.0
 10
57.36862605973122
 20
53.51968810822016
 30
0.0
 10
57.36868100510452
 20
53.49880809691104
 30
0.0
 10
57.36868294575788
 20
53.49880473560084
 30
0.0
  0
SPLINE
  5
215
330
70
100
AcDbEntity
  8
Visible (ISO)
100
AcDbSpline
210
0.0
220
0.0
230
1.0
 70
    12
 71
     2
 72
     6
 73
     3
 74
     0
 42
0.000000001
 43
0.0000000001
 40
0.3289321381744233
 40
0.3289321381744233
 40
0.3289321381744233
 40
1.154699238163178
 40
1.154699238163178
 40
1.154699238163178
 10
57.35921417560563
 20
57.21190374294055
 30
0.0
 41
1.107556623291313
 10
56.53585500279577
 20
55.38917157179335
 30
0.0
 41
1.203962938930607
 10
57.36851349257268
 20
53.56327386310895
 30
0.0
 41
1.106555869057889
  0
LINE
  5
216
330
70
100
AcDbEntity
  8
Visible (ISO)
100
AcDbLine
 10
56.85436373908
 20
71.18963173287546
 30
0.0
 11
57.32153998955296
 21
71.99880473478413
 31
0.0
  0
LINE
  5
217
330
70
100
AcDbEntity
  8
Visible (ISO)
100
AcDbLine
 10
56.85436373908
 20
54.38963173287546
 30
0.0
 11
57.36868294575788
 21
53.49880473560084
 31
0.0
  0
LINE
  5
218
330
70
100
AcDbEntity
  8
Visible (ISO)
100
AcDbLine
 10
74.85436373908
 20
71.03963173287545
 30
0.0
 11
79.35436373908001
 21
71.03963173287545
 31
0.0
  0
LINE
  5
219
330
70
100
AcDbEntity
  8
Visible (ISO)
100
AcDbLine
 10
74.85436373908
 20
54.53963173287545
 30
0.0
 11
79.35436373908001
 21
54.53963173287544
 31
0.0
  0
ARC
  5
21A
330
70
100
AcDbEntity
  8
Visible (ISO)
100
AcDbCircle
 10
105.85436373908
 20
89.30858725625315
 30
0.0
 40
5.999999999999998
100
AcDbArc
 50
264.4198332155256
 51
0.0
  0
LINE
  5
21B
330
70
100
AcDbEntity
  8
Visible (ISO)
100
AcDbLine
 10
111.85436373908
 20
91.28963173287544
 30
0.0
 11
111.85436373908
 21
89.30858725625313
 31
0.0
  0
ARC
  5
21C
330
70
100
AcDbEntity
  8
Visible (ISO)
100
AcDbCircle
 10
106.2433173033457
 20
93.28963173287545
 30
0.0
 40
10.0
100
AcDbArc
 50
203.5781784782018
 51
264.4198332155255
  0
LINE
  5
21D
330
70
100
AcDbEntity
  8
Visible (ISO)
100
AcDbLine
 10
114.0298006006166
 20
91.28963173287544
 30
0.0
 11
111.85436373908
 21
91.28963173287544
 31
0.0
  0
LINE
  5
21E
330
70
100
AcDbEntity
  8
Visible (ISO)
100
AcDbLine
 10
131.85436373908
 20
91.28963173287544
 30
0.0
 11
114.0298006006166
 21
91.28963173287544
 31
0.0
  0
ARC
  5
21F
330
70
100
AcDbEntity
  8
Visible (ISO)
100
AcDbCircle
 10
126.85436373908
 20
84.28963173287545
 30
0.0
 40
4.999999999999995
100
AcDbArc
 50
270.0
 51
0.0
  0
LINE
  5
220
330
70
100
AcDbEntity
  8
Visible (ISO)
100
AcDbLine
 10
118.85436373908
 20
79.28963173287545
 30
0.0
 11
126.85436373908
 21
79.28963173287545
 31
0.0
  0
SPLINE
  5
221
330
70
100
AcDbEntity
  8
Visible (ISO)
100
AcDbSpline
210
0.0
220
0.0
230
1.0
 70
     8
 71
     3
 72
    14
 73
    10
 74
     0
 42
0.000000001
 43
0.0000000001
 40
0.0979815127343829
 40
0.0979815127343829
 40
0.0979815127343829
 40
0.0979815127343829
 40
0.1506624850332004
 40
0.1506624850332004
 40
0.3013249700664007
 40
0.3013249700664007
 40
0.4554237426914714
 40
0.4554237426914714
 40
0.5051911393277391
 40
0.5051911393277391
 40
0.5051911393277391
 40
0.5051911393277391
 10
98.35436373908002
 20
73.28963173287545
 30
0.0
 10
98.40055863421611
 20
73.46854379241732
 30
0.0
 10
98.4594905473849
 20
73.645240089514
 30
0.0
 10
98.73286823049447
 20
74.3070845159981
 30
0.0
 10
99.03745845249538
 20
74.7534323662131
 30
0.0
 10
99.74330451479184
 20
75.46556801845674
 30
0.0
 10
100.1948857826518
 20
75.77621804776824
 30
0.0
 10
100.8493685602912
 20
76.04877111558153
 30
0.0
 10
101.0135045793012
 20
76.10489371365386
 30
0.0
 10
101.1796501285176
 20
76.14998548438262
 30
0.0
  0
LINE
  5
222
330
70
100
AcDbEntity
  8
Visible (ISO)
100
AcDbLine
 10
101.1796501285177
 20
76.14998548438261
 30
0.0
 11
106.959883229516
 21
77.71873617904926
 31
0.0
  0
SPLINE
  5
223
330
70
100
AcDbEntity
  8
Visible (ISO)
100
AcDbSpline
210
0.0
220
0.0
230
1.0
 70
     8
 71
     3
 72
    10
 73
     6
 74
     0
 42
0.000000001
 43
0.0000000001
 40
5.578615183636053
 40
5.578615183636053
 40
5.578615183636053
 40
5.578615183636053
 40
6.021510703961547
 40
6.021510703961547
 40
6.267952460891863
 40
6.267952460891863
 40
6.267952460891863
 40
6.267952460891863
 10
106.9598832295159
 20
77.71873617904926
 30
0.0
 10
108.4066002516463
 20
78.11137403530821
 30
0.0
 10
109.9087122864269
 20
78.44076521000926
 30
0.0
 10
112.2966591690337
 20
78.833538301234
 30
0.0
 10
113.1603460001828
 20
78.95024947767692
 30
0.0
 10
114.0298006006166
 20
79.04188648764639
 30
0.0
  0
ARC
  5
224
330
70
100
AcDbEntity
  8
Visible (ISO)
100
AcDbCircle
 10
118.7465078479797
 20
34.28963173287158
 30
0.0
 40
45.00012925418761
100
AcDbArc
 50
89.86267387728107
 51
96.01653196780475
  0
LINE
  5
225
330
70
100
AcDbEntity
  8
Visible (ISO)
100
AcDbLine
 10
98.35436373907999
 20
73.28963173287545
 30
0.0
 11
98.85436373908
 21
73.28963173287545
 31
0.0
  0
LINE
  5
226
330
70
100
AcDbEntity
  8
Visible (ISO)
100
AcDbLine
 10
98.85436373908
 20
73.28963173287545
 30
0.0
 11
98.92508243987771
 21
74.54685308039039
 31
0.0
  0
SPLINE
  5
227
330
70
100
AcDbEntity
  8
Visible (ISO)
100
AcDbSpline
210
0.0
220
0.0
230
1.0
 70
     8
 71
     3
 72
    10
 73
     6
 74
     0
 42
0.000000001
 43
0.0000000001
 40
1.741738255902264
 40
1.741738255902264
 40
1.741738255902264
 40
1.741738255902264
 40
1.747035871281402
 40
1.747035871281402
 40
1.758510453691923
 40
1.758510453691923
 40
1.758510453691923
 40
1.758510453691923
 10
93.85436373908
 20
73.32744865667544
 30
0.0
 10
93.87010634257524
 20
73.31981148119266
 30
0.0
 10
93.88614456111604
 20
73.31318775129759
 30
0.0
 10
93.93763044317886
 20
73.29592049947791
 30
0.0
 10
93.97391968880713
 20
73.28963173287545
 30
0.0
 10
94.01030898950716
 20
73.28963173287545
 30
0.0
  0
SPLINE
  5
228
330
70
100
AcDbEntity
  8
Visible (ISO)
100
AcDbSpline
210
0.0
220
0.0
230
1.0
 70
     8
 71
     3
 72
     8
 73
     4
 74
     0
 42
0.000000001
 43
0.0000000001
 40
-0.0038487374224739
 40
-0.0038487374224739
 40
-0.0038487374224739
 40
-0.0038487374224739
 40
0.0
 40
0.0
 40
0.0
 40
0.0
 10
93.86116309699705
 20
73.28963173287545
 30
0.0
 10
93.85889620534321
 20
73.30223729436292
 30
0.0
 10
93.85662975269044
 20
73.31484293658651
 30
0.0
 10
93.85436373908
 20
73.32744865667542
 30
0.0
  0
LINE
  5
229
330
70
100
AcDbEntity
  8
Visible (ISO)
100
AcDbLine
 10
94.0103089895072
 20
73.28963173287545
 30
0.0
 11
93.86116309699831
 21
73.28963173287545
 31
0.0
  0
SPLINE
  5
22A
330
70
100
AcDbEntity
  8
Visible (ISO)
100
AcDbSpline
210
0.0
220
0.0
230
1.0
 70
     8
 71
     3
 72
    22
 73
    18
 74
     0
 42
0.000000001
 43
0.0000000001
 40
1.758510453691923
 40
1.758510453691923
 40
1.758510453691923
 40
1.758510453691923
 40
1.769985036102444
 40
1.769985036102444
 40
1.781459618512965
 40
1.781459618512965
 40
1.804408783334006
 40
1.804408783334006
 40
1.879967807849264
 40
1.879967807849264
 40
1.955526832364522
 40
1.955526832364522
 40
2.150713591741938
 40
2.150713591741938
 40
2.345900351119354
 40
2.345900351119354
 40
2.573780108621498
 40
2.573780108621498
 40
2.573780108621498
 40
2.573780108621498
 10
94.01030898950716
 20
73.28963173287545
 30
0.0
 10
94.0466982902072
 20
73.28963173287545
 30
0.0
 10
94.08300871922596
 20
73.29592049947828
 30
0.0
 10
94.15353573660098
 20
73.31954703983905
 30
0.0
 10
94.18775518142476
 20
73.33687534684887
 30
0.0
 10
94.28521733741051
 20
73.40032804794829
 30
0.0
 10
94.34344091704545
 20
73.45806433508717
 30
0.0
 10
94.55138435701273
 20
73.70349639374762
 30
0.0
 10
94.66977645845831
 20
73.9443432271182
 30
0.0
 10
94.88221270915795
 20
74.44329910506164
 30
0.0
 10
94.97206452531189
 20
74.70336211643654
 30
0.0
 10
95.2434360363275
 20
75.56008404815883
 30
0.0
 10
95.39907957582
 20
76.20197282436567
 30
0.0
 10
95.68595564369088
 20
77.51466115100311
 30
0.0
 10
95.81463053149214
 20
78.18607210790753
 30
0.0
 10
96.07639419553755
 20
79.66359805043556
 30
0.0
 10
96.20622648578162
 20
80.47320784288615
 30
0.0
 10
96.32891062316048
 20
81.28963173287544
 30
0.0
  0
LINE
  5
22B
330
70
100
AcDbEntity
  8
Visible (ISO)
100
AcDbLine
 10
98.35436373908002
 20
73.28963173287545
 30
0.0
 11
94.01030898950724
 21
73.28963173287545
 31
0.0
  0
LINE
  5
22C
330
70
100
AcDbEntity
  8
Visible (ISO)
100
AcDbLine
 10
95.56869986737742
 20
82.2843753108661
 30
0.0
 11
114.0298006006166
 21
82.2843753108661
 31
0.0
  0
SPLINE
  5
22D
330
70
100
AcDbEntity
  8
Visible (ISO)
100
AcDbSpline
210
0.0
220
0.0
230
1.0
 70
     8
 71
     3
 72
    10
 73
     6
 74
     0
 42
0.000000001
 43
0.0000000001
 40
1.026679612955202
 40
1.026679612955202
 40
1.026679612955202
 40
1.026679612955202
 40
1.054986950396901
 40
1.054986950396901
 40
1.150372975748469
 40
1.150372975748469
 40
1.150372975748469
 40
1.150372975748469
 10
96.32891062316048
 20
81.28963173287544
 30
0.0
 10
96.2777251864747
 20
81.36823699242045
 30
0.0
 10
96.22569692696792
 20
81.44588531826167
 30
0.0
 10
95.99408934769913
 20
81.78051854117937
 30
0.0
 10
95.79167946054974
 20
82.04516844637623
 30
0.0
 10
95.56869986737742
 20
82.2843753108661
 30
0.0
  0
LINE
  5
22E
330
70
100
AcDbEntity
  8
Visible (ISO)
100
AcDbLine
 10
131.85436373908
 20
84.28963173287545
 30
0.0
 11
131.85436373908
 21
91.28963173287544
 31
0.0
  0
LINE
  5
22F
330
70
100
AcDbEntity
  8
Visible (ISO)
100
AcDbLine
 10
93.85436373908
 20
73.28963173287545
 30
0.0
 11
93.86116309699705
 21
73.28963173287545
 31
0.0
  0
SPLINE
  5
230
330
70
100
AcDbEntity
  8
Visible (ISO)
100
AcDbSpline
210
0.0
220
0.0
230
1.0
 70
    28
 71
     2
 72
     6
 73
     3
 74
     0
 42
0.000000001
 43
0.0000000001
 40
0.0
 40
0.0
 40
0.0
 40
0.0039177008118712
 40
0.0039177008118712
 40
0.0039177008118712
 10
93.85436373908
 20
73.28963173287545
 30
0.0
 41
1.0
 10
93.85436373908
 20
73.30853706694822
 30
0.0
 41
1.000002569573184
 10
93.85436373908
 20
73.32744865667544
 30
0.0
 41
1.000005114022333
  0
LINE
  5
231
330
70
100
AcDbEntity
  8
Visible (ISO)
100
AcDbLine
 10
84.85436373908001
 20
73.28963173287545
 30
0.0
 11
93.85436373908
 21
73.28963173287545
 31
0.0
  0
LINE
  5
232
330
70
100
AcDbEntity
  8
Visible (ISO)
100
AcDbLine
 10
84.40436373907999
 20
81.28963173287544
 30
0.0
 11
96.32891062316046
 21
81.28963173287544
 31
0.0
  0
LINE
  5
233
330
70
100
AcDbEntity
  8
Visible (ISO)
100
AcDbLine
 10
86.35436373908
 20
89.28963173287545
 30
0.0
 11
84.40436373907999
 21
81.28963173287544
 31
0.0
  0
LINE
  5
234
330
70
100
AcDbEntity
  8
Visible (ISO)
100
AcDbLine
 10
84.85436373908001
 20
73.28963173287545
 30
0.0
 11
84.40436373907999
 21
81.28963173287544
 31
0.0
  0
SPLINE
  5
235
330
70
100
AcDbEntity
  8
Visible (ISO)
100
AcDbSpline
210
0.0
220
0.0
230
1.0
 70
    12
 71
     2
 72
     6
 73
     3
 74
     0
 42
0.000000001
 43
0.0000000001
 40
0.0894691240021865
 40
0.0894691240021865
 40
0.0894691240021865
 40
0.8244898720284863
 40
0.8244898720284863
 40
0.8244898720284863
 10
98.80630457739721
 20
82.2843753108661
 30
0.0
 41
1.00231088921009
 10
97.82612887041279
 20
86.27439539302955
 30
0.0
 41
1.010647833933487
 10
97.07816591343409
 20
89.28963173287545
 30
0.0
 41
1.0
  0
LINE
  5
236
330
70
100
AcDbEntity
  8
Visible (ISO)
100
AcDbLine
 10
114.0298006006166
 20
82.2843753108661
 30
0.0
 11
114.0298006006166
 21
91.28963173287544
 31
0.0
  0
LINE
  5
237
330
70
100
AcDbEntity
  8
Visible (ISO)
100
AcDbLine
 10
97.35436373908001
 20
89.28963173287545
 30
0.0
 11
97.6089981020735
 21
88.24497793597908
 31
0.0
  0
SPLINE
  5
238
330
70
100
AcDbEntity
  8
Visible (ISO)
100
AcDbSpline
210
0.0
220
0.0
230
1.0
 70
     8
 71
     3
 72
    19
 73
    15
 74
     0
 42
0.000000001
 43
0.0000000001
 40
-1.019253894380656
 40
-1.019253894380656
 40
-1.019253894380656
 40
-1.019253894380656
 40
-0.8380733322482749
 40
-0.8380733322482749
 40
-0.6905008978664565
 40
-0.6905008978664565
 40
-0.5587155548321833
 40
-0.5587155548321833
 40
-0.5587155548321833
 40
-0.4269302117979099
 40
-0.4269302117979099
 40
-0.2793577774160916
 40
-0.2793577774160916
 40
-0.0981772152837096
 40
-0.0981772152837096
 40
-0.0981772152837096
 40
-0.0981772152837096
 10
87.24903548166842
 20
89.83971215653879
 30
0.0
 10
87.85212218083218
 20
89.8718920362454
 30
0.0
 10
88.45521799130709
 20
89.90400773552069
 30
0.0
 10
89.54963949885557
 20
89.96157991013861
 30
0.0
 10
90.04088018610074
 20
89.987406988444
 30
0.0
 10
90.97155188896442
 20
90.03295194772318
 30
0.0
 10
91.41114518303558
 20
90.05705558623729
 30
0.0
 10
91.85436373908002
 20
90.05705558623729
 30
0.0
 10
92.29758229512443
 20
90.05705558623729
 30
0.0
 10
92.73717558919559
 20
90.03295194772318
 30
0.0
 10
93.6678472920593
 20
89.987406988444
 30
0.0
 10
94.15908797930441
 20
89.96157991013861
 30
0.0
 10
95.25350948685291
 20
89.90400773552069
 30
0.0
 10
95.85660529732782
 20
89.8718920362454
 30
0.0
 10
96.45969199649158
 20
89.83971215653879
 30
0.0
  0
ARC
  5
239
330
70
100
AcDbEntity
  8
Visible (ISO)
100
AcDbCircle
 10
96.45436373908001
 20
89.74195342051681
 30
0.0
 40
0.1
100
AcDbArc
 50
86.91978986335724
 51
98.6979721621757
  0
ARC
  5
23A
330
70
100
AcDbEntity
  8
Visible (ISO)
100
AcDbCircle
 10
87.25436373907999
 20
89.74195342051681
 30
0.0
 40
0.1
100
AcDbArc
 50
81.30202783782431
 51
93.08021013664278
  0
LINE
  5
23B
330
70
100
AcDbEntity
  8
Visible (ISO)
100
AcDbLine
 10
85.95436373908
 20
89.28963173287543
 30
0.0
 11
85.85436373908001
 21
89.28963173287543
 31
0.0
  0
LINE
  5
23C
330
70
100
AcDbEntity
  8
Visible (ISO)
100
AcDbLine
 10
85.85436373908001
 20
89.68963173287546
 30
0.0
 11
85.85436373908001
 21
89.28963173287545
 31
0.0
  0
SPLINE
  5
23D
330
70
100
AcDbEntity
  8
Visible (ISO)
100
AcDbSpline
210
0.0
220
0.0
230
1.0
 70
     8
 71
     3
 72
    20
 73
    16
 74
     0
 42
0.000000001
 43
0.0000000001
 40
-0.1167463837654997
 40
-0.1167463837654997
 40
-0.1167463837654997
 40
-0.1167463837654997
 40
-0.1163267376802986
 40
-0.1163267376802986
 40
-0.1148286972977117
 40
-0.1148286972977117
 40
-0.111636749464689
 40
-0.111636749464689
 40
-0.107278172338819
 40
-0.107278172338819
 40
-0.1040400035181946
 40
-0.1040400035181946
 40
-0.1011279500247179
 40
-0.1011279500247179
 40
-0.100530888678917
 40
-0.100530888678917
 40
-0.100530888678917
 40
-0.100530888678917
 10
86.52835785849729
 20
89.78963173287544
 30
0.0
 10
86.5286385060593
 20
89.78963173287544
 30
0.0
 10
86.52887081394441
 20
89.78961465968609
 30
0.0
 10
86.52969566695452
 20
89.78945149007904
 30
0.0
 10
86.52962925272602
 20
89.78909944756443
 30
0.0
 10
86.52784724724071
 20
89.78730526386572
 30
0.0
 10
86.52433718788216
 20
89.78499812415794
 30
0.0
 10
86.51486689270029
 20
89.77691827201287
 30
0.0
 10
86.50772872017236
 20
89.7696300960264
 30
0.0
 10
86.49650372999742
 20
89.750939218004
 30
0.0
 10
86.49240744112086
 20
89.7416095355396
 30
0.0
 10
86.48690200060853
 20
89.721758890573
 30
0.0
 10
86.48532366934688
 20
89.71168248328783
 30
0.0
 10
86.48489876767856
 20
89.6991298112456
 30
0.0
 10
86.48487853854497
 20
89.69699632419185
 30
0.0
 10
86.48490970954521
 20
89.69486821872751
 30
0.0
  0
LINE
  5
23E
330
70
100
AcDbEntity
  8
Visible (ISO)
100
AcDbLine
 10
86.52835785849729
 20
89.78963173287544
 30
0.0
 11
85.95436373908
 21
89.78963173287544
 31
0.0
  0
SPLINE
  5
23F
330
70
100
AcDbEntity
  8
Visible (ISO)
100
AcDbSpline
210
0.0
220
0.0
230
1.0
 70
     8
 71
     3
 72
     8
 73
     4
 74
     0
 42
0.000000001
 43
0.0000000001
 40
0.030117303607032
 40
0.030117303607032
 40
0.030117303607032
 40
0.030117303607032
 40
0.0306368404626457
 40
0.0306368404626457
 40
0.0306368404626457
 40
0.0306368404626457
 10
86.48490970954524
 20
89.69486821872735
 30
0.0
 10
86.48493545191303
 20
89.69311073667567
 30
0.0
 10
86.48494803529994
 20
89.69136352239415
 30
0.0
 10
86.48494803529994
 20
89.68963173287546
 30
0.0
  0
ARC
  5
240
330
70
100
AcDbEntity
  8
Visible (ISO)
100
AcDbCircle
 10
85.95436373908
 20
89.68963173287546
 30
0.0
 40
0.0999999999999998
100
AcDbArc
 50
90.0
 51
180.0
  0
LINE
  5
241
330
70
100
AcDbEntity
  8
Visible (ISO)
100
AcDbLine
 10
97.85436373908
 20
89.28963173287543
 30
0.0
 11
97.75436373908
 21
89.28963173287543
 31
0.0
  0
SPLINE
  5
242
330
70
100
AcDbEntity
  8
Visible (ISO)
100
AcDbSpline
210
0.0
220
0.0
230
1.0
 70
     8
 71
     3
 72
     8
 73
     4
 74
     0
 42
0.000000001
 43
0.0000000001
 40
0.0306368404626457
 40
0.0306368404626457
 40
0.0306368404626457
 40
0.0306368404626457
 40
0.0311564612047215
 40
0.0311564612047215
 40
0.0311564612047215
 40
0.0311564612047215
 10
97.22377944286009
 20
89.68963173287546
 30
0.0
 10
97.22377944286009
 20
89.6913638020157
 30
0.0
 10
97.22379203000805
 20
89.69311099345029
 30
0.0
 10
97.22381776861482
 20
89.69486821872749
 30
0.0
  0
LINE
  5
243
330
70
100
AcDbEntity
  8
Visible (ISO)
100
AcDbLine
 10
97.75436373908
 20
89.78963173287544
 30
0.0
 11
97.18036961966271
 21
89.78963173287544
 31
0.0
  0
SPLINE
  5
244
330
70
100
AcDbEntity
  8
Visible (ISO)
100
AcDbSpline
210
0.0
220
0.0
230
1.0
 70
     8
 71
     3
 72
    18
 73
    14
 74
     0
 42
0.000000001
 43
0.0000000001
 40
-0.1028855666828686
 40
-0.1028855666828686
 40
-0.1028855666828686
 40
-0.1028855666828686
 40
-0.1004689900059198
 40
-0.1004689900059198
 40
-0.0980358109280614
 40
-0.0980358109280614
 40
-0.093790661072223
 40
-0.093790661072223
 40
-0.0887468381604296
 40
-0.0887468381604296
 40
-0.0865906319794494
 40
-0.0865906319794494
 40
-0.0854228207007943
 40
-0.0854228207007943
 40
-0.0854228207007943
 40
-0.0854228207007943
 10
97.22381776861475
 20
89.69486821872308
 30
0.0
 10
97.22393558188466
 20
89.70291156224917
 30
0.0
 10
97.22331628304273
 20
89.7108228150291
 30
0.0
 10
97.22074824746961
 20
89.72611144240623
 30
0.0
 10
97.21881306808777
 20
89.73335034095896
 30
0.0
 10
97.21212631609303
 20
89.75173522988356
 30
0.0
 10
97.20640274770468
 20
89.76155971389571
 30
0.0
 10
97.19293442264373
 20
89.77849533422769
 30
0.0
 10
97.18576349991252
 20
89.7837895190012
 30
0.0
 10
97.18042527655448
 20
89.78782248867965
 30
0.0
 10
97.17919921457013
 20
89.78874903798041
 30
0.0
 10
97.17922557175185
 20
89.78950843807078
 30
0.0
 10
97.17960891373014
 20
89.78963173287544
 30
0.0
 10
97.18036961966271
 20
89.78963173287544
 30
0.0
  0
LINE
  5
245
330
70
100
AcDbEntity
  8
Visible (ISO)
100
AcDbLine
 10
97.85436373908
 20
89.28963173287545
 30
0.0
 11
97.85436373908
 21
89.68963173287546
 31
0.0
  0
ARC
  5
246
330
70
100
AcDbEntity
  8
Visible (ISO)
100
AcDbCircle
 10
97.75436373908
 20
89.68963173287546
 30
0.0
 40
0.1000000000000001
100
AcDbArc
 50
0.0
 51
90.0
  0
LINE
  5
247
330
70
100
AcDbEntity
  8
Visible (ISO)
100
AcDbLine
 10
97.22377944286009
 20
89.28963173287545
 30
0.0
 11
97.75436373908
 21
89.28963173287545
 31
0.0
  0
LINE
  5
248
330
70
100
AcDbEntity
  8
Visible (ISO)
100
AcDbLine
 10
97.22377944286009
 20
89.28963173287543
 30
0.0
 11
86.48494803529994
 21
89.28963173287543
 31
0.0
  0
LINE
  5
249
330
70
100
AcDbEntity
  8
Visible (ISO)
100
AcDbLine
 10
85.95436373908
 20
89.28963173287545
 30
0.0
 11
86.48494803529994
 21
89.28963173287545
 31
0.0
  0
LINE
  5
24A
330
70
100
AcDbEntity
  8
Visible (ISO)
100
AcDbLine
 10
97.22377944286009
 20
89.68963173287546
 30
0.0
 11
97.22377944286009
 21
89.28963173287545
 31
0.0
  0
LINE
  5
24B
330
70
100
AcDbEntity
  8
Visible (ISO)
100
AcDbLine
 10
86.48494803529994
 20
89.68963173287546
 30
0.0
 11
86.48494803529994
 21
89.28963173287545
 31
0.0
  0
LINE
  5
24C
330
70
100
AcDbEntity
  8
Visible (ISO)
100
AcDbLine
 10
96.45973713077234
 20
89.84180894946598
 30
0.0
 11
97.33473713077234
 21
89.79472374767226
 31
0.0
  0
LINE
  5
24D
330
70
100
AcDbEntity
  8
Visible (ISO)
100
AcDbLine
 10
87.24899034738767
 20
89.84180894946598
 30
0.0
 11
86.37399034738766
 21
89.79472374767226
 31
0.0
  0
ARC
  5
24E
330
70
100
AcDbEntity
  8
Visible (ISO)
100
AcDbCircle
 10
86.37936373908003
 20
89.69486821872308
 30
0.0
 40
0.1
100
AcDbArc
 50
93.08021013665239
 51
108.6239246438592
  0
ARC
  5
24F
330
70
100
AcDbEntity
  8
Visible (ISO)
100
AcDbCircle
 10
97.32936373908001
 20
89.69486821872308
 30
0.0
 40
0.1
100
AcDbArc
 50
71.37607535615041
 51
86.91978986335724
  0
LINE
  5
250
330
70
100
AcDbEntity
  8
Visible (ISO)
100
AcDbLine
 10
101.6043637390975
 20
135.7200227022006
 30
0.0
 11
101.6043637390975
 21
141.0213433687795
 31
0.0
  0
LINE
  5
251
330
70
100
AcDbEntity
  8
Visible (ISO)
100
AcDbLine
 10
101.6043637390975
 20
121.0213433687795
 30
0.0
 11
101.6043637390975
 21
126.3226640353637
 31
0.0
  0
LINE
  5
252
330
70
100
AcDbEntity
  8
Visible (ISO)
100
AcDbLine
 10
101.8543637390975
 20
126.3708440499208
 30
0.0
 11
101.8543637390975
 21
121.2713433687795
 31
0.0
  0
LINE
  5
253
330
70
100
AcDbEntity
  8
Visible (ISO)
100
AcDbLine
 10
101.8543637390975
 20
140.7713433687795
 30
0.0
 11
101.8543637390975
 21
135.6718426876434
 31
0.0
  0
LINE
  5
254
330
70
100
AcDbEntity
  8
Visible (ISO)
100
AcDbLine
 10
101.8543637390975
 20
121.2713433687795
 30
0.0
 11
101.6043637390975
 21
121.0213433687795
 31
0.0
  0
LINE
  5
255
330
70
100
AcDbEntity
  8
Visible (ISO)
100
AcDbLine
 10
101.8543637390975
 20
140.7713433687795
 30
0.0
 11
101.6043637390975
 21
141.0213433687795
 31
0.0
  0
LINE
  5
256
330
70
100
AcDbEntity
  8
Visible (ISO)
100
AcDbLine
 10
99.7363297503476
 20
125.9303071755816
 30
0.0
 11
99.7363297503476
 21
121.0213433687795
 31
0.0
  0
LINE
  5
257
330
70
100
AcDbEntity
  8
Visible (ISO)
100
AcDbLine
 10
99.7363297503476
 20
141.0213433687795
 30
0.0
 11
99.7363297503476
 21
136.1123795619826
 31
0.0
  0
ARC
  5
258
330
70
100
AcDbEntity
  8
Visible (ISO)
100
AcDbCircle
 10
100.8543637390975
 20
140.0213433687795
 30
0.0
 40
1.5
100
AcDbArc
 50
138.1896851042216
 51
180.0
  0
ARC
  5
259
330
70
100
AcDbEntity
  8
Visible (ISO)
100
AcDbCircle
 10
100.8543637390975
 20
122.0213433687795
 30
0.0
 40
1.5
100
AcDbArc
 50
180.0
 51
221.8103148957783
  0
LINE
  5
25A
330
70
100
AcDbEntity
  8
Visible (ISO)
100
AcDbLine
 10
83.97239772784741
 20
121.0213433687795
 30
0.0
 11
83.97239772784741
 21
141.0213433687795
 31
0.0
  0
ARC
  5
25B
330
70
100
AcDbEntity
  8
Visible (ISO)
100
AcDbCircle
 10
82.8543637390975
 20
122.0213433687795
 30
0.0
 40
1.5
100
AcDbArc
 50
318.1896851042217
 51
0.0
  0
ARC
  5
25C
330
70
100
AcDbEntity
  8
Visible (ISO)
100
AcDbCircle
 10
82.8543637390975
 20
140.0213433687795
 30
0.0
 40
1.5
100
AcDbArc
 50
0.0
 51
41.81031489577835
  0
LINE
  5
25D
330
70
100
AcDbEntity
  8
Visible (ISO)
100
AcDbLine
 10
81.97239772784739
 20
121.0213433687795
 30
0.0
 11
81.97239772784739
 21
141.0213433687795
 31
0.0
  0
LINE
  5
25E
330
70
100
AcDbEntity
  8
Visible (ISO)
100
AcDbLine
 10
81.97239772784739
 20
141.0213433687795
 30
0.0
 11
83.97239772784741
 21
141.0213433687795
 31
0.0
  0
LINE
  5
25F
330
70
100
AcDbEntity
  8
Visible (ISO)
100
AcDbLine
 10
81.97239772784739
 20
121.0213433687795
 30
0.0
 11
83.97239772784741
 21
121.0213433687795
 31
0.0
  0
LINE
  5
260
330
70
100
AcDbEntity
  8
Visible (ISO)
100
AcDbLine
 10
79.85436373909749
 20
137.4713433687795
 30
0.0
 11
81.97239772784739
 21
141.0213433687795
 31
0.0
  0
LINE
  5
261
330
70
100
AcDbEntity
  8
Visible (ISO)
100
AcDbLine
 10
79.85436373909749
 20
124.5713433687795
 30
0.0
 11
81.97239772784739
 21
121.0213433687795
 31
0.0
  0
LINE
  5
262
330
70
100
AcDbEntity
  8
Visible (ISO)
100
AcDbLine
 10
99.15981182981761
 20
139.5213433687809
 30
0.0
 11
84.54891564837769
 21
139.5213433687809
 31
0.0
  0
LINE
  5
263
330
70
100
AcDbEntity
  8
Visible (ISO)
100
AcDbLine
 10
99.15981182981738
 20
122.5213433687809
 30
0.0
 11
84.54891564837739
 21
122.5213433687809
 31
0.0
  0
LINE
  5
264
330
70
100
AcDbEntity
  8
Visible (ISO)
100
AcDbLine
 10
101.6043637390975
 20
121.0213433687795
 30
0.0
 11
99.7363297503476
 21
121.0213433687795
 31
0.0
  0
LINE
  5
265
330
70
100
AcDbEntity
  8
Visible (ISO)
100
AcDbLine
 10
101.6043637390975
 20
141.0213433687795
 30
0.0
 11
99.7363297503476
 21
141.0213433687795
 31
0.0
  0
LINE
  5
266
330
70
100
AcDbEntity
  8
Visible (ISO)
100
AcDbLine
 10
115.8543637390974
 20
134.5213433687817
 30
0.0
 11
115.8543637390974
 21
139.0213433687796
 31
0.0
  0
LINE
  5
267
330
70
100
AcDbEntity
  8
Visible (ISO)
100
AcDbLine
 10
115.8543637390974
 20
123.0213433687795
 30
0.0
 11
115.8543637390974
 21
127.5213433687817
 31
0.0
  0
SPLINE
  5
268
330
70
100
AcDbEntity
  8
Visible (ISO)
100
AcDbSpline
210
0.0
220
0.0
230
1.0
 70
    12
 71
     2
 72
     6
 73
     3
 74
     0
 42
0.000000001
 43
0.0000000001
 40
0.1463461418658468
 40
0.1463461418658468
 40
0.1463461418658468
 40
0.6723852233744971
 40
0.6723852233744971
 40
0.6723852233744971
 10
114.8064992259478
 20
139.521343368781
 30
0.0
 41
1.05155236556389
 10
111.964918537961
 20
135.5144706641812
 30
0.0
 41
1.132890224107231
 10
115.5656886045024
 20
139.5213433687796
 30
0.0
 41
1.132890224107232
  0
SPLINE
  5
269
330
70
100
AcDbEntity
  8
Visible (ISO)
100
AcDbSpline
210
0.0
220
0.0
230
1.0
 70
    12
 71
     2
 72
     6
 73
     3
 74
     0
 42
0.000000001
 43
0.0000000001
 40
0.5726325441561574
 40
0.5726325441561574
 40
0.5726325441561574
 40
1.198424304883157
 40
1.198424304883157
 40
1.198424304883157
 10
115.5402830302981
 20
134.5213433687819
 30
0.0
 41
1.129965358938274
 10
115.6975224169445
 20
136.8482737957907
 30
0.0
 41
1.148314304934675
 10
114.8064992259478
 20
139.521343368781
 30
0.0
 41
1.051552365563892
  0
SPLINE
  5
26A
330
70
100
AcDbEntity
  8
Visible (ISO)
100
AcDbSpline
210
0.0
220
0.0
230
1.0
 70
    12
 71
     2
 72
     6
 73
     3
 74
     0
 42
0.000000001
 43
0.0000000001
 40
0.1463461418658453
 40
0.1463461418658453
 40
0.1463461418658453
 40
0.7721379025928331
 40
0.7721379025928331
 40
0.7721379025928331
 10
114.8064992259478
 20
122.521343368781
 30
0.0
 41
1.051552365563892
 10
115.6975224169445
 20
125.1944129417723
 30
0.0
 41
1.148314304934672
 10
115.5402830302981
 20
127.5213433687818
 30
0.0
 41
1.129965358938274
  0
SPLINE
  5
26B
330
70
100
AcDbEntity
  8
Visible (ISO)
100
AcDbSpline
210
0.0
220
0.0
230
1.0
 70
    12
 71
     2
 72
     6
 73
     3
 74
     0
 42
0.000000001
 43
0.0000000001
 40
0.672385223374495
 40
0.672385223374495
 40
0.672385223374495
 40
1.198424304883158
 40
1.198424304883158
 40
1.198424304883158
 10
115.5656886045025
 20
122.5213433687796
 30
0.0
 41
1.132890224107234
 10
111.9649185379609
 20
119.0026886983075
 30
0.0
 41
1.132890224107235
 10
114.8064992259478
 20
122.521343368781
 30
0.0
 41
1.051552365563891
  0
LINE
  5
26C
330
70
100
AcDbEntity
  8
Visible (ISO)
100
AcDbLine
 10
115.8543637390974
 20
123.0213433687795
 30
0.0
 11
115.5656886045026
 21
122.5213433687795
 31
0.0
  0
LINE
  5
26D
330
70
100
AcDbEntity
  8
Visible (ISO)
100
AcDbLine
 10
115.8543637390974
 20
139.0213433687796
 30
0.0
 11
115.5656886045026
 21
139.5213433687796
 31
0.0
  0
SPLINE
  5
26E
330
70
100
AcDbEntity
  8
Visible (ISO)
100
AcDbSpline
210
0.0
220
0.0
230
1.0
 70
    12
 71
     2
 72
     6
 73
     3
 74
     0
 42
0.000000001
 43
0.0000000001
 40
0.0606773123555736
 40
0.0606773123555736
 40
0.0606773123555736
 40
0.5686770472520165
 40
0.5686770472520165
 40
0.5686770472520165
 10
102.9022282522471
 20
122.521343368781
 30
0.0
 41
1.019972620773999
 10
99.49149559072886
 20
119.0026886983071
 30
0.0
 41
1.098867777556916
 10
102.1430388736923
 20
122.5213433687795
 30
0.0
 41
1.098867777556916
  0
SPLINE
  5
26F
330
70
100
AcDbEntity
  8
Visible (ISO)
100
AcDbSpline
210
0.0
220
0.0
230
1.0
 70
    12
 71
     2
 72
     6
 73
     3
 74
     0
 42
0.000000001
 43
0.0000000001
 40
0.6130961414766596
 40
0.6130961414766596
 40
0.6130961414766596
 40
1.076676782148459
 40
1.076676782148459
 40
1.076676782148459
 10
102.148429560335
 20
126.4262181609502
 30
0.0
 41
1.098264575562274
 10
102.2050449774222
 20
124.6128931932561
 30
0.0
 41
1.091969247572993
 10
102.9022282522471
 20
122.521343368781
 30
0.0
 41
1.019972620773999
  0
SPLINE
  5
270
330
70
100
AcDbEntity
  8
Visible (ISO)
100
AcDbSpline
210
0.0
220
0.0
230
1.0
 70
    12
 71
     2
 72
     6
 73
     3
 74
     0
 42
0.000000001
 43
0.0000000001
 40
0.0606773123555738
 40
0.0606773123555738
 40
0.0606773123555738
 40
0.5242579530273744
 40
0.5242579530273744
 40
0.5242579530273744
 10
102.9022282522471
 20
139.521343368781
 30
0.0
 41
1.019972620773999
 10
102.2050449774222
 20
137.4297935443067
 30
0.0
 41
1.091969247572992
 10
102.148429560335
 20
135.6164685766131
 30
0.0
 41
1.098264575562274
  0
SPLINE
  5
271
330
70
100
AcDbEntity
  8
Visible (ISO)
100
AcDbSpline
210
0.0
220
0.0
230
1.0
 70
    12
 71
     2
 72
     6
 73
     3
 74
     0
 42
0.000000001
 43
0.0000000001
 40
0.5686770472520175
 40
0.5686770472520175
 40
0.5686770472520175
 40
1.07667678214846
 40
1.07667678214846
 40
1.07667678214846
 10
102.1430388736923
 20
139.5213433687795
 30
0.0
 41
1.098867777556916
 10
99.49149559072882
 20
135.5144706641806
 30
0.0
 41
1.098867777556916
 10
102.9022282522471
 20
139.521343368781
 30
0.0
 41
1.019972620774
  0
LINE
  5
272
330
70
100
AcDbEntity
  8
Visible (ISO)
100
AcDbLine
 10
101.8543637390975
 20
139.0213433687796
 30
0.0
 11
102.1430388736923
 21
139.5213433687795
 31
0.0
  0
LINE
  5
273
330
70
100
AcDbEntity
  8
Visible (ISO)
100
AcDbLine
 10
101.8543637390975
 20
123.0213433687795
 30
0.0
 11
102.1430388736923
 21
122.5213433687796
 31
0.0
  0
LINE
  5
274
330
70
100
AcDbEntity
  8
Visible (ISO)
100
AcDbLine
 10
102.9022282522471
 20
139.521343368781
 30
0.0
 11
114.8064992259478
 21
139.521343368781
 31
0.0
  0
LINE
  5
275
330
70
100
AcDbEntity
  8
Visible (ISO)
100
AcDbLine
 10
102.9022282522471
 20
122.521343368781
 30
0.0
 11
114.8064992259478
 21
122.521343368781
 31
0.0
  0
LINE
  5
276
330
70
100
AcDbEntity
  8
Visible (ISO)
100
AcDbLine
 10
54.35436373909749
 20
139.4213433687795
 30
0.0
 11
54.35436373909749
 21
122.6213433687795
 31
0.0
  0
LINE
  5
277
330
70
100
AcDbEntity
  8
Visible (ISO)
100
AcDbLine
 10
53.85436373909749
 20
123.1213433687796
 30
0.0
 11
53.85436373909749
 21
138.9213433687795
 31
0.0
  0
LINE
  5
278
330
70
100
AcDbEntity
  8
Visible (ISO)
100
AcDbLine
 10
53.85436373909749
 20
138.9213433687795
 30
0.0
 11
54.35436373909751
 21
139.4213433687795
 31
0.0
  0
LINE
  5
279
330
70
100
AcDbEntity
  8
Visible (ISO)
100
AcDbLine
 10
53.85436373909749
 20
123.1213433687796
 30
0.0
 11
54.35436373909749
 21
122.6213433687795
 31
0.0
  0
LINE
  5
27A
330
70
100
AcDbEntity
  8
Visible (ISO)
100
AcDbLine
 10
56.85436373909749
 20
139.4213433687795
 30
0.0
 11
56.85436373909749
 21
122.6213433687795
 31
0.0
  0
LINE
  5
27B
330
70
100
AcDbEntity
  8
Visible (ISO)
100
AcDbLine
 10
54.35436373909749
 20
139.4213433687795
 30
0.0
 11
56.85436373909751
 21
139.4213433687795
 31
0.0
  0
LINE
  5
27C
330
70
100
AcDbEntity
  8
Visible (ISO)
100
AcDbLine
 10
54.35436373909749
 20
122.6213433687795
 30
0.0
 11
56.85436373909751
 21
122.6213433687795
 31
0.0
  0
LINE
  5
27D
330
70
100
AcDbEntity
  8
Visible (ISO)
100
AcDbLine
 10
79.85436373909749
 20
138.7713433687795
 30
0.0
 11
79.85436373909749
 21
123.2713433687795
 31
0.0
  0
LINE
  5
27E
330
70
100
AcDbEntity
  8
Visible (ISO)
100
AcDbLine
 10
79.35436373909751
 20
122.7713433687795
 30
0.0
 11
79.35436373909751
 21
139.2713433687795
 31
0.0
  0
LINE
  5
27F
330
70
100
AcDbEntity
  8
Visible (ISO)
100
AcDbLine
 10
79.85436373909749
 20
123.2713433687795
 30
0.0
 11
79.35436373909751
 21
122.7713433687795
 31
0.0
  0
LINE
  5
280
330
70
100
AcDbEntity
  8
Visible (ISO)
100
AcDbLine
 10
79.85436373909749
 20
138.7713433687795
 30
0.0
 11
79.35436373909751
 21
139.2713433687795
 31
0.0
  0
LINE
  5
281
330
70
100
AcDbEntity
  8
Visible (ISO)
100
AcDbLine
 10
74.85436373909749
 20
139.2713433687795
 30
0.0
 11
74.85436373909749
 21
122.7713433687795
 31
0.0
  0
SPLINE
  5
282
330
70
100
AcDbEntity
  8
Visible (ISO)
100
AcDbSpline
210
0.0
220
0.0
230
1.0
 70
     8
 71
     3
 72
     8
 73
     4
 74
     0
 42
0.000000001
 43
0.0000000001
 40
2.216470488730172
 40
2.216470488730172
 40
2.216470488730172
 40
2.216470488730172
 40
2.423615995643402
 40
2.423615995643402
 40
2.423615995643402
 40
2.423615995643402
 10
74.29104920380469
 20
138.4312364498877
 30
0.0
 10
74.28957685064631
 20
138.8611623332816
 30
0.0
 10
74.28794279628748
 20
139.2321549348876
 30
0.0
 10
74.28622096196308
 20
139.521430284946
 30
0.0
  0
SPLINE
  5
283
330
70
100
AcDbEntity
  8
Visible (ISO)
100
AcDbSpline
210
0.0
220
0.0
230
1.0
 70
    12
 71
     2
 72
     6
 73
     3
 74
     0
 42
0.000000001
 43
0.0000000001
 40
0.3080391888845147
 40
0.3080391888845147
 40
0.3080391888845147
 40
1.128103576883224
 40
1.128103576883224
 40
1.128103576883224
 10
74.30041399708963
 20
132.1116241200065
 30
0.0
 41
1.100752842583184
 10
75.12957042653159
 20
135.2686501083151
 30
0.0
 41
1.198106886670426
 10
74.29104920380469
 20
138.4312364498877
 30
0.0
 41
1.099743562777799
  0
SPLINE
  5
284
330
70
100
AcDbEntity
  8
Visible (ISO)
100
AcDbSpline
210
0.0
220
0.0
230
1.0
 70
     8
 71
     3
 72
    10
 73
     6
 74
     0
 42
0.000000001
 43
0.0000000001
 40
1.28234852082939
 40
1.28234852082939
 40
1.28234852082939
 40
1.28234852082939
 40
1.389636215210568
 40
1.389636215210568
 40
1.496940739665217
 40
1.496940739665217
 40
1.496940739665217
 40
1.496940739665217
 10
74.30042587772148
 20
129.9312364498888
 30
0.0
 10
74.30053545777939
 20
130.298552236518
 30
0.0
 10
74.30058688835834
 20
130.6637177208661
 30
0.0
 10
74.30058300782952
 20
131.3790251169434
 30
0.0
 10
74.30052759803871
 20
131.7442493653336
 30
0.0
 10
74.30041399708963
 20
132.1116241200065
 30
0.0
  0
SPLINE
  5
285
330
70
100
AcDbEntity
  8
Visible (ISO)
100
AcDbSpline
210
0.0
220
0.0
230
1.0
 70
    12
 71
     2
 72
     6
 73
     3
 74
     0
 42
0.000000001
 43
0.0000000001
 40
0.3038347015407229
 40
0.3038347015407229
 40
0.3038347015407229
 40
1.123903861267265
 40
1.123903861267265
 40
1.123903861267265
 10
74.29112981237728
 20
123.6116241200054
 30
0.0
 41
1.099752732484698
 10
75.12962391700624
 20
126.7741900819316
 30
0.0
 41
1.198114783114956
 10
74.30042587772148
 20
129.9312364498888
 30
0.0
 41
1.100754619662588
  0
SPLINE
  5
286
330
70
100
AcDbEntity
  8
Visible (ISO)
100
AcDbSpline
210
0.0
220
0.0
230
1.0
 70
     8
 71
     3
 72
     8
 73
     4
 74
     0
 42
0.000000001
 43
0.0000000001
 40
0.3556734997605205
 40
0.3556734997605205
 40
0.3556734997605205
 40
0.3556734997605205
 40
0.5628189646857996
 40
0.5628189646857996
 40
0.5628189646857996
 40
0.5628189646857996
 10
74.28631334671385
 20
122.521430284946
 30
0.0
 10
74.28803195369811
 20
122.8106863601232
 30
0.0
 10
74.28966205940482
 20
123.1816857171294
 30
0.0
 10
74.29112981237728
 20
123.6116241200055
 30
0.0
  0
SPLINE
  5
287
330
70
100
AcDbEntity
  8
Visible (ISO)
100
AcDbSpline
210
0.0
220
0.0
230
1.0
 70
    12
 71
     2
 72
     6
 73
     3
 74
     0
 42
0.000000001
 43
0.0000000001
 40
0.7113573297694492
 40
0.7113573297694492
 40
0.7113573297694492
 40
1.116223870764466
 40
1.116223870764466
 40
1.116223870764466
 10
74.71007635287044
 20
122.521430284945
 30
0.0
 41
1.14648840407264
 10
73.3107257217537
 20
120.4930294374727
 30
0.0
 41
1.146488404072651
 10
74.28631334671385
 20
122.521430284946
 30
0.0
 41
1.099036745105105
  0
SPLINE
  5
288
330
70
100
AcDbEntity
  8
Visible (ISO)
100
AcDbSpline
210
0.0
220
0.0
230
1.0
 70
    12
 71
     2
 72
     6
 73
     3
 74
     0
 42
0.000000001
 43
0.0000000001
 40
0.3064726505217282
 40
0.3064726505217282
 40
0.3064726505217282
 40
0.71133452979799
 40
0.71133452979799
 40
0.71133452979799
 10
74.28622096196308
 20
139.521430284946
 30
0.0
 41
1.099025857728923
 10
73.3106763835402
 20
137.2116732763302
 30
0.0
 41
1.146475182962381
 10
74.7099759907274
 20
139.521430284945
 30
0.0
 41
1.146475182962401
  0
LINE
  5
289
330
70
100
AcDbEntity
  8
Visible (ISO)
100
AcDbLine
 10
74.85436373909749
 20
122.7713433687795
 30
0.0
 11
74.71007635287131
 21
122.5214302849445
 31
0.0
  0
LINE
  5
28A
330
70
100
AcDbEntity
  8
Visible (ISO)
100
AcDbLine
 10
74.85436373909749
 20
139.2713433687795
 30
0.0
 11
74.7099759907283
 21
139.5214302849455
 31
0.0
  0
LINE
  5
28B
330
70
100
AcDbEntity
  8
Visible (ISO)
100
AcDbLine
 10
57.33581159110269
 20
122.521430284946
 30
0.0
 11
74.28631334671385
 21
122.521430284946
 31
0.0
  0
LINE
  5
28C
330
70
100
AcDbEntity
  8
Visible (ISO)
100
AcDbLine
 10
57.33099512543929
 20
123.6116241200055
 30
0.0
 11
74.29112981237728
 21
123.6116241200055
 31
0.0
  0
LINE
  5
28D
330
70
100
AcDbEntity
  8
Visible (ISO)
100
AcDbLine
 10
57.32169906009507
 20
129.9312364498888
 30
0.0
 11
74.30042587772148
 21
129.9312364498888
 31
0.0
  0
LINE
  5
28E
330
70
100
AcDbEntity
  8
Visible (ISO)
100
AcDbLine
 10
57.32171094072691
 20
132.1116241200065
 30
0.0
 11
74.30041399708963
 21
132.1116241200065
 31
0.0
  0
LINE
  5
28F
330
70
100
AcDbEntity
  8
Visible (ISO)
100
AcDbLine
 10
57.33107573401185
 20
138.4312364498877
 30
0.0
 11
74.29104920380469
 21
138.4312364498877
 31
0.0
  0
LINE
  5
290
330
70
100
AcDbEntity
  8
Visible (ISO)
100
AcDbLine
 10
57.33590397585347
 20
139.521430284946
 30
0.0
 11
74.28622096196308
 21
139.521430284946
 31
0.0
  0
SPLINE
  5
291
330
70
100
AcDbEntity
  8
Visible (ISO)
100
AcDbSpline
210
0.0
220
0.0
230
1.0
 70
    12
 71
     2
 72
     6
 73
     3
 74
     0
 42
0.000000001
 43
0.0000000001
 40
0.3345778580324977
 40
0.3345778580324977
 40
0.3345778580324977
 40
0.7441729306878258
 40
0.7441729306878258
 40
0.7441729306878258
 10
57.33581159110269
 20
122.521430284946
 30
0.0
 41
1.110302891907628
 10
56.13233201819803
 20
120.4930294374811
 30
0.0
 41
1.15824097442571
 10
56.91204858494788
 20
122.5214302849449
 30
0.0
 41
1.158240974425761
  0
SPLINE
  5
292
330
70
100
AcDbEntity
  8
Visible (ISO)
100
AcDbSpline
210
0.0
220
0.0
230
1.0
 70
     8
 71
     3
 72
     8
 73
     4
 74
     0
 42
0.000000001
 43
0.0000000001
 40
2.216470924017538
 40
2.216470924017538
 40
2.216470924017538
 40
2.216470924017538
 40
2.423616388942817
 40
2.423616388942817
 40
2.423616388942817
 40
2.423616388942817
 10
57.33099512543929
 20
123.6116241200055
 30
0.0
 10
57.3324628216412
 20
123.1816988801473
 30
0.0
 10
57.33409286930353
 20
122.8107059279383
 30
0.0
 10
57.33581159110269
 20
122.521430284946
 30
0.0
  0
SPLINE
  5
293
330
70
100
AcDbEntity
  8
Visible (ISO)
100
AcDbSpline
210
0.0
220
0.0
230
1.0
 70
    12
 71
     2
 72
     6
 73
     3
 74
     0
 42
0.000000001
 43
0.0000000001
 40
0.3359062158048642
 40
0.3359062158048642
 40
0.3359062158048642
 40
1.165567022915799
 40
1.165567022915799
 40
1.165567022915799
 10
57.32169906009506
 20
129.9312364498888
 30
0.0
 41
1.11205885821523
 10
56.49250102081432
 20
126.7741900819231
 30
0.0
 41
1.210418865314047
 10
57.33099512543929
 20
123.6116241200054
 30
0.0
 41
1.111046682121499
  0
SPLINE
  5
294
330
70
100
AcDbEntity
  8
Visible (ISO)
100
AcDbSpline
210
0.0
220
0.0
230
1.0
 70
     8
 71
     3
 72
    10
 73
     6
 74
     0
 42
0.000000001
 43
0.0000000001
 40
1.28234914903812
 40
1.28234914903812
 40
1.28234914903812
 40
1.28234914903812
 40
1.389653673492769
 40
1.389653673492769
 40
1.496941367873947
 40
1.496941367873947
 40
1.496941367873947
 40
1.496941367873947
 10
57.32171094072691
 20
132.1116241200065
 30
0.0
 10
57.32159733977784
 20
131.7442493653336
 30
0.0
 10
57.32154192998703
 20
131.3790251169434
 30
0.0
 10
57.32153804945821
 20
130.6637177208661
 30
0.0
 10
57.32158948003715
 20
130.298552236518
 30
0.0
 10
57.32169906009506
 20
129.9312364498888
 30
0.0
  0
SPLINE
  5
295
330
70
100
AcDbEntity
  8
Visible (ISO)
100
AcDbSpline
210
0.0
220
0.0
230
1.0
 70
    12
 71
     2
 72
     6
 73
     3
 74
     0
 42
0.000000001
 43
0.0000000001
 40
0.3316350843750777
 40
0.3316350843750777
 40
0.3316350843750777
 40
1.161291029766599
 40
1.161291029766599
 40
1.161291029766599
 10
57.33107573401185
 20
138.4312364498877
 30
0.0
 41
1.111037367789798
 10
56.49255451128881
 20
135.2686501083069
 30
0.0
 41
1.210410832807625
 10
57.32171094072691
 20
132.1116241200065
 30
0.0
 41
1.112057012383569
  0
SPLINE
  5
296
330
70
100
AcDbEntity
  8
Visible (ISO)
100
AcDbSpline
210
0.0
220
0.0
230
1.0
 70
     8
 71
     3
 72
     8
 73
     4
 74
     0
 42
0.000000001
 43
0.0000000001
 40
0.3556738930599402
 40
0.3556738930599402
 40
0.3556738930599402
 40
0.3556738930599402
 40
0.5628193999731695
 40
0.5628193999731695
 40
0.5628193999731695
 40
0.5628193999731695
 10
57.33590397585347
 20
139.521430284946
 30
0.0
 10
57.33418225647952
 20
139.2321744897344
 30
0.0
 10
57.33254814404085
 20
138.8611754861125
 30
0.0
 10
57.33107573401185
 20
138.4312364498877
 30
0.0
  0
SPLINE
  5
297
330
70
100
AcDbEntity
  8
Visible (ISO)
100
AcDbSpline
210
0.0
220
0.0
230
1.0
 70
    12
 71
     2
 72
     6
 73
     3
 74
     0
 42
0.000000001
 43
0.0000000001
 40
0.7441509805813023
 40
0.7441509805813023
 40
0.7441509805813023
 40
1.153741303426292
 40
1.153741303426292
 40
1.153741303426292
 10
56.91214894709077
 20
139.521430284945
 30
0.0
 41
1.158227512967781
 10
56.13246339806958
 20
137.2116732763346
 30
0.0
 41
1.15822751296781
 10
57.33590397585347
 20
139.521430284946
 30
0.0
 41
1.110291792444806
  0
LINE
  5
298
330
70
100
AcDbEntity
  8
Visible (ISO)
100
AcDbLine
 10
56.85436373909751
 20
139.4213433687795
 30
0.0
 11
56.91214894708867
 21
139.5214302849462
 31
0.0
  0
LINE
  5
299
330
70
100
AcDbEntity
  8
Visible (ISO)
100
AcDbLine
 10
56.85436373909751
 20
122.6213433687795
 30
0.0
 11
56.91204858494568
 21
122.5214302849437
 31
0.0
  0
LINE
  5
29A
330
70
100
AcDbEntity
  8
Visible (ISO)
100
AcDbLine
 10
74.85436373909749
 20
139.2713433687795
 30
0.0
 11
79.35436373909751
 21
139.2713433687795
 31
0.0
  0
LINE
  5
29B
330
70
100
AcDbEntity
  8
Visible (ISO)
100
AcDbLine
 10
74.85436373909749
 20
122.7713433687795
 30
0.0
 11
79.35436373909751
 21
122.7713433687795
 31
0.0
  0
LINE
  5
29C
330
70
100
AcDbEntity
  8
Visible (ISO)
100
AcDbLine
 10
111.8543637390975
 20
134.2930426328427
 30
0.0
 11
105.2709333926988
 21
133.602146004353
 31
0.0
  0
LINE
  5
29D
330
70
100
AcDbEntity
  8
Visible (ISO)
100
AcDbLine
 10
105.2709333926988
 20
128.4405407332182
 30
0.0
 11
111.8543637390975
 21
127.7496441047321
 31
0.0
  0
LINE
  5
29E
330
70
100
AcDbEntity
  8
Visible (ISO)
100
AcDbLine
 10
111.8543637390975
 20
127.7496441047327
 30
0.0
 11
111.8543637390975
 21
134.2930426328432
 31
0.0
  0
LINE
  5
29F
330
70
100
AcDbEntity
  8
Visible (ISO)
100
AcDbLine
 10
131.8543637390975
 20
134.521343368788
 30
0.0
 11
131.8543637390975
 21
127.521343368788
 31
0.0
  0
LINE
  5
2A0
330
70
100
AcDbEntity
  8
Visible (ISO)
100
AcDbLine
 10
114.0298006006341
 20
134.521343368788
 30
0.0
 11
131.8543637390975
 21
134.521343368788
 31
0.0
  0
LINE
  5
2A1
330
70
100
AcDbEntity
  8
Visible (ISO)
100
AcDbLine
 10
111.8543637390975
 20
134.2930426328432
 30
0.0
 11
114.0298006006341
 21
134.521343368788
 31
0.0
  0
LINE
  5
2A2
330
70
100
AcDbEntity
  8
Visible (ISO)
100
AcDbLine
 10
114.0298006006341
 20
127.521343368788
 30
0.0
 11
111.8543637390975
 21
127.7496441047327
 31
0.0
  0
LINE
  5
2A3
330
70
100
AcDbEntity
  8
Visible (ISO)
100
AcDbLine
 10
131.8543637390975
 20
127.521343368788
 30
0.0
 11
114.0298006006341
 21
127.521343368788
 31
0.0
  0
ARC
  5
2A4
330
70
100
AcDbEntity
  8
Visible (ISO)
100
AcDbCircle
 10
114.0298006006341
 20
62.52134336878501
 30
0.0
 40
65.0000000000003
100
AcDbArc
 50
90.00000000000005
 51
106.5000949922716
  0
ARC
  5
2A5
330
70
100
AcDbEntity
  8
Visible (ISO)
100
AcDbCircle
 10
114.0298006006342
 20
199.5213433687857
 30
0.0
 40
65.00000000000034
100
AcDbArc
 50
253.4999050077283
 51
269.9999999999999
  0
SPLINE
  5
2A6
330
70
100
AcDbEntity
  8
Visible (ISO)
100
AcDbSpline
210
0.0
220
0.0
230
1.0
 70
     8
 71
     3
 72
     8
 73
     4
 74
     0
 42
0.000000001
 43
0.0000000001
 40
0.9230683158927151
 40
0.9230683158927151
 40
0.9230683158927151
 40
0.9230683158927151
 40
0.925972547537049
 40
0.925972547537049
 40
0.925972547537049
 40
0.925972547537049
 10
97.2185900070885
 20
132.5387171826364
 30
0.0
 10
97.22216438342128
 20
132.5326995604376
 30
0.0
 10
97.22574518523821
 20
132.5266032439546
 30
0.0
 10
97.22933000500919
 20
132.5204317256677
 30
0.0
  0
SPLINE
  5
2A7
330
70
100
AcDbEntity
  8
Visible (ISO)
100
AcDbSpline
210
0.0
220
0.0
230
1.0
 70
     8
 71
     3
 72
     8
 73
     4
 74
     0
 42
0.000000001
 43
0.0000000001
 40
1.26072965346429
 40
1.26072965346429
 40
1.26072965346429
 40
1.26072965346429
 40
1.263633885108629
 40
1.263633885108629
 40
1.263633885108629
 40
1.263633885108629
 10
97.22933000500923
 20
129.522255011907
 30
0.0
 10
97.22574518523821
 20
129.51608349362
 30
0.0
 10
97.22216438342128
 20
129.509987177137
 30
0.0
 10
97.2185900070885
 20
129.5039695549382
 30
0.0
  0
LINE
  5
2A8
330
70
100
AcDbEntity
  8
Visible (ISO)
100
AcDbLine
 10
97.15446825490525
 20
132.7503653818092
 30
0.0
 11
105.2709333926988
 21
133.602146004353
 31
0.0
  0
LINE
  5
2A9
330
70
100
AcDbEntity
  8
Visible (ISO)
100
AcDbLine
 10
105.2709333926988
 20
128.4405407332182
 30
0.0
 11
97.15446825490525
 21
129.2923213557655
 31
0.0
  0
ARC
  5
2AA
330
70
100
AcDbEntity
  8
Visible (ISO)
100
AcDbCircle
 10
91.8543637390975
 20
131.0213433687853
 30
0.0
 40
7.207531252864777
100
AcDbArc
 50
15.30412371510662
 51
58.97975155669005
  0
ARC
  5
2AB
330
70
100
AcDbEntity
  8
Visible (ISO)
100
AcDbCircle
 10
91.8543637390975
 20
131.0213433687853
 30
0.0
 40
7.207531252864783
100
AcDbArc
 50
301.0202484433098
 51
344.6958762848932
  0
ARC
  5
2AC
330
70
100
AcDbEntity
  8
Visible (ISO)
100
AcDbCircle
 10
91.8543637390975
 20
131.021343368785
 30
0.0
 40
7.450000000000001
100
AcDbArc
 50
53.08637888662943
 51
306.9136211133706
  0
SPLINE
  5
2AD
330
70
100
AcDbEntity
  8
Visible (ISO)
100
AcDbSpline
210
0.0
220
0.0
230
1.0
 70
    24
 71
     3
 72
    11
 73
     7
 74
     0
 42
0.000000001
 43
0.0000000001
 40
0.5082556132472948
 40
0.5082556132472948
 40
0.5082556132472948
 40
0.5082556132472948
 40
0.5582558142562709
 40
0.5582558142562709
 40
0.5582558142562709
 40
0.6082560152652471
 40
0.6082560152652471
 40
0.6082560152652471
 40
0.6082560152652471
 10
96.35436373909749
 20
131.5213433687875
 30
0.0
 10
96.35436373909749
 20
131.3546797755492
 30
0.0
 10
96.35436373909749
 20
131.1880107054841
 30
0.0
 10
96.35436373909749
 20
131.0213433687875
 30
0.0
 10
96.35436373909749
 20
130.8546760320909
 30
0.0
 10
96.35436373909749
 20
130.6880069620259
 30
0.0
 10
96.35436373909749
 20
130.5213433687875
 30
0.0
  0
SPLINE
  5
2AE
330
70
100
AcDbEntity
  8
Visible (ISO)
100
AcDbSpline
210
0.0
220
0.0
230
1.0
 70
     8
 71
     3
 72
    18
 73
    14
 74
     0
 42
0.000000001
 43
0.0000000001
 40
-0.0001066313518541
 40
-0.0001066313518541
 40
-0.0001066313518541
 40
-0.0001066313518541
 40
0.0
 40
0.0
 40
0.0045172709872586
 40
0.0045172709872586
 40
0.0088134160853533
 40
0.0088134160853533
 40
0.0130973002062933
 40
0.0130973002062933
 40
0.0163175638624273
 40
0.0163175638624273
 40
0.0191481319215035
 40
0.0191481319215035
 40
0.0191481319215035
 40
0.0191481319215035
 10
96.45969199650908
 20
130.4206483786904
 30
0.0
 10
96.45944113782134
 20
130.4208997288538
 30
0.0
 10
96.45919022777853
 20
130.4211510865236
 30
0.0
 10
96.44830790939792
 20
130.4320509131122
 30
0.0
 10
96.43752363930554
 20
130.4427736656467
 30
0.0
 10
96.41701995264416
 20
130.4629946533898
 30
0.0
 10
96.40713901188091
 20
130.4726604208507
 30
0.0
 10
96.38871230502553
 20
130.4904866988562
 30
0.0
 10
96.38003999364403
 20
130.4987699162583
 30
0.0
 10
96.36736321855964
 20
130.5105998005093
 30
0.0
 10
96.36276758496997
 20
130.5147803841887
 30
0.0
 10
96.35664869134181
 20
130.5200341600518
 30
0.0
 10
96.35491216987908
 20
130.5213433687875
 30
0.0
 10
96.35447379010493
 20
130.5213433687875
 30
0.0
  0
SPLINE
  5
2AF
330
70
100
AcDbEntity
  8
Visible (ISO)
100
AcDbSpline
210
0.0
220
0.0
230
1.0
 70
     8
 71
     3
 72
    18
 73
    14
 74
     0
 42
0.000000001
 43
0.0000000001
 40
-0.0190744129494767
 40
-0.0190744129494767
 40
-0.0190744129494767
 40
-0.0190744129494767
 40
-0.0189687803634125
 40
-0.0189687803634125
 40
-0.0144938205317899
 40
-0.0144938205317899
 40
-0.0102379154069879
 40
-0.0102379154069879
 40
-0.0059941564165262
 40
-0.0059941564165262
 40
-0.0028040554575467
 40
-0.0028040554575467
 40
0.0
 40
0.0
 40
0.0
 40
0.0
 10
96.45969199650908
 20
131.6220383588847
 30
0.0
 10
96.45944113782134
 20
131.6217870087213
 30
0.0
 10
96.45919022777853
 20
131.6215356510515
 30
0.0
 10
96.44830790939792
 20
131.6106358244628
 30
0.0
 10
96.43752363930554
 20
131.5999130719285
 30
0.0
 10
96.41701995264416
 20
131.5796920841853
 30
0.0
 10
96.40713901188091
 20
131.5700263167244
 30
0.0
 10
96.38871230502553
 20
131.5522000387188
 30
0.0
 10
96.38003999364403
 20
131.5439168213167
 30
0.0
 10
96.36736321855964
 20
131.5320869370657
 30
0.0
 10
96.36276758496997
 20
131.5279063533863
 30
0.0
 10
96.35664869134178
 20
131.5226525775232
 30
0.0
 10
96.35491216987908
 20
131.5213433687875
 30
0.0
 10
96.35447379010493
 20
131.5213433687875
 30
0.0
  0
SPLINE
  5
2B0
330
70
100
AcDbEntity
  8
Visible (ISO)
100
AcDbSpline
210
0.0
220
0.0
230
1.0
 70
    24
 71
     3
 72
    11
 73
     7
 74
     0
 42
0.000000001
 43
0.0000000001
 40
0.5082556132472948
 40
0.5082556132472948
 40
0.5082556132472948
 40
0.5082556132472948
 40
0.5582558142562709
 40
0.5582558142562709
 40
0.5582558142562709
 40
0.608256015265247
 40
0.608256015265247
 40
0.608256015265247
 40
0.608256015265247
 10
87.35436373909751
 20
130.5213433687875
 30
0.0
 10
87.35436373909751
 20
130.6880069620259
 30
0.0
 10
87.35436373909751
 20
130.8546760320909
 30
0.0
 10
87.35436373909751
 20
131.0213433687875
 30
0.0
 10
87.35436373909751
 20
131.1880107054841
 30
0.0
 10
87.35436373909751
 20
131.3546797755492
 30
0.0
 10
87.35436373909751
 20
131.5213433687875
 30
0.0
  0
SPLINE
  5
2B1
330
70
100
AcDbEntity
  8
Visible (ISO)
100
AcDbSpline
210
0.0
220
0.0
230
1.0
 70
     8
 71
     3
 72
    18
 73
    14
 74
     0
 42
0.000000001
 43
0.0000000001
 40
-0.0191481319214909
 40
-0.0191481319214909
 40
-0.0191481319214909
 40
-0.0191481319214909
 40
-0.0163175638624168
 40
-0.0163175638624168
 40
-0.013097300206286
 40
-0.013097300206286
 40
-0.0088134160853484
 40
-0.0088134160853484
 40
-0.0045172709872565
 40
-0.0045172709872565
 40
0.0
 40
0.0
 40
0.0001066313518546
 40
0.0001066313518546
 40
0.0001066313518546
 40
0.0001066313518546
 10
87.35425368809009
 20
131.5213433687875
 30
0.0
 10
87.35381530831594
 20
131.5213433687875
 30
0.0
 10
87.3520787868532
 20
131.5226525775232
 30
0.0
 10
87.34595989322505
 20
131.5279063533863
 30
0.0
 10
87.34136425963535
 20
131.5320869370657
 30
0.0
 10
87.32868748455096
 20
131.5439168213167
 30
0.0
 10
87.32001517316946
 20
131.5522000387188
 30
0.0
 10
87.30158846631411
 20
131.5700263167244
 30
0.0
 10
87.29170752555084
 20
131.5796920841853
 30
0.0
 10
87.27120383888946
 20
131.5999130719285
 30
0.0
 10
87.2604195687971
 20
131.6106358244628
 30
0.0
 10
87.24953725041649
 20
131.6215356510515
 30
0.0
 10
87.24928634037368
 20
131.6217870087213
 30
0.0
 10
87.24903548168592
 20
131.6220383588847
 30
0.0
  0
SPLINE
  5
2B2
330
70
100
AcDbEntity
  8
Visible (ISO)
100
AcDbSpline
210
0.0
220
0.0
230
1.0
 70
     8
 71
     3
 72
    18
 73
    14
 74
     0
 42
0.000000001
 43
0.0000000001
 40
-0.0190744129494811
 40
-0.0190744129494811
 40
-0.0190744129494811
 40
-0.0190744129494811
 40
-0.018968780363416
 40
-0.018968780363416
 40
-0.0144938205317931
 40
-0.0144938205317931
 40
-0.0102379154069898
 40
-0.0102379154069898
 40
-0.0059941564165267
 40
-0.0059941564165267
 40
-0.0028040554575468
 40
-0.0028040554575468
 40
0.0
 40
0.0
 40
0.0
 40
0.0
 10
87.24903548168592
 20
130.4206483786904
 30
0.0
 10
87.24928634037368
 20
130.4208997288538
 30
0.0
 10
87.24953725041649
 20
130.4211510865236
 30
0.0
 10
87.2604195687971
 20
130.4320509131122
 30
0.0
 10
87.27120383888946
 20
130.4427736656467
 30
0.0
 10
87.29170752555084
 20
130.4629946533898
 30
0.0
 10
87.30158846631411
 20
130.4726604208507
 30
0.0
 10
87.32001517316946
 20
130.4904866988562
 30
0.0
 10
87.32868748455096
 20
130.4987699162583
 30
0.0
 10
87.34136425963535
 20
130.5105998005093
 30
0.0
 10
87.34595989322505
 20
130.5147803841887
 30
0.0
 10
87.35207878685322
 20
130.5200341600518
 30
0.0
 10
87.35381530831594
 20
130.5213433687875
 30
0.0
 10
87.35425368809009
 20
130.5213433687875
 30
0.0
  0
SPLINE
  5
2B3
330
70
100
AcDbEntity
  8
Visible (ISO)
100
AcDbSpline
210
0.0
220
0.0
230
1.0
 70
    24
 71
     3
 72
    19
 73
    15
 74
     0
 42
0.000000001
 43
0.0000000001
 40
0.1081914355857267
 40
0.1081914355857267
 40
0.1081914355857267
 40
0.1081914355857267
 40
0.2793577774160916
 40
0.2793577774160916
 40
0.4269302117979099
 40
0.4269302117979099
 40
0.5587155548321833
 40
0.5587155548321833
 40
0.5587155548321833
 40
0.6905008978664565
 40
0.6905008978664565
 40
0.8380733322482749
 40
0.8380733322482749
 40
1.009239674078639
 40
1.009239674078639
 40
1.009239674078639
 40
1.009239674078639
 10
96.35436373909749
 20
130.5213433687875
 30
0.0
 10
95.78461923237311
 20
130.5213433687875
 30
0.0
 10
95.21487132747953
 20
130.5213433687876
 30
0.0
 10
94.15387548486453
 20
130.5213433687876
 30
0.0
 10
93.66264390385588
 20
130.5213433687876
 30
0.0
 10
92.73256578942772
 20
130.5213433687876
 30
0.0
 10
92.29364821587841
 20
130.5213433687876
 30
0.0
 10
91.8543637390975
 20
130.5213433687876
 30
0.0
 10
91.41507926231659
 20
130.5213433687876
 30
0.0
 10
90.97616168876728
 20
130.5213433687876
 30
0.0
 10
90.04608357433911
 20
130.5213433687876
 30
0.0
 10
89.55485199333047
 20
130.5213433687876
 30
0.0
 10
88.49385615071547
 20
130.5213433687876
 30
0.0
 10
87.92410824582191
 20
130.5213433687875
 30
0.0
 10
87.35436373909751
 20
130.5213433687875
 30
0.0
  0
SPLINE
  5
2B4
330
70
100
AcDbEntity
  8
Visible (ISO)
100
AcDbSpline
210
0.0
220
0.0
230
1.0
 70
    24
 71
     3
 72
     8
 73
     4
 74
     0
 42
0.000000001
 43
0.0000000001
 40
-1.009250694823054
 40
-1.009250694823054
 40
-1.009250694823054
 40
-1.009250694823054
 40
-1.009239674078639
 40
-1.009239674078639
 40
-1.009239674078639
 40
-1.009239674078639
 10
87.35425368809009
 20
130.5213433687875
 30
0.0
 10
87.3542887866963
 20
130.5213433687875
 30
0.0
 10
87.35432547031201
 20
130.5213433687875
 30
0.0
 10
87.35436373909751
 20
130.5213433687875
 30
0.0
  0
SPLINE
  5
2B5
330
70
100
AcDbEntity
  8
Visible (ISO)
100
AcDbSpline
210
0.0
220
0.0
230
1.0
 70
    24
 71
     3
 72
     8
 73
     4
 74
     0
 42
0.000000001
 43
0.0000000001
 40
0.1081804148413112
 40
0.1081804148413112
 40
0.1081804148413112
 40
0.1081804148413112
 40
0.1081914355857267
 40
0.1081914355857267
 40
0.1081914355857267
 40
0.1081914355857267
 10
96.35447379010493
 20
130.5213433687875
 30
0.0
 10
96.3544386914987
 20
130.5213433687875
 30
0.0
 10
96.35440200788298
 20
130.5213433687875
 30
0.0
 10
96.35436373909749
 20
130.5213433687875
 30
0.0
  0
SPLINE
  5
2B6
330
70
100
AcDbEntity
  8
Visible (ISO)
100
AcDbSpline
210
0.0
220
0.0
230
1.0
 70
    24
 71
     3
 72
    19
 73
    15
 74
     0
 42
0.000000001
 43
0.0000000001
 40
0.1081914355857269
 40
0.1081914355857269
 40
0.1081914355857269
 40
0.1081914355857269
 40
0.2793577774160916
 40
0.2793577774160916
 40
0.42693021179791
 40
0.42693021179791
 40
0.5587155548321833
 40
0.5587155548321833
 40
0.5587155548321833
 40
0.6905008978664564
 40
0.6905008978664564
 40
0.8380733322482749
 40
0.8380733322482749
 40
1.009239674078639
 40
1.009239674078639
 40
1.009239674078639
 40
1.009239674078639
 10
87.35436373909751
 20
131.5213433687875
 30
0.0
 10
87.92410824582191
 20
131.5213433687875
 30
0.0
 10
88.49385615071547
 20
131.5213433687876
 30
0.0
 10
89.55485199333047
 20
131.5213433687876
 30
0.0
 10
90.04608357433911
 20
131.5213433687876
 30
0.0
 10
90.97616168876728
 20
131.5213433687876
 30
0.0
 10
91.41507926231659
 20
131.5213433687876
 30
0.0
 10
91.8543637390975
 20
131.5213433687876
 30
0.0
 10
92.29364821587841
 20
131.5213433687876
 30
0.0
 10
92.73256578942772
 20
131.5213433687876
 30
0.0
 10
93.66264390385589
 20
131.5213433687876
 30
0.0
 10
94.15387548486453
 20
131.5213433687876
 30
0.0
 10
95.21487132747953
 20
131.5213433687876
 30
0.0
 10
95.78461923237311
 20
131.5213433687875
 30
0.0
 10
96.35436373909749
 20
131.5213433687875
 30
0.0
  0
SPLINE
  5
2B7
330
70
100
AcDbEntity
  8
Visible (ISO)
100
AcDbSpline
210
0.0
220
0.0
230
1.0
 70
    24
 71
     3
 72
     8
 73
     4
 74
     0
 42
0.000000001
 43
0.0000000001
 40
-1.009250694823055
 40
-1.009250694823055
 40
-1.009250694823055
 40
-1.009250694823055
 40
-1.009239674078639
 40
-1.009239674078639
 40
-1.009239674078639
 40
-1.009239674078639
 10
96.35447379010493
 20
131.5213433687875
 30
0.0
 10
96.3544386914987
 20
131.5213433687875
 30
0.0
 10
96.35440200788298
 20
131.5213433687875
 30
0.0
 10
96.35436373909749
 20
131.5213433687875
 30
0.0
  0
SPLINE
  5
2B8
330
70
100
AcDbEntity
  8
Visible (ISO)
100
AcDbSpline
210
0.0
220
0.0
230
1.0
 70
    24
 71
     3
 72
     8
 73
     4
 74
     0
 42
0.000000001
 43
0.0000000001
 40
-0.1081914355857269
 40
-0.1081914355857269
 40
-0.1081914355857269
 40
-0.1081914355857269
 40
-0.1081804148413115
 40
-0.1081804148413115
 40
-0.1081804148413115
 40
-0.1081804148413115
 10
87.35436373909751
 20
131.5213433687875
 30
0.0
 10
87.35432547031201
 20
131.5213433687875
 30
0.0
 10
87.3542887866963
 20
131.5213433687875
 30
0.0
 10
87.35425368809009
 20
131.5213433687875
 30
0.0
  0
ARC
  5
2B9
330
70
100
AcDbEntity
  8
Visible (ISO)
100
AcDbCircle
 10
85.9543637390975
 20
129.6213433687875
 30
0.0
 40
0.0999999999999998
100
AcDbArc
 50
180.0
 51
270.0
  0
SPLINE
  5
2BA
330
70
100
AcDbEntity
  8
Visible (ISO)
100
AcDbSpline
210
0.0
220
0.0
230
1.0
 70
     8
 71
     3
 72
    20
 73
    16
 74
     0
 42
0.000000001
 43
0.0000000001
 40
-0.1167463837654997
 40
-0.1167463837654997
 40
-0.1167463837654997
 40
-0.1167463837654997
 40
-0.1163267376802986
 40
-0.1163267376802986
 40
-0.1148286972977117
 40
-0.1148286972977117
 40
-0.111636749464689
 40
-0.111636749464689
 40
-0.107278172338819
 40
-0.107278172338819
 40
-0.1040400035181946
 40
-0.1040400035181946
 40
-0.1011279500247179
 40
-0.1011279500247179
 40
-0.100530888678917
 40
-0.100530888678917
 40
-0.100530888678917
 40
-0.100530888678917
 10
86.52835785851479
 20
129.6213433687875
 30
0.0
 10
86.5286385060768
 20
129.6202757040979
 30
0.0
 10
86.5288708139619
 20
129.619193377217
 30
0.0
 10
86.52969566697201
 20
129.6141731923032
 30
0.0
 10
86.5296292527435
 20
129.6103382688748
 30
0.0
 10
86.52784724725821
 20
129.5983715721403
 30
0.0
 10
86.52433718789966
 20
129.5900262293056
 30
0.0
 10
86.51486689271779
 20
129.5711252755611
 30
0.0
 10
86.50772872018988
 20
129.5595261391201
 30
0.0
 10
86.49650373001492
 20
129.5415722238367
 30
0.0
 10
86.49240744113837
 20
129.5351441440606
 30
0.0
 10
86.48690200062603
 20
129.5260826959327
 30
0.0
 10
86.48532366936438
 20
129.5232425800103
 30
0.0
 10
86.48489876769605
 20
129.5217722350592
 30
0.0
 10
86.48487853856247
 20
129.5215921578667
 30
0.0
 10
86.48490970956272
 20
129.5214805668244
 30
0.0
  0
LINE
  5
2BB
330
70
100
AcDbEntity
  8
Visible (ISO)
100
AcDbLine
 10
85.9543637390975
 20
129.5213433687875
 30
0.0
 11
86.48494803531745
 21
129.5213433687875
 31
0.0
  0
LINE
  5
2BC
330
70
100
AcDbEntity
  8
Visible (ISO)
100
AcDbLine
 10
85.8543637390975
 20
132.4213433687875
 30
0.0
 11
85.8543637390975
 21
129.6213433687875
 31
0.0
  0
ARC
  5
2BD
330
70
100
AcDbEntity
  8
Visible (ISO)
100
AcDbCircle
 10
91.8543637390975
 20
131.0213433687875
 30
0.0
 40
5.506935503526576
100
AcDbArc
 50
165.2723396740587
 51
194.7276603259132
  0
ARC
  5
2BE
330
70
100
AcDbEntity
  8
Visible (ISO)
100
AcDbCircle
 10
91.8543637390975
 20
131.0213433687875
 30
0.0
 40
5.506935503526585
100
AcDbArc
 50
345.2723396740867
 51
14.7276603259133
  0
ARC
  5
2BF
330
70
100
AcDbEntity
  8
Visible (ISO)
100
AcDbCircle
 10
91.8543637390975
 20
131.0213433687875
 30
0.0
 40
5.574999999999997
100
AcDbArc
 50
195.6067736638874
 51
344.3932263361124
  0
SPLINE
  5
2C0
330
70
100
AcDbEntity
  8
Visible (ISO)
100
AcDbSpline
210
0.0
220
0.0
230
1.0
 70
     8
 71
     3
 72
    26
 73
    22
 74
     0
 42
0.000000001
 43
0.0000000001
 40
0.1202727217615084
 40
0.1202727217615084
 40
0.1202727217615084
 40
0.1202727217615084
 40
0.1202991365773451
 40
0.1202991365773451
 40
0.1203429475099263
 40
0.1203429475099263
 40
0.1204385750773929
 40
0.1204385750773929
 40
0.1218155955517658
 40
0.1218155955517658
 40
0.1232684323416687
 40
0.1232684323416687
 40
0.1257179918970292
 40
0.1257179918970292
 40
0.1298582169075374
 40
0.1298582169075374
 40
0.1338256061203832
 40
0.1338256061203832
 40
0.1358218267841507
 40
0.1358218267841507
 40
0.1377756950170718
 40
0.1377756950170718
 40
0.1377756950170718
 40
0.1377756950170718
 10
86.52835785851548
 20
132.4213433687901
 30
0.0
 10
86.52837529405344
 20
132.4214096986313
 30
0.0
 10
86.52839244897442
 20
132.4214757261373
 30
0.0
 10
86.52843732829143
 20
132.4216504739589
 30
0.0
 10
86.52846463137146
 20
132.4217589002943
 30
0.0
 10
86.52854938280825
 20
132.4221021491068
 30
0.0
 10
86.5286047244723
 20
132.4223365441121
 30
0.0
 10
86.52941534179738
 20
132.4259313579217
 30
0.0
 10
86.52964750497339
 20
132.4292550389534
 30
0.0
 10
86.52921604201722
 20
132.4361781343336
 30
0.0
 10
86.52851214890118
 20
132.4396402045137
 30
0.0
 10
86.52595822708139
 20
132.4485472648226
 30
0.0
 10
86.52349639485812
 20
132.4542758338704
 30
0.0
 10
86.51587457586616
 20
132.4696471738243
 30
0.0
 10
86.50969875439015
 20
132.4799089024706
 30
0.0
 10
86.49819938603886
 20
132.4984659188731
 30
0.0
 10
86.49330104086054
 20
132.5061024280007
 30
0.0
 10
86.48819240167766
 20
132.5144673358318
 30
0.0
 10
86.48688288624279
 20
132.5167001516145
 30
0.0
 10
86.48520098874561
 20
132.5198912233084
 30
0.0
 10
86.4848144543169
 20
132.520865160451
 30
0.0
 10
86.48490970956277
 20
132.5212061707508
 30
0.0
  0
ARC
  5
2C1
330
70
100
AcDbEntity
  8
Visible (ISO)
100
AcDbCircle
 10
91.8543637390975
 20
131.0213433687875
 30
0.0
 40
5.575
100
AcDbArc
 50
15.60677366388743
 51
164.3932263361101
  0
LINE
  5
2C2
330
70
100
AcDbEntity
  8
Visible (ISO)
100
AcDbLine
 10
97.22377944287757
 20
129.5213433687875
 30
0.0
 11
97.7543637390975
 21
129.5213433687875
 31
0.0
  0
SPLINE
  5
2C3
330
70
100
AcDbEntity
  8
Visible (ISO)
100
AcDbSpline
210
0.0
220
0.0
230
1.0
 70
     8
 71
     3
 72
    18
 73
    14
 74
     0
 42
0.000000001
 43
0.0000000001
 40
-0.1028855666828686
 40
-0.1028855666828686
 40
-0.1028855666828686
 40
-0.1028855666828686
 40
-0.1004689900059198
 40
-0.1004689900059198
 40
-0.0980358109280614
 40
-0.0980358109280614
 40
-0.093790661072223
 40
-0.093790661072223
 40
-0.0887468381604296
 40
-0.0887468381604296
 40
-0.0865906319794494
 40
-0.0865906319794494
 40
-0.0854228207007943
 40
-0.0854228207007943
 40
-0.0854228207007943
 40
-0.0854228207007943
 10
97.22381776863223
 20
129.5214805668242
 30
0.0
 10
97.22393558190217
 20
129.5219023340259
 30
0.0
 10
97.22331628306022
 20
129.5232912042811
 30
0.0
 10
97.22074824748711
 20
129.5278907480428
 30
0.0
 10
97.21881306810528
 20
129.5310724274424
 30
0.0
 10
97.21212631611052
 20
129.5418054629311
 30
0.0
 10
97.2064027477222
 20
129.5507009751478
 30
0.0
 10
97.19293442266121
 20
129.5730241243912
 30
0.0
 10
97.18576349993
 20
129.5857257105295
 30
0.0
 10
97.18042527657198
 20
129.6017699136912
 30
0.0
 10
97.17919921458765
 20
129.6069585370938
 30
0.0
 10
97.17922557176935
 20
129.6155308702856
 30
0.0
 10
97.17960891374765
 20
129.6184494228802
 30
0.0
 10
97.18036961968023
 20
129.6213433687875
 30
0.0
  0
ARC
  5
2C4
330
70
100
AcDbEntity
  8
Visible (ISO)
100
AcDbCircle
 10
97.7543637390975
 20
129.6213433687875
 30
0.0
 40
0.1000000000000001
100
AcDbArc
 50
270.0
 51
0.0
  0
LINE
  5
2C5
330
70
100
AcDbEntity
  8
Visible (ISO)
100
AcDbLine
 10
97.8543637390975
 20
129.6213433687875
 30
0.0
 11
97.8543637390975
 21
132.4213433687875
 31
0.0
  0
ARC
  5
2C6
330
70
100
AcDbEntity
  8
Visible (ISO)
100
AcDbCircle
 10
97.7543637390975
 20
132.4213433687875
 30
0.0
 40
0.0999999999999998
100
AcDbArc
 50
0.0
 51
90.0
  0
LINE
  5
2C7
330
70
100
AcDbEntity
  8
Visible (ISO)
100
AcDbLine
 10
97.7543637390975
 20
132.5213433687875
 30
0.0
 11
97.22377944287757
 21
132.5213433687875
 31
0.0
  0
SPLINE
  5
2C8
330
70
100
AcDbEntity
  8
Visible (ISO)
100
AcDbSpline
210
0.0
220
0.0
230
1.0
 70
     8
 71
     3
 72
    20
 73
    16
 74
     0
 42
0.000000001
 43
0.0000000001
 40
-0.1167463837662684
 40
-0.1167463837662684
 40
-0.1167463837662684
 40
-0.1167463837662684
 40
-0.1163267376810644
 40
-0.1163267376810644
 40
-0.1148286972984718
 40
-0.1148286972984718
 40
-0.1116367494654422
 40
-0.1116367494654422
 40
-0.1072781723395591
 40
-0.1072781723395591
 40
-0.1040400035189335
 40
-0.1040400035189335
 40
-0.101127950025461
 40
-0.101127950025461
 40
-0.1005308886796618
 40
-0.1005308886796618
 40
-0.1005308886796618
 40
-0.1005308886796618
 10
97.18036961968023
 20
132.4213433687875
 30
0.0
 10
97.1800889721182
 20
132.4224110334772
 30
0.0
 10
97.17985666423309
 20
132.423493360358
 30
0.0
 10
97.17903181122299
 20
132.4285135452719
 30
0.0
 10
97.17909822545152
 20
132.4323484687003
 30
0.0
 10
97.18088023093679
 20
132.4443151654348
 30
0.0
 10
97.18439029029534
 20
132.4526605082695
 30
0.0
 10
97.19386058547721
 20
132.471561462014
 30
0.0
 10
97.20099875800514
 20
132.4831605984549
 30
0.0
 10
97.2122237481801
 20
132.5011145137384
 30
0.0
 10
97.21632003705664
 20
132.5075425935144
 30
0.0
 10
97.22182547756899
 20
132.5166040416423
 30
0.0
 10
97.22340380883062
 20
132.5194441575648
 30
0.0
 10
97.22382871049894
 20
132.5209145025158
 30
0.0
 10
97.22384893963253
 20
132.5210945797083
 30
0.0
 10
97.2238177686323
 20
132.5212061707506
 30
0.0
  0
LINE
  5
2C9
330
70
100
AcDbEntity
  8
Visible (ISO)
100
AcDbLine
 10
86.48494803531745
 20
132.5213433687875
 30
0.0
 11
85.9543637390975
 21
132.5213433687875
 31
0.0
  0
ARC
  5
2CA
330
70
100
AcDbEntity
  8
Visible (ISO)
100
AcDbCircle
 10
85.9543637390975
 20
132.4213433687875
 30
0.0
 40
0.1000000000000001
100
AcDbArc
 50
90.0
 51
180.0
  0
CIRCLE
  5
2CB
330
70
100
AcDbEntity
  8
Visible (ISO)
100
AcDbCircle
 10
210.2840118602893
 20
62.78963173287545
 30
0.0
 40
10.0
  0
ARC
  5
2CC
330
70
100
AcDbEntity
  8
Visible (ISO)
100
AcDbCircle
 10
210.2840118602893
 20
62.78963173287545
 30
0.0
 40
9.75
100
AcDbArc
 50
270.6678898322964
 51
329.3321101677038
  0
ARC
  5
2CD
330
70
100
AcDbEntity
  8
Visible (ISO)
100
AcDbCircle
 10
210.2840118602894
 20
62.78963173287545
 30
0.0
 40
9.75
100
AcDbArc
 50
210.6678898322962
 51
269.3321101677038
  0
ARC
  5
2CE
330
70
100
AcDbEntity
  8
Visible (ISO)
100
AcDbCircle
 10
210.2840118602894
 20
62.78963173287545
 30
0.0
 40
9.749999999999998
100
AcDbArc
 50
150.6678898322962
 51
209.3321101677036
  0
ARC
  5
2CF
330
70
100
AcDbEntity
  8
Visible (ISO)
100
AcDbCircle
 10
210.2840118602894
 20
62.78963173287545
 30
0.0
 40
9.750000000000003
100
AcDbArc
 50
90.66788983229637
 51
149.3321101677036
  0
ARC
  5
2D0
330
70
100
AcDbEntity
  8
Visible (ISO)
100
AcDbCircle
 10
210.2840118602893
 20
62.78963173287545
 30
0.0
 40
9.750000000000005
100
AcDbArc
 50
30.66788983229652
 51
89.33211016770362
  0
ARC
  5
2D1
330
70
100
AcDbEntity
  8
Visible (ISO)
100
AcDbCircle
 10
210.2840118602894
 20
62.78963173287545
 30
0.0
 40
9.749999999999998
100
AcDbArc
 50
330.6678898322963
 51
29.33211016770359
  0
LINE
  5
2D2
330
70
100
AcDbEntity
  8
Visible (ISO)
100
AcDbLine
 10
216.6840118602864
 20
71.28963173287544
 30
0.0
 11
216.6840118602865
 21
70.47338081779487
 31
0.0
  0
ARC
  5
2D3
330
70
100
AcDbEntity
  8
Visible (ISO)
100
AcDbCircle
 10
216.1840118602864
 20
71.28963173287544
 30
0.0
 40
0.5
100
AcDbArc
 50
0.0
 51
90.0
  0
SPLINE
  5
2D4
330
70
100
AcDbEntity
  8
Visible (ISO)
100
AcDbSpline
210
0.0
220
0.0
230
1.0
 70
     8
 71
     3
 72
    14
 73
    10
 74
     0
 42
0.000000001
 43
0.0000000001
 40
0.3152137287149456
 40
0.3152137287149456
 40
0.3152137287149456
 40
0.3152137287149456
 40
0.339724314007867
 40
0.339724314007867
 40
0.3774719396899205
 40
0.3774719396899205
 40
0.4152184860893204
 40
0.4152184860893204
 40
0.4529650324887202
 40
0.4529650324887202
 40
0.4529650324887202
 40
0.4529650324887202
 10
216.1002715392391
 20
70.92420961200769
 30
0.0
 10
216.1022505583145
 20
71.00812800879724
 30
0.0
 10
216.1059939003968
 20
71.09268594066856
 30
0.0
 10
216.1193447784441
 20
71.29580496587708
 30
0.0
 10
216.1307840493256
 20
71.40808889384928
 30
0.0
 10
216.1521870817507
 20
71.58538559959881
 30
0.0
 10
216.1635542241958
 20
71.66230683544755
 30
0.0
 10
216.1795780771926
 20
71.76443655982762
 30
0.0
 10
216.1822383470489
 20
71.77955366365631
 30
0.0
 10
216.1840118602864
 20
71.78963173287545
 30
0.0
  0
LINE
  5
2D5
330
70
100
AcDbEntity
  8
Visible (ISO)
100
AcDbLine
 10
204.3840118602864
 20
70.86366418264923
 30
0.0
 11
204.3840118602864
 21
73.28963173287546
 31
0.0
  0
LINE
  5
2D6
330
70
100
AcDbEntity
  8
Visible (ISO)
100
AcDbLine
 10
216.1840118602864
 20
71.78963173287545
 30
0.0
 11
216.1840118602864
 21
73.28963173287546
 31
0.0
  0
CIRCLE
  5
2D7
330
70
100
AcDbEntity
  8
Visible (ISO)
100
AcDbCircle
 10
210.2840118602902
 20
62.78963173287545
 30
0.0
 40
2.900000000000007
  0
CIRCLE
  5
2D8
330
70
100
AcDbEntity
  8
Visible (ISO)
100
AcDbCircle
 10
210.2840118602933
 20
62.78963173287547
 30
0.0
 40
5.616383764250617
  0
CIRCLE
  5
2D9
330
70
100
AcDbEntity
  8
Visible (ISO)
100
AcDbCircle
 10
210.2840118602935
 20
62.78963173287547
 30
0.0
 40
6.338247961374085
  0
CIRCLE
  5
2DA
330
70
100
AcDbEntity
  8
Visible (ISO)
100
AcDbCircle
 10
210.2840118602902
 20
62.78963173287545
 30
0.0
 40
5.294500000000014
  0
CIRCLE
  5
2DB
330
70
100
AcDbEntity
  8
Visible (ISO)
100
AcDbCircle
 10
210.2840118602935
 20
62.78963173287547
 30
0.0
 40
8.000000000000021
  0
SPLINE
  5
2DC
330
70
100
AcDbEntity
  8
Visible (ISO)
100
AcDbSpline
210
0.0
220
0.0
230
1.0
 70
    28
 71
     2
 72
     6
 73
     3
 74
     0
 42
0.000000001
 43
0.0000000001
 40
0.1463461418658468
 40
0.1463461418658468
 40
0.1463461418658468
 40
1.198424304883158
 40
1.198424304883158
 40
1.198424304883158
 10
218.7840118602932
 20
67.69710902098729
 30
0.0
 41
1.05155236556389
 10
218.7840118602936
 20
62.78963173287536
 30
0.0
 41
1.214228082650573
 10
218.7840118602932
 20
57.88215444476364
 30
0.0
 41
1.05155236556389
  0
SPLINE
  5
2DD
330
70
100
AcDbEntity
  8
Visible (ISO)
100
AcDbSpline
210
0.0
220
0.0
230
1.0
 70
    28
 71
     2
 72
     6
 73
     3
 74
     0
 42
0.000000001
 43
0.0000000001
 40
0.1463461418658451
 40
0.1463461418658451
 40
0.1463461418658451
 40
1.198424304883157
 40
1.198424304883157
 40
1.198424304883157
 10
210.2840118602932
 20
72.60458630909912
 30
0.0
 41
1.051552365563892
 10
214.5340118602937
 20
70.15084766504315
 30
0.0
 41
1.21422808265058
 10
218.7840118602932
 20
67.69710902098729
 30
0.0
 41
1.051552365563892
  0
SPLINE
  5
2DE
330
70
100
AcDbEntity
  8
Visible (ISO)
100
AcDbSpline
210
0.0
220
0.0
230
1.0
 70
    28
 71
     2
 72
     6
 73
     3
 74
     0
 42
0.000000001
 43
0.0000000001
 40
0.1463461418658453
 40
0.1463461418658453
 40
0.1463461418658453
 40
1.198424304883157
 40
1.198424304883157
 40
1.198424304883157
 10
201.7840118602932
 20
67.69710902098729
 30
0.0
 41
1.051552365563892
 10
206.0340118602937
 20
70.15084766504327
 30
0.0
 41
1.21422808265058
 10
210.2840118602932
 20
72.60458630909912
 30
0.0
 41
1.051552365563892
  0
SPLINE
  5
2DF
330
70
100
AcDbEntity
  8
Visible (ISO)
100
AcDbSpline
210
0.0
220
0.0
230
1.0
 70
    28
 71
     2
 72
     6
 73
     3
 74
     0
 42
0.000000001
 43
0.0000000001
 40
0.1463461418658459
 40
0.1463461418658459
 40
0.1463461418658459
 40
1.198424304883158
 40
1.198424304883158
 40
1.198424304883158
 10
201.7840118602932
 20
57.88215444476364
 30
0.0
 41
1.051552365563891
 10
201.7840118602936
 20
62.78963173287557
 30
0.0
 41
1.214228082650577
 10
201.7840118602932
 20
67.69710902098729
 30
0.0
 41
1.051552365563891
  0
SPLINE
  5
2E0
330
70
100
AcDbEntity
  8
Visible (ISO)
100
AcDbSpline
210
0.0
220
0.0
230
1.0
 70
    28
 71
     2
 72
     6
 73
     3
 74
     0
 42
0.000000001
 43
0.0000000001
 40
0.146346141865845
 40
0.146346141865845
 40
0.146346141865845
 40
1.198424304883158
 40
1.198424304883158
 40
1.198424304883158
 10
210.2840118602932
 20
52.97467715665181
 30
0.0
 41
1.051552365563892
 10
206.0340118602935
 20
55.42841580070777
 30
0.0
 41
1.214228082650582
 10
201.7840118602932
 20
57.88215444476364
 30
0.0
 41
1.051552365563892
  0
SPLINE
  5
2E1
330
70
100
AcDbEntity
  8
Visible (ISO)
100
AcDbSpline
210
0.0
220
0.0
230
1.0
 70
    28
 71
     2
 72
     6
 73
     3
 74
     0
 42
0.000000001
 43
0.0000000001
 40
0.1463461418658457
 40
0.1463461418658457
 40
0.1463461418658457
 40
1.198424304883157
 40
1.198424304883157
 40
1.198424304883157
 10
218.7840118602932
 20
57.88215444476364
 30
0.0
 41
1.051552365563891
 10
214.5340118602935
 20
55.42841580070767
 30
0.0
 41
1.214228082650577
 10
210.2840118602932
 20
52.97467715665181
 30
0.0
 41
1.051552365563891
  0
LINE
  5
2E2
330
70
100
AcDbEntity
  8
Visible (ISO)
100
AcDbLine
 10
213.7840118602983
 20
91.28963173287544
 30
0.0
 11
206.7840118602982
 21
91.28963173287544
 31
0.0
  0
LINE
  5
2E3
330
70
100
AcDbEntity
  8
Visible (ISO)
100
AcDbLine
 10
213.7840118602983
 20
84.28963173287545
 30
0.0
 11
213.7840118602968
 21
79.28963173287545
 31
0.0
  0
LINE
  5
2E4
330
70
100
AcDbEntity
  8
Visible (ISO)
100
AcDbLine
 10
206.7840118602967
 20
79.28963173287545
 30
0.0
 11
206.7840118602982
 21
84.28963173287545
 31
0.0
  0
LINE
  5
2E5
330
70
100
AcDbEntity
  8
Visible (ISO)
100
AcDbLine
 10
206.7840118602967
 20
79.28963173287545
 30
0.0
 11
213.7840118602968
 21
79.28963173287545
 31
0.0
  0
LINE
  5
2E6
330
70
100
AcDbEntity
  8
Visible (ISO)
100
AcDbLine
 10
213.7840118602944
 20
79.28963173287543
 30
0.0
 11
213.784011860293
 21
79.04188648764641
 31
0.0
  0
SPLINE
  5
2E7
330
70
100
AcDbEntity
  8
Visible (ISO)
100
AcDbSpline
210
0.0
220
0.0
230
1.0
 70
     8
 71
     3
 72
    14
 73
    10
 74
     0
 42
0.000000001
 43
0.0000000001
 40
0.0979815127343829
 40
0.0979815127343829
 40
0.0979815127343829
 40
0.0979815127343829
 40
0.1506624850332004
 40
0.1506624850332004
 40
0.3013249700664007
 40
0.3013249700664007
 40
0.4554237426914714
 40
0.4554237426914714
 40
0.5051911393277391
 40
0.5051911393277391
 40
0.5051911393277391
 40
0.5051911393277391
 10
204.8655517844212
 20
73.28963173287545
 30
0.0
 10
204.8770309772708
 20
73.46854379241732
 30
0.0
 10
204.8916244240429
 20
73.645240089514
 30
0.0
 10
204.9587485908424
 20
74.3070845159981
 30
0.0
 10
205.0323948335399
 20
74.7534323662131
 30
0.0
 10
205.1956055900083
 20
75.46556801845674
 30
0.0
 10
205.2966140246994
 20
75.77621804776824
 30
0.0
 10
205.4338575827746
 20
76.04877111558153
 30
0.0
 10
205.4676421350665
 20
76.10489371365386
 30
0.0
 10
205.5011495301846
 20
76.14998548438262
 30
0.0
  0
ELLIPSE
  5
2E8
330
70
100
AcDbEntity
  8
Visible (ISO)
100
AcDbEllipse
 10
141.7840118602929
 20
79.63750616519988
 30
0.0
 11
-64.99999999999999
 21
-0.0000000000000034
 31
0.0
210
0.0
220
0.0
230
1.0
 40
0.2713992095570846
 41
2.94258708611294
 42
3.032609081532716
  0
SPLINE
  5
2E9
330
70
100
AcDbEntity
  8
Visible (ISO)
100
AcDbSpline
210
0.0
220
0.0
230
1.0
 70
     8
 71
     3
 72
    10
 73
     6
 74
     0
 42
0.000000001
 43
0.0000000001
 40
5.578615183636053
 40
5.578615183636053
 40
5.578615183636053
 40
5.578615183636053
 40
6.021510703961547
 40
6.021510703961547
 40
6.267952460891863
 40
6.267952460891863
 40
6.267952460891863
 40
6.267952460891863
 10
206.3983776651628
 20
77.71873617904926
 30
0.0
 10
206.5566732651961
 20
78.11137403530821
 30
0.0
 10
206.6714086890281
 20
78.44076521000926
 30
0.0
 10
206.7665186374611
 20
78.833538301234
 30
0.0
 10
206.7840118602927
 20
78.95024947767692
 30
0.0
 10
206.784011860293
 20
79.04188648764639
 30
0.0
  0
LINE
  5
2EA
330
70
100
AcDbEntity
  8
Visible (ISO)
100
AcDbLine
 10
215.7024719361554
 20
73.28963173287545
 30
0.0
 11
212.8820880716416
 21
73.28963173287545
 31
0.0
  0
SPLINE
  5
2EB
330
70
100
AcDbEntity
  8
Visible (ISO)
100
AcDbSpline
210
0.0
220
0.0
230
1.0
 70
     8
 71
     3
 72
    14
 73
    10
 74
     0
 42
0.000000001
 43
0.0000000001
 40
1.926793397172414
 40
1.926793397172414
 40
1.926793397172414
 40
1.926793397172414
 40
1.976560793808681
 40
1.976560793808681
 40
2.130659566433752
 40
2.130659566433752
 40
2.281322051466952
 40
2.281322051466952
 40
2.33400302376577
 40
2.33400302376577
 40
2.33400302376577
 40
2.33400302376577
 10
215.0668741903937
 20
76.14998548438262
 30
0.0
 10
215.1003815855117
 20
76.10489371365386
 30
0.0
 10
215.1341661378035
 20
76.04877111558153
 30
0.0
 10
215.2714096958784
 20
75.77621804776825
 30
0.0
 10
215.3724181305691
 20
75.46556801845674
 30
0.0
 10
215.5356288870371
 20
74.75343236621312
 30
0.0
 10
215.6092751297344
 20
74.3070845159981
 30
0.0
 10
215.6763992965338
 20
73.64524008951402
 30
0.0
 10
215.6909927433059
 20
73.46854379241732
 30
0.0
 10
215.7024719361554
 20
73.28963173287545
 30
0.0
  0
LINE
  5
2EC
330
70
100
AcDbEntity
  8
Visible (ISO)
100
AcDbLine
 10
207.685935648935
 20
73.28963173287545
 30
0.0
 11
204.8655517844212
 21
73.28963173287545
 31
0.0
  0
ELLIPSE
  5
2ED
330
70
100
AcDbEntity
  8
Visible (ISO)
100
AcDbEllipse
 10
278.784011860293
 20
79.63750616519988
 30
0.0
 11
64.99999999999999
 21
-0.0000000000000022
 31
0.0
210
0.0
220
0.0
230
1.0
 40
0.2713992095570846
 41
3.250576225654226
 42
3.340598221073768
  0
SPLINE
  5
2EE
330
70
100
AcDbEntity
  8
Visible (ISO)
100
AcDbSpline
210
0.0
220
0.0
230
1.0
 70
     8
 71
     3
 72
    10
 73
     6
 74
     0
 42
0.000000001
 43
0.0000000001
 40
4.585290746366444
 40
4.585290746366444
 40
4.585290746366444
 40
4.585290746366444
 40
4.831732503296846
 40
4.831732503296846
 40
5.274628023622252
 40
5.274628023622252
 40
5.274628023622252
 40
5.274628023622252
 10
213.784011860293
 20
79.04188648764639
 30
0.0
 10
213.7840118602927
 20
78.95024947767689
 30
0.0
 10
213.8015050831238
 20
78.83353830123394
 30
0.0
 10
213.8966150315554
 20
78.44076521000913
 30
0.0
 10
214.0113504553865
 20
78.11137403530813
 30
0.0
 10
214.1696460554189
 20
77.71873617904926
 30
0.0
  0
LINE
  5
2EF
330
70
100
AcDbEntity
  8
Visible (ISO)
100
AcDbLine
 10
206.784011860293
 20
79.04188648764639
 30
0.0
 11
206.7840118602943
 21
79.28963173287543
 31
0.0
  0
LINE
  5
2F0
330
70
100
AcDbEntity
  8
Visible (ISO)
100
AcDbLine
 10
213.7840118602983
 20
84.28963173287545
 30
0.0
 11
213.7840118602983
 21
91.28963173287544
 31
0.0
  0
SPLINE
  5
2F1
330
70
100
AcDbEntity
  8
Visible (ISO)
100
AcDbSpline
210
0.0
220
0.0
230
1.0
 70
     8
 71
     3
 72
    10
 73
     6
 74
     0
 42
0.000000001
 43
0.0000000001
 40
1.758510453691921
 40
1.758510453691921
 40
1.758510453691921
 40
1.758510453691921
 40
1.769985036102442
 40
1.769985036102442
 40
1.77528265148158
 40
1.77528265148158
 40
1.77528265148158
 40
1.77528265148158
 10
216.9437340825092
 20
73.28963173287549
 30
0.0
 10
216.9555143546276
 20
73.28963173287549
 30
0.0
 10
216.9672983826389
 20
73.29592049947804
 30
0.0
 10
216.9840651256523
 20
73.31318775129772
 30
0.0
 10
216.9892952441067
 20
73.31981148119266
 30
0.0
 10
216.9944354946398
 20
73.32744865667546
 30
0.0
  0
LINE
  5
2F2
330
70
100
AcDbEntity
  8
Visible (ISO)
100
AcDbLine
 10
216.9922157927863
 20
73.28963173287545
 30
0.0
 11
216.9437340825099
 21
73.28963173287545
 31
0.0
  0
SPLINE
  5
2F3
330
70
100
AcDbEntity
  8
Visible (ISO)
100
AcDbSpline
210
0.0
220
0.0
230
1.0
 70
     8
 71
     3
 72
     8
 73
     4
 74
     0
 42
0.000000001
 43
0.0000000001
 40
-0.0038487373741095
 40
-0.0038487373741095
 40
-0.0038487373741095
 40
-0.0038487373741095
 40
0.0
 40
0.0
 40
0.0
 40
0.0
 10
216.9944354946398
 20
73.32744865667542
 30
0.0
 10
216.9936955993756
 20
73.31484293647419
 30
0.0
 10
216.9929556987081
 20
73.30223729430686
 30
0.0
 10
216.9922157927863
 20
73.28963173287545
 30
0.0
  0
SPLINE
  5
2F4
330
70
100
AcDbEntity
  8
Visible (ISO)
100
AcDbSpline
210
0.0
220
0.0
230
1.0
 70
     8
 71
     3
 72
    10
 73
     6
 74
     0
 42
0.000000001
 43
0.0000000001
 40
1.741738255902264
 40
1.741738255902264
 40
1.741738255902264
 40
1.741738255902264
 40
1.747035871281402
 40
1.747035871281402
 40
1.758510453691923
 40
1.758510453691923
 40
1.758510453691923
 40
1.758510453691923
 10
203.5735882259341
 20
73.32744865667544
 30
0.0
 10
203.5787284764673
 20
73.31981148119266
 30
0.0
 10
203.5839585949217
 20
73.31318775129759
 30
0.0
 10
203.600725337935
 20
73.29592049947791
 30
0.0
 10
203.6125093659464
 20
73.28963173287545
 30
0.0
 10
203.6242896380648
 20
73.28963173287545
 30
0.0
  0
SPLINE
  5
2F5
330
70
100
AcDbEntity
  8
Visible (ISO)
100
AcDbSpline
210
0.0
220
0.0
230
1.0
 70
     8
 71
     3
 72
     8
 73
     4
 74
     0
 42
0.000000001
 43
0.0000000001
 40
-0.0038487374224739
 40
-0.0038487374224739
 40
-0.0038487374224739
 40
-0.0038487374224739
 40
0.0
 40
0.0
 40
0.0
 40
0.0
 10
203.5758079277876
 20
73.28963173287545
 30
0.0
 10
203.5750680218626
 20
73.30223729436292
 30
0.0
 10
203.5743281211918
 20
73.31484293658651
 30
0.0
 10
203.5735882259342
 20
73.32744865667542
 30
0.0
  0
LINE
  5
2F6
330
70
100
AcDbEntity
  8
Visible (ISO)
100
AcDbLine
 10
203.6242896380648
 20
73.28963173287545
 30
0.0
 11
203.575807927788
 21
73.28963173287545
 31
0.0
  0
SPLINE
  5
2F7
330
70
100
AcDbEntity
  8
Visible (ISO)
100
AcDbSpline
210
0.0
220
0.0
230
1.0
 70
     8
 71
     3
 72
    22
 73
    18
 74
     0
 42
0.000000001
 43
0.0000000001
 40
1.758510453691923
 40
1.758510453691923
 40
1.758510453691923
 40
1.758510453691923
 40
1.769985036102444
 40
1.769985036102444
 40
1.781459618512965
 40
1.781459618512965
 40
1.804408783334006
 40
1.804408783334006
 40
1.879967807849264
 40
1.879967807849264
 40
1.955526832364522
 40
1.955526832364522
 40
2.150713591741938
 40
2.150713591741938
 40
2.345900351119354
 40
2.345900351119354
 40
2.573780108621498
 40
2.573780108621498
 40
2.573780108621498
 40
2.573780108621498
 10
203.6242896380648
 20
73.28963173287545
 30
0.0
 10
203.6360699101832
 20
73.28963173287545
 30
0.0
 10
203.6477885026288
 20
73.29592049947828
 30
0.0
 10
203.6704843145594
 20
73.31954703983905
 30
0.0
 10
203.6814625114796
 20
73.33687534684887
 30
0.0
 10
203.7126489005876
 20
73.40032804794829
 30
0.0
 10
203.7311653457899
 20
73.45806433508717
 30
0.0
 10
203.7970693246262
 20
73.70349639374762
 30
0.0
 10
203.8340065276937
 20
73.9443432271182
 30
0.0
 10
203.8998893779178
 20
74.44329910506164
 30
0.0
 10
203.9274665921922
 20
74.70336211643654
 30
0.0
 10
204.0103274273331
 20
75.56008404815883
 30
0.0
 10
204.056948373442
 20
76.20197282436567
 30
0.0
 10
204.1420565294359
 20
77.51466115100311
 30
0.0
 10
204.1797123040097
 20
78.18607210790753
 30
0.0
 10
204.255578963352
 20
79.66359805043556
 30
0.0
 10
204.2927029581848
 20
80.47320784288615
 30
0.0
 10
204.3274247349141
 20
81.28963173287544
 30
0.0
  0
LINE
  5
2F8
330
70
100
AcDbEntity
  8
Visible (ISO)
100
AcDbLine
 10
204.8655517844212
 20
73.28963173287545
 30
0.0
 11
203.6242896380648
 21
73.28963173287545
 31
0.0
  0
LINE
  5
2F9
330
70
100
AcDbEntity
  8
Visible (ISO)
100
AcDbLine
 10
204.1072640196316
 20
82.2843753108661
 30
0.0
 11
206.784011860293
 21
82.2843753108661
 31
0.0
  0
SPLINE
  5
2FA
330
70
100
AcDbEntity
  8
Visible (ISO)
100
AcDbSpline
210
0.0
220
0.0
230
1.0
 70
     8
 71
     3
 72
    10
 73
     6
 74
     0
 42
0.000000001
 43
0.0000000001
 40
1.026679612955202
 40
1.026679612955202
 40
1.026679612955202
 40
1.026679612955202
 40
1.054986950396901
 40
1.054986950396901
 40
1.150372975748469
 40
1.150372975748469
 40
1.150372975748469
 40
1.150372975748469
 10
204.3274247349141
 20
81.28963173287544
 30
0.0
 10
204.3129383527105
 20
81.36823699242045
 30
0.0
 10
204.2981457109914
 20
81.44588531826167
 30
0.0
 10
204.2319711791201
 20
81.78051854117937
 30
0.0
 10
204.1733139863517
 20
82.04516844637623
 30
0.0
 10
204.1072640196316
 20
82.2843753108661
 30
0.0
  0
SPLINE
  5
2FB
330
70
100
AcDbEntity
  8
Visible (ISO)
100
AcDbSpline
210
0.0
220
0.0
230
1.0
 70
     8
 71
     3
 72
    22
 73
    18
 74
     0
 42
0.000000001
 43
0.0000000001
 40
0.9432407987623509
 40
0.9432407987623509
 40
0.9432407987623509
 40
0.9432407987623509
 40
1.171120556264496
 40
1.171120556264496
 40
1.366307315641912
 40
1.366307315641912
 40
1.561494075019328
 40
1.561494075019328
 40
1.637053099534583
 40
1.637053099534583
 40
1.712612124049838
 40
1.712612124049838
 40
1.73556128887088
 40
1.73556128887088
 40
1.7470358712814
 40
1.7470358712814
 40
1.758510453691921
 40
1.758510453691921
 40
1.758510453691921
 40
1.758510453691921
 10
216.2405989856613
 20
81.28963173287544
 30
0.0
 10
216.2753207623905
 20
80.47320784288613
 30
0.0
 10
216.3124447572233
 20
79.66359805043556
 30
0.0
 10
216.3883114165654
 20
78.18607210790752
 30
0.0
 10
216.4259671911391
 20
77.51466115100311
 30
0.0
 10
216.5110753471329
 20
76.20197282436565
 30
0.0
 10
216.5576962932417
 20
75.5600840481588
 30
0.0
 10
216.6405571283824
 20
74.70336211643652
 30
0.0
 10
216.6681343426568
 20
74.44329910506167
 30
0.0
 10
216.7340171928807
 20
73.94434322711822
 30
0.0
 10
216.7709543959482
 20
73.70349639374767
 30
0.0
 10
216.8368583747843
 20
73.45806433508721
 30
0.0
 10
216.8553748199866
 20
73.40032804794829
 30
0.0
 10
216.8865612090945
 20
73.33687534684887
 30
0.0
 10
216.8975394060147
 20
73.31954703983902
 30
0.0
 10
216.9202352179453
 20
73.29592049947826
 30
0.0
 10
216.9319538103909
 20
73.28963173287549
 30
0.0
 10
216.9437340825092
 20
73.28963173287549
 30
0.0
  0
SPLINE
  5
2FC
330
70
100
AcDbEntity
  8
Visible (ISO)
100
AcDbSpline
210
0.0
220
0.0
230
1.0
 70
     8
 71
     3
 72
    10
 73
     6
 74
     0
 42
0.000000001
 43
0.0000000001
 40
1.527849395011702
 40
1.527849395011702
 40
1.527849395011702
 40
1.527849395011702
 40
1.623235420363269
 40
1.623235420363269
 40
1.651542757804969
 40
1.651542757804969
 40
1.651542757804969
 40
1.651542757804969
 10
216.4607597009434
 20
82.2843753108661
 30
0.0
 10
216.3947097342234
 20
82.04516844637623
 30
0.0
 10
216.3360525414551
 20
81.78051854117939
 30
0.0
 10
216.269878009584
 20
81.44588531826171
 30
0.0
 10
216.2550853678649
 20
81.36823699242047
 30
0.0
 10
216.2405989856613
 20
81.28963173287544
 30
0.0
  0
LINE
  5
2FD
330
70
100
AcDbEntity
  8
Visible (ISO)
100
AcDbLine
 10
213.784011860293
 20
82.2843753108661
 30
0.0
 11
216.4607597009434
 21
82.2843753108661
 31
0.0
  0
LINE
  5
2FE
330
70
100
AcDbEntity
  8
Visible (ISO)
100
AcDbLine
 10
216.9437340825092
 20
73.28963173287545
 30
0.0
 11
215.7024719361555
 21
73.28963173287545
 31
0.0
  0
LINE
  5
2FF
330
70
100
AcDbEntity
  8
Visible (ISO)
100
AcDbLine
 10
206.7840118602982
 20
84.28963173287545
 30
0.0
 11
206.7840118602982
 21
91.28963173287544
 31
0.0
  0
SPLINE
  5
300
330
70
100
AcDbEntity
  8
Visible (ISO)
100
AcDbSpline
210
0.0
220
0.0
230
1.0
 70
     8
 71
     3
 72
    22
 73
    18
 74
     0
 42
0.000000001
 43
0.0000000001
 40
0.080169667649563
 40
0.080169667649563
 40
0.080169667649563
 40
0.080169667649563
 40
0.1449225509834109
 40
0.1449225509834109
 40
0.2230755465214004
 40
0.2230755465214004
 40
0.2985369780978444
 40
0.2985369780978444
 40
0.3739984096742883
 40
0.3739984096742883
 40
0.4494598412507324
 40
0.4494598412507324
 40
0.5249212728271763
 40
0.5249212728271763
 40
0.6030742683651658
 40
0.6030742683651658
 40
0.6678271516990137
 40
0.6678271516990137
 40
0.6678271516990137
 40
0.6678271516990137
 10
207.685935648935
 20
73.28963173287545
 30
0.0
 10
207.7843137858649
 20
73.48860828748037
 30
0.0
 10
207.9222080430207
 20
73.6657230575163
 30
0.0
 10
208.2557049328391
 20
73.980389874737
 30
0.0
 10
208.5108049425417
 20
74.14127008614037
 30
0.0
 10
208.9668338617334
 20
74.34443595890359
 30
0.0
 10
209.2253203944488
 20
74.42347757578771
 30
0.0
 10
209.7581710944776
 20
74.52447399444841
 30
0.0
 10
210.0324737550337
 20
74.54685308039039
 30
0.0
 10
210.5355499655433
 20
74.54685308039039
 30
0.0
 10
210.8098526260994
 20
74.52447399444841
 30
0.0
 10
211.3427033261281
 20
74.42347757578771
 30
0.0
 10
211.6011898588435
 20
74.34443595890359
 30
0.0
 10
212.0572187780351
 20
74.14127008614037
 30
0.0
 10
212.3123187877377
 20
73.980389874737
 30
0.0
 10
212.645815677556
 20
73.6657230575163
 30
0.0
 10
212.7837099347118
 20
73.48860828748037
 30
0.0
 10
212.8820880716416
 20
73.28963173287545
 30
0.0
  0
LINE
  5
301
330
70
100
AcDbEntity
  8
Visible (ISO)
100
AcDbLine
 10
207.685935648935
 20
73.28963173287545
 30
0.0
 11
212.8820880716416
 21
73.28963173287545
 31
0.0
  0
LINE
  5
302
330
70
100
AcDbEntity
  8
Visible (ISO)
100
AcDbLine
 10
203.2840118602864
 20
73.28963173287545
 30
0.0
 11
203.5758079277876
 21
73.28963173287545
 31
0.0
  0
LINE
  5
303
330
70
100
AcDbEntity
  8
Visible (ISO)
100
AcDbLine
 10
216.9922157927863
 20
73.28963173287545
 30
0.0
 11
217.2840118602864
 21
73.28963173287545
 31
0.0
  0
LINE
  5
304
330
70
100
AcDbEntity
  8
Visible (ISO)
100
AcDbLine
 10
202.8340118602864
 20
81.28963173287544
 30
0.0
 11
204.3274247349141
 21
81.28963173287544
 31
0.0
  0
LINE
  5
305
330
70
100
AcDbEntity
  8
Visible (ISO)
100
AcDbLine
 10
216.2405989856613
 20
81.28963173287544
 30
0.0
 11
217.7340118602864
 21
81.28963173287544
 31
0.0
  0
LINE
  5
306
330
70
100
AcDbEntity
  8
Visible (ISO)
100
AcDbLine
 10
215.7840118602864
 20
89.28963173287545
 30
0.0
 11
217.7340118602864
 21
81.28963173287544
 31
0.0
  0
LINE
  5
307
330
70
100
AcDbEntity
  8
Visible (ISO)
100
AcDbLine
 10
204.7840118602864
 20
89.28963173287545
 30
0.0
 11
202.8340118602864
 21
81.28963173287544
 31
0.0
  0
LINE
  5
308
330
70
100
AcDbEntity
  8
Visible (ISO)
100
AcDbLine
 10
203.2840118602864
 20
73.28963173287545
 30
0.0
 11
202.8340118602864
 21
81.28963173287544
 31
0.0
  0
LINE
  5
309
330
70
100
AcDbEntity
  8
Visible (ISO)
100
AcDbLine
 10
217.2840118602864
 20
73.28963173287545
 30
0.0
 11
217.7340118602864
 21
81.28963173287544
 31
0.0
  0
LINE
  5
30A
330
70
100
AcDbEntity
  8
Visible (ISO)
100
AcDbLine
 10
215.8590118602864
 20
89.28963173287543
 30
0.0
 11
213.7840118602877
 21
89.28963173287543
 31
0.0
  0
LINE
  5
30B
330
70
100
AcDbEntity
  8
Visible (ISO)
100
AcDbLine
 10
206.7840118602876
 20
89.28963173287543
 30
0.0
 11
204.7090118602864
 21
89.28963173287543
 31
0.0
  0
LINE
  5
30C
330
70
100
AcDbEntity
  8
Visible (ISO)
100
AcDbLine
 10
204.7090118602864
 20
89.69486821872308
 30
0.0
 11
204.7090118602864
 21
89.28963173287545
 31
0.0
  0
LINE
  5
30D
330
70
100
AcDbEntity
  8
Visible (ISO)
100
AcDbLine
 10
215.8590118602864
 20
89.69486821872308
 30
0.0
 11
215.8590118602864
 21
89.28963173287545
 31
0.0
  0
LINE
  5
30E
330
70
100
AcDbEntity
  8
Visible (ISO)
100
AcDbLine
 10
213.7840118602864
 20
89.90129092570056
 30
0.0
 11
215.7643852519787
 21
89.79472374767226
 31
0.0
  0
LINE
  5
30F
330
70
100
AcDbEntity
  8
Visible (ISO)
100
AcDbLine
 10
206.7840118602864
 20
89.90129092570056
 30
0.0
 11
204.8036384685941
 21
89.79472374767226
 31
0.0
  0
ARC
  5
310
330
70
100
AcDbEntity
  8
Visible (ISO)
100
AcDbCircle
 10
204.8090118602864
 20
89.69486821872308
 30
0.0
 40
0.1
100
AcDbArc
 50
93.08021013665292
 51
180.0
  0
ARC
  5
311
330
70
100
AcDbEntity
  8
Visible (ISO)
100
AcDbCircle
 10
215.7590118602864
 20
89.69486821872308
 30
0.0
 40
0.1
100
AcDbArc
 50
0.0
 51
86.91978986334708
  0
LINE
  5
312
330
70
100
AcDbEntity
  8
Sketch Geometry (ISO)
  6
CHAIN
 48
26.89059448242188
100
AcDbLine
 10
51.68319843567652
 20
62.78963173287545
 30
0.0
 11
118.3745629822989
 21
62.78963173287545
 31
0.0
  0
LINE
  5
313
330
70
100
AcDbEntity
  8
Sketch Geometry (ISO)
  6
CHAIN
 48
27.66916465759277
100
AcDbLine
 10
91.85436373908002
 20
91.54706959568541
 30
0.0
 11
91.85436373908002
 21
52.33432929238144
 31
0.0
  0
LINE
  5
314
330
70
100
AcDbEntity
  8
Sketch Geometry (ISO)
  6
CHAIN
 48
28.27950477600098
100
AcDbLine
 10
210.2840118602983
 20
92.04438597030645
 30
0.0
 11
210.2840118602983
 21
51.96667246340759
 31
0.0
  0
LINE
  5
315
330
70
100
AcDbEntity
  8
Sketch Geometry (ISO)
  6
CHAIN
 48
30.90565490722656
100
AcDbLine
 10
199.3740046618558
 20
62.78963173287547
 30
0.0
 11
221.273752294234
 21
62.78963173287545
 31
0.0
  0
LINE
  5
316
330
70
100
AcDbEntity
  8
Sketch Geometry (ISO)
  6
CHAIN
 48
25.34648513793945
100
AcDbLine
 10
52.99888995418567
 20
131.0213433687795
 30
0.0
 11
133.8212281503686
 21
131.0213433687795
 31
0.0
  0
LINE
  5
317
330
70
100
AcDbEntity
  8
Sketch Geometry (ISO)
  6
CHAIN
 48
28.22466850280762
100
AcDbLine
 10
91.85436373909766
 20
141.0213433687795
 30
0.0
 11
91.85436373909766
 21
121.0213433687795
 31
0.0
  0
ENDSEC
  0
SECTION
  2
OBJECTS
  0
DICTIONARY
  5
C
330
0
100
AcDbDictionary
281
     1
  3
ACAD_CIP_PREVIOUS_PRODUCT_INFO
350
318
  3
ACAD_COLOR
350
63
  3
ACAD_DETAILVIEWSTYLE
350
6A
  3
ACAD_GROUP
350
D
  3
ACAD_LAYOUT
350
62
  3
ACAD_MATERIAL
350
10
  3
ACAD_MLEADERSTYLE
350
66
  3
ACAD_MLINESTYLE
350
5F
  3
ACAD_PLOTSETTINGS
350
61
  3
ACAD_PLOTSTYLENAME
350
E
  3
ACAD_SCALELIST
350
42
  3
ACAD_SECTIONVIEWSTYLE
350
68
  3
ACAD_TABLESTYLE
350
64
  3
ACAD_VISUALSTYLE
350
29
  3
ACDB_RECOMPOSE_DATA
350
327
  3
AcDbVariableDictionary
350
319
  0
XRECORD
  5
318
102
{ACAD_REACTORS
330
C
102
}
330
C
100
AcDbXrecord
280
     1
300
INVNTOR
300
2015
300
PDSP_F_S
  0
DICTIONARY
  5
63
102
{ACAD_REACTORS
330
C
102
}
330
C
100
AcDbDictionary
281
     1
  0
DICTIONARY
  5
6A
102
{ACAD_REACTORS
330
C
102
}
330
C
100
AcDbDictionary
281
     1
  3
Imperial24
350
6B
  0
DICTIONARY
  5
D
102
{ACAD_REACTORS
330
C
102
}
330
C
100
AcDbDictionary
281
     1
  0
DICTIONARY
  5
62
102
{ACAD_REACTORS
330
C
102
}
330
C
100
AcDbDictionary
281
     1
  3
Model
350
73
  3
レイアウト1
350
6F
  3
レイアウト2
350
77
  0
DICTIONARY
  5
10
102
{ACAD_REACTORS
330
C
102
}
330
C
100
AcDbDictionary
281
     1
  3
ByBlock
350
19
  3
ByLayer
350
11
  3
Global
350
21
  0
DICTIONARY
  5
66
102
{ACAD_REACTORS
330
C
102
}
330
C
100
AcDbDictionary
281
     1
  3
Standard
350
67
  0
DICTIONARY
  5
5F
102
{ACAD_REACTORS
330
C
102
}
330
C
100
AcDbDictionary
281
     1
  3
Standard
350
60
  0
DICTIONARY
  5
61
102
{ACAD_REACTORS
330
C
102
}
330
C
100
AcDbDictionary
281
     1
  0
ACDBDICTIONARYWDFLT
  5
E
102
{ACAD_REACTORS
330
C
102
}
330
C
100
AcDbDictionary
281
     1
  3
Normal
350
F
100
AcDbDictionaryWithDefault
340
F
  0
DICTIONARY
  5
42
102
{ACAD_REACTORS
330
C
102
}
330
C
100
AcDbDictionary
281
     1
  3
A0
350
43
  3
A1
350
44
  3
A2
350
45
  3
A3
350
46
  3
A4
350
47
  3
A5
350
48
  3
A6
350
49
  3
A7
350
4A
  3
A8
350
4B
  3
A9
350
4C
  3
B0
350
4D
  3
B1
350
4E
  3
B2
350
4F
  3
B3
350
50
  3
B4
350
51
  3
B5
350
52
  3
B6
350
53
  0
DICTIONARY
  5
68
102
{ACAD_REACTORS
330
C
102
}
330
C
100
AcDbDictionary
281
     1
  3
Imperial24
350
69
  0
DICTIONARY
  5
64
102
{ACAD_REACTORS
330
C
102
}
330
C
100
AcDbDictionary
281
     1
  3
Standard
350
65
  0
DICTIONARY
  5
29
102
{ACAD_REACTORS
330
C
102
}
330
C
100
AcDbDictionary
281
     1
  3
2dWireframe
350
2F
  3
Basic
350
2E
  3
Brighten
350
35
  3
ColorChange
350
39
  3
Conceptual
350
32
  3
Dim
350
34
  3
EdgeColorOff
350
41
  3
Facepattern
350
38
  3
Flat
350
2A
  3
FlatWithEdges
350
2B
  3
Gouraud
350
2C
  3
GouraudWithEdges
350
2D
  3
Hidden
350
31
  3
JitterOff
350
3F
  3
Linepattern
350
37
  3
OverhangOff
350
40
  3
Realistic
350
33
  3
Shaded
350
3E
  3
Shaded with edges
350
3D
  3
Shades of Gray
350
3A
  3
Sketchy
350
3B
  3
Thicken
350
36
  3
Wireframe
350
30
  3
X-Ray
350
3C
  0
XRECORD
  5
327
102
{ACAD_REACTORS
330
C
102
}
330
C
100
AcDbXrecord
280
     1
 90
        1
330
65
330
69
330
6B
  0
DICTIONARY
  5
319
102
{ACAD_REACTORS
330
C
102
}
330
C
100
AcDbDictionary
281
     1
  3
CANNOSCALE
350
31E
  3
CMLEADERSTYLE
350
31B
  3
CTABLESTYLE
350
31A
  3
CVIEWDETAILSTYLE
350
31C
  3
CVIEWSECTIONSTYLE
350
31D
  0
ACDBDETAILVIEWSTYLE
  5
6B
102
{ACAD_XDICTIONARY
360
323
102
}
102
{ACAD_REACTORS
330
6A
102
}
330
6A
100
AcDbModelDocViewStyle
 70
     0
  3
Imperial24
290
     0
100
AcDbDetailViewStyle
 70
     0
 71
     0
 90
        3
 71
     1
340
55
 62
   256
 40
0.24
340
0
 62
   256
 40
0.24
300

 40
0.36
280
     3
 71
     2
340
5D
 90
       25
 62
   256
 71
     3
340
55
 62
   256
 40
0.24
 90
        1
 40
0.75
 90
        1
300
%<\AcVar ViewType \f "%tc1">% %<\AcVar ViewDetailId>%\PSCALE %<\AcVar ViewScale \f "%sn">%
 71
     4
340
5D
 90
       25
 62
   256
340
5D
 90
       25
 62
   256
280
     0
  0
LAYOUT
  5
73
102
{ACAD_REACTORS
330
62
102
}
330
62
100
AcDbPlotSettings
  1

  2

  4

  6

 40
0.0
 41
0.0
 42
0.0
 43
0.0
 44
0.0
 45
0.0
 46
0.0
 47
0.0
 48
0.0
 49
0.0
140
0.0
141
0.0
142
1.0
143
1.0
 70
  1712
 72
     0
 73
     0
 74
     0
  7

 75
     0
147
1.0
 76
     0
 77
     2
 78
   300
148
0.0
149
0.0
100
AcDbLayout
  1
Model
 70
     1
 71
     0
 10
0.0
 20
0.0
 11
12.0
 21
9.0
 12
0.0
 22
0.0
 32
0.0
 14
0.0
 24
0.0
 34
0.0
 15
0.0
 25
0.0
 35
0.0
146
0.0
 13
0.0
 23
0.0
 33
0.0
 16
1.0
 26
0.0
 36
0.0
 17
0.0
 27
1.0
 37
0.0
 76
     0
330
70
  0
LAYOUT
  5
6F
102
{ACAD_REACTORS
330
62
102
}
330
62
100
AcDbPlotSettings
  1

  2

  4

  6

 40
0.0
 41
0.0
 42
0.0
 43
0.0
 44
0.0
 45
0.0
 46
0.0
 47
0.0
 48
0.0
 49
0.0
140
0.0
141
0.0
142
1.0
143
1.0
 70
   688
 72
     0
 73
     0
 74
     5
  7

 75
    16
147
1.0
 76
     0
 77
     2
 78
   300
148
0.0
149
0.0
100
AcDbLayout
  1
レイアウト1
 70
     1
 71
     1
 10
0.0
 20
0.0
 11
12.0
 21
9.0
 12
0.0
 22
0.0
 32
0.0
 14
0.0
 24
0.0
 34
0.0
 15
0.0
 25
0.0
 35
0.0
146
0.0
 13
0.0
 23
0.0
 33
0.0
 16
1.0
 26
0.0
 36
0.0
 17
0.0
 27
1.0
 37
0.0
 76
     0
330
6C
  0
LAYOUT
  5
77
102
{ACAD_REACTORS
330
62
102
}
330
62
100
AcDbPlotSettings
  1

  2

  4

  6

 40
0.0
 41
0.0
 42
0.0
 43
0.0
 44
0.0
 45
0.0
 46
0.0
 47
0.0
 48
0.0
 49
0.0
140
0.0
141
0.0
142
1.0
143
1.0
 70
   688
 72
     0
 73
     0
 74
     5
  7

 75
    16
147
1.0
 76
     0
 77
     2
 78
   300
148
0.0
149
0.0
100
AcDbLayout
  1
レイアウト2
 70
     1
 71
     2
 10
0.0
 20
0.0
 11
12.0
 21
9.0
 12
0.0
 22
0.0
 32
0.0
 14
0.0
 24
0.0
 34
0.0
 15
0.0
 25
0.0
 35
0.0
146
0.0
 13
0.0
 23
0.0
 33
0.0
 16
1.0
 26
0.0
 36
0.0
 17
0.0
 27
1.0
 37
0.0
 76
     0
330
74
  0
MATERIAL
  5
19
102
{ACAD_XDICTIONARY
360
1A
102
}
102
{ACAD_REACTORS
330
10
102
}
330
10
100
AcDbMaterial
  1
ByBlock
 72
     0
 43
0.0208333333333333
 43
0.0
 43
0.0
 43
0.0
 43
0.0
 43
0.0208333333333333
 43
0.0
 43
0.0
 43
0.0
 43
0.0
 43
1.0
 43
0.0
 43
0.0
 43
0.0
 43
0.0
 43
1.0
 77
     0
 47
0.0208333333333333
 47
0.0
 47
0.0
 47
0.0
 47
0.0
 47
0.0208333333333333
 47
0.0
 47
0.0
 47
0.0
 47
0.0
 47
1.0
 47
0.0
 47
0.0
 47
0.0
 47
0.0
 47
1.0
171
     0
 49
0.0208333333333333
 49
0.0
 49
0.0
 49
0.0
 49
0.0
 49
0.0208333333333333
 49
0.0
 49
0.0
 49
0.0
 49
0.0
 49
1.0
 49
0.0
 49
0.0
 49
0.0
 49
0.0
 49
1.0
175
     0
142
0.0208333333333333
142
0.0
142
0.0
142
0.0
142
0.0
142
0.0208333333333333
142
0.0
142
0.0
142
0.0
142
0.0
142
1.0
142
0.0
142
0.0
142
0.0
142
0.0
142
1.0
179
     0
144
0.0208333333333333
144
0.0
144
0.0
144
0.0
144
0.0
144
0.0208333333333333
144
0.0
144
0.0
144
0.0
144
0.0
144
1.0
144
0.0
144
0.0
144
0.0
144
0.0
144
1.0
147
0.0208333333333333
147
0.0
147
0.0
147
0.0
147
0.0
147
0.0208333333333333
147
0.0
147
0.0
147
0.0
147
0.0
147
1.0
147
0.0
147
0.0
147
0.0
147
0.0
147
1.0
  0
MATERIAL
  5
11
102
{ACAD_XDICTIONARY
360
12
102
}
102
{ACAD_REACTORS
330
10
102
}
330
10
100
AcDbMaterial
  1
ByLayer
 72
     0
 43
0.0208333333333333
 43
0.0
 43
0.0
 43
0.0
 43
0.0
 43
0.0208333333333333
 43
0.0
 43
0.0
 43
0.0
 43
0.0
 43
1.0
 43
0.0
 43
0.0
 43
0.0
 43
0.0
 43
1.0
 77
     0
 47
0.0208333333333333
 47
0.0
 47
0.0
 47
0.0
 47
0.0
 47
0.0208333333333333
 47
0.0
 47
0.0
 47
0.0
 47
0.0
 47
1.0
 47
0.0
 47
0.0
 47
0.0
 47
0.0
 47
1.0
171
     0
 49
0.0208333333333333
 49
0.0
 49
0.0
 49
0.0
 49
0.0
 49
0.0208333333333333
 49
0.0
 49
0.0
 49
0.0
 49
0.0
 49
1.0
 49
0.0
 49
0.0
 49
0.0
 49
0.0
 49
1.0
175
     0
142
0.0208333333333333
142
0.0
142
0.0
142
0.0
142
0.0
142
0.0208333333333333
142
0.0
142
0.0
142
0.0
142
0.0
142
1.0
142
0.0
142
0.0
142
0.0
142
0.0
142
1.0
179
     0
144
0.0208333333333333
144
0.0
144
0.0
144
0.0
144
0.0
144
0.0208333333333333
144
0.0
144
0.0
144
0.0
144
0.0
144
1.0
144
0.0
144
0.0
144
0.0
144
0.0
144
1.0
147
0.0208333333333333
147
0.0
147
0.0
147
0.0
147
0.0
147
0.0208333333333333
147
0.0
147
0.0
147
0.0
147
0.0
147
1.0
147
0.0
147
0.0
147
0.0
147
0.0
147
1.0
  0
MATERIAL
  5
21
102
{ACAD_XDICTIONARY
360
22
102
}
102
{ACAD_REACTORS
330
10
102
}
330
10
100
AcDbMaterial
  1
Global
 72
     0
 43
0.0208333333333333
 43
0.0
 43
0.0
 43
0.0
 43
0.0
 43
0.0208333333333333
 43
0.0
 43
0.0
 43
0.0
 43
0.0
 43
1.0
 43
0.0
 43
0.0
 43
0.0
 43
0.0
 43
1.0
 77
     0
 47
0.0208333333333333
 47
0.0
 47
0.0
 47
0.0
 47
0.0
 47
0.0208333333333333
 47
0.0
 47
0.0
 47
0.0
 47
0.0
 47
1.0
 47
0.0
 47
0.0
 47
0.0
 47
0.0
 47
1.0
171
     0
 49
0.0208333333333333
 49
0.0
 49
0.0
 49
0.0
 49
0.0
 49
0.0208333333333333
 49
0.0
 49
0.0
 49
0.0
 49
0.0
 49
1.0
 49
0.0
 49
0.0
 49
0.0
 49
0.0
 49
1.0
175
     0
142
0.0208333333333333
142
0.0
142
0.0
142
0.0
142
0.0
142
0.0208333333333333
142
0.0
142
0.0
142
0.0
142
0.0
142
1.0
142
0.0
142
0.0
142
0.0
142
0.0
142
1.0
179
     0
144
0.0208333333333333
144
0.0
144
0.0
144
0.0
144
0.0
144
0.0208333333333333
144
0.0
144
0.0
144
0.0
144
0.0
144
1.0
144
0.0
144
0.0
144
0.0
144
0.0
144
1.0
147
0.0208333333333333
147
0.0
147
0.0
147
0.0
147
0.0
147
0.0208333333333333
147
0.0
147
0.0
147
0.0
147
0.0
147
1.0
147
0.0
147
0.0
147
0.0
147
0.0
147
1.0
  0
MLEADERSTYLE
  5
67
102
{ACAD_REACTORS
330
66
102
}
330
66
100
AcDbMLeaderStyle
179
     2
170
     2
171
     1
172
     0
 90
        2
 40
0.0
 41
0.0
173
     1
 91
-1056964608
340
5B
 92
       -2
290
     1
 42
0.09
291
     1
 43
0.36
  3
Standard
 44
0.18
300

342
55
174
     1
178
     6
175
     1
176
     0
 93
-1056964608
 45
0.18
292
     0
297
     0
 46
0.18
 94
-1056964608
 47
1.0
 49
1.0
140
1.0
293
     1
141
0.0
294
     1
177
     0
142
1.0
295
     1
296
     0
143
0.125
271
     0
272
     9
273
     9
298
     1
  0
MLINESTYLE
  5
60
102
{ACAD_REACTORS
330
5F
102
}
330
5F
100
AcDbMlineStyle
  2
STANDARD
 70
     0
  3

 62
   256
 51
90.0
 52
90.0
 71
     2
 49
0.5
 62
   256
  6
BYLAYER
 49
-0.5
 62
   256
  6
BYLAYER
  0
ACDBPLACEHOLDER
  5
F
102
{ACAD_REACTORS
330
E
102
}
330
E
  0
SCALE
  5
43
102
{ACAD_REACTORS
330
42
102
}
330
42
100
AcDbScale
 70
     0
300
1:1
140
1.0
141
1.0
290
     1
  0
SCALE
  5
44
102
{ACAD_REACTORS
330
42
102
}
330
42
100
AcDbScale
 70
     0
300
1/128" = 1'-0"
140
0.0078125
141
12.0
290
     0
  0
SCALE
  5
45
102
{ACAD_REACTORS
330
42
102
}
330
42
100
AcDbScale
 70
     0
300
1/64" = 1'-0"
140
0.015625
141
12.0
290
     0
  0
SCALE
  5
46
102
{ACAD_REACTORS
330
42
102
}
330
42
100
AcDbScale
 70
     0
300
1/32" = 1'-0"
140
0.03125
141
12.0
290
     0
  0
SCALE
  5
47
102
{ACAD_REACTORS
330
42
102
}
330
42
100
AcDbScale
 70
     0
300
1/16" = 1'-0"
140
0.0625
141
12.0
290
     0
  0
SCALE
  5
48
102
{ACAD_REACTORS
330
42
102
}
330
42
100
AcDbScale
 70
     0
300
3/32" = 1'-0"
140
0.09375
141
12.0
290
     0
  0
SCALE
  5
49
102
{ACAD_REACTORS
330
42
102
}
330
42
100
AcDbScale
 70
     0
300
1/8" = 1'-0"
140
0.125
141
12.0
290
     0
  0
SCALE
  5
4A
102
{ACAD_REACTORS
330
42
102
}
330
42
100
AcDbScale
 70
     0
300
3/16" = 1'-0"
140
0.1875
141
12.0
290
     0
  0
SCALE
  5
4B
102
{ACAD_REACTORS
330
42
102
}
330
42
100
AcDbScale
 70
     0
300
1/4" = 1'-0"
140
0.25
141
12.0
290
     0
  0
SCALE
  5
4C
102
{ACAD_REACTORS
330
42
102
}
330
42
100
AcDbScale
 70
     0
300
3/8" = 1'-0"
140
0.375
141
12.0
290
     0
  0
SCALE
  5
4D
102
{ACAD_REACTORS
330
42
102
}
330
42
100
AcDbScale
 70
     0
300
1/2" = 1'-0"
140
0.5
141
12.0
290
     0
  0
SCALE
  5
4E
102
{ACAD_REACTORS
330
42
102
}
330
42
100
AcDbScale
 70
     0
300
3/4" = 1'-0"
140
0.75
141
12.0
290
     0
  0
SCALE
  5
4F
102
{ACAD_REACTORS
330
42
102
}
330
42
100
AcDbScale
 70
     0
300
1" = 1'-0"
140
1.0
141
12.0
290
     0
  0
SCALE
  5
50
102
{ACAD_REACTORS
330
42
102
}
330
42
100
AcDbScale
 70
     0
300
1-1/2" = 1'-0"
140
1.5
141
12.0
290
     0
  0
SCALE
  5
51
102
{ACAD_REACTORS
330
42
102
}
330
42
100
AcDbScale
 70
     0
300
3" = 1'-0"
140
3.0
141
12.0
290
     0
  0
SCALE
  5
52
102
{ACAD_REACTORS
330
42
102
}
330
42
100
AcDbScale
 70
     0
300
6" = 1'-0"
140
6.0
141
12.0
290
     0
  0
SCALE
  5
53
102
{ACAD_REACTORS
330
42
102
}
330
42
100
AcDbScale
 70
     0
300
1'-0" = 1'-0"
140
12.0
141
12.0
290
     0
  0
ACDBSECTIONVIEWSTYLE
  5
69
102
{ACAD_XDICTIONARY
360
321
102
}
102
{ACAD_REACTORS
330
68
102
}
330
68
100
AcDbModelDocViewStyle
 70
     0
  3
Imperial24
290
     0
100
AcDbSectionViewStyle
 70
     0
 71
     0
 90
       78
 71
     1
340
55
 62
   256
 40
0.24
340
0
340
0
 62
   256
 40
0.24
300
I, O, Q, S, X, Z
 40
0.48
 90
        3
 40
0.18
 90
        1
 71
     2
340
5D
 90
       25
 62
   256
340
5D
 90
       50
 62
   256
 40
0.24
 40
0.0
 40
0.24
 71
     3
340
55
 62
   256
 40
0.24
 90
        1
 40
0.75
 90
        1
300
%<\AcVar ViewType \f "%tc1">% %<\AcVar ViewSectionStartId>%-%<\AcVar ViewSectionEndId>%\PSCALE %<\AcVar ViewScale \f "%sn">%
 71
     4
 62
   256
 62
   257
300
ANSI31
 40
1.0
 90
        0
290
     0
290
     0
 90
        6
 40
0.0
 40
1.570796326794896
 40
0.2617993877991494
 40
1.308996938995747
 40
-0.2617993877991494
 40
1.832595714594046
  0
TABLESTYLE
  5
65
102
{ACAD_XDICTIONARY
360
31F
102
}
102
{ACAD_REACTORS
330
64
102
}
330
64
100
AcDbTableStyle
280
     0
  3
Standard
 70
     0
 71
     0
 40
0.06
 41
0.06
280
     0
281
     0
  7
Standard
140
0.18
170
     2
 62
     0
 63
     7
283
     0
 90
      512
 91
        0
  1

274
    -2
284
     1
 64
     0
275
    -2
285
     1
 65
     0
276
    -2
286
     1
 66
     0
277
    -2
287
     1
 67
     0
278
    -2
288
     1
 68
     0
279
    -2
289
     1
 69
     0
  7
Standard
140
0.25
170
     5
 62
     0
 63
     7
283
     0
 90
      512
 91
        0
  1

274
    -2
284
     1
 64
     0
275
    -2
285
     1
 65
     0
276
    -2
286
     1
 66
     0
277
    -2
287
     1
 67
     0
278
    -2
288
     1
 68
     0
279
    -2
289
     1
 69
     0
  7
Standard
140
0.18
170
     5
 62
     0
 63
     7
283
     0
 90
      512
 91
        0
  1

274
    -2
284
     1
 64
     0
275
    -2
285
     1
 65
     0
276
    -2
286
     1
 66
     0
277
    -2
287
     1
 67
     0
278
    -2
288
     1
 68
     0
279
    -2
289
     1
 69
     0
  0
VISUALSTYLE
  5
2F
102
{ACAD_REACTORS
330
29
102
}
330
29
100
AcDbVisualStyle
  2
2dWireframe
 70
     4
177
     3
291
     0
 70
    58
 90
        0
176
     1
 90
        2
176
     1
 90
        0
176
     1
 90
        0
176
     1
 40
0.6
176
     1
 40
30.0
176
     1
 62
     7
420
 16777215
176
     1
 90
        1
176
     1
 90
        4
176
     1
 62
     7
176
     1
 62
   257
176
     1
 90
        1
176
     1
 90
        1
176
     1
 40
1.0
176
     1
 90
        0
176
     1
 62
   257
176
     1
 40
1.0
176
     1
 90
        1
176
     1
 90
        6
176
     1
 90
        2
176
     1
 62
     7
176
     1
 90
        5
176
     1
 90
        0
176
     1
 90
        0
176
     1
290
     0
176
     1
 90
        1
176
     1
 40
0.0
176
     1
 90
        0
176
     1
290
     1
176
     1
290
     1
176
     1
290
     0
176
     1
290
     0
176
     1
290
     0
176
     1
290
     0
176
     1
290
     0
176
     1
290
     0
176
     1
290
     0
176
     1
 90
       50
176
     1
 40
0.0
176
     1
 40
1.0
176
     1
 90
        0
176
     1
 62
    18
420
        0
176
     1
 90
       50
176
     1
 90
        3
176
     1
 62
     5
420
      255
176
     1
290
     0
176
     1
 90
       50
176
     1
 90
       50
176
     1
 90
       50
176
     1
290
     0
176
     1
 90
       50
176
     1
 62
   256
176
     0
 40
1.0
176
     0
 90
        2
176
     1
  1
strokes_ogs.tif
176
     1
290
     0
176
     1
 40
1.0
176
     1
 40
1.0
176
     1
  0
VISUALSTYLE
  5
2E
102
{ACAD_REACTORS
330
29
102
}
330
29
100
AcDbVisualStyle
  2
Basic
 70
     7
177
     3
291
     1
 70
    58
 90
        1
176
     1
 90
        0
176
     1
 90
        1
176
     1
 90
        0
176
     1
 40
0.6
176
     1
 40
30.0
176
     1
 62
     7
420
 16777215
176
     1
 90
        0
176
     1
 90
        4
176
     1
 62
     7
176
     1
 62
   257
176
     1
 90
        1
176
     1
 90
        1
176
     1
 40
1.0
176
     1
 90
        8
176
     1
 62
     7
176
     1
 40
1.0
176
     1
 90
        1
176
     1
 90
        6
176
     1
 90
        2
176
     1
 62
     7
176
     1
 90
        5
176
     1
 90
        0
176
     1
 90
        0
176
     1
290
     0
176
     1
 90
        1
176
     1
 40
0.0
176
     1
 90
        0
176
     1
290
     0
176
     1
290
     1
176
     1
290
     1
176
     1
290
     0
176
     1
290
     0
176
     1
290
     0
176
     1
290
     0
176
     1
290
     0
176
     1
290
     0
176
     1
 90
       50
176
     1
 40
0.0
176
     1
 40
1.0
176
     1
 90
        0
176
     1
 62
    18
420
        0
176
     1
 90
       50
176
     1
 90
        3
176
     1
 62
     5
420
      255
176
     1
290
     0
176
     1
 90
       50
176
     1
 90
       50
176
     1
 90
       50
176
     1
290
     0
176
     1
 90
       50
176
     1
 62
   256
176
     0
 40
1.0
176
     0
 90
        2
176
     1
  1
strokes_ogs.tif
176
     1
290
     0
176
     1
 40
1.0
176
     1
 40
1.0
176
     1
  0
VISUALSTYLE
  5
35
102
{ACAD_REACTORS
330
29
102
}
330
29
100
AcDbVisualStyle
  2
Brighten
 70
    12
177
     3
291
     1
 70
    58
 90
        2
176
     1
 90
        2
176
     1
 90
        0
176
     1
 90
        0
176
     1
 40
0.6
176
     1
 40
30.0
176
     1
 62
     7
420
 16777215
176
     1
 90
        1
176
     1
 90
        4
176
     1
 62
     7
176
     1
 62
   257
176
     1
 90
        1
176
     1
 90
        1
176
     1
 40
1.0
176
     1
 90
        8
176
     1
 62
     7
176
     1
 40
1.0
176
     1
 90
        1
176
     1
 90
        6
176
     1
 90
        2
176
     1
 62
     7
176
     1
 90
        5
176
     1
 90
        0
176
     1
 90
        0
176
     1
290
     0
176
     1
 90
        1
176
     1
 40
50.0
176
     1
 90
        0
176
     1
290
     0
176
     1
290
     1
176
     1
290
     1
176
     1
290
     0
176
     1
290
     0
176
     1
290
     0
176
     1
290
     0
176
     1
290
     0
176
     1
290
     0
176
     1
 90
       50
176
     1
 40
0.0
176
     1
 40
1.0
176
     1
 90
        0
176
     1
 62
    18
420
        0
176
     1
 90
       50
176
     1
 90
        3
176
     1
 62
     5
420
      255
176
     1
290
     0
176
     1
 90
       50
176
     1
 90
       50
176
     1
 90
       50
176
     1
290
     0
176
     1
 90
       50
176
     1
 62
   256
176
     0
 40
1.0
176
     0
 90
        2
176
     1
  1
strokes_ogs.tif
176
     1
290
     0
176
     1
 40
1.0
176
     1
 40
1.0
176
     1
  0
VISUALSTYLE
  5
39
102
{ACAD_REACTORS
330
29
102
}
330
29
100
AcDbVisualStyle
  2
ColorChange
 70
    16
177
     3
291
     1
 70
    58
 90
        2
176
     1
 90
        2
176
     1
 90
        3
176
     1
 90
        0
176
     1
 40
0.6
176
     1
 40
30.0
176
     1
 62
     8
420
  8421504
176
     1
 90
        1
176
     1
 90
        4
176
     1
 62
     7
176
     1
 62
   257
176
     1
 90
        1
176
     1
 90
        1
176
     1
 40
1.0
176
     1
 90
        8
176
     1
 62
     8
420
  8421504
176
     1
 40
1.0
176
     1
 90
        1
176
     1
 90
        6
176
     1
 90
        2
176
     1
 62
     7
176
     1
 90
        5
176
     1
 90
        0
176
     1
 90
        0
176
     1
290
     0
176
     1
 90
        1
176
     1
 40
0.0
176
     1
 90
        0
176
     1
290
     0
176
     1
290
     1
176
     1
290
     1
176
     1
290
     0
176
     1
290
     0
176
     1
290
     0
176
     1
290
     0
176
     1
290
     0
176
     1
290
     0
176
     1
 90
       50
176
     1
 40
0.0
176
     1
 40
1.0
176
     1
 90
        0
176
     1
 62
    18
420
        0
176
     1
 90
       50
176
     1
 90
        3
176
     1
 62
     5
420
      255
176
     1
290
     0
176
     1
 90
       50
176
     1
 90
       50
176
     1
 90
       50
176
     1
290
     0
176
     1
 90
       50
176
     1
 62
   256
176
     0
 40
1.0
176
     0
 90
        2
176
     1
  1
strokes_ogs.tif
176
     1
290
     0
176
     1
 40
1.0
176
     1
 40
1.0
176
     1
  0
VISUALSTYLE
  5
32
102
{ACAD_REACTORS
330
29
102
}
330
29
100
AcDbVisualStyle
  2
Conceptual
 70
     9
177
     3
291
     0
 70
    58
 90
        3
176
     1
 90
        2
176
     1
 90
        0
176
     1
 90
        0
176
     1
 40
0.6
176
     1
 40
30.0
176
     1
 62
     7
420
 16777215
176
     1
 90
        2
176
     1
 90
        2
176
     1
 62
     7
176
     1
 62
   257
176
     1
 90
        1
176
     1
 90
        1
176
     1
 40
179.0
176
     1
 90
        8
176
     1
 62
     7
176
     1
 40
1.0
176
     1
 90
        1
176
     1
 90
        6
176
     1
 90
        2
176
     1
 62
     7
176
     1
 90
        3
176
     1
 90
        0
176
     1
 90
        0
176
     1
290
     0
176
     1
 90
        1
176
     1
 40
0.0
176
     1
 90
        0
176
     1
290
     0
176
     1
290
     1
176
     1
290
     1
176
     1
290
     0
176
     1
290
     0
176
     1
290
     0
176
     1
290
     0
176
     1
290
     0
176
     1
290
     0
176
     1
 90
       50
176
     1
 40
0.0
176
     1
 40
1.0
176
     1
 90
        0
176
     1
 62
    18
420
        0
176
     1
 90
       50
176
     1
 90
        3
176
     1
 62
     5
420
      255
176
     1
290
     0
176
     1
 90
       50
176
     1
 90
       50
176
     1
 90
       50
176
     1
290
     0
176
     1
 90
       50
176
     1
 62
   256
176
     0
 40
1.0
176
     0
 90
        2
176
     1
  1
strokes_ogs.tif
176
     1
290
     0
176
     1
 40
1.0
176
     1
 40
1.0
176
     1
  0
VISUALSTYLE
  5
34
102
{ACAD_REACTORS
330
29
102
}
330
29
100
AcDbVisualStyle
  2
Dim
 70
    11
177
     3
291
     1
 70
    58
 90
        2
176
     1
 90
        2
176
     1
 90
        0
176
     1
 90
        0
176
     1
 40
0.6
176
     1
 40
30.0
176
     1
 62
     7
420
 16777215
176
     1
 90
        1
176
     1
 90
        4
176
     1
 62
     7
176
     1
 62
   257
176
     1
 90
        1
176
     1
 90
        1
176
     1
 40
1.0
176
     1
 90
        8
176
     1
 62
     7
176
     1
 40
1.0
176
     1
 90
        1
176
     1
 90
        6
176
     1
 90
        2
176
     1
 62
     7
176
     1
 90
        5
176
     1
 90
        0
176
     1
 90
        0
176
     1
290
     0
176
     1
 90
        1
176
     1
 40
-50.0
176
     1
 90
        0
176
     1
290
     0
176
     1
290
     1
176
     1
290
     1
176
     1
290
     0
176
     1
290
     0
176
     1
290
     0
176
     1
290
     0
176
     1
290
     0
176
     1
290
     0
176
     1
 90
       50
176
     1
 40
0.0
176
     1
 40
1.0
176
     1
 90
        0
176
     1
 62
    18
420
        0
176
     1
 90
       50
176
     1
 90
        3
176
     1
 62
     5
420
      255
176
     1
290
     0
176
     1
 90
       50
176
     1
 90
       50
176
     1
 90
       50
176
     1
290
     0
176
     1
 90
       50
176
     1
 62
   256
176
     0
 40
1.0
176
     0
 90
        2
176
     1
  1
strokes_ogs.tif
176
     1
290
     0
176
     1
 40
1.0
176
     1
 40
1.0
176
     1
  0
VISUALSTYLE
  5
41
102
{ACAD_REACTORS
330
29
102
}
330
29
100
AcDbVisualStyle
  2
EdgeColorOff
 70
    22
177
     3
291
     1
 70
    58
 90
        2
176
     0
 90
        2
176
     0
 90
        0
176
     0
 90
        0
176
     0
 40
0.6
176
     0
 40
30.0
176
     0
 62
     7
420
 16777215
176
     0
 90
        1
176
     0
 90
        4
176
     0
 62
     7
176
     0
 62
   257
176
     0
 90
        1
176
     0
 90
        1
176
     0
 40
1.0
176
     0
 90
        8
176
     2
 62
     7
176
     0
 40
1.0
176
     0
 90
        1
176
     0
 90
        6
176
     0
 90
        2
176
     0
 62
     7
176
     0
 90
        5
176
     0
 90
        0
176
     0
 90
        0
176
     0
290
     0
176
     0
 90
        1
176
     0
 40
0.0
176
     0
 90
        0
176
     0
290
     0
176
     0
290
     1
176
     0
290
     1
176
     0
290
     0
176
     0
290
     0
176
     0
290
     0
176
     0
290
     0
176
     0
290
     0
176
     0
290
     0
176
     0
 90
       50
176
     0
 40
0.0
176
     0
 40
1.0
176
     0
 90
        0
176
     0
 62
    18
420
        0
176
     0
 90
       50
176
     0
 90
        3
176
     0
 62
     5
420
      255
176
     0
290
     0
176
     0
 90
       50
176
     0
 90
       50
176
     0
 90
       50
176
     0
290
     0
176
     0
 90
       50
176
     0
 62
   256
176
     0
 40
1.0
176
     0
 90
        2
176
     0
  1
strokes_ogs.tif
176
     0
290
     0
176
     0
 40
1.0
176
     0
 40
1.0
176
     0
  0
VISUALSTYLE
  5
38
102
{ACAD_REACTORS
330
29
102
}
330
29
100
AcDbVisualStyle
  2
Facepattern
 70
    15
177
     3
291
     1
 70
    58
 90
        2
176
     1
 90
        2
176
     1
 90
        0
176
     1
 90
        0
176
     1
 40
0.6
176
     1
 40
30.0
176
     1
 62
     7
420
 16777215
176
     1
 90
        1
176
     1
 90
        4
176
     1
 62
     7
176
     1
 62
   257
176
     1
 90
        1
176
     1
 90
        1
176
     1
 40
1.0
176
     1
 90
        8
176
     1
 62
     7
176
     1
 40
1.0
176
     1
 90
        1
176
     1
 90
        6
176
     1
 90
        2
176
     1
 62
     7
176
     1
 90
        5
176
     1
 90
        0
176
     1
 90
        0
176
     1
290
     0
176
     1
 90
        1
176
     1
 40
0.0
176
     1
 90
        0
176
     1
290
     0
176
     1
290
     1
176
     1
290
     1
176
     1
290
     0
176
     1
290
     0
176
     1
290
     0
176
     1
290
     0
176
     1
290
     0
176
     1
290
     0
176
     1
 90
       50
176
     1
 40
0.0
176
     1
 40
1.0
176
     1
 90
        0
176
     1
 62
    18
420
        0
176
     1
 90
       50
176
     1
 90
        3
176
     1
 62
     5
420
      255
176
     1
290
     0
176
     1
 90
       50
176
     1
 90
       50
176
     1
 90
       50
176
     1
290
     0
176
     1
 90
       50
176
     1
 62
   256
176
     0
 40
1.0
176
     0
 90
        2
176
     1
  1
strokes_ogs.tif
176
     1
290
     0
176
     1
 40
1.0
176
     1
 40
1.0
176
     1
  0
VISUALSTYLE
  5
2A
102
{ACAD_REACTORS
330
29
102
}
330
29
100
AcDbVisualStyle
  2
Flat
 70
     0
177
     3
291
     1
 70
    58
 90
        2
176
     1
 90
        1
176
     1
 90
        1
176
     1
 90
        2
176
     1
 40
0.6
176
     1
 40
30.0
176
     1
 62
     7
420
 16777215
176
     1
 90
        0
176
     1
 90
        0
176
     1
 62
     7
176
     1
 62
   257
176
     1
 90
        1
176
     1
 90
        1
176
     1
 40
1.0
176
     1
 90
        8
176
     1
 62
     7
176
     1
 40
1.0
176
     1
 90
        1
176
     1
 90
        6
176
     1
 90
        2
176
     1
 62
     7
176
     1
 90
        5
176
     1
 90
        0
176
     1
 90
        0
176
     1
290
     0
176
     1
 90
       13
176
     1
 40
0.0
176
     1
 90
        0
176
     1
290
     0
176
     1
290
     1
176
     1
290
     1
176
     1
290
     0
176
     1
290
     0
176
     1
290
     0
176
     1
290
     0
176
     1
290
     0
176
     1
290
     0
176
     1
 90
       50
176
     1
 40
0.0
176
     1
 40
1.0
176
     1
 90
        0
176
     1
 62
    18
420
        0
176
     1
 90
       50
176
     1
 90
        3
176
     1
 62
     5
420
      255
176
     1
290
     0
176
     1
 90
       50
176
     1
 90
       50
176
     1
 90
       50
176
     1
290
     0
176
     1
 90
       50
176
     1
 62
   256
176
     0
 40
1.0
176
     0
 90
        2
176
     1
  1
strokes_ogs.tif
176
     1
290
     0
176
     1
 40
1.0
176
     1
 40
1.0
176
     1
  0
VISUALSTYLE
  5
2B
102
{ACAD_REACTORS
330
29
102
}
330
29
100
AcDbVisualStyle
  2
FlatWithEdges
 70
     1
177
     3
291
     1
 70
    58
 90
        2
176
     1
 90
        1
176
     1
 90
        1
176
     1
 90
        2
176
     1
 40
0.6
176
     1
 40
30.0
176
     1
 62
     7
420
 16777215
176
     1
 90
        1
176
     1
 90
        0
176
     1
 62
     7
176
     1
 62
   257
176
     1
 90
        1
176
     1
 90
        1
176
     1
 40
1.0
176
     1
 90
        0
176
     1
 62
   257
176
     1
 40
1.0
176
     1
 90
        1
176
     1
 90
        6
176
     1
 90
        2
176
     1
 62
     7
176
     1
 90
        5
176
     1
 90
        0
176
     1
 90
        0
176
     1
290
     0
176
     1
 90
       13
176
     1
 40
0.0
176
     1
 90
        0
176
     1
290
     0
176
     1
290
     1
176
     1
290
     1
176
     1
290
     0
176
     1
290
     0
176
     1
290
     0
176
     1
290
     0
176
     1
290
     0
176
     1
290
     0
176
     1
 90
       50
176
     1
 40
0.0
176
     1
 40
1.0
176
     1
 90
        0
176
     1
 62
    18
420
        0
176
     1
 90
       50
176
     1
 90
        3
176
     1
 62
     5
420
      255
176
     1
290
     0
176
     1
 90
       50
176
     1
 90
       50
176
     1
 90
       50
176
     1
290
     0
176
     1
 90
       50
176
     1
 62
   256
176
     0
 40
1.0
176
     0
 90
        2
176
     1
  1
strokes_ogs.tif
176
     1
290
     0
176
     1
 40
1.0
176
     1
 40
1.0
176
     1
  0
VISUALSTYLE
  5
2C
102
{ACAD_REACTORS
330
29
102
}
330
29
100
AcDbVisualStyle
  2
Gouraud
 70
     2
177
     3
291
     1
 70
    58
 90
        2
176
     1
 90
        2
176
     1
 90
        1
176
     1
 90
        2
176
     1
 40
0.6
176
     1
 40
30.0
176
     1
 62
     7
420
 16777215
176
     1
 90
        0
176
     1
 90
        0
176
     1
 62
     7
176
     1
 62
   257
176
     1
 90
        1
176
     1
 90
        1
176
     1
 40
1.0
176
     1
 90
        0
176
     1
 62
     7
176
     1
 40
1.0
176
     1
 90
        1
176
     1
 90
        6
176
     1
 90
        2
176
     1
 62
     7
176
     1
 90
        5
176
     1
 90
        0
176
     1
 90
        0
176
     1
290
     0
176
     1
 90
       13
176
     1
 40
0.0
176
     1
 90
        0
176
     1
290
     0
176
     1
290
     1
176
     1
290
     1
176
     1
290
     0
176
     1
290
     0
176
     1
290
     0
176
     1
290
     0
176
     1
290
     0
176
     1
290
     0
176
     1
 90
       50
176
     1
 40
0.0
176
     1
 40
1.0
176
     1
 90
        0
176
     1
 62
    18
420
        0
176
     1
 90
       50
176
     1
 90
        3
176
     1
 62
     5
420
      255
176
     1
290
     0
176
     1
 90
       50
176
     1
 90
       50
176
     1
 90
       50
176
     1
290
     0
176
     1
 90
       50
176
     1
 62
   256
176
     0
 40
1.0
176
     0
 90
        2
176
     1
  1
strokes_ogs.tif
176
     1
290
     0
176
     1
 40
1.0
176
     1
 40
1.0
176
     1
  0
VISUALSTYLE
  5
2D
102
{ACAD_REACTORS
330
29
102
}
330
29
100
AcDbVisualStyle
  2
GouraudWithEdges
 70
     3
177
     3
291
     1
 70
    58
 90
        2
176
     1
 90
        2
176
     1
 90
        1
176
     1
 90
        2
176
     1
 40
0.6
176
     1
 40
30.0
176
     1
 62
     7
420
 16777215
176
     1
 90
        1
176
     1
 90
        0
176
     1
 62
     7
176
     1
 62
   257
176
     1
 90
        1
176
     1
 90
        1
176
     1
 40
1.0
176
     1
 90
        0
176
     1
 62
   257
176
     1
 40
1.0
176
     1
 90
        1
176
     1
 90
        6
176
     1
 90
        2
176
     1
 62
     7
176
     1
 90
        5
176
     1
 90
        0
176
     1
 90
        0
176
     1
290
     0
176
     1
 90
       13
176
     1
 40
0.0
176
     1
 90
        0
176
     1
290
     0
176
     1
290
     1
176
     1
290
     1
176
     1
290
     0
176
     1
290
     0
176
     1
290
     0
176
     1
290
     0
176
     1
290
     0
176
     1
290
     0
176
     1
 90
       50
176
     1
 40
0.0
176
     1
 40
1.0
176
     1
 90
        0
176
     1
 62
    18
420
        0
176
     1
 90
       50
176
     1
 90
        3
176
     1
 62
     5
420
      255
176
     1
290
     0
176
     1
 90
       50
176
     1
 90
       50
176
     1
 90
       50
176
     1
290
     0
176
     1
 90
       50
176
     1
 62
   256
176
     0
 40
1.0
176
     0
 90
        2
176
     1
  1
strokes_ogs.tif
176
     1
290
     0
176
     1
 40
1.0
176
     1
 40
1.0
176
     1
  0
VISUALSTYLE
  5
31
102
{ACAD_REACTORS
330
29
102
}
330
29
100
AcDbVisualStyle
  2
Hidden
 70
     6
177
     3
291
     0
 70
    58
 90
        1
176
     1
 90
        2
176
     1
 90
        2
176
     1
 90
        0
176
     1
 40
0.6
176
     1
 40
30.0
176
     1
 62
     7
420
 16777215
176
     1
 90
        2
176
     1
 90
        2
176
     1
 62
     7
176
     1
 62
   257
176
     1
 90
        2
176
     1
 90
        1
176
     1
 40
40.0
176
     1
 90
        0
176
     1
 62
   257
176
     1
 40
1.0
176
     1
 90
        1
176
     1
 90
        6
176
     1
 90
        2
176
     1
 62
     7
176
     1
 90
        3
176
     1
 90
        0
176
     1
 90
        0
176
     1
290
     0
176
     1
 90
        1
176
     1
 40
0.0
176
     1
 90
        0
176
     1
290
     0
176
     1
290
     1
176
     1
290
     1
176
     1
290
     0
176
     1
290
     0
176
     1
290
     0
176
     1
290
     0
176
     1
290
     0
176
     1
290
     0
176
     1
 90
       50
176
     1
 40
0.0
176
     1
 40
1.0
176
     1
 90
        0
176
     1
 62
    18
420
        0
176
     1
 90
       50
176
     1
 90
        3
176
     1
 62
     5
420
      255
176
     1
290
     0
176
     1
 90
       50
176
     1
 90
       50
176
     1
 90
       50
176
     1
290
     0
176
     1
 90
       50
176
     1
 62
   256
176
     0
 40
1.0
176
     0
 90
        2
176
     1
  1
strokes_ogs.tif
176
     1
290
     0
176
     1
 40
1.0
176
     1
 40
1.0
176
     1
  0
VISUALSTYLE
  5
3F
102
{ACAD_REACTORS
330
29
102
}
330
29
100
AcDbVisualStyle
  2
JitterOff
 70
    20
177
     3
291
     1
 70
    58
 90
        2
176
     0
 90
        2
176
     0
 90
        0
176
     0
 90
        0
176
     0
 40
0.6
176
     0
 40
30.0
176
     0
 62
     7
420
 16777215
176
     0
 90
        1
176
     0
 90
        4
176
     0
 62
     7
176
     0
 62
   257
176
     0
 90
        1
176
     0
 90
        1
176
     0
 40
1.0
176
     0
 90
       10
176
     2
 62
     7
176
     0
 40
1.0
176
     0
 90
        1
176
     0
 90
        6
176
     0
 90
        2
176
     0
 62
     7
176
     0
 90
        5
176
     0
 90
        0
176
     0
 90
        0
176
     0
290
     0
176
     0
 90
        1
176
     0
 40
0.0
176
     0
 90
        0
176
     0
290
     0
176
     0
290
     1
176
     0
290
     1
176
     0
290
     0
176
     0
290
     0
176
     0
290
     0
176
     0
290
     0
176
     0
290
     0
176
     0
290
     0
176
     0
 90
       50
176
     0
 40
0.0
176
     0
 40
1.0
176
     0
 90
        0
176
     0
 62
    18
420
        0
176
     0
 90
       50
176
     0
 90
        3
176
     0
 62
     5
420
      255
176
     0
290
     0
176
     0
 90
       50
176
     0
 90
       50
176
     0
 90
       50
176
     0
290
     0
176
     0
 90
       50
176
     0
 62
   256
176
     0
 40
1.0
176
     0
 90
        2
176
     0
  1
strokes_ogs.tif
176
     0
290
     0
176
     0
 40
1.0
176
     0
 40
1.0
176
     0
  0
VISUALSTYLE
  5
37
102
{ACAD_REACTORS
330
29
102
}
330
29
100
AcDbVisualStyle
  2
Linepattern
 70
    14
177
     3
291
     1
 70
    58
 90
        2
176
     1
 90
        2
176
     1
 90
        0
176
     1
 90
        0
176
     1
 40
0.6
176
     1
 40
30.0
176
     1
 62
     7
420
 16777215
176
     1
 90
        1
176
     1
 90
        4
176
     1
 62
     7
176
     1
 62
   257
176
     1
 90
        7
176
     1
 90
        7
176
     1
 40
1.0
176
     1
 90
        8
176
     1
 62
     7
176
     1
 40
1.0
176
     1
 90
        1
176
     1
 90
        6
176
     1
 90
        2
176
     1
 62
     7
176
     1
 90
        5
176
     1
 90
        0
176
     1
 90
        0
176
     1
290
     0
176
     1
 90
        1
176
     1
 40
0.0
176
     1
 90
        0
176
     1
290
     0
176
     1
290
     1
176
     1
290
     1
176
     1
290
     0
176
     1
290
     0
176
     1
290
     0
176
     1
290
     0
176
     1
290
     0
176
     1
290
     0
176
     1
 90
       50
176
     1
 40
0.0
176
     1
 40
1.0
176
     1
 90
        0
176
     1
 62
    18
420
        0
176
     1
 90
       50
176
     1
 90
        3
176
     1
 62
     5
420
      255
176
     1
290
     0
176
     1
 90
       50
176
     1
 90
       50
176
     1
 90
       50
176
     1
290
     0
176
     1
 90
       50
176
     1
 62
   256
176
     0
 40
1.0
176
     0
 90
        2
176
     1
  1
strokes_ogs.tif
176
     1
290
     0
176
     1
 40
1.0
176
     1
 40
1.0
176
     1
  0
VISUALSTYLE
  5
40
102
{ACAD_REACTORS
330
29
102
}
330
29
100
AcDbVisualStyle
  2
OverhangOff
 70
    21
177
     3
291
     1
 70
    58
 90
        2
176
     0
 90
        2
176
     0
 90
        0
176
     0
 90
        0
176
     0
 40
0.6
176
     0
 40
30.0
176
     0
 62
     7
420
 16777215
176
     0
 90
        1
176
     0
 90
        4
176
     0
 62
     7
176
     0
 62
   257
176
     0
 90
        1
176
     0
 90
        1
176
     0
 40
1.0
176
     0
 90
        9
176
     2
 62
     7
176
     0
 40
1.0
176
     0
 90
        1
176
     0
 90
        6
176
     0
 90
        2
176
     0
 62
     7
176
     0
 90
        5
176
     0
 90
        0
176
     0
 90
        0
176
     0
290
     0
176
     0
 90
        1
176
     0
 40
0.0
176
     0
 90
        0
176
     0
290
     0
176
     0
290
     1
176
     0
290
     1
176
     0
290
     0
176
     0
290
     0
176
     0
290
     0
176
     0
290
     0
176
     0
290
     0
176
     0
290
     0
176
     0
 90
       50
176
     0
 40
0.0
176
     0
 40
1.0
176
     0
 90
        0
176
     0
 62
    18
420
        0
176
     0
 90
       50
176
     0
 90
        3
176
     0
 62
     5
420
      255
176
     0
290
     0
176
     0
 90
       50
176
     0
 90
       50
176
     0
 90
       50
176
     0
290
     0
176
     0
 90
       50
176
     0
 62
   256
176
     0
 40
1.0
176
     0
 90
        2
176
     0
  1
strokes_ogs.tif
176
     0
290
     0
176
     0
 40
1.0
176
     0
 40
1.0
176
     0
  0
VISUALSTYLE
  5
33
102
{ACAD_REACTORS
330
29
102
}
330
29
100
AcDbVisualStyle
  2
Realistic
 70
     8
177
     3
291
     0
 70
    58
 90
        2
176
     1
 90
        3
176
     1
 90
        0
176
     1
 90
        2
176
     1
 40
0.6
176
     1
 40
30.0
176
     1
 62
     7
420
 16777215
176
     1
 90
        0
176
     1
 90
        0
176
     1
 62
     7
176
     1
 62
   257
176
     1
 90
        1
176
     1
 90
        1
176
     1
 40
1.0
176
     1
 90
        8
176
     1
 62
   257
176
     1
 40
1.0
176
     1
 90
        1
176
     1
 90
        6
176
     1
 90
        2
176
     1
 62
     7
176
     1
 90
        3
176
     1
 90
        0
176
     1
 90
        0
176
     1
290
     0
176
     1
 90
       13
176
     1
 40
0.0
176
     1
 90
        0
176
     1
290
     0
176
     1
290
     1
176
     1
290
     1
176
     1
290
     0
176
     1
290
     0
176
     1
290
     0
176
     1
290
     0
176
     1
290
     0
176
     1
290
     0
176
     1
 90
       50
176
     1
 40
0.0
176
     1
 40
1.0
176
     1
 90
        0
176
     1
 62
    18
420
        0
176
     1
 90
       50
176
     1
 90
        3
176
     1
 62
     5
420
      255
176
     1
290
     0
176
     1
 90
       50
176
     1
 90
       50
176
     1
 90
       50
176
     1
290
     0
176
     1
 90
       50
176
     1
 62
   256
176
     0
 40
1.0
176
     0
 90
        2
176
     1
  1
strokes_ogs.tif
176
     1
290
     0
176
     1
 40
1.0
176
     1
 40
1.0
176
     1
  0
VISUALSTYLE
  5
3E
102
{ACAD_REACTORS
330
29
102
}
330
29
100
AcDbVisualStyle
  2
Shaded
 70
    27
177
     3
291
     0
 70
    58
 90
        2
176
     1
 90
        2
176
     1
 90
        1
176
     1
 90
        2
176
     1
 40
0.6
176
     1
 40
30.0
176
     1
 62
     7
420
 16777215
176
     1
 90
        0
176
     1
 90
        4
176
     1
 62
     7
176
     1
 62
   257
176
     1
 90
        1
176
     1
 90
        1
176
     1
 40
1.0
176
     1
 90
        8
176
     1
 62
   257
176
     1
 40
1.0
176
     1
 90
        1
176
     1
 90
        6
176
     1
 90
        2
176
     1
 62
     8
420
  7895160
176
     1
 90
        3
176
     1
 90
        0
176
     1
 90
        0
176
     1
290
     0
176
     1
 90
        5
176
     1
 40
0.0
176
     1
 90
        0
176
     1
290
     0
176
     1
290
     1
176
     1
290
     1
176
     1
290
     0
176
     1
290
     0
176
     1
290
     0
176
     1
290
     0
176
     1
290
     0
176
     1
290
     0
176
     1
 90
       50
176
     1
 40
0.0
176
     1
 40
1.0
176
     1
 90
        0
176
     1
 62
    18
420
        0
176
     1
 90
       50
176
     1
 90
        3
176
     1
 62
     5
420
      255
176
     1
290
     0
176
     1
 90
       50
176
     1
 90
       50
176
     1
 90
       50
176
     1
290
     0
176
     1
 90
       50
176
     1
 62
   256
176
     0
 40
1.0
176
     0
 90
        2
176
     1
  1
strokes_ogs.tif
176
     1
290
     0
176
     1
 40
1.0
176
     1
 40
1.0
176
     1
  0
VISUALSTYLE
  5
3D
102
{ACAD_REACTORS
330
29
102
}
330
29
100
AcDbVisualStyle
  2
Shaded with edges
 70
    26
177
     3
291
     0
 70
    58
 90
        2
176
     1
 90
        2
176
     1
 90
        1
176
     1
 90
        2
176
     1
 40
0.6
176
     1
 40
30.0
176
     1
 62
     7
420
 16777215
176
     1
 90
        1
176
     1
 90
       10
176
     1
 62
     7
176
     1
 62
   257
176
     1
 90
        2
176
     1
 90
        1
176
     1
 40
1.0
176
     1
 90
        8
176
     1
 62
   257
176
     1
 40
1.0
176
     1
 90
        1
176
     1
 90
        6
176
     1
 90
        2
176
     1
 62
     7
176
     1
 90
        3
176
     1
 90
        0
176
     1
 90
        0
176
     1
290
     0
176
     1
 90
        5
176
     1
 40
0.0
176
     1
 90
        0
176
     1
290
     0
176
     1
290
     1
176
     1
290
     1
176
     1
290
     0
176
     1
290
     0
176
     1
290
     0
176
     1
290
     0
176
     1
290
     0
176
     1
290
     0
176
     1
 90
       50
176
     1
 40
0.0
176
     1
 40
1.0
176
     1
 90
        0
176
     1
 62
    18
420
        0
176
     1
 90
       50
176
     1
 90
        3
176
     1
 62
     5
420
      255
176
     1
290
     0
176
     1
 90
       50
176
     1
 90
       50
176
     1
 90
       50
176
     1
290
     0
176
     1
 90
       50
176
     1
 62
   256
176
     0
 40
1.0
176
     0
 90
        2
176
     1
  1
strokes_ogs.tif
176
     1
290
     0
176
     1
 40
1.0
176
     1
 40
1.0
176
     1
  0
VISUALSTYLE
  5
3A
102
{ACAD_REACTORS
330
29
102
}
330
29
100
AcDbVisualStyle
  2
Shades of Gray
 70
    23
177
     3
291
     0
 70
    58
 90
        2
176
     1
 90
        2
176
     1
 90
        3
176
     1
 90
        0
176
     1
 40
0.6
176
     1
 40
30.0
176
     1
 62
     7
420
 16777215
176
     1
 90
        2
176
     1
 90
        2
176
     1
 62
     7
176
     1
 62
     7
176
     1
 90
        1
176
     1
 90
        1
176
     1
 40
40.0
176
     1
 90
        8
176
     1
 62
     7
176
     1
 40
1.0
176
     1
 90
        1
176
     1
 90
        6
176
     1
 90
        2
176
     1
 62
     7
176
     1
 90
        3
176
     1
 90
        0
176
     1
 90
        0
176
     1
290
     0
176
     1
 90
        1
176
     1
 40
0.0
176
     1
 90
        0
176
     1
290
     0
176
     1
290
     1
176
     1
290
     1
176
     1
290
     0
176
     1
290
     0
176
     1
290
     0
176
     1
290
     0
176
     1
290
     0
176
     1
290
     0
176
     1
 90
       50
176
     1
 40
0.0
176
     1
 40
1.0
176
     1
 90
        0
176
     1
 62
    18
420
        0
176
     1
 90
       50
176
     1
 90
        3
176
     1
 62
     5
420
      255
176
     1
290
     0
176
     1
 90
       50
176
     1
 90
       50
176
     1
 90
       50
176
     1
290
     0
176
     1
 90
       50
176
     1
 62
   256
176
     0
 40
1.0
176
     0
 90
        2
176
     1
  1
strokes_ogs.tif
176
     1
290
     0
176
     1
 40
1.0
176
     1
 40
1.0
176
     1
  0
VISUALSTYLE
  5
3B
102
{ACAD_REACTORS
330
29
102
}
330
29
100
AcDbVisualStyle
  2
Sketchy
 70
    24
177
     3
291
     0
 70
    58
 90
        1
176
     1
 90
        2
176
     1
 90
        2
176
     1
 90
        0
176
     1
 40
0.6
176
     1
 40
30.0
176
     1
 62
     7
420
 16777215
176
     1
 90
        2
176
     1
 90
        2
176
     1
 62
     7
176
     1
 62
     7
176
     1
 90
        1
176
     1
 90
        1
176
     1
 40
40.0
176
     1
 90
       11
176
     1
 62
     7
176
     1
 40
1.0
176
     1
 90
        1
176
     1
 90
        6
176
     1
 90
        2
176
     1
 62
     7
176
     1
 90
        6
176
     1
 90
        0
176
     1
 90
        0
176
     1
290
     0
176
     1
 90
        1
176
     1
 40
0.0
176
     1
 90
        0
176
     1
290
     0
176
     1
290
     1
176
     1
290
     1
176
     1
290
     0
176
     1
290
     0
176
     1
290
     0
176
     1
290
     0
176
     1
290
     0
176
     1
290
     0
176
     1
 90
       50
176
     1
 40
0.0
176
     1
 40
1.0
176
     1
 90
        0
176
     1
 62
    18
420
        0
176
     1
 90
       50
176
     1
 90
        3
176
     1
 62
     5
420
      255
176
     1
290
     0
176
     1
 90
       50
176
     1
 90
       50
176
     1
 90
       50
176
     1
290
     0
176
     1
 90
       50
176
     1
 62
   256
176
     0
 40
1.0
176
     0
 90
        2
176
     1
  1
strokes_ogs.tif
176
     1
290
     0
176
     1
 40
1.0
176
     1
 40
1.0
176
     1
  0
VISUALSTYLE
  5
36
102
{ACAD_REACTORS
330
29
102
}
330
29
100
AcDbVisualStyle
  2
Thicken
 70
    13
177
     3
291
     1
 70
    58
 90
        2
176
     1
 90
        2
176
     1
 90
        0
176
     1
 90
        0
176
     1
 40
0.6
176
     1
 40
30.0
176
     1
 62
     7
420
 16777215
176
     1
 90
        1
176
     1
 90
        4
176
     1
 62
     7
176
     1
 62
   257
176
     1
 90
        1
176
     1
 90
        1
176
     1
 40
1.0
176
     1
 90
       12
176
     1
 62
     7
176
     1
 40
1.0
176
     1
 90
        1
176
     1
 90
        6
176
     1
 90
        2
176
     1
 62
     7
176
     1
 90
        5
176
     1
 90
        0
176
     1
 90
        0
176
     1
290
     0
176
     1
 90
        1
176
     1
 40
0.0
176
     1
 90
        0
176
     1
290
     0
176
     1
290
     1
176
     1
290
     1
176
     1
290
     0
176
     1
290
     0
176
     1
290
     0
176
     1
290
     0
176
     1
290
     0
176
     1
290
     0
176
     1
 90
       50
176
     1
 40
0.0
176
     1
 40
1.0
176
     1
 90
        0
176
     1
 62
    18
420
        0
176
     1
 90
       50
176
     1
 90
        3
176
     1
 62
     5
420
      255
176
     1
290
     0
176
     1
 90
       50
176
     1
 90
       50
176
     1
 90
       50
176
     1
290
     0
176
     1
 90
       50
176
     1
 62
   256
176
     0
 40
1.0
176
     0
 90
        2
176
     1
  1
strokes_ogs.tif
176
     1
290
     0
176
     1
 40
1.0
176
     1
 40
1.0
176
     1
  0
VISUALSTYLE
  5
30
102
{ACAD_REACTORS
330
29
102
}
330
29
100
AcDbVisualStyle
  2
Wireframe
 70
     5
177
     3
291
     0
 70
    58
 90
        0
176
     1
 90
        2
176
     1
 90
        0
176
     1
 90
        0
176
     1
 40
0.6
176
     1
 40
30.0
176
     1
 62
     7
420
 16777215
176
     1
 90
        1
176
     1
 90
        4
176
     1
 62
     7
176
     1
 62
   257
176
     1
 90
        1
176
     1
 90
        1
176
     1
 40
1.0
176
     1
 90
        0
176
     1
 62
   257
176
     1
 40
1.0
176
     1
 90
        1
176
     1
 90
        6
176
     1
 90
        2
176
     1
 62
     7
176
     1
 90
        3
176
     1
 90
        0
176
     1
 90
        0
176
     1
290
     0
176
     1
 90
        1
176
     1
 40
0.0
176
     1
 90
        0
176
     1
290
     0
176
     1
290
     1
176
     1
290
     1
176
     1
290
     0
176
     1
290
     0
176
     1
290
     0
176
     1
290
     0
176
     1
290
     0
176
     1
290
     0
176
     1
 90
       50
176
     1
 40
0.0
176
     1
 40
1.0
176
     1
 90
        0
176
     1
 62
    18
420
        0
176
     1
 90
       50
176
     1
 90
        3
176
     1
 62
     5
420
      255
176
     1
290
     0
176
     1
 90
       50
176
     1
 90
       50
176
     1
 90
       50
176
     1
290
     0
176
     1
 90
       50
176
     1
 62
   256
176
     0
 40
1.0
176
     0
 90
        2
176
     1
  1
strokes_ogs.tif
176
     1
290
     0
176
     1
 40
1.0
176
     1
 40
1.0
176
     1
  0
VISUALSTYLE
  5
3C
102
{ACAD_REACTORS
330
29
102
}
330
29
100
AcDbVisualStyle
  2
X-Ray
 70
    25
177
     3
291
     0
 70
    58
 90
        2
176
     1
 90
        2
176
     1
 90
        1
176
     1
 90
        1
176
     1
 40
0.5
176
     1
 40
30.0
176
     1
 62
     7
420
 16777215
176
     1
 90
        1
176
     1
 90
        0
176
     1
 62
     7
176
     1
 62
   257
176
     1
 90
        1
176
     1
 90
        1
176
     1
 40
1.0
176
     1
 90
        8
176
     1
 62
     7
176
     1
 40
1.0
176
     1
 90
        1
176
     1
 90
        6
176
     1
 90
        2
176
     1
 62
     7
176
     1
 90
        3
176
     1
 90
        0
176
     1
 90
        0
176
     1
290
     0
176
     1
 90
       13
176
     1
 40
0.0
176
     1
 90
        0
176
     1
290
     0
176
     1
290
     1
176
     1
290
     1
176
     1
290
     0
176
     1
290
     0
176
     1
290
     0
176
     1
290
     0
176
     1
290
     0
176
     1
290
     0
176
     1
 90
       50
176
     1
 40
0.0
176
     1
 40
1.0
176
     1
 90
        0
176
     1
 62
    18
420
        0
176
     1
 90
       50
176
     1
 90
        3
176
     1
 62
     5
420
      255
176
     1
290
     0
176
     1
 90
       50
176
     1
 90
       50
176
     1
 90
       50
176
     1
290
     0
176
     1
 90
       50
176
     1
 62
   256
176
     0
 40
1.0
176
     0
 90
        2
176
     1
  1
strokes_ogs.tif
176
     1
290
     0
176
     1
 40
1.0
176
     1
 40
1.0
176
     1
  0
DICTIONARYVAR
  5
31E
102
{ACAD_REACTORS
330
319
102
}
330
319
100
DictionaryVariables
280
     0
  1
1:1
  0
DICTIONARYVAR
  5
31B
102
{ACAD_REACTORS
330
319
102
}
330
319
100
DictionaryVariables
280
     0
  1
STANDARD
  0
DICTIONARYVAR
  5
31A
102
{ACAD_REACTORS
330
319
102
}
330
319
100
DictionaryVariables
280
     0
  1
STANDARD
  0
DICTIONARYVAR
  5
31C
102
{ACAD_REACTORS
330
319
102
}
330
319
100
DictionaryVariables
280
     0
  1
Imperial24
  0
DICTIONARYVAR
  5
31D
102
{ACAD_REACTORS
330
319
102
}
330
319
100
DictionaryVariables
280
     0
  1
Imperial24
  0
DICTIONARY
  5
323
330
6B
100
AcDbDictionary
280
     1
281
     1
  3
ACAD_XREC_ROUNDTRIP
360
324
  0
DICTIONARY
  5
1A
330
19
100
AcDbDictionary
280
     1
281
     1
  3
BUMPTILE
360
1C
  3
DIFFUSETILE
360
1B
  3
OPACITYTILE
360
1F
  3
REFLECTIONTILE
360
1E
  3
REFRACTIONTILE
360
20
  3
SPECULARTILE
360
1D
  0
DICTIONARY
  5
12
330
11
100
AcDbDictionary
280
     1
281
     1
  3
BUMPTILE
360
14
  3
DIFFUSETILE
360
13
  3
FBXASSET
360
E3
  3
OPACITYTILE
360
17
  3
REFLECTIONTILE
360
16
  3
REFRACTIONTILE
360
18
  3
SPECULARTILE
360
15
  0
DICTIONARY
  5
22
330
21
100
AcDbDictionary
280
     1
281
     1
  3
BUMPTILE
360
24
  3
DIFFUSETILE
360
23
  3
OPACITYTILE
360
27
  3
REFLECTIONTILE
360
26
  3
REFRACTIONTILE
360
28
  3
SPECULARTILE
360
25
  0
DICTIONARY
  5
321
330
69
100
AcDbDictionary
280
     1
281
     1
  3
ACAD_XREC_ROUNDTRIP
360
322
  0
DICTIONARY
  5
31F
330
65
100
AcDbDictionary
280
     1
281
     1
  3
ACAD_ROUNDTRIP_2008_TABLESTYLE_CELLSTYLEMAP
360
320
  0
XRECORD
  5
324
102
{ACAD_REACTORS
330
323
102
}
330
323
100
AcDbXrecord
280
     1
102
DISPLAYNAME
  1
Imperial24
102
FLAGS
 90
        0
  0
XRECORD
  5
1C
102
{ACAD_REACTORS
330
1A
102
}
330
1A
100
AcDbXrecord
280
     1
270
     1
271
     1
  0
XRECORD
  5
1B
102
{ACAD_REACTORS
330
1A
102
}
330
1A
100
AcDbXrecord
280
     1
270
     1
271
     1
  0
XRECORD
  5
1F
102
{ACAD_REACTORS
330
1A
102
}
330
1A
100
AcDbXrecord
280
     1
270
     1
271
     1
  0
XRECORD
  5
1E
102
{ACAD_REACTORS
330
1A
102
}
330
1A
100
AcDbXrecord
280
     1
270
     1
271
     1
  0
XRECORD
  5
20
102
{ACAD_REACTORS
330
1A
102
}
330
1A
100
AcDbXrecord
280
     1
270
     1
271
     1
  0
XRECORD
  5
1D
102
{ACAD_REACTORS
330
1A
102
}
330
1A
100
AcDbXrecord
280
     1
270
     1
271
     1
  0
XRECORD
  5
14
102
{ACAD_REACTORS
330
12
102
}
330
12
100
AcDbXrecord
280
     1
270
     1
271
     1
  0
XRECORD
  5
13
102
{ACAD_REACTORS
330
12
102
}
330
12
100
AcDbXrecord
280
     1
270
     1
271
     1
  0
XRECORD
  5
E3
102
{ACAD_REACTORS
330
12
102
}
330
12
100
AcDbXrecord
280
     1
 70
     1
 90
1959938040
 71
     1
  1
1230EE4C-C542-49BB-B90F-10DD18474CB8
311
504B03041400060808001D8287515F79B1D4DA000000200100004F00000039444643463131372D324231312D344438422D384634452D3730333931343645463333392F4173736574446174612F446566696E6974696F6E4974657261746F7250726F706572746965732E62696E454E3D4FC33010352C150303FF803F606C27
311
86D80884E43866A14BD958901B8E36929356B123E8C6C8BF86B31AC449EFEEDDF7FB2684FCCC86949C20BED09F637C8401C6AE7D6EB7D07BB2C08A393CF9038C99CECD53A439B5F0EEA790F2DAB28B2D84E007D84DF1E27FF4B2F709EFF9709597CE107F85982F6C8EDFB2808FA3A64FA4C4BFED6F1F7C8C90EE99B6AE7642
311
54B43042506995A1CAC98656BCD442DE34AE2C355B41DC4D630B9189A2E44D236B5A5FCB824A6D0C359A3B2AB8B542C94AD646B1B49DFAF5E0BBC0389B25BCEE878D7AB963A9EBE117504B03041400060808001D828751CF692380EC000000300200004500000039444643463131372D324231312D344438422D384634452D
311
3730333931343645463333392F4173736574446174612F496E7374616E636550726F706572746965732E62696EEB606060F80F0540260323103700495E20ED9E9A975A94991C9C9C919A9BA802143034323670753571D675363531D235B17472D275B23470D33534707131B43031377176B2604768046931363471713532B5
311
D435353131D635313332D475727372D13534373670367376B67474B5042A03DBCBA019D37FE8ABC6157B20CD04146B0062181F4C03F940F0C11EA29A8141C08141002C0426541C106CAC2CA046088033B02A030AC2157C6006F21A8018AAF50194E6010A610250382264E08660284CD9E98021862280A91564B406929A0FF6
311
2C401E28B6F88038B83CB1243943D7A928312F25350524432B0000504B03041400060808001D82875188E57597CD3F0000904100006B00000039444643463131372D324231312D344438422D384634452D3730333931343645463333392F5265736F75726365732F31323330454534432D433534322D343942422D42393046
311
2D3130444431383437344342382F7468756D626E61696C2F302F67656E657269635F706E67355B773CD4FF1FBF73E71C0E67EF7576C9DEF3EC995D46C6A1EC5046649CBDF79E192942562825CE965D8A868C2842C8DE9FDFD1F7E7F138F7078FCF6B3F5FCFD7EBFDFEC41B196891913091804020321D6D7513FC77D8C5070E
311
C3FFEE51B21F068154CC75D455CC028A3EA68992803810109FDDE5D5CEC5521B28A1B422BF80741695D5B529DA1C2D058AD2388BDA9F476F7C2CADC939304173DBF48A452BF8A700C0C70C3D121C1AA15A5270C22E2B9E28763651F7DA0D12CE11077B2ECD0D560B5E3DE2368B1E65C5E1C87384A4CC5F2D9FB8BE39E9B77C
311
753783A37998F5CEF1B4FEE553463245C9712270880DF339E0B882A6BA713D865F6F384C842D440934EF264F4A304F8DE4EEFA1E2BF5E2D91F5ADD9613D6E31DDB33ED31DB1D7916CAF091286EA3D31B9CFECB78BB0060245B943C4C040119FF780A74DD308BA9D028678674EB5504ECF284EE814DAED07440BAF649BE4B55
311
DA2890F4D73E2D489A59EE54FDB0A85B59F2F52C4858A02705C4815A792B0C4A996A2023ECB195073E115E3E3647F64243A8338F2000BCB58DA5692C7E7C3D413F963FEDF3CF00FBB0F831A9D51360FECA43819F527B89FA260EB63C5DA676830AA3626A3693B23F1A17A0DFFCE3EE164E31B5365EDF0C89EF64D8E38AB0BA
311
9A1117D7C3A0EC44F44F4023095E80BA610DE336D0F99593A88BFC5306E72DF98F7FD132ED95878DF2964EA7E43071359FD83B2BDF9C6B5BDF768F0F3C0FC351199526F53D9460A34511F75D1B63E488178569472C91A94497807A3FD4A390C6558F26D416365C3656DE6E769DA9D8FC73774E1709812842DD8EF96AED1960
311
F79D21B395CDDFE6F92CB4EB962A4668C76990E2EF29798C8941D67DA50F4A5F947872460F1F6FDB794E8A29FD7AC0C0D6E0714339CE258FB17AE8535221E3464A10F29A0BE5EEECEFC5675926A89F49EB14E5711894F6586DB5754EB4D5DA9C6437EBA57DB97A24F8B8A8DB295FFD73266CF57E82694DF5166DDF93573AFE
311
9C9C5EB05F8FEF8E89E0A8917B0B3724DB7BEBB53252581EFC3E38166BA131A3A5B42FE2AD00A769BBFA4458D2DE7822F8C4F63D0B8E21B285AE13325F3410A435C648C9D91FDEB109E73CEDA7BC796961AF79175E1A3CE4C5E8B0D009B0C9E29EFD98BC8E97554E3D8D838424E270F7685226E5AC268E021EDE3522D583E8
311
F20C0BDE2959EF5BBFEEDAB32FE9A3ED0E39F211A86AA9DEBFC68182EDED132AB8BB794442D2D7EA9F4D8BFF52BC4D55BB165124EE90A42D101E67BBBB292FFB4F66DE5BF2300E44546757DA7CEF8932BFC9F92A0707953491A55C5A5ACEDABD9FA1AEA01BAC3DC5A24E22E7C47213493996EFBC369D086ED9397C9BA6C7F9
311
855C7BD5E15BFC8C53DB3D2A4C5901A57ACD2FBDF4D1676E95338B2C2BCE65FDA4C64F5FEFDC7D9CA5AA1FCF11E193F2FDABF0F4916BF13FB916A224380E6462A9815F2300DC49CC4DF8D055CEF76462F4B7A7ACA7365C2707891370BC1D0AA6203C44CCAB47084FEC057F27FFCD57F89B8B9852459798A675C66BD7CE572C
311
AF71FF7E6D7ECF7BF62CAB7B3F1107DCD04DC55A3F9961700286141C94A4F771FEB2BCDA2DDEE0CB0BAE402FF1DB0100F8E475DFFFC074DDB4498AB7D186A7654DDB1CB680D703D47CEB4E72F8CB13D86A4AA68116E26387B93FD6738779B34FEDB8E517EDF2BAF28D9BE93A1D3A164320E07D42E514725C29515FF3617542
311
13EDE06B079A2E99EB1CA82A02019EADEEB87B9AF005BD04BBCECB14AACD6B24EFBE482194A97DD32400685FF1FEF1544D1B14EFB1E7F08E6D2CD2AF52DE757F35F5E62332EE88EA26417AD5C3E0E319D68F25414E6D672BD4522B278C57D18F0113921C71D96527E091F00CEB15AE23D24667369BD3CEFA10C7549D930890
311
BA4366F4EBC55F01F746109F98ABCDD5A3EE06619C6AD78AB33E48E4C9BD21BF7478B385EC05C4F8987E2C1BFA0A60EBEDAA0AE0B015C2720ECE180FB6F2DEFBEB822D96338C9B63822183BBF52FB664A7AE57003AABCE512BF77E7E31BDA2E739AC4C131657DDFE5225E900FB56CC01CDE808FA4A9C9DA16AC679656BB647
311
96283D89812B8F91136AE18EE5EBBAF47A73BE3C153EB5D4CD491B4BFB4FE690A4CF9ABA08C0D8AA64220C438C96EA6CA80B58FE5761E697B3A292EB9FBDA502FA863E49FE694ADDFFF9D62C520BDD1A22014147A0903A05B9B729F54272EF83931FEEC057BFF8C8055C279EAC5C0011804828734024F6CFA319C9CC6867C7
311
27184465CD9BB7ED386AFFD96B294A85E3802FAE47244602D8273615952B98C4F23F7EAE4463D9D638EEE374A20959E0FE519C4CFB0FBFE5DD80C2AA3F9DB961D1BDE57E67C9BB47B77FDD74EE3094F5DBBE3EBC1FBDB7393F5116263009E2EFE1AF9A221B2AE234C902BF70E9F280ED23E73908361565964333A3F01D0B00
311
6AF32FB21AA1316744B489D5A198E85299241735BE559675130955C902A8ED761FC0DBE337A9F91919AF5CE32AF902ADF9AB2615E00E8A94586BA1A90839B61832FF1BFB76D2EFADE6DB1BA04CCAD3DA649E7E2A0219F592E22F2AD54847EEA8E42271011E9074F8F3DD9FBA6CDF88FFC9FC7E811AD1CA8F4557CE4AFC7BBE
311
DCF0114A48689F20A584520C74DA8127124B767E2FB91A6B186246727BE63C9445BAE02088D58B8EFDC0F1072407CD9B89A13F6303B4A928F593AD489B58E6869325790ADC406036C591729FE14021F94B7796BB11848D463536A092A26F077F94639F7CEEE2A724C66EC885F4A24F8B8A0AC321F8FD149BA529460FAA34E4
311
663C02D41FDF80BCA222D42F0ABFF8490F4FA74C673807C2051D8E467B47B616072860069A9A303ABA9B319D58404461401B0A0F9BE5E1E151C14BC33B32ABE03DDE91708DFAEB15E7C0D593C86BB7D7EC17BE56E57975F077BFD5525F3A1A361D584A75E08CF29FC7B44B2B3085014F3A5A14517377C3F6B8F37E59514C3B
311
12F8AACDEDDA4DFC49BE5710101534CD6FB6DE15B50F11A09472AABA727F0C49D9CB906B158030065F48EB3625E010CEC1D511D0053474B11E6A4F01C0D6EF1BED3A944FDEC70E0DDCDC756C86545910E0DAE3BE3AA9A404574C2995CD5CAF9549226BC94B4F4F0F5F9086F418F6B32346464610D8BC7391D3C3A3CCF04CFC
311
1FB2A3A3170E369511868F14EEA4E5E438CC73DB1F3248AA94B6B2FF33B222FF3D1E7BF146CAD229770158063BCE4F5391964DF62F7E52A7BE0EEA829C9E13C4C147D6F93FE59E111DAB5E4594D6F3CD1AD375EE039930EFE5AF2BB2D41C83C7DABD8C659BAFBE8FAB392CA634F3D15C1D945DB4588D2B0824A4EC928AAC56
311
5557CA2F0DAA588CA5BE30B3A8004F7BF005E96CBF891D7F18112A3619FDF530DC8AA64954258E1811789B5189B49B4EB53F5F89F7D37523894F3EB57B373763C91E502F52CC99EB7BDDF933FC324C4FFC2561DFFA7339FAFDD0A4BFBE6D3A8FF9ED1FC49898139864602458968913181918F719CCF5A68B2EE9C1FF050E34
311
E63107003B8120FA982C21B30A874E4F5E4B38D5A8290C4B8D9BE48A0BE31EA995BDC37AC6DE90BA17D259DEF53605D55922FEB1855D915B659FBEB350EE0DFB2F9F766E1C84CC8964B75D08667445EAB966015F63A18A9E0A325C1B3DC628C0D3CB60F767FA93CC65F25458BD23C3B312716E5F40E5858AC06EBA9AB14F95
311
DB99147B832069201541D09A0D856E12C629CF32683760EE855537D1901988D5EBC156676C7DD51D7207CF3267AF1D76C2AD867315E44618015313A98B19941C696FED3461CAA9B5415F918556D7802EDACEFD6B2E45853A9735DFC9DBF7E440F9319F8B6805A973BCCDC76C069A9144E51F187EDCC12FC31B5DEAAF0A7613
311
7199B106EC84ADA6B6EE697D4E6A96E007417F4E880E8B1E89B4BCE9D81EF611E2ED8F0C1A6C25F620FAFAAB656A7C42D464880E8AFAB0E0FC8EA38CA9A8AEEAEE3E4648BA4680270A89743CDD3E6C6CBF34B7B640EFA285ABC7EA0A1E28F3CC963D114A80123EE66D0AF7D5380EB41909B605AB4765B709B808590458157E
311
69BA1378FEC4B48CAF6A730E3BE3C5EF2DD1A5EAF94B1DDE50CEB55DDFD7EE9A16747FA4B223359FB1FCC69E1194892BABB93A1D5C4E807AC0EA2E30180811E77A2291F6E7F7FAA5E0F60215BC6024E48DE436C511F0628B8CA189982D4D83CCA17D305A7E923C37941CFDFDCD93ACAF735EF5F0E61BBD3E6C41A59B242790
311
D3A3BAC7064DCD89AA2E37214EC839820949D5CAA31E240D2948E48F690298974A96BA9A8432BC90F5071D6537C9666EA4564796B7AFFFA548077BEEA75F63083435074BA182F3699557397F71548383FDA8CA34D99B981E72835ECDA5DDDC151315173D05A21F651AAF8524E88209E2E7A737ED1045800CE3390050BCFB8B
311
E588DF111617874C62575039CA588EEFDEFEFE319B739DE2EDC147092A262611E159650E787917885EF08F1F51B8F2D8A71D60B58B190FEF9541A1BE94BC19FEA50784DA1419FE4B0FB51B8D36B5FF8E1286FD8AF42B91E59A5F1CC4D60174E764045FD8C57B18209B217F89A62252BD20BE0E63E12B8E8F029FE19E0E8D08
311
70F58721A557082250D5424F7909369376E41666C0EE77CD87CB283F661D5FB6D0DA023CB67320A20DC7BE661E9E1BFE5463085C557DA1FF9BE835733766C3D139F2CF9E2208873AD0EB4814DE9E6BF2CAF81614D4D43906ED1C05A3265CABBFE192770FC2F64F940CB6B17B5F166F133C9AEEAD2641807C3E69515171DD74
311
C4A85311513D6EC9530B3B601B6BA3EBFF3B5C3D2F7D69765141E345F75433953D013ADDF8F6AA7DC3F4A7563FE5C7D367937E2900D7EAD0F9FC9A4A1A9B5BDF1FEF08532660C01C5D6DE22199AA774383E306DAB87E301ABB7D213887F9869D4942D0D71E94B27EDF216A318BD488D45DF84529EF575AF3C3938C0AAA0215
311
B01994153E2054A0B894DA5C784980633AAD48576957CF4AEAEAFADC7C587368551C73DBE1E57C58AC713303A8BFC258BD04B51724459FF9E24C03A81E0E0679CEB9B348C0DC998FEB9C6D6EFA77D247CC8F92D3848599ED89A23218D0636465AD1CEEB7DC140D7426F83491C4E8E8281C2FB35240918FFECE880CA2A42D70
311
E8B20B34DF5221C7DB0CF90ECCB9C745B37A47E9B716FF7A97B7A252C1F3814DC7B1E1A7F72B8751D524EF7CAE45B0C73B3BE7D08ED39781B380DDFC9AA4A4749C9493DB5BAD07A6EA6C092FBD0E85DB004DF06B8C9D3089C5320187E4CE1846158C7EA7DDAE8AD9AFFF21AA3A1026BB06A259845E8232DEE62811A4DA9CEA
311
B3A4887320B76E2AE5615EAB7BDF738CBDD01F1E64064BC13D9EC53576751CA8CACD58B3CEB0E6CA585BD089B2A59B9FC101403387AADBDBE70586B93D64BF3AD4453EF9C3B6A93817E8346991798601344F79A83C51F3D50F7BF2683A3605F51A72449489E0EE6169C749C60B1035651103AEE24D24E51A759C840DD3FC65
311
04DA6FE107510E447B43461C79D22970B75DE5E1BD3007D1AFC619A4A4A69B5626AF5E9B8374E20677F77E2F8E73DF868E8BEC7EBA7B6A75EEF7205E1AB9486CB642741D6E03FF13FCCEDB1C4AC129886268B01CDF4B124AF797CF784F3C6DEC97A17D4B558070A0F1C04DA4FF9BDBF34159AEFE958479824B3F58EBD1E190
311
88A2AFDE501B6F2052368A3FD0E650A179EFAB1561E1D27527077136E652676C3670F42DCB3352F48F6BC86D2C3B0051727E41A0A4DC6CE2BE9D47F5CAA2935A3C0539AF080665997194ABECD723B08129CC5B6B21D2E7D54CD4D12610E7E9FB8306771A89576C7A982002775ED44F3F744CF21EEBB27A631671D921938AAE
311
E3EB0D19CD1E083727F607823E817BF599DCED5394E37EEBC2E88782E638920CA641EF74D4CDFCDEF06F4278ECB18E31E7E9876F2D783C8BF429C75395F57E98C2B495A3DA077EB3AC3C158608B6B57FE3EA48484D9A480096FCEE0DE880950E7E5A5714131C5C41AAA29FD19AE81AC145FA1B9E85C7169A5AB837B213493D
311
F7E9AA4B5FBF9CDEB36EBD21EF1181B7CF7366AB2A951D01E37AF4EB835D1BE8C117CFBE7625D2EBCDB0B20C5A4B45CED0BCDE3EE8DA9DA78C2E21DEAAFFD1197E463C33CC6A80FB785669B856EFF7A8CCCA2841B5A5369173320B1170C368B2748D81062EA0296E5E2D95D7667A4A46D98A6FF475C76AAB0A8C8D45E226FA
311
FC9FE0133EA9F60111F99CA81ACE03A1D14C89E8B0D69079C91464FA1D99E651D0EAF606F345C42A8A1AA9BA391031582B96D5B4176A77AADB01F12FD298A75DEEBB2C82F0B8650E880722F8DDD90C56A7A058E5FDEF1AC93545BA27367C76F5D8F9690CB6F8DAE141EDD7971F0FB548A2AE435F224D6E5954CA155512F733
311
2029D5A1230854B79F258EC5FFDB09F5F6343A8EB193229B7F7E79B3E48F8E183860B38C8269D1B53738FF1E0BACF6AADA6D4869E9DE708E79B5DADCC09B1BC76F649731CFAF59A83FD8BAE4C749D66FA87A3810D4D62FFE826FA400C0F325D2BC0F3CA35F5847B82A2ACC7961745C823E4D863D54460AF792CE6F79B5C7A3
311
3B25C3AEA6CDE15A919B6367D781E9D44F61BF828672594A3E1D9EDD6DF179A81F27EAC05B936575D73E05C209DDD2115CFB705DF9BBF3C911589B3640735E9E618FC9C36A7326C82B2205E244C55D56FDB9D5DC93CE958D4BF8174D2B3DA54CB3C09F2C2A6DFF73D23B2197355761AD421EC581284A7EF8DE2CE3497C0C80
311
4D49B41DFD6A7360844E5BEFFB495CFCDB97A4595911CDBA623274CE852B5E278AF0BEB1770E9D37CD977B2766A7DED0E94B840E1E95E8C77DE5CB6354AF7871427C28ADBEEF7BA0A28E19DE9ACD75F379FE373EAE6DDDAE3834692F9C2B03B4FCA8FCA9ABE8EEEBEBB725B88A7C90941E850682CA04061A7DF0CE82ED49BF
311
AFFD42C309818FAE14755CAAE78B0F73243ECCCAD7DF58FCB9CDFAE7A4D3E6671A613639130D056C8383C8F4FCF4808C331E544DD26E4755D09EA05253B3049A1E32587CC25D72E073E2CD96D04A71BBCB0038FEC3F53D254199C3CDC67CD66640269431860225392B2CB3ECD0B4498AAE78BA1994246AE1EE78F2EDFB79F6
311
C6CB6B5E279C4D373FBC21CB2698C9ACBBEB6A4BB6B39E16AB0E421CCBFC7654D81ED86022F9BB522146F9F4772E2D0E4FA70120C95A85A417BF5078B232F4754363EB1750B2AC2148EB46B1EA72AD9B4D23ADCBC589D70106C3EC2ABEEED84DFE28E718C6C83502C28E9FDD3B09DA0A6F6F7B72B706A31C9E2A331EE70DA5
311
6A083D2177BFD63C55B11D8D949FAFCF90B23A1E24B9B5018B9A17E99F2890EC302F330FE7936E2C23F0D237EC8916F5166AB84B62A21BB0B950146962D754F92CC2C8877BED8FC7B7B25726DD19545392570B3A2C66B58F027BEF412E552D12A588C4A3CC5C3193FCB3485EFFF700D0B9EEC077754A33DC1FB9E25AF81462
311
8F91DDFECB667D3F7690803F38D13F8AE39353523BB08FC6760144AFA2CE28236F65EDBB3D5F59A57D612B99E3D7E5F8A851666BF9B5A6658EFC96EEB37A378ABB0EB3FDDF1303AF32C41BD1C8560745D7BD81066B0D6313359CF488563D3BA3F8E2185D1FAA3EBA1397C9D0E3DD232180A4DCADB6AF25DB3AC3CC26589C82
311
39E66E81547BC7E2F328F9884764CA37EB5DBE390DFC03A5246B456A7C3684C4377D0EEF9A350680FA9A077E8B2957B489E09AB1AD41316944C2254B5984830F691C93CAA767EECF976FA5647538830B5E63236A6F0365C1E0F3E327F24FE35EDDBD7360B0F7374837409F7A6311BECC12B7026D4FA1AE204FA3F5FE904B1F
311
420C7A9044AE58E403E7C4848E7DA25DC9EDAC79DD756FAA26B9EA83ACE8A214A2612A22AFA19DAE7DBAC5F8CDE1292A485F98DAC731A29FE01A3966E96BCB9FB5A4C8830E1B9AF0C54B87FBE221A097036E5D28D1F869F810C06A9BB0AC0612F69AEBAF893C6E7AD59460208BAB3A6B09CA4F6BDDAB8CF0D1F84B72487498
311
395A70DCD754796E271099A567A55CF242BBED64696378BB6CF25EF0FCDB589F3A82F1116D010A9AB9FA4358809EE0C973A2B4229BAA876A70B03AB49CBA7FBE71DB1832FFD32F9BF2C8E98075CACAFB36921235D0F552B6A67E94E094097A5D7DF681B40623DA535ADA7A9AD8E9A62407D7C9A5AE51D62A17A83A23728DE8
311
6BB56115804D3F2675F2C6B87541A0FC497BF0CA86420F558C9859EBE9FAD62747E323E3AADC03FDCDDFE7407B09DA90B44E3185723C5381EAEF589765E2F7A099BA46695BAD60CEF3491B8A171F5F56444F7CE9455312C3498C74173AEA0214EC029833B34B650CBB5A5508D5091665309642791708ECF27CF11DB3D797D6
311
CFE474453BD4BFADB768094B2147814D81C7CBAF8228DCAF5564B5891F5EF6A860EB2E323CB82AB868D8EA048880D63B0DE5341F1B3D53297B928A11E15F25E5148990F710747C3509ED14909C552EBE3973246FCE55D00564D8310BC3EBC5085D08D806799B77D6C57FDF5E55837F9E934F09C03C729271B64F12D0A9F9E9
311
38107CAF7BF1EC8CF1BB9B42363D33070F4CACB425E605DDB0A34A12BB936DE286B9887A4E2E558F0886498BFF49C311D96C277CF6A9FC0D75AD0ECC5226D7E0E3572012E56D7FDE4410CEC7A6D0F997F225A2055B8B92E3956E875AE4993CB3D4C9063AF98FD45E1BAB165640A43439A2C9181A7C355B297C0A0CCFFAE19B
311
6FA3C2BA238A885FBC98B8F6DAF4B94B97304878DF4D8BFF6A4AEDF79E90ED4E68F00CD7299F4E0D83E35601AF0CBEF18C1E870E74758FA91F5131075004DB3CFCF09AE1DABC11957FD9808C92E8A678CE9DBE40DDA0E0D1D505AAFBCBA208232BFB6FB3704E8985E61ADE53DE74152F5C7DE74B1DEDCD37DC3E8FB30D7EBA
311
8B9EFFC3606BF90B8D438279CB7709FC7C00D327F41817EEA71CD9E49FE9C8C9A81C70915D9F0F15958EC5AA4C3BBFAF46986B90F188BDB24B89DE3C6F29EC3E6F66D84856EE96A35E657CA41B41EFD8DBFA16AD6E91439EA92B40B21C053249F51AE50EB0B24C770FFAF40DF12C8436366819C48E36547D4E7B72FE2BBF10
311
828583057814A668BDF183F6B2E58DFB151103E56303E63D00F39C27C4661605DB644D19175D02E3F0241E8FC3458D17AAAADB117CE9EEA690D0DB01E634878C04C2C9310B69FCAB831151E3AD293BEF6E46B0ABCECB50F5939B39C613D41E81FAE8D34CAE3C4566B761D37185FE864AC32FCB71AEF39DAA5BAB88609BB980
311
CD2F07A8F941653B529567726E2B2A58D079DD57E1E5E31426CF184A04D7B03B985F276D47406AF276FE32E3328BA866EB1FD39BEF57863A317634AA5FE467409B3873F5069EF0D71AF00AD189D17BA1974ECDB2D623E9E14086386A6AAB5807825C37B015BFE892AFD154920EC437EB945D958E18622E1E0FE2FA06557CE4
311
BB9BBD05A2D40E774DA2B65473791E314B7D6C886820B2FCFE4AA272B3B8B15E7344A145E8AF919B5454D89D36D413E87211186BF6F645E5EC94DCCE8E1C799022E4EC9BC86D7A0F2AFB1FC4B2CE48F84B3F49ECE65BAD24CADCC07EFF39AB06BE9E6B27A059938EA7208838455383DDBCFCD967DDE4650EF92A14FF933C97
311
5DB20BD7FEEBC4487576485963D757D16340D9599FEB362F775F38CA4185A86F74B629C81B133644A3B18FD056E997E0734F9BE26D11C0AAFC669E2AC9FC41D281F8B2E1C35AE27BCE05F3DA295488096688719D974DF1B5D182DB7792288697F8763CFB43562C1CDEE11C4AABD5C22B6E33F6F389CFC3477C5919DC0D533F
311
8A7A1846B7ADB60ABDC26C43D0CFC8910B7C15EE22675BD02702ED39DB77A87A192CA7A543E6205B979B9F5A6B512A3CA799E198B2D5797C0AF8D1D872CA455D4D431A7879D4DD76110B5FF7F4176B54477A9EB5E4A5D11214FDA585F0382751D8E2582BA5D2075053298FEB8F1537304E32CB22C2E2B693DC0A760B1DFCA7
311
51BDC445AFDCBB12820ED85F6D5298933C7EF1211E9E057684056CDA3FEF3BB6052355E162DF27C59E965A8DDB7F9437EB72CDDA3A090DE65A5B2F50326247B7EC67B73ACC7047FC9B353D6EE990F772207C6EC52B39DC2F3C0754821DAB559F7C1809C7D0DD5B0499D0442E0A6E391B3D5DB46D11E731E6794EC77523FBDA
311
A242ED67F9FA1FB684255671F63C9BCFE6E7E896D51001A6113EF2298BA494E0B0980D1FA5B9D60796554C02256B1E0345FB7C6186B6A19D2DCA270416262845FA4F42DB5D9B0A0B6F07FCA2E56C242522E001E0CEB734AF310FC8BFB57E38E03AACE93B3326A2197891E68452B26A6307FDABFEE0223D3C03C3C73D2D5BC0
311
54C8311F12004CAE488E5C29287F8156A2CAA4AD0D7BE6B97264E4139F437CE73ADF52E5134C52B819777C18B323A5924E4F67AFD13B1CDC3A61793A79FAF5C0CEB718E441071E797C6DCCB9EFCF7E4A1E9F3DF3C2F9C9E8294E9586868788C972857FB0556D7A26941A7EEB9B580AD78EC40B85DC906B4120A563CA3B8779
311
7ED612D3B035962BB75F6515A393F4CB057F564CDF54F2E5A024514E6A1F901DB80C7E70B1FC05E356A7E72FABF4775B3E3FB8F70A2A8E7B6A94542BB304157978CCC999E707A29CC795E67A59CC546A5D47B368954CA7B6E75EC9E1F6FC73CE3B4F71F8CB1A6B15923D61EAAEB14626AAA9D04A26EB9C66CD1BE86CA31A5D
311
8703DE04CD1EBCE4F5CCB62F93909AD11E55799A781A956ED27D3E738F4538CB04ADABC7DAEF20BC35BA6A90BCC1DC61BA05F20D8832FFB9BC9B15E2DB838A0AFBB7E0C82A562127E0446894F427794C3037186F622BF24DE1B00AA10A23BFA47B2A180D6DA5AD6F7326FEB8C100C2D7142EB2A0B2A9D1008A09BA343D70E0
311
54AB69E2A7EDB783CBD92537FAF4A44D1296AC2792729104B3276C276C951D0CF3CF3F1E6B017720A7B8505A5FF9589365979678C36F1BAF759EAF57C60F1FF5FE9DCF5F8E764FF25A2D06CF25117A8FED51884C13B2B750DB0E4F5E3D64124FCF11F0AD8F1CC3B3DA4B38ED22BF1CB2585EE6BFEBBA63FBFD44F9537B9B37
311
BDD6B358720F98A8125AED4349CCFEB0E135F19E208A04CA7E2B10711185D72E381F448036EF57C9F874E54A971CA37A639E986AC0226DC5AA00D5B14FEA9192234B3DE617814FC221C92F33F1D392F297731B567FD98FD91D989379AF567A65B8ADF177591DB90FBEA99BF4ED11B16E50A0AB1DBF1156D034BBE04D69D08F
311
939D8E92BF525A1DDAFF80ECBC95D8F45D3FDD289FD23F7D8B452F8EBB34EC082DEEE68E18EDDF072060FAD2AB1504DD4879BF67099FC58F6E9DEFBF645D16334A3E9A127C6F1AF6132CF287E433B43A0EE93812B4AA0B194E03EE3FF91EF9C6ED0074A2F6EB18A96A7C9890B1FCDA1F2095E944DB911ED54C60DF16FB74C8
311
CE9BDC7C54C4F14078CF73C2FFF1F1BBCCD7CF64F71407EA1683DBC410D226627F66E509060D5C0AFD611DE681D509DB8DD12FB1265B03C6F5C55FF4C30BD94187FF692B4F152982502F193098A789526A038AB529A52BC0DC4FB6285CBAC10A8B8DB75DCD9BDABBB221E27D1F8DA9F5EE5926A1C8AA9BA9BC09239C6A7F12
311
914EA3B59EFF7AAEC3FFCCE56F1C5C2980AD072793527565E774F4631DB178CEEC691B1F367BEA0CF2907E1D6B854D527065979DDEF002D8B2ACEA7CE21AE297737EDE1D45B31233B73FEA35BCFDD0B09721FDBAF6432681F2FD10C3E9EFB246FD6E854B344ACC9D8A0EEF876A7314B49B6A499FC650B099D650DBFEC7638A
311
DFD245E2B7839DA5AC5F7D5623FC0ECEEC8653FC9B2BDD1AD4D00A566FBA7186DD3C9CD26512551637498CADB950FEC71ADB9A5524285DE328B8EC7EC75D2345AEC6A27C42AF6D9B92155315C80DBFCABBB7DA0FAE425C4FB896B15C9BFAC4FE67DF5A23D30C93DA4D8F36FB15D100050DA6062E22AEC5F4DAC4F6FEEF97AE
311
05DE63C6D38F9E068A20BC5E3B6BCD75320C5090924E7F93640A7735B1A43451C2D91EE62C6238B797349E59890AF3A520DF4A87095F3ABEC2E61F0593416CE46CDCBE0E00E2523FCCD04408588B5B6C9DB6459C786CE378770B54F51DA3A5E1DF2A3349BEAAC234A6CF8993B598B3B25B4B113E353A4D750FA7534749430F
311
3EBF2512E7EA3FD43C6AB9A1F765A58463B306721A15D224FAFE8C6F5E3432D57EE697DA0DD5A9D4866A8BCCAAA9DFF1F06047851408FEC060471D0E3EB86BFAF46E4B5E60311DC3E3CEA147C75CF971BE74689507154FF2D2E92F15CDB2B9182B11459FD8ACAC5A85F174BC94A7F4EE4C4F5CAFA7C02E37BF0BC77B7DCD0C
311
047BC316F562A01A441AFA7931CC84A28CB9F4AA367EB515778F29BFE61195FA671F4352E5E46E3A64773F1F76EE5EB36D7BCE9BCEAD837A4D77F8DB8C92AEEF6711920D7C7D0F76B0FD0EB7AB83724CD35BCA7D36DDDF5FBB7FF6F04A91F3E2BB3B8F1A43CD659639507FF6331C5F697BCC782AE57D757A27D97F1AB9E0AE
311
DB43F92F1B2AACDF5FEC8ADBAF9F814E2027003BA2F9E144B1938A7A04050AE5D953B82C45619165C813A10E76DD6906B3C16438064D14CDA713AEC420034613E1AC7241904A49FBF87409AFB1FCB9B72FE7933A87D8FBEDACECE4EDCF6A4FE9FB94D5DEB74FAB7CFEAE17EE965DF980DCCA2D04134994F9A2E94D2265DA4F
311
E6AA7B7AC15FACAC2B5ABBCD7DFF542C5314FDAB2E1B9D8B65220B8E2B638BE008E8DCA22678C820C5053664D15E89F2D735B51A84955E81A443545E9FF787BE0FA700A76D136C27DA179A7C6E8939E01BE756E19CB292798063D8B97F44E8A27BCF3A614FEB8BE974A718E86F7EC99B53CA35FA24F61F2B07266684623A3D
311
4CF073E511F3A10A8FDAFAF0078C577F4DF9D339FE7862E5FA47CF4344209E5BF76D783B1B48E152AD281B15FCB934DCDA49CEC5706B1EE8B460F435324A5CAD154725E21AB8044B75A557A79F6C807B9340AA3D92503E866F4274412926C8C504E4D5EF8C0E68DD0B028781A6B4054F11CF18941F101C57CCC796773ABC8D
311
ED9CD91FE5788806C05E548895354AEAC96546D55B0E94A59F148D061F42AA398D822CDECA4CDE79E13469BDCC44FDC990F366BA5978C15F97ED80CBFD73B0CD9B8B83A4F6845BDFBFAF034019473FB9A63BD55D3A4A7284757071574029A4D016DCCBE95DD679EF3C4880BF169422F8C89B68A988D2B13793CAED4F74DE74
311
86C72DC94DF46B8E93D8E02EFCB1FF9B3BA10C8AE7F653DF94F4AF466CDDCEF5776687F7C4C14B63E4EED1719DC2EC482D7DBCC7AE518CDE3D5FF86D39000EC3673C0044E1D308BF05F74D1B5F033A7D1BE7F74BC55BBE3E4A20F920946CA0271EB17BD2B80E5660ACB8A29A79F5E4BBA49D4D945B6EEF4A7EFEAA65E5555B
311
BB57A7E15D2F83C69F30BBB978D2B39F1F26FC097424D39BB33CA3D87ABF64E307938B685BAD44F71556A30B7E712CA4FE600613C3E554B69ADE949A7CFE214DF1FFF05CB82151EC6FC31950239F94CF7AD39DC473F6EA356E5EC2C4EFA04383CEFE985A127484366FBEE3C0EC4FEA363E4F6632AE781392FD45D67B63FB8D
311
F70E82734F431FD3443172A0E30A83D60982D55FA6A2CF86DBA8382502ACC6CDEF3B907982EED1160E14863FA242F9757347E1544275CCDCF71ECD5F8621CBEA326B8BA884AD7F825781923E66971F04010D574C541D8427A438A37EEF8AF88240EED7362C953F5A81DE2D56109CDE2524EA0F5D2F87308C0C47BD97AD6058
311
78AB8589E17CA83930CB5E0DCCD75853D68B1AB136594926DE426C367428E9334AFAFF90ECE221BB5DC9E5BB53D2CDEF954EAA9CD814F0E5725F1965DD458E5F8487683AD86B9D0076BE3EE91EB1CECC5331A67A3F79D8B27587C12EC2A6A70474749F27B4C0BBAFB94B34189E88DC18964BE4121B9137FD516C7755356E50
311
D6714E31ACD222621EBBCD1CFF81D87479056A9DA0E0B8EA19D24CF937DA89F78E8650CCBDC110AAB6C4E46DCBFD0446BA9E2060E81F314AC2031E88135E5476AC0160EF5C0DD2EEF1B8B5CB2D198BE9A554A9093B5F7D7E4B5407DDFCA1D9C152FD97F55BFFFDFE802954DFEC8995B983E28AC92F1971E28F531DC407A128
311
0EB125F64A72E617EFB27DFBCEDCDA2D6F2BDADA36873EE46B9BE1782998C63DA7182BC383FB6FD15DA472B175D7E8B4FC88F38D6E07FEAA3FA3CBB8F6B449ECF14D2175E5C5CCA3A42ABF24CA6C9395AF74535F4DDB38CB84F56614B0FD32D7E19CA5CF988DB4449C40E23DF2B16772594554579094450F56F253CD25EA7F
311
77366FB1CFE79696C428BB64D5A41E986189427E5E4D7E2DAE3D5BB4972B3DC44EAABDDDD63A2264ECFA5C786EB0EE1FDC5BE34FA0F08376869FD1E61EA06CAE15191135445EE8F0394161C3266A596AA035572BB0C8876180D8B9C77D307DF9DCDF7365ABDA6F3A2366436457A4DFC1F259666569A9E4A79C817BDD5610E5
311
200FCE894A358EC72858D50EF67545DA81C6FACE3D457BAF70367E1E6BDD9A952FB4F56247F58F523B97E640246051A72F79BE42FFA0B3187F63097F91C48B868586F714B0EBD5A00A8412C1236E1298F60C72BE6C96B82B404CADAA304AE9F303176B14BA53FBC2D5E86377E35542019E24D97B96A49B2C0E5006E7795954
311
DEAF5DA58958839043C6C70BD3B1B33B6DC5C31316D8A6923F142E26F6711A2258AF977DDF1F970ECC4F1F2B434B96D81BEB6E89BF3BBB3C7C8CC80505070723D6D7D7D3C8CA27CA164A26024FED94B12A86031867241DA53D929636DA600F050BC40CE48B8BA03D69224720DEE2ED2127390BDF5E6EA64527BBD4C4C63FA7
311
6BB801FEEC0E61218EC98A8A86CD8313781617877E66692839B9468CF4DB8E50A73986E558E309C0D6F676F921BE02F1185454DC75B111572FF9D27D85EA14C05AD7271225B391C4275659CA4A43759D0BA44639BE4C30A84DB7F67A41399FB95CBF923B1B1672ABC807C1590557FB18D811983FA97F5E609516D62281D38B
311
1281F68FC75528C35E4CD7DF0F7DBB5E5DD69C414EBEA2F4A5B241B996BA77AE6C772E367408C633EA3E438B68563EA8BE7667F3A4C4FDEEA52ABD78A2820F443B7914A15F180018D231E64519C56A12F6CA7C8DAE18F06F6B769DBF92329EF6A5D18FBCE600F36BD8E8198DE5CDAA96181F3A756EBA5501CEE58F497EA4F4
311
18A2B82565B9BCC611713C0B708CCA1F398B78C5F7D03B3437CC18F13061F55C7BEDADD5ACB1DB0E36D3CE47FF6EA1A563A57E9649EA5D14D1A50EAA457463381C073777EF1600607BAF6428A7DDC079D47A204EF1E1F1F0589FB054D45E02CE623B3823C317C601E589E22B1E88B448524B86A82828E32345EC18AE17214B
311
42F8C41C6D428016D9BA31DDCB47572561E5A402E5BA4FCE55F78AF7268524AA04130F3A20BA5D1E9F9948EA48FC8F5314FDB35E21898198060034ACE5E3E2BBCA34092518F275190AF65F45867FF0900AA4B81F25427414C372BF51DC29AA855C5428EE1EEDD6B849AD60F6E73475C2D2523F8A2772C840A478DED18A8C5C
311
91B085F255DC4F54EA7AA8947354FD17ECF8FB3B4A0DE7B483CAF3A1165EE05BBA413E5C1FEF3DE1D6B8F2F3F3251C17D9FCAB48A9AAF63AC773A0E413BBC46A9ADF84A566FC920E4D8C52C9769EE3301CADEEEDD92B312E02E2A7E35B7F1E7D203FE5A7D75578B06E99D0E46FFADB8FDA17ED8880390DA29094202D6F645F
311
76F6F96409CDA05495A96E84B04A00D1A6C6C81D7F3DE9376E828CCF144EE50E364ACCE7237EA0BFB5607ED1AC3CFE73794E5B61739D14DF1743441B1AC98F00ECEDE9E7301FA29755FBEFA68C91EF2B314CF510537EF1ABFC9A762496280B546F5EDAAF8A5B387D469FC9A878A92828C88608453ACEC6094DCA54111E7AD5
311
B2663DFE2DD151B7F123B9F4FEF8EE36AB125FD7AD52A59B1B765B3E3F73E3F73DEA93875004D2AFFE3CDE9493B87A9904DD052028949041A91DC0E1BA47BA714343FD5B25E0A6A09503AFC17C790058A836A324FE31D7893512E28230332F153181C1E018E1124EBE1BA262AA428A518237D1EA7275E48C5C561BD19ED691
311
2EDD8367DA0F31E40EEAE9683DA9257525AEA7B632B97119E17145A90231768A4F3B9120FF32E8319B015E3CBE26F1A754177D8185345817C096B0CE443A955D13AC15E1FB5DEEA0239EC32A3C92241A237B0B02FFCB4F93CF2B02570C8D192E2F2A68CEEB42F12E6F8CEEFF46C251E22B4341C56FB08CCE550E7A9D6F4D65
311
64B9EA52A83D5BF2C6E03FA19D2775E15A8A7ACF30A13C259EE7F5EF2AC3BA354F1500E1A07FC63FB4686E2F12EC69719F9ECF5FE3F35598DF2CE944008CE78F0911BA5BE5D0A34E0098FF038669C26030BA9B300303039852A8F6F496341737CA7E0D2E3AAA36DE0A70AA7D9CA0D54D9AD84B18A44C9E625475E1C97B93BE
311
BB38DCE7D227E67A2D00F531436136355F243D1FC0D712C5765754FA22FCFFAE97919161F46D6E61ACB37D83777B385889770B50765B127768443A5C4D3A4E35A3151111F146B7CA116F918A049F1C272F2CD7976C69A0068773451659A97E0F4A08FE604C3FF6CE7385DB19F4D3ABC8A0D80DA8A42096AC377DB49382B36E
311
270B6FA7570188B4B7D1DDDDA82ACA487CCA5D38BD3BD039ADBAFA4ACFF27809239B722081E2EB9F145320553D183F28471C388BC8814E5045676767AB58A8E72D1CED2CA731379515D2E533E4CF0B39DFC625F97AC4836831A4DE330E87A8126FA17EBE583D614E71E22A8DBF2825599743E0640037303E8E1B1E8EA4E1AB
311
FA4F62907B5E4E0E5DCFDAB417C36C6848A2B8D15F1E505434C0707E16B1CFC2A1C36A42BBF55734F8F4301DDC2A5110CEE8C0747F69519265012A2174BF4E955ECD4FDE095A3ABC70536B7AD0B9D7892F81287D667C108703C9B66A221E9A0929D030008F77FF6F5D2108EF5706FC87A3069B976F7C9FC3239D13D283CDEA
311
83597461079FEEE049B0F392889898B7D87D31F8D60ED7B56B91823A8E4EDDB36C6172ECEE42BD42B12CD67994FA0F0DFAE9389356F4CD4425A4B8AA55CBF7ECD585C6A2C2316791E43D5C06841ADBB226A87FD61515FFBB0167B74E56BD7F3E90A57A97FEDCBDF483A0D6699A8C0849CAEB4947FAA90D8E332D9DEBD9F473
311
8C37DA0CAF9CF3DAA68BCB67C420459C7A64498D6E848E5CADE92BB6901F607AA331104A67F7CD650EE169B1DAE94D2C31C2F993632259B6957E246EFE4C5481107B07118607700040E5812A2A2A38DA0076875258C753F60E0F2662C748EDD5F3F3686B8FC3BD6FE631ECCAA1E8B1C1E565AD117E54893E79F4672E32F9E4
311
6B2A183DFDCF3EECB4D4D077DBEA0DA254D256045109670050129E9B9B1A9E4A11344D61497A992778095151510C4BB7EF2009B63AA4360635312E4CF668B7E0D3D85A8688E2BD83B569439892ADB63461930D428E0DE42E4AC57CE48DA5CC1449530D8BD3D6A0F08DF20C8E8F570F2CFFFCEA286E30969B4654D498A58D9D
311
A782E19FE3F002181838925592C4A1EF0B332D88B61A92C644547BED490D3A42CFFAB70E36D961F694F6307F72FF15A1C79D5B1B5CEFD353D9E2B52566DEC8F8F09CB3E8359C0F68EBBB7898243E34E12A015B2685AB303C04D3A9E00671FF3DFF0A184E4A2ABEB2B666AF5B3A209C73D8EF29DCDB069C9F391EEE9DD0F74C
311
7BCDE16F8F02E3B8816122BBEB50665775B600549D8BB33A54A6BF940C028118BC6878C79958D6784F9DEAA6E26748386FFAF8D0D0101E2847B6563F5D8DC1D78F787BE00E2C941AE12148D4A81599FE8F68D4DA5CDED75530ADE138240300EE13B0FC13A1687FED6774662C05A2B7DFB186732F0D7A93545D8B0A6390AE50
311
54D9CB582DA846D7A061B3358B45E2B52DDE63E114397EDB7E09233A579155D795BE76102CF277F4DF8B188C4F2879BEAE3C08347124BF9ED23B128259FE107D31E34A652F090B30B39E0D9AF917B76A2806135621A8A60681F16AF216514BBD02711585B5B1AE823F4B2D0369EA5B6BCB863072727FFC871CA6C9AB79A814
311
D989057E9470A3D238BC87CBB4A0EA49AFE2B86F22E499793CAA9047080450166BDC357524561E258C77CB697F1ABB32562CF87C3B7AA12F911EF19FB3E5C02222E887D08202A60A17151F5E053A86B437771088B4FEE14D652C43E8D939995D34545E12E2FF93D4E366EAD25F10CB7DED141563C3D0C447AF06078A91135F
311
D4B9611583CB4BF3BD167F2399CEAB0E0100F8FFC305F00F1711717173138B4B48C83022295DE657EFEDD97F238ECA80F528AFB4F8D67AD4E2594B9A3AA86D7487EFC313BA95745C186F0CDD84CC12DC9CB0424B42203D351FD9C0A3AF10CC7F388E0329279087386421F194F4A29464C1DEF7EF8BE515E4A199DCD5B90934
311
2598D8FE6A231F71336248D5CEC5454455C7BE383B3BC7B260FED27F703FDC39A170F3827239102F59D4DEE7FEF82EAA1A5E4BA94DCC4CC44E7E2EDE20F24244E4454369D2E87C3F823F193FD4FD27E1C23984B01898D15ABC20711A8A558054951A6AE280096BA36CBA439603B7B0B4C45F248C14B2383B4B5CD8ECECE4FF
311
859AD4A6CA2326D020EF090F4041D28DB66E5256B56232CC52829DE8060BAE6BBF37D4B7469B822454FE93210A3E8D15E69FFCF01123222611C51C4FD0A041A0CFA2471CF6BE38D2B20FA4C3525B5B8B586759475CF80ADFE67A284AC24651E52B8E683D24C2622642F27E7C3C22783BCF63648BC398BD6CD0D9C97E7E7E3E
311
ACB6126DB7A6C1FD9F1031302EE67ED96F22B77C7CA0239BB324207559B105E4693EB26EC46182A92C9C0DBD24F29B31C5C5AC1F84300E0E17CEEAC15F5736FA4A98971E2F1423BFCD68D4BBD5F86E74B40A369F39507C88FCDB35D2DD8DEBEA4AF999E23CF2816D204200DF6E611781B9884C1AC8888B4DE3973204729594
311
34323A5A36B22A8E1F721A270DF3BD65E4A31C11FF048AFB0D8B7B6881423793963A23CFCE935FC189ED36FAE35C46DA3574C979E4394BE52084F3081837BE033396D2EBD80F1F691B273F660D2B32FA27A33B1DE4ADA5F0FA4651511102DFA410DDA86E065272CA314D5249DF91B06BB92807B28EFD54F08F7B525252782C
311
D276DD02E6B0319B13DF87B1F6361AD6B28FC0D711CF445429B9E5A433CD493051C49A9E03DDB1B147D880253514A5DED88009018620EE229101C041950E2D8AA8E1F5F5438E0C0C0C60EEDEE9E3E0C051948C69F84BB7B2A48A1F3C8EB9E6864687F4F4F6F6E2FA87608ADAF9C5E117B7C1A737E710769DA1D15ECE6A8450
311
2AA855398712D5FB51BE92E4EF824969CE18278798AC303C2C7980DD2500ADF8FB1E6D6C2FAAFF9987178923334A244758BAA01A9A1B70FA5097D01E1CC2A58DAD0EC94CE6430AA9B0C10D75E3C6BAC670EFBADEE1607739CE0FC18A2587E3EC3058562014C64219C69BC269082D5C2F4A659278D585755912176D78A1B641
311
719C2A394CED495A1AC5D583FD2F5EDD93308EA7EAE8A6DD396598BDBD3D4CFED62D18A5BDFDE0DD5C80D1A89BA62697B131AE7CE9A6594138582F1B37D68F1749AC7CB67A70695D48A4A056AC1FBD4E82358CEAE38F54B95A9016F9000F9879C0D9D131768635CA798895F27D6F1614F11F2838A83611AA51C9A3DDB539D4
311
2979C29F10465655C17BEC3E2760B80DCBF609198C7B171A531905F3EC218D696025975E986C6B4C666666787271F202805577DD5A3EF0CAFAF91B62DC4B2DB4217A7606282F31D8DDBC290593BAA93EA6353AFA9939B877978481E15CFC9F2755CDC00C538F63A4BA3E80AE009B73CA0185687D339A507D165B74290D6EE4
311
6D5C58148F020C3668ABE9EF2F7549170DC80DB41FFC1D678FF19AEB10C7133832B104B80F691B3138F97A92D26E551F1F110400D45AC71A9B9AC41A1A1B1DAEED0B0810638EFFB511D46B121C6FEA0F38CD00E03CFFEB9713FE1F9C263E4DDEC160D0497FA9A132BA608584057FB15380825DE6C7FC3C667EE947D488A098
311
98D8E939C4953BF4EC9836344D2CC6B2971B2A21A572B06096F4982D2CC7232D46E8EA69DC83722E267754D777F97F96D5DA74E1E75178084D0E70F12AD33E5F71EF2AFA599B2BEBF60A5BE475F444F240CBFE8143C334E7ED9150FEEFEF7EB020C4DBED388DD1D6A167A76F3CBF119B578AE8CFA7736ACAFA4440A1C47185
311
638A0D2F3EB5BDDEFDA958FB13CE4AA4923D5BF840392D45544329525749734866684BF7F8D9D54D892E19BCA9F829A0F8BFCBEEA6CFDFC61D74EA1A645ED7A1FF241739F15694BD835B66FEC5677E40FE69BD3F91AE402F036537218A401CB0828604AD189E575015C6F3F6BBC8AC79CF6C70653847254B31551EFCBEB597
311
8B9DB85D58D0FA41A9DFE9C624834AA04949D24B5AE6D299E072D152D12097920F14AA92C31C3B97E28B6C2E6E9C23D63043ECBBC0A60FDF5BD0C33C127EA8A3308B8B6AFFEB28B4455BF6E7AF4FC6222728357EB8E46E85053E6A8843AB23295BF838ABDA94658FEF3F832F147046B4ACD6F7D48E8FCC9618582961C898D1
311
C7A253C91BFECBDA6BA18A1FCF70755DCCEE2222F41B76D23CA98D0CB3D95F0CF66D57FFF65E2A90F5DF40FC3187621E981BD0BC1D992787212688976B94A8F0C6EF646624B570B78E068826F87CE27041A95C9A4871FF65CC17FCB1639629AD6A9517000D63AC231F3D741CB8430777E7ECF80CE7A3F73C0F162F7E56AA71
311
F4DA80A33CD6ACEE78E2C11FAC03DAFCE929B106F8F6B3ED2DC71FF994BD9CEF4E9A94896EF1B6E2B7B4978168BCF0847A3D2A4F1B0500B926E634B174548E9FBAD27153FB5FC36799B1E6C7C38A94E1F9E996796D7B485E635D5287A2AE76FBD11A341DB3F8F810385BB7296391973DC6C37C452A9305AEBBE0CDB6C566DB
311
59FE60C8E94B1FD090354BF51439FFD1B48D725228FFA88C84F686F547107A7A235665A4593B7C34D748C1AC8D56DD5DA861EEFBADDECBBD65117E65851F90351AEB65F0EFCFF4BCFEF24CB7A5879699FAC437A7AF9099186CF006BB923A59E37D7A36A29FD8D2CBB914A5E9D0A8FD212FBF796AE9A67958FF1D5D8B85F78F
311
96219D4714EB919929241B6C018AAE0C02069F8D919961EC5DDFBFB7573E3AC8E08BFB7C8534BE6DE045B3CD63DBD71F7638BA2309CAE398EA3A7D8F98BBBC7AEB367EFA5CFA27A9F8F2F52FE878058E6209C026453F8E7E8A237DFC389E9590F6059B397CFD65183BBF936E86896612A5B5FEE49DAC8455D026218AFEBEC1
311
2B3523A45B57B82C9C97E02ACFA1184DB18E48CF615DBF39C3CC6F0B4AE6BBEEA2E39D944E290302FA3DE33FA7E40296E2EF7BF1CD855BBECFAD0FD622BEE9746FC4FDFDE545AE6E3BC234CADF83A0FB76DFB145BF3828AE3436368AC24989454F8FF70A177672C711CAA1A76107218CF948CA01F873520E7A2B118EBB161A
311
BAD432932029628B6761590C98AB590C8C8C79798CE9F715BA696E839E9131A4BB68BE923F1747FBFF165331FFDD4D05997ACD168F12CA75348DAC04C7F509FE83898A8B421181AF492861CE81E4A2DD0A30850CFA95E05F097FF70F9E777310D584A75BA7018922E271DAB1D785671157685B7D383D3E074DDB4F1E44EF04
311
B07BAAC75A062077C54B9752C738C9D804D402E02851F3F89605AF189738C18C021D2139EAF72513824E10DDD3047BACC8521ED7E98B257D1166903B1B08FA6F918FD7E162913FEC7D0EF4787E29C35FBA8C6E2C9C20E9AB30AE42CA2A01A090E7D010C1B5BF9CEE2A304BF3A987FB40D836979B79E18D70F257DA61E80847
311
2DD85B82761825779D6B90CAEB0F23360C6F80A7D7D77545E95B3DFF0CF96A827F9B5BCECD2C9698718417EF80FEEDEE938AFF55859D0D540B7FE09435583A6F04874A0C7E8CF234DF4879722000167F5872CEC6BF3EF7E5A8CC8121E6A359227C8A29C95212F9F735BC72A887D56B8F309FC525BFB4FD767AAEC4AEFF249C
311
FBBD2DE1AB9969A6155C7D8DABC307E47324C1F916C7BCFF40ABA5644E9FFB9238D19ADADA49D9610F01ABBA57E4DFCBDCCBB2B93C8953206C91DE01B0E2651A6D6C31721915B31F7B7CBCE55466F6D70402788FA91D73BE4ADCBA99A35F17D6B83383704917D6833F0FA3CD45C926ADB8BC17999A4A0AFBCE2541F7B8CF4C
311
2F5FBA611B3E626D64407CB32C122DFF4EF8674D6EDBB86C8F7C6A16D50FA685E2CCA34F8F7D1D8265BB0042E9D7F1F666F7BE5FAA5184DF58E12122A42EF02F461B3F369AC746F96528AD208512AB56844CF75B97F352DF7995024FB02855385854F3798670D01CAC771AC3E1889EC25F61A20C1F8CAB46898817F9C47E2C
311
DA1F286BF2F358298709FE567C91133E2638C8B53975E753EA8BFD3578B5F7186B7BF084EBA3F77BAC3132A5779902EC22AF2D2E79F42D324E083386DAEE9810D1B44A5DAA54513C7A71E52A4AB9257D975B621308FE4D2141CC3DCFE946C154A3C1DFCCA7629EC69ACFA831634ADDA93C0388D2A9A2DDAFCF957C6995BCE7
311
FBB6DC4EBAE79E63EB08E9A25F52F67076F7093CA545CA3053B5BF576DEAD4E0017143C5F759F32B2D6F145B52B67B48909B7C7FCA6586EE385A2189C16932CB6DDFD9152AE317C430492A578ED27B72D85D40C7C93C097939E1B50F4D67F05334FE9DC362C30B7FF561B95259138ECFD9274C8D695C31B14D4EAA9F3D7FA8
311
DDF652F8C5DEFA23284C799B7D94416DEE81E05A866302DC70192A5368EA65E1CED8BF107A1E2D3119A71E85DC1A7B0C1E93274CE04DD0F2ABC8AC7C987FDB002B6F81757B43502EF7A0D92E416494FAEEA4C9C090CD9557AA4D532F4996A272B94355C5A0E4974EEA9627476F30809B94D8D8D860062E02204643BEC7D043
311
8AF800FC7E2B26955D595421E83C69E1A07E0E3122285835F014AD538188CF9737CE76D464A353FA55A001AB2526B84E985083693BC76FE211CA1D000679C889E3C009832C87E1AC2EDD05C302557422DF0800E316FCAC86978A371F025A6C7DAA9F333E7BD160403A1A06EA75AA9888FF01504B03041400060808001D8287
311
5128BB58AF800100009E0500003D00000039444643463131372D324231312D344438422D384634452D3730333931343645463333392F536368656D61732F436F6D6D6F6E536368656D612E786D6CBD544D4FC23018BEFB2B96DE15493C78601010A34B880709DEDFB52FD0D8B54BD70DF6EFED3AC0B12E6442E2716BFB3CEF
311
F3D18E26FB440405EA8C2B1992E1C323095052C5B8DC842437EBFB673219DF8DA659866649B798C078B48AE6410122242F2A4994AC7F93815DF85C049C8564CA0A901499DD886B2EB9B1E02448F358701A9235880C49A0119892A20C89D1B9FD768815CAD268CB5E0355B40B1E47F3E37A2020464BED06AA57CE8FCC20C3C3
311
446D46761A2632A8C1283D07031EFF2AE7CCB1BFEEE916E406DFAC8E36FFD99A9D60A6944090EEDC3B670C7DC13DE86B6B2C5C240D6E503BB85ACD579D513F1B9F9A69DC9CC22AFA80C426D40AF0B21EA168559156B6276F0F726A6BFF04DCD513A87A62CAD41FB24FCB2858B3952E3D852084DA25B9303C15687973CC8E8A
311
AE11DF2836C38C6A9E765E8C1BA1BFB1DC29CDFE518C8B5A7655A4ED7E77291ABEB80DBD82EC866ADE1B8D05AF9E35CF09D7A061F38A986D9EC412B8F0F65E5D81534D9B231D1E5A8FE577A241F3A5FD01504B03041400060808001D8287512CCEBD668A040000E01200003E00000039444643463131372D324231312D3444
311
38422D384634452D3730333931343645463333392F536368656D61732F47656E65726963536368656D612E786D6CD5586D6FDB380CFE7EBF42F0F7A649B70E1B90744856B4970F450FCD7A5F05459613EDE4174872DADCAF3F522F8ED3B88D2F1D06AC4050DBA2493EE4438AF2F8EB73AEC8466823CB62928C06C384888297
311
A92C5693A4B6D9D9E7E4EBD51FE3A931C22EF85AE4EC6AFC38BF261BA626C9AD288496DC3F4FCEAFC63366845F7A10452AF41DB320C0D44EC26EAB20918735565582695670811A6A49643A49A6E9069FA4604A64B29016DC4B48552F95E4932463CA888468C1D2B250DB4962750DF7CE273069CE8363F1FF4EDB00E0A21999
311
574AE4A2B00C353B93F3BD4777B8A61ED8F604ABFEDD79CE56A2B7BDFBDBC50996E0ADDE16FED26223C5D30956C29BDF4A55EA686E5E58B112DA45CE67F76F4FA27EFA3FB672FD7372FC388FAECDCA5209E693CAD167BADCD272F943701B3812F8A3D852008B1D2E32DB927B2F833C6EA95879925356D254582695095A3CE9
311
82924720BE5774A3CB9CDCDB350427D2DF20DA1B5532EBE2D5D6288D75D4F7E4FD9890A0EF8E3D93EBB8F8BA4758158EF6FB90A6F9520281C93DE7AAC6D24607DA296BB96018123F821A7D6A5C5884050C475DA4865442732C8B95684A50165CBB3A32F25F783A4A480ED59AD7F924B968AEA50131F46303223E6A397B0E52
311
976030DC1DCA81D7E7C1EDEEA42C19FF27635C505E2BD5198A599020DF50A2330FCB3AAF28CB0124108429553EF1B228802E2265D8F7CC2401042B155BCC7070F1E5C55F13B4A9577362CCCE46C32174E010C3C378C44841A4BDA00FE3A12006CE11EE6AEC59894D3526DDE1CD59D503ECC324017F8061B7F162162FA62EDD
311
81AE3308617770796DCBDAD2B2625C5AE8A63DE20B2C8AA5E95E76E5730823955956E33E705425A2187C185D36489A1B44D3DCEC2172F6BA2105C3546287A7194B2331768EBBE64F6E70A9930ABE0ADEA89E9E2C38523B810287AD67A54A039C1606EAFE68F8304610BB9093DBDDABC0B2AE4E290DCDA15376D7E39F72B556
311
F0B32EAB5D3D498B4C41ABADEC3A1434C422D87E8025A84BDCB2B1417ED750FAE4DA8976863974C577C7F902D3F156AD354DEA3540DE6BEAE2BEA52F7A2EB4CA43802ECE5BF2CE2EDC9347179FFB023CE412E60BE16DA0BE29B374988A553F561DC04615DD35F7D2C8979F60E5955CE93DF29DED8AFA1EE6642D53418086C0
311
3C47C377910F75F7E8F5EF665F70B60FFB22AEDF897D119E8423C773E819A3C1E55E550599EE6EDCA34D0C86FD72057DF2CD46F16A470682471C164E4346D5306BF12D7D12D82CFF673D41636C347443FEB51B50D72EA171A8E4A58623A4A16E0FA2B8B10A0D23268D87C33896EE8FB73305A74BF224EDBADFA0BD674AB354
311
D63DB7BD5D83426761C077DE767728235446A552754EB93B755891C3C4CC6CADE37CF0E912A7BB38DBA010F9DE1282EDF470CA69A9CDA482E334C4A6EA4107987980B17E72F31730EBF88BBD39E7C629F56797A3C0009C2C5AE7951D9A05A02773440F02EEB4DE396A3B6A570C72CCFBCD823B0B8ED3F1D5CEDDFED772FA70
311
236C83FB7D86C385D570B87107535572A60A96035F8F7C6A7192F13007246BBE0521855E6AC46F3E27689CEE7D186A6FD679D98CDCAD13333E04EBE7ED6F55FF01504B03041400060808001D8287516180134D5F0100006B0300004500000039444643463131372D324231312D344438422D384634452D3730333931343645
311
463333392F536368656D61732F52656E6465724D6174657269616C536368656D612E786D6CA5934D6FC2300C86EFFB1551EEE343DBA41D1A103009551ADAD40EAE28A4A68D9426284961FCFBE5A340113B2071746D3F765EBF4DC6BFB5407BD0862B49F0B037C0082453059725C18DDD3EBFE3F1E829991803366715D47494
311
2CD30FB4A782E00C64017A412D684E454CE3FE28995203B162A6EA5AC94B66997D225E109CD63B0135484BAD1B3C07E9080CA35DB3119C11BCA5C200461A68A1A438126C75E3E230D40FF81FB3F03C91D1E3A3A0AF79FE28E25BC39EC3E17E4C2A2D94A0833A51AF55BCCA7D88572FCBAC529C4140B020FC3AAFA886621DCE
311
D7EAD7664CC86024E806DC297DA1BB393E4156543457A4537DB8817349A70F8ACBF09B3EEE2CB2F33E91B65D60786E4E3B39B77E3FEEEF5650424525DA657FB8B46BE6BF064646F0A0F7327C0BC1BC1B4CBBC1C419FA3CCB23500007872A2580CAAE5461865565294E4EDB4617B62FF579DF9A5B2F54E834076A597573A020
311
912FED777F9B3F504B03041400060808001D828751432FFEAD51000000570000004700000039444643463131372D324231312D344438422D384634452D3730333931343645463333392F4173736574446174612F41737365745461626C654F66436F6E74656E74732E62696E536160603034323670753571D675363531D235
311
B17472D275B23470D33534707131B43031377176B21002AACB4D2C492DCA4CCC492C28484D2C4ACC4B4E050A82012F90744FCD03CA26072767A4E6260200504B03041400060808001D828751F865834058000000680000004500000039444643463131372D324231312D344438422D384634452D3730333931343645463333
311
392F4173736574446174612F53747265616D56657273696F6E5461626C652E696E66558CBD0A80300C06F73E4B117FB66E451741D041DC5BF98480A492E4FDD18EAEC7DD4555D89EF28DF51A0B1BD8340C4DE7DD848B988C0ACF0649566493F2408C508DDEBB99D5129FF8F1AF8CF5B9503E20FAE5A16B5AF702504B030414
311
00060808001D828751BDDA5639340100009A0400003600000039444643463131372D324231312D344438422D384634452D3730333931343645463333392F4173736574446174612F636E782E786D6CCD54B14EC33010FD95C87BECA4125021C71582A51348540C6C17E7D25A75ECC8BE20F87BEC2603A888A943254FCFEFEE
311
9E9FFC4E6E3E075B7C6088C6BB86D5BC62053AED3BE3F60D9BA82FD7ACD82819BCA71F34563818B06119664AEE839FC605EAB087C966D41A775CC087189176D05A7CEE1FBD23741459A12DC4D8B0A80F380087897C87F1C83B20E0350F18FD1434A64E64065C3AE98040D831B5AA565559AFCAEA6E57DFDEA773B37E972233
311
956CBDB70BDFA461C18F859EA732554991AF959C825938F92D4CFDA591B7C64991984A460AC993A582BEC65401E3688D064AD609AF09A94C2484418A99ACA4C81EFC72E2097BE34C2ED92661403EBC247918C8E0D539F29FD6CB3BB37591C069BC5E3FCE155EDE85D7D30F7A9B03794ACCB5E5E45C2137AEBF404AC4698DA4
311
D0E4ADA2BE01504B03041400060808001D8287514C9E5DFDE40000005E0100006700000039444643463131372D324231312D344438422D384634452D3730333931343645463333392F5265736F75726365732F31323330454534432D433534322D343942422D423930462D3130444431383437344342382F7468756D626E61
311
696C2F302F636E782E786D6C4D90D16AC3300C457FC5F83D7112D85686E3FE449FF6323C47CD4C1DCBD872E9FE7EF2E6878240E2EA2074AF3E3F8E20EE908BC7B8CA799CA480E870F3715F65A5EB7092E26C7446A4274C8A680F586593A5D17BC69ABAB4C1D5D6D0D4E0E3AD8B3B44C8DE7DA6B84BE1822D6595C57DC36147
311
5B093728B771B364C779CC50B066077C80FC01FD80CB60093669966999867919A6B7CBFCFACEF572FAD0AA91467F2186CEFB48903109873C44FE66D2AAAD8DAED977A65990E6E935AD786974A1CCEE3B443F89219B52F0CE1287A4D011D0C010D843AB7FD868D5DC72FB8B827B4BC6FC02504B03041400060808001D828751
311
A233C2345D000000800000006500000039444643463131372D324231312D344438422D384634452D3730333931343645463333392F5265736F75726365732F31323330454534432D433534322D343942422D423930462D3130444431383437344342382F7468756D626E61696C2F636E782E786D6C4D8B490E80201004BF42
311
E6EE76F3C0F216234B883063108CCF170C074F95AE5473F5C4C06E932E4F28601967600677D21E9D8092EDB002539227A2FCCB80E1168D80A6417297A89C5D6963B7129A0D1E8F2EE73AA7B62BBEB8B27DE50B504B03041400060808001D828751BE89762363000000880000005B00000039444643463131372D324231312D
311
344438422D384634452D3730333931343645463333392F5265736F75726365732F31323330454534432D433534322D343942422D423930462D3130444431383437344342382F636E782E786D6C4DCC3B0E80201004D0AB90EDFD75167CCE820A4A845D83603CBE602CAC26799919AEEEE0D965E2E908050C6D0FCCE04C8BC3
311
55404EB6198129C92351FAD580A10E464065907C8D948F8F166375F655BDC3FDC3B4E530A176BE7057BDC43B2A593FE403504B03041400060808001D82875171FBC0227E000000A30000003600000039444643463131372D324231312D344438422D384634452D3730333931343645463333392F5265736F75726365732F63
311
6E782E786D6C4D8CD10AC22018465F45FE7B4B97910375A05BEF319A1B92D361337AFC3476D1D50787EF1CD17D568FDE36BD5C0C12E88900B2E11127171609799F3107D4299162DCFF6E80C2B85A091583124B8A793BD064E731FB4ABD0BCF03D2E6428681196CAEACC1ACD51AEB96DC31257D4F39BB31A37931CE5529F3EB
311
95AD79F505504B03041400060808001D828751D0B15EAE080100004F0300003400000039444643463131372D324231312D344438422D384634452D3730333931343645463333392F536368656D61732F636E782E786D6CCD933F4F042110C5BF0AA13FD8DD44BD18962B2CAC6CD4CA0E61EE8E1C301BFE18FDF6C24A7197D8
311
697109053C7E99CC7B0C62F7E91DF980982C86998E6CA004824663C361A625EF375B4A765244C47C86511294879936994A718858962E19D8ABE29AEA6C3875F101BDC7F0A28FE01525DAA994669AD6235325A38174624665C546162161891A6A856C3DF40A3A82CA60A89C8669D88CD366B87B1D6FEFEBBAD9BE09DE4829DE
311
115DE76DC81071211AEB26D47606C1DBB51425DACE340F549EF7C66A1A8257428A9463CDA093F96BA9A45A1667B5CA352ABE823F8C14BC59BD30FC0801A2D5D7E9F8A2B97FB3FC0CC1407CAAAF14AD72D7E9FCB71EFF16005F67BF8E40FB0AF21B504B03041400060808001D828751E3603EBE7A000000C20000002C000000
311
39444643463131372D324231312D344438422D384634452D3730333931343645463333392F636E782E786D6C6DCD410EC2201085E1AB90D9DBEACE05D09878023D01A1D34A8419C380F1F82DA68B9AB8FDFEC93C3D7C52546FCC12980C9CBA232824CF63A0D9402DD3E10C6AB03A3397DD192872090D3406ABE7CCF5B5D188
311
93ABB1690CF4DCF02282E5EA8A5BB96FFE536F285CB347F95BEFFE81C9ED5AFF9D5B1FB575BB00504B03041400060808001D828751A50D983E7E000000A300000007000000636E782E786D6C4D8CD10AC22018465F45FE7B6BA6340575B036DF63343724A761337AFC3476D1D50787EF1CD97D368FDE36BD5C0C0AC8A90164
311
C33DCE2EAC0AF2BE600EA8D332C5B8FFDD008569B30A2A062DD714F3F340B35DA6EC2BF52E3C0E2806733384B4F8D21382D9C07BCC0D1B71DB5041D87534948A629CAB52E6D72B5BF3FA0B504B03041400060808001D828751CA1DF9C9A900000073010000130000005B436F6E74656E745F54797065735D2E786D6CA59041
311
0EC2300C04BF12E5DEBA70400835E500FC800F84E0B411AD13252E2ABF27A55740421CEDDDD9B55CEFA7A117778CC979527255565220197F75D42A39B22DB652EC9BFAFC089844F65252B2630E3B80643A1C742A7D40CA8AF571D09CC7D842D0E6A65B8475556DC07862242E78CE904D7D44ABC79EC569CAEBA537E3521C16
311
DF5CA5A40EA17746733E0B6615DE7217475F386F18B9481C510F1F021CD9FF027EA0E1F5C4E609504B03041400060808001D8287513DEE336E64000000790000001B0000006175746F6465736B2D64657369676E2D7061636B6167652E786D6C35CBC10E83200C00D05F21DCA56CA76D41FC96062B120735B69A7DBE268BB7
311
777961F8D5AF396893C2ADB70FE7ADA196782C2DF776D7A97B5933C430F15651E5469C55D70F80A4992A3ADC954792C525AE70A1E4D6AD9816CC044FEFDF01FE3FDE907802504B03041400060808001D8287516C765C04F9000000960100003700000039444643463131372D324231312D344438422D384634452D37303339
311
31343645463333392F4173736574446174612F636F72652E786D6C8550CB6EC32010FC156BEFD898DA4E1C6122D7C91FF4D41B02E2A2C460F1A8FAF985D895DA5325A445B333B3BB43CF5FCBA3F854CE6B6B06A84B0C8532C24A6DE60162B8A1231467469DB5E1170D0AC31735408681D1D9D9B8EE90B02628935163A5DA41
311
EEBD0A508847FA0CE0C5875A78C963480C7F2F572EEE7C56655D6E3C4663D472976A99DCF44D2B070C4FE4DA1FF0054D4DDBA3A6EB46D4B7FD2BBA76E381344D3B3564A25516331AF4F2335D38C58392C0082618D504E1C35BDD9DD26B8FEFB4CA4C467D70E9E67D68BE0ED898B7BEF0C069B575FFB8C655FEEF1AB5092F64
311
77DD141E589D967C3618AD724AA93C234C3527CABE01504B03041400060808001D8287517BC9E034F20000008E0100006800000039444643463131372D324231312D344438422D384634452D3730333931343645463333392F5265736F75726365732F31323330454534432D433534322D343942422D423930462D31304444
311
31383437344342382F7468756D626E61696C2F302F636F72652E786D6C8550CB6EC32010FC156BEFD898FA1157982875F3073DF58680B82831583CA27C7E2176A5F6540969D1300F76E8F1B1DC8ABB725E5B33425D62289411566A338F10C3051DA03832EAAC0DBF685018BEA811320C8CCECEC67587843541998C1A2BD50E
311
72EF558042DCD265042FBED4C24B1E4362F86BB97271E5B32AEB72E3311AA396BB54CBE4A62F5A39607822E7A1C7EF686ADA01355D7742433BBCA17377EA49D3B45343265A6531A3412F3FE9C2291E94044630C1A82608F71F75F79A4E7BF8A4556632EA834B3BEFA179BB1447AB0DFDE31657F9BF5BD426BC90DD6D537860
311
75FADCF381D12AB793C6B3BA347393EC1B504B03041400060808001D8287510CB86D06FA000000960100006600000039444643463131372D324231312D344438422D384634452D3730333931343645463333392F5265736F75726365732F31323330454534432D433534322D343942422D423930462D313044443138343734
311
4342382F7468756D626E61696C2F636F72652E786D6C8550CB6EC32010FC156BEFD898DA4E5C61A2D4CD1FF4D41B05E2A0D860F1A8FAF985D895DA5325A445B333B3BB434F5FCB5C7C2AE7B53503D42586421961A536D300315CD1118A13A3CEDAF08B0685E18B1A20C3C0E8E46C5C7748581394C9A8B152ED20F75E0528C4
311
9C3E037871530B2F790C89E1EFE5CAC59D4FAAACCB8DC7688C5AEE522D939BBE6AE580E1915CFA037E4563D3F6A8E9BA33EADBFE055DBAF381344D3B3664A45516331AF4F2335D38C58392C0082618D504E1C35BDD3DA7D71EDF6995998CFAE0D2CDFBD07C1DB0708BCB87E17AA6D5D6FDE31A57F9BF6BD4263C91DD755378
311
60755AF2D160B4CA29A5F28830D59C28FB06504B03041400060808001D8287511835897B0D010000B10100005C00000039444643463131372D324231312D344438422D384634452D3730333931343645463333392F5265736F75726365732F31323330454534432D433534322D343942422D423930462D3130444431383437
311
344342382F636F72652E786D6C85904D6EC3201085AF62B1C70682FF2A4C1463F7045D75876CE2A2C46019A87AFC42E24AEDAA12D2A0C77BF331C3CE5FEB3DFB54BBD3D67400E70864CA4C76D666E940F057D880ECCCD96EADFF65039991ABEA40920167CB6EC3764893355E99A41A3BAB4394CE290FB2E91E2F1D70D3875A
311
652E838F0E77CB3739DDE4A2729C3F7D9C85A0E723AAE7D84D5FB5DA0147828C6D8D062868D9425A5517D8966D0FC7EA52134A4B418960450A73E6F5FA439F7625BD9A01278820880944F51BAE5EE2299B7756242767CEEF71E6039AA6031C93131A472AA0282981B4ED7BD8B7E81562340CB8A135157DC38A67F00F306CF3
311
FFC0A08D3F9103F84CB8C88CFF7F3C7056A405C6F2D86EAC69D9FC1B504B03041400060808001D828751F82A3B59FA000000960100003700000039444643463131372D324231312D344438422D384634452D3730333931343645463333392F5265736F75726365732F636F72652E786D6C8550CB6AC33010FC15B377F9A1FA
311
1107592175F303A5A7DE84BC714562C9E851FAF9956217DA5341B06276667677D8E96BB9679F689D327A802A2F21432DCDA4F43C40F0577280ECC49935C6FFA241A6C582032418389BAD09EB0E49A33DEA846A33E10E0AE7D04326EFF13380931FB8885C041F19EE96AF42DEC48C79956F3CCE4250D32E5553745357851678
311
39D24BDF952F64AC9B9ED46D7B267DD33F934B7BEE685D37634D47562431675E2D3FD3A545E171024E4B5A928A92B27BABDA637CCDE19D1589C999F336DEBC0F4DD7017F45678295E858B175FFB88675FADF3528ED9FE8EEBA291CF02A2EF9687056A494627944186B4A947F03504B03041400060808001D828751F303CA31
311
F7000000940100003500000039444643463131372D324231312D344438422D384634452D3730333931343645463333392F536368656D61732F636F72652E786D6C8550CB6EC32010FC156BEFD898DA4E1C61A2D4CD17B4A7DE10101725068B47D5CF2FD8AED49E2A212D9A9D99DD1D7AFE9A1FC5A7725E5B33405D62289411
311
566A330D10C30D1DA13833EAAC0DBF6850183EAB01320C8C4ECEC66587843541998C1A2BD50E72EF5580423CD267002F3ED4CC4B1E4362F87BB97071E7932AEB72E3311AA396BB54CBE4A66F5A39607824D7FE805FD0D8B43D6ABAEE82FAB67F46D7EE72204DD38E0D196995C58C063DFF4C174EF1A024308209463541F8F0
311
5677A7F4DAE33BAD3293511F5CBA791F9AAF03F6BAEEE969B5F5FE78C645FEEF19B5094F64F7DC141E589D565C1B8C5639A354D60053CD79B26F504B03041400060808001D8287519CAB014902010000D70100002D00000039444643463131372D324231312D344438422D384634452D3730333931343645463333392F636F
311
72652E786D6C9591D16E832014865F859C7B54D456BB204DBAD627D8D5EE189C3AD20A0670D9E30FA7CBB6BB2D2181FC7CFF81FF1C7E7C1FEFE40D7D30CE76C0B202085AE5B4B1430773BCD216C85170EF5CFC8101B172C40E1619041FBC9BA74D52CE46B48B6A9DC64D94216004A2EEE9D04150AF38CA4CCE3111E1964D52
311
DDE48019CB564EF068C62FABF228236A106551169495B4689ED8FE21AD5DFBCCF385147C363656E5F6188E2FA8899B628A0462C7F3F53651B3D11B6374FAA3B91AF4200EE7FEB167ACA1E589315A9FDB136DFBFA429BA23AB07A7FE9ABEA908A24B3E021FAD499ADC8D283BFDA57E3AF64F3A4FF996C750410EC3B54BEB459
311
F0FC7306695F46223E00504B03041400060808001D828751750F6D4107010000B201000008000000636F72652E786D6C8D50CB6EC32010FC15C41D1B533FE20813A56EFEA0A7DEA8212E8A0D168FA8FDFB424CA5F6560969D1CCECCEECD2D3E7BA80BBB44E193DC0AAC010483D19A1F43CC0E0AFE800C189516B8CFF258340
311
F3550E30C190D1D99AB0656832DA4B9D506D84CC20774E7A08A6257E06E8A60FB9F282071F15EE566C7CBAF1591655B1EB18F56AFD699DACE45E0AC80826185504E1EEB56A8FF13587375A2625A3212891AD9488EEEAAAA4850C8FE4D277F8058D75D3A3BA6DCFA86FFA677469CF1DA9EB66ACC948CBD4CCA8F336EE9C87C4
311
9C1E387E4FBEB4DC2946DF8D59B2208612C0E8E52B9AD032117F42874DFC23B4D2FE89E4817B8783AC8A811E44344E178CE571DE58D3B5D937504B010214001400060808001D8287515F79B1D4DA000000200100004F000000000000000000000000000000000039444643463131372D324231312D344438422D384634452D
311
3730333931343645463333392F4173736574446174612F446566696E6974696F6E4974657261746F7250726F706572746965732E62696E504B010214001400060808001D828751CF692380EC0000003002000045000000000000000000000000004701000039444643463131372D324231312D344438422D384634452D3730
311
333931343645463333392F4173736574446174612F496E7374616E636550726F706572746965732E62696E504B010214001400060808001D82875188E57597CD3F0000904100006B000000000000000000000000009602000039444643463131372D324231312D344438422D384634452D3730333931343645463333392F52
311
65736F75726365732F31323330454534432D433534322D343942422D423930462D3130444431383437344342382F7468756D626E61696C2F302F67656E657269635F706E67504B010214001400060808001D82875128BB58AF800100009E0500003D00000000000000000000000000EC42000039444643463131372D324231
311
312D344438422D384634452D3730333931343645463333392F536368656D61732F436F6D6D6F6E536368656D612E786D6C504B010214001400060808001D8287512CCEBD668A040000E01200003E00000000000000000000000000C744000039444643463131372D324231312D344438422D384634452D3730333931343645
311
463333392F536368656D61732F47656E65726963536368656D612E786D6C504B010214001400060808001D8287516180134D5F0100006B0300004500000000000000000000000000AD49000039444643463131372D324231312D344438422D384634452D3730333931343645463333392F536368656D61732F52656E646572
311
4D6174657269616C536368656D612E786D6C504B010214001400060808001D828751432FFEAD510000005700000047000000000000000000000000006F4B000039444643463131372D324231312D344438422D384634452D3730333931343645463333392F4173736574446174612F41737365745461626C654F66436F6E74
311
656E74732E62696E504B010214001400060808001D828751F865834058000000680000004500000000000000000000000000254C000039444643463131372D324231312D344438422D384634452D3730333931343645463333392F4173736574446174612F53747265616D56657273696F6E5461626C652E696E66504B0102
311
14001400060808001D828751BDDA5639340100009A0400003600000000000000000000000000E04C000039444643463131372D324231312D344438422D384634452D3730333931343645463333392F4173736574446174612F636E782E786D6C504B010214001400060808001D8287514C9E5DFDE40000005E010000670000
311
0000000000000000000000684E000039444643463131372D324231312D344438422D384634452D3730333931343645463333392F5265736F75726365732F31323330454534432D433534322D343942422D423930462D3130444431383437344342382F7468756D626E61696C2F302F636E782E786D6C504B01021400140006
311
0808001D828751A233C2345D000000800000006500000000000000000000000000D14F000039444643463131372D324231312D344438422D384634452D3730333931343645463333392F5265736F75726365732F31323330454534432D433534322D343942422D423930462D3130444431383437344342382F7468756D626E
311
61696C2F636E782E786D6C504B010214001400060808001D828751BE89762363000000880000005B00000000000000000000000000B150000039444643463131372D324231312D344438422D384634452D3730333931343645463333392F5265736F75726365732F31323330454534432D433534322D343942422D42393046
311
2D3130444431383437344342382F636E782E786D6C504B010214001400060808001D82875171FBC0227E000000A300000036000000000000000000000000008D51000039444643463131372D324231312D344438422D384634452D3730333931343645463333392F5265736F75726365732F636E782E786D6C504B01021400
311
1400060808001D828751D0B15EAE080100004F03000034000000000000000000000000005F52000039444643463131372D324231312D344438422D384634452D3730333931343645463333392F536368656D61732F636E782E786D6C504B010214001400060808001D828751E3603EBE7A000000C20000002C000000000000
311
00000000000000B953000039444643463131372D324231312D344438422D384634452D3730333931343645463333392F636E782E786D6C504B010214001400060808001D828751A50D983E7E000000A300000007000000000000000000000000007D540000636E782E786D6C504B010214001400060808001D828751CA1DF9
311
C9A9000000730100001300000000000000000000000000205500005B436F6E74656E745F54797065735D2E786D6C504B010214001400060808001D8287513DEE336E64000000790000001B00000000000000000000000000FA5500006175746F6465736B2D64657369676E2D7061636B6167652E786D6C504B010214001400
311
060808001D8287516C765C04F90000009601000037000000000000000000000000009756000039444643463131372D324231312D344438422D384634452D3730333931343645463333392F4173736574446174612F636F72652E786D6C504B010214001400060808001D8287517BC9E034F20000008E010000680000000000
311
0000000000000000E557000039444643463131372D324231312D344438422D384634452D3730333931343645463333392F5265736F75726365732F31323330454534432D433534322D343942422D423930462D3130444431383437344342382F7468756D626E61696C2F302F636F72652E786D6C504B010214001400060808
311
001D8287510CB86D06FA0000009601000066000000000000000000000000005D59000039444643463131372D324231312D344438422D384634452D3730333931343645463333392F5265736F75726365732F31323330454534432D433534322D343942422D423930462D3130444431383437344342382F7468756D626E6169
311
6C2F636F72652E786D6C504B010214001400060808001D8287511835897B0D010000B10100005C00000000000000000000000000DB5A000039444643463131372D324231312D344438422D384634452D3730333931343645463333392F5265736F75726365732F31323330454534432D433534322D343942422D423930462D
311
3130444431383437344342382F636F72652E786D6C504B010214001400060808001D828751F82A3B59FA000000960100003700000000000000000000000000625C000039444643463131372D324231312D344438422D384634452D3730333931343645463333392F5265736F75726365732F636F72652E786D6C504B010214
311
001400060808001D828751F303CA31F7000000940100003500000000000000000000000000B15D000039444643463131372D324231312D344438422D384634452D3730333931343645463333392F536368656D61732F636F72652E786D6C504B010214001400060808001D8287519CAB014902010000D70100002D00000000
311
000000000000000000FB5E000039444643463131372D324231312D344438422D384634452D3730333931343645463333392F636F72652E786D6C504B010214001400060808001D828751750F6D4107010000B2010000080000000000000000000000000048600000636F72652E786D6C504B0506000000001A001A00210B00
311
00756100000000
310
504B03041400060808001D828751000000000000000000000000370000006662782F41443036323737452D323845432D343934362D424338342D3531393846363230384646412F617474726962757465732E62696E504B03041400060808001D828751000000000000000000000000350000006662782F4144303632373745
310
2D323845432D343934362D424338342D3531393846363230384646412F76657274696365732E62696E504B03041400060808001D828751F270F1330600000004000000360000006662782F41443036323737452D323845432D343934362D424338342D3531393846363230384646412F747269616E676C65732E62696E6366
310
60600000504B03041400060808001D82875188E57597CD3F000090410000420000006662782F41443036323737452D323845432D343934362D424338342D3531393846363230384646412F7265736F75726365732F322F305F67656E657269632E706E67355B773CD4FF1FBF73E71C0E67EF7576C9DEF3EC995D46C6A1EC50
310
46649CBDF79E192942562825CE965D8A868C2842C8DE9FDFD1F7E7F138F7078FCF6B3F5FCFD7EBFDFEC41B196891913091804020321D6D7513FC77D8C5070EC3FFEE51B21F068154CC75D455CC028A3EA68992803810109FDDE5D5CEC5521B28A1B422BF80741695D5B529DA1C2D058AD2388BDA9F476F7C2CADC939304173
310
DBF48A452BF8A700C0C70C3D121C1AA15A5270C22E2B9E28763651F7DA0D12CE11077B2ECD0D560B5E3DE2368B1E65C5E1C87384A4CC5F2D9FB8BE39E9B77C753783A37998F5CEF1B4FEE553463245C9712270880DF339E0B882A6BA713D865F6F384C842D440934EF264F4A304F8DE4EEFA1E2BF5E2D91F5ADD9613D6E31D
310
DB33ED31DB1D7916CAF091286EA3D31B9CFECB78BB0060245B943C4C040119FF780A74DD308BA9D028678674EB5504ECF284EE814DAED07440BAF649BE4B55DA2890F4D73E2D489A59EE54FDB0A85B59F2F52C4858A02705C4815A792B0C4A996A2023ECB195073E115E3E3647F64243A8338F2000BCB58DA5692C7E7C3D41
310
3F963FEDF3CF00FBB0F831A9D51360FECA43819F527B89FA260EB63C5DA676830AA3626A3693B23F1A17A0DFFCE3EE164E31B5365EDF0C89EF64D8E38AB0BA9A1117D7C3A0EC44F44F4023095E80BA610DE336D0F99593A88BFC5306E72DF98F7FD132ED95878DF2964EA7E43071359FD83B2BDF9C6B5BDF768F0F3C0FC351
310
199526F53D9460A34511F75D1B63E488178569472C91A94497807A3FD4A390C6558F26D416365C3656DE6E769DA9D8FC73774E1709812842DD8EF96AED1960F79D21B395CDDFE6F92CB4EB962A4668C76990E2EF29798C8941D67DA50F4A5F947872460F1F6FDB794E8A29FD7AC0C0D6E0714339CE258FB17AE8535221E346
310
4A10F29A0BE5EEECEFC5675926A89F49EB14E5711894F6586DB5754EB4D5DA9C6437EBA57DB97A24F8B8A8DB295FFD73266CF57E82694DF5166DDF93573AFE9C9C5EB05F8FEF8E89E0A8917B0B3724DB7BEBB53252581EFC3E38166BA131A3A5B42FE2AD00A769BBFA4458D2DE7822F8C4F63D0B8E21B285AE13325F3410A4
310
35C648C9D91FDEB109E73CEDA7BC796961AF79175E1A3CE4C5E8B0D009B0C9E29EFD98BC8E97554E3D8D838424E270F7685226E5AC268E021EDE3522D583E8F20C0BDE2959EF5BBFEEDAB32FE9A3ED0E39F211A86AA9DEBFC68182EDED132AB8BB794442D2D7EA9F4D8BFF52BC4D55BB165124EE90A42D101E67BBBB292FFB
310
4F66DE5BF2300E44546757DA7CEF8932BFC9F92A0707953491A55C5A5ACEDABD9FA1AEA01BAC3DC5A24E22E7C47213493996EFBC369D086ED9397C9BA6C7F9855C7BD5E15BFC8C53DB3D2A4C5901A57ACD2FBDF4D1676E95338B2C2BCE65FDA4C64F5FEFDC7D9CA5AA1FCF11E193F2FDABF0F4916BF13FB916A224380E6462
310
A9815F2300DC49CC4DF8D055CEF76462F4B7A7ACA7365C2707891370BC1D0AA6203C44CCAB47084FEC057F27FFCD57F89B8B9852459798A675C66BD7CE572CAF71FF7E6D7ECF7BF62CAB7B3F1107DCD04DC55A3F9961700286141C94A4F771FEB2BCDA2DDEE0CB0BAE402FF1DB0100F8E475DFFFC074DDB4498AB7D186A765
310
4DDB1CB680D703D47CEB4E72F8CB13D86A4AA68116E26387B93FD6738779B34FEDB8E517EDF2BAF28D9BE93A1D3A164320E07D42E514725C29515FF361754213EDE06B079A2E99EB1CA82A02019EADEEB87B9AF005BD04BBCECB14AACD6B24EFBE482194A97DD32400685FF1FEF1544D1B14EFB1E7F08E6D2CD2AF52DE757F
310
35F5E62332EE88EA26417AD5C3E0E319D68F25414E6D672BD4522B278C57D18F0113921C71D96527E091F00CEB15AE23D24667369BD3CEFA10C7549D930890BA4366F4EBC55F01F746109F98ABCDD5A3EE06619C6AD78AB33E48E4C9BD21BF7478B385EC05C4F8987E2C1BFA0A60EBEDAA0AE0B015C2720ECE180FB6F2DEFB
310
EB822D96338C9B63822183BBF52FB664A7AE57003AABCE512BF77E7E31BDA2E739AC4C131657DDFE5225E900FB56CC01CDE808FA4A9C9DA16AC679656BB64796283D89812B8F91136AE18EE5EBBAF47A73BE3C153EB5D4CD491B4BFB4FE690A4CF9ABA08C0D8AA64220C438C96EA6CA80B58FE5761E697B3A292EB9FBDA502
310
FA863E49FE694ADDFFF9D62C520BDD1A22014147A0903A05B9B729F54272EF83931FEEC057BFF8C8055C279EAC5C0011804828734024F6CFA319C9CC6867C727184465CD9BB7ED386AFFD96B294A85E3802FAE47244602D8273615952B98C4F23F7EAE4463D9D638EEE374A20959E0FE519C4CFB0FBFE5DD80C2AA3F9DB961
310
D1BDE57E67C9BB47B77FDD74EE3094F5DBBE3EBC1FBDB7393F5116263009E2EFE1AF9A221B2AE234C902BF70E9F280ED23E73908361565964333A3F01D0B006AF32FB21AA1316744B489D5A198E85299241735BE559675130955C902A8ED761FC0DBE337A9F91919AF5CE32AF902ADF9AB2615E00E8A94586BA1A90839B618
310
32FF1BFB76D2EFADE6DB1BA04CCAD3DA649E7E2A0219F592E22F2AD54847EEA8E42271011E9074F8F3DD9FBA6CDF88FFC9FC7E811AD1CA8F4557CE4AFC7BBEDCF0114A48689F20A584520C74DA8127124B767E2FB91A6B186246727BE63C9445BAE02088D58B8EFDC0F1072407CD9B89A13F6303B4A928F593AD489B58E686
310
9325790ADC406036C591729FE14021F94B7796BB11848D463536A092A26F077F94639F7CEEE2A724C66EC885F4A24F8B8A0AC321F8FD149BA529460FAA34E4663C02D41FDF80BCA222D42F0ABFF8490F4FA74C673807C2051D8E467B47B616072860069A9A303ABA9B319D58404461401B0A0F9BE5E1E151C14BC33B32ABE0
310
3DDE91708DFAEB15E7C0D593C86BB7D7EC17BE56E57975F077BFD5525F3A1A361D584A75E08CF29FC7B44B2B3085014F3A5A14517377C3F6B8F37E59514C3B12F8AACDEDDA4DFC49BE5710101534CD6FB6DE15B50F11A09472AABA727F0C49D9CB906B158030065F48EB3625E010CEC1D511D0053474B11E6A4F01C0D6EF1B
310
ED3A944FDEC70E0DDCDC756C86545910E0DAE3BE3AA9A404574C2995CD5CAF9549226BC94B4F4F0F5F9086F418F6B32346464610D8BC7391D3C3A3CCF04CFC1FB2A3A3170E369511868F14EEA4E5E438CC73DB1F3248AA94B6B2FF33B222FF3D1E7BF146CAD229770158063BCE4F5391964DF62F7E52A7BE0EEA829C9E13C4
310
C147D6F93FE59E111DAB5E4594D6F3CD1AD375EE039930EFE5AF2BB2D41C83C7DABD8C659BAFBE8FAB392CA634F3D15C1D945DB4588D2B0824A4EC928AAC565557CA2F0DAA588CA5BE30B3A8004F7BF005E96CBF891D7F18112A3619FDF530DC8AA64954258E1811789B5189B49B4EB53F5F89F7D37523894F3EB57B373763
310
C91E502F52CC99EB7BDDF933FC324C4FFC2561DFFA7339FAFDD0A4BFBE6D3A8FF9ED1FC49898139864602458968913181918F719CCF5A68B2EE9C1FF050E34E63107003B8120FA982C21B30A874E4F5E4B38D5A8290C4B8D9BE48A0BE31EA995BDC37AC6DE90BA17D259DEF53605D55922FEB1855D915B659FBEB350EE0DFB
310
2F9F766E1C84CC8964B75D08667445EAB966015F63A18A9E0A325C1B3DC628C0D3CB60F767FA93CC65F25458BD23C3B312716E5F40E5858AC06EBA9AB14F95DB99147B832069201541D09A0D856E12C629CF32683760EE855537D1901988D5EBC156676C7DD51D7207CF3267AF1D76C2AD867315E44618015313A98B19941C
310
696FED3461CAA9B5415F918556D7802EDACEFD6B2E45853A9735DFC9DBF7E440F9319F8B6805A973BCCDC76C069A9144E51F187EDCC12FC31B5DEAAF0A76137199B106EC84ADA6B6EE697D4E6A96E007417F4E880E8B1E89B4BCE9D81EF611E2ED8F0C1A6C25F620FAFAAB656A7C42D464880E8AFAB0E0FC8EA38CA9A8AEEA
310
EE3E4648BA4680270A89743CDD3E6C6CBF34B7B640EFA285ABC7EA0A1E28F3CC963D114A80123EE66D0AF7D5380EB41909B605AB4765B709B808590458157E69BA1378FEC4B48CAF6A730E3BE3C5EF2DD1A5EAF94B1DDE50CEB55DDFD7EE9A16747FA4B223359FB1FCC69E1194892BABB93A1D5C4E807AC0EA2E30180811E7
310
7A2291F6E7F7FAA5E0F60215BC6024E48DE436C511F0628B8CA189982D4D83CCA17D305A7E923C37941CFDFDCD93ACAF735EF5F0E61BBD3E6C41A59B242790D3A3BAC7064DCD89AA2E37214EC839820949D5CAA31E240D2948E48F690298974A96BA9A8432BC90F5071D6537C9666EA4564796B7AFFFA548077BEEA75F6308
310
3435074BA182F3699557397F71548383FDA8CA34D99B981E72835ECDA5DDDC151315173D05A21F651AAF8524E88209E2E7A737ED1045800CE3390050BCFB8BE588DF111617874C62575039CA588EEFDEFEFE319B739DE2EDC147092A262611E159650E787917885EF08F1F51B8F2D8A71D60B58B190FEF9541A1BE94BC19FE
310
A50784DA1419FE4B0FB51B8D36B5FF8E1286FD8AF42B91E59A5F1CC4D60174E764045FD8C57B18209B217F89A62252BD20BE0E63E12B8E8F029FE19E0E8D0870F58721A557082250D5424F7909369376E41666C0EE77CD87CB283F661D5FB6D0DA023CB67320A20DC7BE661E9E1BFE5463085C557DA1FF9BE835733766C3D1
310
39F2CF9E2208873AD0EB4814DE9E6BF2CAF81614D4D43906ED1C05A3265CABBFE192770FC2F64F940CB6B17B5F166F133C9AEEAD2641807C3E69515171DD74C4A85311513D6EC9530B3B601B6BA3EBFF3B5C3D2F7D69765141E345F75433953D013ADDF8F6AA7DC3F4A7563FE5C7D367937E2900D7EAD0F9FC9A4A1A9B5BDF
310
1FEF08532660C01C5D6DE22199AA774383E306DAB87E301ABB7D213887F9869D4942D0D71E94B27EDF216A318BD488D45DF84529EF575AF3C3938C0AAA0215B01994153E2054A0B894DA5C784980633AAD48576957CF4AEAEAFADC7C587368551C73DBE1E57C58AC713303A8BFC258BD04B51724459FF9E24C03A81E0E0679
310
CEB9B348C0DC998FEB9C6D6EFA77D247CC8F92D3848599ED89A23218D0636465AD1CEEB7DC140D7426F83491C4E8E8281C2FB35240918FFECE880CA2A42D70E8B20B34DF5221C7DB0CF90ECCB9C745B37A47E9B716FF7A97B7A252C1F3814DC7B1E1A7F72B8751D524EF7CAE45B0C73B3BE7D08ED39781B380DDFC9AA4A474
310
9C9493DB5BAD07A6EA6C092FBD0E85DB004DF06B8C9D3089C5320187E4CE1846158C7EA7DDAE8AD9AFFF21AA3A1026BB06A259845E8232DEE62811A4DA9CEAB3A4887320B76E2AE5615EAB7BDF738CBDD01F1E64064BC13D9EC53576751CA8CACD58B3CEB0E6CA585BD089B2A59B9FC101403387AADBDBE70586B93D64BF3A
310
D4453EF9C3B6A93817E8346991798601344F79A83C51F3D50F7BF2683A3605F51A72449489E0EE6169C749C60B1035651103AEE24D24E51A759C840DD3FC6504DA6FE107510E447B43461C79D22970B75DE5E1BD3007D1AFC619A4A4A69B5626AF5E9B8374E20677F77E2F8E73DF868E8BEC7EBA7B6A75EEF7205E1AB9486C
310
B642741D6E03FF13FCCEDB1C4AC129886268B01CDF4B124AF797CF784F3C6DEC97A17D4B558070A0F1C04DA4FF9BDBF34159AEFE958479824B3F58EBD1E19088A2AFDE501B6F2052368A3FD0E650A179EFAB1561E1D27527077136E652676C3670F42DCB3352F48F6BC86D2C3B0051727E41A0A4DC6CE2BE9D47F5CAA2935A
310
3C0539AF080665997194ABECD723B08129CC5B6B21D2E7D54CD4D12610E7E9FB8306771A89576C7A982002775ED44F3F744CF21EEBB27A631671D921938AAEE3EB0D19CD1E083727F607823E817BF599DCED5394E37EEBC2E88782E638920CA641EF74D4CDFCDEF06F4278ECB18E31E7E9876F2D783C8BF429C75395F57E98
310
C2B495A3DA077EB3AC3C158608B6B57FE3EA48484D9A480096FCEE0DE880950E7E5A5714131C5C41AAA29FD19AE81AC145FA1B9E85C7169A5AB837B213493DF7E9AA4B5FBF9CDEB36EBD21EF1181B7CF7366AB2A951D01E37AF4EB835D1BE8C117CFBE7625D2EBCDB0B20C5A4B45CED0BCDE3EE8DA9DA78C2E21DEAAFFD119
310
7E463C33CC6A80FB785669B856EFF7A8CCCA2841B5A5369173320B1170C368B2748D81062EA0296E5E2D95D7667A4A46D98A6FF475C76AAB0A8C8D45E226FAFC9FE0133EA9F60111F99CA81ACE03A1D14C89E8B0D69079C91464FA1D99E651D0EAF606F345C42A8A1AA9BA391031582B96D5B4176A77AADB01F12FD298A75D
310
EEBB2C82F0B8650E880722F8DDD90C56A7A058E5FDEF1AC93545BA27367C76F5D8F9690CB6F8DAE141EDD7971F0FB548A2AE435F224D6E5954CA155512F7332029D5A1230854B79F258EC5FFDB09F5F6343A8EB193229B7F7E79B3E48F8E183860B38C8269D1B53738FF1E0BACF6AADA6D4869E9DE708E79B5DADCC09B1BC7
310
6F649731CFAF59A83FD8BAE4C749D66FA87A3810D4D62FFE826FA400C0F325D2BC0F3CA35F5847B82A2ACC7961745C823E4D863D54460AF792CE6F79B5C7A33B25C3AEA6CDE15A919B6367D781E9D44F61BF828672594A3E1D9EDD6DF179A81F27EAC05B936575D73E05C209DDD2115CFB705DF9BBF3C911589B3640735E9E
310
618FC9C36A7326C82B2205E244C55D56FDB9D5DC93CE958D4BF8174D2B3DA54CB3C09F2C2A6DFF73D23B2197355761AD421EC581284A7EF8DE2CE3497C0C804D49B41DFD6A7360844E5BEFFB495CFCDB97A4595911CDBA623274CE852B5E278AF0BEB1770E9D37CD977B2766A7DED0E94B840E1E95E8C77DE5CB6354AF7871
310
427C28ADBEEF7BA0A28E19DE9ACD75F379FE373EAE6DDDAE3834692F9C2B03B4FCA8FCA9ABE8EEEBEBB725B88A7C90941E850682CA04061A7DF0CE82ED49BFAFFD42C309818FAE14755CAAE78B0F73243ECCCAD7DF58FCB9CDFAE7A4D3E6671A613639130D056C8383C8F4FCF4808C331E544DD26E4755D09EA05253B3049A
310
1E32587CC25D72E073E2CD96D04A71BBCB0038FEC3F53D254199C3CDC67CD66640269431860225392B2CB3ECD0B4498AAE78BA1994246AE1EE78F2EDFB79F6C6CB6B5E279C4D373FBC21CB2698C9ACBBEB6A4BB6B39E16AB0E421CCBFC7654D81ED86022F9BB522146F9F4772E2D0E4FA70120C95A85A417BF5078B232F475
310
4363EB1750B2AC2148EB46B1EA72AD9B4D23ADCBC589D70106C3EC2ABEEED84DFE28E718C6C83502C28E9FDD3B09DA0A6F6F7B72B706A31C9E2A331EE70DA56A083D2177BFD63C55B11D8D949FAFCF90B23A1E24B9B5018B9A17E99F2890EC302F330FE7936E2C23F0D237EC8916F5166AB84B62A21BB0B950146962D754F9
310
2CC2C8877BED8FC7B7B25726DD19545392570B3A2C66B58F027BEF412E552D12A588C4A3CC5C3193FCB3485EFFF700D0B9EEC077754A33DC1FB9E25AF814628F91DDFECB667D3F7690803F38D13F8AE39353523BB08FC6760144AFA2CE28236F65EDBB3D5F59A57D612B99E3D7E5F8A851666BF9B5A6658EFC96EEB37A378A
310
BB0EB3FDDF1303AF32C41BD1C8560745D7BD81066B0D6313359CF488563D3BA3F8E2185D1FAA3EBA1397C9D0E3DD232180A4DCADB6AF25DB3AC3CC26589C8239E66E81547BC7E2F328F9884764CA37EB5DBE390DFC03A5246B456A7C3684C4377D0EEF9A350680FA9A077E8B2957B489E09AB1AD41316944C2254B5984830F
310
691C93CAA767EECF976FA5647538830B5E63236A6F0365C1E0F3E327F24FE35EDDBD7360B0F7374837409F7A6311BECC12B7026D4FA1AE204FA3F5FE904B1F420C7A9044AE58E403E7C4848E7DA25DC9EDAC79DD756FAA26B9EA83ACE8A214A2612A22AFA19DAE7DBAC5F8CDE1292A485F98DAC731A29FE01A3966E96BCB9F
310
B5A4C8830E1B9AF0C54B87FBE221A097036E5D28D1F869F810C06A9BB0AC0612F69AEBAF893C6E7AD59460208BAB3A6B09CA4F6BDDAB8CF0D1F84B72487498395A70DCD754796E271099A567A55CF242BBED64696378BB6CF25EF0FCDB589F3A82F1116D010A9AB9FA4358809EE0C973A2B4229BAA876A70B03AB49CBA7FBE
310
71DB1832FFD32F9BF2C8E98075CACAFB36921235D0F552B6A67E94E094097A5D7DF681B40623DA535ADA7A9AD8E9A62407D7C9A5AE51D62A17A83A23728DE86BB56115804D3F2675F2C6B87541A0FC497BF0CA86420F558C9859EBE9FAD62747E323E3AADC03FDCDDFE7407B09DA90B44E3185723C5381EAEF589765E2F7A0
310
99BA46695BAD60CEF3491B8A171F5F56444F7CE9455312C3498C74173AEA0214EC029833B34B650CBB5A5508D5091665309642791708ECF27CF11DB3D797D6CFE474453BD4BFADB768094B2147814D81C7CBAF8228DCAF5564B5891F5EF6A860EB2E323CB82AB868D8EA048880D63B0DE5341F1B3D53297B928A11E15F25E5
310
148990F710747C3509ED14909C552EBE3973246FCE55D00564D8310BC3EBC5085D08D806799B77D6C57FDF5E55837F9E934F09C03C729271B64F12D0A9F9E938107CAF7BF1EC8CF1BB9B42363D33070F4CACB425E605DDB0A34A12BB936DE286B9887A4E2E558F0886498BFF49C311D96C277CF6A9FC0D75AD0ECC5226D7E0
310
E3572012E56D7FDE4410CEC7A6D0F997F225A2055B8B92E3956E875AE4993CB3D4C9063AF98FD45E1BAB165640A43439A2C9181A7C355B297C0A0CCFFAE19B6FA3C2BA238A885FBC98B8F6DAF4B94B97304878DF4D8BFF6A4AEDF79E90ED4E68F00CD7299F4E0D83E35601AF0CBEF18C1E870E74758FA91F5131075004DB3C
310
FCF09AE1DABC11957FD9808C92E8A678CE9DBE40DDA0E0D1D505AAFBCBA208232BFB6FB3704E8985E61ADE53DE74152F5C7DE74B1DEDCD37DC3E8FB30D7EBA8B9EFFC3606BF90B8D438279CB7709FC7C00D327F41817EEA71CD9E49FE9C8C9A81C70915D9F0F15958EC5AA4C3BBFAF46986B90F188BDB24B89DE3C6F29EC3E
310
6F66D84856EE96A35E657CA41B41EFD8DBFA16AD6E91439EA92B40B21C053249F51AE50EB0B24C770FFAF40DF12C8436366819C48E36547D4E7B72FE2BBF10828583057814A668BDF183F6B2E58DFB151103E56303E63D00F39C27C4661605DB644D19175D02E3F0241E8FC3458D17AAAADB117CE9EEA690D0DB01E634878C
310
04C2C9310B69FCAB831151E3AD293BEF6E46B0ABCECB50F5939B39C613D41E81FAE8D34CAE3C4566B761D37185FE864AC32FCB71AEF39DAA5BAB88609BB980CD2F07A8F941653B529567726E2B2A58D079DD57E1E5E31426CF184A04D7B03B985F276D47406AF276FE32E3328BA866EB1FD39BEF57863A317634AA5FE46740
310
9B3873F5069EF0D71AF00AD189D17BA1974ECDB2D623E9E14086386A6AAB5807825C37B015BFE892AFD154920EC437EB945D958E18622E1E0FE2FA06557CE4BB9BBD05A2D40E774DA2B65473791E314B7D6C886820B2FCFE4AA272B3B8B15E7344A145E8AF919B5454D89D36D413E87211186BF6F645E5EC94DCCE8E1C7990
310
22E4EC9BC86D7A0F2AFB1FC4B2CE48F84B3F49ECE65BAD24CADCC07EFF39AB06BE9E6B27A059938EA7208838455383DDBCFCD967DDE4650EF92A14FF933C975DB20BD7FEEBC4487576485963D757D16340D9599FEB362F775F38CA4185A86F74B629C81B133644A3B18FD056E997E0734F9BE26D11C0AAFC669E2AC9FC41D2
310
81F8B2E1C35AE27BCE05F3DA295488096688719D974DF1B5D182DB7792288697F8763CFB43562C1CDEE11C4AABD5C22B6E33F6F389CFC3477C5919DC0D533F8A7A1846B7ADB60ABDC26C43D0CFC8910B7C15EE22675BD02702ED39DB77A87A192CA7A543E6205B979B9F5A6B512A3CA799E198B2D5797C0AF8D1D872CA455D
310
4D431A7879D4DD76110B5FF7F4176B54477A9EB5E4A5D11214FDA585F0382751D8E2582BA5D2075053298FEB8F1537304E32CB22C2E2B693DC0A760B1DFCA751BDC445AFDCBB12820ED85F6D5298933C7EF1211E9E057684056CDA3FEF3BB6052355E162DF27C59E965A8DDB7F9437EB72CDDA3A090DE65A5B2F50326247B7
310
EC67B73ACC7047FC9B353D6EE990F772207C6EC52B39DC2F3C0754821DAB559F7C1809C7D0DD5B0499D0442E0A6E391B3D5DB46D11E731E6794EC77523FBDAA242ED67F9FA1FB684255671F63C9BCFE6E7E896D51001A6113EF2298BA494E0B0980D1FA5B9D60796554C02256B1E0345FB7C6186B6A19D2DCA270416262845
310
FA4F42DB5D9B0A0B6F07FCA2E56C242522E001E0CEB734AF310FC8BFB57E38E03AACE93B3326A2197891E68452B26A6307FDABFEE0223D3C03C3C73D2D5BC054C8311F12004CAE488E5C29287F8156A2CAA4AD0D7BE6B97264E4139F437CE73ADF52E5134C52B819777C18B323A5924E4F67AFD13B1CDC3A61793A79FAF5C0
310
CEB718E441071E797C6DCCB9EFCF7E4A1E9F3DF3C2F9C9E8294E9586868788C972857FB0556D7A26941A7EEB9B580AD78EC40B85DC906B4120A563CA3B87797ED612D3B035962BB75F6515A393F4CB057F564CDF54F2E5A024514E6A1F901DB80C7E70B1FC05E356A7E72FABF4775B3E3FB8F70A2A8E7B6A94542BB3041579
310
78CCC999E707A29CC795E67A59CC546A5D47B368954CA7B6E75EC9E1F6FC73CE3B4F71F8CB1A6B15923D61EAAEB14626AAA9D04A26EB9C66CD1BE86CA31A5D8703DE04CD1EBCE4F5CCB62F93909AD11E55799A781A956ED27D3E738F4538CB04ADABC7DAEF20BC35BA6A90BCC1DC61BA05F20D8832FFB9BC9B15E2DB838A0A
310
FBB7E0C82A562127E0446894F427794C3037186F622BF24DE1B00AA10A23BFA47B2A180D6DA5AD6F7326FEB8C100C2D7142EB2A0B2A9D1008A09BA343D70E054AB69E2A7EDB783CBD92537FAF4A44D1296AC2792729104B3276C276C951D0CF3CF3F1E6B017720A7B8505A5FF9589365979678C36F1BAF759EAF57C60F1FF5
310
FE9DCF5F8E764FF25A2D06CF25117A8FED51884C13B2B750DB0E4F5E3D64124FCF11F0AD8F1CC3B3DA4B38ED22BF1CB2585EE6BFEBBA63FBFD44F9537B9B37BDD6B358720F98A8125AED4349CCFEB0E135F19E208A04CA7E2B10711185D72E381F448036EF57C9F874E54A971CA37A639E986AC0226DC5AA00D5B14FEA9192
310
234B3DE617814FC221C92F33F1D392F297731B567FD98FD91D989379AF567A65B8ADF177591DB90FBEA99BF4ED11B16E50A0AB1DBF1156D034BBE04D69D08F939D8E92BF525A1DDAFF80ECBC95D8F45D3FDD289FD23F7D8B452F8EBB34EC082DEEE68E18EDDF072060FAD2AB1504DD4879BF67099FC58F6E9DEFBF645D1633
310
4A3E9A127C6F1AF6132CF287E433B43A0EE93812B4AA0B194E03EE3FF91EF9C6ED0074A2F6EB18A96A7C9890B1FCDA1F2095E944DB911ED54C60DF16FB74C8CE9BDC7C54C4F14078CF73C2FFF1F1BBCCD7CF64F71407EA1683DBC410D226627F66E509060D5C0AFD611DE681D509DB8DD12FB1265B03C6F5C55FF4C30BD941
310
87FF692B4F152982502F193098A789526A038AB529A52BC0DC4FB6285CBAC10A8B8DB75DCD9BDABBB221E27D1F8DA9F5EE5926A1C8AA9BA9BC09239C6A7F12914EA3B59EFF7AAEC3FFCCE56F1C5C2980AD072793527565E774F4631DB178CEEC691B1F367BEA0CF2907E1D6B854D527065979DDEF002D8B2ACEA7CE21AE297
310
737EDE1D45B31233B73FEA35BCFDD0B09721FDBAF6432681F2FD10C3E9EFB246FD6E854B344ACC9D8A0EEF876A7314B49B6A499FC650B099D650DBFEC7638ADFD245E2B7839DA5AC5F7D5623FC0ECEEC8653FC9B2BDD1AD4D00A566FBA7186DD3C9CD26512551637498CADB950FEC71ADB9A5524285DE328B8EC7EC75D2345
310
AEC6A27C42AF6D9B92155315C80DBFCABBB7DA0FAE425C4FB896B15C9BFAC4FE67DF5A23D30C93DA4D8F36FB15D100050DA6062E22AEC5F4DAC4F6FEEF97AE05DE63C6D38F9E068A20BC5E3B6BCD75320C5090924E7F93640A7735B1A43451C2D91EE62C6238B797349E59890AF3A520DF4A87095F3ABEC2E61F0593416CE4
310
6CDCBE0E00E2523FCCD04408588B5B6C9DB6459C786CE378770B54F51DA3A5E1DF2A3349BEAAC234A6CF8993B598B3B25B4B113E353A4D750FA7534749430F3EBF2512E7EA3FD43C6AB9A1F765A58463B306721A15D224FAFE8C6F5E3432D57EE697DA0DD5A9D4866A8BCCAAA9DFF1F06047851408FEC060471D0E3EB86BFA
310
F46E4B5E60311DC3E3CEA147C75CF971BE74689507154FF2D2E92F15CDB2B9182B11459FD8ACAC5A85F174BC94A7F4EE4C4F5CAFA7C02E37BF0BC77B7DCD0C047BC316F562A01A441AFA7931CC84A28CB9F4AA367EB515778F29BFE61195FA671F4352E5E46E3A64773F1F76EE5EB36D7BCE9BCEAD837A4D77F8DB8C92AEEF
310
6711920D7C7D0F76B0FD0EB7AB83724CD35BCA7D36DDDF5FBB7FF6F04A91F3E2BB3B8F1A43CD659639507FF6331C5F697BCC782AE57D757A27D97F1AB9E0AEDB43F92F1B2AACDF5FEC8ADBAF9F814E2027003BA2F9E144B1938A7A04050AE5D953B82C45619165C813A10E76DD6906B3C16438064D14CDA713AEC420034613
310
E1AC7241904A49FBF87409AFB1FCB9B72FE7933A87D8FBEDACECE4EDCF6A4FE9FB94D5DEB74FAB7CFEAE17EE965DF980DCCA2D04134994F9A2E94D2265DA4FE6AA7B7AC15FACAC2B5ABBCD7DFF542C5314FDAB2E1B9D8B65220B8E2B638BE008E8DCA22678C820C5053664D15E89F2D735B51A84955E81A443545E9FF787BE
310
0FA700A76D136C27DA179A7C6E8939E01BE756E19CB292798063D8B97F44E8A27BCF3A614FEB8BE974A718E86F7EC99B53CA35FA24F61F2B07266684623A3D4CF073E511F3A10A8FDAFAF0078C577F4DF9D339FE7862E5FA47CF4344209E5BF76D783B1B48E152AD281B15FCB934DCDA49CEC5706B1EE8B460F435324A5CAD
310
154725E21AB8044B75A557A79F6C807B9340AA3D92503E866F4274412926C8C504E4D5EF8C0E68DD0B028781A6B4054F11CF18941F101C57CCC796773ABC8DED9CD91FE5788806C05E548895354AEAC96546D55B0E94A59F148D061F42AA398D822CDECA4CDE79E13469BDCC44FDC990F366BA5978C15F97ED80CBFD73B0CD
310
9B8B83A4F6845BDFBFAF034019473FB9A63BD55D3A4A7284757071574029A4D016DCCBE95DD679EF3C4880BF169422F8C89B68A988D2B13793CAED4F74DE7486C72DC94DF46B8E93D8E02EFCB1FF9B3BA10C8AE7F653DF94F4AF466CDDCEF5776687F7C4C14B63E4EED1719DC2EC482D7DBCC7AE518CDE3D5FF86D39000EC3
310
673C0044E1D308BF05F74D1B5F033A7D1BE7F74BC55BBE3E4A20F920946CA0271EB17BD2B80E5660ACB8A29A79F5E4BBA49D4D945B6EEF4A7EFEAA65E5555BBB57A7E15D2F83C69F30BBB978D2B39F1F26FC097424D39BB33CA3D87ABF64E307938B685BAD44F71556A30B7E712CA4FE600613C3E554B69ADE949A7CFE214D
310
F1FFF05CB82151EC6FC31950239F94CF7AD39DC473F6EA356E5EC2C4EFA04383CEFE985A127484366FBEE3C0EC4FEA363E4F6632AE781392FD45D67B63FB8DF70E82734F431FD3443172A0E30A83D60982D55FA6A2CF86DBA8382502ACC6CDEF3B907982EED1160E14863FA242F9757347E1544275CCDCF71ECD5F8621CBEA
310
326B8BA884AD7F825781923E66971F04010D574C541D8427A438A37EEF8AF88240EED7362C953F5A81DE2D56109CDE2524EA0F5D2F87308C0C47BD97AD605878AB8589E17CA83930CB5E0DCCD75853D68B1AB136594926DE426C367428E9334AFAFF90ECE221BB5DC9E5BB53D2CDEF954EAA9CD814F0E5725F1965DD458E5F
310
8487683AD86B9D0076BE3EE91EB1CECC5331A67A3F79D8B27587C12EC2A6A70474749F27B4C0BBAFB94B34189E88DC18964BE4121B9137FD516C7755356E50D6714E31ACD222621EBBCD1CFF81D87479056A9DA0E0B8EA19D24CF937DA89F78E8650CCBDC110AAB6C4E46DCBFD0446BA9E2060E81F314AC2031E88135E5476
310
AC0160EF5C0DD2EEF1B8B5CB2D198BE9A554A9093B5F7D7E4B5407DDFCA1D9C152FD97F55BFFFDFE802954DFEC8995B983E28AC92F1971E28F531DC407A1280EB125F64A72E617EFB27DFBCEDCDA2D6F2BDADA36873EE46B9BE1782998C63DA7182BC383FB6FD15DA472B175D7E8B4FC88F38D6E07FEAA3FA3CBB8F6B449EC
310
F14D2175E5C5CCA3A42ABF24CA6C9395AF74535F4DDB38CB84F56614B0FD32D7E19CA5CF988DB4449C40E23DF2B16772594554579094450F56F253CD25EA7F77366FB1CFE79696C428BB64D5A41E986189427E5E4D7E2DAE3D5BB4972B3DC44EAABDDDD63A2264ECFA5C786EB0EE1FDC5BE34FA0F08376869FD1E61EA06CAE
310
15191135445EE8F0394161C3266A596AA035572BB0C8876180D8B9C77D307DF9DCDF7365ABDA6F3A2366436457A4DFC1F259666569A9E4A79C817BDD5610E5200FCE894A358EC72858D50EF67545DA81C6FACE3D457BAF70367E1E6BDD9A952FB4F56247F58F523B97E640246051A72F79BE42FFA0B3187F63097F91C48B86
310
8586F714B0EBD5A00A8412C1236E1298F60C72BE6C96B82B404CADAA304AE9F303176B14BA53FBC2D5E86377E35542019E24D97B96A49B2C0E5006E7795954DEAF5DA58958839043C6C70BD3B1B33B6DC5C31316D8A6923F142E26F6711A2258AF977DDF1F970ECC4F1F2B434B96D81BEB6E89BF3BBB3C7C8CC80505070723
310
D6D7D7D3C8CA27CA164A26024FED94B12A86031867241DA53D929636DA600F050BC40CE48B8BA03D69224720DEE2ED2127390BDF5E6EA64527BBD4C4C63FA76BB801FEEC0E61218EC98A8A86CD8313781617877E66692839B9468CF4DB8E50A73986E558E309C0D6F676F921BE02F1185454DC75B111572FF9D27D85EA14C0
310
5AD7271225B391C4275659CA4A43759D0BA44639BE4C30A84DB7F67A41399FB95CBF923B1B1672ABC807C1590557FB18D811983FA97F5E609516D62281D38B1281F68FC75528C35E4CD7DF0F7DBB5E5DD69C414EBEA2F4A5B241B996BA77AE6C772E367408C633EA3E438B68563EA8BE7667F3A4C4FDEEA52ABD78A2820F44
310
3B7914A15F180018D231E64519C56A12F6CA7C8DAE18F06F6B769DBF92329EF6A5D18FBCE600F36BD8E8198DE5CDAA96181F3A756EBA5501CEE58F497EA4F418A2B82565B9BCC611713C0B708CCA1F398B78C5F7D03B3437CC18F13061F55C7BEDADD5ACB1DB0E36D3CE47FF6EA1A563A57E9649EA5D14D1A50EAA45746338
310
1C073777EF1600607BAF6428A7DDC079D47A204EF1E1F1F0589FB054D45E02CE623B3823C317C601E589E22B1E88B448524B86A82828E32345EC18AE17214B42F8C41C6D428016D9BA31DDCB47572561E5A402E5BA4FCE55F78AF7268524AA04130F3A20BA5D1E9F9948EA48FC8F5314FDB35E21898198060034ACE5E3E2BB
310
CA34092518F275190AF65F45867FF0900AA4B81F25427414C372BF51DC29AA855C5428EE1EEDD6B849AD60F6E73475C2D2523F8A2772C840A478DED18A8C5C91B085F255DC4F54EA7AA8947354FD17ECF8FB3B4A0DE7B483CAF3A1165EE05BBA413E5C1FEF3DE1D6B8F2F3F3251C17D9FCAB48A9AAF63AC773A0E413BBC46A
310
9ADF84A566FC920E4D8C52C9769EE3301CADEEEDD92B312E02E2A7E35B7F1E7D203FE5A7D75578B06E99D0E46FFADB8FDA17ED8880390DA29094202D6F645F76F6F96409CDA05495A96E84B04A00D1A6C6C81D7F3DE9376E828CCF144EE50E364ACCE7237EA0BFB5607ED1AC3CFE73794E5B61739D14DF1743441B1AC98F00
310
ECEDE9E7301FA29755FBEFA68C91EF2B314CF510537EF1ABFC9A762496280B546F5EDAAF8A5B387D469FC9A878A92828C88608453ACEC6094DCA54111E7AD5B2663DFE2DD151B7F123B9F4FEF8EE36AB125FD7AD52A59B1B765B3E3F73E3F73DEA93875004D2AFFE3CDE9493B87A9904DD052028949041A91DC0E1BA47BA71
310
4343FD5B25E0A6A09503AFC17C790058A836A324FE31D7893512E28230332F153181C1E018E1124EBE1BA262AA428A518237D1EA7275E48C5C561BD19ED6912EDD8367DA0F31E40EEAE9683DA9257525AEA7B632B97119E17145A90231768A4F3B9120FF32E8319B015E3CBE26F1A754177D8185345817C096B0CE443A955D
310
13AC15E1FB5DEEA0239EC32A3C92241A237B0B02FFCB4F93CF2B02570C8D192E2F2A68CEEB42F12E6F8CEEFF46C251E22B4341C56FB08CCE550E7A9D6F4D6564B9EA52A83D5BF2C6E03FA19D2775E15A8A7ACF30A13C259EE7F5EF2AC3BA354F1500E1A07FC63FB4686E2F12EC69719F9ECF5FE3F35598DF2CE944008CE78F
310
0911BA5BE5D0A34E0098FF038669C26030BA9B300303039852A8F6F496341737CA7E0D2E3AAA36DE0A70AA7D9CA0D54D9AD84B18A44C9E625475E1C97B93BEBB38DCE7D227E67A2D00F531436136355F243D1FC0D712C5765754FA22FCFFAE97919161F46D6E61ACB37D83777B385889770B50765B127768443A5C4D3A4E35
310
A3151111F146B7CA116F918A049F1C272F2CD7976C69A0068773451659A97E0F4A08FE604C3FF6CE7385DB19F4D3ABC8A0D80DA8A42096AC377DB49382B36E270B6FA7570188B4B7D1DDDDA82ACA487CCA5D38BD3BD039ADBAFA4ACFF27809239B722081E2EB9F145320553D183F28471C388BC8814E5045676767AB58A8E7
310
2D1CED2CA731379515D2E533E4CF0B39DFC625F97AC4836831A4DE330E87A8126FA17EBE583D614E71E22A8DBF2825599743E0640037303E8E1B1E8EA4E1ABFA4F62907B5E4E0E5DCFDAB417C36C6848A2B8D15F1E505434C0707E16B1CFC2A1C36A42BBF55734F8F4301DDC2A5110CEE8C0747F69519265012A2174BF4E95
310
5ECD4FDE095A3ABC70536B7AD0B9D7892F81287D667C108703C9B66A221E9A0929D030008F77FF6F5D2108EF5706FC87A3069B976F7C9FC3239D13D283CDEA83597461079FEEE049B0F392889898B7D87D31F8D60ED7B56B91823A8E4EDDB36C6172ECEE42BD42B12CD67994FA0F0DFAE9389356F4CD4425A4B8AA55CBF7EC
310
D585C6A2C2316791E43D5C06841ADBB226A87FD61515FFBB0167B74E56BD7F3E90A57A97FEDCBDF483A0D6699A8C0849CAEB4947FAA90D8E332D9DEBD9F4738C37DA0CAF9CF3DAA68BCB67C420459C7A64498D6E848E5CADE92BB6901F607AA331104A67F7CD650EE169B1DAE94D2C31C2F993632259B6957E246EFE4C5481
310
107B07118607700040E5812A2A2A38DA0076875258C753F60E0F2662C748EDD5F3F3686B8FC3BD6FE631ECCAA1E8B1C1E565AD117E54893E79F4672E32F9E46B2A183DFDCF3EECB4D4D077DBEA0DA254D256045109670050129E9B9B1A9E4A11344D61497A992778095151510C4BB7EF2009B63AA4360635312E4CF668B7E0
310
D3D85A8688E2BD83B569439892ADB63461930D428E0DE42E4AC57CE48DA5CC1449530D8BD3D6A0F08DF20C8E8F570F2CFFFCEA286E30969B4654D498A58D9DA782E19FE3F002181838925592C4A1EF0B332D88B61A92C644547BED490D3A42CFFAB70E36D961F694F6307F72FF15A1C79D5B1B5CEFD353D9E2B52566DEC8F8
310
F09CB3E8359C0F68EBBB7898243E34E12A015B2685AB303C04D3A9E00671FF3DFF0A184E4A2ABEB2B666AF5B3A209C73D8EF29DCDB069C9F391EEE9DD0F74C7BCDE16F8F02E3B8816122BBEB50665775B600549D8BB33A54A6BF940C028118BC6878C79958D6784F9DEAA6E26748386FFAF8D0D0101E2847B6563F5D8DC1D7
310
8F787BE00E2C941AE12148D4A81599FE8F68D4DA5CDED75530ADE138240300EE13B0FC13A1687FED6774662C05A2B7DFB186732F0D7A93545D8B0A6390AE5054D9CB582DA846D7A061B3358B45E2B52DDE63E114397EDB7E09233A579155D795BE76102CF277F4DF8B188C4F2879BEAE3C08347124BF9ED23B128259FE107D
310
31E34A652F090B30B39E0D9AF917B76A2806135621A8A60681F16AF216514BBD02711585B5B1AE823F4B2D0369EA5B6BCB863072727FFC871CA6C9AB79A814D989057E9470A3D238BC87CBB4A0EA49AFE2B86F22E499793CAA9047080450166BDC357524561E258C77CB697F1ABB32562CF87C3B7AA12F911EF19FB3E5C022
310
22E887D08202A60A17151F5E053A86B437771088B4FEE14D652C43E8D939995D34545E12E2FF93D4E366EAD25F10CB7DED141563C3D0C447AF06078A91135FD4B9611583CB4BF3BD167F2399CEAB0E0100F8FFC305F00F1711717173138B4B48C83022295DE657EFEDD97F238ECA80F528AFB4F8D67AD4E2594B9A3AA86D74
310
87EFC313BA95745C186F0CDD84CC12DC9CB0424B42203D351FD9C0A3AF10CC7F388E0329279087386421F194F4A29464C1DEF7EF8BE515E4A199DCD5B909342598D8FE6A231F71336248D5CEC5454455C7BE383B3BC7B260FED27F703FDC39A170F3827239102F59D4DEE7FEF82EAA1A5E4BA94DCC4CC44E7E2EDE20F24244
310
E4454369D2E87C3F823F193FD4FD27E1C23984B01898D15ABC20711A8A558054951A6AE280096BA36CBA439603B7B0B4C45F248C14B2383B4B5CD8ECECE4FF859AD4A6CA2326D020EF090F4041D28DB66E5256B56232CC52829DE8060BAE6BBF37D4B7469B822454FE93210A3E8D15E69FFCF01123222611C51C4FD0A041A0
310
CFA2471CF6BE38D2B20FA4C3525B5B8B586759475CF80ADFE67A284AC24651E52B8E683D24C2622642F27E7C3C22783BCF63648BC398BD6CD0D9C97E7E7E3EACB6126DB7A6C1FD9F1031302EE67ED96F22B77C7CA0239BB324207559B105E4693EB26EC46182A92C9C0DBD24F29B31C5C5AC1F84300E0E17CEEAC15F5736FA
310
4A98971E2F1423BFCD68D4BBD5F86E74B40A369F39507C88FCDB35D2DD8DEBEA4AF999E23CF2816D204200DF6E611781B9884C1AC8888B4DE397320472959434323A5A36B22A8E1F721A270DF3BD65E4A31C11FF048AFB0D8B7B6881423793963A23CFCE935FC189ED36FAE35C46DA3574C979E4394BE52084F3081837BE03
310
3396D2EBD80F1F691B273F660D2B32FA27A33B1DE4ADA5F0FA4651511102DFA410DDA86E065272CA314D5249DF91B06BB92807B28EFD54F08F7B525252782CD276DD02E6B0319B13DF87B1F6361AD6B28FC0D711CF445429B9E5A433CD493051C49A9E03DDB1B147D880253514A5DED88009018620EE229101C041950E2D8A
310
A8E1F5F5438E0C0C0C60EEDEE9E3E0C051948C69F84BB7B2A48A1F3C8EB9E6864687F4F4F6F6E2FA87608ADAF9C5E117B7C1A737E710769DA1D15ECE6A84502AA855398712D5FB51BE92E4EF824969CE18278798AC303C2C7980DD2500ADF8FB1E6D6C2FAAFF9987178923334A244758BAA01A9A1B70FA5097D01E1CC2A58D
310
AD0EC94CE6430AA9B0C10D75E3C6BAC670EFBADEE1607739CE0FC18A2587E3EC3058562014C64219C69BC269082D5C2F4A659278D585755912176D78A1B641719C2A394CED495A1AC5D583FD2F5EDD93308EA7EAE8A6DD396598BDBD3D4CFED62D18A5BDFDE0DD5C80D1A89BA62697B131AE7CE9A6594138582F1B37D68F17
310
49AC7CB67A70695D48A4A056AC1FBD4E82358CEAE38F54B95A9016F9000F9879C0D9D131768635CA798895F27D6F1614F11F2838A83611AA51C9A3DDB539D42979C29F10465655C17BEC3E2760B80DCBF609198C7B171A531905F3EC218D696025975E986C6B4C666666787271F202805577DD5A3EF0CAFAF91B62DC4B2DB4
310
217A7606282F31D8DDBC290593BAA93EA6353AFA9939B877978481E15CFC9F2755CDC00C538F63A4BA3E80AE009B73CA0185687D339A507D165B74290D6EE46D5C58148F020C3668ABE9EF2F7549170DC80DB41FFC1D678FF19AEB10C7133832B104B80F691B3138F97A92D26E551F1F110400D45AC71A9B9AC41A1A1B1DAE
310
ED0B0810638EFFB511D46B121C6FEA0F38CD00E03CFFEB9713FE1F9C263E4DDEC160D0497FA9A132BA608584057FB15380825DE6C7FC3C667EE947D488A09898D8E939C4953BF4EC9836344D2CC6B2971B2A21A572B06096F4982D2CC7232D46E8EA69DC83722E267754D777F97F96D5DA74E1E75178084D0E70F12AD33E5F
310
71EF2AFA599B2BEBF60A5BE475F444F240CBFE8143C334E7ED9150FEEFEF7EB020C4DBED388DD1D6A167A76F3CBF119B578AE8CFA7736ACAFA4440A1C47185638A0D2F3EB5BDDEFDA958FB13CE4AA4923D5BF840392D45544329525749734866684BF7F8D9D54D892E19BCA9F829A0F8BFCBEEA6CFDFC61D74EA1A645ED7A1
310
FF241739F15694BD835B66FEC5677E40FE69BD3F91AE402F036537218A401CB0828604AD189E575015C6F3F6BBC8AC79CF6C70653847254B31551EFCBEB5978B9DB85D58D0FA41A9DFE9C624834AA04949D24B5AE6D299E072D152D12097920F14AA92C31C3B97E28B6C2E6E9C23D63043ECBBC0A60FDF5BD0C33C127EA8A3
310
308B8B6AFFEB28B4455BF6E7AF4FC6222728357EB8E46E85053E6A8843AB23295BF838ABDA94658FEF3F832F147046B4ACD6F7D48E8FCC9618582961C898D1C7A253C91BFECBDA6BA18A1FCF70755DCCEE2222F41B76D23CA98D0CB3D95F0CF66D57FFF65E2A90F5DF40FC3187621E981BD0BC1D992787212688976B94A8F0
310
C6EF646624B570B78E068826F87CE27041A95C9A4871FF65CC17FCB1639629AD6A9517000D63AC231F3D741CB8430777E7ECF80CE7A3F73C0F162F7E56AA71F4DA80A33CD6ACEE78E2C11FAC03DAFCE929B106F8F6B3ED2DC71FF994BD9CEF4E9A94896EF1B6E2B7B4978168BCF0847A3D2A4F1B0500B926E634B174548E9F
310
BAD27153FB5FC36799B1E6C7C38A94E1F9E996796D7B485E635D5287A2AE76FBD11A341DB3F8F810385BB7296391973DC6C37C452A9305AEBBE0CDB6C566DB59FE60C8E94B1FD090354BF51439FFD1B48D725228FFA88C84F686F547107A7A235665A4593B7C34D748C1AC8D56DD5DA861EEFBADDECBBD65117E65851F9035
310
1AEB65F0EFCFF4BCFEF24CB7A5879699FAC437A7AF9099186CF006BB923A59E37D7A36A29FD8D2CBB914A5E9D0A8FD212FBF796AE9A67958FF1D5D8B85F78F96219D4714EB919929241B6C018AAE0C02069F8D919961EC5DDFBFB7573E3AC8E08BFB7C8534BE6DE045B3CD63DBD71F7638BA2309CAE398EA3A7D8F98BBBC7A
310
EB367EFA5CFA27A9F8F2F52FE878058E6209C026453F8E7E8A237DFC389E9590F6059B397CFD65183BBF936E86896612A5B5FEE49DAC8455D026218AFEBEC12B3523A45B57B82C9C97E02ACFA1184DB18E48CF615DBF39C3CC6F0B4AE6BBEEA2E39D944E290302FA3DE33FA7E40296E2EF7BF1CD855BBECFAD0FD622BEE974
310
6FC4FDFDE545AE6E3BC234CADF83A0FB76DFB145BF3828AE3436368AC24989454F8FF70A177672C711CAA1A76107218CF948CA01F873520E7A2B118EBB161ABAD432932029628B6761590C98AB590C8C8C79798CE9F715BA696E839E9131A4BB68BE923F1747FBFF165331FFDD4D05997ACD168F12CA75348DAC04C7F509FE
310
83898A8B421181AF492861CE81E4A2DD0A30850CFA95E05F097FF70F9E777310D584A75BA7018922E271DAB1D785671157685B7D383D3E074DDB4F1E44EF04B07BAAC75A062077C54B9752C738C9D804D402E02851F3F89605AF189738C18C021D2139EAF72513824E10DDD3047BACC8521ED7E98B257D1166903B1B08FA6F
310
918FD7E162913FEC7D0EF4787E29C35FBA8C6E2C9C20E9AB30AE42CA2A01A090E7D010C1B5BF9CEE2A304BF3A987FB40D836979B79E18D70F257DA61E808472DD85B82761825779D6B90CAEB0F23360C6F80A7D7D77545E95B3DFF0CF96A827F9B5BCECD2C9698718417EF80FEEDEE938AFF55859D0D540B7FE09435583A6F
310
04874A0C7E8CF234DF4879722000167F5872CEC6BF3EF7E5A8CC8121E6A359227C8A29C95212F9F735BC72A887D56B8F309FC525BFB4FD767AAEC4AEFF249CFBBD2DE1AB9969A6155C7D8DABC307E47324C1F916C7BCFF40ABA5644E9FFB9238D19ADADA49D9610F01ABBA57E4DFCBDCCBB2B93C8953206C91DE01B0E2651A
310
6D6C31721915B31F7B7CBCE55466F6D70402788FA91D73BE4ADCBA99A35F17D6B83383704917D6833F0FA3CD45C926ADB8BC17999A4A0AFBCE2541F7B8CF4C2F5FBA611B3E626D64407CB32C122DFF4EF8674D6EDBB86C8F7C6A16D50FA685E2CCA34F8F7D1D8265BB0042E9D7F1F666F7BE5FAA5184DF58E12122A42EF02F
310
461B3F369AC746F96528AD208512AB56844CF75B97F352DF7995024FB02855385854F3798670D01CAC771AC3E1889EC25F61A20C1F8CAB46898817F9C47E2CDA1F286BF2F358298709FE567C91133E2638C8B53975E753EA8BFD3578B5F7186B7BF084EBA3F77BAC3132A5779902EC22AF2D2E79F42D324E083386DAEE9810
310
D1B44A5DAA54513C7A71E52A4AB9257D975B621308FE4D2141CC3DCFE946C154A3C1DFCCA7629EC69ACFA831634ADDA93C0388D2A9A2DDAFCF957C6995BCE7FBB6DC4EBAE79E63EB08E9A25F52F67076F7093CA545CA3053B5BF576DEAD4E0017143C5F759F32B2D6F145B52B67B48909B7C7FCA6586EE385A2189C16932CB
310
6DDFD9152AE317C430492A578ED27B72D85D40C7C93C097939E1B50F4D67F05334FE9DC362C30B7FF561B95259138ECFD9274C8D695C31B14D4EAA9F3D7FA8DDF652F8C5DEFA23284C799B7D94416DEE81E05A866302DC70192A5368EA65E1CED8BF107A1E2D3119A71E85DC1A7B0C1E93274CE04DD0F2ABC8AC7C987FDB00
310
2B6F81757B43502EF7A0D92E416494FAEEA4C9C090CD9557AA4D532F4996A272B94355C5A0E4974EEA9627476F30809B94D8D8D860062E02204643BEC7D0438AF800FC7E2B26955D595421E83C69E1A07E0E3122285835F014AD538188CF9737CE76D464A353FA55A001AB2526B84E985083693BC76FE211CA1D000679C889
310
E3C009832C87E1AC2EDD05C302557422DF0800E316FCAC86978A371F025A6C7DAA9F333E7BD160403A1A06EA75AA9888FF01504B03041400060808001D82875151464CB48900000043010000360000006662782F41443036323737452D323845432D343934362D424338342D3531393846363230384646412F646972656374
310
6F72792E786D6C9D8F310EC2300C45AF127987122606C71DD918B841D4B851A43646695A717C52A85029031293A5A76FBF6FACEF7DA7264E43906840EF0FA03836E242F406C6DCEE4EA06AC22492573150D1F66C60C640E8938CB705396EEDD86DE9B5042FE27813D640EA63BB001C722AF6E55CB61E4863F58284D5D3F53D
310
D715CE1C3985E63FD7F1B7EBDD617E9F1E504B03041400060808001D82875101A7BABA3D070000211C0000340000006662782F41443036323737452D323845432D343934362D424338342D3531393846363230384646412F6F626A656374732E786D6CDD595B6FE23814FE2B56F665F721376E8551CAA84019A1D9CE8C06CD
310
6ADF22130CF5363739490BFBEBF7D8B1439C06C8DCA4D152A904C7393EE73BF713EFED210AD13361194DE25BC3B51C03913848B634DEDF1A45BE33C7067A3B451E4B92BCB6CF40318EC8ADC1978DA9B7674991CAA52DD9E1226CAE2E677FA32C2031315010E22CBB35B2E09144D8C2459E6C49F6646D718EADFDEE60B956B9
310
5127BB67387D6C1C956246E21C5885F518A8480E5CFD2788644F3D9B6FD0B6F5BB6DEB5DD8660BC17546699CE5380E5E71D538AE7786ABC6717D77B0B8EF0D27E67030E89B8351CF3567CBD9C2746FFACE7C349F4FEEEE27069A7A9B24092B05A424DE82168FC6D4F56C7EA7125FA2D0C67790C43109249A6D1BB644D2A524
310
6B62A201EB0AD16A0A2965AD2DF43B0A7F665B2750349634B49570EABB6EBDC9E61F0021EB62A52C23DCCAB39C81AE25F6A53F389E5DAE6A7AA1198A704E18C5210AE98661060A82ADA5823432DC5B3829C431135A54F4EABC82615FF7A5362E77451872FF35A6C2D37CF04792678233FA2F6127EEEBA7014F206D41E37C2C
310
85CD8F29909878B6582CEFF57BF2660924DA85780FD60262F24DFD5E03AF398F05AB85317DBFDC1CD63C3EB41F9EB224252CE796279C59FA9DD260CDB4C0F83A8052E2AAEBEE84CA6780FE03205FF1823CD01CA387C161A0646738CE76098B403BC841A603FF1CC42F5F5D7976F5F014212D569EC314DCF60761AA89A19D5D
310
8374EA3D83D127AC2F855B0738049B7EA031F77330141426B004F17EB73918D31504535884A77008D2C39F67F34B045F251D88370D0DB585DF0E8A520ED3F4B393AEDE81CD301A54AAD2643C87EFF087E07BB758BF5F176C8703F2201D7B417634A63924D3768634D03597FFB2FA203C7276FC131FEB3EA8ED0AE09C7DC203
310
478B5ED6522F48280658E179B8548D5879A0E0EE6188639214995C6F0B54411226CCDF1CFDD2875BCFFA4B19417998B480D66006D93D6034E5A01853A9AE2A125A279C323031CCA409EE4BB5FA9B224A7D1C2545CC63ED6B5B6CF20181869B225015D494652BB75564B774B72B32885EAD24E71A90D2A115E1D2C40710C8DA
310
F86564C73064D124F6292461F096D613B4032AF02EF39C9170E7D3302C227F474348247E84D333F43B4A504F5D4FE4F892B06D2B41DDB294532A1BE2804B6015482A5D95415FEA949167CAEB4C91D0543AD076C842D4980ECEE40B9E2A5A0055C65846A45EDFB9BF1FCCCDF970D0330793D9CC9C4D9CA5E93A8B853B1EDC0C
310
E6B371934F15AEEA090F54C9EB1CCDFFF2C722DAC4988670838B8DB7E99BB7227DDEDA101BEDBB8533EADDDCDC9BBDF1FD1CCE1E8CCCD97C3C3087EE64BC1CF59CF1727967339225050B4866F76CC7572699C6FB735C29EE5E0751A86BAE673BA5AFA630FFDF20FAAE99143425FEAA41B48A5D2D1561D720CA1F6D86501C3C
310
F11CE50750F6B5BA4F238836F9688B735F19971DABEF888FEB4E7ACEA4379E8C2A63BF18A8C539DF1DE7DA2408A0F12C723F497140F3F684DAC0A5639CFEAADC62F5DD210274AAFFD52197F38C3CC4A711DE137F87799BD01218AF49D09AC3F661926534269968F35E957F0D9A8E05D5949E735B8C90667E4472FC2DF627FA
310
86864D436C0E7D6848733E12B85A1554062D5B90731479FB0B895BC87FF4331CA561D9EA5EC3C0ED29085493D366719C697EC433D89B8F73DFD91231B9B846BD625FD507AD5A6B529F7C33F933F0A8BAE627C2A38EE85E3A599059F9670C41653474FB374A11D7B05247E5BC910B0B683D83A3FF42E8FEB153A1D94D27B592
310
AD2CAA7312411F8BF38275F2D7D1D07975908C0B0D87A89DF495C5A168E0540B07E8890EEE5C795B3B06EA501AC3A0AB9320AFA4683561A10B31D4E3B3ABAFF0EB8BCAAE53FDEE78F9D32BE6BAF34562FA731D07A896CB002CA38F5653B756DD5A3D94BDE03C8040BA16DFE60C3C624BB6A7C64C23D756A2ABFAF45AF5BCE2
310
013582912DE671F6815F849F31A81ADAE7CC96459B5DAEAF7862B3603A7DE243635AA7F5F1DDBA4105563A3FFD8963445E1A14E4EA9C77C317487D599D9AFE060529D197D585C77F898E4229B03647837170968414A6F2648BF62481EC0D63870EDD068B4826B23218AF0C52EA954087A79FCBA16A8E37A17A3A78C430990E
310
652F56043015858C796BC875F41BCC41F928524CA7AC2768C3640C3350C1E8AD01169B53E8B6AC0DCCB3C4F450506FCC2BC1B171BCE7F9BE7CAAFA7D7A8CA30351E92457B5A70B2E5232CD99A0B04DC58B02A8FACA1B53EFDB4557EC209CC3E5A6C82B614E0B27692408EA8D40291C8CFD9E24BC0728282ECBE55A628F0649
310
A7D1FC453B28A99A39667B315FAFE17DB7F864F3D1F8EA234AC362CFD579A9FBD52899BCEB0E8B720AE58161483153CC6BC8F91BFB134BE01D538496148C00FD7E188FFEB0E749142571B964DFC9375568FD08EF9DB6B69AF9411BEFB8435B4C01E45CDFDFE08C58789B3DC102A896513E1C2D21D60CA08AA63503501AE1BA
310
80C7B4FDAB0592B5516D42520FBB1C1E31D447E048FC650E779BFA86DA04127C01B812374F176AC1B3194CC1A7FF01504B03041400060808001D8287510CD1A2D4DD000000530100003C0000006662782F41443036323737452D323845432D343934362D424338342D3531393846363230384646412F7265736F7572636573
310
2F322F636E782E786D6C4D90CD6A042110845F45BC8FE30C245982E3BEC49E72598CD36B64D51EFC09C9DBA7DD1808082D551F4D55ABF3570CEC1372F19836BE08C919248BBB4F6EE3ADDEA6136767AD3262FD8771964C848D77996BE532B663483BDC4C0B5D0D3EDD8728AF0E12646FAF47729CD9604AD978B11F108D30AD
310
E20EE52E76538D584486822D5BA015D547182B6C065361E77A95AB9C9675922F97E5F995DED3E94DCD9DD4EA1D310CDEA70A190F66913E89F24835775BAB96FD607A0932FEC2090AA766B2B52A35D3050656BF0FC27C340EE607F2EB6A35F78A341EFD69F673E81F504B03041400060808001D828751FF15A4A45D00000080
310
0000003A0000006662782F41443036323737452D323845432D343934362D424338342D3531393846363230384646412F7265736F75726365732F636E782E786D6C4D8B3B0E80201005AF42B6F75B59F0390B113044D83508C6E30BC6C26AF226F3B8BA6360974DA7271430F523308B2B198F9B80925DB700539227A2FCCB80
310
A18E5640D320F996A81C9F32D6E9129A0D1EF74FCE750E6D57BC7165FBCA07504B03041400060808001D82875117C80C1A3D01000046050000300000006662782F41443036323737452D323845432D343934362D424338342D3531393846363230384646412F636E782E786D6CCD94C16A032110865F45BCAFEE06DA86E21A
310
E8A14FD043E9CD75275B1357171D4BF3F6D57493B694941E02097890F117FE6FE667C4EA7DB4E40D4234DEB5B4613525E0B4EF8D1B5A9A705D2D29594911BCC76F324A9C1AA1A5A54CA518824FD35CEA61AD922D556BDC762E2AC460BA841029D156C5D8D2A85F61544C25F43DC42DEB152AD6B000D1A7A021FF4733C2FC5F
310
0750083D958B7A5157CDA2AAEF9E9ADBFB7C6E962F8217A5149DF776D61B8710FC44B4CF1797CDD4829767295230B3A61050F9E58C75C6099EDFA588D9AD1B661DEEA6A29B266BB4C2DC26EE35025659046A14FC532C052FBC3FA81F1F9E0F0E486F0268F46177A10634A71A7034C67212FEC7BF17FE8DEDBB4DC6BDD4B44F
310
C2CEB6CE867A486BCC71FD3DFF9C22E5067B7DA13F1A3B7FE6F32A41A3AF0FF9E0EB4CC47CBFF2F2D0CB06941F504B03041400060808001D828751FC0089A27F000000A30000000B0000006662782F636E782E786D6C4D8CD10E822018465F85FDF7143242DC106726EFE1121D0BA191B41E3F685E74F56D67DF39B2FB6C0E
310
BD4D7CD9E05BA84E0490F1F7305BBFB690F6050B409D923184FDEF06C84F9B69A16050728D213D0F349B654AAE5067FDE380FD8D705AD723A6621C306B18C7D741307CA91AA1392542EB3E1BE7A2E4F9F5F296BCFA02504B03041400060808001D828751A6D797065F0000008200000007000000636E782E786D6C4DCB3B0E
310
80201045D1AD90E9FD7516806B51190811670C8A61F982B1B0BAC9C97B72CA7B1037C6D3332918DA1E04D2CAC69353902EDB8C20262D23F3F59B81A079470595414B17391D1F19B4730A5583A7ED43BBE4025D9592775E5ADFFA01504B03041400060808001D828751ECFD112DA800000026010000130000005B436F6E7465
310
6E745F54797065735D2E786D6C7D4F4B0EC22010BD0A61DF525D18634ABB506FE00510A79458060253536F2FD89D5197F3FED3F68B9BD80362B21E25DFD40D6780DADF2C1AC9671AAA3D677DD75E9E0112CB5A4C928F44E12044D22338956A1F003333F8E814E5331A1194BE2B0362DB343BA13D122055543278D79E6050F3
310
44ECBC6478EDCD76CE8EABAE5449AE4298AC56946789C28AAFBEABC53F3EAF09A84A1441B91F0101CD4780756578C173A578FFDDBD00504B03041400060808001D8287513DEE336E64000000790000001B0000006175746F6465736B2D64657369676E2D7061636B6167652E786D6C35CBC10E83200C00D05F21DCA56CA76D
310
41FC96062B120735B69A7DBE268BB7777961F8D5AF396893C2ADB70FE7ADA196782C2DF776D7A97B5933C430F15651E5469C55D70F80A4992A3ADC954792C525AE70A1E4D6AD9816CC044FEFDF01FE3FDE907802504B03041400060808001D8287511F609D4BF40000008E0100003D0000006662782F41443036323737452D
310
323845432D343934362D424338342D3531393846363230384646412F7265736F75726365732F322F636F72652E786D6C8550CB6EC32010FC156BEFD806BB895B6122DB49BFA0A7DE10101725068B47D5CF2FC4AED49E2AADB4AB6166961D7AFA5AEEC5A7725E5BD3032E6B289411566A33F710C31575509C1875D6865F3428
310
0C5F540F1906466767E3BA43C29AA04C468D956A07B9F72A4021EE69E8C18B0FB5F092C79018FE56AE5CDCF8AC4A5C6E3C4663D472976A99DCF4552B078C5CC8341C2ECF686A0782DA91B4A83BE209B5F5707E9DCECD38B60DADB298D1A0979FEDC2291E944CFA9AD40813541FDFF0E125D553F74EABCC64D407976EDE97E6
310
EB129D561BFAC72DAEF27FB7A84D68C8EEB6293C309C3EF77860B4CAE9A4F6882EF59C24FB06504B03041400060808001D828751C4794C38F9000000960100003B0000006662782F41443036323737452D323845432D343934362D424338342D3531393846363230384646412F7265736F75726365732F636F72652E786D6C
310
8550CB6EC32010FC158B3BB6C16EE25698C876D22FE8A937041B1725068B47D5CF2FC4AED49E2A212D9A9D99DD1D76FA5AEEC52738AFADE911296B548091566933F728862BEE5071E2CC591B7ED15061C4023DCA30E26C7636AE3B24AD0960326AAC821D14DE434085BCA74F8FBCFC8045942286C4F0B77215F226662849B9
310
F1388B51AB5DAA5572D3570D0E717AA1D370B83CE3A91D286E47DAE2EE4826DCD6C3F9753A37E3D836ACCA62CE825E7EA64B0722804AFA9AD698505C1FDFC8E125BDA7EE9D5599C9990F2EDDBC0FCDD721EEC0DBE82478566DDD3FAE7155FFBB466D424377D74DE1112769C94783B32AA794CA23C25473A2FC1B504B030414
310
00060808001D828751E813060DF2000000B1010000310000006662782F41443036323737452D323845432D343934362D424338342D3531393846363230384646412F636F72652E786D6C8D504B6EC32014BC8AC51E1BA863930813A5697C82AEBA43405C94182C3E558F5F885DA9DD45427A689861E60D3B7ECFF7EA4BFB60
310
9C1D00AE11A8B4954E193B0D20C52BA4A03A72E69D8B7F68A0B262D6032830E06CF22E2D1B249D8DDA16D43AA5375084A023A8E43D5F0610E4A79E452D52CC8C70AB17216F62D235AE571E67D1CCBF52E9B5885A014E1041101388FA77DC1DF2D9D10FD61426672919B5591995DDCDD5680FF8E90D75A4EF2F90D0CB19B6FB
310
B683AF67DAC21DDED3B123888EE3893545CC59883EEFBC7D52B67B56BE0AFF654E8B7A22B3B1F1856C86AB22008E739EC703674D29308F47BB7996B2F90F504B03041400060808001D828751948CF52D53010000DD0200000C0000006662782F636F72652E786D6C8D52CB6E833010FC15E4BB793834492BE32821E917F4D4
310
9B631C8A02363236CAE777CD439443D30A84ADD99DD9D911F4F068EAA097A6ABB4CA5012C628904AE8A25265869CBDE13D0A0E8C1AADED8F361428DEC80C7918315A1AEDDA09125A59A93CAA74212790779DB42810355C32D4892FD9F0903B0B1DDD3D6CB9B8F352864938F631EA5C554CD4AA00B5EA56498318B990FCB8BD
310
BCE23C3D129C9E488AF7BB24C7697C3CBFE7E7CDE9946E68E4C98CDAAA99A70B23B99505F06312E384E078F7916CDFE07DD97FD2C87732DA59033B4F43FD7688DDAE0F1A8DF84ACFB5C5DF7AAE52764326BD91D1219680BDA1C068E4F38163086F9D210C86FC2CBFD6F30A77807A29AC3629540AED9652CF6B27413A0E8687
310
466315940781DF74C8139DE71A1014572558E316AE5767FDF4B5A7561ADCDB47A0B46978BD981B2D2EDF65D06AA5992E74ADCD7FD8F3AA739891FF31D937504B03041400060808001D828751314548C108010000B201000008000000636F72652E786D6C8D50416EC32010FC0ADA3B36C66E924698C876D217F4D41B35C445
310
B1C132386A7F5F88A9D4DE2A212D9A9DD9995D76FA9C4674578BD3D6D45064049032BD95DA0C35ACFE8A0F804E9C2DD6FA5F3440464CAA86080367C362D73941BD355E99881A2B55028573CA03EAC7F0A9C1F51F6A1299587D60B85B368BFE26069515D9C6E3CCEBE947DA2F4A7825815342092E2826FBD762770CEFE9F0C6
310
F2C8E46C5DB54C565A06777DD56A09920BED9ADDE51977554371D5D20A1FF645872BD29C5FBA73D9B655C9F228E6CCF925EC9C86849C1E39718FBE2CDF5A9CBD5B3B264208259135E31770C2F2D8F8137A9DE53F426BE34B9A066E0A07BC08811E8D601C2F18CAE3BCA1C66BF36F504B010214001400060808001D82875100
310
00000000000000000000003700000000000000000000000000000000006662782F41443036323737452D323845432D343934362D424338342D3531393846363230384646412F617474726962757465732E62696E504B010214001400060808001D828751000000000000000000000000350000000000000000000000000055
310
0000006662782F41443036323737452D323845432D343934362D424338342D3531393846363230384646412F76657274696365732E62696E504B010214001400060808001D828751F270F13306000000040000003600000000000000000000000000A80000006662782F41443036323737452D323845432D343934362D4243
310
38342D3531393846363230384646412F747269616E676C65732E62696E504B010214001400060808001D82875188E57597CD3F0000904100004200000000000000000000000000020100006662782F41443036323737452D323845432D343934362D424338342D3531393846363230384646412F7265736F75726365732F32
310
2F305F67656E657269632E706E67504B010214001400060808001D82875151464CB4890000004301000036000000000000000000000000002F4100006662782F41443036323737452D323845432D343934362D424338342D3531393846363230384646412F6469726563746F72792E786D6C504B010214001400060808001D
310
82875101A7BABA3D070000211C000034000000000000000000000000000C4200006662782F41443036323737452D323845432D343934362D424338342D3531393846363230384646412F6F626A656374732E786D6C504B010214001400060808001D8287510CD1A2D4DD000000530100003C00000000000000000000000000
310
9B4900006662782F41443036323737452D323845432D343934362D424338342D3531393846363230384646412F7265736F75726365732F322F636E782E786D6C504B010214001400060808001D828751FF15A4A45D000000800000003A00000000000000000000000000D24A00006662782F41443036323737452D32384543
310
2D343934362D424338342D3531393846363230384646412F7265736F75726365732F636E782E786D6C504B010214001400060808001D82875117C80C1A3D010000460500003000000000000000000000000000874B00006662782F41443036323737452D323845432D343934362D424338342D353139384636323038464641
310
2F636E782E786D6C504B010214001400060808001D828751FC0089A27F000000A30000000B00000000000000000000000000124D00006662782F636E782E786D6C504B010214001400060808001D828751A6D797065F000000820000000700000000000000000000000000BA4D0000636E782E786D6C504B01021400140006
310
0808001D828751ECFD112DA80000002601000013000000000000000000000000003E4E00005B436F6E74656E745F54797065735D2E786D6C504B010214001400060808001D8287513DEE336E64000000790000001B00000000000000000000000000174F00006175746F6465736B2D64657369676E2D7061636B6167652E78
310
6D6C504B010214001400060808001D8287511F609D4BF40000008E0100003D00000000000000000000000000B44F00006662782F41443036323737452D323845432D343934362D424338342D3531393846363230384646412F7265736F75726365732F322F636F72652E786D6C504B010214001400060808001D828751C479
310
4C38F9000000960100003B00000000000000000000000000035100006662782F41443036323737452D323845432D343934362D424338342D3531393846363230384646412F7265736F75726365732F636F72652E786D6C504B010214001400060808001D828751E813060DF2000000B1010000310000000000000000000000
310
0000555200006662782F41443036323737452D323845432D343934362D424338342D3531393846363230384646412F636F72652E786D6C504B010214001400060808001D828751948CF52D53010000DD0200000C00000000000000000000000000965300006662782F636F72652E786D6C504B010214001400060808001D82
310
8751314548C108010000B2010000080000000000000000000000000013550000636F72652E786D6C504B050600000000120012002D060000415600000000
  0
XRECORD
  5
17
102
{ACAD_REACTORS
330
12
102
}
330
12
100
AcDbXrecord
280
     1
270
     1
271
     1
  0
XRECORD
  5
16
102
{ACAD_REACTORS
330
12
102
}
330
12
100
AcDbXrecord
280
     1
270
     1
271
     1
  0
XRECORD
  5
18
102
{ACAD_REACTORS
330
12
102
}
330
12
100
AcDbXrecord
280
     1
270
     1
271
     1
  0
XRECORD
  5
15
102
{ACAD_REACTORS
330
12
102
}
330
12
100
AcDbXrecord
280
     1
270
     1
271
     1
  0
XRECORD
  5
24
102
{ACAD_REACTORS
330
22
102
}
330
22
100
AcDbXrecord
280
     1
270
     1
271
     1
  0
XRECORD
  5
23
102
{ACAD_REACTORS
330
22
102
}
330
22
100
AcDbXrecord
280
     1
270
     1
271
     1
  0
XRECORD
  5
27
102
{ACAD_REACTORS
330
22
102
}
330
22
100
AcDbXrecord
280
     1
270
     1
271
     1
  0
XRECORD
  5
26
102
{ACAD_REACTORS
330
22
102
}
330
22
100
AcDbXrecord
280
     1
270
     1
271
     1
  0
XRECORD
  5
28
102
{ACAD_REACTORS
330
22
102
}
330
22
100
AcDbXrecord
280
     1
270
     1
271
     1
  0
XRECORD
  5
25
102
{ACAD_REACTORS
330
22
102
}
330
22
100
AcDbXrecord
280
     1
270
     1
271
     1
  0
XRECORD
  5
322
102
{ACAD_REACTORS
330
321
102
}
330
321
100
AcDbXrecord
280
     1
102
DISPLAYNAME
  1
Imperial24
102
FLAGS
 90
        0
  0
CELLSTYLEMAP
  5
320
102
{ACAD_REACTORS
330
31F
102
}
330
31F
100
AcDbCellStyleMap
 90
        3
300
CELLSTYLE
  1
TABLEFORMAT_BEGIN
 90
        5
170
     1
 91
        0
 92
    32768
 62
   257
 93
        1
300
CONTENTFORMAT
  1
CONTENTFORMAT_BEGIN
 90
        0
 91
        0
 92
      512
 93
        0
300

 40
0.0
140
1.0
 94
        5
 62
     0
340
55
144
0.25
309
CONTENTFORMAT_END
171
     0
 94
        0
309
TABLEFORMAT_END
  1
CELLSTYLE_BEGIN
 90
        1
 91
        1
300
_TITLE
309
CELLSTYLE_END
300
CELLSTYLE
  1
TABLEFORMAT_BEGIN
 90
        5
170
     1
 91
        0
 92
        0
 62
   257
 93
        1
300
CONTENTFORMAT
  1
CONTENTFORMAT_BEGIN
 90
        0
 91
        0
 92
      512
 93
        0
300

 40
0.0
140
1.0
 94
        5
 62
     0
340
55
144
0.18
309
CONTENTFORMAT_END
171
     0
 94
        0
309
TABLEFORMAT_END
  1
CELLSTYLE_BEGIN
 90
        2
 91
        1
300
_HEADER
309
CELLSTYLE_END
300
CELLSTYLE
  1
TABLEFORMAT_BEGIN
 90
        5
170
     1
 91
        0
 92
        0
 62
   257
 93
        1
300
CONTENTFORMAT
  1
CONTENTFORMAT_BEGIN
 90
        0
 91
        0
 92
      512
 93
        0
300

 40
0.0
140
1.0
 94
        2
 62
     0
340
55
144
0.18
309
CONTENTFORMAT_END
171
     0
 94
        0
309
TABLEFORMAT_END
  1
CELLSTYLE_BEGIN
 90
        3
 91
        2
300
_DATA
309
CELLSTYLE_END
  0
ENDSEC
  0
EOF
