  0
SECTION
  2
HEADER
  9
$ACADVER
  1
AC1015
  9
$ACADMAINTVER
 70
     6
  9
$DWGCODEPAGE
  3
DOS932
  9
$INSBASE
 10
0.0
 20
0.0
 30
0.0
  9
$EXTMIN
 10
0.0
 20
0.0
 30
0.0
  9
$EXTMAX
 10
297.0
 20
210.0
 30
0.0
  9
$LIMMIN
 10
0.0
 20
0.0
  9
$LIMMAX
 10
297.0
 20
210.0
  9
$ORTHOMODE
 70
     0
  9
$REGENMODE
 70
     1
  9
$FILLMODE
 70
     1
  9
$QTEXTMODE
 70
     0
  9
$MIRRTEXT
 70
     1
  9
$LTSCALE
 40
1.0
  9
$ATTMODE
 70
     1
  9
$TEXTSIZE
 40
3.5277777778
  9
$TRACEWID
 40
1.0
  9
$TEXTSTYLE
  7
Standard
  9
$CLAYER
  8
0
  9
$CELTYPE
  6
ByLayer
  9
$CECOLOR
 62
   256
  9
$CELTSCALE
 40
1.0
  9
$DISPSILH
 70
     0
  9
$DIMSCALE
 40
1.0
  9
$DIMASZ
 40
2.728515625
  9
$DIMEXO
 40
1.0
  9
$DIMDLI
 40
3.75
  9
$DIMRND
 40
0.0
  9
$DIMDLE
 40
0.0
  9
$DIMEXE
 40
1.0
  9
$DIMTP
 40
0.0
  9
$DIMTM
 40
0.0
  9
$DIMTXT
 40
3.5277777778
  9
$DIMCEN
 40
2.5
  9
$DIMTSZ
 40
0.0
  9
$DIMTOL
 70
     0
  9
$DIMLIM
 70
     0
  9
$DIMTIH
 70
     1
  9
$DIMTOH
 70
     1
  9
$DIMSE1
 70
     0
  9
$DIMSE2
 70
     0
  9
$DIMTAD
 70
     1
  9
$DIMZIN
 70
     0
  9
$DIMBLK
  1

  9
$DIMASO
 70
     1
  9
$DIMSHO
 70
     1
  9
$DIMPOST
  1

  9
$DIMAPOST
  1

  9
$DIMALT
 70
     0
  9
$DIMALTD
 70
     3
  9
$DIMALTF
 40
0.0393700787
  9
$DIMLFAC
 40
1.0
  9
$DIMTOFL
 70
     1
  9
$DIMTVP
 40
0.0
  9
$DIMTIX
 70
     0
  9
$DIMSOXD
 70
     0
  9
$DIMSAH
 70
     0
  9
$DIMBLK1
  1

  9
$DIMBLK2
  1

  9
$DIMSTYLE
  2
ISO-25
  9
$DIMCLRD
 70
     0
  9
$DIMCLRE
 70
     0
  9
$DIMCLRT
 70
     0
  9
$DIMTFAC
 40
1.0
  9
$DIMGAP
 40
1.524
  9
$DIMJUST
 70
     0
  9
$DIMSD1
 70
     0
  9
$DIMSD2
 70
     0
  9
$DIMTOLJ
 70
     0
  9
$DIMTZIN
 70
     0
  9
$DIMALTZ
 70
     0
  9
$DIMALTTZ
 70
     0
  9
$DIMUPT
 70
     0
  9
$DIMDEC
 70
     2
  9
$DIMTDEC
 70
     2
  9
$DIMALTU
 70
     2
  9
$DIMALTTD
 70
     3
  9
$DIMTXSTY
  7
Standard
  9
$DIMAUNIT
 70
     0
  9
$DIMADEC
 70
     2
  9
$DIMALTRND
 40
0.0
  9
$DIMAZIN
 70
     0
  9
$DIMDSEP
 70
    44
  9
$DIMATFIT
 70
     3
  9
$DIMFRAC
 70
     0
  9
$DIMLDRBLK
  1

  9
$DIMLUNIT
 70
     2
  9
$DIMLWD
 70
    -2
  9
$DIMLWE
 70
    -2
  9
$DIMTMOVE
 70
     0
  9
$LUNITS
 70
     2
  9
$LUPREC
 70
     2
  9
$SKETCHINC
 40
1.0
  9
$FILLETRAD
 40
0.0
  9
$AUNITS
 70
     0
  9
$AUPREC
 70
     2
  9
$MENU
  1
.
  9
$ELEVATION
 40
0.0
  9
$PELEVATION
 40
0.0
  9
$THICKNESS
 40
0.0
  9
$LIMCHECK
 70
     0
  9
$CHAMFERA
 40
0.0
  9
$CHAMFERB
 40
0.0
  9
$CHAMFERC
 40
0.0
  9
$CHAMFERD
 40
0.0
  9
$SKPOLY
 70
     0
  9
$TDCREATE
 40
2460326.691657465
  9
$TDUCREATE
 40
2460326.316657465
  9
$TDUPDATE
 40
2460326.691658183
  9
$TDUUPDATE
 40
2460326.316658183
  9
$TDINDWG
 40
0.0000000116
  9
$TDUSRTIMER
 40
0.0000000116
  9
$USRTIMER
 70
     1
  9
$ANGBASE
 50
0.0
  9
$ANGDIR
 70
     0
  9
$PDMODE
 70
     0
  9
$PDSIZE
 40
-1.0
  9
$PLINEWID
 40
0.0
  9
$SPLFRAME
 70
     0
  9
$SPLINETYPE
 70
     6
  9
$SPLINESEGS
 70
     8
  9
$HANDSEED
  5
24F
  9
$SURFTAB1
 70
     6
  9
$SURFTAB2
 70
     6
  9
$SURFTYPE
 70
     6
  9
$SURFU
 70
     6
  9
$SURFV
 70
     6
  9
$UCSBASE
  2

  9
$UCSNAME
  2

  9
$UCSORG
 10
0.0
 20
0.0
 30
0.0
  9
$UCSXDIR
 10
1.0
 20
0.0
 30
0.0
  9
$UCSYDIR
 10
0.0
 20
1.0
 30
0.0
  9
$UCSORTHOREF
  2

  9
$UCSORTHOVIEW
 70
     0
  9
$UCSORGTOP
 10
0.0
 20
0.0
 30
0.0
  9
$UCSORGBOTTOM
 10
0.0
 20
0.0
 30
0.0
  9
$UCSORGLEFT
 10
0.0
 20
0.0
 30
0.0
  9
$UCSORGRIGHT
 10
0.0
 20
0.0
 30
0.0
  9
$UCSORGFRONT
 10
0.0
 20
0.0
 30
0.0
  9
$UCSORGBACK
 10
0.0
 20
0.0
 30
0.0
  9
$PUCSBASE
  2

  9
$PUCSNAME
  2

  9
$PUCSORG
 10
0.0
 20
0.0
 30
0.0
  9
$PUCSXDIR
 10
1.0
 20
0.0
 30
0.0
  9
$PUCSYDIR
 10
0.0
 20
1.0
 30
0.0
  9
$PUCSORTHOREF
  2

  9
$PUCSORTHOVIEW
 70
     0
  9
$PUCSORGTOP
 10
0.0
 20
0.0
 30
0.0
  9
$PUCSORGBOTTOM
 10
0.0
 20
0.0
 30
0.0
  9
$PUCSORGLEFT
 10
0.0
 20
0.0
 30
0.0
  9
$PUCSORGRIGHT
 10
0.0
 20
0.0
 30
0.0
  9
$PUCSORGFRONT
 10
0.0
 20
0.0
 30
0.0
  9
$PUCSORGBACK
 10
0.0
 20
0.0
 30
0.0
  9
$USERI1
 70
     0
  9
$USERI2
 70
     0
  9
$USERI3
 70
     0
  9
$USERI4
 70
     0
  9
$USERI5
 70
     0
  9
$USERR1
 40
0.0
  9
$USERR2
 40
0.0
  9
$USERR3
 40
0.0
  9
$USERR4
 40
0.0
  9
$USERR5
 40
0.0
  9
$WORLDVIEW
 70
     1
  9
$SHADEDGE
 70
     3
  9
$SHADEDIF
 70
    70
  9
$TILEMODE
 70
     1
  9
$MAXACTVP
 70
    64
  9
$PINSBASE
 10
0.0
 20
0.0
 30
0.0
  9
$PLIMCHECK
 70
     0
  9
$PEXTMIN
 10
1.0000000000E+20
 20
1.0000000000E+20
 30
1.0000000000E+20
  9
$PEXTMAX
 10
-1.0000000000E+20
 20
-1.0000000000E+20
 30
-1.0000000000E+20
  9
$PLIMMIN
 10
0.0
 20
0.0
  9
$PLIMMAX
 10
420.0
 20
297.0
  9
$UNITMODE
 70
     0
  9
$VISRETAIN
 70
     1
  9
$PLINEGEN
 70
     0
  9
$PSLTSCALE
 70
     1
  9
$TREEDEPTH
 70
  3020
  9
$CMLSTYLE
  2
Standard
  9
$CMLJUST
 70
     0
  9
$CMLSCALE
 40
20.0
  9
$PROXYGRAPHICS
 70
     1
  9
$MEASUREMENT
 70
     1
  9
$CELWEIGHT
370
    -1
  9
$ENDCAPS
280
     0
  9
$JOINSTYLE
280
     0
  9
$LWDISPLAY
290
     1
  9
$INSUNITS
 70
     4
  9
$HYPERLINKBASE
  1

  9
$STYLESHEET
  1

  9
$XEDIT
290
     1
  9
$CEPSNTYPE
380
     0
  9
$PSTYLEMODE
290
     1
  9
$FINGERPRINTGUID
  2
{68b2c8f5-39d0-4132-b929-13514633b01d}
  9
$VERSIONGUID
  2
{FAEB1C32-E019-11D5-929B-00C0DF256EC4}
  9
$EXTNAMES
290
     1
  9
$PSVPSCALE
 40
0.0
  9
$OLESTARTUP
290
     0
  0
ENDSEC
  0
SECTION
  2
CLASSES
  0
CLASS
  1
ACDBDICTIONARYWDFLT
  2
AcDbDictionaryWithDefault
  3
ObjectDBX Classes
 90
        0
280
     0
281
     0
  0
CLASS
  1
VISUALSTYLE
  2
AcDbVisualStyle
  3
ObjectDBX Classes
 90
     4095
280
     0
281
     0
  0
CLASS
  1
MATERIAL
  2
AcDbMaterial
  3
ObjectDBX Classes
 90
     1153
280
     0
281
     0
  0
CLASS
  1
SCALE
  2
AcDbScale
  3
ObjectDBX Classes
 90
     1153
280
     0
281
     0
  0
CLASS
  1
TABLESTYLE
  2
AcDbTableStyle
  3
ObjectDBX Classes
 90
     4095
280
     0
281
     0
  0
CLASS
  1
MLEADERSTYLE
  2
AcDbMLeaderStyle
  3
ACDB_MLEADERSTYLE_CLASS
 90
     4095
280
     0
281
     0
  0
CLASS
  1
SUN
  2
AcDbSun
  3
SCENEOE
 90
     1153
280
     0
281
     0
  0
CLASS
  1
ACDBPLACEHOLDER
  2
AcDbPlaceHolder
  3
ObjectDBX Classes
 90
        0
280
     0
281
     0
  0
CLASS
  1
LAYOUT
  2
AcDbLayout
  3
ObjectDBX Classes
 90
        0
280
     0
281
     0
  0
ENDSEC
  0
SECTION
  2
TABLES
  0
TABLE
  2
VPORT
  5
8
330
0
100
AcDbSymbolTable
 70
     1
  0
VPORT
  5
29
330
8
100
AcDbSymbolTableRecord
100
AcDbViewportTableRecord
  2
*Active
 70
     0
 10
0.0
 20
0.0
 11
1.0
 21
1.0
 12
148.5
 22
105.0
 13
0.0
 23
0.0
 14
10.0
 24
10.0
 15
10.0
 25
10.0
 16
0.0
 26
0.0
 36
1.0
 17
0.0
 27
0.0
 37
0.0
 40
210.0
 41
1.4142857143
 42
50.0
 43
0.0
 44
0.0
 50
0.0
 51
0.0
 71
     0
 72
  2000
 73
     1
 74
     3
 75
     0
 76
     0
 77
     0
 78
     0
281
     0
 65
     1
110
0.0
120
0.0
130
0.0
111
1.0
121
0.0
131
0.0
112
0.0
122
1.0
132
0.0
 79
     0
146
0.0
  0
ENDTAB
  0
TABLE
  2
LTYPE
  5
5
330
0
100
AcDbSymbolTable
 70
     6
  0
LTYPE
  5
14
330
5
100
AcDbSymbolTableRecord
100
AcDbLinetypeTableRecord
  2
ByBlock
 70
     0
  3

 72
    65
 73
     0
 40
0.0
  0
LTYPE
  5
15
330
5
100
AcDbSymbolTableRecord
100
AcDbLinetypeTableRecord
  2
ByLayer
 70
     0
  3

 72
    65
 73
     0
 40
0.0
  0
LTYPE
  5
16
330
5
100
AcDbSymbolTableRecord
100
AcDbLinetypeTableRecord
  2
Continuous
 70
     0
  3
Solid line
 72
    65
 73
     0
 40
0.0
  0
LTYPE
  5
5E
330
5
100
AcDbSymbolTableRecord
100
AcDbLinetypeTableRecord
  2
HIDDEN
 70
     0
  3
Hidden __ __ __ __ __ __ __ __ __ __ __ __ __ __
 72
    65
 73
     2
 40
1.905
 49
1.27
 74
     0
 49
-0.635
 74
     0
  0
LTYPE
  5
5F
330
5
100
AcDbSymbolTableRecord
100
AcDbLinetypeTableRecord
  2
PHANTOM
 70
     0
  3
Phantom ______  __  __  ______  __  __  ______
 72
    65
 73
     6
 40
12.7
 49
6.35
 74
     0
 49
-1.27
 74
     0
 49
1.27
 74
     0
 49
-1.27
 74
     0
 49
1.27
 74
     0
 49
-1.27
 74
     0
  0
LTYPE
  5
60
330
5
100
AcDbSymbolTableRecord
100
AcDbLinetypeTableRecord
  2
CENTER
 70
     0
  3
Center ____ _ ____ _ ____ _ ____ _ ____ _ ____
 72
    65
 73
     4
 40
10.16
 49
6.35
 74
     0
 49
-1.27
 74
     0
 49
1.27
 74
     0
 49
-1.27
 74
     0
  0
LTYPE
  5
61
330
5
100
AcDbSymbolTableRecord
100
AcDbLinetypeTableRecord
  2
CENTERX2
 70
     0
  3
Center (2x) ________  __  ________  __  _____
 72
    65
 73
     4
 40
20.32
 49
12.7
 74
     0
 49
-2.54
 74
     0
 49
2.54
 74
     0
 49
-2.54
 74
     0
  0
LTYPE
  5
62
330
5
100
AcDbSymbolTableRecord
100
AcDbLinetypeTableRecord
  2
DOT2
 70
     0
  3
Dot (.5x) ........................................
 72
    65
 73
     2
 40
0.635
 49
0.0
 74
     0
 49
-0.635
 74
     0
  0
ENDTAB
  0
TABLE
  2
LAYER
  5
2
330
0
100
AcDbSymbolTable
 70
     2
  0
LAYER
  5
10
330
2
100
AcDbSymbolTableRecord
100
AcDbLayerTableRecord
  2
0
 70
     0
 62
     7
  6
Continuous
370
    -3
390
F
  0
LAYER
  5
63
330
2
100
AcDbSymbolTableRecord
100
AcDbLayerTableRecord
  2
FORMAT
 70
     0
 62
     7
  6
Continuous
370
    -3
390
F
  0
ENDTAB
  0
TABLE
  2
STYLE
  5
3
330
0
100
AcDbSymbolTable
 70
     2
  0
STYLE
  5
11
330
3
100
AcDbSymbolTableRecord
100
AcDbTextStyleTableRecord
  2
Standard
 70
     0
 40
0.0
 41
1.0
 50
0.0
 71
     0
 42
3.5277777778
  3
txt
  4
bigfont
  0
STYLE
  5
64
330
3
100
AcDbSymbolTableRecord
100
AcDbTextStyleTableRecord
  2
SLDTEXTSTYLE0
 70
     0
 40
0.0
 41
0.7
 50
0.0
 71
     0
 42
3.5277777778
  3
TXT
  4
bigfont
  0
ENDTAB
  0
TABLE
  2
VIEW
  5
6
330
0
100
AcDbSymbolTable
 70
     0
  0
ENDTAB
  0
TABLE
  2
UCS
  5
7
330
0
100
AcDbSymbolTable
 70
     0
  0
ENDTAB
  0
TABLE
  2
APPID
  5
9
330
0
100
AcDbSymbolTable
 70
     1
  0
APPID
  5
12
330
9
100
AcDbSymbolTableRecord
100
AcDbRegAppTableRecord
  2
ACAD
 70
     0
  0
ENDTAB
  0
TABLE
  2
DIMSTYLE
  5
A
330
0
100
AcDbSymbolTable
 70
     1
100
AcDbDimStyleTable
  0
DIMSTYLE
105
27
330
A
100
AcDbSymbolTableRecord
100
AcDbDimStyleTableRecord
  2
ISO-25
 70
     0
 41
2.5
 42
0.625
 43
3.75
 44
1.25
 73
     0
 74
     0
 77
     1
 78
     8
140
2.5
141
2.5
143
0.0393700787
147
0.625
171
     3
172
     1
178
     0
271
     2
272
     2
274
     3
278
    44
283
     0
284
     8
340
11
  0
ENDTAB
  0
TABLE
  2
BLOCK_RECORD
  5
1
330
0
100
AcDbSymbolTable
 70
     3
  0
BLOCK_RECORD
  5
1F
330
1
100
AcDbSymbolTableRecord
100
AcDbBlockTableRecord
  2
*Model_Space
340
22
  0
BLOCK_RECORD
  5
1B
330
1
100
AcDbSymbolTableRecord
100
AcDbBlockTableRecord
  2
*Paper_Space
340
1E
  0
BLOCK_RECORD
  5
23
330
1
100
AcDbSymbolTableRecord
100
AcDbBlockTableRecord
  2
*Paper_Space0
340
26
  0
BLOCK_RECORD
  5
1BA
330
1
100
AcDbSymbolTableRecord
100
AcDbBlockTableRecord
  2
SW_CENTERMARKSYMBOL_0
340
0
102
{BLKREFS
331
1C5
102
}
  0
BLOCK_RECORD
  5
242
330
1
100
AcDbSymbolTableRecord
100
AcDbBlockTableRecord
  2
SW_CENTERMARKSYMBOL_1
340
0
102
{BLKREFS
331
24D
102
}
  0
ENDTAB
  0
ENDSEC
  0
SECTION
  2
BLOCKS
  0
BLOCK
  5
20
330
1F
100
AcDbEntity
  8
0
100
AcDbBlockBegin
  2
*Model_Space
 70
     0
 10
0.0
 20
0.0
 30
0.0
  3
*Model_Space
  1

  0
ENDBLK
  5
21
330
1F
100
AcDbEntity
  8
0
100
AcDbBlockEnd
  0
BLOCK
  5
1C
330
1B
100
AcDbEntity
 67
     1
  8
0
100
AcDbBlockBegin
  2
*Paper_Space
 70
     0
 10
0.0
 20
0.0
 30
0.0
  3
*Paper_Space
  1

  0
ENDBLK
  5
1D
330
1B
100
AcDbEntity
 67
     1
  8
0
100
AcDbBlockEnd
  0
BLOCK
  5
24
330
23
100
AcDbEntity
  8
0
100
AcDbBlockBegin
  2
*Paper_Space0
 70
     0
 10
0.0
 20
0.0
 30
0.0
  3
*Paper_Space0
  1

  0
ENDBLK
  5
25
330
23
100
AcDbEntity
  8
0
100
AcDbBlockEnd
  0
BLOCK
  5
1BB
330
1BA
100
AcDbEntity
  8
0
100
AcDbBlockBegin
  2
SW_CENTERMARKSYMBOL_0
 70
     0
 10
0.0
 20
0.0
 30
0.0
  3
SW_CENTERMARKSYMBOL_0
  1

  0
LINE
  5
1BD
330
1BA
100
AcDbEntity
  8
FORMAT
 62
     0
100
AcDbLine
 10
0.0
 20
0.0
 30
0.0
 11
0.0
 21
2.5
 31
0.0
  0
LINE
  5
1BE
330
1BA
100
AcDbEntity
  8
FORMAT
 62
     0
100
AcDbLine
 10
0.0
 20
0.0
 30
0.0
 11
-2.5
 21
0.0
 31
0.0
  0
LINE
  5
1BF
330
1BA
100
AcDbEntity
  8
FORMAT
 62
     0
100
AcDbLine
 10
0.0
 20
0.0
 30
0.0
 11
0.0
 21
-2.5
 31
0.0
  0
LINE
  5
1C0
330
1BA
100
AcDbEntity
  8
FORMAT
 62
     0
100
AcDbLine
 10
0.0
 20
0.0
 30
0.0
 11
2.5
 21
0.0
 31
0.0
  0
LINE
  5
1C1
330
1BA
100
AcDbEntity
  8
FORMAT
 62
     0
100
AcDbLine
 10
0.0
 20
5.0
 30
0.0
 11
0.0
 21
29.8376296939
 31
0.0
  0
LINE
  5
1C2
330
1BA
100
AcDbEntity
  8
FORMAT
 62
     0
100
AcDbLine
 10
-5.0
 20
0.0
 30
0.0
 11
-10.75
 21
0.0
 31
0.0
  0
LINE
  5
1C3
330
1BA
100
AcDbEntity
  8
FORMAT
 62
     0
100
AcDbLine
 10
0.0
 20
-5.0
 30
0.0
 11
0.0
 21
-25.4340120509
 31
0.0
  0
LINE
  5
1C4
330
1BA
100
AcDbEntity
  8
FORMAT
 62
     0
100
AcDbLine
 10
5.0
 20
0.0
 30
0.0
 11
10.75
 21
0.0
 31
0.0
  0
ENDBLK
  5
1BC
330
1BA
100
AcDbEntity
  8
0
100
AcDbBlockEnd
  0
BLOCK
  5
243
330
242
100
AcDbEntity
  8
0
100
AcDbBlockBegin
  2
SW_CENTERMARKSYMBOL_1
 70
     0
 10
0.0
 20
0.0
 30
0.0
  3
SW_CENTERMARKSYMBOL_1
  1

  0
LINE
  5
245
330
242
100
AcDbEntity
  8
FORMAT
 62
     0
100
AcDbLine
 10
0.0
 20
0.0
 30
0.0
 11
0.0
 21
2.5
 31
0.0
  0
LINE
  5
246
330
242
100
AcDbEntity
  8
FORMAT
 62
     0
100
AcDbLine
 10
0.0
 20
0.0
 30
0.0
 11
-2.5
 21
0.0
 31
0.0
  0
LINE
  5
247
330
242
100
AcDbEntity
  8
FORMAT
 62
     0
100
AcDbLine
 10
0.0
 20
0.0
 30
0.0
 11
0.0
 21
-2.5
 31
0.0
  0
LINE
  5
248
330
242
100
AcDbEntity
  8
FORMAT
 62
     0
100
AcDbLine
 10
0.0
 20
0.0
 30
0.0
 11
2.5
 21
0.0
 31
0.0
  0
LINE
  5
249
330
242
100
AcDbEntity
  8
FORMAT
 62
     0
100
AcDbLine
 10
0.0
 20
5.0
 30
0.0
 11
0.0
 21
9.95
 31
0.0
  0
LINE
  5
24A
330
242
100
AcDbEntity
  8
FORMAT
 62
     0
100
AcDbLine
 10
-5.0
 20
0.0
 30
0.0
 11
-24.4240311695
 21
0.0
 31
0.0
  0
LINE
  5
24B
330
242
100
AcDbEntity
  8
FORMAT
 62
     0
100
AcDbLine
 10
0.0
 20
-5.0
 30
0.0
 11
0.0
 21
-9.95
 31
0.0
  0
LINE
  5
24C
330
242
100
AcDbEntity
  8
FORMAT
 62
     0
100
AcDbLine
 10
5.0
 20
0.0
 30
0.0
 11
41.3648865349
 21
0.0
 31
0.0
  0
ENDBLK
  5
244
330
242
100
AcDbEntity
  8
0
100
AcDbBlockEnd
  0
ENDSEC
  0
SECTION
  2
ENTITIES
  0
MTEXT
  5
65
330
1F
100
AcDbEntity
  8
FORMAT
100
AcDbMText
 10
120.0423080937
 20
83.3696921721
 30
0.0
 40
2.6458333333
 41
0.0
 71
     1
 72
     1
  1
エースボール　アングル型
  7
SLDTEXTSTYLE0
 73
     1
 44
1.0
  0
MTEXT
  5
66
330
1F
100
AcDbEntity
  8
FORMAT
100
AcDbMText
 10
120.0423080937
 20
78.841914273
 30
0.0
 40
2.6458333333
 41
0.0
 71
     1
 72
     1
  1
BW-3022R
  7
SLDTEXTSTYLE0
 73
     1
 44
1.0
  0
LINE
  5
67
330
1F
100
AcDbEntity
  8
0
  6
Continuous
 62
     7
370
    25
100
AcDbLine
 10
74.18295913
 20
47.4953783435
 30
0.0
 11
63.08295913
 21
47.4953783435
 31
0.0
  0
LINE
  5
68
330
1F
100
AcDbEntity
  8
0
  6
Continuous
 62
     7
370
    25
100
AcDbLine
 10
63.08295913
 20
31.4953783435
 30
0.0
 11
74.18295913
 21
31.4953783435
 31
0.0
  0
LINE
  5
69
330
1F
100
AcDbEntity
  8
0
  6
Continuous
 62
     7
370
    25
100
AcDbLine
 10
63.08295913
 20
47.4953783435
 30
0.0
 11
62.58295913
 21
46.9953783435
 31
0.0
  0
LINE
  5
6A
330
1F
100
AcDbEntity
  8
0
  6
Continuous
 62
     7
370
    25
100
AcDbLine
 10
62.58295913
 20
31.9953783435
 30
0.0
 11
63.08295913
 21
31.4953783435
 31
0.0
  0
LINE
  5
6B
330
1F
100
AcDbEntity
  8
0
  6
Continuous
 62
     7
370
    25
100
AcDbLine
 10
75.945354823
 20
28.3542470906
 30
0.0
 11
77.43295913
 21
27.4953783435
 31
0.0
  0
LINE
  5
6C
330
1F
100
AcDbEntity
  8
0
  6
Continuous
 62
     7
370
    25
100
AcDbLine
 10
93.93295913
 20
27.4953783435
 30
0.0
 11
95.4205634371
 21
28.3542470906
 31
0.0
  0
LINE
  5
6D
330
1F
100
AcDbEntity
  8
0
  6
Continuous
 62
     7
370
    25
100
AcDbLine
 10
96.8240903829
 20
29.7577740364
 30
0.0
 11
97.68295913
 21
31.2453783435
 31
0.0
  0
LINE
  5
6E
330
1F
100
AcDbEntity
  8
0
  6
Continuous
 62
     7
370
    25
100
AcDbLine
 10
97.68295913
 20
47.7453783435
 30
0.0
 11
96.8240903829
 21
49.2329826505
 31
0.0
  0
LINE
  5
6F
330
1F
100
AcDbEntity
  8
0
  6
Continuous
 62
     7
370
    25
100
AcDbLine
 10
77.43295913
 20
16.4953783435
 30
0.0
 11
77.93295913
 21
15.9953783435
 31
0.0
  0
LINE
  5
70
330
1F
100
AcDbEntity
  8
0
  6
Continuous
 62
     7
370
    25
100
AcDbLine
 10
93.43295913
 20
15.9953783435
 30
0.0
 11
93.93295913
 21
16.4953783435
 31
0.0
  0
LINE
  5
71
330
1F
100
AcDbEntity
  8
0
  6
Continuous
 62
     7
370
    25
100
AcDbLine
 10
93.93295913
 20
16.4953783435
 30
0.0
 11
93.93295913
 21
27.4953783435
 31
0.0
  0
LINE
  5
72
330
1F
100
AcDbEntity
  8
0
  6
Continuous
 62
     7
370
    25
100
AcDbLine
 10
77.43295913
 20
27.4953783435
 30
0.0
 11
77.43295913
 21
16.4953783435
 31
0.0
  0
SPLINE
  5
73
330
1F
100
AcDbEntity
  8
0
  6
Continuous
 62
     7
370
    25
100
AcDbSpline
210
0.0
220
0.0
230
1.0
 70
     8
 71
     3
 72
    12
 73
     8
 74
     0
 42
0.00000001
 43
0.00000001
 40
0.0
 40
0.0
 40
0.0
 40
0.0
 40
0.0948730432479893
 40
0.3600564074886028
 40
0.632432096682429
 40
0.9075642146012786
 40
1.0
 40
1.0
 40
1.0
 40
1.0
 10
79.79229862658963
 20
48.99517113833718
 30
0.0
 10
79.79386001681385
 20
48.97034762642394
 30
0.0
 10
79.79978571009376
 20
48.87613894274791
 30
0.0
 10
79.76710558312132
 20
48.71089433385841
 30
0.0
 10
79.68924107036857
 20
48.5131408341372
 30
0.0
 10
79.6002554053342
 20
48.36729010080911
 30
0.0
 10
79.52905293290713
 20
48.30229790699979
 30
0.0
 10
79.51114697212621
 20
48.28595370385984
 30
0.0
  0
SPLINE
  5
74
330
1F
100
AcDbEntity
  8
0
  6
Continuous
 62
     7
370
    25
100
AcDbSpline
210
0.0
220
0.0
230
1.0
 70
     8
 71
     3
 72
    12
 73
     8
 74
     0
 42
0.00000001
 43
0.00000001
 40
0.0
 40
0.0
 40
0.0
 40
0.0
 40
0.0895039239028382
 40
0.396701875039869
 40
0.6744431251605882
 40
0.928530454620351
 40
0.9999999999999999
 40
0.9999999999999999
 40
0.9999999999999999
 40
0.9999999999999999
 10
91.8685670534282
 20
48.30136976188051
 30
0.0
 10
91.85166997965487
 20
48.31676146057926
 30
0.0
 10
91.77677828154515
 20
48.38498099183097
 30
0.0
 10
91.68603317593701
 20
48.5355926851706
 30
0.0
 10
91.610576177766
 20
48.73543229170648
 30
0.0
 10
91.5808062675129
 20
48.88884373515667
 30
0.0
 10
91.58480812585319
 20
48.9718418746505
 30
0.0
 10
91.58568665436344
 20
48.99006246759576
 30
0.0
  0
LINE
  5
75
330
1F
100
AcDbEntity
  8
0
  6
Continuous
 62
     7
370
    25
100
AcDbLine
 10
91.58295913
 20
48.9908475234
 30
0.0
 11
91.58295913
 21
49.9953783435
 31
0.0
  0
LINE
  5
76
330
1F
100
AcDbEntity
  8
0
  6
Continuous
 62
     7
370
    25
100
AcDbLine
 10
79.78295913
 20
49.9953783435
 30
0.0
 11
79.78295913
 21
48.9953783435
 31
0.0
  0
LINE
  5
77
330
1F
100
AcDbEntity
  8
0
  6
Continuous
 62
     7
370
    25
100
AcDbLine
 10
79.5127922227
 20
48.2901160727
 30
0.0
 11
78.9684279502
 21
49.2329826505
 31
0.0
  0
LINE
  5
78
330
1F
100
AcDbEntity
  8
0
  6
Continuous
 62
     7
370
    25
100
AcDbLine
 10
74.8974903098
 20
49.2329826505
 30
0.0
 11
74.18295913
 21
47.9953783435
 31
0.0
  0
LINE
  5
79
330
1F
100
AcDbEntity
  8
0
  6
Continuous
 62
     7
370
    25
100
AcDbLine
 10
92.3974903098
 20
49.2329826505
 30
0.0
 11
91.8531260374
 21
48.2901160727
 31
0.0
  0
LINE
  5
7A
330
1F
100
AcDbEntity
  8
0
  6
Continuous
 62
     7
370
    25
100
AcDbLine
 10
74.18295913
 20
30.9953783435
 30
0.0
 11
74.8974903098
 21
29.7577740364
 31
0.0
  0
LINE
  5
7B
330
1F
100
AcDbEntity
  8
0
  6
Continuous
 62
     7
370
    25
100
AcDbLine
 10
95.4205634371
 20
28.3516867092
 30
0.0
 11
95.4205634371
 21
29.7577740364
 31
0.0
  0
LINE
  5
7C
330
1F
100
AcDbEntity
  8
0
  6
Continuous
 62
     7
370
    25
100
AcDbLine
 10
95.4205634371
 20
29.7577740364
 30
0.0
 11
96.8266584384
 21
29.7577740364
 31
0.0
  0
LINE
  5
7D
330
1F
100
AcDbEntity
  8
0
  6
Continuous
 62
     7
370
    25
100
AcDbLine
 10
78.9709960057
 20
49.2329826505
 30
0.0
 11
74.8949299285
 21
49.2329826505
 31
0.0
  0
LINE
  5
7E
330
1F
100
AcDbEntity
  8
0
  6
Continuous
 62
     7
370
    25
100
AcDbLine
 10
96.8266584384
 20
49.2329826505
 30
0.0
 11
92.3949222544
 21
49.2329826505
 31
0.0
  0
LINE
  5
7F
330
1F
100
AcDbEntity
  8
0
  6
Continuous
 62
     7
370
    25
100
AcDbLine
 10
75.945354823
 20
29.7577740364
 30
0.0
 11
75.945354823
 21
28.3516867092
 31
0.0
  0
LINE
  5
80
330
1F
100
AcDbEntity
  8
0
  6
Continuous
 62
     7
370
    25
100
AcDbLine
 10
74.8949299285
 20
29.7577740364
 30
0.0
 11
75.945354823
 21
29.7577740364
 31
0.0
  0
LINE
  5
81
330
1F
100
AcDbEntity
  8
0
  6
Continuous
 62
     7
370
    25
100
AcDbLine
 10
80.18295913
 20
65.9953783434
 30
0.0
 11
78.23295913
 21
57.9953783435
 31
0.0
  0
LINE
  5
82
330
1F
100
AcDbEntity
  8
0
  6
Continuous
 62
     7
370
    25
100
AcDbLine
 10
78.23295913
 20
57.9953783435
 30
0.0
 11
78.68295913
 21
49.9953783435
 31
0.0
  0
LINE
  5
83
330
1F
100
AcDbEntity
  8
0
  6
Continuous
 62
     7
370
    25
100
AcDbLine
 10
92.68295913
 20
49.9953783435
 30
0.0
 11
92.7536157558
 21
51.2514961348
 31
0.0
  0
LINE
  5
84
330
1F
100
AcDbEntity
  8
0
  6
Continuous
 62
     7
370
    25
100
AcDbLine
 10
91.4361906646
 20
64.9564797403
 30
0.0
 11
91.18295913
 21
65.9953783434
 31
0.0
  0
LINE
  5
85
330
1F
100
AcDbEntity
  8
0
  6
Continuous
 62
     7
370
    25
100
AcDbLine
 10
63.08295913
 20
47.4953783435
 30
0.0
 11
63.08295913
 21
31.4953783435
 31
0.0
  0
LINE
  5
86
330
1F
100
AcDbEntity
  8
0
  6
Continuous
 62
     7
370
    25
100
AcDbLine
 10
62.58295913
 20
31.9953783435
 30
0.0
 11
62.58295913
 21
46.9953783435
 31
0.0
  0
LINE
  5
87
330
1F
100
AcDbEntity
  8
0
  6
Continuous
 62
     7
370
    25
100
AcDbLine
 10
79.68295913
 20
46.8565942756
 30
0.0
 11
79.68295913
 21
43.4953783435
 31
0.0
  0
SPLINE
  5
88
330
1F
100
AcDbEntity
  8
0
  6
Continuous
 62
     7
370
    25
100
AcDbSpline
210
0.0
220
0.0
230
1.0
 70
     8
 71
     3
 72
     8
 73
     4
 74
     0
 42
0.00000001
 43
0.00000001
 40
0.0
 40
0.0
 40
0.0
 40
0.0
 40
1.0
 40
1.0
 40
1.0
 40
1.0
 10
79.16672305303955
 20
43.49537834345374
 30
0.0
 10
79.11582433611704
 20
43.70242338188273
 30
0.0
 10
79.06189019986627
 20
43.90866271155937
 30
0.0
 10
79.00523772475853
 20
44.11418049697075
 30
0.0
  0
SPLINE
  5
89
330
1F
100
AcDbEntity
  8
0
  6
Continuous
 62
     7
370
    25
100
AcDbSpline
210
0.0
220
0.0
230
1.0
 70
     8
 71
     3
 72
    10
 73
     6
 74
     0
 42
0.00000001
 43
0.00000001
 40
0.0
 40
0.0
 40
0.0
 40
0.0
 40
0.5
 40
0.5
 40
1.0
 40
1.0
 40
1.0
 40
1.0
 10
79.00523772475853
 20
44.54719319886296
 30
0.0
 10
78.98156233033416
 20
44.50424966796174
 30
0.0
 10
78.9684712204495
 20
44.44080722333761
 30
0.0
 10
78.96838489916122
 20
44.28832838621864
 30
0.0
 10
78.98155383310507
 20
44.20009838411138
 30
0.0
 10
79.00523772475853
 20
44.11418049697075
 30
0.0
  0
SPLINE
  5
8A
330
1F
100
AcDbEntity
  8
0
  6
Continuous
 62
     7
370
    25
100
AcDbSpline
210
0.0
220
0.0
230
1.0
 70
     8
 71
     3
 72
    12
 73
     8
 74
     0
 42
0.00000001
 43
0.00000001
 40
0.0
 40
0.0
 40
0.0
 40
0.0
 40
0.2500000000000001
 40
0.2500000000000001
 40
0.5000000000000002
 40
0.5000000000000002
 40
1.0
 40
1.0
 40
1.0
 40
1.0
 10
79.68295913001873
 20
46.85659427562146
 30
0.0
 10
79.68295913001873
 20
46.66085201274196
 30
0.0
 10
79.66711619392977
 20
46.46418540355139
 30
0.0
 10
79.6056133336921
 20
46.0749171762231
 30
0.0
 10
79.56000969264842
 20
45.88151314327019
 30
0.0
 10
79.3835586751592
 20
45.30458409201344
 30
0.0
 10
79.21316130790734
 20
44.92433465881042
 30
0.0
 10
79.00523772475853
 20
44.54719319886296
 30
0.0
  0
LINE
  5
8B
330
1F
100
AcDbEntity
  8
0
  6
Continuous
 62
     7
370
    25
100
AcDbLine
 10
81.0641569765
 20
31.5289818036
 30
0.0
 11
81.0641569765
 21
28.317437316
 31
0.0
  0
SPLINE
  5
8C
330
1F
100
AcDbEntity
  8
0
  6
Continuous
 62
     7
370
    25
100
AcDbSpline
210
0.0
220
0.0
230
1.0
 70
     8
 71
     3
 72
     8
 73
     4
 74
     0
 42
0.00000001
 43
0.00000001
 40
0.0
 40
0.0
 40
0.0
 40
0.0
 40
1.0
 40
1.0
 40
1.0
 40
1.0
 10
81.06415697650169
 20
31.52898180359874
 30
0.0
 10
81.26934279904499
 20
31.58554277072296
 30
0.0
 10
81.4755659997523
 20
31.63948284213679
 30
0.0
 10
81.68295913001873
 20
31.69046713187976
 30
0.0
  0
LINE
  5
8D
330
1F
100
AcDbEntity
  8
0
  6
Continuous
 62
     7
370
    25
100
AcDbLine
 10
81.68295913
 20
35.4953783435
 30
0.0
 11
79.166723053
 21
35.4953783435
 31
0.0
  0
SPLINE
  5
8E
330
1F
100
AcDbEntity
  8
0
  6
Continuous
 62
     7
370
    25
100
AcDbSpline
210
0.0
220
0.0
230
1.0
 70
     8
 71
     3
 72
     8
 73
     4
 74
     0
 42
0.00000001
 43
0.00000001
 40
0.0
 40
0.0
 40
0.0
 40
0.0
 40
1.0
 40
1.0
 40
1.0
 40
1.0
 10
79.00523772475854
 20
34.8765761899367
 30
0.0
 10
79.06180109422678
 20
35.08177072744646
 30
0.0
 10
79.11574101704802
 20
35.28799438096362
 30
0.0
 10
79.16672305303955
 20
35.49537834345373
 30
0.0
  0
LINE
  5
8F
330
1F
100
AcDbEntity
  8
0
  6
Continuous
 62
     7
370
    25
100
AcDbLine
 10
74.8606805353
 20
34.8765761899
 30
0.0
 11
79.0052377248
 21
34.8765761899
 31
0.0
  0
SPLINE
  5
90
330
1F
100
AcDbEntity
  8
0
  6
Continuous
 62
     7
370
    25
100
AcDbSpline
210
0.0
220
0.0
230
1.0
 70
     8
 71
     3
 72
    10
 73
     6
 74
     0
 42
0.00000001
 43
0.00000001
 40
0.0
 40
0.0
 40
0.0
 40
0.0
 40
0.5
 40
0.5
 40
1.0
 40
1.0
 40
1.0
 40
1.0
 10
74.86068053527892
 20
34.87657618993672
 30
0.0
 10
74.6526118590477
 20
35.63138546298601
 30
0.0
 10
74.48221285302317
 20
36.39213185021791
 30
0.0
 10
74.24705287332432
 20
37.93027422784117
 30
0.0
 10
74.18295913001873
 20
38.70777538036599
 30
0.0
 10
74.18295913001873
 20
39.49537834345374
 30
0.0
  0
SPLINE
  5
91
330
1F
100
AcDbEntity
  8
0
  6
Continuous
 62
     7
370
    25
100
AcDbSpline
210
0.0
220
0.0
230
1.0
 70
     8
 71
     3
 72
    12
 73
     8
 74
     0
 42
0.00000001
 43
0.00000001
 40
0.0
 40
0.0
 40
0.0
 40
0.0
 40
0.2500000000000001
 40
0.2500000000000001
 40
0.5000000000000001
 40
0.5000000000000001
 40
1.0
 40
1.0
 40
1.0
 40
1.0
 10
74.18295913001873
 20
39.49537834345374
 30
0.0
 10
74.18295913001873
 20
39.88969642412557
 30
0.0
 10
74.19895793499981
 20
40.28335546807601
 30
0.0
 10
74.26072807331418
 20
41.06289146762135
 30
0.0
 10
74.30647019761578
 20
41.44984465574677
 30
0.0
 10
74.48314034496264
 20
42.60323121860078
 30
0.0
 10
74.65339541044293
 20
43.36221370780581
 30
0.0
 10
74.86068053527892
 20
44.11418049697075
 30
0.0
  0
LINE
  5
92
330
1F
100
AcDbEntity
  8
0
  6
Continuous
 62
     7
370
    25
100
AcDbLine
 10
79.0052377248
 20
44.114180497
 30
0.0
 11
74.8606805353
 21
44.114180497
 31
0.0
  0
SPLINE
  5
93
330
1F
100
AcDbEntity
  8
0
  6
Continuous
 62
     7
370
    25
100
AcDbSpline
210
0.0
220
0.0
230
1.0
 70
     8
 71
     3
 72
     8
 73
     4
 74
     0
 42
0.00000001
 43
0.00000001
 40
0.0
 40
0.0
 40
0.0
 40
0.0
 40
1.0
 40
1.0
 40
1.0
 40
1.0
 10
92.19919520699791
 20
43.4953783434538
 30
0.0
 10
92.25009144025299
 20
43.70241327885756
 30
0.0
 10
92.30402539521666
 20
43.90865304392256
 30
0.0
 10
92.36068053527892
 20
44.11418049697075
 30
0.0
  0
LINE
  5
94
330
1F
100
AcDbEntity
  8
0
  6
Continuous
 62
     7
370
    25
100
AcDbLine
 10
96.8609001575
 20
44.114180497
 30
0.0
 11
92.3606805353
 21
44.114180497
 31
0.0
  0
SPLINE
  5
95
330
1F
100
AcDbEntity
  8
0
  6
Continuous
 62
     7
370
    25
100
AcDbSpline
210
0.0
220
0.0
230
1.0
 70
     8
 71
     3
 72
    14
 73
    10
 74
     0
 42
0.00000001
 43
0.00000001
 40
0.0
 40
0.0
 40
0.0
 40
0.0
 40
0.25
 40
0.25
 40
0.5
 40
0.5
 40
0.75
 40
0.75
 40
1.0
 40
1.0
 40
1.0
 40
1.0
 10
96.86090015746115
 20
34.87657618993669
 30
0.0
 10
97.06885051816691
 20
35.63095625058667
 30
0.0
 10
97.24107232685577
 20
36.40039741805217
 30
0.0
 10
97.47570744960667
 20
37.94090877899333
 30
0.0
 10
97.53865150823437
 20
38.71576315900035
 30
0.0
 10
97.5385915955029
 20
40.27612411388591
 30
0.0
 10
97.47397692921078
 20
41.06658030667093
 30
0.0
 10
97.23741758980955
 20
42.6088599694794
 30
0.0
 10
97.06707244973012
 20
43.36625072268058
 30
0.0
 10
96.86090015746113
 20
44.11418049697075
 30
0.0
  0
LINE
  5
96
330
1F
100
AcDbEntity
  8
0
  6
Continuous
 62
     7
370
    25
100
AcDbLine
 10
92.3606805353
 20
34.8765761899
 30
0.0
 11
96.8609001575
 21
34.8765761899
 31
0.0
  0
SPLINE
  5
97
330
1F
100
AcDbEntity
  8
0
  6
Continuous
 62
     7
370
    25
100
AcDbSpline
210
0.0
220
0.0
230
1.0
 70
     8
 71
     3
 72
     8
 73
     4
 74
     0
 42
0.00000001
 43
0.00000001
 40
0.0
 40
0.0
 40
0.0
 40
0.0
 40
1.0
 40
1.0
 40
1.0
 40
1.0
 10
92.3606805352789
 20
34.87657618993671
 30
0.0
 10
92.30411869184196
 20
35.08176519147352
 30
0.0
 10
92.25017867458558
 20
35.28798855753821
 30
0.0
 10
92.19919520699791
 20
35.49537834345367
 30
0.0
  0
SPLINE
  5
98
330
1F
100
AcDbEntity
  8
0
  6
Continuous
 62
     7
370
    25
100
AcDbSpline
210
0.0
220
0.0
230
1.0
 70
     8
 71
     3
 72
     8
 73
     4
 74
     0
 42
0.00000001
 43
0.00000001
 40
0.0
 40
0.0
 40
0.0
 40
0.0
 40
1.0
 40
1.0
 40
1.0
 40
1.0
 10
89.68295913001873
 20
31.69046713187975
 30
0.0
 10
89.88998819335411
 20
31.63957234217893
 30
0.0
 10
90.09622821062347
 20
31.58563849281749
 30
0.0
 10
90.30176128353573
 20
31.52898180359873
 30
0.0
  0
LINE
  5
99
330
1F
100
AcDbEntity
  8
0
  6
Continuous
 62
     7
370
    25
100
AcDbLine
 10
90.3017612835
 20
28.317437316
 30
0.0
 11
90.3017612835
 21
31.5289818036
 31
0.0
  0
SPLINE
  5
9A
330
1F
100
AcDbEntity
  8
0
  6
Continuous
 62
     7
370
    25
100
AcDbSpline
210
0.0
220
0.0
230
1.0
 70
     8
 71
     3
 72
    16
 73
    12
 74
     0
 42
0.00000001
 43
0.00000001
 40
0.0
 40
0.0
 40
0.0
 40
0.0
 40
0.25
 40
0.25
 40
0.375
 40
0.375
 40
0.5
 40
0.5
 40
0.75
 40
0.75
 40
1.0
 40
1.0
 40
1.0
 40
1.0
 10
90.30176128353573
 20
28.31743731601133
 30
0.0
 10
89.54940062879268
 20
28.11004361925873
 30
0.0
 10
88.78825175397596
 20
27.9391544320446
 30
0.0
 10
87.62749455135148
 20
27.76188362732215
 30
0.0
 10
87.23739255099255
 20
27.71601462577928
 30
0.0
 10
86.44991204698813
 20
27.65450176287026
 30
0.0
 10
86.0553896709025
 20
27.63923273257597
 30
0.0
 10
84.88219534717985
 20
27.64071764518148
 30
0.0
 10
84.10877942115263
 20
27.70491447358896
 30
0.0
 10
82.57661843322597
 20
27.9397276568604
 30
0.0
 10
81.8177838413647
 20
28.1096945792126
 30
0.0
 10
81.06415697650161
 20
28.31743731601136
 30
0.0
  0
ARC
  5
9B
330
1F
100
AcDbEntity
  8
0
  6
Continuous
 62
     7
370
    25
100
AcDbCircle
 10
87.2336904857
 20
38.9184593501
 30
0.0
 40
0.889000000000007
100
AcDbArc
 50
45.0
 51
315.0
  0
LINE
  5
9C
330
1F
100
AcDbEntity
  8
0
  6
Continuous
 62
     7
370
    25
100
AcDbLine
 10
87.8623084142
 20
39.5470772786
 30
0.0
 11
88.3289187998
 21
40.0136876642
 31
0.0
  0
ARC
  5
9D
330
1F
100
AcDbEntity
  8
0
  6
Continuous
 62
     7
370
    25
100
AcDbCircle
 10
87.2336904857
 20
38.9184593501
 30
0.0
 40
1.548886735692394
100
AcDbArc
 50
45.0
 51
315.0
  0
LINE
  5
9E
330
1F
100
AcDbEntity
  8
0
  6
Continuous
 62
     7
370
    25
100
AcDbLine
 10
88.3289187998
 20
37.823231036
 30
0.0
 11
87.8623084142
 21
38.2898414217
 31
0.0
  0
ARC
  5
9F
330
1F
100
AcDbEntity
  8
0
  6
Continuous
 62
     7
370
    25
100
AcDbCircle
 10
90.5758350821
 20
38.9184593501
 30
0.0
 40
0.8889999999999868
100
AcDbArc
 50
45.0
 51
159.0751675724
  0
LINE
  5
A0
330
1F
100
AcDbEntity
  8
0
  6
Continuous
 62
     7
370
    25
100
AcDbLine
 10
91.2044530106
 20
39.5470772786
 30
0.0
 11
91.6710633962
 21
40.0136876642
 31
0.0
  0
ARC
  5
A1
330
1F
100
AcDbEntity
  8
0
  6
Continuous
 62
     7
370
    25
100
AcDbCircle
 10
90.5758350821
 20
38.9184593501
 30
0.0
 40
1.548886735692379
100
AcDbArc
 50
45.0
 51
315.0
  0
LINE
  5
A2
330
1F
100
AcDbEntity
  8
0
  6
Continuous
 62
     7
370
    25
100
AcDbLine
 10
91.6710633962
 20
37.823231036
 30
0.0
 11
91.2044530106
 21
38.2898414217
 31
0.0
  0
ARC
  5
A3
330
1F
100
AcDbEntity
  8
0
  6
Continuous
 62
     7
370
    25
100
AcDbCircle
 10
90.5758350821
 20
38.9184593501
 30
0.0
 40
0.8890000000000007
100
AcDbArc
 50
200.9248324276
 51
315.0
  0
LINE
  5
A4
330
1F
100
AcDbEntity
  8
0
  6
Continuous
 62
     7
370
    25
100
AcDbLine
 10
89.7454648334
 20
38.6009593501
 30
0.0
 11
91.6710633962
 21
38.6009593501
 31
0.0
  0
LINE
  5
A5
330
1F
100
AcDbEntity
  8
0
  6
Continuous
 62
     7
370
    25
100
AcDbLine
 10
91.6710633962
 20
38.6009593501
 30
0.0
 11
91.6710633962
 21
39.2359593501
 31
0.0
  0
LINE
  5
A6
330
1F
100
AcDbEntity
  8
0
  6
Continuous
 62
     7
370
    25
100
AcDbLine
 10
91.6710633962
 20
39.2359593501
 30
0.0
 11
89.7454648334
 21
39.2359593501
 31
0.0
  0
LINE
  5
A7
330
1F
100
AcDbEntity
  8
0
  6
Continuous
 62
     7
370
    25
100
AcDbLine
 10
84.781200216
 20
38.0730053259
 30
0.0
 11
84.7395498968
 21
38.049200396
 31
0.0
  0
ELLIPSE
  5
A8
330
1F
100
AcDbEntity
  8
0
  6
Continuous
 62
     7
370
    25
100
AcDbEllipse
 10
84.3907067172
 20
38.6038828672
 30
0.0
 11
0.678412947925267
 21
6.110667527536863E-13
 31
0.0
210
0.0
220
0.0
230
1.0
 40
0.9533039403
 41
3.470145824140268
 42
5.252469180536304
  0
LINE
  5
A9
330
1F
100
AcDbEntity
  8
0
  6
Continuous
 62
     7
370
    25
100
AcDbLine
 10
83.7485819502
 20
38.3951987523
 30
0.0
 11
82.4889277453
 21
41.9176431489
 31
0.0
  0
ELLIPSE
  5
AA
330
1F
100
AcDbEntity
  8
0
  6
Continuous
 62
     7
370
    25
100
AcDbEllipse
 10
81.8979451874
 20
41.6553039128
 30
0.0
 11
0.6519124952381503
 21
6.110667527536862E-13
 31
0.0
210
0.0
220
0.0
230
1.0
 40
0.9533023292
 41
0.4357905044354913
 42
2.70580011636152
  0
LINE
  5
AB
330
1F
100
AcDbEntity
  8
0
  6
Continuous
 62
     7
370
    25
100
AcDbLine
 10
81.3069631889
 20
41.9176442942
 30
0.0
 11
80.0475983872
 21
38.3960208924
 31
0.0
  0
ELLIPSE
  5
AC
330
1F
100
AcDbEntity
  8
0
  6
Continuous
 62
     7
370
    25
100
AcDbEllipse
 10
79.4054772032
 20
38.6047037261
 30
0.0
 11
-0.6784085062757725
 21
3.268496584496461E-13
 31
0.0
210
0.0
220
0.0
230
1.0
 40
0.9533122623
 41
1.047193771187957
 42
2.813042320199948
  0
LINE
  5
AD
330
1F
100
AcDbEntity
  8
0
  6
Continuous
 62
     7
370
    25
100
AcDbLine
 10
79.0662707292
 20
38.0446158809
 30
0.0
 11
79.0146901587
 21
38.0730053259
 31
0.0
  0
LINE
  5
AE
330
1F
100
AcDbEntity
  8
0
  6
Continuous
 62
     7
370
    25
100
AcDbLine
 10
79.0146901587
 20
38.0730053259
 30
0.0
 11
79.8109588182
 21
36.5548332244
 31
0.0
  0
ELLIPSE
  5
AF
330
1F
100
AcDbEntity
  8
0
  6
Continuous
 62
     7
370
    25
100
AcDbEllipse
 10
79.8868076916
 20
36.5909867394
 30
0.0
 11
0.08480161849065837
 21
-2.131628207280301E-14
 31
0.0
210
0.0
220
0.0
230
1.0
 40
0.9533039403
 41
3.605240262590865
 42
5.462183310215417
  0
ELLIPSE
  5
B0
330
1F
100
AcDbEntity
  8
0
  6
Continuous
 62
     7
370
    25
100
AcDbEllipse
 10
81.8979451874
 20
34.5321381189
 30
0.0
 11
2.866293551216202
 21
-1.492139745096210E-12
 31
0.0
210
0.0
220
0.0
230
1.0
 40
0.9533046568
 41
0.8210016221243773
 42
2.320591031466441
  0
ELLIPSE
  5
B1
330
1F
100
AcDbEntity
  8
0
  6
Continuous
 62
     7
370
    25
100
AcDbEllipse
 10
83.9090826831
 20
36.5909867394
 30
0.0
 11
0.08480161849061574
 21
-7.105427357601002E-15
 31
0.0
210
0.0
220
0.0
230
1.0
 40
0.9533039403
 41
3.962594650556758
 42
5.819537698177264
  0
LINE
  5
B2
330
1F
100
AcDbEntity
  8
0
  6
Continuous
 62
     7
370
    25
100
AcDbLine
 10
83.9849315565
 20
36.5548332244
 30
0.0
 11
84.781200216
 21
38.0730053259
 31
0.0
  0
LINE
  5
B3
330
1F
100
AcDbEntity
  8
0
  6
Continuous
 62
     7
370
    25
100
AcDbLine
 10
81.68295913
 20
31.6904671319
 30
0.0
 11
81.68295913
 21
35.4953783435
 31
0.0
  0
LINE
  5
B4
330
1F
100
AcDbEntity
  8
0
  6
Continuous
 62
     7
370
    25
100
AcDbLine
 10
89.68295913
 20
31.6904671319
 30
0.0
 11
89.68295913
 21
35.4953783435
 31
0.0
  0
LINE
  5
B5
330
1F
100
AcDbEntity
  8
0
  6
Continuous
 62
     7
370
    25
100
AcDbLine
 10
92.199195207
 20
35.4953783435
 30
0.0
 11
89.68295913
 21
35.4953783435
 31
0.0
  0
LINE
  5
B6
330
1F
100
AcDbEntity
  8
0
  6
Continuous
 62
     7
370
    25
100
AcDbLine
 10
92.199195207
 20
43.4953783435
 30
0.0
 11
79.166723053
 21
43.4953783435
 31
0.0
  0
LINE
  5
B7
330
1F
100
AcDbEntity
  8
0
  6
Continuous
 62
     7
370
    25
100
AcDbLine
 10
93.93295913
 20
27.4953783435
 30
0.0
 11
77.43295913
 21
27.4953783435
 31
0.0
  0
SPLINE
  5
B8
330
1F
100
AcDbEntity
  8
0
  6
Continuous
 62
     7
370
    25
100
AcDbSpline
210
0.0
220
0.0
230
1.0
 70
     8
 71
     3
 72
    10
 73
     6
 74
     0
 42
0.00000001
 43
0.00000001
 40
0.0
 40
0.0
 40
0.0
 40
0.0
 40
0.5
 40
0.5
 40
1.0
 40
1.0
 40
1.0
 40
1.0
 10
80.6311442746095
 20
28.31743731601133
 30
0.0
 10
80.67408208370873
 20
28.34110955592288
 30
0.0
 10
80.73752267360092
 20
28.35420354585814
 30
0.0
 10
80.8900118191097
 20
28.3542904133196
 30
0.0
 10
80.97824120831301
 20
28.34112062356026
 30
0.0
 10
81.06415697650162
 20
28.31743731601136
 30
0.0
  0
SPLINE
  5
B9
330
1F
100
AcDbEntity
  8
0
  6
Continuous
 62
     7
370
    25
100
AcDbSpline
210
0.0
220
0.0
230
1.0
 70
     8
 71
     3
 72
    10
 73
     6
 74
     0
 42
0.00000001
 43
0.00000001
 40
0.0
 40
0.0
 40
0.0
 40
0.0
 40
0.5
 40
0.5
 40
1.0
 40
1.0
 40
1.0
 40
1.0
 10
90.30176128353573
 20
28.31743731601133
 30
0.0
 10
90.38764292604219
 20
28.34111121656728
 30
0.0
 10
90.47505213200763
 20
28.35420377374642
 30
0.0
 10
90.62769461708255
 20
28.3542901877287
 30
0.0
 10
90.69181760216492
 20
28.34111979613008
 30
0.0
 10
90.73477398542795
 20
28.31743731601133
 30
0.0
  0
SPLINE
  5
BA
330
1F
100
AcDbEntity
  8
0
  6
Continuous
 62
     7
370
    25
100
AcDbSpline
210
0.0
220
0.0
230
1.0
 70
     8
 71
     3
 72
    16
 73
    12
 74
     0
 42
0.00000001
 43
0.00000001
 40
0.0
 40
0.0
 40
0.0
 40
0.0
 40
0.2500000000000001
 40
0.2500000000000001
 40
0.5000000000000001
 40
0.5000000000000001
 40
0.6250000000000001
 40
0.6250000000000001
 40
0.7500000000000002
 40
0.7500000000000002
 40
1.0
 40
1.0
 40
1.0
 40
1.0
 10
95.35357613894499
 20
28.31743731601086
 30
0.0
 10
94.975861091222
 20
28.10919750556222
 30
0.0
 10
94.59570334259604
 20
27.93902421915277
 30
0.0
 10
93.82861001070464
 20
27.70430195953692
 30
0.0
 10
93.44163265336697
 20
27.64040398446246
 30
0.0
 10
92.85508187834229
 20
27.63938028237596
 30
0.0
 10
92.65800271841923
 20
27.65486682952065
 30
0.0
 10
92.26747357891097
 20
27.71599055097865
 30
0.0
 10
92.07344187523792
 20
27.76151227827366
 30
0.0
 10
91.49463780281688
 20
27.93801164201883
 30
0.0
 10
91.11314906865037
 20
28.10883361837266
 30
0.0
 10
90.73477398542794
 20
28.31743731601118
 30
0.0
  0
SPLINE
  5
BB
330
1F
100
AcDbEntity
  8
0
  6
Continuous
 62
     7
370
    25
100
AcDbSpline
210
0.0
220
0.0
230
1.0
 70
     8
 71
     3
 72
     9
 73
     5
 74
     0
 42
0.00000001
 43
0.00000001
 40
0.0
 40
0.0
 40
0.0
 40
0.0
 40
0.5789479223911497
 40
1.0
 40
1.0
 40
1.0
 40
1.0
 10
95.35357613894496
 20
28.31743731601133
 30
0.0
 10
95.37601750613761
 20
28.32977820632574
 30
0.0
 10
95.41477983056215
 20
28.35109426919966
 30
0.0
 10
95.41554573342124
 20
28.35150244311404
 30
0.0
 10
95.4158682184113
 20
28.35167430558872
 30
0.0
  0
SPLINE
  5
BC
330
1F
100
AcDbEntity
  8
0
  6
Continuous
 62
     7
370
    25
100
AcDbSpline
210
0.0
220
0.0
230
1.0
 70
     8
 71
     3
 72
    10
 73
     6
 74
     0
 42
0.00000001
 43
0.00000001
 40
0.0
 40
0.0
 40
0.0
 40
0.0
 40
0.1593935213061664
 40
0.7189934545756295
 40
1.0
 40
1.0
 40
1.0
 40
1.0
 10
75.95005004162616
 20
28.35167430558872
 30
0.0
 10
75.94866012279952
 20
28.35243583258617
 30
0.0
 10
75.94239046685271
 20
28.35587093410204
 30
0.0
 10
75.9688744086767
 20
28.34137631163543
 30
0.0
 10
76.00145181272339
 20
28.32343494114282
 30
0.0
 10
76.01234212109249
 20
28.31743731601133
 30
0.0
  0
SPLINE
  5
BD
330
1F
100
AcDbEntity
  8
0
  6
Continuous
 62
     7
370
    25
100
AcDbSpline
210
0.0
220
0.0
230
1.0
 70
     8
 71
     3
 72
    16
 73
    12
 74
     0
 42
0.00000001
 43
0.00000001
 40
0.0
 40
0.0
 40
0.0
 40
0.0
 40
0.2500000000000003
 40
0.2500000000000003
 40
0.5000000000000006
 40
0.5000000000000006
 40
0.6250000000000006
 40
0.6250000000000006
 40
0.7500000000000004
 40
0.7500000000000004
 40
1.0
 40
1.0
 40
1.0
 40
1.0
 10
80.63114427460953
 20
28.31743731601086
 30
0.0
 10
80.25342922688655
 20
28.10919750556221
 30
0.0
 10
79.87327147826058
 20
27.93902421915277
 30
0.0
 10
79.10617814636917
 20
27.70430195953693
 30
0.0
 10
78.71920078903152
 20
27.64040398446246
 30
0.0
 10
78.13265001400684
 20
27.63938028237596
 30
0.0
 10
77.93557085408378
 20
27.65486682952065
 30
0.0
 10
77.54504171457552
 20
27.71599055097865
 30
0.0
 10
77.35101001090246
 20
27.76151227827367
 30
0.0
 10
76.77220593848143
 20
27.93801164201884
 30
0.0
 10
76.3907172043149
 20
28.10883361837266
 30
0.0
 10
76.01234212109247
 20
28.31743731601119
 30
0.0
  0
LINE
  5
BE
330
1F
100
AcDbEntity
  8
0
  6
Continuous
 62
     7
370
    25
100
AcDbLine
 10
81.6291981235
 20
38.920946487
 30
0.0
 11
82.2365464823
 21
38.920946487
 31
0.0
  0
ELLIPSE
  5
BF
330
1F
100
AcDbEntity
  8
0
  6
Continuous
 62
     7
370
    25
100
AcDbEllipse
 10
81.6291981235
 20
39.001788204
 30
0.0
 11
0.08480161849065837
 21
-7.105427357601002E-15
 31
0.0
210
0.0
220
0.0
230
1.0
 40
0.9533039403
 41
2.798568711308354
 42
4.712388980384782
  0
LINE
  5
C0
330
1F
100
AcDbEntity
  8
0
  6
Continuous
 62
     7
370
    25
100
AcDbLine
 10
81.8530110664
 20
39.8395608329
 30
0.0
 11
81.5493368853
 21
39.028978216
 31
0.0
  0
ELLIPSE
  5
C1
330
1F
100
AcDbEntity
  8
0
  6
Continuous
 62
     7
370
    25
100
AcDbEllipse
 10
81.9328723047
 20
39.8123708211
 30
0.0
 11
0.08480161849065837
 21
0.0
 31
0.0
210
0.0
220
0.0
230
1.0
 40
0.9533039403
 41
0.3430239404206104
 42
2.798568713169156
  0
LINE
  5
C2
330
1F
100
AcDbEntity
  8
0
  6
Continuous
 62
     7
370
    25
100
AcDbLine
 10
82.3164077207
 20
39.0289782157
 30
0.0
 11
82.012733543
 21
39.8395608329
 31
0.0
  0
ELLIPSE
  5
C3
330
1F
100
AcDbEntity
  8
0
  6
Continuous
 62
     7
370
    25
100
AcDbEllipse
 10
82.2365464823
 20
39.001788204
 30
0.0
 11
-0.08480161849064416
 21
-4.973799150320701E-14
 31
0.0
210
0.0
220
0.0
230
1.0
 40
0.9533039403
 41
1.570796326794337
 42
3.484616592149087
  0
SPLINE
  5
C4
330
1F
100
AcDbEntity
  8
0
  6
Continuous
 62
     7
370
    25
100
AcDbSpline
210
0.0
220
0.0
230
1.0
 70
     8
 71
     3
 72
    10
 73
     6
 74
     0
 42
0.00000001
 43
0.00000001
 40
0.0
 40
0.0
 40
0.0
 40
0.0
 40
0.5
 40
0.5
 40
1.0
 40
1.0
 40
1.0
 40
1.0
 10
80.6311442746095
 20
31.52898180359873
 30
0.0
 10
80.67408780551074
 20
31.50530640917435
 30
0.0
 10
80.73753025013485
 20
31.49221529928971
 30
0.0
 10
80.89000908725382
 20
31.49212897800142
 30
0.0
 10
80.97823908936108
 20
31.50529791194526
 30
0.0
 10
81.0641569765017
 20
31.52898180359873
 30
0.0
  0
LINE
  5
C5
330
1F
100
AcDbEntity
  8
0
  6
Continuous
 62
     7
370
    25
100
AcDbLine
 10
80.6311442746
 20
28.317437316
 30
0.0
 11
80.6311442746
 21
31.5289818036
 31
0.0
  0
SPLINE
  5
C6
330
1F
100
AcDbEntity
  8
0
  6
Continuous
 62
     7
370
    25
100
AcDbSpline
210
0.0
220
0.0
230
1.0
 70
     8
 71
     3
 72
    10
 73
     6
 74
     0
 42
0.00000001
 43
0.00000001
 40
0.0
 40
0.0
 40
0.0
 40
0.0
 40
0.5
 40
0.5
 40
1.0
 40
1.0
 40
1.0
 40
1.0
 10
90.30176128353573
 20
31.52898180359871
 30
0.0
 10
90.38764834533829
 20
31.5053064091743
 30
0.0
 10
90.47505555431849
 20
31.49221529928967
 30
0.0
 10
90.62769199691236
 20
31.49212897800145
 30
0.0
 10
90.6918150418581
 20
31.50529791194539
 30
0.0
 10
90.73477398542835
 20
31.52898180359895
 30
0.0
  0
LINE
  5
C7
330
1F
100
AcDbEntity
  8
0
  6
Continuous
 62
     7
370
    25
100
AcDbLine
 10
90.7347739854
 20
31.5289818036
 30
0.0
 11
90.7347739854
 21
28.317437316
 31
0.0
  0
SPLINE
  5
C8
330
1F
100
AcDbEntity
  8
0
  6
Continuous
 62
     7
370
    25
100
AcDbSpline
210
0.0
220
0.0
230
1.0
 70
     8
 71
     3
 72
    10
 73
     6
 74
     0
 42
0.00000001
 43
0.00000001
 40
0.0
 40
0.0
 40
0.0
 40
0.0
 40
0.5
 40
0.5
 40
1.0
 40
1.0
 40
1.0
 40
1.0
 10
96.860900157461
 20
34.87657618993673
 30
0.0
 10
96.83722476303662
 20
34.79068912813427
 30
0.0
 10
96.82413365315209
 20
34.70328191915413
 30
0.0
 10
96.82404733186382
 20
34.5506454765604
 30
0.0
 10
96.83721626580765
 20
34.48652243161482
 30
0.0
 10
96.86090015746113
 20
34.44356348804451
 30
0.0
  0
SPLINE
  5
C9
330
1F
100
AcDbEntity
  8
0
  6
Continuous
 62
     7
370
    25
100
AcDbSpline
210
0.0
220
0.0
230
1.0
 70
     8
 71
     3
 72
    10
 73
     6
 74
     0
 42
0.00000001
 43
0.00000001
 40
0.0
 40
0.0
 40
0.0
 40
0.0
 40
0.5
 40
0.5
 40
1.0
 40
1.0
 40
1.0
 40
1.0
 10
96.86090015746113
 20
44.54719319886296
 30
0.0
 10
96.83722476303674
 20
44.50424966796174
 30
0.0
 10
96.82413365315209
 20
44.44080722333761
 30
0.0
 10
96.82404733186382
 20
44.28832838621864
 30
0.0
 10
96.83721626580765
 20
44.20009838411137
 30
0.0
 10
96.86090015746113
 20
44.11418049697075
 30
0.0
  0
SPLINE
  5
CA
330
1F
100
AcDbEntity
  8
0
  6
Continuous
 62
     7
370
    25
100
AcDbSpline
210
0.0
220
0.0
230
1.0
 70
     8
 71
     3
 72
    16
 73
    12
 74
     0
 42
0.00000001
 43
0.00000001
 40
0.0
 40
0.0
 40
0.0
 40
0.0
 40
0.2500000000000001
 40
0.2500000000000001
 40
0.5000000000000001
 40
0.5000000000000001
 40
0.6250000000000001
 40
0.6250000000000001
 40
0.7500000000000002
 40
0.7500000000000002
 40
1.0
 40
1.0
 40
1.0
 40
1.0
 10
96.86090015746113
 20
49.16599535237997
 30
0.0
 10
97.06891560556689
 20
48.78868726350348
 30
0.0
 10
97.23912191053986
 20
48.40866353312927
 30
0.0
 10
97.47405794210746
 20
47.64104021771858
 30
0.0
 10
97.5381300737711
 20
47.25339340092978
 30
0.0
 10
97.53886302269213
 20
46.66507284904193
 30
0.0
 10
97.5232035426091
 20
46.46799965648628
 30
0.0
 10
97.46192841597217
 20
46.07794267893218
 30
0.0
 10
97.41637214347304
 20
45.88414977834415
 30
0.0
 10
97.23988611071677
 20
45.30606879358072
 30
0.0
 10
97.06922965723106
 20
44.9250709292459
 30
0.0
 10
96.86090015746113
 20
44.54719319886296
 30
0.0
  0
SPLINE
  5
CB
330
1F
100
AcDbEntity
  8
0
  6
Continuous
 62
     7
370
    25
100
AcDbSpline
210
0.0
220
0.0
230
1.0
 70
     8
 71
     3
 72
    10
 73
     6
 74
     0
 42
0.00000001
 43
0.00000001
 40
0.0
 40
0.0
 40
0.0
 40
0.0
 40
0.1601790552921226
 40
0.7197651707803578
 40
1.0
 40
1.0
 40
1.0
 40
1.0
 10
96.82667072434421
 20
49.22827363112972
 30
0.0
 10
96.82590793425098
 20
49.22966585915609
 30
0.0
 10
96.82248033417723
 20
49.23592184088441
 30
0.0
 10
96.83698779897553
 20
49.2094145761565
 30
0.0
 10
96.85491735209337
 20
49.17685872101134
 30
0.0
 10
96.86090015746113
 20
49.16599535237997
 30
0.0
  0
SPLINE
  5
CC
330
1F
100
AcDbEntity
  8
0
  6
Continuous
 62
     7
370
    25
100
AcDbSpline
210
0.0
220
0.0
230
1.0
 70
     8
 71
     3
 72
     9
 73
     5
 74
     0
 42
0.00000001
 43
0.00000001
 40
0.0
 40
0.0
 40
0.0
 40
0.0
 40
0.5797912171256352
 40
1.0
 40
1.0
 40
1.0
 40
1.0
 10
96.86090015746113
 20
29.8247613345275
 30
0.0
 10
96.84854155411466
 20
29.80228768628637
 30
0.0
 10
96.82722594432026
 20
29.76352606386555
 30
0.0
 10
96.82683500181749
 20
29.76279165910734
 30
0.0
 10
96.82667072434421
 20
29.76248305577776
 30
0.0
  0
SPLINE
  5
CD
330
1F
100
AcDbEntity
  8
0
  6
Continuous
 62
     7
370
    25
100
AcDbSpline
210
0.0
220
0.0
230
1.0
 70
     8
 71
     3
 72
    16
 73
    12
 74
     0
 42
0.00000001
 43
0.00000001
 40
0.0
 40
0.0
 40
0.0
 40
0.0
 40
0.2500000000000001
 40
0.2500000000000001
 40
0.5000000000000002
 40
0.5000000000000002
 40
0.6250000000000001
 40
0.6250000000000001
 40
0.7500000000000001
 40
0.7500000000000001
 40
1.0
 40
1.0
 40
1.0
 40
1.0
 10
96.86090015746113
 20
34.44356348804451
 30
0.0
 10
97.06891560556689
 20
34.06625539916801
 30
0.0
 10
97.23912191053988
 20
33.68623166879381
 30
0.0
 10
97.47405794210746
 20
32.91860835338311
 30
0.0
 10
97.53813007377111
 20
32.53096153659432
 30
0.0
 10
97.53886302269213
 20
31.94264098470647
 30
0.0
 10
97.5232035426091
 20
31.74556779215082
 30
0.0
 10
97.46192841597217
 20
31.35551081459672
 30
0.0
 10
97.41637214347303
 20
31.16171791400869
 30
0.0
 10
97.23988611071677
 20
30.58363692924526
 30
0.0
 10
97.06922965723105
 20
30.20263906491044
 30
0.0
 10
96.86090015746113
 20
29.8247613345275
 30
0.0
  0
LINE
  5
CE
330
1F
100
AcDbEntity
  8
0
  6
Continuous
 62
     7
370
    25
100
AcDbLine
 10
97.68295913
 20
47.7453783435
 30
0.0
 11
97.68295913
 21
31.2453783435
 31
0.0
  0
SPLINE
  5
CF
330
1F
100
AcDbEntity
  8
0
  6
Continuous
 62
     7
370
    25
100
AcDbSpline
210
0.0
220
0.0
230
1.0
 70
     8
 71
     3
 72
     8
 73
     4
 74
     0
 42
0.00000001
 43
0.00000001
 40
0.0
 40
0.0
 40
0.0
 40
0.0
 40
1.0
 40
1.0
 40
1.0
 40
1.0
 10
91.80434262151489
 20
33.08525681012849
 30
0.0
 10
91.76322734587363
 20
33.22128720461804
 30
0.0
 10
91.72273836300577
 20
33.35799126925548
 30
0.0
 10
91.68295913001873
 20
33.49537834345373
 30
0.0
  0
LINE
  5
D0
330
1F
100
AcDbEntity
  8
0
  6
Continuous
 62
     7
370
    25
100
AcDbLine
 10
91.68295913
 20
35.4953783435
 30
0.0
 11
91.68295913
 21
33.4953783435
 31
0.0
  0
SPLINE
  5
D1
330
1F
100
AcDbEntity
  8
0
  6
Continuous
 62
     7
370
    25
100
AcDbSpline
210
0.0
220
0.0
230
1.0
 70
     8
 71
     3
 72
    10
 73
     6
 74
     0
 42
0.00000001
 43
0.00000001
 40
0.0
 40
0.0
 40
0.0
 40
0.0
 40
0.5
 40
0.5
 40
1.0
 40
1.0
 40
1.0
 40
1.0
 10
92.36068053527566
 20
34.44356348804451
 30
0.0
 10
92.38435592969999
 20
34.48650701894567
 30
0.0
 10
92.39744703958792
 20
34.54994946356945
 30
0.0
 10
92.39753336087627
 20
34.70242830068855
 30
0.0
 10
92.38436442693244
 20
34.79065830279597
 30
0.0
 10
92.36068053527892
 20
34.87657618993672
 30
0.0
  0
SPLINE
  5
D2
330
1F
100
AcDbEntity
  8
0
  6
Continuous
 62
     7
370
    25
100
AcDbSpline
210
0.0
220
0.0
230
1.0
 70
     8
 71
     3
 72
     8
 73
     4
 74
     0
 42
0.00000001
 43
0.00000001
 40
0.0
 40
0.0
 40
0.0
 40
0.0
 40
1.0
 40
1.0
 40
1.0
 40
1.0
 10
91.80434262151489
 20
33.08525681012849
 30
0.0
 10
91.91997523154396
 20
33.54380774218625
 30
0.0
 10
92.11386463636437
 20
33.9958773379445
 30
0.0
 10
92.36068053527877
 20
34.44356348804425
 30
0.0
  0
SPLINE
  5
D3
330
1F
100
AcDbEntity
  8
0
  6
Continuous
 62
     7
370
    25
100
AcDbSpline
210
0.0
220
0.0
230
1.0
 70
     8
 71
     3
 72
    10
 73
     6
 74
     0
 42
0.00000001
 43
0.00000001
 40
0.0
 40
0.0
 40
0.0
 40
0.0
 40
0.5
 40
0.5
 40
1.0
 40
1.0
 40
1.0
 40
1.0
 10
79.00523772475849
 20
34.87657618993673
 30
0.0
 10
78.9815623303341
 20
34.79068912813428
 30
0.0
 10
78.9684712204495
 20
34.70328191915414
 30
0.0
 10
78.96838489916124
 20
34.5506454765604
 30
0.0
 10
78.98155383310507
 20
34.48652243161482
 30
0.0
 10
79.00523772475853
 20
34.44356348804451
 30
0.0
  0
LINE
  5
D4
330
1F
100
AcDbEntity
  8
0
  6
Continuous
 62
     7
370
    25
100
AcDbLine
 10
79.0052377248
 20
34.443563488
 30
0.0
 11
74.8606805353
 21
34.443563488
 31
0.0
  0
SPLINE
  5
D5
330
1F
100
AcDbEntity
  8
0
  6
Continuous
 62
     7
370
    25
100
AcDbSpline
210
0.0
220
0.0
230
1.0
 70
     8
 71
     3
 72
    10
 73
     6
 74
     0
 42
0.00000001
 43
0.00000001
 40
0.0
 40
0.0
 40
0.0
 40
0.0
 40
0.5
 40
0.5
 40
1.0
 40
1.0
 40
1.0
 40
1.0
 10
74.86068053527892
 20
34.87657618993672
 30
0.0
 10
74.88435443583488
 20
34.79069454743026
 30
0.0
 10
74.89744699301401
 20
34.70328534146483
 30
0.0
 10
74.89753340699629
 20
34.55064285638991
 30
0.0
 10
74.88436301539767
 20
34.48651987130754
 30
0.0
 10
74.86068053527892
 20
34.44356348804451
 30
0.0
  0
SPLINE
  5
D6
330
1F
100
AcDbEntity
  8
0
  6
Continuous
 62
     7
370
    25
100
AcDbSpline
210
0.0
220
0.0
230
1.0
 70
     8
 71
     3
 72
    10
 73
     6
 74
     0
 42
0.00000001
 43
0.00000001
 40
0.0
 40
0.0
 40
0.0
 40
0.0
 40
0.5
 40
0.5
 40
1.0
 40
1.0
 40
1.0
 40
1.0
 10
74.86068053527892
 20
44.54719319886296
 30
0.0
 10
74.88435277519048
 20
44.50425538976373
 30
0.0
 10
74.89744676512575
 20
44.44081479987153
 30
0.0
 10
74.8975336325872
 20
44.28832565436269
 30
0.0
 10
74.88436384282782
 20
44.20009626515937
 30
0.0
 10
74.86068053527892
 20
44.11418049697075
 30
0.0
  0
LINE
  5
D7
330
1F
100
AcDbEntity
  8
0
  6
Continuous
 62
     7
370
    25
100
AcDbLine
 10
74.8606805353
 20
44.5471931989
 30
0.0
 11
79.0052377248
 21
44.5471931989
 31
0.0
  0
SPLINE
  5
D8
330
1F
100
AcDbEntity
  8
0
  6
Continuous
 62
     7
370
    25
100
AcDbSpline
210
0.0
220
0.0
230
1.0
 70
     8
 71
     3
 72
    10
 73
     6
 74
     0
 42
0.00000001
 43
0.00000001
 40
0.0
 40
0.0
 40
0.0
 40
0.0
 40
0.5
 40
0.5
 40
1.0
 40
1.0
 40
1.0
 40
1.0
 10
92.36068053527893
 20
44.11418049697075
 30
0.0
 10
92.38435592970332
 20
44.2000675587732
 30
0.0
 10
92.39744703958795
 20
44.2874747677533
 30
0.0
 10
92.39753336087624
 20
44.44011121034703
 30
0.0
 10
92.38436442693241
 20
44.50423425529262
 30
0.0
 10
92.36068053527893
 20
44.54719319886294
 30
0.0
  0
LINE
  5
D9
330
1F
100
AcDbEntity
  8
0
  6
Continuous
 62
     7
370
    25
100
AcDbLine
 10
92.3606805353
 20
44.5471931989
 30
0.0
 11
96.8609001575
 21
44.5471931989
 31
0.0
  0
SPLINE
  5
DA
330
1F
100
AcDbEntity
  8
0
  6
Continuous
 62
     7
370
    25
100
AcDbSpline
210
0.0
220
0.0
230
1.0
 70
     8
 71
     3
 72
     8
 73
     4
 74
     0
 42
0.00000001
 43
0.00000001
 40
0.0
 40
0.0
 40
0.0
 40
0.0
 40
1.0
 40
1.0
 40
1.0
 40
1.0
 10
78.3935829454021
 20
32.206002158825
 30
0.0
 10
78.70260008804387
 20
32.30700726665513
 30
0.0
 10
79.01791784436183
 20
32.40366405572106
 30
0.0
 10
79.34039717120486
 20
32.49537834345374
 30
0.0
  0
SPLINE
  5
DB
330
1F
100
AcDbEntity
  8
0
  6
Continuous
 62
     7
370
    25
100
AcDbSpline
210
0.0
220
0.0
230
1.0
 70
     8
 71
     3
 72
    12
 73
     8
 74
     0
 42
0.00000001
 43
0.00000001
 40
0.0
 40
0.0
 40
0.0
 40
0.0
 40
0.2500000000000002
 40
0.2500000000000002
 40
0.5000000000000004
 40
0.5000000000000004
 40
1.0
 40
1.0
 40
1.0
 40
1.0
 10
78.39358294539686
 20
32.20600215881887
 30
0.0
 10
78.58360912070009
 20
32.20229367296244
 30
0.0
 10
78.7738241833859
 20
32.18371117012477
 30
0.0
 10
79.1507609425183
 20
32.11884413315862
 30
0.0
 10
79.3380837337778
 20
32.07257857990835
 30
0.0
 10
79.89699369009189
 20
31.89685404960139
 30
0.0
 10
80.26552934820222
 20
31.73055064082464
 30
0.0
 10
80.6311442746095
 20
31.52898180359873
 30
0.0
  0
LINE
  5
DC
330
1F
100
AcDbEntity
  8
0
  6
Continuous
 62
     7
370
    25
100
AcDbLine
 10
79.68295913
 20
35.4953783435
 30
0.0
 11
79.68295913
 21
33.4953783435
 31
0.0
  0
SPLINE
  5
DD
330
1F
100
AcDbEntity
  8
0
  6
Continuous
 62
     7
370
    25
100
AcDbSpline
210
0.0
220
0.0
230
1.0
 70
     8
 71
     3
 72
     8
 73
     4
 74
     0
 42
0.00000001
 43
0.00000001
 40
0.0
 40
0.0
 40
0.0
 40
0.0
 40
1.0
 40
1.0
 40
1.0
 40
1.0
 10
79.68295913001873
 20
33.49537834345373
 30
0.0
 10
79.64318047182856
 20
33.35799325445362
 30
0.0
 10
79.60269150900032
 20
33.22128917264186
 30
0.0
 10
79.56157563852257
 20
33.08525681012848
 30
0.0
  0
SPLINE
  5
DE
330
1F
100
AcDbEntity
  8
0
  6
Continuous
 62
     7
370
    25
100
AcDbSpline
210
0.0
220
0.0
230
1.0
 70
     8
 71
     3
 72
     8
 73
     4
 74
     0
 42
0.00000001
 43
0.00000001
 40
0.0
 40
0.0
 40
0.0
 40
0.0
 40
1.0
 40
1.0
 40
1.0
 40
1.0
 10
79.00523772475853
 20
34.44356348804451
 30
0.0
 10
79.25241150564247
 20
33.99522819499318
 30
0.0
 10
79.44613317394645
 20
33.54305370424959
 30
0.0
 10
79.56157563852257
 20
33.08525681012848
 30
0.0
  0
SPLINE
  5
DF
330
1F
100
AcDbEntity
  8
0
  6
Continuous
 62
     7
370
    25
100
AcDbSpline
210
0.0
220
0.0
230
1.0
 70
     8
 71
     3
 72
     8
 73
     4
 74
     0
 42
0.00000001
 43
0.00000001
 40
0.0
 40
0.0
 40
0.0
 40
0.0
 40
1.0
 40
1.0
 40
1.0
 40
1.0
 10
92.02552108883259
 20
32.49537834345374
 30
0.0
 10
92.34800041568188
 20
32.40366405571928
 30
0.0
 10
92.66331817200583
 20
32.30700726665138
 30
0.0
 10
92.97233531465335
 20
32.20600215881912
 30
0.0
  0
SPLINE
  5
E0
330
1F
100
AcDbEntity
  8
0
  6
Continuous
 62
     7
370
    25
100
AcDbSpline
210
0.0
220
0.0
230
1.0
 70
     8
 71
     3
 72
    10
 73
     6
 74
     0
 42
0.00000001
 43
0.00000001
 40
0.0
 40
0.0
 40
0.0
 40
0.0
 40
0.5
 40
0.5
 40
1.0
 40
1.0
 40
1.0
 40
1.0
 10
90.73477398542823
 20
31.52898180359889
 30
0.0
 10
91.10129193226877
 20
31.73104848914981
 30
0.0
 10
91.47037215773459
 20
31.89744126142045
 30
0.0
 10
92.21562450596198
 20
32.13148823529051
 30
0.0
 10
92.59183727790976
 20
32.19857648924933
 30
0.0
 10
92.97233531465335
 20
32.20600215881912
 30
0.0
  0
LINE
  5
E1
330
1F
100
AcDbEntity
  8
0
  6
Continuous
 62
     7
370
    25
100
AcDbLine
 10
91.68295913
 20
46.8565942756
 30
0.0
 11
91.68295913
 21
43.4953783435
 31
0.0
  0
SPLINE
  5
E2
330
1F
100
AcDbEntity
  8
0
  6
Continuous
 62
     7
370
    25
100
AcDbSpline
210
0.0
220
0.0
230
1.0
 70
     8
 71
     3
 72
    10
 73
     6
 74
     0
 42
0.00000001
 43
0.00000001
 40
0.0
 40
0.0
 40
0.0
 40
0.0
 40
0.5
 40
0.5
 40
1.0
 40
1.0
 40
1.0
 40
1.0
 10
92.36068053527893
 20
44.54719319886294
 30
0.0
 10
92.1522597824615
 20
44.9252364482651
 30
0.0
 10
91.98179594718407
 20
45.30600595306095
 30
0.0
 10
91.74681351224568
 20
46.07515447861849
 30
0.0
 10
91.68295913001873
 20
46.46358120679374
 30
0.0
 10
91.68295913001873
 20
46.85659427562146
 30
0.0
  0
LINE
  5
E3
330
1F
100
AcDbEntity
  8
0
  6
Continuous
 62
     7
370
    25
100
AcDbLine
 10
96.8609001575
 20
34.443563488
 30
0.0
 11
92.3606805353
 21
34.443563488
 31
0.0
  0
SPLINE
  5
E4
330
1F
100
AcDbEntity
  8
0
  6
Continuous
 62
     7
370
    25
100
AcDbSpline
210
0.0
220
0.0
230
1.0
 70
     8
 71
     3
 72
    10
 73
     6
 74
     0
 42
0.00000001
 43
0.00000001
 40
0.0
 40
0.0
 40
0.0
 40
0.0
 40
0.5
 40
0.5
 40
1.0
 40
1.0
 40
1.0
 40
1.0
 10
74.86068053527845
 20
44.54719319886294
 30
0.0
 10
74.65187061061219
 20
44.92594234625422
 30
0.0
 10
74.48133647086495
 20
45.30714762266552
 30
0.0
 10
74.24655066584603
 20
46.07637824385331
 30
0.0
 10
74.18295913001873
 20
46.46444594865163
 30
0.0
 10
74.18295913001873
 20
46.85659427562146
 30
0.0
  0
LINE
  5
E5
330
1F
100
AcDbEntity
  8
0
  6
Continuous
 62
     7
370
    25
100
AcDbLine
 10
74.18295913
 20
39.4953783435
 30
0.0
 11
74.18295913
 21
46.8565942756
 31
0.0
  0
SPLINE
  5
E6
330
1F
100
AcDbEntity
  8
0
  6
Continuous
 62
     7
370
    25
100
AcDbSpline
210
0.0
220
0.0
230
1.0
 70
     8
 71
     3
 72
    12
 73
     8
 74
     0
 42
0.00000001
 43
0.00000001
 40
0.0
 40
0.0
 40
0.0
 40
0.0
 40
0.2499999999999999
 40
0.2499999999999999
 40
0.4999999999999998
 40
0.4999999999999998
 40
1.0
 40
1.0
 40
1.0
 40
1.0
 10
74.18295913001874
 20
32.134162411286
 30
0.0
 10
74.18295913001874
 20
32.32916589129179
 30
0.0
 10
74.19870546004069
 20
32.52570055031621
 30
0.0
 10
74.26015048462611
 20
32.91512023792176
 30
0.0
 10
74.30573924387984
 20
33.10860493098202
 30
0.0
 10
74.48219024613645
 20
33.68578852973762
 30
0.0
 10
74.65264794809994
 20
34.06622431152058
 30
0.0
 10
74.86068053527877
 20
34.44356348804452
 30
0.0
  0
LINE
  5
E7
330
1F
100
AcDbEntity
  8
0
  6
Continuous
 62
     7
370
    25
100
AcDbLine
 10
74.18295913
 20
39.4953783435
 30
0.0
 11
74.18295913
 21
32.1341624113
 31
0.0
  0
SPLINE
  5
E8
330
1F
100
AcDbEntity
  8
0
  6
Continuous
 62
     7
370
    25
100
AcDbSpline
210
0.0
220
0.0
230
1.0
 70
     8
 71
     3
 72
    12
 73
     8
 74
     0
 42
0.00000001
 43
0.00000001
 40
0.0
 40
0.0
 40
0.0
 40
0.0
 40
0.2499999999999999
 40
0.2499999999999999
 40
0.4999999999999998
 40
0.4999999999999998
 40
1.0
 40
1.0
 40
1.0
 40
1.0
 10
91.68295913001873
 20
46.85659427562146
 30
0.0
 10
91.68295913001873
 20
47.05233653850098
 30
0.0
 10
91.69880206610769
 20
47.24900314769154
 30
0.0
 10
91.76030492634536
 20
47.63827137501983
 30
0.0
 10
91.80590856738904
 20
47.83167540797275
 30
0.0
 10
91.98235958487825
 20
48.4086044592295
 30
0.0
 10
92.15275695213012
 20
48.78885389243251
 30
0.0
 10
92.36068053527892
 20
49.16599535237997
 30
0.0
  0
LINE
  5
E9
330
1F
100
AcDbEntity
  8
0
  6
Continuous
 62
     7
370
    25
100
AcDbLine
 10
96.8609001575
 20
49.1659953524
 30
0.0
 11
92.3606805353
 21
49.1659953524
 31
0.0
  0
ELLIPSE
  5
EA
330
1F
100
AcDbEntity
  8
0
  6
Continuous
 62
     7
370
    25
100
AcDbEllipse
 10
85.68295913
 20
29.6804237672
 30
0.0
 11
8.500000000000014
 21
0.0
 31
0.0
210
0.0
220
0.0
230
1.0
 40
0.5773502692
 41
2.374833212873083
 42
2.530692279913057
  0
LINE
  5
EB
330
1F
100
AcDbEntity
  8
0
  6
Continuous
 62
     7
370
    25
100
AcDbLine
 10
78.3935829454
 20
32.2060021588
 30
0.0
 11
76.0123421211
 21
29.8247613345
 31
0.0
  0
LINE
  5
EC
330
1F
100
AcDbEntity
  8
0
  6
Continuous
 62
     7
370
    25
100
AcDbLine
 10
74.8606805353
 20
29.8247613345
 30
0.0
 11
76.0123421211
 21
29.8247613345
 31
0.0
  0
SPLINE
  5
ED
330
1F
100
AcDbEntity
  8
0
  6
Continuous
 62
     7
370
    25
100
AcDbSpline
210
0.0
220
0.0
230
1.0
 70
     8
 71
     3
 72
    10
 73
     6
 74
     0
 42
0.00000001
 43
0.00000001
 40
0.0
 40
0.0
 40
0.0
 40
0.0
 40
0.5
 40
0.5
 40
1.0
 40
1.0
 40
1.0
 40
1.0
 10
74.86068053527845
 20
29.82476133452747
 30
0.0
 10
74.65187061061219
 20
30.20351048191876
 30
0.0
 10
74.48133647086495
 20
30.58471575833006
 30
0.0
 10
74.24655066584603
 20
31.35394637951784
 30
0.0
 10
74.18295913001874
 20
31.74201408431616
 30
0.0
 10
74.18295913001874
 20
32.134162411286
 30
0.0
  0
ELLIPSE
  5
EE
330
1F
100
AcDbEntity
  8
0
  6
Continuous
 62
     7
370
    25
100
AcDbEllipse
 10
85.68295913
 20
29.6804237672
 30
0.0
 11
8.500000000000014
 21
0.0
 31
0.0
210
0.0
220
0.0
230
1.0
 40
0.5773502692
 41
0.610900373676733
 42
0.7667594407167078
  0
LINE
  5
EF
330
1F
100
AcDbEntity
  8
0
  6
Continuous
 62
     7
370
    25
100
AcDbLine
 10
95.3535761389
 20
29.8247613345
 30
0.0
 11
96.8609001575
 21
29.8247613345
 31
0.0
  0
LINE
  5
F0
330
1F
100
AcDbEntity
  8
0
  6
Continuous
 62
     7
370
    25
100
AcDbLine
 10
95.3535761389
 20
29.8247613345
 30
0.0
 11
92.9723353147
 21
32.2060021588
 31
0.0
  0
LINE
  5
F1
330
1F
100
AcDbEntity
  8
0
  6
Continuous
 62
     7
370
    25
100
AcDbLine
 10
93.43295913
 20
15.9953783435
 30
0.0
 11
77.93295913
 21
15.9953783435
 31
0.0
  0
LINE
  5
F2
330
1F
100
AcDbEntity
  8
0
  6
Continuous
 62
     7
370
    25
100
AcDbLine
 10
77.43295913
 20
16.4953783435
 30
0.0
 11
93.93295913
 21
16.4953783435
 31
0.0
  0
LINE
  5
F3
330
1F
100
AcDbEntity
  8
0
  6
Continuous
 62
     7
370
    25
100
AcDbLine
 10
95.3535761389
 20
28.317437316
 30
0.0
 11
95.3535761389
 21
29.8247613345
 31
0.0
  0
SPLINE
  5
F4
330
1F
100
AcDbEntity
  8
0
  6
Continuous
 62
     7
370
    25
100
AcDbSpline
210
0.0
220
0.0
230
1.0
 70
     8
 71
     3
 72
    12
 73
     8
 74
     0
 42
0.00000001
 43
0.00000001
 40
0.0
 40
0.0
 40
0.0
 40
0.0
 40
0.2499999999999999
 40
0.2499999999999999
 40
0.5
 40
0.5
 40
1.0
 40
1.0
 40
1.0
 40
1.0
 10
74.18295913001873
 20
46.85659427562146
 30
0.0
 10
74.18295913001874
 20
47.05159775562726
 30
0.0
 10
74.19870546004069
 20
47.24813241465167
 30
0.0
 10
74.26015048462611
 20
47.63755210225722
 30
0.0
 10
74.30573924387984
 20
47.83103679531748
 30
0.0
 10
74.48219024613645
 20
48.40822039407308
 30
0.0
 10
74.65264794809994
 20
48.78865617585605
 30
0.0
 10
74.86068053527877
 20
49.16599535237998
 30
0.0
  0
LINE
  5
F5
330
1F
100
AcDbEntity
  8
0
  6
Continuous
 62
     7
370
    25
100
AcDbLine
 10
79.0052377248
 20
49.1659953524
 30
0.0
 11
74.8606805353
 21
49.1659953524
 31
0.0
  0
SPLINE
  5
F6
330
1F
100
AcDbEntity
  8
0
  6
Continuous
 62
     7
370
    25
100
AcDbSpline
210
0.0
220
0.0
230
1.0
 70
     8
 71
     3
 72
    10
 73
     6
 74
     0
 42
0.00000001
 43
0.00000001
 40
0.0
 40
0.0
 40
0.0
 40
0.0
 40
0.5
 40
0.5
 40
1.0
 40
1.0
 40
1.0
 40
1.0
 10
79.00523772475853
 20
49.16599535237999
 30
0.0
 10
79.21365847757595
 20
48.78795210297783
 30
0.0
 10
79.38412231285338
 20
48.40718259818198
 30
0.0
 10
79.61910474779177
 20
47.63803407262444
 30
0.0
 10
79.68295913001873
 20
47.2496073444492
 30
0.0
 10
79.68295913001873
 20
46.85659427562146
 30
0.0
  0
LINE
  5
F7
330
1F
100
AcDbEntity
  8
0
  6
Continuous
 62
     7
370
    25
100
AcDbLine
 10
76.0123421211
 20
29.8247613345
 30
0.0
 11
76.0123421211
 21
28.317437316
 31
0.0
  0
LINE
  5
F8
330
1F
100
AcDbEntity
  8
0
  6
Continuous
 62
     7
370
    25
100
AcDbLine
 10
91.68295913
 20
33.4953783435
 30
0.0
 11
89.68295913
 21
35.4953783435
 31
0.0
  0
LINE
  5
F9
330
1F
100
AcDbEntity
  8
0
  6
Continuous
 62
     7
370
    25
100
AcDbLine
 10
89.68295913
 20
32.4953783435
 30
0.0
 11
92.6455802027
 21
32.4953783435
 31
0.0
  0
LINE
  5
FA
330
1F
100
AcDbEntity
  8
0
  6
Continuous
 62
     7
370
    25
100
AcDbLine
 10
81.68295913
 20
35.4953783435
 30
0.0
 11
79.68295913
 21
33.4953783435
 31
0.0
  0
LINE
  5
FB
330
1F
100
AcDbEntity
  8
0
  6
Continuous
 62
     7
370
    25
100
AcDbLine
 10
78.7203380574
 20
32.4953783435
 30
0.0
 11
81.68295913
 21
32.4953783435
 31
0.0
  0
LINE
  5
FC
330
1F
100
AcDbEntity
  8
0
  6
Continuous
 62
     7
370
    25
100
AcDbLine
 10
79.68295913
 20
47.4298328217
 30
0.0
 11
79.68295913
 21
46.8565942756
 31
0.0
  0
SPLINE
  5
FD
330
1F
100
AcDbEntity
  8
0
  6
Continuous
 62
     7
370
    25
100
AcDbSpline
210
0.0
220
0.0
230
1.0
 70
     8
 71
     3
 72
    32
 73
    28
 74
     0
 42
0.00000001
 43
0.00000001
 40
0.0
 40
0.0
 40
0.0
 40
0.0
 40
0.0625000000000001
 40
0.0625000000000001
 40
0.1250000000000001
 40
0.1250000000000001
 40
0.1875000000000002
 40
0.1875000000000002
 40
0.2500000000000003
 40
0.2500000000000003
 40
0.3750000000000003
 40
0.3750000000000003
 40
0.4375000000000003
 40
0.4375000000000003
 40
0.5000000000000002
 40
0.5000000000000002
 40
0.5625000000000002
 40
0.5625000000000002
 40
0.6250000000000001
 40
0.6250000000000001
 40
0.7500000000000001
 40
0.7500000000000001
 40
0.8750000000000002
 40
0.8750000000000002
 40
0.9375000000000001
 40
0.9375000000000001
 40
1.0
 40
1.0
 40
1.0
 40
1.0
 10
91.68295913001026
 20
47.42983282167439
 30
0.0
 10
91.52610279409336
 20
47.33487584377869
 30
0.0
 10
91.35310435993772
 20
47.23212266915351
 30
0.0
 10
90.97639977331193
 20
47.01541146750525
 30
0.0
 10
90.77354699285524
 20
46.90199275701523
 30
0.0
 10
90.34756573005264
 20
46.67390262031706
 30
0.0
 10
90.12338776976462
 20
46.55859573786521
 30
0.0
 10
89.65203667618823
 20
46.33027263549043
 30
0.0
 10
89.40335116082314
 20
46.21662261935668
 30
0.0
 10
88.6327786761315
 20
45.89355858812264
 30
0.0
 10
88.08714126604933
 20
45.70066006395913
 30
0.0
 10
87.20436151755298
 20
45.48906613868543
 30
0.0
 10
86.90572241768012
 20
45.43342375256769
 30
0.0
 10
86.29922081696436
 20
45.35775568320385
 30
0.0
 10
85.98907357829844
 20
45.33778243742753
 30
0.0
 10
85.36898808961469
 20
45.33811620368078
 30
0.0
 10
85.06241705214664
 20
45.35811516900357
 30
0.0
 10
84.45576230483844
 20
45.43415395520004
 30
0.0
 10
84.15338924021314
 20
45.49080705533159
 30
0.0
 10
83.27675293746019
 20
45.70158560537743
 30
0.0
 10
82.72869880548328
 20
45.89513143594918
 30
0.0
 10
81.69820153824
 20
46.32775072922498
 30
0.0
 10
81.23064150296052
 20
46.5602273739154
 30
0.0
 10
80.5924278993326
 20
46.90196537483445
 30
0.0
 10
80.38921816114276
 20
47.01558289026283
 30
0.0
 10
80.01288123474832
 20
47.23208528261907
 30
0.0
 10
79.83990262625683
 20
47.33482307906346
 30
0.0
 10
79.68295913001874
 20
47.42983282167954
 30
0.0
  0
LINE
  5
FE
330
1F
100
AcDbEntity
  8
0
  6
Continuous
 62
     7
370
    25
100
AcDbLine
 10
91.68295913
 20
47.4298328217
 30
0.0
 11
91.68295913
 21
46.8565942756
 31
0.0
  0
SPLINE
  5
FF
330
1F
100
AcDbEntity
  8
0
  6
Continuous
 62
     7
370
    25
100
AcDbSpline
210
0.0
220
0.0
230
1.0
 70
     8
 71
     3
 72
    12
 73
     8
 74
     0
 42
0.00000001
 43
0.00000001
 40
0.0
 40
0.0
 40
0.0
 40
0.0
 40
0.082167960171283
 40
0.309689287668278
 40
0.5425023834154352
 40
0.7710669320731921
 40
1.0
 40
1.0
 40
1.0
 40
1.0
 10
91.85639838099871
 20
48.28858801632123
 30
0.0
 10
91.85753035095033
 20
48.29235762472634
 30
0.0
 10
91.8617967215314
 20
48.30656519832716
 30
0.0
 10
91.82934141798394
 20
48.19920891791084
 30
0.0
 10
91.77337686811019
 20
47.99327083212656
 30
0.0
 10
91.70516746028748
 20
47.70997544174048
 30
0.0
 10
91.69036588105227
 20
47.52326382776866
 30
0.0
 10
91.68295913001873
 20
47.42983282167241
 30
0.0
  0
SPLINE
  5
100
330
1F
100
AcDbEntity
  8
0
  6
Continuous
 62
     7
370
    25
100
AcDbSpline
210
0.0
220
0.0
230
1.0
 70
     8
 71
     3
 72
    11
 73
     7
 74
     0
 42
0.00000001
 43
0.00000001
 40
0.0
 40
0.0
 40
0.0
 40
0.0
 40
0.3176367573116335
 40
0.635960649068936
 40
0.865690465974775
 40
1.0
 40
1.0
 40
1.0
 40
1.0
 10
79.68295913001873
 20
47.42983282167945
 30
0.0
 10
79.66932037216841
 20
47.5610974558141
 30
0.0
 10
79.64201335213586
 20
47.82391068508457
 30
0.0
 10
79.55400871239138
 20
48.135555162915
 30
0.0
 10
79.50944841547243
 20
48.28930139493467
 30
0.0
 10
79.50979712618378
 20
48.28778805354219
 30
0.0
 10
79.50992578033349
 20
48.28722971781084
 30
0.0
  0
LINE
  5
101
330
1F
100
AcDbEntity
  8
0
  6
Continuous
 62
     7
370
    25
100
AcDbLine
 10
79.78295913
 20
48.9953783435
 30
0.0
 11
79.7836092696
 21
48.9948261902
 31
0.0
  0
SPLINE
  5
102
330
1F
100
AcDbEntity
  8
0
  6
Continuous
 62
     7
370
    25
100
AcDbSpline
210
0.0
220
0.0
230
1.0
 70
     8
 71
     3
 72
    10
 73
     6
 74
     0
 42
0.00000001
 43
0.00000001
 40
0.0
 40
0.0
 40
0.0
 40
0.0
 40
0.1601790552921523
 40
0.7197651707804853
 40
1.0
 40
1.0
 40
1.0
 40
1.0
 10
78.97100829164162
 20
49.22827363112972
 30
0.0
 10
78.97024550154838
 20
49.22966585915609
 30
0.0
 10
78.96681790147464
 20
49.23592184088442
 30
0.0
 10
78.98132536627293
 20
49.2094145761565
 30
0.0
 10
78.99925491939076
 20
49.17685872101135
 30
0.0
 10
79.00523772475853
 20
49.16599535237999
 30
0.0
  0
SPLINE
  5
103
330
1F
100
AcDbEntity
  8
0
  6
Continuous
 62
     7
370
    25
100
AcDbSpline
210
0.0
220
0.0
230
1.0
 70
     8
 71
     3
 72
    10
 73
     6
 74
     0
 42
0.00000001
 43
0.00000001
 40
0.0
 40
0.0
 40
0.0
 40
0.0
 40
0.1593935212994522
 40
0.7189934545690309
 40
1.0
 40
1.0
 40
1.0
 40
1.0
 10
74.89491752485637
 20
49.22828743184643
 30
0.0
 10
74.89567905185382
 20
49.22967735067304
 30
0.0
 10
74.89911415336975
 20
49.23594700661999
 30
0.0
 10
74.88461953090325
 20
49.20946306479618
 30
0.0
 10
74.86667816041054
 20
49.17688566074932
 30
0.0
 10
74.86068053527892
 20
49.16599535237997
 30
0.0
  0
LINE
  5
104
330
1F
100
AcDbEntity
  8
0
  6
Continuous
 62
     7
370
    25
100
AcDbLine
 10
74.18295913
 20
47.9953783435
 30
0.0
 11
74.18295913
 21
46.8565942756
 31
0.0
  0
SPLINE
  5
105
330
1F
100
AcDbEntity
  8
0
  6
Continuous
 62
     7
370
    25
100
AcDbSpline
210
0.0
220
0.0
230
1.0
 70
     8
 71
     3
 72
     9
 73
     5
 74
     0
 42
0.00000001
 43
0.00000001
 40
0.0
 40
0.0
 40
0.0
 40
0.0
 40
0.5797912171256431
 40
1.0
 40
1.0
 40
1.0
 40
1.0
 10
92.36068053527892
 20
49.16599535237997
 30
0.0
 10
92.37303913862539
 20
49.1884690006211
 30
0.0
 10
92.3943547484198
 20
49.22723062304193
 30
0.0
 10
92.39474569092258
 20
49.22796502780014
 30
0.0
 10
92.39490996839584
 20
49.22827363112972
 30
0.0
  0
SPLINE
  5
106
330
1F
100
AcDbEntity
  8
0
  6
Continuous
 62
     7
370
    25
100
AcDbSpline
210
0.0
220
0.0
230
1.0
 70
     8
 71
     3
 72
     9
 73
     5
 74
     0
 42
0.00000001
 43
0.00000001
 40
0.0
 40
0.0
 40
0.0
 40
0.0
 40
0.5789479223839474
 40
0.9999999999999999
 40
0.9999999999999999
 40
0.9999999999999999
 40
0.9999999999999999
 10
74.86068053527892
 20
29.8247613345275
 30
0.0
 10
74.87302142559318
 20
29.80231996733513
 30
0.0
 10
74.89433748846709
 20
29.76355764291057
 30
0.0
 10
74.89474566238164
 20
29.76279174005122
 30
0.0
 10
74.89491752485637
 20
29.76246925506103
 30
0.0
  0
LINE
  5
107
330
1F
100
AcDbEntity
  8
0
  6
Continuous
 62
     7
370
    25
100
AcDbLine
 10
74.18295913
 20
32.1341624113
 30
0.0
 11
74.18295913
 21
30.9953783435
 31
0.0
  0
LINE
  5
108
330
1F
100
AcDbEntity
  8
0
  6
Continuous
 62
     7
370
    25
100
AcDbLine
 10
95.4205634371
 20
29.7577740364
 30
0.0
 11
95.3535761389
 21
29.8247613345
 31
0.0
  0
LINE
  5
109
330
1F
100
AcDbEntity
  8
0
  6
Continuous
 62
     7
370
    25
100
AcDbLine
 10
76.0123421211
 20
29.8247613345
 30
0.0
 11
75.945354823
 21
29.7577740364
 31
0.0
  0
SPLINE
  5
10A
330
1F
100
AcDbEntity
  8
0
  6
Continuous
 62
     7
370
    25
100
AcDbSpline
210
0.0
220
0.0
230
1.0
 70
     8
 71
     3
 72
    15
 73
    11
 74
     0
 42
0.00000001
 43
0.00000001
 40
0.0
 40
0.0
 40
0.0
 40
0.0
 40
0.0090459071881971
 40
0.1032433785236875
 40
0.1542564497735248
 40
0.313316902671511
 40
0.5243720399414434
 40
0.6678060008509189
 40
0.9918332554187028
 40
1.0
 40
1.0
 40
1.0
 40
1.0
 10
90.92204446267684
 20
66.59537834345373
 30
0.0
 10
90.92203877071017
 20
66.59705944203816
 30
0.0
 10
90.92197380675938
 20
66.61624627359367
 30
0.0
 10
90.91997812032349
 20
66.64494055311367
 30
0.0
 10
90.91216112410703
 20
66.69561659308557
 30
0.0
 10
90.89499130035207
 20
66.75349289266249
 30
0.0
 10
90.86840740378453
 20
66.79835840739717
 30
0.0
 10
90.8305781052959
 20
66.83572079065169
 30
0.0
 10
90.80229732528568
 20
66.84526680292127
 30
0.0
 10
90.78246617775439
 20
66.84537566710796
 30
0.0
 10
90.78197864361151
 20
66.84537834345373
 30
0.0
  0
LINE
  5
10B
330
1F
100
AcDbEntity
  8
0
  6
Continuous
 62
     7
370
    25
100
AcDbLine
 10
90.9220444627
 20
66.5953783435
 30
0.0
 11
80.4438737974
 21
66.5953783435
 31
0.0
  0
SPLINE
  5
10C
330
1F
100
AcDbEntity
  8
0
  6
Continuous
 62
     7
370
    25
100
AcDbSpline
210
0.0
220
0.0
230
1.0
 70
     8
 71
     3
 72
    15
 73
    11
 74
     0
 42
0.00000001
 43
0.00000001
 40
0.0
 40
0.0
 40
0.0
 40
0.0
 40
0.0081667445812973
 40
0.3321939991490813
 40
0.4756279600585592
 40
0.6866830973284899
 40
0.845743550226481
 40
0.8967566214763184
 40
0.9909540928118029
 40
1.0
 40
1.0
 40
1.0
 40
1.0
 10
80.58393961642595
 20
66.84537834345373
 30
0.0
 10
80.58345208228307
 20
66.84537566710796
 30
0.0
 10
80.56362093475178
 20
66.84526680292127
 30
0.0
 10
80.53534015474156
 20
66.83572079065169
 30
0.0
 10
80.49751085625293
 20
66.79835840739717
 30
0.0
 10
80.47092695968539
 20
66.75349289266249
 30
0.0
 10
80.45375713593042
 20
66.69561659308557
 30
0.0
 10
80.44594013971395
 20
66.64494055311367
 30
0.0
 10
80.44394445327808
 20
66.61624627359366
 30
0.0
 10
80.44387948932729
 20
66.59705944203816
 30
0.0
 10
80.44387379736062
 20
66.59537834345373
 30
0.0
  0
LINE
  5
10D
330
1F
100
AcDbEntity
  8
0
  6
Continuous
 62
     7
370
    25
100
AcDbLine
 10
80.5839396164
 20
66.8453783435
 30
0.0
 11
90.7819786436
 21
66.8453783435
 31
0.0
  0
LINE
  5
10E
330
1F
100
AcDbEntity
  8
0
  6
Continuous
 62
     7
370
    25
100
AcDbLine
 10
90.9220444627
 20
65.9953783435
 30
0.0
 11
90.9220444627
 21
66.5953783435
 31
0.0
  0
LINE
  5
10F
330
1F
100
AcDbEntity
  8
0
  6
Continuous
 62
     7
370
    25
100
AcDbLine
 10
80.4438737974
 20
66.5953783435
 30
0.0
 11
80.4438737974
 21
65.9953783435
 31
0.0
  0
LINE
  5
110
330
1F
100
AcDbEntity
  8
0
  6
Continuous
 62
     7
370
    25
100
AcDbLine
 10
80.4438737974
 20
65.9953783435
 30
0.0
 11
90.9220444627
 21
65.9953783435
 31
0.0
  0
SPLINE
  5
111
330
1F
100
AcDbEntity
  8
0
  6
Continuous
 62
     7
370
    25
100
AcDbSpline
210
0.0
220
0.0
230
1.0
 70
     8
 71
     3
 72
    15
 73
    11
 74
     0
 42
0.00000001
 43
0.00000001
 40
0.0
 40
0.0
 40
0.0
 40
0.0
 40
0.0089557228015919
 40
0.0999003359608153
 40
0.1531632460581696
 40
0.3125636920784855
 40
0.5249666935695051
 40
0.6689893599351772
 40
0.991915253381045
 40
1.0
 40
1.0
 40
1.0
 40
1.0
 10
80.20573355496707
 20
66.59537834345373
 30
0.0
 10
80.20574931054567
 20
66.59705946902663
 30
0.0
 10
80.20592506270224
 20
66.61581228365108
 30
0.0
 10
80.21135407872177
 20
66.64457451275857
 30
0.0
 10
80.23288956242908
 20
66.69546158622688
 30
0.0
 10
80.2805949906939
 20
66.75359723635954
 30
0.0
 10
80.35298593568582
 20
66.79830510954295
 30
0.0
 10
80.45490504770349
 20
66.8355869330047
 30
0.0
 10
80.53026013915851
 20
66.8452660878423
 30
0.0
 10
80.58265978488183
 20
66.84537566704405
 30
0.0
 10
80.58393961642595
 20
66.84537834345373
 30
0.0
  0
LINE
  5
112
330
1F
100
AcDbEntity
  8
0
  6
Continuous
 62
     7
370
    25
100
AcDbLine
 10
80.205733555
 20
66.5953783435
 30
0.0
 11
80.4438737974
 21
66.5953783435
 31
0.0
  0
SPLINE
  5
113
330
1F
100
AcDbEntity
  8
0
  6
Continuous
 62
     7
370
    25
100
AcDbSpline
210
0.0
220
0.0
230
1.0
 70
     8
 71
     3
 72
    15
 73
    11
 74
     0
 42
0.00000001
 43
0.00000001
 40
0.0
 40
0.0
 40
0.0
 40
0.0
 40
0.0080847466189581
 40
0.3310106400648237
 40
0.4750333064304937
 40
0.6874363079215094
 40
0.8468367539418249
 40
0.9000996640391792
 40
0.9910442771984082
 40
1.0
 40
1.0
 40
1.0
 40
1.0
 10
90.78197864361151
 20
66.84537834345373
 30
0.0
 10
90.78325847515565
 20
66.84537566704405
 30
0.0
 10
90.83565812087889
 20
66.84526608784235
 30
0.0
 10
90.91101321233398
 20
66.8355869330047
 30
0.0
 10
91.01293232435164
 20
66.79830510954295
 30
0.0
 10
91.08532326934358
 20
66.75359723635955
 30
0.0
 10
91.13302869760838
 20
66.69546158622688
 30
0.0
 10
91.1545641813157
 20
66.64457451275857
 30
0.0
 10
91.15999319733523
 20
66.61581228365107
 30
0.0
 10
91.16016894949179
 20
66.59705946902665
 30
0.0
 10
91.16018470507039
 20
66.59537834345373
 30
0.0
  0
LINE
  5
114
330
1F
100
AcDbEntity
  8
0
  6
Continuous
 62
     7
370
    25
100
AcDbLine
 10
90.9220444627
 20
66.5953783435
 30
0.0
 11
91.1601847051
 21
66.5953783435
 31
0.0
  0
LINE
  5
115
330
1F
100
AcDbEntity
  8
0
  6
Continuous
 62
     7
370
    25
100
AcDbLine
 10
80.205733555
 20
65.9953783435
 30
0.0
 11
80.205733555
 21
66.5953783435
 31
0.0
  0
LINE
  5
116
330
1F
100
AcDbEntity
  8
0
  6
Continuous
 62
     7
370
    25
100
AcDbLine
 10
80.4438737974
 20
65.9953783435
 30
0.0
 11
80.205733555
 21
65.9953783435
 31
0.0
  0
LINE
  5
117
330
1F
100
AcDbEntity
  8
0
  6
Continuous
 62
     7
370
    25
100
AcDbLine
 10
91.1601847051
 20
66.5953783435
 30
0.0
 11
91.1601847051
 21
65.9953783435
 31
0.0
  0
LINE
  5
118
330
1F
100
AcDbEntity
  8
0
  6
Continuous
 62
     7
370
    25
100
AcDbLine
 10
91.1601847051
 20
65.9953783435
 30
0.0
 11
90.9220444627
 21
65.9953783435
 31
0.0
  0
LINE
  5
119
330
1F
100
AcDbEntity
  8
0
  6
Continuous
 62
     7
370
    25
100
AcDbLine
 10
79.68295913
 20
65.9953783435
 30
0.0
 11
79.68295913
 21
66.5953783435
 31
0.0
  0
LINE
  5
11A
330
1F
100
AcDbEntity
  8
0
  6
Continuous
 62
     7
370
    25
100
AcDbLine
 10
79.68295913
 20
66.5953783435
 30
0.0
 11
79.93295913
 21
66.5953783435
 31
0.0
  0
LINE
  5
11B
330
1F
100
AcDbEntity
  8
0
  6
Continuous
 62
     7
370
    25
100
AcDbLine
 10
79.93295913
 20
66.5953783435
 30
0.0
 11
79.93295913
 21
65.9953783435
 31
0.0
  0
LINE
  5
11C
330
1F
100
AcDbEntity
  8
0
  6
Continuous
 62
     7
370
    25
100
AcDbLine
 10
79.93295913
 20
65.9953783435
 30
0.0
 11
79.68295913
 21
65.9953783435
 31
0.0
  0
ARC
  5
11D
330
1F
100
AcDbEntity
  8
0
  6
Continuous
 62
     7
370
    25
100
AcDbCircle
 10
79.93295913
 20
66.5953783435
 30
0.0
 40
0.25
100
AcDbArc
 50
90.0
 51
180.0
  0
LINE
  5
11E
330
1F
100
AcDbEntity
  8
0
  6
Continuous
 62
     7
370
    25
100
AcDbLine
 10
79.93295913
 20
66.8453783435
 30
0.0
 11
79.93295913
 21
66.5953783435
 31
0.0
  0
LINE
  5
11F
330
1F
100
AcDbEntity
  8
0
  6
Continuous
 62
     7
370
    25
100
AcDbLine
 10
80.205733555
 20
66.5953783435
 30
0.0
 11
79.93295913
 21
66.5953783435
 31
0.0
  0
LINE
  5
120
330
1F
100
AcDbEntity
  8
0
  6
Continuous
 62
     7
370
    25
100
AcDbLine
 10
79.93295913
 20
65.9953783435
 30
0.0
 11
80.205733555
 21
65.9953783435
 31
0.0
  0
LINE
  5
121
330
1F
100
AcDbEntity
  8
0
  6
Continuous
 62
     7
370
    25
100
AcDbLine
 10
79.93295913
 20
66.8453783435
 30
0.0
 11
80.5839396164
 21
66.8453783435
 31
0.0
  0
LINE
  5
122
330
1F
100
AcDbEntity
  8
0
  6
Continuous
 62
     7
370
    25
100
AcDbLine
 10
91.43295913
 20
65.9953783435
 30
0.0
 11
91.43295913
 21
66.5953783435
 31
0.0
  0
LINE
  5
123
330
1F
100
AcDbEntity
  8
0
  6
Continuous
 62
     7
370
    25
100
AcDbLine
 10
91.43295913
 20
66.5953783435
 30
0.0
 11
91.68295913
 21
66.5953783435
 31
0.0
  0
LINE
  5
124
330
1F
100
AcDbEntity
  8
0
  6
Continuous
 62
     7
370
    25
100
AcDbLine
 10
91.68295913
 20
66.5953783435
 30
0.0
 11
91.68295913
 21
65.9953783435
 31
0.0
  0
LINE
  5
125
330
1F
100
AcDbEntity
  8
0
  6
Continuous
 62
     7
370
    25
100
AcDbLine
 10
91.68295913
 20
65.9953783435
 30
0.0
 11
91.43295913
 21
65.9953783435
 31
0.0
  0
LINE
  5
126
330
1F
100
AcDbEntity
  8
0
  6
Continuous
 62
     7
370
    25
100
AcDbLine
 10
91.43295913
 20
66.5953783435
 30
0.0
 11
91.43295913
 21
66.8453783435
 31
0.0
  0
ARC
  5
127
330
1F
100
AcDbEntity
  8
0
  6
Continuous
 62
     7
370
    25
100
AcDbCircle
 10
91.43295913
 20
66.5953783435
 30
0.0
 40
0.25
100
AcDbArc
 50
0.0
 51
90.0
  0
LINE
  5
128
330
1F
100
AcDbEntity
  8
0
  6
Continuous
 62
     7
370
    25
100
AcDbLine
 10
91.43295913
 20
66.5953783435
 30
0.0
 11
91.1601847051
 21
66.5953783435
 31
0.0
  0
LINE
  5
129
330
1F
100
AcDbEntity
  8
0
  6
Continuous
 62
     7
370
    25
100
AcDbLine
 10
90.7819786436
 20
66.8453783435
 30
0.0
 11
91.43295913
 21
66.8453783435
 31
0.0
  0
LINE
  5
12A
330
1F
100
AcDbEntity
  8
0
  6
Continuous
 62
     7
370
    25
100
AcDbLine
 10
91.1601847051
 20
65.9953783435
 30
0.0
 11
91.43295913
 21
65.9953783435
 31
0.0
  0
LINE
  5
12B
330
1F
100
AcDbEntity
  8
0
  6
Continuous
 62
     7
370
    25
100
AcDbLine
 10
90.68295913
 20
66.8453783435
 30
0.0
 11
90.68295913
 21
66.8553783435
 31
0.0
  0
LINE
  5
12C
330
1F
100
AcDbEntity
  8
0
  6
Continuous
 62
     7
370
    25
100
AcDbLine
 10
80.68295913
 20
66.8453783435
 30
0.0
 11
80.68295913
 21
66.8553783435
 31
0.0
  0
LINE
  5
12D
330
1F
100
AcDbEntity
  8
0
  6
Continuous
 62
     7
370
    25
100
AcDbLine
 10
80.68295913
 20
66.8553783435
 30
0.0
 11
90.68295913
 21
66.8553783435
 31
0.0
  0
LINE
  5
12E
330
1F
100
AcDbEntity
  8
0
  6
Continuous
 62
     7
370
    25
100
AcDbLine
 10
78.23295913
 20
57.9953783434
 30
0.0
 11
90.1575060141
 21
57.9953783435
 31
0.0
  0
LINE
  5
12F
330
1F
100
AcDbEntity
  8
0
  6
Continuous
 62
     7
370
    25
100
AcDbLine
 10
90.9067613044
 20
65.9953783434
 30
0.0
 11
80.4438737974
 21
65.9953783434
 31
0.0
  0
LINE
  5
130
330
1F
100
AcDbEntity
  8
0
  6
Continuous
 62
     7
370
    25
100
AcDbLine
 10
92.6348999683
 20
58.9901219214
 30
0.0
 11
90.9067613044
 21
65.9953783434
 31
0.0
  0
SPLINE
  5
131
330
1F
100
AcDbEntity
  8
0
  6
Continuous
 62
     7
370
    25
100
AcDbSpline
210
0.0
220
0.0
230
1.0
 70
     8
 71
     3
 72
     9
 73
     5
 74
     0
 42
0.00000001
 43
0.00000001
 40
0.0
 40
0.0
 40
0.0
 40
0.0
 40
0.4983247250277991
 40
1.0
 40
1.0
 40
1.0
 40
1.0
 10
90.15750601410086
 20
57.99537834345136
 30
0.0
 10
90.04139571762173
 20
58.16917045731043
 30
0.0
 10
89.8083944422532
 20
58.51792319850621
 30
0.0
 10
89.53463406891152
 20
58.83237115592043
 30
0.0
 10
89.39729525833884
 20
58.99012192142065
 30
0.0
  0
LINE
  5
132
330
1F
100
AcDbEntity
  8
0
  6
Continuous
 62
     7
370
    25
100
AcDbLine
 10
87.68295913
 20
49.9953783435
 30
0.0
 11
87.6829592246
 21
50.0331952214
 31
0.0
  0
LINE
  5
133
330
1F
100
AcDbEntity
  8
0
  6
Continuous
 62
     7
370
    25
100
AcDbLine
 10
78.68295913
 20
49.9953783435
 30
0.0
 11
87.68295913
 21
49.9953783435
 31
0.0
  0
SPLINE
  5
134
330
1F
100
AcDbEntity
  8
0
  6
Continuous
 62
     7
370
    25
100
AcDbSpline
210
0.0
220
0.0
230
1.0
 70
     8
 71
     3
 72
    16
 73
    12
 74
     0
 42
0.00000001
 43
0.00000001
 40
0.0
 40
0.0
 40
0.0
 40
0.0
 40
0.0155634360124117
 40
0.0359329243097674
 40
0.0739120889290614
 40
0.1570057548437684
 40
0.2406581385754913
 40
0.4592958294318596
 40
0.6783839187935417
 40
0.8974954344294845
 40
1.0
 40
1.0
 40
1.0
 40
1.0
 10
87.83890438044587
 20
49.99537834345383
 30
0.0
 10
87.8812963697145
 20
50.000571715233
 30
0.0
 10
87.97917116680402
 20
50.01256219310078
 30
0.0
 10
88.15264983781687
 20
50.13088811709773
 30
0.0
 10
88.40098351681955
 20
50.44213942454669
 30
0.0
 10
88.65544805886546
 20
50.96778692591175
 30
0.0
 10
88.99912747055657
 20
52.00633309018189
 30
0.0
 10
89.38034748982327
 20
53.44140713252801
 30
0.0
 10
89.73044914582293
 20
55.27965923396745
 30
0.0
 10
89.97424099491117
 20
56.80084208278689
 30
0.0
 10
90.1132131900682
 20
57.7066741235834
 30
0.0
 10
90.15750601410086
 20
57.99537834345136
 30
0.0
  0
SPLINE
  5
135
330
1F
100
AcDbEntity
  8
0
  6
Continuous
 62
     7
370
    25
100
AcDbSpline
210
0.0
220
0.0
230
1.0
 70
     8
 71
     3
 72
     9
 73
     5
 74
     0
 42
0.00000001
 43
0.00000001
 40
0.0
 40
0.0
 40
0.0
 40
0.0
 40
0.5124861829376838
 40
0.9999999999999999
 40
0.9999999999999999
 40
0.9999999999999999
 40
0.9999999999999999
 10
87.68295922455009
 20
50.03319522139395
 30
0.0
 10
87.70860172872193
 20
50.02216730844277
 30
0.0
 10
87.75863723216682
 20
50.00064884937337
 30
0.0
 10
87.8125978390253
 20
49.99710568502822
 30
0.0
 10
87.83890438044587
 20
49.99537834345383
 30
0.0
  0
LINE
  5
136
330
1F
100
AcDbEntity
  8
0
  6
Continuous
 62
     7
370
    25
100
AcDbLine
 10
89.3972952583
 20
58.9901219214
 30
0.0
 11
107.8583959916
 21
58.9901219214
 31
0.0
  0
LINE
  5
137
330
1F
100
AcDbEntity
  8
0
  6
Continuous
 62
     7
370
    25
100
AcDbLine
 10
107.8583959916
 20
58.9901219214
 30
0.0
 11
107.8583959916
 21
55.7475540364
 31
0.0
  0
SPLINE
  5
138
330
1F
100
AcDbEntity
  8
0
  6
Continuous
 62
     7
370
    25
100
AcDbSpline
210
0.0
220
0.0
230
1.0
 70
     8
 71
     3
 72
    11
 73
     7
 74
     0
 42
0.00000001
 43
0.00000001
 40
0.0
 40
0.0
 40
0.0
 40
0.0
 40
0.2488607147078904
 40
0.4977191536447657
 40
0.7488602698858827
 40
0.9999999999999999
 40
0.9999999999999999
 40
0.9999999999999999
 40
0.9999999999999999
 10
100.7880023693117
 20
54.42435353544376
 30
0.0
 10
101.3645953281944
 20
54.57383247233189
 30
0.0
 10
102.5177759731567
 20
54.87278897915942
 30
0.0
 10
104.2786902950873
 20
55.23459295261814
 30
0.0
 10
106.0586690086663
 20
55.53686759585764
 30
0.0
 10
107.2584881009587
 20
55.67732535211087
 30
0.0
 10
107.8583959915554
 20
55.74755403642928
 30
0.0
  0
LINE
  5
139
330
1F
100
AcDbEntity
  8
0
  6
Continuous
 62
     7
370
    25
100
AcDbLine
 10
100.7880023693
 20
54.4243535354
 30
0.0
 11
95.0082455195
 21
52.855732095
 31
0.0
  0
SPLINE
  5
13A
330
1F
100
AcDbEntity
  8
0
  6
Continuous
 62
     7
370
    25
100
AcDbSpline
210
0.0
220
0.0
230
1.0
 70
     8
 71
     3
 72
    13
 73
     9
 74
     0
 42
0.00000001
 43
0.00000001
 40
0.0
 40
0.0
 40
0.0
 40
0.0
 40
0.1610294006389558
 40
0.3266880383557516
 40
0.4877296220820636
 40
0.6535536198224136
 40
0.8237602734841889
 40
1.0
 40
1.0
 40
1.0
 40
1.0
 10
95.00824551945638
 20
52.8557320949609
 30
0.0
 10
94.79437546542528
 20
52.78633520038365
 30
0.0
 10
94.36048706903787
 20
52.6455464048751
 30
0.0
 10
93.76916632037222
 20
52.29942158716745
 30
0.0
 10
93.23523497152154
 20
51.86021494411541
 30
0.0
 10
92.78155099971843
 20
51.32661310717582
 30
0.0
 10
92.40709728673296
 20
50.70278680047613
 30
0.0
 10
92.25853421597417
 20
50.23390290227414
 30
0.0
 10
92.18295913001873
 20
49.99537834345373
 30
0.0
  0
LINE
  5
13B
330
1F
100
AcDbEntity
  8
0
  6
Continuous
 62
     7
370
    25
100
AcDbLine
 10
92.18295913
 20
49.9953783435
 30
0.0
 11
87.8389043804
 21
49.9953783435
 31
0.0
  0
LINE
  5
13C
330
1F
100
AcDbEntity
  8
0
  6
Continuous
 62
     7
370
    25
100
AcDbLine
 10
87.6897584879
 20
49.9953783435
 30
0.0
 11
87.6829592246
 21
50.0331952214
 31
0.0
  0
LINE
  5
13D
330
1F
100
AcDbEntity
  8
0
  6
Continuous
 62
     7
370
    25
100
AcDbLine
 10
87.68295913
 20
49.9953783435
 30
0.0
 11
87.6897584879
 21
49.9953783435
 31
0.0
  0
LINE
  5
13E
330
1F
100
AcDbEntity
  8
0
  6
Continuous
 62
     7
370
    25
100
AcDbLine
 10
87.8389043804
 20
49.9953783435
 30
0.0
 11
87.6897584879
 21
49.9953783435
 31
0.0
  0
LINE
  5
13F
330
1F
100
AcDbEntity
  8
0
  6
Continuous
 62
     7
370
    25
100
AcDbLine
 10
107.8583959916
 20
58.9901219214
 30
0.0
 11
107.8583959916
 21
67.9953783435
 31
0.0
  0
LINE
  5
140
330
1F
100
AcDbEntity
  8
0
  6
Continuous
 62
     7
370
    25
100
AcDbLine
 10
107.8583959916
 20
67.9953783435
 30
0.0
 11
125.68295913
 21
67.9953783435
 31
0.0
  0
LINE
  5
141
330
1F
100
AcDbEntity
  8
0
  6
Continuous
 62
     7
370
    25
100
AcDbLine
 10
125.68295913
 20
67.9953783435
 30
0.0
 11
125.68295913
 21
60.9953783435
 31
0.0
  0
ARC
  5
142
330
1F
100
AcDbEntity
  8
0
  6
Continuous
 62
     7
370
    25
100
AcDbCircle
 10
120.68295913
 20
60.9953783435
 30
0.0
 40
5.0
100
AcDbArc
 50
270.0
 51
0.0
  0
LINE
  5
143
330
1F
100
AcDbEntity
  8
0
  6
Continuous
 62
     7
370
    25
100
AcDbLine
 10
120.68295913
 20
55.9953783435
 30
0.0
 11
112.5746269878
 21
55.9953783435
 31
0.0
  0
ARC
  5
144
330
1F
100
AcDbEntity
  8
0
  6
Continuous
 62
     7
370
    25
100
AcDbCircle
 10
112.5746269878
 20
10.9952490893
 30
0.0
 40
45.00012925418374
100
AcDbArc
 50
90.0
 51
96.0159222295
  0
ARC
  5
145
330
1F
100
AcDbEntity
  8
0
  6
Continuous
 62
     7
370
    25
100
AcDbCircle
 10
100.0719126943
 20
69.9953783435
 30
0.0
 40
10.00000000000848
100
AcDbArc
 50
203.5781784783
 51
264.4198332155
  0
ARC
  5
146
330
1F
100
AcDbEntity
  8
0
  6
Continuous
 62
     7
370
    25
100
AcDbCircle
 10
99.68295913
 20
66.0143338668
 30
0.0
 40
6.000000000000014
100
AcDbArc
 50
264.4198332155
 51
0.0
  0
LINE
  5
147
330
1F
100
AcDbEntity
  8
0
  6
Continuous
 62
     7
370
    25
100
AcDbLine
 10
105.68295913
 20
67.9953783435
 30
0.0
 11
105.68295913
 21
66.0143338668
 31
0.0
  0
LINE
  5
148
330
1F
100
AcDbEntity
  8
0
  6
Continuous
 62
     7
370
    25
100
AcDbLine
 10
105.68295913
 20
67.9953783435
 30
0.0
 11
107.8583959916
 21
67.9953783435
 31
0.0
  0
LINE
  5
149
330
1F
100
AcDbEntity
  8
0
  6
Continuous
 62
     7
370
    25
100
AcDbLine
 10
92.68295913
 20
49.9953783435
 30
0.0
 11
92.18295913
 21
49.9953783435
 31
0.0
  0
LINE
  5
14A
330
1F
100
AcDbEntity
  8
0
  6
Continuous
 62
     7
370
    25
100
AcDbLine
 10
90.9067613044
 20
65.9953783434
 30
0.0
 11
90.9220444627
 21
65.9953783434
 31
0.0
  0
SPLINE
  5
14B
330
1F
100
AcDbEntity
  8
0
  6
Continuous
 62
     7
370
    25
100
AcDbSpline
210
0.0
220
0.0
230
1.0
 70
     8
 71
     3
 72
    31
 73
    27
 74
     0
 42
0.00000001
 43
0.00000001
 40
0.0
 40
0.0
 40
0.0
 40
0.0
 40
0.0092778439519833
 40
0.0517184391002137
 40
0.0941862976415796
 40
0.1321081404284614
 40
0.1702201321555196
 40
0.2082112365517523
 40
0.2154739769178788
 40
0.2764892827754464
 40
0.3375038113171517
 40
0.3848238536143725
 40
0.4320487040944592
 40
0.4692175621423305
 40
0.5063475024444346
 40
0.5434351707231289
 40
0.5805721419416168
 40
0.6303349694107353
 40
0.6801899703836579
 40
0.7334694170409705
 40
0.78674014037695
 40
0.8315842776608213
 40
0.8763934548506809
 40
0.91906910453454
 40
0.9617095848022852
 40
0.9999999999999999
 40
0.9999999999999999
 40
0.9999999999999999
 40
0.9999999999999999
 10
79.78360926955565
 20
48.99482619015718
 30
0.0
 10
79.78435428011997
 20
48.99419494714122
 30
0.0
 10
79.78850726907937
 20
48.99067614431936
 30
0.0
 10
79.85878990172162
 20
48.93074953419109
 30
0.0
 10
80.05010990996331
 20
48.77035866639252
 30
0.0
 10
80.32503115780393
 20
48.54406406635388
 30
0.0
 10
80.65744830120926
 20
48.27869426830586
 30
0.0
 10
80.94451144417386
 20
48.05861549950358
 30
0.0
 10
81.34045885138134
 20
47.76481652911998
 30
0.0
 10
81.87607809810021
 20
47.38439415066221
 30
0.0
 10
82.69183158498497
 20
46.88636967053055
 30
0.0
 10
83.53339074264986
 20
46.47425199124585
 30
0.0
 10
84.31679781263479
 20
46.19725282996304
 30
0.0
 10
85.08978265729918
 20
46.04583568659285
 30
0.0
 10
85.82037297128672
 20
46.00768621530704
 30
0.0
 10
86.54509542462237
 20
46.08701810642314
 30
0.0
 10
87.3184650441867
 20
46.27952131424573
 30
0.0
 10
88.10885986636596
 20
46.59668078340056
 30
0.0
 10
88.90566441325151
 20
47.021959321304
 30
0.0
 10
89.63303151961892
 20
47.48442003145733
 30
0.0
 10
90.24723735556849
 20
47.92483340686245
 30
0.0
 10
90.74069558532506
 20
48.30329259101308
 30
0.0
 10
91.11576388454152
 20
48.60506348045991
 30
0.0
 10
91.38595292004283
 20
48.8286530902348
 30
0.0
 10
91.55441149197122
 20
48.9711438161803
 30
0.0
 10
91.56982586833921
 20
48.98416262380956
 30
0.0
 10
91.57711879235482
 20
48.99032214480134
 30
0.0
  0
LINE
  5
14C
330
1F
100
AcDbEntity
  8
FORMAT
  6
CENTERX2
370
    18
100
AcDbLine
 10
61.08295913
 20
39.4953783435
 30
0.0
 11
99.9714543648
 21
39.4953783435
 31
0.0
  0
LINE
  5
14D
330
1F
100
AcDbEntity
  8
FORMAT
  6
CENTERX2
370
    18
100
AcDbLine
 10
85.68295913
 20
68.773578465
 30
0.0
 11
85.68295913
 21
14.4953783435
 31
0.0
  0
LINE
  5
14E
330
1F
100
AcDbEntity
  8
0
  6
Continuous
 62
     7
370
    25
100
AcDbLine
 10
144.2654460851
 20
27.6397159108
 30
0.0
 11
144.5154460851
 21
27.4953783435
 31
0.0
  0
LINE
  5
14F
330
1F
100
AcDbEntity
  8
0
  6
Continuous
 62
     7
370
    25
100
AcDbLine
 10
161.0154460851
 20
27.4953783435
 30
0.0
 11
161.2654460851
 21
27.6397159108
 31
0.0
  0
LINE
  5
150
330
1F
100
AcDbEntity
  8
0
  6
Continuous
 62
     7
370
    25
100
AcDbLine
 10
161.0154460851
 20
16.4953783435
 30
0.0
 11
161.0154460851
 21
27.4953783435
 31
0.0
  0
LINE
  5
151
330
1F
100
AcDbEntity
  8
0
  6
Continuous
 62
     7
370
    25
100
AcDbLine
 10
144.5154460851
 20
27.4953783435
 30
0.0
 11
144.5154460851
 21
16.4953783435
 31
0.0
  0
LINE
  5
152
330
1F
100
AcDbEntity
  8
0
  6
Continuous
 62
     7
370
    25
100
AcDbLine
 10
144.5154460851
 20
16.4953783435
 30
0.0
 11
145.0154460851
 21
15.9953783435
 31
0.0
  0
LINE
  5
153
330
1F
100
AcDbEntity
  8
0
  6
Continuous
 62
     7
370
    25
100
AcDbLine
 10
160.5154460851
 20
15.9953783435
 30
0.0
 11
161.0154460851
 21
16.4953783435
 31
0.0
  0
SPLINE
  5
154
330
1F
100
AcDbEntity
  8
0
  6
Continuous
 62
     7
370
    25
100
AcDbSpline
210
0.0
220
0.0
230
1.0
 70
     8
 71
     3
 72
     9
 73
     5
 74
     0
 42
0.00000001
 43
0.00000001
 40
0.0
 40
0.0
 40
0.0
 40
0.0
 40
0.6273451693507331
 40
1.0
 40
1.0
 40
1.0
 40
1.0
 10
158.6782180608853
 20
45.89659242778687
 30
0.0
 10
158.6724684886177
 20
45.92382427660981
 30
0.0
 10
158.6633035622765
 20
45.96723235585132
 30
0.0
 10
158.6667062661905
 20
46.01132991522483
 30
0.0
 10
158.6679743002413
 20
46.02776308374521
 30
0.0
  0
LINE
  5
155
330
1F
100
AcDbEntity
  8
0
  6
Continuous
 62
     7
370
    25
100
AcDbLine
 10
146.8654757781
 20
46.0352263715
 30
0.0
 11
146.8575330696
 21
45.8993977499
 31
0.0
  0
LINE
  5
156
330
1F
100
AcDbEntity
  8
0
  6
Continuous
 62
     7
370
    25
100
AcDbLine
 10
158.6654460851
 20
46.0286045966
 30
0.0
 11
158.6654460851
 21
49.9953783435
 31
0.0
  0
LINE
  5
157
330
1F
100
AcDbEntity
  8
0
  6
Continuous
 62
     7
370
    25
100
AcDbLine
 10
146.8654460851
 20
49.9953783435
 30
0.0
 11
146.8654460851
 21
46.0339070074
 31
0.0
  0
ARC
  5
158
330
1F
100
AcDbEntity
  8
0
  6
Continuous
 62
     7
370
    25
100
AcDbCircle
 10
147.5154460851
 20
66.5953783435
 30
0.0
 40
0.25
100
AcDbArc
 50
90.0
 51
180.0
  0
ARC
  5
159
330
1F
100
AcDbEntity
  8
0
  6
Continuous
 62
     7
370
    25
100
AcDbCircle
 10
158.0154460851
 20
66.5953783435
 30
0.0
 40
0.25
100
AcDbArc
 50
0.0
 51
90.0
  0
LINE
  5
15A
330
1F
100
AcDbEntity
  8
0
  6
Continuous
 62
     7
370
    25
100
AcDbLine
 10
147.2654460851
 20
66.5953783435
 30
0.0
 11
147.2654460851
 21
65.9953783435
 31
0.0
  0
LINE
  5
15B
330
1F
100
AcDbEntity
  8
0
  6
Continuous
 62
     7
370
    25
100
AcDbLine
 10
158.2654460851
 20
65.9953783435
 30
0.0
 11
158.2654460851
 21
66.5953783435
 31
0.0
  0
LINE
  5
15C
330
1F
100
AcDbEntity
  8
0
  6
Continuous
 62
     7
370
    25
100
AcDbLine
 10
160.2154460851
 20
57.9953783435
 30
0.0
 11
158.2654460851
 21
65.9953783434
 31
0.0
  0
LINE
  5
15D
330
1F
100
AcDbEntity
  8
0
  6
Continuous
 62
     7
370
    25
100
AcDbLine
 10
147.2654460851
 20
65.9953783434
 30
0.0
 11
145.3154460851
 21
57.9953783435
 31
0.0
  0
LINE
  5
15E
330
1F
100
AcDbEntity
  8
0
  6
Continuous
 62
     7
370
    25
100
AcDbLine
 10
145.3154460851
 20
57.9953783435
 30
0.0
 11
145.7654460851
 21
49.9953783435
 31
0.0
  0
LINE
  5
15F
330
1F
100
AcDbEntity
  8
0
  6
Continuous
 62
     7
370
    25
100
AcDbLine
 10
159.7654460851
 20
49.9953783435
 30
0.0
 11
160.2154460851
 21
57.9953783435
 31
0.0
  0
CIRCLE
  5
160
330
1F
100
AcDbEntity
  8
0
  6
Continuous
 62
     7
370
    25
100
AcDbCircle
 10
152.7654460851
 20
39.4953783435
 30
0.0
 40
8.25
  0
SPLINE
  5
161
330
1F
100
AcDbEntity
  8
0
  6
Continuous
 62
     7
370
    25
100
AcDbSpline
210
0.0
220
0.0
230
1.0
 70
     8
 71
     3
 72
    10
 73
     6
 74
     0
 42
0.00000001
 43
0.00000001
 40
0.0
 40
0.0
 40
0.0
 40
0.0
 40
0.5
 40
0.5
 40
1.0
 40
1.0
 40
1.0
 40
1.0
 10
144.2654460850758
 20
34.87657618993673
 30
0.0
 10
144.2654460850758
 20
34.79068912813427
 30
0.0
 10
144.2882385344056
 20
34.70328191915413
 30
0.0
 10
144.3761812384987
 20
34.5506454765604
 30
0.0
 10
144.4410390121725
 20
34.48652243161482
 30
0.0
 10
144.5154460850758
 20
34.44356348804451
 30
0.0
  0
SPLINE
  5
162
330
1F
100
AcDbEntity
  8
0
  6
Continuous
 62
     7
370
    25
100
AcDbSpline
210
0.0
220
0.0
230
1.0
 70
    24
 71
     3
 72
    14
 73
    10
 74
     0
 42
0.00000001
 43
0.00000001
 40
0.0
 40
0.0
 40
0.0
 40
0.0
 40
0.25
 40
0.25
 40
0.5
 40
0.5
 40
0.75
 40
0.75
 40
1.0
 40
1.0
 40
1.0
 40
1.0
 10
144.2654460850758
 20
34.87657618993669
 30
0.0
 10
144.2654460850758
 20
35.63095625058667
 30
0.0
 10
144.2654460850758
 20
36.40039741805217
 30
0.0
 10
144.2654460850758
 20
37.94090877899333
 30
0.0
 10
144.2654460850758
 20
38.71576315900035
 30
0.0
 10
144.2654460850758
 20
40.27612411388591
 30
0.0
 10
144.2654460850758
 20
41.06658030667093
 30
0.0
 10
144.2654460850758
 20
42.6088599694794
 30
0.0
 10
144.2654460850758
 20
43.36625072268058
 30
0.0
 10
144.2654460850758
 20
44.11418049697075
 30
0.0
  0
SPLINE
  5
163
330
1F
100
AcDbEntity
  8
0
  6
Continuous
 62
     7
370
    25
100
AcDbSpline
210
0.0
220
0.0
230
1.0
 70
     8
 71
     3
 72
    10
 73
     6
 74
     0
 42
0.00000001
 43
0.00000001
 40
0.0
 40
0.0
 40
0.0
 40
0.0
 40
0.5
 40
0.5
 40
1.0
 40
1.0
 40
1.0
 40
1.0
 10
144.5154460850758
 20
44.54719319886296
 30
0.0
 10
144.4410657076985
 20
44.50424966796174
 30
0.0
 10
144.3767650689127
 20
44.44080722333761
 30
0.0
 10
144.2885493841298
 20
44.28832838621864
 30
0.0
 10
144.2654460850758
 20
44.20009838411137
 30
0.0
 10
144.2654460850758
 20
44.11418049697075
 30
0.0
  0
SPLINE
  5
164
330
1F
100
AcDbEntity
  8
0
  6
Continuous
 62
     7
370
    25
100
AcDbSpline
210
0.0
220
0.0
230
1.0
 70
    24
 71
     3
 72
    16
 73
    12
 74
     0
 42
0.00000001
 43
0.00000001
 40
0.0
 40
0.0
 40
0.0
 40
0.0
 40
0.2500000000000001
 40
0.2500000000000001
 40
0.5000000000000001
 40
0.5000000000000001
 40
0.6250000000000001
 40
0.6250000000000001
 40
0.7500000000000002
 40
0.7500000000000002
 40
1.0
 40
1.0
 40
1.0
 40
1.0
 10
152.5154460850758
 20
49.16599535237997
 30
0.0
 10
151.861929305035
 20
48.78868726350348
 30
0.0
 10
151.203708895945
 20
48.40866353312927
 30
0.0
 10
149.8741463125792
 20
47.64104021771858
 30
0.0
 10
149.2027223305087
 20
47.25339340092978
 30
0.0
 10
148.183721243502
 20
46.66507284904193
 30
0.0
 10
147.8423804611858
 20
46.46799965648628
 30
0.0
 10
147.1667819582153
 20
46.07794267893218
 30
0.0
 10
146.8311228082507
 20
45.88414977834415
 30
0.0
 10
145.829857171751
 20
45.30606879358072
 30
0.0
 10
145.1699495131479
 20
44.9250709292459
 30
0.0
 10
144.5154460850758
 20
44.54719319886296
 30
0.0
  0
SPLINE
  5
165
330
1F
100
AcDbEntity
  8
0
  6
Continuous
 62
     7
370
    25
100
AcDbSpline
210
0.0
220
0.0
230
1.0
 70
     8
 71
     3
 72
    10
 73
     6
 74
     0
 42
0.00000001
 43
0.00000001
 40
0.0
 40
0.0
 40
0.0
 40
0.0
 40
0.5
 40
0.5
 40
1.0
 40
1.0
 40
1.0
 40
1.0
 10
153.0154460850758
 20
49.16599535237997
 30
0.0
 10
152.9410657076985
 20
49.2089388832812
 30
0.0
 10
152.8539726195829
 20
49.23290364763718
 30
0.0
 10
152.6778142307069
 20
49.23306125311196
 30
0.0
 10
152.5898531579791
 20
49.20895429595029
 30
0.0
 10
152.5154460850758
 20
49.16599535237998
 30
0.0
  0
SPLINE
  5
166
330
1F
100
AcDbEntity
  8
0
  6
Continuous
 62
     7
370
    25
100
AcDbSpline
210
0.0
220
0.0
230
1.0
 70
    24
 71
     3
 72
    16
 73
    12
 74
     0
 42
0.00000001
 43
0.00000001
 40
0.0
 40
0.0
 40
0.0
 40
0.0
 40
0.2499999999999997
 40
0.2499999999999997
 40
0.4999999999999993
 40
0.4999999999999993
 40
0.6249999999999993
 40
0.6249999999999993
 40
0.7499999999999996
 40
0.7499999999999996
 40
1.0
 40
1.0
 40
1.0
 40
1.0
 10
161.0154460850758
 20
44.54719319886296
 30
0.0
 10
160.361929305035
 20
44.92450128773946
 30
0.0
 10
159.703708895945
 20
45.30452501811367
 30
0.0
 10
158.3741463125792
 20
46.07214833352435
 30
0.0
 10
157.7027223305087
 20
46.45979515031316
 30
0.0
 10
156.683721243502
 20
47.04811570220101
 30
0.0
 10
156.3423804611858
 20
47.24518889475665
 30
0.0
 10
155.6667819582154
 20
47.63524587231075
 30
0.0
 10
155.3311228082507
 20
47.82903877289879
 30
0.0
 10
154.329857171751
 20
48.40711975766222
 30
0.0
 10
153.6699495131479
 20
48.78811762199705
 30
0.0
 10
153.0154460850758
 20
49.16599535237997
 30
0.0
  0
SPLINE
  5
167
330
1F
100
AcDbEntity
  8
0
  6
Continuous
 62
     7
370
    25
100
AcDbSpline
210
0.0
220
0.0
230
1.0
 70
     8
 71
     3
 72
    10
 73
     6
 74
     0
 42
0.00000001
 43
0.00000001
 40
0.0
 40
0.0
 40
0.0
 40
0.0
 40
0.5
 40
0.5
 40
1.0
 40
1.0
 40
1.0
 40
1.0
 10
161.2654460850758
 20
44.11418049697075
 30
0.0
 10
161.2654460850758
 20
44.20006755877321
 30
0.0
 10
161.242653635746
 20
44.28747476775331
 30
0.0
 10
161.1547109316529
 20
44.44011121034706
 30
0.0
 10
161.0898531579791
 20
44.50423425529265
 30
0.0
 10
161.0154460850758
 20
44.54719319886296
 30
0.0
  0
SPLINE
  5
168
330
1F
100
AcDbEntity
  8
0
  6
Continuous
 62
     7
370
    25
100
AcDbSpline
210
0.0
220
0.0
230
1.0
 70
    24
 71
     3
 72
    14
 73
    10
 74
     0
 42
0.00000001
 43
0.00000001
 40
0.0
 40
0.0
 40
0.0
 40
0.0
 40
0.25
 40
0.25
 40
0.5
 40
0.5
 40
0.75
 40
0.75
 40
1.0
 40
1.0
 40
1.0
 40
1.0
 10
161.2654460850758
 20
34.87657618993668
 30
0.0
 10
161.2654460850758
 20
35.63095625058666
 30
0.0
 10
161.2654460850758
 20
36.40039741805216
 30
0.0
 10
161.2654460850758
 20
37.94090877899332
 30
0.0
 10
161.2654460850758
 20
38.71576315900034
 30
0.0
 10
161.2654460850758
 20
40.2761241138859
 30
0.0
 10
161.2654460850758
 20
41.06658030667093
 30
0.0
 10
161.2654460850758
 20
42.6088599694794
 30
0.0
 10
161.2654460850758
 20
43.36625072268058
 30
0.0
 10
161.2654460850758
 20
44.11418049697075
 30
0.0
  0
SPLINE
  5
169
330
1F
100
AcDbEntity
  8
0
  6
Continuous
 62
     7
370
    25
100
AcDbSpline
210
0.0
220
0.0
230
1.0
 70
     8
 71
     3
 72
    10
 73
     6
 74
     0
 42
0.00000001
 43
0.00000001
 40
0.0
 40
0.0
 40
0.0
 40
0.0
 40
0.5
 40
0.5
 40
1.0
 40
1.0
 40
1.0
 40
1.0
 10
161.0154460850758
 20
34.44356348804451
 30
0.0
 10
161.0898264624529
 20
34.48650701894564
 30
0.0
 10
161.1541271012385
 20
34.54994946356931
 30
0.0
 10
161.2423427860217
 20
34.70242830068843
 30
0.0
 10
161.2654460850758
 20
34.79065830279592
 30
0.0
 10
161.2654460850758
 20
34.87657618993671
 30
0.0
  0
SPLINE
  5
16A
330
1F
100
AcDbEntity
  8
0
  6
Continuous
 62
     7
370
    25
100
AcDbSpline
210
0.0
220
0.0
230
1.0
 70
    24
 71
     3
 72
    16
 73
    12
 74
     0
 42
0.00000001
 43
0.00000001
 40
0.0
 40
0.0
 40
0.0
 40
0.0
 40
0.2500000000000002
 40
0.2500000000000002
 40
0.5000000000000004
 40
0.5000000000000004
 40
0.6250000000000003
 40
0.6250000000000003
 40
0.7500000000000002
 40
0.7500000000000002
 40
1.0
 40
1.0
 40
1.0
 40
1.0
 10
153.0154460850758
 20
29.8247613345275
 30
0.0
 10
153.6689628651166
 20
30.20206942340397
 30
0.0
 10
154.3271832742065
 20
30.58209315377814
 30
0.0
 10
155.6567458575722
 20
31.34971646918878
 30
0.0
 10
156.3281698396426
 20
31.73736328597755
 30
0.0
 10
157.3471709266493
 20
32.32568383786534
 30
0.0
 10
157.6885117089654
 20
32.52275703042098
 30
0.0
 10
158.3641102119359
 20
32.91281400797505
 30
0.0
 10
158.6997693619005
 20
33.10660690856307
 30
0.0
 10
159.7010349984001
 20
33.68468789332646
 30
0.0
 10
160.3609426570032
 20
34.06568575766125
 30
0.0
 10
161.0154460850752
 20
34.44356348804416
 30
0.0
  0
SPLINE
  5
16B
330
1F
100
AcDbEntity
  8
0
  6
Continuous
 62
     7
370
    25
100
AcDbSpline
210
0.0
220
0.0
230
1.0
 70
     8
 71
     3
 72
    10
 73
     6
 74
     0
 42
0.00000001
 43
0.00000001
 40
0.0
 40
0.0
 40
0.0
 40
0.0
 40
0.5
 40
0.5
 40
1.0
 40
1.0
 40
1.0
 40
1.0
 10
152.5154460850758
 20
29.8247613345275
 30
0.0
 10
152.5898264624531
 20
29.78181780362627
 30
0.0
 10
152.6769195505687
 20
29.75785303927029
 30
0.0
 10
152.8530779394447
 20
29.75769543379551
 30
0.0
 10
152.9410390121726
 20
29.78180239095719
 30
0.0
 10
153.0154460850758
 20
29.8247613345275
 30
0.0
  0
SPLINE
  5
16C
330
1F
100
AcDbEntity
  8
0
  6
Continuous
 62
     7
370
    25
100
AcDbSpline
210
0.0
220
0.0
230
1.0
 70
    24
 71
     3
 72
    16
 73
    12
 74
     0
 42
0.00000001
 43
0.00000001
 40
0.0
 40
0.0
 40
0.0
 40
0.0
 40
0.2500000000000001
 40
0.2500000000000001
 40
0.5000000000000002
 40
0.5000000000000002
 40
0.6250000000000001
 40
0.6250000000000001
 40
0.7500000000000001
 40
0.7500000000000001
 40
1.0
 40
1.0
 40
1.0
 40
1.0
 10
144.5154460850758
 20
34.44356348804451
 30
0.0
 10
145.1689628651166
 20
34.06625539916801
 30
0.0
 10
145.8271832742066
 20
33.68623166879381
 30
0.0
 10
147.1567458575724
 20
32.91860835338311
 30
0.0
 10
147.8281698396429
 20
32.53096153659432
 30
0.0
 10
148.8471709266497
 20
31.94264098470647
 30
0.0
 10
149.1885117089658
 20
31.74556779215082
 30
0.0
 10
149.8641102119363
 20
31.35551081459672
 30
0.0
 10
150.1997693619009
 20
31.16171791400869
 30
0.0
 10
151.2010349984006
 20
30.58363692924526
 30
0.0
 10
151.8609426570038
 20
30.20263906491044
 30
0.0
 10
152.5154460850758
 20
29.8247613345275
 30
0.0
  0
LINE
  5
16D
330
1F
100
AcDbEntity
  8
0
  6
Continuous
 62
     7
370
    25
100
AcDbLine
 10
153.0154460851
 20
29.8247613345
 30
0.0
 11
153.0154460851
 21
28.317437316
 31
0.0
  0
SPLINE
  5
16E
330
1F
100
AcDbEntity
  8
0
  6
Continuous
 62
     7
370
    25
100
AcDbSpline
210
0.0
220
0.0
230
1.0
 70
     8
 71
     3
 72
    10
 73
     6
 74
     0
 42
0.00000001
 43
0.00000001
 40
0.0
 40
0.0
 40
0.0
 40
0.0
 40
0.5
 40
0.5
 40
1.0
 40
1.0
 40
1.0
 40
1.0
 10
152.5154460850758
 20
28.31743731601133
 30
0.0
 10
152.5898208390659
 20
28.34111092050245
 30
0.0
 10
152.6769145706318
 20
28.35420369629568
 30
0.0
 10
152.8530803991762
 20
28.35429026439663
 30
0.0
 10
152.9410414230665
 20
28.34112044027335
 30
0.0
 10
153.0154460850758
 20
28.31743731601133
 30
0.0
  0
LINE
  5
16F
330
1F
100
AcDbEntity
  8
0
  6
Continuous
 62
     7
370
    25
100
AcDbLine
 10
152.5154460851
 20
28.317437316
 30
0.0
 11
152.5154460851
 21
29.8247613345
 31
0.0
  0
LINE
  5
170
330
1F
100
AcDbEntity
  8
0
  6
Continuous
 62
     7
370
    25
100
AcDbLine
 10
161.0154460851
 20
27.4953783435
 30
0.0
 11
144.5154460851
 21
27.4953783435
 31
0.0
  0
SPLINE
  5
171
330
1F
100
AcDbEntity
  8
0
  6
Continuous
 62
     7
370
    25
100
AcDbSpline
210
0.0
220
0.0
230
1.0
 70
     8
 71
     3
 72
    10
 73
     6
 74
     0
 42
0.00000001
 43
0.00000001
 40
0.0
 40
0.0
 40
0.0
 40
0.0
 40
0.5
 40
0.5
 40
1.0
 40
1.0
 40
1.0
 40
1.0
 10
144.2654460850758
 20
28.31743731601133
 30
0.0
 10
144.2654460850758
 20
28.34111121656728
 30
0.0
 10
144.2882366567233
 20
28.35420377374642
 30
0.0
 10
144.376182654022
 20
28.3542901877287
 30
0.0
 10
144.4410434467548
 20
28.34111979613008
 30
0.0
 10
144.5154460850758
 20
28.31743731601133
 30
0.0
  0
SPLINE
  5
172
330
1F
100
AcDbEntity
  8
0
  6
Continuous
 62
     7
370
    25
100
AcDbSpline
210
0.0
220
0.0
230
1.0
 70
     8
 71
     3
 72
    16
 73
    12
 74
     0
 42
0.00000001
 43
0.00000001
 40
0.0
 40
0.0
 40
0.0
 40
0.0
 40
0.2500000000000001
 40
0.2500000000000001
 40
0.5000000000000001
 40
0.5000000000000001
 40
0.6250000000000001
 40
0.6250000000000001
 40
0.7500000000000002
 40
0.7500000000000002
 40
1.0
 40
1.0
 40
1.0
 40
1.0
 10
152.5154460850759
 20
28.31743731601086
 30
0.0
 10
151.8612244316363
 20
28.10919750556222
 30
0.0
 10
151.2027718961252
 20
27.93902421915277
 30
0.0
 10
149.874127271142
 20
27.70430195953692
 30
0.0
 10
149.2038628268544
 20
27.64040398446246
 30
0.0
 10
148.1879270832927
 20
27.63938028237596
 30
0.0
 10
147.846575965193
 20
27.65486682952065
 30
0.0
 10
147.1701596537285
 20
27.71599055097865
 30
0.0
 10
146.8340868846877
 20
27.76151227827366
 30
0.0
 10
145.8315688236267
 20
27.93801164201883
 30
0.0
 10
145.1708109535351
 20
28.10883361837266
 30
0.0
 10
144.5154460850758
 20
28.31743731601118
 30
0.0
  0
SPLINE
  5
173
330
1F
100
AcDbEntity
  8
0
  6
Continuous
 62
     7
370
    25
100
AcDbSpline
210
0.0
220
0.0
230
1.0
 70
     8
 71
     3
 72
    16
 73
    12
 74
     0
 42
0.00000001
 43
0.00000001
 40
0.0
 40
0.0
 40
0.0
 40
0.0
 40
0.2500000000000001
 40
0.2500000000000001
 40
0.5000000000000002
 40
0.5000000000000002
 40
0.6250000000000001
 40
0.6250000000000001
 40
0.75
 40
0.75
 40
1.0
 40
1.0
 40
1.0
 40
1.0
 10
161.0154460850759
 20
28.31743731601086
 30
0.0
 10
160.3612244316363
 20
28.10919750556222
 30
0.0
 10
159.7027718961252
 20
27.93902421915278
 30
0.0
 10
158.374127271142
 20
27.70430195953693
 30
0.0
 10
157.7038628268544
 20
27.64040398446246
 30
0.0
 10
156.6879270832928
 20
27.63938028237596
 30
0.0
 10
156.346575965193
 20
27.65486682952065
 30
0.0
 10
155.6701596537285
 20
27.71599055097865
 30
0.0
 10
155.3340868846877
 20
27.76151227827367
 30
0.0
 10
154.3315688236267
 20
27.93801164201883
 30
0.0
 10
153.6708109535351
 20
28.10883361837266
 30
0.0
 10
153.0154460850758
 20
28.31743731601118
 30
0.0
  0
SPLINE
  5
174
330
1F
100
AcDbEntity
  8
0
  6
Continuous
 62
     7
370
    25
100
AcDbSpline
210
0.0
220
0.0
230
1.0
 70
     8
 71
     3
 72
    10
 73
     6
 74
     0
 42
0.00000001
 43
0.00000001
 40
0.0
 40
0.0
 40
0.0
 40
0.0
 40
0.5
 40
0.5
 40
1.0
 40
1.0
 40
1.0
 40
1.0
 10
161.0154460850758
 20
28.31743731601133
 30
0.0
 10
161.0898165520014
 20
28.34110955592289
 30
0.0
 10
161.1541221482892
 20
28.35420354585815
 30
0.0
 10
161.2423449360951
 20
28.3542904133196
 30
0.0
 10
161.2654460850758
 20
28.34112062356024
 30
0.0
 10
161.2654460850758
 20
28.31743731601133
 30
0.0
  0
SPLINE
  5
175
330
1F
100
AcDbEntity
  8
0
  6
Continuous
 62
     7
370
    25
100
AcDbSpline
210
0.0
220
0.0
230
1.0
 70
    24
 71
     3
 72
    11
 73
     7
 74
     0
 42
0.00000001
 43
0.00000001
 40
0.0
 40
0.0
 40
0.0
 40
0.0
 40
0.0993971533190297
 40
0.3936344178002079
 40
0.6967613721622178
 40
1.0
 40
1.0
 40
1.0
 40
1.0
 10
161.2654460850758
 20
27.65453039534161
 30
0.0
 10
161.2654460850758
 20
27.65067160926228
 30
0.0
 10
161.2654460850758
 20
27.63538997431566
 30
0.0
 10
161.2654460850758
 20
27.74095546193594
 30
0.0
 10
161.2654460850758
 20
27.96213051369712
 30
0.0
 10
161.2654460850758
 20
28.19898717472324
 30
0.0
 10
161.2654460850758
 20
28.31743731601133
 30
0.0
  0
SPLINE
  5
176
330
1F
100
AcDbEntity
  8
0
  6
Continuous
 62
     7
370
    25
100
AcDbSpline
210
0.0
220
0.0
230
1.0
 70
    24
 71
     3
 72
    10
 73
     6
 74
     0
 42
0.00000001
 43
0.00000001
 40
0.0
 40
0.0
 40
0.0
 40
0.0
 40
0.392022786244314
 40
0.787771845230443
 40
1.0
 40
1.0
 40
1.0
 40
1.0
 10
144.2654460850758
 20
28.31743731601133
 30
0.0
 10
144.2654460850758
 20
28.16900432365912
 30
0.0
 10
144.2654460850758
 20
27.87072744695352
 30
0.0
 10
144.2654460850758
 20
27.65905945956666
 30
0.0
 10
144.2654460850758
 20
27.65514418229874
 30
0.0
 10
144.2654460850758
 20
27.65377746648904
 30
0.0
  0
SPLINE
  5
177
330
1F
100
AcDbEntity
  8
0
  6
Continuous
 62
     7
370
    25
100
AcDbSpline
210
0.0
220
0.0
230
1.0
 70
     8
 71
     3
 72
    12
 73
     8
 74
     0
 42
0.00000001
 43
0.00000001
 40
0.0
 40
0.0
 40
0.0
 40
0.0
 40
0.2499999999999999
 40
0.2499999999999999
 40
0.4999999999999998
 40
0.4999999999999998
 40
1.0
 40
1.0
 40
1.0
 40
1.0
 10
157.1398761778282
 20
32.20600215881887
 30
0.0
 10
157.4690111682214
 20
32.20229367296244
 30
0.0
 10
157.7984733211581
 20
32.18371117012477
 30
0.0
 10
158.4513469392157
 20
32.11884413315862
 30
0.0
 10
158.7757995310928
 20
32.07257857990835
 30
0.0
 10
159.7438599722849
 20
31.89685404960139
 30
0.0
 10
160.3821824565328
 20
31.73055064082463
 30
0.0
 10
161.0154460850758
 20
31.52898180359873
 30
0.0
  0
LINE
  5
178
330
1F
100
AcDbEntity
  8
0
  6
Continuous
 62
     7
370
    25
100
AcDbLine
 10
161.0154460851
 20
28.317437316
 30
0.0
 11
161.0154460851
 21
31.5289818036
 31
0.0
  0
LINE
  5
179
330
1F
100
AcDbEntity
  8
0
  6
Continuous
 62
     7
370
    25
100
AcDbLine
 10
144.5154460851
 20
31.5289818036
 30
0.0
 11
144.5154460851
 21
28.317437316
 31
0.0
  0
SPLINE
  5
17A
330
1F
100
AcDbEntity
  8
0
  6
Continuous
 62
     7
370
    25
100
AcDbSpline
210
0.0
220
0.0
230
1.0
 70
     8
 71
     3
 72
    10
 73
     6
 74
     0
 42
0.00000001
 43
0.00000001
 40
0.0
 40
0.0
 40
0.0
 40
0.0
 40
0.5
 40
0.5
 40
1.0
 40
1.0
 40
1.0
 40
1.0
 10
144.5154460850763
 20
31.52898180359889
 30
0.0
 10
145.1502737908899
 20
31.73104848914981
 30
0.0
 10
145.7895394934657
 20
31.89744126142045
 30
0.0
 10
147.0803544250556
 20
32.13148823529051
 30
0.0
 10
147.7319740605254
 20
32.19857648924933
 30
0.0
 10
148.3910159923455
 20
32.20600215881912
 30
0.0
  0
LINE
  5
17B
330
1F
100
AcDbEntity
  8
0
  6
Continuous
 62
     7
370
    25
100
AcDbLine
 10
144.5154460851
 20
16.4953783435
 30
0.0
 11
161.0154460851
 21
16.4953783435
 31
0.0
  0
LINE
  5
17C
330
1F
100
AcDbEntity
  8
0
  6
Continuous
 62
     7
370
    25
100
AcDbLine
 10
160.5154460851
 20
15.9953783435
 30
0.0
 11
145.0154460851
 21
15.9953783435
 31
0.0
  0
SPLINE
  5
17D
330
1F
100
AcDbEntity
  8
0
  6
Continuous
 62
     7
370
    25
100
AcDbSpline
210
0.0
220
0.0
230
1.0
 70
     8
 71
     3
 72
     8
 73
     4
 74
     0
 42
0.00000001
 43
0.00000001
 40
0.0
 40
0.0
 40
0.0
 40
0.0
 40
1.0
 40
1.0
 40
1.0
 40
1.0
 10
144.2654460850758
 20
31.69046713187975
 30
0.0
 10
144.7872522363776
 20
31.9630572675491
 30
0.0
 10
145.3109057052338
 20
32.2322097686705
 30
0.0
 10
145.8372428548003
 20
32.49537834345374
 30
0.0
  0
SPLINE
  5
17E
330
1F
100
AcDbEntity
  8
0
  6
Continuous
 62
     7
370
    25
100
AcDbSpline
210
0.0
220
0.0
230
1.0
 70
     8
 71
     3
 72
    10
 73
     6
 74
     0
 42
0.00000001
 43
0.00000001
 40
0.0
 40
0.0
 40
0.0
 40
0.0
 40
0.5
 40
0.5
 40
1.0
 40
1.0
 40
1.0
 40
1.0
 10
144.2654460850758
 20
31.52898180359871
 30
0.0
 10
144.2654460850758
 20
31.5053064091743
 30
0.0
 10
144.2882385344057
 20
31.49221529928967
 30
0.0
 10
144.3761812384989
 20
31.49212897800145
 30
0.0
 10
144.4410390121731
 20
31.50529791194539
 30
0.0
 10
144.5154460850765
 20
31.52898180359895
 30
0.0
  0
SPLINE
  5
17F
330
1F
100
AcDbEntity
  8
0
  6
Continuous
 62
     7
370
    25
100
AcDbSpline
210
0.0
220
0.0
230
1.0
 70
    24
 71
     3
 72
     8
 73
     4
 74
     0
 42
0.00000001
 43
0.00000001
 40
0.0
 40
0.0
 40
0.0
 40
0.0
 40
1.0
 40
1.0
 40
1.0
 40
1.0
 10
144.2654460850758
 20
31.69046713187975
 30
0.0
 10
144.2654460850758
 20
31.63957234217893
 30
0.0
 10
144.2654460850758
 20
31.58563849281749
 30
0.0
 10
144.2654460850758
 20
31.52898180359873
 30
0.0
  0
SPLINE
  5
180
330
1F
100
AcDbEntity
  8
0
  6
Continuous
 62
     7
370
    25
100
AcDbSpline
210
0.0
220
0.0
230
1.0
 70
     8
 71
     3
 72
     8
 73
     4
 74
     0
 42
0.00000001
 43
0.00000001
 40
0.0
 40
0.0
 40
0.0
 40
0.0
 40
1.0
 40
1.0
 40
1.0
 40
1.0
 10
159.6936493153513
 20
32.49537834345373
 30
0.0
 10
160.2200701765605
 20
32.23216791284913
 30
0.0
 10
160.7436146332742
 20
31.96307048446242
 30
0.0
 10
161.2654460850758
 20
31.69046713187977
 30
0.0
  0
SPLINE
  5
181
330
1F
100
AcDbEntity
  8
0
  6
Continuous
 62
     7
370
    25
100
AcDbSpline
210
0.0
220
0.0
230
1.0
 70
     8
 71
     3
 72
    10
 73
     6
 74
     0
 42
0.00000001
 43
0.00000001
 40
0.0
 40
0.0
 40
0.0
 40
0.0
 40
0.5
 40
0.5
 40
1.0
 40
1.0
 40
1.0
 40
1.0
 10
161.0154460850758
 20
31.52898180359873
 30
0.0
 10
161.0898264624531
 20
31.50530640917435
 30
0.0
 10
161.1541271012389
 20
31.49221529928971
 30
0.0
 10
161.2423427860219
 20
31.49212897800142
 30
0.0
 10
161.2654460850758
 20
31.50529791194526
 30
0.0
 10
161.2654460850758
 20
31.52898180359873
 30
0.0
  0
SPLINE
  5
182
330
1F
100
AcDbEntity
  8
0
  6
Continuous
 62
     7
370
    25
100
AcDbSpline
210
0.0
220
0.0
230
1.0
 70
    24
 71
     3
 72
     8
 73
     4
 74
     0
 42
0.00000001
 43
0.00000001
 40
0.0
 40
0.0
 40
0.0
 40
0.0
 40
1.0
 40
1.0
 40
1.0
 40
1.0
 10
161.2654460850758
 20
31.69046713187975
 30
0.0
 10
161.2654460850758
 20
31.63957234217893
 30
0.0
 10
161.2654460850758
 20
31.58563849281749
 30
0.0
 10
161.2654460850758
 20
31.52898180359873
 30
0.0
  0
LINE
  5
183
330
1F
100
AcDbEntity
  8
0
  6
Continuous
 62
     7
370
    25
100
AcDbLine
 10
145.2654460851
 20
32.4953783435
 30
0.0
 11
147.8898017381
 21
32.4953783435
 31
0.0
  0
LINE
  5
184
330
1F
100
AcDbEntity
  8
0
  6
Continuous
 62
     7
370
    25
100
AcDbLine
 10
145.2654460851
 20
32.4953783435
 30
0.0
 11
145.2654460851
 21
34.0105507862
 31
0.0
  0
LINE
  5
185
330
1F
100
AcDbEntity
  8
0
  6
Continuous
 62
     7
370
    25
100
AcDbLine
 10
160.2654460851
 20
34.0105507862
 30
0.0
 11
160.2654460851
 21
32.4953783435
 31
0.0
  0
LINE
  5
186
330
1F
100
AcDbEntity
  8
0
  6
Continuous
 62
     7
370
    25
100
AcDbLine
 10
157.6410904321
 20
32.4953783435
 30
0.0
 11
160.2654460851
 21
32.4953783435
 31
0.0
  0
LINE
  5
187
330
1F
100
AcDbEntity
  8
0
  6
Continuous
 62
     7
370
    25
100
AcDbLine
 10
144.2654460851
 20
28.317437316
 30
0.0
 11
144.2654460851
 21
31.5289818036
 31
0.0
  0
LINE
  5
188
330
1F
100
AcDbEntity
  8
0
  6
Continuous
 62
     7
370
    25
100
AcDbLine
 10
161.2654460851
 20
31.5289818036
 30
0.0
 11
161.2654460851
 21
28.317437316
 31
0.0
  0
LINE
  5
189
330
1F
100
AcDbEntity
  8
0
  6
Continuous
 62
     7
370
    25
100
AcDbLine
 10
144.2654460851
 20
31.6904671319
 30
0.0
 11
144.2654460851
 21
34.8477880322
 31
0.0
  0
LINE
  5
18A
330
1F
100
AcDbEntity
  8
0
  6
Continuous
 62
     7
370
    25
100
AcDbLine
 10
161.2654460851
 20
31.6904671319
 30
0.0
 11
161.2654460851
 21
34.8477880322
 31
0.0
  0
LINE
  5
18B
330
1F
100
AcDbEntity
  8
0
  6
Continuous
 62
     7
370
    25
100
AcDbLine
 10
147.5154460851
 20
66.8453783435
 30
0.0
 11
149.2654460851
 21
66.8453783435
 31
0.0
  0
LINE
  5
18C
330
1F
100
AcDbEntity
  8
0
  6
Continuous
 62
     7
370
    25
100
AcDbLine
 10
156.2654460851
 20
66.8453783435
 30
0.0
 11
158.0154460851
 21
66.8453783435
 31
0.0
  0
LINE
  5
18D
330
1F
100
AcDbEntity
  8
0
  6
Continuous
 62
     7
370
    25
100
AcDbLine
 10
147.2654460851
 20
65.9953783435
 30
0.0
 11
149.2654460851
 21
65.9953783435
 31
0.0
  0
LINE
  5
18E
330
1F
100
AcDbEntity
  8
0
  6
Continuous
 62
     7
370
    25
100
AcDbLine
 10
156.2654460851
 20
65.9953783435
 30
0.0
 11
158.2654460851
 21
65.9953783435
 31
0.0
  0
LINE
  5
18F
330
1F
100
AcDbEntity
  8
0
  6
Continuous
 62
     7
370
    25
100
AcDbLine
 10
149.2654460851
 20
67.9953783435
 30
0.0
 11
156.2654460851
 21
67.9953783435
 31
0.0
  0
LINE
  5
190
330
1F
100
AcDbEntity
  8
0
  6
Continuous
 62
     7
370
    25
100
AcDbLine
 10
156.2654460851
 20
60.9953783435
 30
0.0
 11
156.2654460851
 21
67.9953783435
 31
0.0
  0
LINE
  5
191
330
1F
100
AcDbEntity
  8
0
  6
Continuous
 62
     7
370
    25
100
AcDbLine
 10
149.2654460851
 20
60.9953783435
 30
0.0
 11
156.2654460851
 21
60.9953783435
 31
0.0
  0
LINE
  5
192
330
1F
100
AcDbEntity
  8
0
  6
Continuous
 62
     7
370
    25
100
AcDbLine
 10
149.2654460851
 20
67.9953783435
 30
0.0
 11
149.2654460851
 21
60.9953783435
 31
0.0
  0
LINE
  5
193
330
1F
100
AcDbEntity
  8
0
  6
Continuous
 62
     7
370
    25
100
AcDbLine
 10
156.2654460851
 20
55.9953783435
 30
0.0
 11
149.2654460851
 21
55.9953783435
 31
0.0
  0
LINE
  5
194
330
1F
100
AcDbEntity
  8
0
  6
Continuous
 62
     7
370
    25
100
AcDbLine
 10
156.2654460851
 20
60.9953783435
 30
0.0
 11
156.2654460851
 21
55.9953783435
 31
0.0
  0
LINE
  5
195
330
1F
100
AcDbEntity
  8
0
  6
Continuous
 62
     7
370
    25
100
AcDbLine
 10
149.2654460851
 20
55.9953783435
 30
0.0
 11
149.2654460851
 21
60.9953783435
 31
0.0
  0
SPLINE
  5
196
330
1F
100
AcDbEntity
  8
0
  6
Continuous
 62
     7
370
    25
100
AcDbSpline
210
0.0
220
0.0
230
1.0
 70
     8
 71
     3
 72
    11
 73
     7
 74
     0
 42
0.00000001
 43
0.00000001
 40
0.0
 40
0.0
 40
0.0
 40
0.0
 40
0.2488466353289361
 40
0.4976946020535204
 40
0.7488461225871278
 40
1.0
 40
1.0
 40
1.0
 40
1.0
 10
156.2654460850758
 20
55.74755403642928
 30
0.0
 10
156.2701376210152
 20
55.67802965993565
 30
0.0
 10
156.279520717995
 20
55.53898053497447
 30
0.0
 10
156.3559426014818
 20
55.23865179684919
 30
0.0
 10
156.4736687294456
 20
54.87674217859404
 30
0.0
 10
156.5919776527786
 20
54.57515022152948
 30
0.0
 10
156.6511323920052
 20
54.42435353544376
 30
0.0
  0
LINE
  5
197
330
1F
100
AcDbEntity
  8
0
  6
Continuous
 62
     7
370
    25
100
AcDbLine
 10
156.651132392
 20
54.4243535354
 30
0.0
 11
148.8797597781
 21
54.4243535354
 31
0.0
  0
SPLINE
  5
198
330
1F
100
AcDbEntity
  8
0
  6
Continuous
 62
     7
370
    25
100
AcDbSpline
210
0.0
220
0.0
230
1.0
 70
     8
 71
     3
 72
    11
 73
     7
 74
     0
 42
0.00000001
 43
0.00000001
 40
0.0
 40
0.0
 40
0.0
 40
0.0
 40
0.2488607147078904
 40
0.4977191536447657
 40
0.7488602698858827
 40
0.9999999999999999
 40
0.9999999999999999
 40
0.9999999999999999
 40
0.9999999999999999
 10
148.8797597781465
 20
54.42435353544376
 30
0.0
 10
148.9384132698327
 20
54.57383247233189
 30
0.0
 10
149.0557197168334
 20
54.87278897915942
 30
0.0
 10
149.1737555233663
 20
55.23459295261814
 30
0.0
 10
149.2511102046465
 20
55.53686759585764
 30
0.0
 10
149.2606674670576
 20
55.67732535211087
 30
0.0
 10
149.2654460850758
 20
55.74755403642928
 30
0.0
  0
LINE
  5
199
330
1F
100
AcDbEntity
  8
0
  6
Continuous
 62
     7
370
    25
100
AcDbLine
 10
156.2654460851
 20
55.9953783435
 30
0.0
 11
156.2654460851
 21
55.7475540364
 31
0.0
  0
LINE
  5
19A
330
1F
100
AcDbEntity
  8
0
  6
Continuous
 62
     7
370
    25
100
AcDbLine
 10
149.2654460851
 20
55.7475540364
 30
0.0
 11
149.2654460851
 21
55.9953783435
 31
0.0
  0
SPLINE
  5
19B
330
1F
100
AcDbEntity
  8
0
  6
Continuous
 62
     7
370
    25
100
AcDbSpline
210
0.0
220
0.0
230
1.0
 70
     8
 71
     3
 72
    16
 73
    12
 74
     0
 42
0.00000001
 43
0.00000001
 40
0.0
 40
0.0
 40
0.0
 40
0.0
 40
0.0155634360124117
 40
0.0359329243097674
 40
0.0739120889290614
 40
0.1570057548437684
 40
0.2406581385754913
 40
0.4592958294318596
 40
0.6783839187935417
 40
0.8974954344294845
 40
1.0
 40
1.0
 40
1.0
 40
1.0
 10
146.1057238628536
 20
49.99537834345383
 30
0.0
 10
146.1194175298669
 20
50.000571715233
 30
0.0
 10
146.1510335239135
 20
50.01256219310078
 30
0.0
 10
146.2065132142236
 20
50.13088811709773
 30
0.0
 10
146.2851140247141
 20
50.44213942454669
 30
0.0
 10
146.3644542113432
 20
50.96778692591175
 30
0.0
 10
146.4696819194464
 20
52.00633309018189
 30
0.0
 10
146.5846753206656
 20
53.44140713252801
 30
0.0
 10
146.6870753210805
 20
55.27965923396745
 30
0.0
 10
146.7568242009609
 20
56.80084208278689
 30
0.0
 10
146.7962828203897
 20
57.7066741235834
 30
0.0
 10
146.8088589597027
 20
57.99537834345136
 30
0.0
  0
SPLINE
  5
19C
330
1F
100
AcDbEntity
  8
0
  6
Continuous
 62
     7
370
    25
100
AcDbSpline
210
0.0
220
0.0
230
1.0
 70
     8
 71
     3
 72
     9
 73
     5
 74
     0
 42
0.00000001
 43
0.00000001
 40
0.0
 40
0.0
 40
0.0
 40
0.0
 40
0.4983247250277991
 40
1.0
 40
1.0
 40
1.0
 40
1.0
 10
146.8088589597027
 20
57.99537834345136
 30
0.0
 10
146.7758564205442
 20
58.16917045731043
 30
0.0
 10
146.7096294454393
 20
58.51792319850621
 30
0.0
 10
146.6290985856535
 20
58.83237115592043
 30
0.0
 10
146.5886982444266
 20
58.99012192142065
 30
0.0
  0
ELLIPSE
  5
19D
330
1F
100
AcDbEntity
  8
0
  6
Continuous
 62
     7
370
    25
100
AcDbEllipse
 10
84.2654460851
 20
56.3432527758
 30
0.0
 11
65.00000000000001
 21
0.0
 31
0.0
210
0.0
220
0.0
230
1.0
 40
0.2713992096
 41
6.084179739699223
 42
6.174194364446292
  0
SPLINE
  5
19E
330
1F
100
AcDbEntity
  8
0
  6
Continuous
 62
     7
370
    25
100
AcDbSpline
210
0.0
220
0.0
230
1.0
 70
     8
 71
     3
 72
    13
 73
     9
 74
     0
 42
0.00000001
 43
0.00000001
 40
0.0
 40
0.0
 40
0.0
 40
0.0
 40
0.1610294006389558
 40
0.3266880383557516
 40
0.4877296220820636
 40
0.6535536198224136
 40
0.8237602734841889
 40
1.0
 40
1.0
 40
1.0
 40
1.0
 10
147.9825837549712
 20
52.8557320949609
 30
0.0
 10
147.9387799875389
 20
52.78633520038365
 30
0.0
 10
147.8499131917966
 20
52.6455464048751
 30
0.0
 10
147.7208931731246
 20
52.29942158716745
 30
0.0
 10
147.5998830773573
 20
51.86021494411541
 30
0.0
 10
147.4932020942326
 20
51.32661310717582
 30
0.0
 10
147.4025348068768
 20
50.70278680047613
 30
0.0
 10
147.3657159979801
 20
50.23390290227414
 30
0.0
 10
147.3469860092087
 20
49.99537834345373
 30
0.0
  0
LINE
  5
19F
330
1F
100
AcDbEntity
  8
0
  6
Continuous
 62
     7
370
    25
100
AcDbLine
 10
147.3469860092
 20
49.9953783435
 30
0.0
 11
146.1057238629
 21
49.9953783435
 31
0.0
  0
LINE
  5
1A0
330
1F
100
AcDbEntity
  8
0
  6
Continuous
 62
     7
370
    25
100
AcDbLine
 10
146.5886982444
 20
58.9901219214
 30
0.0
 11
149.2654460851
 21
58.9901219214
 31
0.0
  0
SPLINE
  5
1A1
330
1F
100
AcDbEntity
  8
0
  6
Continuous
 62
     7
370
    25
100
AcDbSpline
210
0.0
220
0.0
230
1.0
 70
     8
 71
     3
 72
    17
 73
    13
 74
     0
 42
0.00000001
 43
0.00000001
 40
0.0
 40
0.0
 40
0.0
 40
0.0
 40
0.3241697628029873
 40
0.542275846362072
 40
0.689509052693928
 40
0.7894036290694506
 40
0.8577090008137827
 40
0.9049823971474139
 40
0.9551712229700868
 40
0.9753097783197817
 40
0.9919572060138849
 40
1.0
 40
1.0
 40
1.0
 40
1.0
 10
158.7220332104489
 20
57.99537834345137
 30
0.0
 10
158.7626836491756
 20
57.08276484084569
 30
0.0
 10
158.8306842883313
 20
55.55613183458435
 30
0.0
 10
158.9421171876477
 20
53.62935893230338
 30
0.0
 10
159.0346218477062
 20
52.34172346137061
 30
0.0
 10
159.1125233040236
 20
51.48257149464887
 30
0.0
 10
159.1785758034459
 20
50.90910360627146
 30
0.0
 10
159.2419324108084
 20
50.4875714522415
 30
0.0
 10
159.3000588785023
 20
50.20707890944606
 30
0.0
 10
159.359400706825
 20
50.05153024086541
 30
0.0
 10
159.3964067754478
 20
50.00091964166791
 30
0.0
 10
159.4181013423182
 20
49.99673988986327
 30
0.0
 10
159.425168307298
 20
49.9953783434538
 30
0.0
  0
LINE
  5
1A2
330
1F
100
AcDbEntity
  8
0
  6
Continuous
 62
     7
370
    25
100
AcDbLine
 10
159.4251683073
 20
49.9953783435
 30
0.0
 11
158.1839061609
 21
49.9953783435
 31
0.0
  0
SPLINE
  5
1A3
330
1F
100
AcDbEntity
  8
0
  6
Continuous
 62
     7
370
    25
100
AcDbSpline
210
0.0
220
0.0
230
1.0
 70
     8
 71
     3
 72
    14
 73
    10
 74
     0
 42
0.00000001
 43
0.00000001
 40
0.0
 40
0.0
 40
0.0
 40
0.0
 40
0.1576095309202821
 40
0.3152382602707094
 40
0.4726926441579496
 40
0.6301650083177254
 40
0.7907313191165902
 40
0.9513050385928076
 40
1.0
 40
1.0
 40
1.0
 40
1.0
 10
158.1839061609429
 20
49.99537834345374
 30
0.0
 10
158.1674008241004
 20
50.20888013193114
 30
0.0
 10
158.1343881398991
 20
50.63590971555665
 30
0.0
 10
158.0545844499871
 20
51.22115679441296
 30
0.0
 10
157.9567970425009
 20
51.74331133523538
 30
0.0
 10
157.8432072028189
 20
52.19228946265525
 30
0.0
 10
157.7186651037872
 20
52.55157119446163
 30
0.0
 10
157.6183077630108
 20
52.75613737356282
 30
0.0
 10
157.5615219653956
 20
52.83693192191411
 30
0.0
 10
157.5483084151803
 20
52.85573209496089
 30
0.0
  0
ELLIPSE
  5
1A4
330
1F
100
AcDbEntity
  8
0
  6
Continuous
 62
     7
370
    25
100
AcDbEllipse
 10
221.2654460851
 20
56.3432527758
 30
0.0
 11
65.00000000000009
 21
0.0
 31
0.0
210
0.0
220
0.0
230
1.0
 40
0.2713992096
 41
3.25058359632319
 42
3.340598221070255
  0
LINE
  5
1A5
330
1F
100
AcDbEntity
  8
0
  6
Continuous
 62
     7
370
    25
100
AcDbLine
 10
156.2654460851
 20
58.9901219214
 30
0.0
 11
158.9421939257
 21
58.9901219214
 31
0.0
  0
SPLINE
  5
1A6
330
1F
100
AcDbEntity
  8
0
  6
Continuous
 62
     7
370
    25
100
AcDbSpline
210
0.0
220
0.0
230
1.0
 70
     8
 71
     3
 72
     9
 73
     5
 74
     0
 42
0.00000001
 43
0.00000001
 40
0.0
 40
0.0
 40
0.0
 40
0.0
 40
0.4978401817595073
 40
1.0
 40
1.0
 40
1.0
 40
1.0
 10
158.9421939257249
 20
58.99012192142066
 30
0.0
 10
158.9020907612635
 20
58.83361073872806
 30
0.0
 10
158.8215364670729
 20
58.51923036440905
 30
0.0
 10
158.7552963404127
 20
58.17049781638278
 30
0.0
 10
158.7220332104489
 20
57.99537834345136
 30
0.0
  0
LINE
  5
1A7
330
1F
100
AcDbEntity
  8
0
  6
Continuous
 62
     7
370
    25
100
AcDbLine
 10
147.982583755
 20
52.855732095
 30
0.0
 11
157.5483084152
 21
52.855732095
 31
0.0
  0
SPLINE
  5
1A8
330
1F
100
AcDbEntity
  8
0
  6
Continuous
 62
     7
370
    25
100
AcDbSpline
210
0.0
220
0.0
230
1.0
 70
     8
 71
     3
 72
    20
 73
    16
 74
     0
 42
0.00000001
 43
0.00000001
 40
0.0
 40
0.0
 40
0.0
 40
0.0
 40
0.0541983873786813
 40
0.1084549937743861
 40
0.1748676008326813
 40
0.2413639405081385
 40
0.3280943358185923
 40
0.4149092203660895
 40
0.5031829151074113
 40
0.5914553293759743
 40
0.690663243287035
 40
0.7897037236706678
 40
0.8506104062320281
 40
0.9114495521941833
 40
1.0
 40
1.0
 40
1.0
 40
1.0
 10
155.3635222964291
 20
49.99537834345374
 30
0.0
 10
155.3098049539032
 20
50.09010464726546
 30
0.0
 10
155.2023125665648
 20
50.2796590083277
 30
0.0
 10
154.9658974577603
 20
50.53738243574643
 30
0.0
 10
154.6708304591859
 20
50.76648099209784
 30
0.0
 10
154.281912617726
 20
50.97486200993227
 30
0.0
 10
153.8199207022332
 20
51.13388285176227
 30
0.0
 10
153.2907128319697
 20
51.23266442675916
 30
0.0
 10
152.7464929872675
 20
51.2638752629364
 30
0.0
 10
152.177078834152
 20
51.22637143976638
 30
0.0
 10
151.6003951069726
 20
51.10742841275232
 30
0.0
 10
151.1100672088276
 20
50.91366347901288
 30
0.0
 10
150.7371973448785
 20
50.67814978795944
 30
0.0
 10
150.4170549000749
 20
50.40437343327113
 30
0.0
 10
150.2602912700023
 20
50.14758769045631
 30
0.0
 10
150.1673698737225
 20
49.99537834345374
 30
0.0
  0
LINE
  5
1A9
330
1F
100
AcDbEntity
  8
0
  6
Continuous
 62
     7
370
    25
100
AcDbLine
 10
150.1673698737
 20
49.9953783435
 30
0.0
 11
147.3469860092
 21
49.9953783435
 31
0.0
  0
LINE
  5
1AA
330
1F
100
AcDbEntity
  8
0
  6
Continuous
 62
     7
370
    25
100
AcDbLine
 10
158.1839061609
 20
49.9953783435
 30
0.0
 11
155.3635222964
 21
49.9953783435
 31
0.0
  0
LINE
  5
1AB
330
1F
100
AcDbEntity
  8
0
  6
Continuous
 62
     7
370
    25
100
AcDbLine
 10
155.3635222964
 20
49.9953783435
 30
0.0
 11
150.1673698737
 21
49.9953783435
 31
0.0
  0
LINE
  5
1AC
330
1F
100
AcDbEntity
  8
0
  6
Continuous
 62
     7
370
    25
100
AcDbLine
 10
158.7220332104
 20
57.9953783435
 30
0.0
 11
160.2154460851
 21
57.9953783434
 31
0.0
  0
LINE
  5
1AD
330
1F
100
AcDbEntity
  8
0
  6
Continuous
 62
     7
370
    25
100
AcDbLine
 10
145.3154460851
 20
57.9953783434
 30
0.0
 11
146.8088589597
 21
57.9953783435
 31
0.0
  0
SPLINE
  5
1AE
330
1F
100
AcDbEntity
  8
0
  6
Continuous
 62
     7
370
    25
100
AcDbSpline
210
0.0
220
0.0
230
1.0
 70
     8
 71
     3
 72
     9
 73
     5
 74
     0
 42
0.00000001
 43
0.00000001
 40
0.0
 40
0.0
 40
0.0
 40
0.0
 40
0.4875141023677128
 40
0.9999999999999999
 40
0.9999999999999999
 40
0.9999999999999999
 40
0.9999999999999999
 10
159.425168307298
 20
49.9953783434538
 30
0.0
 10
159.4336944188338
 20
49.9971056894255
 30
0.0
 10
159.4511833724751
 20
50.00064886071698
 30
0.0
 10
159.4675050763615
 20
50.02216734666629
 30
0.0
 10
159.4758697194286
 20
50.03319526725372
 30
0.0
  0
SPLINE
  5
1AF
330
1F
100
AcDbEntity
  8
0
  6
Continuous
 62
     7
370
    25
100
AcDbSpline
210
0.0
220
0.0
230
1.0
 70
     8
 71
     3
 72
     9
 73
     5
 74
     0
 42
0.00000001
 43
0.00000001
 40
0.0
 40
0.0
 40
0.0
 40
0.0
 40
0.5124861829376838
 40
0.9999999999999999
 40
0.9999999999999999
 40
0.9999999999999999
 40
0.9999999999999999
 10
146.0550224815892
 20
50.03319522139395
 30
0.0
 10
146.0633871247129
 20
50.02216730844277
 30
0.0
 10
146.0797088196231
 20
50.00064884937337
 30
0.0
 10
146.0971977618649
 20
49.99710568502822
 30
0.0
 10
146.1057238628536
 20
49.99537834345383
 30
0.0
  0
LINE
  5
1B0
330
1F
100
AcDbEntity
  8
0
  6
Continuous
 62
     7
370
    25
100
AcDbLine
 10
159.4736500176
 20
49.9953783435
 30
0.0
 11
159.7654460851
 21
49.9953783435
 31
0.0
  0
LINE
  5
1B1
330
1F
100
AcDbEntity
  8
0
  6
Continuous
 62
     7
370
    25
100
AcDbLine
 10
145.7654460851
 20
49.9953783435
 30
0.0
 11
146.0572421526
 21
49.9953783435
 31
0.0
  0
LINE
  5
1B2
330
1F
100
AcDbEntity
  8
0
  6
Continuous
 62
     7
370
    25
100
AcDbLine
 10
159.4758697194
 20
50.0331952673
 30
0.0
 11
159.4736500176
 21
49.9953783435
 31
0.0
  0
LINE
  5
1B3
330
1F
100
AcDbEntity
  8
0
  6
Continuous
 62
     7
370
    25
100
AcDbLine
 10
159.4736500176
 20
49.9953783435
 30
0.0
 11
159.4251683073
 21
49.9953783435
 31
0.0
  0
LINE
  5
1B4
330
1F
100
AcDbEntity
  8
0
  6
Continuous
 62
     7
370
    25
100
AcDbLine
 10
146.0572421526
 20
49.9953783435
 30
0.0
 11
146.0550224816
 21
50.0331952214
 31
0.0
  0
LINE
  5
1B5
330
1F
100
AcDbEntity
  8
0
  6
Continuous
 62
     7
370
    25
100
AcDbLine
 10
146.1057238629
 20
49.9953783435
 30
0.0
 11
146.0572421526
 21
49.9953783435
 31
0.0
  0
SPLINE
  5
1B6
330
1F
100
AcDbEntity
  8
0
  6
Continuous
 62
     7
370
    25
100
AcDbSpline
210
0.0
220
0.0
230
1.0
 70
     8
 71
     3
 72
    19
 73
    15
 74
     0
 42
0.00000001
 43
0.00000001
 40
0.0
 40
0.0
 40
0.0
 40
0.0
 40
0.016778041248912
 40
0.0954945106984317
 40
0.1743156228373992
 40
0.2799343977563086
 40
0.3857488057018543
 40
0.4988314051139331
 40
0.6118954897719421
 40
0.707074624140003
 40
0.802179557694156
 40
0.8927562002949988
 40
0.9832581978076606
 40
1.0
 40
1.0
 40
1.0
 40
1.0
 10
146.8730936891029
 20
46.03478708449732
 30
0.0
 10
146.8705671958484
 20
46.03165122507892
 30
0.0
 10
146.8561873148156
 20
46.0138030533921
 30
0.0
 10
146.9196326438938
 20
46.09286604266143
 30
0.0
 10
147.0747388893677
 20
46.27735134032528
 30
0.0
 10
147.3630363110457
 20
46.59733014431778
 30
0.0
 10
147.7954702636816
 20
47.02177845380676
 30
0.0
 10
148.3499030093053
 20
47.48444302079903
 30
0.0
 10
148.992798566377
 20
47.92492301893756
 30
0.0
 10
149.6922354908268
 20
48.30298395185392
 30
0.0
 10
150.4142358109979
 20
48.60620748198463
 30
0.0
 10
151.1919552002204
 20
48.82460660010184
 30
0.0
 10
151.7800036729908
 20
48.9460063598952
 30
0.0
 10
152.1095938515044
 20
48.95930618724356
 30
0.0
 10
152.1610460901269
 20
48.96138241989544
 30
0.0
  0
SPLINE
  5
1B7
330
1F
100
AcDbEntity
  8
0
  6
Continuous
 62
     7
370
    25
100
AcDbSpline
210
0.0
220
0.0
230
1.0
 70
     8
 71
     3
 72
    19
 73
    15
 74
     0
 42
0.00000001
 43
0.00000001
 40
0.0
 40
0.0
 40
0.0
 40
0.0
 40
0.0313544025566127
 40
0.097397532909852
 40
0.1974118354625919
 40
0.2975384042313398
 40
0.4181269220894444
 40
0.5388118834132369
 40
0.656443839608883
 40
0.7739094001817327
 40
0.8504445573560923
 40
0.9268790042774937
 40
0.9967464374857976
 40
1.0
 40
1.0
 40
1.0
 40
1.0
 10
153.3776432950169
 20
48.95688069572077
 30
0.0
 10
153.4735152166399
 20
48.95166065618782
 30
0.0
 10
153.7713263015281
 20
48.93544542225752
 30
0.0
 10
154.354211703457
 20
48.8210729574103
 30
0.0
 10
155.1034560420941
 20
48.61180045169467
 30
0.0
 10
155.923920767019
 20
48.26747856022757
 30
0.0
 10
156.6910674568614
 20
47.8318795145736
 30
0.0
 10
157.3723580375748
 20
47.33648063702122
 30
0.0
 10
157.9230681837433
 20
46.84608454123051
 30
0.0
 10
158.2918055731124
 20
46.46312872065119
 30
0.0
 10
158.5198313244465
 20
46.20237630506756
 30
0.0
 10
158.6309359215657
 20
46.06792107946075
 30
0.0
 10
158.6749130181477
 20
46.01402214315899
 30
0.0
 10
158.6639900332175
 20
46.02735311712734
 30
0.0
 10
158.6635040084587
 20
46.02794628680115
 30
0.0
  0
LINE
  5
1B8
330
1F
100
AcDbEntity
  8
0
  6
Continuous
 62
     7
370
    25
100
AcDbLine
 10
149.2654460851
 20
66.5953783435
 30
0.0
 11
147.2654460851
 21
66.5953783435
 31
0.0
  0
LINE
  5
1B9
330
1F
100
AcDbEntity
  8
0
  6
Continuous
 62
     7
370
    25
100
AcDbLine
 10
158.2654460851
 20
66.5953783435
 30
0.0
 11
156.2654460851
 21
66.5953783435
 31
0.0
  0
INSERT
  5
1C5
330
1F
100
AcDbEntity
  8
FORMAT
100
AcDbBlockReference
  2
SW_CENTERMARKSYMBOL_0
 10
152.7654460851
 20
39.4953783435
 30
0.0
  0
LINE
  5
1C6
330
1F
100
AcDbEntity
  8
0
  6
Continuous
 62
     7
370
    25
100
AcDbLine
 10
63.08295913
 20
100.4538992887
 30
0.0
 11
62.58295913
 21
99.9538992887
 31
0.0
  0
LINE
  5
1C7
330
1F
100
AcDbEntity
  8
0
  6
Continuous
 62
     7
370
    25
100
AcDbLine
 10
62.58295913
 20
84.9538992887
 30
0.0
 11
63.08295913
 21
84.4538992887
 31
0.0
  0
LINE
  5
1C8
330
1F
100
AcDbEntity
  8
0
  6
Continuous
 62
     7
370
    25
100
AcDbLine
 10
74.18295913
 20
100.4538992887
 30
0.0
 11
63.08295913
 21
100.4538992887
 31
0.0
  0
LINE
  5
1C9
330
1F
100
AcDbEntity
  8
0
  6
Continuous
 62
     7
370
    25
100
AcDbLine
 10
63.08295913
 20
84.4538992887
 30
0.0
 11
74.18295913
 21
84.4538992887
 31
0.0
  0
LINE
  5
1CA
330
1F
100
AcDbEntity
  8
0
  6
Continuous
 62
     7
370
    25
100
AcDbLine
 10
97.5386215627
 20
83.9538992887
 30
0.0
 11
97.68295913
 21
84.2038992887
 31
0.0
  0
LINE
  5
1CB
330
1F
100
AcDbEntity
  8
0
  6
Continuous
 62
     7
370
    25
100
AcDbLine
 10
97.68295913
 20
100.7038992887
 30
0.0
 11
97.5386215627
 21
100.9538992887
 31
0.0
  0
LINE
  5
1CC
330
1F
100
AcDbEntity
  8
0
  6
Continuous
 62
     7
370
    25
100
AcDbLine
 10
63.08295913
 20
100.4538992887
 30
0.0
 11
63.08295913
 21
84.4538992887
 31
0.0
  0
LINE
  5
1CD
330
1F
100
AcDbEntity
  8
0
  6
Continuous
 62
     7
370
    25
100
AcDbLine
 10
62.58295913
 20
84.9538992887
 30
0.0
 11
62.58295913
 21
99.9538992887
 31
0.0
  0
SPLINE
  5
1CE
330
1F
100
AcDbEntity
  8
0
  6
Continuous
 62
     7
370
    25
100
AcDbSpline
210
0.0
220
0.0
230
1.0
 70
    24
 71
     3
 72
    10
 73
     6
 74
     0
 42
0.00000001
 43
0.00000001
 40
0.0
 40
0.0
 40
0.0
 40
0.0
 40
0.3696318139973482
 40
0.742309293530189
 40
1.0
 40
1.0
 40
1.0
 40
1.0
 10
96.8609001574611
 20
83.95389928869052
 30
0.0
 10
97.00210274301068
 20
83.95389928869052
 30
0.0
 10
97.28567138498019
 20
83.95389928869052
 30
0.0
 10
97.5048055962514
 20
83.95389928869052
 30
0.0
 10
97.52719652321076
 20
83.95389928869052
 30
0.0
 10
97.53634979889122
 20
83.95389928869052
 30
0.0
  0
SPLINE
  5
1CF
330
1F
100
AcDbEntity
  8
0
  6
Continuous
 62
     7
370
    25
100
AcDbSpline
210
0.0
220
0.0
230
1.0
 70
     8
 71
     3
 72
    10
 73
     6
 74
     0
 42
0.00000001
 43
0.00000001
 40
0.0
 40
0.0
 40
0.0
 40
0.0
 40
0.5
 40
0.5
 40
1.0
 40
1.0
 40
1.0
 40
1.0
 10
96.8609001574611
 20
84.20389928869052
 30
0.0
 10
96.83722476303672
 20
84.1295189113132
 30
0.0
 10
96.82413365315206
 20
84.06521827252743
 30
0.0
 10
96.8240473318638
 20
83.9770025877445
 30
0.0
 10
96.83721626580763
 20
83.95389928869052
 30
0.0
 10
96.8609001574611
 20
83.95389928869052
 30
0.0
  0
SPLINE
  5
1D0
330
1F
100
AcDbEntity
  8
0
  6
Continuous
 62
     7
370
    25
100
AcDbSpline
210
0.0
220
0.0
230
1.0
 70
     8
 71
     3
 72
    12
 73
     8
 74
     0
 42
0.00000001
 43
0.00000001
 40
0.0
 40
0.0
 40
0.0
 40
0.0
 40
0.0532270656793628
 40
0.2879789106229053
 40
0.522759911606815
 40
0.7613604225859553
 40
1.0
 40
1.0
 40
1.0
 40
1.0
 10
97.52968575739744
 20
88.11260324549517
 30
0.0
 10
97.53183108734125
 20
88.04229333582211
 30
0.0
 10
97.54343814800217
 20
87.6618896645844
 30
0.0
 10
97.47766443058876
 20
86.97178461186041
 30
0.0
 10
97.34400368251475
 20
86.04357236690144
 30
0.0
 10
97.13706584290658
 20
85.1190644049926
 30
0.0
 10
96.95296040951011
 20
84.508970974687
 30
0.0
 10
96.8609001574611
 20
84.20389928869052
 30
0.0
  0
SPLINE
  5
1D1
330
1F
100
AcDbEntity
  8
0
  6
Continuous
 62
     7
370
    25
100
AcDbSpline
210
0.0
220
0.0
230
1.0
 70
     8
 71
     3
 72
    11
 73
     7
 74
     0
 42
0.00000001
 43
0.00000001
 40
0.0
 40
0.0
 40
0.0
 40
0.0
 40
0.2727913534618544
 40
0.5455155894168371
 40
0.8238990068593245
 40
1.0
 40
1.0
 40
1.0
 40
1.0
 10
96.8609001574611
 20
100.7038992886905
 30
0.0
 10
96.96545304400334
 20
100.3559451755248
 30
0.0
 10
97.1745330929254
 20
99.66012255972404
 30
0.0
 10
97.3927123749368
 20
98.59052132051194
 30
0.0
 10
97.51993807670986
 20
97.63688278969057
 30
0.0
 10
97.52379510833158
 20
97.03782975157286
 30
0.0
 10
97.52528960865622
 20
96.80571214203567
 30
0.0
  0
SPLINE
  5
1D2
330
1F
100
AcDbEntity
  8
0
  6
Continuous
 62
     7
370
    25
100
AcDbSpline
210
0.0
220
0.0
230
1.0
 70
     8
 71
     3
 72
    10
 73
     6
 74
     0
 42
0.00000001
 43
0.00000001
 40
0.0
 40
0.0
 40
0.0
 40
0.0
 40
0.5
 40
0.5
 40
1.0
 40
1.0
 40
1.0
 40
1.0
 10
96.8609001574611
 20
100.9538992886905
 30
0.0
 10
96.83722476303672
 20
100.9538992886905
 30
0.0
 10
96.82413365315206
 20
100.9311068393607
 30
0.0
 10
96.8240473318638
 20
100.8431641352677
 30
0.0
 10
96.83721626580763
 20
100.7783063615938
 30
0.0
 10
96.8609001574611
 20
100.7038992886905
 30
0.0
  0
SPLINE
  5
1D3
330
1F
100
AcDbEntity
  8
0
  6
Continuous
 62
     7
370
    25
100
AcDbSpline
210
0.0
220
0.0
230
1.0
 70
    24
 71
     3
 72
    10
 73
     6
 74
     0
 42
0.00000001
 43
0.00000001
 40
0.0
 40
0.0
 40
0.0
 40
0.0
 40
0.2576875180010549
 40
0.6270659611587154
 40
1.0
 40
1.0
 40
1.0
 40
1.0
 10
97.5350083522554
 20
100.9538992886905
 30
0.0
 10
97.52640541657094
 20
100.9538992886905
 30
0.0
 10
97.50547072724021
 20
100.9538992886905
 30
0.0
 10
97.2865057047322
 20
100.9538992886905
 30
0.0
 10
97.00322097418733
 20
100.9538992886905
 30
0.0
 10
96.8609001574611
 20
100.9538992886905
 30
0.0
  0
LINE
  5
1D4
330
1F
100
AcDbEntity
  8
0
  6
Continuous
 62
     7
370
    25
100
AcDbLine
 10
97.68295913
 20
100.7038992887
 30
0.0
 11
97.68295913
 21
96.7552973983
 31
0.0
  0
LINE
  5
1D5
330
1F
100
AcDbEntity
  8
0
  6
Continuous
 62
     7
370
    25
100
AcDbLine
 10
97.68295913
 20
88.1525011791
 30
0.0
 11
97.68295913
 21
84.2038992887
 31
0.0
  0
SPLINE
  5
1D6
330
1F
100
AcDbEntity
  8
0
  6
Continuous
 62
     7
370
    25
100
AcDbSpline
210
0.0
220
0.0
230
1.0
 70
     8
 71
     3
 72
    10
 73
     6
 74
     0
 42
0.00000001
 43
0.00000001
 40
0.0
 40
0.0
 40
0.0
 40
0.0
 40
0.5
 40
0.5
 40
1.0
 40
1.0
 40
1.0
 40
1.0
 10
74.86068053527889
 20
92.70389928869054
 30
0.0
 10
74.88435413976998
 20
92.62952453470052
 30
0.0
 10
74.89744691556324
 20
92.54243080313461
 30
0.0
 10
74.89753348366419
 20
92.3662649745901
 30
0.0
 10
74.88436365954091
 20
92.27830395069981
 30
0.0
 10
74.86068053527889
 20
92.20389928869054
 30
0.0
  0
SPLINE
  5
1D7
330
1F
100
AcDbEntity
  8
0
  6
Continuous
 62
     7
370
    25
100
AcDbSpline
210
0.0
220
0.0
230
1.0
 70
     8
 71
     3
 72
    12
 73
     8
 74
     0
 42
0.00000001
 43
0.00000001
 40
0.0
 40
0.0
 40
0.0
 40
0.0
 40
0.2499999999999999
 40
0.2499999999999999
 40
0.5
 40
0.5
 40
1.0
 40
1.0
 40
1.0
 40
1.0
 10
74.1829591300187
 20
88.20389928869054
 30
0.0
 10
74.18295913001872
 20
88.5416552237133
 30
0.0
 10
74.19870546004066
 20
88.88206323859181
 30
0.0
 10
74.26015048462608
 20
89.55655792299223
 30
0.0
 10
74.30573924387981
 20
89.89168324185947
 30
0.0
 10
74.48219024613643
 20
90.89139456019961
 30
0.0
 10
74.65264794809991
 20
91.55032866326489
 30
0.0
 10
74.86068053527875
 20
92.20389928869055
 30
0.0
  0
LINE
  5
1D8
330
1F
100
AcDbEntity
  8
0
  6
Continuous
 62
     7
370
    25
100
AcDbLine
 10
74.18295913
 20
96.7038992887
 30
0.0
 11
74.18295913
 21
88.2038992887
 31
0.0
  0
SPLINE
  5
1D9
330
1F
100
AcDbEntity
  8
0
  6
Continuous
 62
     7
370
    25
100
AcDbSpline
210
0.0
220
0.0
230
1.0
 70
     8
 71
     3
 72
    10
 73
     6
 74
     0
 42
0.00000001
 43
0.00000001
 40
0.0
 40
0.0
 40
0.0
 40
0.0
 40
0.5
 40
0.5
 40
1.0
 40
1.0
 40
1.0
 40
1.0
 10
74.86068053527842
 20
92.70389928869048
 30
0.0
 10
74.65187061061216
 20
93.3599120552956
 30
0.0
 10
74.48133647086492
 20
94.0201789621533
 30
0.0
 10
74.246550665846
 20
95.3525254807883
 30
0.0
 10
74.18295913001872
 20
96.02467846227563
 30
0.0
 10
74.18295913001872
 20
96.70389928869052
 30
0.0
  0
SPLINE
  5
1DA
330
1F
100
AcDbEntity
  8
0
  6
Continuous
 62
     7
370
    25
100
AcDbSpline
210
0.0
220
0.0
230
1.0
 70
     8
 71
     3
 72
    10
 73
     6
 74
     0
 42
0.00000001
 43
0.00000001
 40
0.0
 40
0.0
 40
0.0
 40
0.0
 40
0.3151710889443956
 40
0.6575575147396531
 40
1.0
 40
1.0
 40
1.0
 40
1.0
 10
91.76016398053605
 20
97.99441835773894
 30
0.0
 10
91.79884222759054
 20
98.28272795968803
 30
0.0
 10
91.8795386267838
 20
98.88424298433131
 30
0.0
 10
92.08514596419194
 20
99.78864351340235
 30
0.0
 10
92.26883066616297
 20
100.3987973813829
 30
0.0
 10
92.36068053527889
 20
100.7038992886905
 30
0.0
  0
LINE
  5
1DB
330
1F
100
AcDbEntity
  8
0
  6
Continuous
 62
     7
370
    25
100
AcDbLine
 10
96.8609001575
 20
100.7038992887
 30
0.0
 11
92.3606805353
 21
100.7038992887
 31
0.0
  0
SPLINE
  5
1DC
330
1F
100
AcDbEntity
  8
0
  6
Continuous
 62
     7
370
    25
100
AcDbSpline
210
0.0
220
0.0
230
1.0
 70
     8
 71
     3
 72
    12
 73
     8
 74
     0
 42
0.00000001
 43
0.00000001
 40
0.0
 40
0.0
 40
0.0
 40
0.0
 40
0.2500000000000001
 40
0.2500000000000001
 40
0.5000000000000002
 40
0.5000000000000002
 40
1.0
 40
1.0
 40
1.0
 40
1.0
 10
74.18295913001872
 20
96.70389928869052
 30
0.0
 10
74.1829591300187
 20
97.04165522371332
 30
0.0
 10
74.19870546004066
 20
97.38206323859181
 30
0.0
 10
74.26015048462608
 20
98.05655792299223
 30
0.0
 10
74.30573924387981
 20
98.39168324185947
 30
0.0
 10
74.48219024613643
 20
99.3913945601996
 30
0.0
 10
74.65264794809991
 20
100.0503286632649
 30
0.0
 10
74.86068053527875
 20
100.7038992886906
 30
0.0
  0
LINE
  5
1DD
330
1F
100
AcDbEntity
  8
0
  6
Continuous
 62
     7
370
    25
100
AcDbLine
 10
79.0052377248
 20
100.7038992887
 30
0.0
 11
74.8606805353
 21
100.7038992887
 31
0.0
  0
SPLINE
  5
1DE
330
1F
100
AcDbEntity
  8
0
  6
Continuous
 62
     7
370
    25
100
AcDbSpline
210
0.0
220
0.0
230
1.0
 70
     8
 71
     3
 72
    11
 73
     7
 74
     0
 42
0.00000001
 43
0.00000001
 40
0.0
 40
0.0
 40
0.0
 40
0.0
 40
0.2578067234991439
 40
0.5155624445386915
 40
0.7778109537862695
 40
1.0
 40
1.0
 40
1.0
 40
1.0
 10
79.0052377247585
 20
100.7038992886906
 30
0.0
 10
79.10300246264688
 20
100.3796455569244
 30
0.0
 10
79.29851259741491
 20
99.73120224120638
 30
0.0
 10
79.51079794951625
 20
98.73664408207583
 30
0.0
 10
79.64935927322733
 20
97.77823586138096
 30
0.0
 10
79.66744191760951
 20
97.14859028780369
 30
0.0
 10
79.67573558820338
 20
96.8598010561088
 30
0.0
  0
SPLINE
  5
1DF
330
1F
100
AcDbEntity
  8
0
  6
Continuous
 62
     7
370
    25
100
AcDbSpline
210
0.0
220
0.0
230
1.0
 70
     8
 71
     3
 72
    12
 73
     8
 74
     0
 42
0.00000001
 43
0.00000001
 40
0.0
 40
0.0
 40
0.0
 40
0.0
 40
0.0428188157721593
 40
0.2801513807381886
 40
0.5175134222684855
 40
0.7587369631803934
 40
1.0
 40
1.0
 40
1.0
 40
1.0
 10
79.68112110436613
 20
88.06953451418026
 30
0.0
 10
79.68054017717365
 20
88.01358116548859
 30
0.0
 10
79.67673933513404
 20
87.64749425695967
 30
0.0
 10
79.62596219169723
 20
86.9718012539928
 30
0.0
 10
79.48726594574755
 20
86.04356784809417
 30
0.0
 10
79.28167409299327
 20
85.11906554249724
 30
0.0
 10
79.09738820932776
 20
84.5089713538759
 30
0.0
 10
79.00523772475852
 20
84.20389928869052
 30
0.0
  0
LINE
  5
1E0
330
1F
100
AcDbEntity
  8
0
  6
Continuous
 62
     7
370
    25
100
AcDbLine
 10
74.8606805353
 20
84.2038992887
 30
0.0
 11
79.0052377248
 21
84.2038992887
 31
0.0
  0
SPLINE
  5
1E1
330
1F
100
AcDbEntity
  8
0
  6
Continuous
 62
     7
370
    25
100
AcDbSpline
210
0.0
220
0.0
230
1.0
 70
     8
 71
     3
 72
    10
 73
     6
 74
     0
 42
0.00000001
 43
0.00000001
 40
0.0
 40
0.0
 40
0.0
 40
0.0
 40
0.5
 40
0.5
 40
1.0
 40
1.0
 40
1.0
 40
1.0
 10
74.86068053527842
 20
84.20389928869048
 30
0.0
 10
74.65187061061216
 20
84.85991205529558
 30
0.0
 10
74.48133647086492
 20
85.5201789621533
 30
0.0
 10
74.246550665846
 20
86.8525254807883
 30
0.0
 10
74.1829591300187
 20
87.52467846227565
 30
0.0
 10
74.1829591300187
 20
88.20389928869054
 30
0.0
  0
LINE
  5
1E2
330
1F
100
AcDbEntity
  8
0
  6
Continuous
 62
     7
370
    25
100
AcDbLine
 10
92.3606805353
 20
84.2038992887
 30
0.0
 11
96.8609001575
 21
84.2038992887
 31
0.0
  0
SPLINE
  5
1E3
330
1F
100
AcDbEntity
  8
0
  6
Continuous
 62
     7
370
    25
100
AcDbSpline
210
0.0
220
0.0
230
1.0
 70
     8
 71
     3
 72
    10
 73
     6
 74
     0
 42
0.00000001
 43
0.00000001
 40
0.0
 40
0.0
 40
0.0
 40
0.0
 40
0.3653167100393135
 40
0.7305611486867457
 40
1.0
 40
1.0
 40
1.0
 40
1.0
 10
92.3606805352789
 20
84.2038992886905
 30
0.0
 10
92.26361373743654
 20
84.52820678819356
 30
0.0
 10
92.06949934468557
 20
85.17675762874832
 30
0.0
 10
91.8673415619777
 20
86.07838387899356
 30
0.0
 10
91.79758676660218
 20
86.65746124522643
 30
0.0
 10
91.76797412004782
 20
86.9032939981085
 30
0.0
  0
LINE
  5
1E4
330
1F
100
AcDbEntity
  8
0
  6
Continuous
 62
     7
370
    25
100
AcDbLine
 10
91.68295913
 20
86.9090836847
 30
0.0
 11
91.68295913
 21
84.9538992887
 31
0.0
  0
LINE
  5
1E5
330
1F
100
AcDbEntity
  8
0
  6
Continuous
 62
     7
370
    25
100
AcDbLine
 10
91.68295913
 20
84.9538992887
 30
0.0
 11
79.68295913
 21
84.9538992887
 31
0.0
  0
LINE
  5
1E6
330
1F
100
AcDbEntity
  8
0
  6
Continuous
 62
     7
370
    25
100
AcDbLine
 10
79.68295913
 20
88.0377357953
 30
0.0
 11
79.68295913
 21
84.9538992887
 31
0.0
  0
LINE
  5
1E7
330
1F
100
AcDbEntity
  8
0
  6
Continuous
 62
     7
370
    25
100
AcDbLine
 10
79.68295913
 20
99.9538992887
 30
0.0
 11
79.68295913
 21
96.8700627821
 31
0.0
  0
LINE
  5
1E8
330
1F
100
AcDbEntity
  8
0
  6
Continuous
 62
     7
370
    25
100
AcDbLine
 10
79.68295913
 20
99.9538992887
 30
0.0
 11
91.68295913
 21
99.9538992887
 31
0.0
  0
LINE
  5
1E9
330
1F
100
AcDbEntity
  8
0
  6
Continuous
 62
     7
370
    25
100
AcDbLine
 10
91.68295913
 20
99.9538992887
 30
0.0
 11
91.68295913
 21
97.9987148927
 31
0.0
  0
SPLINE
  5
1EA
330
1F
100
AcDbEntity
  8
0
  6
Continuous
 62
     7
370
    25
100
AcDbSpline
210
0.0
220
0.0
230
1.0
 70
     8
 71
     3
 72
     8
 73
     4
 74
     0
 42
0.00000001
 43
0.00000001
 40
0.0
 40
0.0
 40
0.0
 40
0.0
 40
1.0
 40
1.0
 40
1.0
 40
1.0
 10
79.16672305303952
 20
100.9538992886906
 30
0.0
 10
79.34042612925928
 20
100.621387866555
 30
0.0
 10
79.512728348322
 20
100.2880607666562
 30
0.0
 10
79.6829591300187
 20
99.95389928869052
 30
0.0
  0
SPLINE
  5
1EB
330
1F
100
AcDbEntity
  8
0
  6
Continuous
 62
     7
370
    25
100
AcDbSpline
210
0.0
220
0.0
230
1.0
 70
     8
 71
     3
 72
    10
 73
     6
 74
     0
 42
0.00000001
 43
0.00000001
 40
0.0
 40
0.0
 40
0.0
 40
0.0
 40
0.5
 40
0.5
 40
1.0
 40
1.0
 40
1.0
 40
1.0
 10
79.00523772476416
 20
100.9538992886905
 30
0.0
 10
78.98156233033984
 20
100.9538992886905
 30
0.0
 10
78.96847122044954
 20
100.931106839361
 30
0.0
 10
78.96838489916114
 20
100.843164135268
 30
0.0
 10
78.98155383310497
 20
100.778306361594
 30
0.0
 10
79.0052377247585
 20
100.7038992886906
 30
0.0
  0
SPLINE
  5
1EC
330
1F
100
AcDbEntity
  8
0
  6
Continuous
 62
     7
370
    25
100
AcDbSpline
210
0.0
220
0.0
230
1.0
 70
    24
 71
     3
 72
     8
 73
     4
 74
     0
 42
0.00000001
 43
0.00000001
 40
0.0
 40
0.0
 40
0.0
 40
0.0
 40
1.0
 40
1.0
 40
1.0
 40
1.0
 10
79.1667230530395
 20
100.9538992886905
 30
0.0
 10
79.11582433611711
 20
100.9538992886905
 30
0.0
 10
79.06189019986648
 20
100.9538992886905
 30
0.0
 10
79.0052377247589
 20
100.9538992886905
 30
0.0
  0
SPLINE
  5
1ED
330
1F
100
AcDbEntity
  8
0
  6
Continuous
 62
     7
370
    25
100
AcDbSpline
210
0.0
220
0.0
230
1.0
 70
     8
 71
     3
 72
     8
 73
     4
 74
     0
 42
0.00000001
 43
0.00000001
 40
0.0
 40
0.0
 40
0.0
 40
0.0
 40
1.0
 40
1.0
 40
1.0
 40
1.0
 10
91.6829591300187
 20
99.95389928869052
 30
0.0
 10
91.85323673736242
 20
100.2881526849759
 30
0.0
 10
92.02550848598808
 20
100.6214191745448
 30
0.0
 10
92.19919520699776
 20
100.9538992886903
 30
0.0
  0
SPLINE
  5
1EE
330
1F
100
AcDbEntity
  8
0
  6
Continuous
 62
     7
370
    25
100
AcDbSpline
210
0.0
220
0.0
230
1.0
 70
    24
 71
     3
 72
     8
 73
     4
 74
     0
 42
0.00000001
 43
0.00000001
 40
0.0
 40
0.0
 40
0.0
 40
0.0
 40
1.0
 40
1.0
 40
1.0
 40
1.0
 10
92.19919520699735
 20
100.9538992886905
 30
0.0
 10
92.25009144025258
 20
100.9538992886905
 30
0.0
 10
92.30402539521641
 20
100.9538992886905
 30
0.0
 10
92.36068053527889
 20
100.9538992886905
 30
0.0
  0
SPLINE
  5
1EF
330
1F
100
AcDbEntity
  8
0
  6
Continuous
 62
     7
370
    25
100
AcDbSpline
210
0.0
220
0.0
230
1.0
 70
     8
 71
     3
 72
    10
 73
     6
 74
     0
 42
0.00000001
 43
0.00000001
 40
0.0
 40
0.0
 40
0.0
 40
0.0
 40
0.5
 40
0.5
 40
1.0
 40
1.0
 40
1.0
 40
1.0
 10
92.36068053527889
 20
100.7038992886905
 30
0.0
 10
92.38435592970328
 20
100.7782796660679
 30
0.0
 10
92.39744703958793
 20
100.8425803048536
 30
0.0
 10
92.3975333608762
 20
100.9307959896366
 30
0.0
 10
92.38436442693236
 20
100.9538992886905
 30
0.0
 10
92.36068053527889
 20
100.9538992886905
 30
0.0
  0
SPLINE
  5
1F0
330
1F
100
AcDbEntity
  8
0
  6
Continuous
 62
     7
370
    25
100
AcDbSpline
210
0.0
220
0.0
230
1.0
 70
     8
 71
     3
 72
    10
 73
     6
 74
     0
 42
0.00000001
 43
0.00000001
 40
0.0
 40
0.0
 40
0.0
 40
0.0
 40
0.5
 40
0.5
 40
1.0
 40
1.0
 40
1.0
 40
1.0
 10
74.86068053527889
 20
100.9538992886905
 30
0.0
 10
74.88435443583482
 20
100.9538992886905
 30
0.0
 10
74.89744699301399
 20
100.9311087170431
 30
0.0
 10
74.89753340699626
 20
100.8431627197443
 30
0.0
 10
74.88436301539764
 20
100.7783019270115
 30
0.0
 10
74.86068053527889
 20
100.7038992886905
 30
0.0
  0
SPLINE
  5
1F1
330
1F
100
AcDbEntity
  8
0
  6
Continuous
 62
     7
370
    25
100
AcDbSpline
210
0.0
220
0.0
230
1.0
 70
    24
 71
     3
 72
    12
 73
     8
 74
     0
 42
0.00000001
 43
0.00000001
 40
0.0
 40
0.0
 40
0.0
 40
0.0
 40
0.2499999999999999
 40
0.2499999999999999
 40
0.4999999999999998
 40
0.4999999999999998
 40
1.0
 40
1.0
 40
1.0
 40
1.0
 10
74.1829591300187
 20
100.9538992886905
 30
0.0
 10
74.18295913001872
 20
100.9538992886905
 30
0.0
 10
74.19895793499978
 20
100.9538992886905
 30
0.0
 10
74.26072807331416
 20
100.9538992886905
 30
0.0
 10
74.30647019761575
 20
100.9538992886905
 30
0.0
 10
74.4831403449626
 20
100.9538992886905
 30
0.0
 10
74.6533954104429
 20
100.9538992886905
 30
0.0
 10
74.86068053527889
 20
100.9538992886905
 30
0.0
  0
LINE
  5
1F2
330
1F
100
AcDbEntity
  8
0
  6
Continuous
 62
     7
370
    25
100
AcDbLine
 10
74.18295913
 20
100.9538992887
 30
0.0
 11
74.18295913
 21
96.7038992887
 31
0.0
  0
SPLINE
  5
1F3
330
1F
100
AcDbEntity
  8
0
  6
Continuous
 62
     7
370
    25
100
AcDbSpline
210
0.0
220
0.0
230
1.0
 70
     8
 71
     3
 72
     8
 73
     4
 74
     0
 42
0.00000001
 43
0.00000001
 40
0.0
 40
0.0
 40
0.0
 40
0.0
 40
1.0
 40
1.0
 40
1.0
 40
1.0
 10
79.6829591300187
 20
84.95389928869054
 30
0.0
 10
79.51268152267495
 20
84.61964589240513
 30
0.0
 10
79.34040977404923
 20
84.2863794028361
 30
0.0
 10
79.16672305303952
 20
83.95389928869052
 30
0.0
  0
SPLINE
  5
1F4
330
1F
100
AcDbEntity
  8
0
  6
Continuous
 62
     7
370
    25
100
AcDbSpline
210
0.0
220
0.0
230
1.0
 70
    24
 71
     3
 72
     8
 73
     4
 74
     0
 42
0.00000001
 43
0.00000001
 40
0.0
 40
0.0
 40
0.0
 40
0.0
 40
1.0
 40
1.0
 40
1.0
 40
1.0
 10
79.16672305303952
 20
83.95389928869052
 30
0.0
 10
79.11582433611702
 20
83.95389928869052
 30
0.0
 10
79.06189019986624
 20
83.95389928869052
 30
0.0
 10
79.00523772475852
 20
83.95389928869052
 30
0.0
  0
SPLINE
  5
1F5
330
1F
100
AcDbEntity
  8
0
  6
Continuous
 62
     7
370
    25
100
AcDbSpline
210
0.0
220
0.0
230
1.0
 70
     8
 71
     3
 72
    10
 73
     6
 74
     0
 42
0.00000001
 43
0.00000001
 40
0.0
 40
0.0
 40
0.0
 40
0.0
 40
0.5
 40
0.5
 40
1.0
 40
1.0
 40
1.0
 40
1.0
 10
79.00523772475852
 20
84.20389928869052
 30
0.0
 10
78.98156233033413
 20
84.1295189113132
 30
0.0
 10
78.96847122044947
 20
84.06521827252743
 30
0.0
 10
78.9683848991612
 20
83.9770025877445
 30
0.0
 10
78.98155383310504
 20
83.95389928869052
 30
0.0
 10
79.00523772475852
 20
83.95389928869052
 30
0.0
  0
SPLINE
  5
1F6
330
1F
100
AcDbEntity
  8
0
  6
Continuous
 62
     7
370
    25
100
AcDbSpline
210
0.0
220
0.0
230
1.0
 70
     8
 71
     3
 72
     8
 73
     4
 74
     0
 42
0.00000001
 43
0.00000001
 40
0.0
 40
0.0
 40
0.0
 40
0.0
 40
1.0
 40
1.0
 40
1.0
 40
1.0
 10
92.19919520699787
 20
83.95389928869051
 30
0.0
 10
92.0254921307781
 20
84.28641071082603
 30
0.0
 10
91.8531899117154
 20
84.6197378107249
 30
0.0
 10
91.6829591300187
 20
84.95389928869054
 30
0.0
  0
SPLINE
  5
1F7
330
1F
100
AcDbEntity
  8
0
  6
Continuous
 62
     7
370
    25
100
AcDbSpline
210
0.0
220
0.0
230
1.0
 70
     8
 71
     3
 72
    10
 73
     6
 74
     0
 42
0.00000001
 43
0.00000001
 40
0.0
 40
0.0
 40
0.0
 40
0.0
 40
0.5
 40
0.5
 40
1.0
 40
1.0
 40
1.0
 40
1.0
 10
92.3606805352789
 20
83.95389928869052
 30
0.0
 10
92.38435592970329
 20
83.95389928869052
 30
0.0
 10
92.39744703958793
 20
83.97669173802032
 30
0.0
 10
92.39753336087621
 20
84.06463444211337
 30
0.0
 10
92.38436442693238
 20
84.12949221578722
 30
0.0
 10
92.3606805352789
 20
84.20389928869048
 30
0.0
  0
SPLINE
  5
1F8
330
1F
100
AcDbEntity
  8
0
  6
Continuous
 62
     7
370
    25
100
AcDbSpline
210
0.0
220
0.0
230
1.0
 70
    24
 71
     3
 72
     8
 73
     4
 74
     0
 42
0.00000001
 43
0.00000001
 40
0.0
 40
0.0
 40
0.0
 40
0.0
 40
1.0
 40
1.0
 40
1.0
 40
1.0
 10
92.19919520699789
 20
83.95389928869052
 30
0.0
 10
92.25009144025296
 20
83.95389928869052
 30
0.0
 10
92.30402539521663
 20
83.95389928869052
 30
0.0
 10
92.36068053527889
 20
83.95389928869052
 30
0.0
  0
SPLINE
  5
1F9
330
1F
100
AcDbEntity
  8
0
  6
Continuous
 62
     7
370
    25
100
AcDbSpline
210
0.0
220
0.0
230
1.0
 70
     8
 71
     3
 72
    10
 73
     6
 74
     0
 42
0.00000001
 43
0.00000001
 40
0.0
 40
0.0
 40
0.0
 40
0.0
 40
0.5
 40
0.5
 40
1.0
 40
1.0
 40
1.0
 40
1.0
 10
74.86068053527889
 20
84.20389928869052
 30
0.0
 10
74.88435277519045
 20
84.12952882176496
 30
0.0
 10
74.89744676512572
 20
84.0652232254771
 30
0.0
 10
74.89753363258717
 20
83.97700043767125
 30
0.0
 10
74.88436384282781
 20
83.95389928869052
 30
0.0
 10
74.86068053527889
 20
83.95389928869052
 30
0.0
  0
SPLINE
  5
1FA
330
1F
100
AcDbEntity
  8
0
  6
Continuous
 62
     7
370
    25
100
AcDbSpline
210
0.0
220
0.0
230
1.0
 70
    24
 71
     3
 72
    12
 73
     8
 74
     0
 42
0.00000001
 43
0.00000001
 40
0.0
 40
0.0
 40
0.0
 40
0.0
 40
0.2500000000000001
 40
0.2500000000000001
 40
0.5000000000000001
 40
0.5000000000000001
 40
1.0
 40
1.0
 40
1.0
 40
1.0
 10
74.1829591300187
 20
83.95389928869052
 30
0.0
 10
74.1829591300187
 20
83.95389928869052
 30
0.0
 10
74.19895793499978
 20
83.95389928869052
 30
0.0
 10
74.26072807331416
 20
83.95389928869052
 30
0.0
 10
74.30647019761575
 20
83.95389928869052
 30
0.0
 10
74.4831403449626
 20
83.95389928869052
 30
0.0
 10
74.6533954104429
 20
83.95389928869052
 30
0.0
 10
74.86068053527889
 20
83.95389928869052
 30
0.0
  0
LINE
  5
1FB
330
1F
100
AcDbEntity
  8
0
  6
Continuous
 62
     7
370
    25
100
AcDbLine
 10
74.18295913
 20
83.9538992887
 30
0.0
 11
74.18295913
 21
88.2038992887
 31
0.0
  0
LINE
  5
1FC
330
1F
100
AcDbEntity
  8
0
  6
Continuous
 62
     7
370
    25
100
AcDbLine
 10
92.3606805353
 20
100.9538992887
 30
0.0
 11
96.8609001575
 21
100.9538992887
 31
0.0
  0
LINE
  5
1FD
330
1F
100
AcDbEntity
  8
0
  6
Continuous
 62
     7
370
    25
100
AcDbLine
 10
74.8606805353
 20
100.9538992887
 30
0.0
 11
79.0052377248
 21
100.9538992887
 31
0.0
  0
LINE
  5
1FE
330
1F
100
AcDbEntity
  8
0
  6
Continuous
 62
     7
370
    25
100
AcDbLine
 10
96.8609001575
 20
83.9538992887
 30
0.0
 11
92.3606805353
 21
83.9538992887
 31
0.0
  0
LINE
  5
1FF
330
1F
100
AcDbEntity
  8
0
  6
Continuous
 62
     7
370
    25
100
AcDbLine
 10
79.0052377248
 20
83.9538992887
 30
0.0
 11
74.8606805353
 21
83.9538992887
 31
0.0
  0
LINE
  5
200
330
1F
100
AcDbEntity
  8
0
  6
Continuous
 62
     7
370
    25
100
AcDbLine
 10
92.199195207
 20
100.9538992887
 30
0.0
 11
79.166723053
 21
100.9538992887
 31
0.0
  0
LINE
  5
201
330
1F
100
AcDbEntity
  8
0
  6
Continuous
 62
     7
370
    25
100
AcDbLine
 10
92.199195207
 20
83.9538992887
 30
0.0
 11
79.166723053
 21
83.9538992887
 31
0.0
  0
SPLINE
  5
202
330
1F
100
AcDbEntity
  8
0
  6
Continuous
 62
     7
370
    25
100
AcDbSpline
210
0.0
220
0.0
230
1.0
 70
     8
 71
     3
 72
    15
 73
    11
 74
     0
 42
0.00000001
 43
0.00000001
 40
0.0
 40
0.0
 40
0.0
 40
0.0
 40
0.0081667445812695
 40
0.3321939991490077
 40
0.4756279600585576
 40
0.68668309732849
 40
0.8457435502264807
 40
0.8967566214763126
 40
0.9909540928118029
 40
1.0
 40
1.0
 40
1.0
 40
1.0
 10
90.78197864361148
 20
93.70389928869054
 30
0.0
 10
90.78246617775437
 20
93.70533675162955
 30
0.0
 10
90.80229732528647
 20
93.76380760958126
 30
0.0
 10
90.83057810529571
 20
93.84823278730074
 30
0.0
 10
90.86840740378454
 20
93.9628118593232
 30
0.0
 10
90.89499130035203
 20
94.04418274651978
 30
0.0
 10
90.912161124107
 20
94.09720173852145
 30
0.0
 10
90.91997812032346
 20
94.1214036703656
 30
0.0
 10
90.92197380675935
 20
94.12759329103177
 30
0.0
 10
90.92203877071015
 20
94.12779468644433
 30
0.0
 10
90.92204446267681
 20
94.1278123321688
 30
0.0
  0
ARC
  5
203
330
1F
100
AcDbEntity
  8
0
  6
Continuous
 62
     7
370
    25
100
AcDbCircle
 10
85.68295913
 20
92.4538992887
 30
0.0
 40
5.250000000000009
100
AcDbArc
 50
13.774146998
 51
166.225853002
  0
SPLINE
  5
204
330
1F
100
AcDbEntity
  8
0
  6
Continuous
 62
     7
370
    25
100
AcDbSpline
210
0.0
220
0.0
230
1.0
 70
     8
 71
     3
 72
    15
 73
    11
 74
     0
 42
0.00000001
 43
0.00000001
 40
0.0
 40
0.0
 40
0.0
 40
0.0
 40
0.0090459071881971
 40
0.1032433785236816
 40
0.1542564497735189
 40
0.3133169026715104
 40
0.5243720399414397
 40
0.6678060008509895
 40
0.9918332554187292
 40
1.0
 40
1.0
 40
1.0
 40
1.0
 10
80.4438737973606
 20
94.12781233216879
 30
0.0
 10
80.44387948932726
 20
94.12779468644433
 30
0.0
 10
80.44394445327805
 20
94.12759329103177
 30
0.0
 10
80.44594013971393
 20
94.1214036703656
 30
0.0
 10
80.45375713593039
 20
94.09720173852145
 30
0.0
 10
80.47092695968537
 20
94.04418274651978
 30
0.0
 10
80.49751085625286
 20
93.96281185932318
 30
0.0
 10
80.53534015474169
 20
93.84823278730074
 30
0.0
 10
80.56362093475093
 20
93.76380760958126
 30
0.0
 10
80.58345208228303
 20
93.70533675162953
 30
0.0
 10
80.58393961642592
 20
93.70389928869052
 30
0.0
  0
ARC
  5
205
330
1F
100
AcDbEntity
  8
0
  6
Continuous
 62
     7
370
    25
100
AcDbCircle
 10
85.68295913
 20
92.4538992887
 30
0.0
 40
5.500000000000011
100
AcDbArc
 50
17.7189318734
 51
162.2810681266
  0
SPLINE
  5
206
330
1F
100
AcDbEntity
  8
0
  6
Continuous
 62
     7
370
    25
100
AcDbSpline
210
0.0
220
0.0
230
1.0
 70
     8
 71
     3
 72
    15
 73
    11
 74
     0
 42
0.00000001
 43
0.00000001
 40
0.0
 40
0.0
 40
0.0
 40
0.0
 40
0.0090459071881971
 40
0.1032433785236875
 40
0.1542564497735248
 40
0.313316902671511
 40
0.5243720399414434
 40
0.6678060008509189
 40
0.9918332554187028
 40
1.0
 40
1.0
 40
1.0
 40
1.0
 10
90.92204446267681
 20
90.77998624521227
 30
0.0
 10
90.92203877071015
 20
90.78000389093674
 30
0.0
 10
90.92197380675935
 20
90.78020528634929
 30
0.0
 10
90.91997812032346
 20
90.78639490701546
 30
0.0
 10
90.912161124107
 20
90.81059683885961
 30
0.0
 10
90.89499130035205
 20
90.86361583086129
 30
0.0
 10
90.8684074037845
 20
90.94498671805785
 30
0.0
 10
90.83057810529587
 20
91.05956579008036
 30
0.0
 10
90.80229732528565
 20
91.1439909677995
 30
0.0
 10
90.78246617775436
 20
91.20246182575151
 30
0.0
 10
90.78197864361148
 20
91.20389928869054
 30
0.0
  0
ARC
  5
207
330
1F
100
AcDbEntity
  8
0
  6
Continuous
 62
     7
370
    25
100
AcDbCircle
 10
85.68295913
 20
92.4538992887
 30
0.0
 40
5.500000000000011
100
AcDbArc
 50
197.7189318734
 51
342.2810681266
  0
SPLINE
  5
208
330
1F
100
AcDbEntity
  8
0
  6
Continuous
 62
     7
370
    25
100
AcDbSpline
210
0.0
220
0.0
230
1.0
 70
     8
 71
     3
 72
    15
 73
    11
 74
     0
 42
0.00000001
 43
0.00000001
 40
0.0
 40
0.0
 40
0.0
 40
0.0
 40
0.0081667445812973
 40
0.3321939991490813
 40
0.4756279600585592
 40
0.6866830973284899
 40
0.845743550226481
 40
0.8967566214763184
 40
0.9909540928118029
 40
1.0
 40
1.0
 40
1.0
 40
1.0
 10
80.58393961642592
 20
91.20389928869054
 30
0.0
 10
80.58345208228305
 20
91.20246182575151
 30
0.0
 10
80.56362093475175
 20
91.1439909677995
 30
0.0
 10
80.53534015474153
 20
91.05956579008036
 30
0.0
 10
80.4975108562529
 20
90.94498671805785
 30
0.0
 10
80.47092695968536
 20
90.86361583086129
 30
0.0
 10
80.45375713593039
 20
90.81059683885961
 30
0.0
 10
80.44594013971393
 20
90.78639490701546
 30
0.0
 10
80.44394445327806
 20
90.78020528634929
 30
0.0
 10
80.44387948932726
 20
90.78000389093674
 30
0.0
 10
80.4438737973606
 20
90.77998624521227
 30
0.0
  0
ARC
  5
209
330
1F
100
AcDbEntity
  8
0
  6
Continuous
 62
     7
370
    25
100
AcDbCircle
 10
85.68295913
 20
92.4538992887
 30
0.0
 40
5.250000000000009
100
AcDbArc
 50
193.774146998
 51
346.225853002
  0
ARC
  5
20A
330
1F
100
AcDbEntity
  8
0
  6
Continuous
 62
     7
370
    25
100
AcDbCircle
 10
80.205733555
 20
94.2038992887
 30
0.0
 40
0.2500000000000034
100
AcDbArc
 50
270.0
 51
342.2810681266
  0
SPLINE
  5
20B
330
1F
100
AcDbEntity
  8
0
  6
Continuous
 62
     7
370
    25
100
AcDbSpline
210
0.0
220
0.0
230
1.0
 70
     8
 71
     3
 72
    15
 73
    11
 74
     0
 42
0.00000001
 43
0.00000001
 40
0.0
 40
0.0
 40
0.0
 40
0.0
 40
0.0080847466189819
 40
0.3310106400647582
 40
0.4750333064304994
 40
0.6874363079215138
 40
0.8468367539418308
 40
0.9000996640391851
 40
0.9910442771984082
 40
1.0
 40
1.0
 40
1.0
 40
1.0
 10
80.58393961642592
 20
93.70389928869052
 30
0.0
 10
80.58265978488177
 20
93.7047152246788
 30
0.0
 10
80.53026013915802
 20
93.73812177487244
 30
0.0
 10
80.45490504770356
 20
93.78693533960731
 30
0.0
 10
80.35298593568577
 20
93.85430581187545
 30
0.0
 10
80.28059499069387
 20
93.90288985221893
 30
0.0
 10
80.23288956242905
 20
93.93533871367748
 30
0.0
 10
80.21135407872173
 20
93.95004975474374
 30
0.0
 10
80.20592506270222
 20
93.95376820566187
 30
0.0
 10
80.20574931054564
 20
93.95388850432738
 30
0.0
 10
80.20573355496704
 20
93.95389928869052
 30
0.0
  0
SPLINE
  5
20C
330
1F
100
AcDbEntity
  8
0
  6
Continuous
 62
     7
370
    25
100
AcDbSpline
210
0.0
220
0.0
230
1.0
 70
     8
 71
     3
 72
    15
 73
    11
 74
     0
 42
0.00000001
 43
0.00000001
 40
0.0
 40
0.0
 40
0.0
 40
0.0
 40
0.0080847466189581
 40
0.3310106400648237
 40
0.4750333064304937
 40
0.6874363079215094
 40
0.8468367539418249
 40
0.9000996640391792
 40
0.9910442771984082
 40
1.0
 40
1.0
 40
1.0
 40
1.0
 10
90.78197864361148
 20
91.20389928869054
 30
0.0
 10
90.78325847515562
 20
91.20308335270225
 30
0.0
 10
90.83565812087886
 20
91.16967680250771
 30
0.0
 10
90.91101321233396
 20
91.1208632377739
 30
0.0
 10
91.01293232435161
 20
91.05349276550557
 30
0.0
 10
91.08532326934355
 20
91.00490872516214
 30
0.0
 10
91.13302869760835
 20
90.97245986370359
 30
0.0
 10
91.15456418131568
 20
90.95774882263731
 30
0.0
 10
91.1599931973352
 20
90.95403037171918
 30
0.0
 10
91.16016894949176
 20
90.95391007305368
 30
0.0
 10
91.16018470507036
 20
90.95389928869054
 30
0.0
  0
ARC
  5
20D
330
1F
100
AcDbEntity
  8
0
  6
Continuous
 62
     7
370
    25
100
AcDbCircle
 10
91.1601847051
 20
90.7038992887
 30
0.0
 40
0.2500000000000034
100
AcDbArc
 50
90.0
 51
162.2810681266
  0
SPLINE
  5
20E
330
1F
100
AcDbEntity
  8
0
  6
Continuous
 62
     7
370
    25
100
AcDbSpline
210
0.0
220
0.0
230
1.0
 70
     8
 71
     3
 72
    15
 73
    11
 74
     0
 42
0.00000001
 43
0.00000001
 40
0.0
 40
0.0
 40
0.0
 40
0.0
 40
0.0089557228015919
 40
0.0999003359608153
 40
0.1531632460581696
 40
0.3125636920784855
 40
0.5249666935695051
 40
0.6689893599351772
 40
0.991915253381045
 40
1.0
 40
1.0
 40
1.0
 40
1.0
 10
80.20573355496704
 20
90.95389928869054
 30
0.0
 10
80.20574931054564
 20
90.95391007305368
 30
0.0
 10
80.2059250627022
 20
90.95403037171918
 30
0.0
 10
80.21135407872174
 20
90.95774882263731
 30
0.0
 10
80.23288956242905
 20
90.97245986370358
 30
0.0
 10
80.28059499069387
 20
91.00490872516214
 30
0.0
 10
80.3529859356858
 20
91.05349276550557
 30
0.0
 10
80.45490504770346
 20
91.12086323777389
 30
0.0
 10
80.53026013915849
 20
91.1696768025078
 30
0.0
 10
80.5826597848818
 20
91.20308335270225
 30
0.0
 10
80.58393961642592
 20
91.20389928869054
 30
0.0
  0
ARC
  5
20F
330
1F
100
AcDbEntity
  8
0
  6
Continuous
 62
     7
370
    25
100
AcDbCircle
 10
80.205733555
 20
90.7038992887
 30
0.0
 40
0.2500000000000034
100
AcDbArc
 50
17.7189318734
 51
90.0
  0
ARC
  5
210
330
1F
100
AcDbEntity
  8
0
  6
Continuous
 62
     7
370
    25
100
AcDbCircle
 10
91.1601847051
 20
94.2038992887
 30
0.0
 40
0.2500000000000034
100
AcDbArc
 50
197.7189318734
 51
270.0
  0
SPLINE
  5
211
330
1F
100
AcDbEntity
  8
0
  6
Continuous
 62
     7
370
    25
100
AcDbSpline
210
0.0
220
0.0
230
1.0
 70
     8
 71
     3
 72
    15
 73
    11
 74
     0
 42
0.00000001
 43
0.00000001
 40
0.0
 40
0.0
 40
0.0
 40
0.0
 40
0.0089557228015919
 40
0.0999003359608147
 40
0.1531632460581688
 40
0.3125636920784845
 40
0.5249666935695023
 40
0.6689893599352456
 40
0.9919152533810159
 40
1.0
 40
1.0
 40
1.0
 40
1.0
 10
91.16018470507036
 20
93.95389928869054
 30
0.0
 10
91.16016894949176
 20
93.95388850432738
 30
0.0
 10
91.1599931973352
 20
93.95376820566187
 30
0.0
 10
91.15456418131566
 20
93.95004975474374
 30
0.0
 10
91.13302869760837
 20
93.93533871367748
 30
0.0
 10
91.08532326934353
 20
93.90288985221893
 30
0.0
 10
91.01293232435164
 20
93.85430581187545
 30
0.0
 10
90.91101321233384
 20
93.7869353396073
 30
0.0
 10
90.83565812087939
 20
93.73812177487254
 30
0.0
 10
90.78325847515563
 20
93.70471522467881
 30
0.0
 10
90.78197864361148
 20
93.70389928869054
 30
0.0
  0
LINE
  5
212
330
1F
100
AcDbEntity
  8
0
  6
Continuous
 62
     7
370
    25
100
AcDbLine
 10
90.68295913
 20
93.0538992887
 30
0.0
 11
80.68295913
 21
93.0538992887
 31
0.0
  0
LINE
  5
213
330
1F
100
AcDbEntity
  8
0
  6
Continuous
 62
     7
370
    25
100
AcDbLine
 10
80.68295913
 20
91.8538992887
 30
0.0
 11
90.68295913
 21
91.8538992887
 31
0.0
  0
LINE
  5
214
330
1F
100
AcDbEntity
  8
0
  6
Continuous
 62
     7
370
    25
100
AcDbLine
 10
80.68295913
 20
93.0538992887
 30
0.0
 11
80.68295913
 21
91.8538992887
 31
0.0
  0
LINE
  5
215
330
1F
100
AcDbEntity
  8
0
  6
Continuous
 62
     7
370
    25
100
AcDbLine
 10
90.68295913
 20
91.8538992887
 30
0.0
 11
90.68295913
 21
93.0538992887
 31
0.0
  0
LINE
  5
216
330
1F
100
AcDbEntity
  8
0
  6
Continuous
 62
     7
370
    25
100
AcDbLine
 10
91.43295913
 20
93.7038992887
 30
0.0
 11
90.7819786436
 21
93.7038992887
 31
0.0
  0
LINE
  5
217
330
1F
100
AcDbEntity
  8
0
  6
Continuous
 62
     7
370
    25
100
AcDbLine
 10
91.43295913
 20
91.2038992887
 30
0.0
 11
91.43295913
 21
93.7038992887
 31
0.0
  0
LINE
  5
218
330
1F
100
AcDbEntity
  8
0
  6
Continuous
 62
     7
370
    25
100
AcDbLine
 10
90.7819786436
 20
91.2038992887
 30
0.0
 11
91.43295913
 21
91.2038992887
 31
0.0
  0
LINE
  5
219
330
1F
100
AcDbEntity
  8
0
  6
Continuous
 62
     7
370
    25
100
AcDbLine
 10
79.93295913
 20
91.2038992887
 30
0.0
 11
80.5839396164
 21
91.2038992887
 31
0.0
  0
LINE
  5
21A
330
1F
100
AcDbEntity
  8
0
  6
Continuous
 62
     7
370
    25
100
AcDbLine
 10
79.93295913
 20
93.7038992887
 30
0.0
 11
79.93295913
 21
91.2038992887
 31
0.0
  0
LINE
  5
21B
330
1F
100
AcDbEntity
  8
0
  6
Continuous
 62
     7
370
    25
100
AcDbLine
 10
80.5839396164
 20
93.7038992887
 30
0.0
 11
79.93295913
 21
93.7038992887
 31
0.0
  0
LINE
  5
21C
330
1F
100
AcDbEntity
  8
0
  6
Continuous
 62
     7
370
    25
100
AcDbLine
 10
91.43295913
 20
93.7038992887
 30
0.0
 11
91.43295913
 21
93.9538992887
 31
0.0
  0
LINE
  5
21D
330
1F
100
AcDbEntity
  8
0
  6
Continuous
 62
     7
370
    25
100
AcDbLine
 10
91.1601847051
 20
93.9538992887
 30
0.0
 11
91.43295913
 21
93.9538992887
 31
0.0
  0
ARC
  5
21E
330
1F
100
AcDbEntity
  8
0
  6
Continuous
 62
     7
370
    25
100
AcDbCircle
 10
91.43295913
 20
93.7038992887
 30
0.0
 40
0.25
100
AcDbArc
 50
0.0
 51
90.0
  0
LINE
  5
21F
330
1F
100
AcDbEntity
  8
0
  6
Continuous
 62
     7
370
    25
100
AcDbLine
 10
91.68295913
 20
93.7038992887
 30
0.0
 11
91.43295913
 21
93.7038992887
 31
0.0
  0
LINE
  5
220
330
1F
100
AcDbEntity
  8
0
  6
Continuous
 62
     7
370
    25
100
AcDbLine
 10
79.93295913
 20
93.9538992887
 30
0.0
 11
79.93295913
 21
93.7038992887
 31
0.0
  0
LINE
  5
221
330
1F
100
AcDbEntity
  8
0
  6
Continuous
 62
     7
370
    25
100
AcDbLine
 10
79.93295913
 20
93.7038992887
 30
0.0
 11
79.68295913
 21
93.7038992887
 31
0.0
  0
ARC
  5
222
330
1F
100
AcDbEntity
  8
0
  6
Continuous
 62
     7
370
    25
100
AcDbCircle
 10
79.93295913
 20
93.7038992887
 30
0.0
 40
0.25
100
AcDbArc
 50
90.0
 51
180.0
  0
LINE
  5
223
330
1F
100
AcDbEntity
  8
0
  6
Continuous
 62
     7
370
    25
100
AcDbLine
 10
79.93295913
 20
93.9538992887
 30
0.0
 11
80.205733555
 21
93.9538992887
 31
0.0
  0
LINE
  5
224
330
1F
100
AcDbEntity
  8
0
  6
Continuous
 62
     7
370
    25
100
AcDbLine
 10
91.68295913
 20
93.7038992887
 30
0.0
 11
91.68295913
 21
91.2038992887
 31
0.0
  0
LINE
  5
225
330
1F
100
AcDbEntity
  8
0
  6
Continuous
 62
     7
370
    25
100
AcDbLine
 10
91.43295913
 20
91.2038992887
 30
0.0
 11
91.68295913
 21
91.2038992887
 31
0.0
  0
LINE
  5
226
330
1F
100
AcDbEntity
  8
0
  6
Continuous
 62
     7
370
    25
100
AcDbLine
 10
79.68295913
 20
91.2038992887
 30
0.0
 11
79.93295913
 21
91.2038992887
 31
0.0
  0
LINE
  5
227
330
1F
100
AcDbEntity
  8
0
  6
Continuous
 62
     7
370
    25
100
AcDbLine
 10
79.68295913
 20
91.2038992887
 30
0.0
 11
79.68295913
 21
93.7038992887
 31
0.0
  0
LINE
  5
228
330
1F
100
AcDbEntity
  8
0
  6
Continuous
 62
     7
370
    25
100
AcDbLine
 10
79.93295913
 20
91.2038992887
 30
0.0
 11
79.93295913
 21
90.9538992887
 31
0.0
  0
ARC
  5
229
330
1F
100
AcDbEntity
  8
0
  6
Continuous
 62
     7
370
    25
100
AcDbCircle
 10
79.93295913
 20
91.2038992887
 30
0.0
 40
0.25
100
AcDbArc
 50
180.0
 51
270.0
  0
LINE
  5
22A
330
1F
100
AcDbEntity
  8
0
  6
Continuous
 62
     7
370
    25
100
AcDbLine
 10
91.43295913
 20
90.9538992887
 30
0.0
 11
91.43295913
 21
91.2038992887
 31
0.0
  0
LINE
  5
22B
330
1F
100
AcDbEntity
  8
0
  6
Continuous
 62
     7
370
    25
100
AcDbLine
 10
91.43295913
 20
90.9538992887
 30
0.0
 11
91.1601847051
 21
90.9538992887
 31
0.0
  0
LINE
  5
22C
330
1F
100
AcDbEntity
  8
0
  6
Continuous
 62
     7
370
    25
100
AcDbLine
 10
80.205733555
 20
90.9538992887
 30
0.0
 11
79.93295913
 21
90.9538992887
 31
0.0
  0
ARC
  5
22D
330
1F
100
AcDbEntity
  8
0
  6
Continuous
 62
     7
370
    25
100
AcDbCircle
 10
91.43295913
 20
91.2038992887
 30
0.0
 40
0.25
100
AcDbArc
 50
270.0
 51
0.0
  0
LINE
  5
22E
330
1F
100
AcDbEntity
  8
0
  6
Continuous
 62
     7
370
    25
100
AcDbLine
 10
105.68295913
 20
89.1822000246
 30
0.0
 11
107.8583959916
 21
88.9538992887
 31
0.0
  0
LINE
  5
22F
330
1F
100
AcDbEntity
  8
0
  6
Continuous
 62
     7
370
    25
100
AcDbLine
 10
105.68295913
 20
95.7255985527
 30
0.0
 11
105.68295913
 21
89.1822000246
 31
0.0
  0
LINE
  5
230
330
1F
100
AcDbEntity
  8
0
  6
Continuous
 62
     7
370
    25
100
AcDbLine
 10
107.8583959916
 20
95.9538992887
 30
0.0
 11
105.68295913
 21
95.7255985527
 31
0.0
  0
LINE
  5
231
330
1F
100
AcDbEntity
  8
0
  6
Continuous
 62
     7
370
    25
100
AcDbLine
 10
125.68295913
 20
95.9538992887
 30
0.0
 11
107.8583959916
 21
95.9538992887
 31
0.0
  0
LINE
  5
232
330
1F
100
AcDbEntity
  8
0
  6
Continuous
 62
     7
370
    25
100
AcDbLine
 10
107.8583959916
 20
88.9538992887
 30
0.0
 11
125.68295913
 21
88.9538992887
 31
0.0
  0
LINE
  5
233
330
1F
100
AcDbEntity
  8
0
  6
Continuous
 62
     7
370
    25
100
AcDbLine
 10
125.68295913
 20
88.9538992887
 30
0.0
 11
125.68295913
 21
95.9538992887
 31
0.0
  0
LINE
  5
234
330
1F
100
AcDbEntity
  8
0
  6
Continuous
 62
     7
370
    25
100
AcDbLine
 10
90.9067613044
 20
90.7328848079
 30
0.0
 11
91.035170343
 21
90.9170264413
 31
0.0
  0
LINE
  5
235
330
1F
100
AcDbEntity
  8
0
  6
Continuous
 62
     7
370
    25
100
AcDbLine
 10
91.0256030023
 20
93.9991169561
 30
0.0
 11
90.9067613044
 21
94.1749137695
 31
0.0
  0
LINE
  5
236
330
1F
100
AcDbEntity
  8
0
  6
Continuous
 62
     7
370
    25
100
AcDbLine
 10
99.0995287836
 20
89.8730966531
 30
0.0
 11
99.0995287836
 21
95.0347019243
 31
0.0
  0
LINE
  5
237
330
1F
100
AcDbEntity
  8
0
  6
Continuous
 62
     7
370
    25
100
AcDbLine
 10
99.0995287836
 20
89.8730966531
 30
0.0
 11
90.9067613044
 21
90.7328848079
 31
0.0
  0
LINE
  5
238
330
1F
100
AcDbEntity
  8
0
  6
Continuous
 62
     7
370
    25
100
AcDbLine
 10
90.9067613044
 20
94.1749137695
 30
0.0
 11
99.0995287836
 21
95.0347019243
 31
0.0
  0
LINE
  5
239
330
1F
100
AcDbEntity
  8
0
  6
Continuous
 62
     7
370
    25
100
AcDbLine
 10
105.68295913
 20
89.1822000246
 30
0.0
 11
99.0995287836
 21
89.8730966531
 31
0.0
  0
LINE
  5
23A
330
1F
100
AcDbEntity
  8
0
  6
Continuous
 62
     7
370
    25
100
AcDbLine
 10
99.0995287836
 20
95.0347019243
 30
0.0
 11
105.68295913
 21
95.7255985527
 31
0.0
  0
ARC
  5
23B
330
1F
100
AcDbEntity
  8
0
  6
Continuous
 62
     7
370
    25
100
AcDbCircle
 10
85.68295913
 20
92.4538992887
 30
0.0
 40
7.450000000000662
100
AcDbArc
 50
53.0863788866
 51
306.9136211134
  0
ARC
  5
23C
330
1F
100
AcDbEntity
  8
0
  6
Continuous
 62
     7
370
    25
100
AcDbCircle
 10
85.68295913
 20
92.4538992887
 30
0.0
 40
7.207531252870786
100
AcDbArc
 50
15.3041237151
 51
58.9797515565
  0
ARC
  5
23D
330
1F
100
AcDbEntity
  8
0
  6
Continuous
 62
     7
370
    25
100
AcDbCircle
 10
85.68295913
 20
92.4538992887
 30
0.0
 40
7.207531252872443
100
AcDbArc
 50
301.0202484435
 51
344.6958762849
  0
ARC
  5
23E
330
1F
100
AcDbEntity
  8
0
  6
Continuous
 62
     7
370
    25
100
AcDbCircle
 10
107.8583959916
 20
160.9538992887
 30
0.0
 40
65.00000000000001
100
AcDbArc
 50
253.4999050078
 51
270.0
  0
ARC
  5
23F
330
1F
100
AcDbEntity
  8
0
  6
Continuous
 62
     7
370
    25
100
AcDbCircle
 10
107.8583959916
 20
23.9538992887
 30
0.0
 40
65.0
100
AcDbArc
 50
90.0
 51
106.5000949923
  0
LINE
  5
240
330
1F
100
AcDbEntity
  8
0
  6
Continuous
 62
     7
370
    25
100
AcDbLine
 10
78.2371549424
 20
92.2038992887
 30
0.0
 11
74.8606805353
 21
92.2038992887
 31
0.0
  0
LINE
  5
241
330
1F
100
AcDbEntity
  8
0
  6
Continuous
 62
     7
370
    25
100
AcDbLine
 10
74.8606805353
 20
92.7038992887
 30
0.0
 11
78.2371549424
 21
92.7038992887
 31
0.0
  0
INSERT
  5
24D
330
1F
100
AcDbEntity
  8
FORMAT
100
AcDbBlockReference
  2
SW_CENTERMARKSYMBOL_1
 10
85.68295913
 20
92.4538992887
 30
0.0
  0
ENDSEC
  0
SECTION
  2
OBJECTS
  0
DICTIONARY
  5
C
330
0
100
AcDbDictionary
281
     1
  3
ACAD_GROUP
350
D
  3
ACAD_LAYOUT
350
1A
  3
ACAD_MLINESTYLE
350
17
  3
ACAD_PLOTSETTINGS
350
19
  3
ACAD_PLOTSTYLENAME
350
E
  3
ACAD_SCALELIST
350
47
  3
DWGPROPS
350
24E
  0
DICTIONARY
  5
D
102
{ACAD_REACTORS
330
C
102
}
330
C
100
AcDbDictionary
281
     1
  0
DICTIONARY
  5
1A
102
{ACAD_REACTORS
330
C
102
}
330
C
100
AcDbDictionary
281
     1
  3
Layout1
350
1E
  3
Layout2
350
26
  3
Model
350
22
  0
DICTIONARY
  5
17
102
{ACAD_REACTORS
330
C
102
}
330
C
100
AcDbDictionary
281
     1
  3
Standard
350
18
  0
DICTIONARY
  5
19
102
{ACAD_REACTORS
330
C
102
}
330
C
100
AcDbDictionary
281
     1
  0
ACDBDICTIONARYWDFLT
  5
E
102
{ACAD_REACTORS
330
C
102
}
330
C
100
AcDbDictionary
281
     1
  3
Normal
350
F
100
AcDbDictionaryWithDefault
340
F
  0
DICTIONARY
  5
47
102
{ACAD_REACTORS
330
C
102
}
330
C
100
AcDbDictionary
281
     1
  3
A0
350
48
  3
A1
350
49
  3
A2
350
4A
  3
A3
350
4B
  3
A4
350
4C
  3
A5
350
4D
  3
A6
350
4E
  3
A7
350
4F
  3
A8
350
50
  3
A9
350
51
  3
B0
350
52
  3
B1
350
53
  3
B2
350
54
  3
B3
350
55
  3
B4
350
56
  3
B5
350
57
  3
B6
350
58
  0
XRECORD
  5
24E
102
{ACAD_REACTORS
330
C
102
}
330
C
100
AcDbXrecord
280
     1
  1
DWGPROPS COOKIE
  2

  3

  4

  6

  7

  8
user28
  9

300
=
301
=
302
=
303
=
304
=
305
=
306
=
307
=
308
=
309
=
 40
0.0
 41
2460326.316657465
 42
2460326.316658183
  1

 90
        0
  0
LAYOUT
  5
1E
102
{ACAD_REACTORS
330
1A
102
}
330
1A
100
AcDbPlotSettings
  1

  2
none_device
  4

  6

 40
0.0
 41
0.0
 42
0.0
 43
0.0
 44
0.0
 45
0.0
 46
0.0
 47
0.0
 48
0.0
 49
0.0
140
0.0
141
0.0
142
1.0
143
1.0
 70
   688
 72
     1
 73
     0
 74
     5
  7

 75
    16
147
1.0
148
0.0
149
0.0
100
AcDbLayout
  1
Layout1
 70
     1
 71
     1
 10
0.0
 20
0.0
 11
420.0
 21
297.0
 12
0.0
 22
0.0
 32
0.0
 14
1.0000000000E+20
 24
1.0000000000E+20
 34
1.0000000000E+20
 15
-1.0000000000E+20
 25
-1.0000000000E+20
 35
-1.0000000000E+20
146
0.0
 13
0.0
 23
0.0
 33
0.0
 16
1.0
 26
0.0
 36
0.0
 17
0.0
 27
1.0
 37
0.0
 76
     0
330
1B
  0
LAYOUT
  5
26
102
{ACAD_REACTORS
330
1A
102
}
330
1A
100
AcDbPlotSettings
  1

  2
none_device
  4

  6

 40
0.0
 41
0.0
 42
0.0
 43
0.0
 44
0.0
 45
0.0
 46
0.0
 47
0.0
 48
0.0
 49
0.0
140
0.0
141
0.0
142
1.0
143
1.0
 70
   688
 72
     1
 73
     0
 74
     5
  7

 75
    16
147
1.0
148
0.0
149
0.0
100
AcDbLayout
  1
Layout2
 70
     1
 71
     2
 10
0.0
 20
0.0
 11
0.0
 21
0.0
 12
0.0
 22
0.0
 32
0.0
 14
0.0
 24
0.0
 34
0.0
 15
0.0
 25
0.0
 35
0.0
146
0.0
 13
0.0
 23
0.0
 33
0.0
 16
1.0
 26
0.0
 36
0.0
 17
0.0
 27
1.0
 37
0.0
 76
     0
330
23
  0
LAYOUT
  5
22
102
{ACAD_REACTORS
330
1A
102
}
330
1A
100
AcDbPlotSettings
  1

  2
none_device
  4
Letter_(8.50_x_11.00_Inches)
  6

 40
6.35
 41
6.35
 42
6.35000508
 43
6.35000508
 44
215.9
 45
279.4
 46
0.0
 47
0.0
 48
0.0
 49
0.0
140
0.0
141
0.0
142
1.0
143
1.0
 70
  1712
 72
     1
 73
     0
 74
     0
  7

 75
     0
147
1.0
148
0.0
149
0.0
100
AcDbLayout
  1
Model
 70
     1
 71
     0
 10
0.0
 20
0.0
 11
297.0
 21
210.0
 12
0.0
 22
0.0
 32
0.0
 14
0.0
 24
0.0
 34
0.0
 15
297.0
 25
210.0
 35
0.0
146
0.0
 13
0.0
 23
0.0
 33
0.0
 16
1.0
 26
0.0
 36
0.0
 17
0.0
 27
1.0
 37
0.0
 76
     0
330
1F
331
29
  0
MLINESTYLE
  5
18
102
{ACAD_REACTORS
330
17
102
}
330
17
100
AcDbMlineStyle
  2
Standard
 70
     0
  3

 62
   256
 51
90.0
 52
90.0
 71
     2
 49
0.5
 62
   256
  6
BYLAYER
 49
-0.5
 62
   256
  6
BYLAYER
  0
ACDBPLACEHOLDER
  5
F
102
{ACAD_REACTORS
330
E
102
}
330
E
  0
SCALE
  5
48
102
{ACAD_REACTORS
330
47
102
}
330
47
100
AcDbScale
 70
     0
300
1:1
140
1.0
141
1.0
290
     1
  0
SCALE
  5
49
102
{ACAD_REACTORS
330
47
102
}
330
47
100
AcDbScale
 70
     0
300
1:2
140
1.0
141
2.0
290
     0
  0
SCALE
  5
4A
102
{ACAD_REACTORS
330
47
102
}
330
47
100
AcDbScale
 70
     0
300
1:4
140
1.0
141
4.0
290
     0
  0
SCALE
  5
4B
102
{ACAD_REACTORS
330
47
102
}
330
47
100
AcDbScale
 70
     0
300
1:5
140
1.0
141
5.0
290
     0
  0
SCALE
  5
4C
102
{ACAD_REACTORS
330
47
102
}
330
47
100
AcDbScale
 70
     0
300
1:8
140
1.0
141
8.0
290
     0
  0
SCALE
  5
4D
102
{ACAD_REACTORS
330
47
102
}
330
47
100
AcDbScale
 70
     0
300
1:10
140
1.0
141
10.0
290
     0
  0
SCALE
  5
4E
102
{ACAD_REACTORS
330
47
102
}
330
47
100
AcDbScale
 70
     0
300
1:16
140
1.0
141
16.0
290
     0
  0
SCALE
  5
4F
102
{ACAD_REACTORS
330
47
102
}
330
47
100
AcDbScale
 70
     0
300
1:20
140
1.0
141
20.0
290
     0
  0
SCALE
  5
50
102
{ACAD_REACTORS
330
47
102
}
330
47
100
AcDbScale
 70
     0
300
1:30
140
1.0
141
30.0
290
     0
  0
SCALE
  5
51
102
{ACAD_REACTORS
330
47
102
}
330
47
100
AcDbScale
 70
     0
300
1:40
140
1.0
141
40.0
290
     0
  0
SCALE
  5
52
102
{ACAD_REACTORS
330
47
102
}
330
47
100
AcDbScale
 70
     0
300
1:50
140
1.0
141
50.0
290
     0
  0
SCALE
  5
53
102
{ACAD_REACTORS
330
47
102
}
330
47
100
AcDbScale
 70
     0
300
1:100
140
1.0
141
100.0
290
     0
  0
SCALE
  5
54
102
{ACAD_REACTORS
330
47
102
}
330
47
100
AcDbScale
 70
     0
300
2:1
140
2.0
141
1.0
290
     0
  0
SCALE
  5
55
102
{ACAD_REACTORS
330
47
102
}
330
47
100
AcDbScale
 70
     0
300
4:1
140
4.0
141
1.0
290
     0
  0
SCALE
  5
56
102
{ACAD_REACTORS
330
47
102
}
330
47
100
AcDbScale
 70
     0
300
8:1
140
8.0
141
1.0
290
     0
  0
SCALE
  5
57
102
{ACAD_REACTORS
330
47
102
}
330
47
100
AcDbScale
 70
     0
300
10:1
140
10.0
141
1.0
290
     0
  0
SCALE
  5
58
102
{ACAD_REACTORS
330
47
102
}
330
47
100
AcDbScale
 70
     0
300
100:1
140
100.0
141
1.0
290
     0
  0
ENDSEC
  0
EOF
