  0
SECTION
  2
HEADER
  9
$ACADVER
  1
AC1015
  9
$ACADMAINTVER
 70
     6
  9
$DWGCODEPAGE
  3
DOS932
  9
$INSBASE
 10
0.0
 20
0.0
 30
0.0
  9
$EXTMIN
 10
0.0
 20
0.0
 30
0.0
  9
$EXTMAX
 10
431.8
 20
279.4
 30
0.0
  9
$LIMMIN
 10
0.0
 20
0.0
  9
$LIMMAX
 10
431.8
 20
279.4
  9
$ORTHOMODE
 70
     0
  9
$REGENMODE
 70
     1
  9
$FILLMODE
 70
     1
  9
$QTEXTMODE
 70
     0
  9
$MIRRTEXT
 70
     1
  9
$LTSCALE
 40
1.0
  9
$ATTMODE
 70
     1
  9
$TEXTSIZE
 40
3.5
  9
$TRACEWID
 40
1.0
  9
$TEXTSTYLE
  7
Standard
  9
$CLAYER
  8
0
  9
$CELTYPE
  6
ByLayer
  9
$CECOLOR
 62
   256
  9
$CELTSCALE
 40
1.0
  9
$DISPSILH
 70
     0
  9
$DIMSCALE
 40
1.0
  9
$DIMASZ
 40
3.556
  9
$DIMEXO
 40
1.0
  9
$DIMDLI
 40
3.75
  9
$DIMRND
 40
0.0
  9
$DIMDLE
 40
0.0
  9
$DIMEXE
 40
1.0
  9
$DIMTP
 40
0.0
  9
$DIMTM
 40
0.0
  9
$DIMTXT
 40
3.5
  9
$DIMCEN
 40
2.5
  9
$DIMTSZ
 40
0.0
  9
$DIMTOL
 70
     0
  9
$DIMLIM
 70
     0
  9
$DIMTIH
 70
     1
  9
$DIMTOH
 70
     1
  9
$DIMSE1
 70
     0
  9
$DIMSE2
 70
     0
  9
$DIMTAD
 70
     1
  9
$DIMZIN
 70
     0
  9
$DIMBLK
  1

  9
$DIMASO
 70
     1
  9
$DIMSHO
 70
     1
  9
$DIMPOST
  1

  9
$DIMAPOST
  1

  9
$DIMALT
 70
     0
  9
$DIMALTD
 70
     3
  9
$DIMALTF
 40
0.0393700787
  9
$DIMLFAC
 40
1.0
  9
$DIMTOFL
 70
     1
  9
$DIMTVP
 40
0.0
  9
$DIMTIX
 70
     0
  9
$DIMSOXD
 70
     0
  9
$DIMSAH
 70
     0
  9
$DIMBLK1
  1

  9
$DIMBLK2
  1

  9
$DIMSTYLE
  2
ISO-25
  9
$DIMCLRD
 70
     0
  9
$DIMCLRE
 70
     0
  9
$DIMCLRT
 70
     0
  9
$DIMTFAC
 40
1.0
  9
$DIMGAP
 40
1.524
  9
$DIMJUST
 70
     0
  9
$DIMSD1
 70
     0
  9
$DIMSD2
 70
     0
  9
$DIMTOLJ
 70
     0
  9
$DIMTZIN
 70
     0
  9
$DIMALTZ
 70
     0
  9
$DIMALTTZ
 70
     0
  9
$DIMUPT
 70
     0
  9
$DIMDEC
 70
     3
  9
$DIMTDEC
 70
     3
  9
$DIMALTU
 70
     2
  9
$DIMALTTD
 70
     3
  9
$DIMTXSTY
  7
Standard
  9
$DIMAUNIT
 70
     0
  9
$DIMADEC
 70
     2
  9
$DIMALTRND
 40
0.0
  9
$DIMAZIN
 70
     0
  9
$DIMDSEP
 70
    44
  9
$DIMATFIT
 70
     3
  9
$DIMFRAC
 70
     0
  9
$DIMLDRBLK
  1

  9
$DIMLUNIT
 70
     2
  9
$DIMLWD
 70
    -2
  9
$DIMLWE
 70
    -2
  9
$DIMTMOVE
 70
     0
  9
$LUNITS
 70
     2
  9
$LUPREC
 70
     3
  9
$SKETCHINC
 40
1.0
  9
$FILLETRAD
 40
0.0
  9
$AUNITS
 70
     0
  9
$AUPREC
 70
     2
  9
$MENU
  1
.
  9
$ELEVATION
 40
0.0
  9
$PELEVATION
 40
0.0
  9
$THICKNESS
 40
0.0
  9
$LIMCHECK
 70
     0
  9
$CHAMFERA
 40
0.0
  9
$CHAMFERB
 40
0.0
  9
$CHAMFERC
 40
0.0
  9
$CHAMFERD
 40
0.0
  9
$SKPOLY
 70
     0
  9
$TDCREATE
 40
2460339.491200081
  9
$TDUCREATE
 40
2460339.116200081
  9
$TDUPDATE
 40
2460339.491200509
  9
$TDUUPDATE
 40
2460339.116200509
  9
$TDINDWG
 40
0.0000000116
  9
$TDUSRTIMER
 40
0.0000000116
  9
$USRTIMER
 70
     1
  9
$ANGBASE
 50
0.0
  9
$ANGDIR
 70
     0
  9
$PDMODE
 70
     0
  9
$PDSIZE
 40
-1.0
  9
$PLINEWID
 40
0.0
  9
$SPLFRAME
 70
     0
  9
$SPLINETYPE
 70
     6
  9
$SPLINESEGS
 70
     8
  9
$HANDSEED
  5
26B
  9
$SURFTAB1
 70
     6
  9
$SURFTAB2
 70
     6
  9
$SURFTYPE
 70
     6
  9
$SURFU
 70
     6
  9
$SURFV
 70
     6
  9
$UCSBASE
  2

  9
$UCSNAME
  2

  9
$UCSORG
 10
0.0
 20
0.0
 30
0.0
  9
$UCSXDIR
 10
1.0
 20
0.0
 30
0.0
  9
$UCSYDIR
 10
0.0
 20
1.0
 30
0.0
  9
$UCSORTHOREF
  2

  9
$UCSORTHOVIEW
 70
     0
  9
$UCSORGTOP
 10
0.0
 20
0.0
 30
0.0
  9
$UCSORGBOTTOM
 10
0.0
 20
0.0
 30
0.0
  9
$UCSORGLEFT
 10
0.0
 20
0.0
 30
0.0
  9
$UCSORGRIGHT
 10
0.0
 20
0.0
 30
0.0
  9
$UCSORGFRONT
 10
0.0
 20
0.0
 30
0.0
  9
$UCSORGBACK
 10
0.0
 20
0.0
 30
0.0
  9
$PUCSBASE
  2

  9
$PUCSNAME
  2

  9
$PUCSORG
 10
0.0
 20
0.0
 30
0.0
  9
$PUCSXDIR
 10
1.0
 20
0.0
 30
0.0
  9
$PUCSYDIR
 10
0.0
 20
1.0
 30
0.0
  9
$PUCSORTHOREF
  2

  9
$PUCSORTHOVIEW
 70
     0
  9
$PUCSORGTOP
 10
0.0
 20
0.0
 30
0.0
  9
$PUCSORGBOTTOM
 10
0.0
 20
0.0
 30
0.0
  9
$PUCSORGLEFT
 10
0.0
 20
0.0
 30
0.0
  9
$PUCSORGRIGHT
 10
0.0
 20
0.0
 30
0.0
  9
$PUCSORGFRONT
 10
0.0
 20
0.0
 30
0.0
  9
$PUCSORGBACK
 10
0.0
 20
0.0
 30
0.0
  9
$USERI1
 70
     0
  9
$USERI2
 70
     0
  9
$USERI3
 70
     0
  9
$USERI4
 70
     0
  9
$USERI5
 70
     0
  9
$USERR1
 40
0.0
  9
$USERR2
 40
0.0
  9
$USERR3
 40
0.0
  9
$USERR4
 40
0.0
  9
$USERR5
 40
0.0
  9
$WORLDVIEW
 70
     1
  9
$SHADEDGE
 70
     3
  9
$SHADEDIF
 70
    70
  9
$TILEMODE
 70
     1
  9
$MAXACTVP
 70
    64
  9
$PINSBASE
 10
0.0
 20
0.0
 30
0.0
  9
$PLIMCHECK
 70
     0
  9
$PEXTMIN
 10
1.0000000000E+20
 20
1.0000000000E+20
 30
1.0000000000E+20
  9
$PEXTMAX
 10
-1.0000000000E+20
 20
-1.0000000000E+20
 30
-1.0000000000E+20
  9
$PLIMMIN
 10
0.0
 20
0.0
  9
$PLIMMAX
 10
420.0
 20
297.0
  9
$UNITMODE
 70
     0
  9
$VISRETAIN
 70
     1
  9
$PLINEGEN
 70
     0
  9
$PSLTSCALE
 70
     1
  9
$TREEDEPTH
 70
  3020
  9
$CMLSTYLE
  2
Standard
  9
$CMLJUST
 70
     0
  9
$CMLSCALE
 40
20.0
  9
$PROXYGRAPHICS
 70
     1
  9
$MEASUREMENT
 70
     1
  9
$CELWEIGHT
370
    -1
  9
$ENDCAPS
280
     0
  9
$JOINSTYLE
280
     0
  9
$LWDISPLAY
290
     1
  9
$INSUNITS
 70
     4
  9
$HYPERLINKBASE
  1

  9
$STYLESHEET
  1

  9
$XEDIT
290
     1
  9
$CEPSNTYPE
380
     0
  9
$PSTYLEMODE
290
     1
  9
$FINGERPRINTGUID
  2
{90e20029-a0f0-49db-9302-06829ae5592d}
  9
$VERSIONGUID
  2
{FAEB1C32-E019-11D5-929B-00C0DF256EC4}
  9
$EXTNAMES
290
     1
  9
$PSVPSCALE
 40
0.0
  9
$OLESTARTUP
290
     0
  0
ENDSEC
  0
SECTION
  2
CLASSES
  0
CLASS
  1
ACDBDICTIONARYWDFLT
  2
AcDbDictionaryWithDefault
  3
ObjectDBX Classes
 90
        0
280
     0
281
     0
  0
CLASS
  1
VISUALSTYLE
  2
AcDbVisualStyle
  3
ObjectDBX Classes
 90
     4095
280
     0
281
     0
  0
CLASS
  1
MATERIAL
  2
AcDbMaterial
  3
ObjectDBX Classes
 90
     1153
280
     0
281
     0
  0
CLASS
  1
SCALE
  2
AcDbScale
  3
ObjectDBX Classes
 90
     1153
280
     0
281
     0
  0
CLASS
  1
TABLESTYLE
  2
AcDbTableStyle
  3
ObjectDBX Classes
 90
     4095
280
     0
281
     0
  0
CLASS
  1
MLEADERSTYLE
  2
AcDbMLeaderStyle
  3
ACDB_MLEADERSTYLE_CLASS
 90
     4095
280
     0
281
     0
  0
CLASS
  1
SUN
  2
AcDbSun
  3
SCENEOE
 90
     1153
280
     0
281
     0
  0
CLASS
  1
ACDBPLACEHOLDER
  2
AcDbPlaceHolder
  3
ObjectDBX Classes
 90
        0
280
     0
281
     0
  0
CLASS
  1
LAYOUT
  2
AcDbLayout
  3
ObjectDBX Classes
 90
        0
280
     0
281
     0
  0
ENDSEC
  0
SECTION
  2
TABLES
  0
TABLE
  2
VPORT
  5
8
330
0
100
AcDbSymbolTable
 70
     1
  0
VPORT
  5
29
330
8
100
AcDbSymbolTableRecord
100
AcDbViewportTableRecord
  2
*Active
 70
     0
 10
0.0
 20
0.0
 11
1.0
 21
1.0
 12
215.9
 22
139.7
 13
0.0
 23
0.0
 14
10.0
 24
10.0
 15
10.0
 25
10.0
 16
0.0
 26
0.0
 36
1.0
 17
0.0
 27
0.0
 37
0.0
 40
279.4
 41
1.5454545455
 42
50.0
 43
0.0
 44
0.0
 50
0.0
 51
0.0
 71
     0
 72
  2000
 73
     1
 74
     3
 75
     0
 76
     0
 77
     0
 78
     0
281
     0
 65
     1
110
0.0
120
0.0
130
0.0
111
1.0
121
0.0
131
0.0
112
0.0
122
1.0
132
0.0
 79
     0
146
0.0
  0
ENDTAB
  0
TABLE
  2
LTYPE
  5
5
330
0
100
AcDbSymbolTable
 70
     6
  0
LTYPE
  5
14
330
5
100
AcDbSymbolTableRecord
100
AcDbLinetypeTableRecord
  2
ByBlock
 70
     0
  3

 72
    65
 73
     0
 40
0.0
  0
LTYPE
  5
15
330
5
100
AcDbSymbolTableRecord
100
AcDbLinetypeTableRecord
  2
ByLayer
 70
     0
  3

 72
    65
 73
     0
 40
0.0
  0
LTYPE
  5
16
330
5
100
AcDbSymbolTableRecord
100
AcDbLinetypeTableRecord
  2
Continuous
 70
     0
  3
Solid line
 72
    65
 73
     0
 40
0.0
  0
LTYPE
  5
5E
330
5
100
AcDbSymbolTableRecord
100
AcDbLinetypeTableRecord
  2
HIDDEN
 70
     0
  3
Hidden __ __ __ __ __ __ __ __ __ __ __ __ __ __
 72
    65
 73
     2
 40
1.905
 49
1.27
 74
     0
 49
-0.635
 74
     0
  0
LTYPE
  5
5F
330
5
100
AcDbSymbolTableRecord
100
AcDbLinetypeTableRecord
  2
PHANTOM
 70
     0
  3
Phantom ______  __  __  ______  __  __  ______
 72
    65
 73
     6
 40
12.7
 49
6.35
 74
     0
 49
-1.27
 74
     0
 49
1.27
 74
     0
 49
-1.27
 74
     0
 49
1.27
 74
     0
 49
-1.27
 74
     0
  0
LTYPE
  5
60
330
5
100
AcDbSymbolTableRecord
100
AcDbLinetypeTableRecord
  2
CENTER
 70
     0
  3
Center ____ _ ____ _ ____ _ ____ _ ____ _ ____
 72
    65
 73
     4
 40
10.16
 49
6.35
 74
     0
 49
-1.27
 74
     0
 49
1.27
 74
     0
 49
-1.27
 74
     0
  0
LTYPE
  5
61
330
5
100
AcDbSymbolTableRecord
100
AcDbLinetypeTableRecord
  2
CENTERX2
 70
     0
  3
Center (2x) ________  __  ________  __  _____
 72
    65
 73
     4
 40
20.32
 49
12.7
 74
     0
 49
-2.54
 74
     0
 49
2.54
 74
     0
 49
-2.54
 74
     0
  0
LTYPE
  5
62
330
5
100
AcDbSymbolTableRecord
100
AcDbLinetypeTableRecord
  2
DOT2
 70
     0
  3
Dot (.5x) ........................................
 72
    65
 73
     2
 40
0.635
 49
0.0
 74
     0
 49
-0.635
 74
     0
  0
ENDTAB
  0
TABLE
  2
LAYER
  5
2
330
0
100
AcDbSymbolTable
 70
     1
  0
LAYER
  5
10
330
2
100
AcDbSymbolTableRecord
100
AcDbLayerTableRecord
  2
0
 70
     0
 62
     7
  6
Continuous
370
    -3
390
F
  0
ENDTAB
  0
TABLE
  2
STYLE
  5
3
330
0
100
AcDbSymbolTable
 70
     2
  0
STYLE
  5
11
330
3
100
AcDbSymbolTableRecord
100
AcDbTextStyleTableRecord
  2
Standard
 70
     0
 40
0.0
 41
1.0
 50
0.0
 71
     0
 42
3.5
  3
txt
  4
bigfont
  0
STYLE
  5
63
330
3
100
AcDbSymbolTableRecord
100
AcDbTextStyleTableRecord
  2
SLDTEXTSTYLE0
 70
     0
 40
0.0
 41
0.75
 50
0.0
 71
     0
 42
3.5
  3
TXT
  4
bigfont
  0
ENDTAB
  0
TABLE
  2
VIEW
  5
6
330
0
100
AcDbSymbolTable
 70
     0
  0
ENDTAB
  0
TABLE
  2
UCS
  5
7
330
0
100
AcDbSymbolTable
 70
     0
  0
ENDTAB
  0
TABLE
  2
APPID
  5
9
330
0
100
AcDbSymbolTable
 70
     1
  0
APPID
  5
12
330
9
100
AcDbSymbolTableRecord
100
AcDbRegAppTableRecord
  2
ACAD
 70
     0
  0
ENDTAB
  0
TABLE
  2
DIMSTYLE
  5
A
330
0
100
AcDbSymbolTable
 70
     1
100
AcDbDimStyleTable
  0
DIMSTYLE
105
27
330
A
100
AcDbSymbolTableRecord
100
AcDbDimStyleTableRecord
  2
ISO-25
 70
     0
 41
2.5
 42
0.625
 43
3.75
 44
1.25
 73
     0
 74
     0
 77
     1
 78
     8
140
2.5
141
2.5
143
0.0393700787
147
0.625
171
     3
172
     1
178
     0
271
     2
272
     2
274
     3
278
    44
283
     0
284
     8
340
11
  0
ENDTAB
  0
TABLE
  2
BLOCK_RECORD
  5
1
330
0
100
AcDbSymbolTable
 70
     3
  0
BLOCK_RECORD
  5
1F
330
1
100
AcDbSymbolTableRecord
100
AcDbBlockTableRecord
  2
*Model_Space
340
22
  0
BLOCK_RECORD
  5
1B
330
1
100
AcDbSymbolTableRecord
100
AcDbBlockTableRecord
  2
*Paper_Space
340
1E
  0
BLOCK_RECORD
  5
23
330
1
100
AcDbSymbolTableRecord
100
AcDbBlockTableRecord
  2
*Paper_Space0
340
26
  0
BLOCK_RECORD
  5
1E4
330
1
100
AcDbSymbolTableRecord
100
AcDbBlockTableRecord
  2
SW_CENTERMARKSYMBOL_0
340
0
102
{BLKREFS
331
1EF
102
}
  0
BLOCK_RECORD
  5
25E
330
1
100
AcDbSymbolTableRecord
100
AcDbBlockTableRecord
  2
SW_CENTERMARKSYMBOL_1
340
0
102
{BLKREFS
331
269
102
}
  0
ENDTAB
  0
ENDSEC
  0
SECTION
  2
BLOCKS
  0
BLOCK
  5
20
330
1F
100
AcDbEntity
  8
0
100
AcDbBlockBegin
  2
*Model_Space
 70
     0
 10
0.0
 20
0.0
 30
0.0
  3
*Model_Space
  1

  0
ENDBLK
  5
21
330
1F
100
AcDbEntity
  8
0
100
AcDbBlockEnd
  0
BLOCK
  5
1C
330
1B
100
AcDbEntity
 67
     1
  8
0
100
AcDbBlockBegin
  2
*Paper_Space
 70
     0
 10
0.0
 20
0.0
 30
0.0
  3
*Paper_Space
  1

  0
ENDBLK
  5
1D
330
1B
100
AcDbEntity
 67
     1
  8
0
100
AcDbBlockEnd
  0
BLOCK
  5
24
330
23
100
AcDbEntity
  8
0
100
AcDbBlockBegin
  2
*Paper_Space0
 70
     0
 10
0.0
 20
0.0
 30
0.0
  3
*Paper_Space0
  1

  0
ENDBLK
  5
25
330
23
100
AcDbEntity
  8
0
100
AcDbBlockEnd
  0
BLOCK
  5
1E5
330
1E4
100
AcDbEntity
  8
0
100
AcDbBlockBegin
  2
SW_CENTERMARKSYMBOL_0
 70
     0
 10
0.0
 20
0.0
 30
0.0
  3
SW_CENTERMARKSYMBOL_0
  1

  0
LINE
  5
1E7
330
1E4
100
AcDbEntity
  8
0
  6
Continuous
 62
     0
370
    18
100
AcDbLine
 10
0.0
 20
0.0
 30
0.0
 11
0.0
 21
2.5
 31
0.0
  0
LINE
  5
1E8
330
1E4
100
AcDbEntity
  8
0
  6
Continuous
 62
     0
370
    18
100
AcDbLine
 10
0.0
 20
0.0
 30
0.0
 11
-2.5
 21
0.0
 31
0.0
  0
LINE
  5
1E9
330
1E4
100
AcDbEntity
  8
0
  6
Continuous
 62
     0
370
    18
100
AcDbLine
 10
0.0
 20
0.0
 30
0.0
 11
0.0
 21
-2.5
 31
0.0
  0
LINE
  5
1EA
330
1E4
100
AcDbEntity
  8
0
  6
Continuous
 62
     0
370
    18
100
AcDbLine
 10
0.0
 20
0.0
 30
0.0
 11
2.5
 21
0.0
 31
0.0
  0
LINE
  5
1EB
330
1E4
100
AcDbEntity
  8
0
  6
Continuous
 62
     0
370
    18
100
AcDbLine
 10
0.0
 20
5.0
 30
0.0
 11
0.0
 21
9.95
 31
0.0
  0
LINE
  5
1EC
330
1E4
100
AcDbEntity
  8
0
  6
Continuous
 62
     0
370
    18
100
AcDbLine
 10
-5.0
 20
0.0
 30
0.0
 11
-27.9032741168
 21
0.0
 31
0.0
  0
LINE
  5
1ED
330
1E4
100
AcDbEntity
  8
0
  6
Continuous
 62
     0
370
    18
100
AcDbLine
 10
0.0
 20
-5.0
 30
0.0
 11
0.0
 21
-9.95
 31
0.0
  0
LINE
  5
1EE
330
1E4
100
AcDbEntity
  8
0
  6
Continuous
 62
     0
370
    18
100
AcDbLine
 10
5.0
 20
0.0
 30
0.0
 11
42.7617310882
 21
0.0
 31
0.0
  0
ENDBLK
  5
1E6
330
1E4
100
AcDbEntity
  8
0
100
AcDbBlockEnd
  0
BLOCK
  5
25F
330
25E
100
AcDbEntity
  8
0
100
AcDbBlockBegin
  2
SW_CENTERMARKSYMBOL_1
 70
     0
 10
0.0
 20
0.0
 30
0.0
  3
SW_CENTERMARKSYMBOL_1
  1

  0
LINE
  5
261
330
25E
100
AcDbEntity
  8
0
  6
Continuous
 62
     0
370
    18
100
AcDbLine
 10
0.0
 20
0.0
 30
0.0
 11
0.0
 21
2.5
 31
0.0
  0
LINE
  5
262
330
25E
100
AcDbEntity
  8
0
  6
Continuous
 62
     0
370
    18
100
AcDbLine
 10
0.0
 20
0.0
 30
0.0
 11
-2.5
 21
0.0
 31
0.0
  0
LINE
  5
263
330
25E
100
AcDbEntity
  8
0
  6
Continuous
 62
     0
370
    18
100
AcDbLine
 10
0.0
 20
0.0
 30
0.0
 11
0.0
 21
-2.5
 31
0.0
  0
LINE
  5
264
330
25E
100
AcDbEntity
  8
0
  6
Continuous
 62
     0
370
    18
100
AcDbLine
 10
0.0
 20
0.0
 30
0.0
 11
2.5
 21
0.0
 31
0.0
  0
LINE
  5
265
330
25E
100
AcDbEntity
  8
0
  6
Continuous
 62
     0
370
    18
100
AcDbLine
 10
0.0
 20
5.0
 30
0.0
 11
0.0
 21
30.673716525
 31
0.0
  0
LINE
  5
266
330
25E
100
AcDbEntity
  8
0
  6
Continuous
 62
     0
370
    18
100
AcDbLine
 10
-5.0
 20
0.0
 30
0.0
 11
-12.3572212457
 21
0.0
 31
0.0
  0
LINE
  5
267
330
25E
100
AcDbEntity
  8
0
  6
Continuous
 62
     0
370
    18
100
AcDbLine
 10
0.0
 20
-5.0
 30
0.0
 11
0.0
 21
-27.0637301679
 31
0.0
  0
LINE
  5
268
330
25E
100
AcDbEntity
  8
0
  6
Continuous
 62
     0
370
    18
100
AcDbLine
 10
5.0
 20
0.0
 30
0.0
 11
12.2891802368
 21
0.0
 31
0.0
  0
ENDBLK
  5
260
330
25E
100
AcDbEntity
  8
0
100
AcDbBlockEnd
  0
ENDSEC
  0
SECTION
  2
ENTITIES
  0
MTEXT
  5
64
330
1F
100
AcDbEntity
  8
0
  6
Continuous
 62
     7
370
     0
100
AcDbMText
 10
79.0405338665
 20
92.6666391434
 30
0.0
 40
3.5
 41
0.0
 71
     1
 72
     1
  1
エースボール　アングル型
  7
SLDTEXTSTYLE0
 73
     1
 44
1.0
  0
MTEXT
  5
65
330
1F
100
AcDbEntity
  8
0
  6
Continuous
 62
     7
370
     0
100
AcDbMText
 10
79.0405338665
 20
88.1409446129
 30
0.0
 40
3.5
 41
0.0
 71
     1
 72
     1
  1
BV-3022R
  7
SLDTEXTSTYLE0
 73
     1
 44
1.0
  0
LINE
  5
66
330
1F
100
AcDbEntity
  8
0
  6
Continuous
 62
     7
370
    25
100
AcDbLine
 10
36.2871275235
 20
53.7469040752
 30
0.0
 11
36.0871275235
 21
53.5469040752
 31
0.0
  0
LINE
  5
67
330
1F
100
AcDbEntity
  8
0
  6
Continuous
 62
     7
370
    25
100
AcDbLine
 10
36.0871275235
 20
36.9469040752
 30
0.0
 11
36.2871275235
 21
36.7469040752
 31
0.0
  0
LINE
  5
68
330
1F
100
AcDbEntity
  8
0
  6
Continuous
 62
     7
370
    25
100
AcDbLine
 10
39.0871275235
 20
53.7469040752
 30
0.0
 11
36.2871275235
 21
53.7469040752
 31
0.0
  0
LINE
  5
69
330
1F
100
AcDbEntity
  8
0
  6
Continuous
 62
     7
370
    25
100
AcDbLine
 10
36.2871275235
 20
36.7469040752
 30
0.0
 11
39.0871275235
 21
36.7469040752
 31
0.0
  0
LINE
  5
6A
330
1F
100
AcDbEntity
  8
0
  6
Continuous
 62
     7
370
    25
100
AcDbLine
 10
27.0871275235
 20
51.8254040752
 30
0.0
 11
26.0871275235
 21
50.8254040752
 31
0.0
  0
LINE
  5
6B
330
1F
100
AcDbEntity
  8
0
  6
Continuous
 62
     7
370
    25
100
AcDbLine
 10
26.0871275235
 20
39.6684040752
 30
0.0
 11
27.0871275235
 21
38.6684040752
 31
0.0
  0
LINE
  5
6C
330
1F
100
AcDbEntity
  8
0
  6
Continuous
 62
     7
370
    25
100
AcDbLine
 10
36.0871275235
 20
51.8254040752
 30
0.0
 11
27.0871275235
 21
51.8254040752
 31
0.0
  0
LINE
  5
6D
330
1F
100
AcDbEntity
  8
0
  6
Continuous
 62
     7
370
    25
100
AcDbLine
 10
27.0871275235
 20
38.6684040752
 30
0.0
 11
36.0871275235
 21
38.6684040752
 31
0.0
  0
LINE
  5
6E
330
1F
100
AcDbEntity
  8
0
  6
Continuous
 62
     7
370
    25
100
AcDbLine
 10
61.7282587764
 20
35.5092997682
 30
0.0
 11
62.5871275235
 21
36.9969040752
 31
0.0
  0
LINE
  5
6F
330
1F
100
AcDbEntity
  8
0
  6
Continuous
 62
     7
370
    25
100
AcDbLine
 10
62.5871275235
 20
53.4969040752
 30
0.0
 11
61.7282587764
 21
54.9845083823
 31
0.0
  0
LINE
  5
70
330
1F
100
AcDbEntity
  8
0
  6
Continuous
 62
     7
370
    25
100
AcDbLine
 10
40.8495232165
 20
34.1057728223
 30
0.0
 11
42.3371275235
 21
33.2469040752
 31
0.0
  0
LINE
  5
71
330
1F
100
AcDbEntity
  8
0
  6
Continuous
 62
     7
370
    25
100
AcDbLine
 10
58.8371275235
 20
33.2469040752
 30
0.0
 11
60.3247318305
 21
34.1057728223
 31
0.0
  0
LINE
  5
72
330
1F
100
AcDbEntity
  8
0
  6
Continuous
 62
     7
370
    25
100
AcDbLine
 10
58.8371275235
 20
22.2469040752
 30
0.0
 11
58.8371275235
 21
33.2469040752
 31
0.0
  0
LINE
  5
73
330
1F
100
AcDbEntity
  8
0
  6
Continuous
 62
     7
370
    25
100
AcDbLine
 10
42.3371275235
 20
33.2469040752
 30
0.0
 11
42.3371275235
 21
22.2469040752
 31
0.0
  0
LINE
  5
74
330
1F
100
AcDbEntity
  8
0
  6
Continuous
 62
     7
370
    25
100
AcDbLine
 10
42.3371275235
 20
22.2469040752
 30
0.0
 11
42.8371275235
 21
21.7469040752
 31
0.0
  0
LINE
  5
75
330
1F
100
AcDbEntity
  8
0
  6
Continuous
 62
     7
370
    25
100
AcDbLine
 10
58.3371275235
 20
21.7469040752
 30
0.0
 11
58.8371275235
 21
22.2469040752
 31
0.0
  0
SPLINE
  5
76
330
1F
100
AcDbEntity
  8
0
  6
Continuous
 62
     7
370
    25
100
AcDbSpline
210
0.0
220
0.0
230
1.0
 70
     8
 71
     3
 72
    11
 73
     7
 74
     0
 42
0.00000001
 43
0.00000001
 40
0.0
 40
0.0
 40
0.0
 40
0.0
 40
0.2407583623491387
 40
0.608322986135229
 40
0.9234248428897852
 40
1.0
 40
1.0
 40
1.0
 40
1.0
 10
56.75715181825804
 20
54.03591821045381
 30
0.0
 10
56.71287596748421
 20
54.08155692509445
 30
0.0
 10
56.60100439013332
 20
54.19687204396581
 30
0.0
 10
56.50700978128427
 20
54.42505273865747
 30
0.0
 10
56.46260483423031
 20
54.62278513758
 30
0.0
 10
56.47171194199256
 20
54.72531907095453
 30
0.0
 10
56.47349243505963
 20
54.74536505726302
 30
0.0
  0
SPLINE
  5
77
330
1F
100
AcDbEntity
  8
0
  6
Continuous
 62
     7
370
    25
100
AcDbSpline
210
0.0
220
0.0
230
1.0
 70
     8
 71
     3
 72
    11
 73
     7
 74
     0
 42
0.00000001
 43
0.00000001
 40
0.0
 40
0.0
 40
0.0
 40
0.0
 40
0.1495704129227214
 40
0.4936345312538986
 40
0.850320483846882
 40
1.0
 40
1.0
 40
1.0
 40
1.0
 10
44.69358696962505
 20
54.74647321131162
 30
0.0
 10
44.69575774944958
 20
54.70727447978245
 30
0.0
 10
44.70292208001597
 20
54.57790499362515
 30
0.0
 10
44.6390276452191
 20
54.36123472325205
 30
0.0
 10
44.53967134826163
 20
54.15663771314105
 30
0.0
 10
44.44114631200986
 20
54.0672877193777
 30
0.0
 10
44.41202272308968
 20
54.04087623466903
 30
0.0
  0
LINE
  5
78
330
1F
100
AcDbEntity
  8
0
  6
Continuous
 62
     7
370
    25
100
AcDbLine
 10
56.4871275235
 20
54.7423732552
 30
0.0
 11
56.4871275235
 21
55.7469040752
 31
0.0
  0
LINE
  5
79
330
1F
100
AcDbEntity
  8
0
  6
Continuous
 62
     7
370
    25
100
AcDbLine
 10
44.6871275235
 20
55.7469040752
 30
0.0
 11
44.6871275235
 21
54.7469040752
 31
0.0
  0
LINE
  5
7A
330
1F
100
AcDbEntity
  8
0
  6
Continuous
 62
     7
370
    25
100
AcDbLine
 10
44.4169606162
 20
54.0416418045
 30
0.0
 11
43.8725963437
 21
54.9845083823
 31
0.0
  0
LINE
  5
7B
330
1F
100
AcDbEntity
  8
0
  6
Continuous
 62
     7
370
    25
100
AcDbLine
 10
57.3016587033
 20
54.9845083823
 30
0.0
 11
56.7572944309
 21
54.0416418045
 31
0.0
  0
LINE
  5
7C
330
1F
100
AcDbEntity
  8
0
  6
Continuous
 62
     7
370
    25
100
AcDbLine
 10
39.8016587033
 20
54.9845083823
 30
0.0
 11
39.0871275235
 21
53.7469040752
 31
0.0
  0
LINE
  5
7D
330
1F
100
AcDbEntity
  8
0
  6
Continuous
 62
     7
370
    25
100
AcDbLine
 10
39.0871275235
 20
36.7469040752
 30
0.0
 11
39.8016587033
 21
35.5092997682
 31
0.0
  0
LINE
  5
7E
330
1F
100
AcDbEntity
  8
0
  6
Continuous
 62
     7
370
    25
100
AcDbLine
 10
60.3247318305
 20
35.5092997682
 30
0.0
 11
61.7308268319
 21
35.5092997682
 31
0.0
  0
LINE
  5
7F
330
1F
100
AcDbEntity
  8
0
  6
Continuous
 62
     7
370
    25
100
AcDbLine
 10
60.3247318305
 20
34.103212441
 30
0.0
 11
60.3247318305
 21
35.5092997682
 31
0.0
  0
LINE
  5
80
330
1F
100
AcDbEntity
  8
0
  6
Continuous
 62
     7
370
    25
100
AcDbLine
 10
43.8751643992
 20
54.9845083823
 30
0.0
 11
39.799098322
 21
54.9845083823
 31
0.0
  0
LINE
  5
81
330
1F
100
AcDbEntity
  8
0
  6
Continuous
 62
     7
370
    25
100
AcDbLine
 10
61.7308268319
 20
54.9845083823
 30
0.0
 11
57.2990906479
 21
54.9845083823
 31
0.0
  0
LINE
  5
82
330
1F
100
AcDbEntity
  8
0
  6
Continuous
 62
     7
370
    25
100
AcDbLine
 10
40.8495232165
 20
35.5092997682
 30
0.0
 11
40.8495232165
 21
34.103212441
 31
0.0
  0
LINE
  5
83
330
1F
100
AcDbEntity
  8
0
  6
Continuous
 62
     7
370
    25
100
AcDbLine
 10
39.799098322
 20
35.5092997682
 30
0.0
 11
40.8495232165
 21
35.5092997682
 31
0.0
  0
LINE
  5
84
330
1F
100
AcDbEntity
  8
0
  6
Continuous
 62
     7
370
    25
100
AcDbLine
 10
43.1371275235
 20
63.7469040752
 30
0.0
 11
43.5871275235
 21
55.7469040752
 31
0.0
  0
LINE
  5
85
330
1F
100
AcDbEntity
  8
0
  6
Continuous
 62
     7
370
    25
100
AcDbLine
 10
45.0871275235
 20
71.7469040752
 30
0.0
 11
43.1371275235
 21
63.7469040752
 31
0.0
  0
LINE
  5
86
330
1F
100
AcDbEntity
  8
0
  6
Continuous
 62
     7
370
    25
100
AcDbLine
 10
57.5871275235
 20
55.7469040752
 30
0.0
 11
57.6558729411
 21
56.9690448325
 31
0.0
  0
LINE
  5
87
330
1F
100
AcDbEntity
  8
0
  6
Continuous
 62
     7
370
    25
100
AcDbLine
 10
56.340359058
 20
70.7080054721
 30
0.0
 11
56.0871275235
 21
71.7469040752
 31
0.0
  0
LINE
  5
88
330
1F
100
AcDbEntity
  8
0
  6
Continuous
 62
     7
370
    25
100
AcDbLine
 10
36.0871275235
 20
52.8654475442
 30
0.0
 11
36.0871275235
 21
53.5469040752
 31
0.0
  0
LINE
  5
89
330
1F
100
AcDbEntity
  8
0
  6
Continuous
 62
     7
370
    25
100
AcDbLine
 10
36.0871275235
 20
36.9469040752
 30
0.0
 11
36.0871275235
 21
52.8654475442
 31
0.0
  0
LINE
  5
8A
330
1F
100
AcDbEntity
  8
0
  6
Continuous
 62
     7
370
    25
100
AcDbLine
 10
36.2871275235
 20
53.0490269049
 30
0.0
 11
36.2871275235
 21
36.7469040752
 31
0.0
  0
LINE
  5
8B
330
1F
100
AcDbEntity
  8
0
  6
Continuous
 62
     7
370
    25
100
AcDbLine
 10
36.2871275235
 20
53.7469040752
 30
0.0
 11
36.2871275235
 21
53.0490269049
 31
0.0
  0
LINE
  5
8C
330
1F
100
AcDbEntity
  8
0
  6
Continuous
 62
     7
370
    25
100
AcDbLine
 10
39.0871275235
 20
53.0490269049
 30
0.0
 11
39.0871275235
 21
53.7469040752
 31
0.0
  0
LINE
  5
8D
330
1F
100
AcDbEntity
  8
0
  6
Continuous
 62
     7
370
    25
100
AcDbLine
 10
39.0871275235
 20
36.7469040752
 30
0.0
 11
39.0871275235
 21
53.0490269049
 31
0.0
  0
LINE
  5
8E
330
1F
100
AcDbEntity
  8
0
  6
Continuous
 62
     7
370
    25
100
AcDbLine
 10
26.0871275235
 20
50.3673913935
 30
0.0
 11
26.0871275235
 21
50.8254040752
 31
0.0
  0
LINE
  5
8F
330
1F
100
AcDbEntity
  8
0
  6
Continuous
 62
     7
370
    25
100
AcDbLine
 10
26.0871275235
 20
39.6684040752
 30
0.0
 11
26.0871275235
 21
50.3673913935
 31
0.0
  0
LINE
  5
90
330
1F
100
AcDbEntity
  8
0
  6
Continuous
 62
     7
370
    25
100
AcDbLine
 10
27.0871275235
 20
51.285288197
 30
0.0
 11
27.0871275235
 21
38.6684040752
 31
0.0
  0
LINE
  5
91
330
1F
100
AcDbEntity
  8
0
  6
Continuous
 62
     7
370
    25
100
AcDbLine
 10
27.0871275235
 20
51.8254040752
 30
0.0
 11
27.0871275235
 21
51.285288197
 31
0.0
  0
LINE
  5
92
330
1F
100
AcDbEntity
  8
0
  6
Continuous
 62
     7
370
    25
100
AcDbLine
 10
44.5871275235
 20
52.6081200074
 30
0.0
 11
44.5871275235
 21
49.2469040752
 31
0.0
  0
SPLINE
  5
93
330
1F
100
AcDbEntity
  8
0
  6
Continuous
 62
     7
370
    25
100
AcDbSpline
210
0.0
220
0.0
230
1.0
 70
     8
 71
     3
 72
     8
 73
     4
 74
     0
 42
0.00000001
 43
0.00000001
 40
0.0
 40
0.0
 40
0.0
 40
0.0
 40
1.0
 40
1.0
 40
1.0
 40
1.0
 10
44.07089144653182
 20
49.24690407523519
 30
0.0
 10
44.01999272960931
 20
49.45394911366418
 30
0.0
 10
43.96605859335855
 20
49.66018844334081
 30
0.0
 10
43.90940611825081
 20
49.8657062287522
 30
0.0
  0
SPLINE
  5
94
330
1F
100
AcDbEntity
  8
0
  6
Continuous
 62
     7
370
    25
100
AcDbSpline
210
0.0
220
0.0
230
1.0
 70
     8
 71
     3
 72
    10
 73
     6
 74
     0
 42
0.00000001
 43
0.00000001
 40
0.0
 40
0.0
 40
0.0
 40
0.0
 40
0.5
 40
0.5
 40
1.0
 40
1.0
 40
1.0
 40
1.0
 10
43.90940611825081
 20
50.29871893064441
 30
0.0
 10
43.88573072382643
 20
50.25577539974319
 30
0.0
 10
43.87263961394179
 20
50.19233295511906
 30
0.0
 10
43.8725532926535
 20
50.03985411800009
 30
0.0
 10
43.88572222659734
 20
49.95162411589283
 30
0.0
 10
43.90940611825081
 20
49.8657062287522
 30
0.0
  0
SPLINE
  5
95
330
1F
100
AcDbEntity
  8
0
  6
Continuous
 62
     7
370
    25
100
AcDbSpline
210
0.0
220
0.0
230
1.0
 70
     8
 71
     3
 72
    12
 73
     8
 74
     0
 42
0.00000001
 43
0.00000001
 40
0.0
 40
0.0
 40
0.0
 40
0.0
 40
0.2500000000000001
 40
0.2500000000000001
 40
0.5000000000000002
 40
0.5000000000000002
 40
1.0
 40
1.0
 40
1.0
 40
1.0
 10
44.587127523511
 20
52.60812000740291
 30
0.0
 10
44.587127523511
 20
52.4123777445234
 30
0.0
 10
44.57128458742205
 20
52.21571113533284
 30
0.0
 10
44.50978172718438
 20
51.82644290800455
 30
0.0
 10
44.46417808614069
 20
51.63303887505164
 30
0.0
 10
44.28772706865147
 20
51.05610982379488
 30
0.0
 10
44.11732970139962
 20
50.67586039059187
 30
0.0
 10
43.90940611825081
 20
50.29871893064441
 30
0.0
  0
LINE
  5
96
330
1F
100
AcDbEntity
  8
0
  6
Continuous
 62
     7
370
    25
100
AcDbLine
 10
45.96832537
 20
37.2805075354
 30
0.0
 11
45.96832537
 21
34.0689630478
 31
0.0
  0
SPLINE
  5
97
330
1F
100
AcDbEntity
  8
0
  6
Continuous
 62
     7
370
    25
100
AcDbSpline
210
0.0
220
0.0
230
1.0
 70
     8
 71
     3
 72
     8
 73
     4
 74
     0
 42
0.00000001
 43
0.00000001
 40
0.0
 40
0.0
 40
0.0
 40
0.0
 40
1.0
 40
1.0
 40
1.0
 40
1.0
 10
45.96832536999397
 20
37.28050753538019
 30
0.0
 10
46.17351119253726
 20
37.33706850250441
 30
0.0
 10
46.37973439324458
 20
37.39100857391824
 30
0.0
 10
46.58712752351101
 20
37.44199286366121
 30
0.0
  0
SPLINE
  5
98
330
1F
100
AcDbEntity
  8
0
  6
Continuous
 62
     7
370
    25
100
AcDbSpline
210
0.0
220
0.0
230
1.0
 70
     8
 71
     3
 72
     8
 73
     4
 74
     0
 42
0.00000001
 43
0.00000001
 40
0.0
 40
0.0
 40
0.0
 40
0.0
 40
1.0
 40
1.0
 40
1.0
 40
1.0
 10
43.90940611825082
 20
40.62810192171815
 30
0.0
 10
43.96596948771905
 20
40.83329645922791
 30
0.0
 10
44.0199094105403
 20
41.03952011274507
 30
0.0
 10
44.07089144653182
 20
41.24690407523518
 30
0.0
  0
LINE
  5
99
330
1F
100
AcDbEntity
  8
0
  6
Continuous
 62
     7
370
    25
100
AcDbLine
 10
39.7648489288
 20
40.6281019217
 30
0.0
 11
43.9094061183
 21
40.6281019217
 31
0.0
  0
SPLINE
  5
9A
330
1F
100
AcDbEntity
  8
0
  6
Continuous
 62
     7
370
    25
100
AcDbSpline
210
0.0
220
0.0
230
1.0
 70
     8
 71
     3
 72
    10
 73
     6
 74
     0
 42
0.00000001
 43
0.00000001
 40
0.0
 40
0.0
 40
0.0
 40
0.0
 40
0.5
 40
0.5
 40
1.0
 40
1.0
 40
1.0
 40
1.0
 10
39.76484892877119
 20
40.62810192171817
 30
0.0
 10
39.55678025253997
 20
41.38291119476746
 30
0.0
 10
39.38638124651544
 20
42.14365758199936
 30
0.0
 10
39.1512212668166
 20
43.68179995962262
 30
0.0
 10
39.087127523511
 20
44.45930111214744
 30
0.0
 10
39.087127523511
 20
45.24690407523519
 30
0.0
  0
SPLINE
  5
9B
330
1F
100
AcDbEntity
  8
0
  6
Continuous
 62
     7
370
    25
100
AcDbSpline
210
0.0
220
0.0
230
1.0
 70
     8
 71
     3
 72
    12
 73
     8
 74
     0
 42
0.00000001
 43
0.00000001
 40
0.0
 40
0.0
 40
0.0
 40
0.0
 40
0.2500000000000001
 40
0.2500000000000001
 40
0.5000000000000001
 40
0.5000000000000001
 40
1.0
 40
1.0
 40
1.0
 40
1.0
 10
39.087127523511
 20
45.24690407523519
 30
0.0
 10
39.087127523511
 20
45.64122215590702
 30
0.0
 10
39.10312632849207
 20
46.03488119985746
 30
0.0
 10
39.16489646680646
 20
46.8144171994028
 30
0.0
 10
39.21063859110806
 20
47.20137038752822
 30
0.0
 10
39.38730873845491
 20
48.35475695038222
 30
0.0
 10
39.5575638039352
 20
49.11373943958726
 30
0.0
 10
39.76484892877119
 20
49.8657062287522
 30
0.0
  0
LINE
  5
9C
330
1F
100
AcDbEntity
  8
0
  6
Continuous
 62
     7
370
    25
100
AcDbLine
 10
43.9094061183
 20
49.8657062288
 30
0.0
 11
39.7648489288
 21
49.8657062288
 31
0.0
  0
LINE
  5
9D
330
1F
100
AcDbEntity
  8
0
  6
Continuous
 62
     7
370
    25
100
AcDbLine
 10
57.1033636005
 20
49.2469040752
 30
0.0
 11
44.0708914465
 21
49.2469040752
 31
0.0
  0
SPLINE
  5
9E
330
1F
100
AcDbEntity
  8
0
  6
Continuous
 62
     7
370
    25
100
AcDbSpline
210
0.0
220
0.0
230
1.0
 70
     8
 71
     3
 72
     8
 73
     4
 74
     0
 42
0.00000001
 43
0.00000001
 40
0.0
 40
0.0
 40
0.0
 40
0.0
 40
1.0
 40
1.0
 40
1.0
 40
1.0
 10
57.10336360049019
 20
49.24690407523525
 30
0.0
 10
57.15425983374526
 20
49.45393901063901
 30
0.0
 10
57.20819378870893
 20
49.660178775704
 30
0.0
 10
57.26484892877119
 20
49.8657062287522
 30
0.0
  0
LINE
  5
9F
330
1F
100
AcDbEntity
  8
0
  6
Continuous
 62
     7
370
    25
100
AcDbLine
 10
61.765068551
 20
49.8657062288
 30
0.0
 11
57.2648489288
 21
49.8657062288
 31
0.0
  0
SPLINE
  5
A0
330
1F
100
AcDbEntity
  8
0
  6
Continuous
 62
     7
370
    25
100
AcDbSpline
210
0.0
220
0.0
230
1.0
 70
     8
 71
     3
 72
    14
 73
    10
 74
     0
 42
0.00000001
 43
0.00000001
 40
0.0
 40
0.0
 40
0.0
 40
0.0
 40
0.25
 40
0.25
 40
0.5
 40
0.5
 40
0.75
 40
0.75
 40
1.0
 40
1.0
 40
1.0
 40
1.0
 10
61.76506855095341
 20
40.62810192171813
 30
0.0
 10
61.97301891165918
 20
41.38248198236812
 30
0.0
 10
62.14524072034805
 20
42.15192314983361
 30
0.0
 10
62.37987584309896
 20
43.69243451077477
 30
0.0
 10
62.44281990172664
 20
44.46728889078179
 30
0.0
 10
62.44275998899516
 20
46.02764984566736
 30
0.0
 10
62.37814532270306
 20
46.81810603845238
 30
0.0
 10
62.14158598330184
 20
48.36038570126085
 30
0.0
 10
61.9712408432224
 20
49.11777645446203
 30
0.0
 10
61.7650685509534
 20
49.8657062287522
 30
0.0
  0
LINE
  5
A1
330
1F
100
AcDbEntity
  8
0
  6
Continuous
 62
     7
370
    25
100
AcDbLine
 10
57.2648489288
 20
40.6281019217
 30
0.0
 11
61.765068551
 21
40.6281019217
 31
0.0
  0
SPLINE
  5
A2
330
1F
100
AcDbEntity
  8
0
  6
Continuous
 62
     7
370
    25
100
AcDbSpline
210
0.0
220
0.0
230
1.0
 70
     8
 71
     3
 72
     8
 73
     4
 74
     0
 42
0.00000001
 43
0.00000001
 40
0.0
 40
0.0
 40
0.0
 40
0.0
 40
1.0
 40
1.0
 40
1.0
 40
1.0
 10
57.26484892877119
 20
40.62810192171816
 30
0.0
 10
57.20828708533423
 20
40.83329092325496
 30
0.0
 10
57.15434706807785
 20
41.03951428931966
 30
0.0
 10
57.10336360049019
 20
41.24690407523512
 30
0.0
  0
LINE
  5
A3
330
1F
100
AcDbEntity
  8
0
  6
Continuous
 62
     7
370
    25
100
AcDbLine
 10
57.1033636005
 20
41.2469040752
 30
0.0
 11
54.5871275235
 21
41.2469040752
 31
0.0
  0
LINE
  5
A4
330
1F
100
AcDbEntity
  8
0
  6
Continuous
 62
     7
370
    25
100
AcDbLine
 10
54.5871275235
 20
37.4419928637
 30
0.0
 11
54.5871275235
 21
41.2469040752
 31
0.0
  0
SPLINE
  5
A5
330
1F
100
AcDbEntity
  8
0
  6
Continuous
 62
     7
370
    25
100
AcDbSpline
210
0.0
220
0.0
230
1.0
 70
     8
 71
     3
 72
     8
 73
     4
 74
     0
 42
0.00000001
 43
0.00000001
 40
0.0
 40
0.0
 40
0.0
 40
0.0
 40
1.0
 40
1.0
 40
1.0
 40
1.0
 10
54.58712752351101
 20
37.4419928636612
 30
0.0
 10
54.79415658684639
 20
37.39109807396038
 30
0.0
 10
55.00039660411574
 20
37.33716422459894
 30
0.0
 10
55.20592967702801
 20
37.28050753538018
 30
0.0
  0
LINE
  5
A6
330
1F
100
AcDbEntity
  8
0
  6
Continuous
 62
     7
370
    25
100
AcDbLine
 10
55.205929677
 20
34.0689630478
 30
0.0
 11
55.205929677
 21
37.2805075354
 31
0.0
  0
SPLINE
  5
A7
330
1F
100
AcDbEntity
  8
0
  6
Continuous
 62
     7
370
    25
100
AcDbSpline
210
0.0
220
0.0
230
1.0
 70
     8
 71
     3
 72
    16
 73
    12
 74
     0
 42
0.00000001
 43
0.00000001
 40
0.0
 40
0.0
 40
0.0
 40
0.0
 40
0.25
 40
0.25
 40
0.375
 40
0.375
 40
0.5
 40
0.5
 40
0.75
 40
0.75
 40
1.0
 40
1.0
 40
1.0
 40
1.0
 10
55.205929677028
 20
34.06896304779278
 30
0.0
 10
54.45356902228496
 20
33.86156935104017
 30
0.0
 10
53.69242014746822
 20
33.69068016382604
 30
0.0
 10
52.53166294484375
 20
33.5134093591036
 30
0.0
 10
52.14156094448483
 20
33.46754035756073
 30
0.0
 10
51.3540804404804
 20
33.40602749465171
 30
0.0
 10
50.95955806439477
 20
33.39075846435741
 30
0.0
 10
49.78636374067212
 20
33.39224337696293
 30
0.0
 10
49.01294781464491
 20
33.45644020537041
 30
0.0
 10
47.48078682671824
 20
33.69125338864185
 30
0.0
 10
46.72195223485697
 20
33.86122031099405
 30
0.0
 10
45.96832536999388
 20
34.06896304779281
 30
0.0
  0
ARC
  5
A8
330
1F
100
AcDbEntity
  8
0
  6
Continuous
 62
     7
370
    25
100
AcDbCircle
 10
52.1378588792
 20
44.6699850819
 30
0.0
 40
0.889000000000007
100
AcDbArc
 50
45.0
 51
315.0
  0
LINE
  5
A9
330
1F
100
AcDbEntity
  8
0
  6
Continuous
 62
     7
370
    25
100
AcDbLine
 10
52.7664768077
 20
45.2986030104
 30
0.0
 11
53.2330871933
 21
45.765213396
 31
0.0
  0
ARC
  5
AA
330
1F
100
AcDbEntity
  8
0
  6
Continuous
 62
     7
370
    25
100
AcDbCircle
 10
52.1378588792
 20
44.6699850819
 30
0.0
 40
1.548886735692399
100
AcDbArc
 50
45.0
 51
315.0
  0
LINE
  5
AB
330
1F
100
AcDbEntity
  8
0
  6
Continuous
 62
     7
370
    25
100
AcDbLine
 10
53.2330871933
 20
43.5747567678
 30
0.0
 11
52.7664768077
 21
44.0413671534
 31
0.0
  0
ARC
  5
AC
330
1F
100
AcDbEntity
  8
0
  6
Continuous
 62
     7
370
    25
100
AcDbCircle
 10
55.4800034756
 20
44.6699850819
 30
0.0
 40
0.8889999999999919
100
AcDbArc
 50
45.0
 51
159.0751675724
  0
LINE
  5
AD
330
1F
100
AcDbEntity
  8
0
  6
Continuous
 62
     7
370
    25
100
AcDbLine
 10
56.1086214041
 20
45.2986030104
 30
0.0
 11
56.5752317897
 21
45.765213396
 31
0.0
  0
ARC
  5
AE
330
1F
100
AcDbEntity
  8
0
  6
Continuous
 62
     7
370
    25
100
AcDbCircle
 10
55.4800034756
 20
44.6699850819
 30
0.0
 40
1.548886735692379
100
AcDbArc
 50
45.0
 51
315.0
  0
LINE
  5
AF
330
1F
100
AcDbEntity
  8
0
  6
Continuous
 62
     7
370
    25
100
AcDbLine
 10
56.5752317897
 20
43.5747567678
 30
0.0
 11
56.1086214041
 21
44.0413671534
 31
0.0
  0
ARC
  5
B0
330
1F
100
AcDbEntity
  8
0
  6
Continuous
 62
     7
370
    25
100
AcDbCircle
 10
55.4800034756
 20
44.6699850819
 30
0.0
 40
0.8890000000000019
100
AcDbArc
 50
200.9248324276
 51
315.0
  0
LINE
  5
B1
330
1F
100
AcDbEntity
  8
0
  6
Continuous
 62
     7
370
    25
100
AcDbLine
 10
54.6496332268
 20
44.3524850819
 30
0.0
 11
56.5752317897
 21
44.3524850819
 31
0.0
  0
LINE
  5
B2
330
1F
100
AcDbEntity
  8
0
  6
Continuous
 62
     7
370
    25
100
AcDbLine
 10
56.5752317897
 20
44.3524850819
 30
0.0
 11
56.5752317897
 21
44.9874850819
 31
0.0
  0
LINE
  5
B3
330
1F
100
AcDbEntity
  8
0
  6
Continuous
 62
     7
370
    25
100
AcDbLine
 10
56.5752317897
 20
44.9874850819
 30
0.0
 11
54.6496332268
 21
44.9874850819
 31
0.0
  0
LINE
  5
B4
330
1F
100
AcDbEntity
  8
0
  6
Continuous
 62
     7
370
    25
100
AcDbLine
 10
49.6853686095
 20
43.8245310576
 30
0.0
 11
49.6437182902
 21
43.8007261278
 31
0.0
  0
ELLIPSE
  5
B5
330
1F
100
AcDbEntity
  8
0
  6
Continuous
 62
     7
370
    25
100
AcDbEllipse
 10
49.2948751107
 20
44.355408599
 30
0.0
 11
0.6784129479252741
 21
6.110667527536862E-13
 31
0.0
210
0.0
220
0.0
230
1.0
 40
0.9533039403
 41
3.470145824140281
 42
5.252469180536299
  0
LINE
  5
B6
330
1F
100
AcDbEntity
  8
0
  6
Continuous
 62
     7
370
    25
100
AcDbLine
 10
48.6527503437
 20
44.146724484
 30
0.0
 11
47.3930961388
 21
47.6691688807
 31
0.0
  0
ELLIPSE
  5
B7
330
1F
100
AcDbEntity
  8
0
  6
Continuous
 62
     7
370
    25
100
AcDbEllipse
 10
46.8021135809
 20
47.4068296446
 30
0.0
 11
0.6519124952381503
 21
6.110667527536862E-13
 31
0.0
210
0.0
220
0.0
230
1.0
 40
0.9533023292
 41
0.4357905044354821
 42
2.70580011636152
  0
LINE
  5
B8
330
1F
100
AcDbEntity
  8
0
  6
Continuous
 62
     7
370
    25
100
AcDbLine
 10
46.2111315823
 20
47.6691700259
 30
0.0
 11
44.9517667807
 21
44.1475466242
 31
0.0
  0
ELLIPSE
  5
B9
330
1F
100
AcDbEntity
  8
0
  6
Continuous
 62
     7
370
    25
100
AcDbEllipse
 10
44.3096455967
 20
44.3562294579
 30
0.0
 11
-0.6784085062757867
 21
3.268496584496461E-13
 31
0.0
210
0.0
220
0.0
230
1.0
 40
0.9533122623
 41
1.047193771187948
 42
2.813042320199938
  0
LINE
  5
BA
330
1F
100
AcDbEntity
  8
0
  6
Continuous
 62
     7
370
    25
100
AcDbLine
 10
43.9704391227
 20
43.7961416126
 30
0.0
 11
43.9188585522
 21
43.8245310576
 31
0.0
  0
LINE
  5
BB
330
1F
100
AcDbEntity
  8
0
  6
Continuous
 62
     7
370
    25
100
AcDbLine
 10
43.9188585522
 20
43.8245310576
 30
0.0
 11
44.7151272117
 21
42.3063589562
 31
0.0
  0
ELLIPSE
  5
BC
330
1F
100
AcDbEntity
  8
0
  6
Continuous
 62
     7
370
    25
100
AcDbEllipse
 10
44.7909760851
 20
42.3425124712
 30
0.0
 11
0.08480161849065837
 21
-2.131628207280301E-14
 31
0.0
210
0.0
220
0.0
230
1.0
 40
0.9533039403
 41
3.605240262590902
 42
5.462183310215417
  0
ELLIPSE
  5
BD
330
1F
100
AcDbEntity
  8
0
  6
Continuous
 62
     7
370
    25
100
AcDbEllipse
 10
46.8021135809
 20
40.2836638506
 30
0.0
 11
2.866293551216202
 21
-1.492139745096210E-12
 31
0.0
210
0.0
220
0.0
230
1.0
 40
0.9533046568
 41
0.8210016221243784
 42
2.320591031466442
  0
ELLIPSE
  5
BE
330
1F
100
AcDbEntity
  8
0
  6
Continuous
 62
     7
370
    25
100
AcDbEllipse
 10
48.8132510766
 20
42.3425124712
 30
0.0
 11
0.08480161849060863
 21
-7.105427357601002E-15
 31
0.0
210
0.0
220
0.0
230
1.0
 40
0.9533039403
 41
3.962594650556532
 42
5.819537698177222
  0
LINE
  5
BF
330
1F
100
AcDbEntity
  8
0
  6
Continuous
 62
     7
370
    25
100
AcDbLine
 10
48.88909995
 20
42.3063589562
 30
0.0
 11
49.6853686095
 21
43.8245310576
 31
0.0
  0
LINE
  5
C0
330
1F
100
AcDbEntity
  8
0
  6
Continuous
 62
     7
370
    25
100
AcDbLine
 10
46.5871275235
 20
37.4419928637
 30
0.0
 11
46.5871275235
 21
41.2469040752
 31
0.0
  0
LINE
  5
C1
330
1F
100
AcDbEntity
  8
0
  6
Continuous
 62
     7
370
    25
100
AcDbLine
 10
46.5871275235
 20
41.2469040752
 30
0.0
 11
44.0708914465
 21
41.2469040752
 31
0.0
  0
SPLINE
  5
C2
330
1F
100
AcDbEntity
  8
0
  6
Continuous
 62
     7
370
    25
100
AcDbSpline
210
0.0
220
0.0
230
1.0
 70
     8
 71
     3
 72
    10
 73
     6
 74
     0
 42
0.00000001
 43
0.00000001
 40
0.0
 40
0.0
 40
0.0
 40
0.0
 40
0.5
 40
0.5
 40
1.0
 40
1.0
 40
1.0
 40
1.0
 10
61.76506855095328
 20
40.62810192171818
 30
0.0
 10
61.74139315652889
 20
40.54221485991572
 30
0.0
 10
61.72830204664437
 20
40.45480765093558
 30
0.0
 10
61.7282157253561
 20
40.30217120834185
 30
0.0
 10
61.74138465929994
 20
40.23804816339626
 30
0.0
 10
61.7650685509534
 20
40.19508921982596
 30
0.0
  0
SPLINE
  5
C3
330
1F
100
AcDbEntity
  8
0
  6
Continuous
 62
     7
370
    25
100
AcDbSpline
210
0.0
220
0.0
230
1.0
 70
     8
 71
     3
 72
    10
 73
     6
 74
     0
 42
0.00000001
 43
0.00000001
 40
0.0
 40
0.0
 40
0.0
 40
0.0
 40
0.5
 40
0.5
 40
1.0
 40
1.0
 40
1.0
 40
1.0
 10
61.7650685509534
 20
50.29871893064441
 30
0.0
 10
61.74139315652901
 20
50.25577539974319
 30
0.0
 10
61.72830204664437
 20
50.19233295511906
 30
0.0
 10
61.72821572535609
 20
50.03985411800009
 30
0.0
 10
61.74138465929993
 20
49.95162411589282
 30
0.0
 10
61.7650685509534
 20
49.8657062287522
 30
0.0
  0
SPLINE
  5
C4
330
1F
100
AcDbEntity
  8
0
  6
Continuous
 62
     7
370
    25
100
AcDbSpline
210
0.0
220
0.0
230
1.0
 70
     8
 71
     3
 72
    16
 73
    12
 74
     0
 42
0.00000001
 43
0.00000001
 40
0.0
 40
0.0
 40
0.0
 40
0.0
 40
0.2500000000000001
 40
0.2500000000000001
 40
0.5000000000000001
 40
0.5000000000000001
 40
0.6250000000000001
 40
0.6250000000000001
 40
0.7500000000000002
 40
0.7500000000000002
 40
1.0
 40
1.0
 40
1.0
 40
1.0
 10
61.7650685509534
 20
54.91752108416141
 30
0.0
 10
61.97308399905916
 20
54.54021299528493
 30
0.0
 10
62.14329030403214
 20
54.16018926491072
 30
0.0
 10
62.37822633559973
 20
53.39256594950002
 30
0.0
 10
62.44229846726338
 20
53.00491913271123
 30
0.0
 10
62.4430314161844
 20
52.41659858082338
 30
0.0
 10
62.42737193610137
 20
52.21952538826773
 30
0.0
 10
62.36609680946444
 20
51.82946841071363
 30
0.0
 10
62.3205405369653
 20
51.63567551012559
 30
0.0
 10
62.14405450420904
 20
51.05759452536217
 30
0.0
 10
61.97339805072333
 20
50.67659666102735
 30
0.0
 10
61.7650685509534
 20
50.29871893064441
 30
0.0
  0
SPLINE
  5
C5
330
1F
100
AcDbEntity
  8
0
  6
Continuous
 62
     7
370
    25
100
AcDbSpline
210
0.0
220
0.0
230
1.0
 70
     8
 71
     3
 72
    10
 73
     6
 74
     0
 42
0.00000001
 43
0.00000001
 40
0.0
 40
0.0
 40
0.0
 40
0.0
 40
0.1601790552921226
 40
0.7197651707803578
 40
1.0
 40
1.0
 40
1.0
 40
1.0
 10
61.73083911783649
 20
54.97979936291116
 30
0.0
 10
61.73007632774324
 20
54.98119159093753
 30
0.0
 10
61.72664872766951
 20
54.98744757266586
 30
0.0
 10
61.74115619246781
 20
54.96094030793795
 30
0.0
 10
61.75908574558564
 20
54.92838445279278
 30
0.0
 10
61.7650685509534
 20
54.91752108416141
 30
0.0
  0
SPLINE
  5
C6
330
1F
100
AcDbEntity
  8
0
  6
Continuous
 62
     7
370
    25
100
AcDbSpline
210
0.0
220
0.0
230
1.0
 70
     8
 71
     3
 72
     9
 73
     5
 74
     0
 42
0.00000001
 43
0.00000001
 40
0.0
 40
0.0
 40
0.0
 40
0.0
 40
0.5797912171256352
 40
1.0
 40
1.0
 40
1.0
 40
1.0
 10
61.7650685509534
 20
35.57628706630895
 30
0.0
 10
61.75270994760693
 20
35.55381341806782
 30
0.0
 10
61.73139433781254
 20
35.515051795647
 30
0.0
 10
61.73100339530976
 20
35.51431739088879
 30
0.0
 10
61.7308391178365
 20
35.51400878755921
 30
0.0
  0
SPLINE
  5
C7
330
1F
100
AcDbEntity
  8
0
  6
Continuous
 62
     7
370
    25
100
AcDbSpline
210
0.0
220
0.0
230
1.0
 70
     8
 71
     3
 72
    16
 73
    12
 74
     0
 42
0.00000001
 43
0.00000001
 40
0.0
 40
0.0
 40
0.0
 40
0.0
 40
0.2500000000000001
 40
0.2500000000000001
 40
0.5000000000000002
 40
0.5000000000000002
 40
0.6250000000000001
 40
0.6250000000000001
 40
0.7500000000000001
 40
0.7500000000000001
 40
1.0
 40
1.0
 40
1.0
 40
1.0
 10
61.76506855095341
 20
40.19508921982596
 30
0.0
 10
61.97308399905916
 20
39.81778113094946
 30
0.0
 10
62.14329030403214
 20
39.43775740057526
 30
0.0
 10
62.37822633559973
 20
38.67013408516456
 30
0.0
 10
62.44229846726338
 20
38.28248726837577
 30
0.0
 10
62.4430314161844
 20
37.69416671648792
 30
0.0
 10
62.42737193610137
 20
37.49709352393226
 30
0.0
 10
62.36609680946444
 20
37.10703654637817
 30
0.0
 10
62.3205405369653
 20
36.91324364579013
 30
0.0
 10
62.14405450420903
 20
36.33516266102671
 30
0.0
 10
61.97339805072333
 20
35.95416479669188
 30
0.0
 10
61.7650685509534
 20
35.57628706630895
 30
0.0
  0
LINE
  5
C8
330
1F
100
AcDbEntity
  8
0
  6
Continuous
 62
     7
370
    25
100
AcDbLine
 10
62.5871275235
 20
53.4969040752
 30
0.0
 11
62.5871275235
 21
36.9969040752
 31
0.0
  0
SPLINE
  5
C9
330
1F
100
AcDbEntity
  8
0
  6
Continuous
 62
     7
370
    25
100
AcDbSpline
210
0.0
220
0.0
230
1.0
 70
     8
 71
     3
 72
    10
 73
     6
 74
     0
 42
0.00000001
 43
0.00000001
 40
0.0
 40
0.0
 40
0.0
 40
0.0
 40
0.5
 40
0.5
 40
1.0
 40
1.0
 40
1.0
 40
1.0
 10
39.76484892877119
 20
50.29871893064441
 30
0.0
 10
39.78852116868276
 20
50.25578112154518
 30
0.0
 10
39.80161515861801
 20
50.19234053165297
 30
0.0
 10
39.80170202607946
 20
50.03985138614414
 30
0.0
 10
39.7885322363201
 20
49.95162199694082
 30
0.0
 10
39.76484892877119
 20
49.8657062287522
 30
0.0
  0
LINE
  5
CA
330
1F
100
AcDbEntity
  8
0
  6
Continuous
 62
     7
370
    25
100
AcDbLine
 10
39.7648489288
 20
50.2987189306
 30
0.0
 11
43.9094061183
 21
50.2987189306
 31
0.0
  0
SPLINE
  5
CB
330
1F
100
AcDbEntity
  8
0
  6
Continuous
 62
     7
370
    25
100
AcDbSpline
210
0.0
220
0.0
230
1.0
 70
     8
 71
     3
 72
    10
 73
     6
 74
     0
 42
0.00000001
 43
0.00000001
 40
0.0
 40
0.0
 40
0.0
 40
0.0
 40
0.5
 40
0.5
 40
1.0
 40
1.0
 40
1.0
 40
1.0
 10
45.53531266810177
 20
37.28050753538018
 30
0.0
 10
45.57825619900301
 20
37.25683214095579
 30
0.0
 10
45.64169864362713
 20
37.24374103107116
 30
0.0
 10
45.79417748074609
 20
37.24365470978287
 30
0.0
 10
45.88240748285336
 20
37.25682364372671
 30
0.0
 10
45.96832536999398
 20
37.28050753538017
 30
0.0
  0
SPLINE
  5
CC
330
1F
100
AcDbEntity
  8
0
  6
Continuous
 62
     7
370
    25
100
AcDbSpline
210
0.0
220
0.0
230
1.0
 70
     8
 71
     3
 72
    10
 73
     6
 74
     0
 42
0.00000001
 43
0.00000001
 40
0.0
 40
0.0
 40
0.0
 40
0.0
 40
0.5
 40
0.5
 40
1.0
 40
1.0
 40
1.0
 40
1.0
 10
45.53531266810177
 20
34.06896304779278
 30
0.0
 10
45.578250477201
 20
34.09263528770433
 30
0.0
 10
45.64169106709319
 20
34.10572927763959
 30
0.0
 10
45.79418021260198
 20
34.10581614510105
 30
0.0
 10
45.88240960180529
 20
34.09264635534171
 30
0.0
 10
45.96832536999389
 20
34.06896304779281
 30
0.0
  0
LINE
  5
CD
330
1F
100
AcDbEntity
  8
0
  6
Continuous
 62
     7
370
    25
100
AcDbLine
 10
45.5353126681
 20
34.0689630478
 30
0.0
 11
45.5353126681
 21
37.2805075354
 31
0.0
  0
SPLINE
  5
CE
330
1F
100
AcDbEntity
  8
0
  6
Continuous
 62
     7
370
    25
100
AcDbSpline
210
0.0
220
0.0
230
1.0
 70
     8
 71
     3
 72
    10
 73
     6
 74
     0
 42
0.00000001
 43
0.00000001
 40
0.0
 40
0.0
 40
0.0
 40
0.0
 40
0.5
 40
0.5
 40
1.0
 40
1.0
 40
1.0
 40
1.0
 10
55.205929677028
 20
37.28050753538016
 30
0.0
 10
55.29181673883056
 20
37.25683214095575
 30
0.0
 10
55.37922394781076
 20
37.24374103107112
 30
0.0
 10
55.53186039040462
 20
37.2436547097829
 30
0.0
 10
55.59598343535038
 20
37.25682364372685
 30
0.0
 10
55.63894237892061
 20
37.28050753538039
 30
0.0
  0
LINE
  5
CF
330
1F
100
AcDbEntity
  8
0
  6
Continuous
 62
     7
370
    25
100
AcDbLine
 10
55.6389423789
 20
37.2805075354
 30
0.0
 11
55.6389423789
 21
34.0689630478
 31
0.0
  0
SPLINE
  5
D0
330
1F
100
AcDbEntity
  8
0
  6
Continuous
 62
     7
370
    25
100
AcDbSpline
210
0.0
220
0.0
230
1.0
 70
     8
 71
     3
 72
    10
 73
     6
 74
     0
 42
0.00000001
 43
0.00000001
 40
0.0
 40
0.0
 40
0.0
 40
0.0
 40
0.5
 40
0.5
 40
1.0
 40
1.0
 40
1.0
 40
1.0
 10
55.205929677028
 20
34.06896304779278
 30
0.0
 10
55.29181131953447
 20
34.09263694834873
 30
0.0
 10
55.3792205254999
 20
34.10572950552787
 30
0.0
 10
55.53186301057483
 20
34.10581591951016
 30
0.0
 10
55.59598599565719
 20
34.09264552791153
 30
0.0
 10
55.63894237892023
 20
34.06896304779278
 30
0.0
  0
LINE
  5
D1
330
1F
100
AcDbEntity
  8
0
  6
Continuous
 62
     7
370
    25
100
AcDbLine
 10
44.5871275235
 20
41.2469040752
 30
0.0
 11
44.5871275235
 21
39.2469040752
 31
0.0
  0
SPLINE
  5
D2
330
1F
100
AcDbEntity
  8
0
  6
Continuous
 62
     7
370
    25
100
AcDbSpline
210
0.0
220
0.0
230
1.0
 70
     8
 71
     3
 72
     8
 73
     4
 74
     0
 42
0.00000001
 43
0.00000001
 40
0.0
 40
0.0
 40
0.0
 40
0.0
 40
1.0
 40
1.0
 40
1.0
 40
1.0
 10
44.587127523511
 20
39.24690407523518
 30
0.0
 10
44.54734886532083
 20
39.10951898623507
 30
0.0
 10
44.50685990249259
 20
38.97281490442331
 30
0.0
 10
44.46574403201484
 20
38.83678254190993
 30
0.0
  0
SPLINE
  5
D3
330
1F
100
AcDbEntity
  8
0
  6
Continuous
 62
     7
370
    25
100
AcDbSpline
210
0.0
220
0.0
230
1.0
 70
     8
 71
     3
 72
     8
 73
     4
 74
     0
 42
0.00000001
 43
0.00000001
 40
0.0
 40
0.0
 40
0.0
 40
0.0
 40
1.0
 40
1.0
 40
1.0
 40
1.0
 10
43.90940611825081
 20
40.19508921982596
 30
0.0
 10
44.15657989913474
 20
39.74675392677463
 30
0.0
 10
44.35030156743873
 20
39.29457943603104
 30
0.0
 10
44.46574403201484
 20
38.83678254190993
 30
0.0
  0
SPLINE
  5
D4
330
1F
100
AcDbEntity
  8
0
  6
Continuous
 62
     7
370
    25
100
AcDbSpline
210
0.0
220
0.0
230
1.0
 70
     8
 71
     3
 72
    10
 73
     6
 74
     0
 42
0.00000001
 43
0.00000001
 40
0.0
 40
0.0
 40
0.0
 40
0.0
 40
0.5
 40
0.5
 40
1.0
 40
1.0
 40
1.0
 40
1.0
 10
43.90940611825076
 20
40.62810192171818
 30
0.0
 10
43.88573072382637
 20
40.54221485991572
 30
0.0
 10
43.87263961394178
 20
40.45480765093559
 30
0.0
 10
43.87255329265351
 20
40.30217120834185
 30
0.0
 10
43.88572222659734
 20
40.23804816339626
 30
0.0
 10
43.90940611825081
 20
40.19508921982596
 30
0.0
  0
LINE
  5
D5
330
1F
100
AcDbEntity
  8
0
  6
Continuous
 62
     7
370
    25
100
AcDbLine
 10
58.8371275235
 20
33.2469040752
 30
0.0
 11
42.3371275235
 21
33.2469040752
 31
0.0
  0
SPLINE
  5
D6
330
1F
100
AcDbEntity
  8
0
  6
Continuous
 62
     7
370
    25
100
AcDbSpline
210
0.0
220
0.0
230
1.0
 70
     8
 71
     3
 72
    16
 73
    12
 74
     0
 42
0.00000001
 43
0.00000001
 40
0.0
 40
0.0
 40
0.0
 40
0.0
 40
0.2500000000000001
 40
0.2500000000000001
 40
0.5000000000000001
 40
0.5000000000000001
 40
0.6250000000000001
 40
0.6250000000000001
 40
0.7500000000000002
 40
0.7500000000000002
 40
1.0
 40
1.0
 40
1.0
 40
1.0
 10
60.25774453243726
 20
34.06896304779232
 30
0.0
 10
59.88002948471427
 20
33.86072323734367
 30
0.0
 10
59.49987173608831
 20
33.69054995093422
 30
0.0
 10
58.73277840419691
 20
33.45582769131837
 30
0.0
 10
58.34580104685925
 20
33.39192971624391
 30
0.0
 10
57.75925027183457
 20
33.39090601415741
 30
0.0
 10
57.5621711119115
 20
33.40639256130211
 30
0.0
 10
57.17164197240324
 20
33.46751628276009
 30
0.0
 10
56.9776102687302
 20
33.51303801005511
 30
0.0
 10
56.39880619630915
 20
33.68953737380028
 30
0.0
 10
56.01731746214264
 20
33.86035935015411
 30
0.0
 10
55.63894237892021
 20
34.06896304779263
 30
0.0
  0
SPLINE
  5
D7
330
1F
100
AcDbEntity
  8
0
  6
Continuous
 62
     7
370
    25
100
AcDbSpline
210
0.0
220
0.0
230
1.0
 70
     8
 71
     3
 72
     9
 73
     5
 74
     0
 42
0.00000001
 43
0.00000001
 40
0.0
 40
0.0
 40
0.0
 40
0.0
 40
0.5789479223911497
 40
1.0
 40
1.0
 40
1.0
 40
1.0
 10
60.25774453243724
 20
34.06896304779278
 30
0.0
 10
60.28018589962988
 20
34.08130393810719
 30
0.0
 10
60.31894822405442
 20
34.1026200009811
 30
0.0
 10
60.31971412691351
 20
34.10302817489548
 30
0.0
 10
60.32003661190357
 20
34.10320003737016
 30
0.0
  0
SPLINE
  5
D8
330
1F
100
AcDbEntity
  8
0
  6
Continuous
 62
     7
370
    25
100
AcDbSpline
210
0.0
220
0.0
230
1.0
 70
     8
 71
     3
 72
    10
 73
     6
 74
     0
 42
0.00000001
 43
0.00000001
 40
0.0
 40
0.0
 40
0.0
 40
0.0
 40
0.1593935213061664
 40
0.7189934545756295
 40
1.0
 40
1.0
 40
1.0
 40
1.0
 10
40.85421843511843
 20
34.10320003737016
 30
0.0
 10
40.85282851629179
 20
34.10396156436762
 30
0.0
 10
40.84655886034498
 20
34.10739666588348
 30
0.0
 10
40.87304280216897
 20
34.09290204341688
 30
0.0
 10
40.90562020621565
 20
34.07496067292427
 30
0.0
 10
40.91651051458476
 20
34.06896304779278
 30
0.0
  0
SPLINE
  5
D9
330
1F
100
AcDbEntity
  8
0
  6
Continuous
 62
     7
370
    25
100
AcDbSpline
210
0.0
220
0.0
230
1.0
 70
     8
 71
     3
 72
    16
 73
    12
 74
     0
 42
0.00000001
 43
0.00000001
 40
0.0
 40
0.0
 40
0.0
 40
0.0
 40
0.2500000000000003
 40
0.2500000000000003
 40
0.5000000000000006
 40
0.5000000000000006
 40
0.6250000000000006
 40
0.6250000000000006
 40
0.7500000000000004
 40
0.7500000000000004
 40
1.0
 40
1.0
 40
1.0
 40
1.0
 10
45.5353126681018
 20
34.06896304779232
 30
0.0
 10
45.15759762037882
 20
33.86072323734367
 30
0.0
 10
44.77743987175285
 20
33.69054995093422
 30
0.0
 10
44.01034653986145
 20
33.45582769131838
 30
0.0
 10
43.62336918252379
 20
33.39192971624391
 30
0.0
 10
43.0368184074991
 20
33.39090601415741
 30
0.0
 10
42.83973924757604
 20
33.40639256130211
 30
0.0
 10
42.44921010806779
 20
33.46751628276009
 30
0.0
 10
42.25517840439473
 20
33.51303801005512
 30
0.0
 10
41.6763743319737
 20
33.68953737380028
 30
0.0
 10
41.29488559780717
 20
33.86035935015411
 30
0.0
 10
40.91651051458475
 20
34.06896304779264
 30
0.0
  0
LINE
  5
DA
330
1F
100
AcDbEntity
  8
0
  6
Continuous
 62
     7
370
    25
100
AcDbLine
 10
56.5871275235
 20
52.6081200074
 30
0.0
 11
56.5871275235
 21
49.2469040752
 31
0.0
  0
SPLINE
  5
DB
330
1F
100
AcDbEntity
  8
0
  6
Continuous
 62
     7
370
    25
100
AcDbSpline
210
0.0
220
0.0
230
1.0
 70
     8
 71
     3
 72
    10
 73
     6
 74
     0
 42
0.00000001
 43
0.00000001
 40
0.0
 40
0.0
 40
0.0
 40
0.0
 40
0.5
 40
0.5
 40
1.0
 40
1.0
 40
1.0
 40
1.0
 10
57.26484892877121
 20
50.29871893064438
 30
0.0
 10
57.05642817595378
 20
50.67676218004654
 30
0.0
 10
56.88596434067635
 20
51.0575316848424
 30
0.0
 10
56.65098190573796
 20
51.82668021039994
 30
0.0
 10
56.587127523511
 20
52.21510693857519
 30
0.0
 10
56.587127523511
 20
52.60812000740291
 30
0.0
  0
SPLINE
  5
DC
330
1F
100
AcDbEntity
  8
0
  6
Continuous
 62
     7
370
    25
100
AcDbSpline
210
0.0
220
0.0
230
1.0
 70
     8
 71
     3
 72
    10
 73
     6
 74
     0
 42
0.00000001
 43
0.00000001
 40
0.0
 40
0.0
 40
0.0
 40
0.0
 40
0.5
 40
0.5
 40
1.0
 40
1.0
 40
1.0
 40
1.0
 10
57.26484892877122
 20
49.8657062287522
 30
0.0
 10
57.2885243231956
 20
49.95159329055465
 30
0.0
 10
57.30161543308022
 20
50.03900049953475
 30
0.0
 10
57.3017017543685
 20
50.19163694212848
 30
0.0
 10
57.28853282042467
 20
50.25575998707406
 30
0.0
 10
57.26484892877122
 20
50.29871893064438
 30
0.0
  0
LINE
  5
DD
330
1F
100
AcDbEntity
  8
0
  6
Continuous
 62
     7
370
    25
100
AcDbLine
 10
43.9094061183
 20
40.1950892198
 30
0.0
 11
39.7648489288
 21
40.1950892198
 31
0.0
  0
SPLINE
  5
DE
330
1F
100
AcDbEntity
  8
0
  6
Continuous
 62
     7
370
    25
100
AcDbSpline
210
0.0
220
0.0
230
1.0
 70
     8
 71
     3
 72
    10
 73
     6
 74
     0
 42
0.00000001
 43
0.00000001
 40
0.0
 40
0.0
 40
0.0
 40
0.0
 40
0.5
 40
0.5
 40
1.0
 40
1.0
 40
1.0
 40
1.0
 10
39.76484892877119
 20
40.62810192171817
 30
0.0
 10
39.78852282932715
 20
40.54222027921171
 30
0.0
 10
39.80161538650628
 20
40.45481107324628
 30
0.0
 10
39.80170180048856
 20
40.30216858817135
 30
0.0
 10
39.78853140888994
 20
40.23804560308898
 30
0.0
 10
39.76484892877119
 20
40.19508921982596
 30
0.0
  0
LINE
  5
DF
330
1F
100
AcDbEntity
  8
0
  6
Continuous
 62
     7
370
    25
100
AcDbLine
 10
57.2648489288
 20
50.2987189306
 30
0.0
 11
61.765068551
 21
50.2987189306
 31
0.0
  0
SPLINE
  5
E0
330
1F
100
AcDbEntity
  8
0
  6
Continuous
 62
     7
370
    25
100
AcDbSpline
210
0.0
220
0.0
230
1.0
 70
     8
 71
     3
 72
     8
 73
     4
 74
     0
 42
0.00000001
 43
0.00000001
 40
0.0
 40
0.0
 40
0.0
 40
0.0
 40
1.0
 40
1.0
 40
1.0
 40
1.0
 10
43.29775133889437
 20
37.95752789060645
 30
0.0
 10
43.60676848153614
 20
38.05853299843658
 30
0.0
 10
43.92208623785411
 20
38.15518978750251
 30
0.0
 10
44.24456556469713
 20
38.24690407523519
 30
0.0
  0
SPLINE
  5
E1
330
1F
100
AcDbEntity
  8
0
  6
Continuous
 62
     7
370
    25
100
AcDbSpline
210
0.0
220
0.0
230
1.0
 70
     8
 71
     3
 72
    12
 73
     8
 74
     0
 42
0.00000001
 43
0.00000001
 40
0.0
 40
0.0
 40
0.0
 40
0.0
 40
0.2500000000000002
 40
0.2500000000000002
 40
0.5000000000000004
 40
0.5000000000000004
 40
1.0
 40
1.0
 40
1.0
 40
1.0
 10
43.29775133888914
 20
37.95752789060032
 30
0.0
 10
43.48777751419235
 20
37.95381940474389
 30
0.0
 10
43.67799257687817
 20
37.93523690190622
 30
0.0
 10
44.05492933601057
 20
37.87036986494007
 30
0.0
 10
44.24225212727007
 20
37.82410431168979
 30
0.0
 10
44.80116208358416
 20
37.64837978138284
 30
0.0
 10
45.16969774169448
 20
37.48207637260609
 30
0.0
 10
45.53531266810177
 20
37.28050753538018
 30
0.0
  0
LINE
  5
E2
330
1F
100
AcDbEntity
  8
0
  6
Continuous
 62
     7
370
    25
100
AcDbLine
 10
46.533366517
 20
44.6724722188
 30
0.0
 11
47.1407148758
 21
44.6724722188
 31
0.0
  0
ELLIPSE
  5
E3
330
1F
100
AcDbEntity
  8
0
  6
Continuous
 62
     7
370
    25
100
AcDbEllipse
 10
46.533366517
 20
44.7533139358
 30
0.0
 11
0.08480161849065837
 21
-7.105427357601002E-15
 31
0.0
210
0.0
220
0.0
230
1.0
 40
0.9533039403
 41
2.798568711308354
 42
4.712388980384782
  0
ELLIPSE
  5
E4
330
1F
100
AcDbEntity
  8
0
  6
Continuous
 62
     7
370
    25
100
AcDbEllipse
 10
46.8370406982
 20
45.5638965528
 30
0.0
 11
0.08480161849065126
 21
0.0
 31
0.0
210
0.0
220
0.0
230
1.0
 40
0.9533039403
 41
0.3430239404205557
 42
2.798568713169211
  0
LINE
  5
E5
330
1F
100
AcDbEntity
  8
0
  6
Continuous
 62
     7
370
    25
100
AcDbLine
 10
47.2205761141
 20
44.7805039475
 30
0.0
 11
46.9169019365
 21
45.5910865647
 31
0.0
  0
ELLIPSE
  5
E6
330
1F
100
AcDbEntity
  8
0
  6
Continuous
 62
     7
370
    25
100
AcDbEllipse
 10
47.1407148758
 20
44.7533139358
 30
0.0
 11
-0.08480161849066548
 21
-4.973799150320701E-14
 31
0.0
210
0.0
220
0.0
230
1.0
 40
0.9533039403
 41
1.570796326794337
 42
3.484616592149195
  0
LINE
  5
E7
330
1F
100
AcDbEntity
  8
0
  6
Continuous
 62
     7
370
    25
100
AcDbLine
 10
46.7571794599
 20
45.5910865647
 30
0.0
 11
46.4535052787
 21
44.7805039478
 31
0.0
  0
SPLINE
  5
E8
330
1F
100
AcDbEntity
  8
0
  6
Continuous
 62
     7
370
    25
100
AcDbSpline
210
0.0
220
0.0
230
1.0
 70
     8
 71
     3
 72
     8
 73
     4
 74
     0
 42
0.00000001
 43
0.00000001
 40
0.0
 40
0.0
 40
0.0
 40
0.0
 40
1.0
 40
1.0
 40
1.0
 40
1.0
 10
56.92968948232487
 20
38.24690407523519
 30
0.0
 10
57.25216880917414
 20
38.15518978750072
 30
0.0
 10
57.56748656549811
 20
38.05853299843282
 30
0.0
 10
57.87650370814561
 20
37.95752789060057
 30
0.0
  0
SPLINE
  5
E9
330
1F
100
AcDbEntity
  8
0
  6
Continuous
 62
     7
370
    25
100
AcDbSpline
210
0.0
220
0.0
230
1.0
 70
     8
 71
     3
 72
    10
 73
     6
 74
     0
 42
0.00000001
 43
0.00000001
 40
0.0
 40
0.0
 40
0.0
 40
0.0
 40
0.5
 40
0.5
 40
1.0
 40
1.0
 40
1.0
 40
1.0
 10
55.6389423789205
 20
37.28050753538034
 30
0.0
 10
56.00546032576104
 20
37.48257422093126
 30
0.0
 10
56.37454055122686
 20
37.6489669932019
 30
0.0
 10
57.11979289945427
 20
37.88301396707196
 30
0.0
 10
57.49600567140203
 20
37.95010222103078
 30
0.0
 10
57.87650370814561
 20
37.95752789060057
 30
0.0
  0
SPLINE
  5
EA
330
1F
100
AcDbEntity
  8
0
  6
Continuous
 62
     7
370
    25
100
AcDbSpline
210
0.0
220
0.0
230
1.0
 70
     8
 71
     3
 72
    12
 73
     8
 74
     0
 42
0.00000001
 43
0.00000001
 40
0.0
 40
0.0
 40
0.0
 40
0.0
 40
0.2499999999999999
 40
0.2499999999999999
 40
0.4999999999999998
 40
0.4999999999999998
 40
1.0
 40
1.0
 40
1.0
 40
1.0
 10
39.08712752351101
 20
37.88568814306745
 30
0.0
 10
39.08712752351101
 20
38.08069162307324
 30
0.0
 10
39.10287385353296
 20
38.27722628209766
 30
0.0
 10
39.16431887811839
 20
38.6666459697032
 30
0.0
 10
39.20990763737212
 20
38.86013066276347
 30
0.0
 10
39.38635863962872
 20
39.43731426151907
 30
0.0
 10
39.55681634159221
 20
39.81775004330203
 30
0.0
 10
39.76484892877105
 20
40.19508921982597
 30
0.0
  0
LINE
  5
EB
330
1F
100
AcDbEntity
  8
0
  6
Continuous
 62
     7
370
    25
100
AcDbLine
 10
39.0871275235
 20
45.2469040752
 30
0.0
 11
39.0871275235
 21
37.8856881431
 31
0.0
  0
LINE
  5
EC
330
1F
100
AcDbEntity
  8
0
  6
Continuous
 62
     7
370
    25
100
AcDbLine
 10
61.765068551
 20
40.1950892198
 30
0.0
 11
57.2648489288
 21
40.1950892198
 31
0.0
  0
SPLINE
  5
ED
330
1F
100
AcDbEntity
  8
0
  6
Continuous
 62
     7
370
    25
100
AcDbSpline
210
0.0
220
0.0
230
1.0
 70
     8
 71
     3
 72
    10
 73
     6
 74
     0
 42
0.00000001
 43
0.00000001
 40
0.0
 40
0.0
 40
0.0
 40
0.0
 40
0.5
 40
0.5
 40
1.0
 40
1.0
 40
1.0
 40
1.0
 10
57.26484892876793
 20
40.19508921982596
 30
0.0
 10
57.28852432319227
 20
40.23803275072711
 30
0.0
 10
57.30161543308018
 20
40.3014751953509
 30
0.0
 10
57.30170175436854
 20
40.45395403246999
 30
0.0
 10
57.2885328204247
 20
40.54218403457742
 30
0.0
 10
57.2648489287712
 20
40.62810192171817
 30
0.0
  0
SPLINE
  5
EE
330
1F
100
AcDbEntity
  8
0
  6
Continuous
 62
     7
370
    25
100
AcDbSpline
210
0.0
220
0.0
230
1.0
 70
     8
 71
     3
 72
     8
 73
     4
 74
     0
 42
0.00000001
 43
0.00000001
 40
0.0
 40
0.0
 40
0.0
 40
0.0
 40
1.0
 40
1.0
 40
1.0
 40
1.0
 10
56.70851101500717
 20
38.83678254190994
 30
0.0
 10
56.66739573936589
 20
38.97281293639949
 30
0.0
 10
56.62690675649805
 20
39.10951700103693
 30
0.0
 10
56.587127523511
 20
39.24690407523518
 30
0.0
  0
LINE
  5
EF
330
1F
100
AcDbEntity
  8
0
  6
Continuous
 62
     7
370
    25
100
AcDbLine
 10
56.5871275235
 20
41.2469040752
 30
0.0
 11
56.5871275235
 21
39.2469040752
 31
0.0
  0
SPLINE
  5
F0
330
1F
100
AcDbEntity
  8
0
  6
Continuous
 62
     7
370
    25
100
AcDbSpline
210
0.0
220
0.0
230
1.0
 70
     8
 71
     3
 72
     8
 73
     4
 74
     0
 42
0.00000001
 43
0.00000001
 40
0.0
 40
0.0
 40
0.0
 40
0.0
 40
1.0
 40
1.0
 40
1.0
 40
1.0
 10
56.70851101500717
 20
38.83678254190994
 30
0.0
 10
56.82414362503622
 20
39.2953334739677
 30
0.0
 10
57.01803302985664
 20
39.74740306972595
 30
0.0
 10
57.26484892877104
 20
40.1950892198257
 30
0.0
  0
SPLINE
  5
F1
330
1F
100
AcDbEntity
  8
0
  6
Continuous
 62
     7
370
    25
100
AcDbSpline
210
0.0
220
0.0
230
1.0
 70
     8
 71
     3
 72
    10
 73
     6
 74
     0
 42
0.00000001
 43
0.00000001
 40
0.0
 40
0.0
 40
0.0
 40
0.0
 40
0.5
 40
0.5
 40
1.0
 40
1.0
 40
1.0
 40
1.0
 10
39.76484892877072
 20
50.29871893064438
 30
0.0
 10
39.55603900410447
 20
50.67746807803567
 30
0.0
 10
39.38550486435722
 20
51.05867335444697
 30
0.0
 10
39.1507190593383
 20
51.82790397563475
 30
0.0
 10
39.087127523511
 20
52.21597168043308
 30
0.0
 10
39.087127523511
 20
52.60812000740291
 30
0.0
  0
LINE
  5
F2
330
1F
100
AcDbEntity
  8
0
  6
Continuous
 62
     7
370
    25
100
AcDbLine
 10
39.0871275235
 20
45.2469040752
 30
0.0
 11
39.0871275235
 21
52.6081200074
 31
0.0
  0
SPLINE
  5
F3
330
1F
100
AcDbEntity
  8
0
  6
Continuous
 62
     7
370
    25
100
AcDbSpline
210
0.0
220
0.0
230
1.0
 70
     8
 71
     3
 72
    12
 73
     8
 74
     0
 42
0.00000001
 43
0.00000001
 40
0.0
 40
0.0
 40
0.0
 40
0.0
 40
0.2499999999999999
 40
0.2499999999999999
 40
0.4999999999999998
 40
0.4999999999999998
 40
1.0
 40
1.0
 40
1.0
 40
1.0
 10
56.587127523511
 20
52.60812000740291
 30
0.0
 10
56.587127523511
 20
52.80386227028243
 30
0.0
 10
56.60297045959996
 20
53.00052887947299
 30
0.0
 10
56.66447331983762
 20
53.38979710680128
 30
0.0
 10
56.71007696088131
 20
53.58320113975419
 30
0.0
 10
56.88652797837054
 20
54.16013019101095
 30
0.0
 10
57.0569253456224
 20
54.54037962421395
 30
0.0
 10
57.26484892877119
 20
54.91752108416141
 30
0.0
  0
LINE
  5
F4
330
1F
100
AcDbEntity
  8
0
  6
Continuous
 62
     7
370
    25
100
AcDbLine
 10
61.765068551
 20
54.9175210842
 30
0.0
 11
57.2648489288
 21
54.9175210842
 31
0.0
  0
ELLIPSE
  5
F5
330
1F
100
AcDbEntity
  8
0
  6
Continuous
 62
     7
370
    25
100
AcDbEllipse
 10
50.5871275235
 20
35.431949499
 30
0.0
 11
8.5
 21
0.0
 31
0.0
210
0.0
220
0.0
230
1.0
 40
0.5773502692
 41
2.374833212873086
 42
2.530692279913058
  0
LINE
  5
F6
330
1F
100
AcDbEntity
  8
0
  6
Continuous
 62
     7
370
    25
100
AcDbLine
 10
43.2977513389
 20
37.9575278906
 30
0.0
 11
40.9165105146
 21
35.5762870663
 31
0.0
  0
LINE
  5
F7
330
1F
100
AcDbEntity
  8
0
  6
Continuous
 62
     7
370
    25
100
AcDbLine
 10
39.7648489288
 20
35.5762870663
 30
0.0
 11
40.9165105146
 21
35.5762870663
 31
0.0
  0
SPLINE
  5
F8
330
1F
100
AcDbEntity
  8
0
  6
Continuous
 62
     7
370
    25
100
AcDbSpline
210
0.0
220
0.0
230
1.0
 70
     8
 71
     3
 72
    10
 73
     6
 74
     0
 42
0.00000001
 43
0.00000001
 40
0.0
 40
0.0
 40
0.0
 40
0.0
 40
0.5
 40
0.5
 40
1.0
 40
1.0
 40
1.0
 40
1.0
 10
39.76484892877072
 20
35.57628706630891
 30
0.0
 10
39.55603900410447
 20
35.9550362137002
 30
0.0
 10
39.38550486435722
 20
36.33624149011151
 30
0.0
 10
39.1507190593383
 20
37.10547211129929
 30
0.0
 10
39.08712752351101
 20
37.49353981609761
 30
0.0
 10
39.08712752351101
 20
37.88568814306745
 30
0.0
  0
ELLIPSE
  5
F9
330
1F
100
AcDbEntity
  8
0
  6
Continuous
 62
     7
370
    25
100
AcDbEllipse
 10
50.5871275235
 20
35.431949499
 30
0.0
 11
8.5
 21
0.0
 31
0.0
210
0.0
220
0.0
230
1.0
 40
0.5773502692
 41
0.6109003736767328
 42
0.766759440716707
  0
LINE
  5
FA
330
1F
100
AcDbEntity
  8
0
  6
Continuous
 62
     7
370
    25
100
AcDbLine
 10
60.2577445324
 20
35.5762870663
 30
0.0
 11
61.765068551
 21
35.5762870663
 31
0.0
  0
LINE
  5
FB
330
1F
100
AcDbEntity
  8
0
  6
Continuous
 62
     7
370
    25
100
AcDbLine
 10
60.2577445324
 20
35.5762870663
 30
0.0
 11
57.8765037081
 21
37.9575278906
 31
0.0
  0
LINE
  5
FC
330
1F
100
AcDbEntity
  8
0
  6
Continuous
 62
     7
370
    25
100
AcDbLine
 10
42.3371275235
 20
22.2469040752
 30
0.0
 11
58.8371275235
 21
22.2469040752
 31
0.0
  0
LINE
  5
FD
330
1F
100
AcDbEntity
  8
0
  6
Continuous
 62
     7
370
    25
100
AcDbLine
 10
40.9165105146
 20
35.5762870663
 30
0.0
 11
40.9165105146
 21
34.0689630478
 31
0.0
  0
LINE
  5
FE
330
1F
100
AcDbEntity
  8
0
  6
Continuous
 62
     7
370
    25
100
AcDbLine
 10
58.3371275235
 20
21.7469040752
 30
0.0
 11
42.8371275235
 21
21.7469040752
 31
0.0
  0
SPLINE
  5
FF
330
1F
100
AcDbEntity
  8
0
  6
Continuous
 62
     7
370
    25
100
AcDbSpline
210
0.0
220
0.0
230
1.0
 70
     8
 71
     3
 72
    12
 73
     8
 74
     0
 42
0.00000001
 43
0.00000001
 40
0.0
 40
0.0
 40
0.0
 40
0.0
 40
0.2499999999999999
 40
0.2499999999999999
 40
0.5
 40
0.5
 40
1.0
 40
1.0
 40
1.0
 40
1.0
 10
39.087127523511
 20
52.60812000740291
 30
0.0
 10
39.08712752351101
 20
52.80312348740871
 30
0.0
 10
39.10287385353296
 20
52.99965814643312
 30
0.0
 10
39.16431887811839
 20
53.38907783403867
 30
0.0
 10
39.20990763737212
 20
53.58256252709893
 30
0.0
 10
39.38635863962872
 20
54.15974612585453
 30
0.0
 10
39.55681634159221
 20
54.5401819076375
 30
0.0
 10
39.76484892877105
 20
54.91752108416143
 30
0.0
  0
LINE
  5
100
330
1F
100
AcDbEntity
  8
0
  6
Continuous
 62
     7
370
    25
100
AcDbLine
 10
43.9094061183
 20
54.9175210842
 30
0.0
 11
39.7648489288
 21
54.9175210842
 31
0.0
  0
SPLINE
  5
101
330
1F
100
AcDbEntity
  8
0
  6
Continuous
 62
     7
370
    25
100
AcDbSpline
210
0.0
220
0.0
230
1.0
 70
     8
 71
     3
 72
    10
 73
     6
 74
     0
 42
0.00000001
 43
0.00000001
 40
0.0
 40
0.0
 40
0.0
 40
0.0
 40
0.5
 40
0.5
 40
1.0
 40
1.0
 40
1.0
 40
1.0
 10
43.90940611825079
 20
54.91752108416144
 30
0.0
 10
44.11782687106822
 20
54.53947783475928
 30
0.0
 10
44.28829070634566
 20
54.15870832996343
 30
0.0
 10
44.52327314128404
 20
53.38955980440588
 30
0.0
 10
44.587127523511
 20
53.00113307623064
 30
0.0
 10
44.587127523511
 20
52.60812000740291
 30
0.0
  0
LINE
  5
102
330
1F
100
AcDbEntity
  8
0
  6
Continuous
 62
     7
370
    25
100
AcDbLine
 10
60.2577445324
 20
34.0689630478
 30
0.0
 11
60.2577445324
 21
35.5762870663
 31
0.0
  0
LINE
  5
103
330
1F
100
AcDbEntity
  8
0
  6
Continuous
 62
     7
370
    25
100
AcDbLine
 10
56.5871275235
 20
39.2469040752
 30
0.0
 11
54.5871275235
 21
41.2469040752
 31
0.0
  0
LINE
  5
104
330
1F
100
AcDbEntity
  8
0
  6
Continuous
 62
     7
370
    25
100
AcDbLine
 10
54.5871275235
 20
38.2469040752
 30
0.0
 11
57.5497485962
 21
38.2469040752
 31
0.0
  0
LINE
  5
105
330
1F
100
AcDbEntity
  8
0
  6
Continuous
 62
     7
370
    25
100
AcDbLine
 10
46.5871275235
 20
41.2469040752
 30
0.0
 11
44.5871275235
 21
39.2469040752
 31
0.0
  0
LINE
  5
106
330
1F
100
AcDbEntity
  8
0
  6
Continuous
 62
     7
370
    25
100
AcDbLine
 10
43.6245064509
 20
38.2469040752
 30
0.0
 11
46.5871275235
 21
38.2469040752
 31
0.0
  0
LINE
  5
107
330
1F
100
AcDbEntity
  8
0
  6
Continuous
 62
     7
370
    25
100
AcDbLine
 10
44.5871275235
 20
53.1813585535
 30
0.0
 11
44.5871275235
 21
52.6081200074
 31
0.0
  0
SPLINE
  5
108
330
1F
100
AcDbEntity
  8
0
  6
Continuous
 62
     7
370
    25
100
AcDbSpline
210
0.0
220
0.0
230
1.0
 70
     8
 71
     3
 72
    32
 73
    28
 74
     0
 42
0.00000001
 43
0.00000001
 40
0.0
 40
0.0
 40
0.0
 40
0.0
 40
0.0625000000000001
 40
0.0625000000000001
 40
0.1250000000000001
 40
0.1250000000000001
 40
0.1875000000000002
 40
0.1875000000000002
 40
0.2500000000000003
 40
0.2500000000000003
 40
0.3750000000000003
 40
0.3750000000000003
 40
0.4375000000000003
 40
0.4375000000000003
 40
0.5000000000000002
 40
0.5000000000000002
 40
0.5625000000000002
 40
0.5625000000000002
 40
0.6250000000000001
 40
0.6250000000000001
 40
0.7500000000000001
 40
0.7500000000000001
 40
0.8750000000000002
 40
0.8750000000000002
 40
0.9375000000000001
 40
0.9375000000000001
 40
1.0
 40
1.0
 40
1.0
 40
1.0
 10
56.58712752350252
 20
53.18135855345584
 30
0.0
 10
56.43027118758564
 20
53.08640157556014
 30
0.0
 10
56.25727275343
 20
52.98364840093496
 30
0.0
 10
55.8805681668042
 20
52.76693719928669
 30
0.0
 10
55.67771538634751
 20
52.65351848879668
 30
0.0
 10
55.25173412354491
 20
52.42542835209851
 30
0.0
 10
55.02755616325689
 20
52.31012146964665
 30
0.0
 10
54.5562050696805
 20
52.08179836727188
 30
0.0
 10
54.30751955431541
 20
51.96814835113813
 30
0.0
 10
53.53694706962376
 20
51.64508431990409
 30
0.0
 10
52.99130965954159
 20
51.45218579574058
 30
0.0
 10
52.10852991104526
 20
51.24059187046688
 30
0.0
 10
51.80989081117241
 20
51.18494948434914
 30
0.0
 10
51.20338921045665
 20
51.1092814149853
 30
0.0
 10
50.89324197179072
 20
51.08930816920898
 30
0.0
 10
50.27315648310695
 20
51.08964193546223
 30
0.0
 10
49.96658544563891
 20
51.10964090078502
 30
0.0
 10
49.35993069833072
 20
51.18567968698148
 30
0.0
 10
49.05755763370541
 20
51.24233278711304
 30
0.0
 10
48.18092133095246
 20
51.45311133715888
 30
0.0
 10
47.63286719897555
 20
51.64665716773063
 30
0.0
 10
46.60236993173226
 20
52.07927646100643
 30
0.0
 10
46.1348098964528
 20
52.31175310569685
 30
0.0
 10
45.49659629282487
 20
52.6534911066159
 30
0.0
 10
45.29338655463503
 20
52.76710862204428
 30
0.0
 10
44.9170496282406
 20
52.98361101440052
 30
0.0
 10
44.7440710197491
 20
53.08634881084491
 30
0.0
 10
44.58712752351101
 20
53.18135855346099
 30
0.0
  0
LINE
  5
109
330
1F
100
AcDbEntity
  8
0
  6
Continuous
 62
     7
370
    25
100
AcDbLine
 10
56.5871275235
 20
53.1813585535
 30
0.0
 11
56.5871275235
 21
52.6081200074
 31
0.0
  0
SPLINE
  5
10A
330
1F
100
AcDbEntity
  8
0
  6
Continuous
 62
     7
370
    25
100
AcDbSpline
210
0.0
220
0.0
230
1.0
 70
     8
 71
     3
 72
    11
 73
     7
 74
     0
 42
0.00000001
 43
0.00000001
 40
0.0
 40
0.0
 40
0.0
 40
0.0
 40
0.0860363962994498
 40
0.3126240132839471
 40
0.544481681962628
 40
1.0
 40
1.0
 40
1.0
 40
1.0
 10
56.76047471097802
 20
54.0398056689363
 30
0.0
 10
56.76166352799813
 20
54.04381929447466
 30
0.0
 10
56.7659832434194
 20
54.05840330516766
 30
0.0
 10
56.73480373509965
 20
53.95184708106539
 30
0.0
 10
56.6523761261918
 20
53.67129914920643
 30
0.0
 10
56.61313336991677
 20
53.37663200541456
 30
0.0
 10
56.587127523511
 20
53.18135855345385
 30
0.0
  0
SPLINE
  5
10B
330
1F
100
AcDbEntity
  8
0
  6
Continuous
 62
     7
370
    25
100
AcDbSpline
210
0.0
220
0.0
230
1.0
 70
     8
 71
     3
 72
    11
 73
     7
 74
     0
 42
0.00000001
 43
0.00000001
 40
0.0
 40
0.0
 40
0.0
 40
0.0
 40
0.3176285369767129
 40
0.6359441906162812
 40
0.8656680621899357
 40
1.0
 40
1.0
 40
1.0
 40
1.0
 10
44.587127523511
 20
53.1813585534609
 30
0.0
 10
44.57348879216475
 20
53.31262309580785
 30
0.0
 10
44.54618182519766
 20
53.57543614130437
 30
0.0
 10
44.45817682381216
 20
53.88708187155392
 30
0.0
 10
44.41361572942075
 20
54.04083084361191
 30
0.0
 10
44.41396480944971
 20
54.03931620148207
 30
0.0
 10
44.41409361551607
 20
54.03875731790666
 30
0.0
  0
SPLINE
  5
10C
330
1F
100
AcDbEntity
  8
0
  6
Continuous
 62
     7
370
    25
100
AcDbSpline
210
0.0
220
0.0
230
1.0
 70
     8
 71
     3
 72
    10
 73
     6
 74
     0
 42
0.00000001
 43
0.00000001
 40
0.0
 40
0.0
 40
0.0
 40
0.0
 40
0.1601790552921523
 40
0.7197651707804853
 40
1.0
 40
1.0
 40
1.0
 40
1.0
 10
43.87517668513389
 20
54.97979936291116
 30
0.0
 10
43.87441389504065
 20
54.98119159093753
 30
0.0
 10
43.87098629496692
 20
54.98744757266586
 30
0.0
 10
43.8854937597652
 20
54.96094030793795
 30
0.0
 10
43.90342331288304
 20
54.9283844527928
 30
0.0
 10
43.90940611825079
 20
54.91752108416144
 30
0.0
  0
SPLINE
  5
10D
330
1F
100
AcDbEntity
  8
0
  6
Continuous
 62
     7
370
    25
100
AcDbSpline
210
0.0
220
0.0
230
1.0
 70
     8
 71
     3
 72
     9
 73
     5
 74
     0
 42
0.00000001
 43
0.00000001
 40
0.0
 40
0.0
 40
0.0
 40
0.0
 40
0.5797912171256431
 40
1.0
 40
1.0
 40
1.0
 40
1.0
 10
57.26484892877119
 20
54.91752108416141
 30
0.0
 10
57.27720753211766
 20
54.93999473240255
 30
0.0
 10
57.29852314191206
 20
54.97875635482337
 30
0.0
 10
57.29891408441484
 20
54.97949075958159
 30
0.0
 10
57.29907836188811
 20
54.97979936291116
 30
0.0
  0
SPLINE
  5
10E
330
1F
100
AcDbEntity
  8
0
  6
Continuous
 62
     7
370
    25
100
AcDbSpline
210
0.0
220
0.0
230
1.0
 70
     8
 71
     3
 72
    10
 73
     6
 74
     0
 42
0.00000001
 43
0.00000001
 40
0.0
 40
0.0
 40
0.0
 40
0.0
 40
0.1593935212994522
 40
0.7189934545690309
 40
1.0
 40
1.0
 40
1.0
 40
1.0
 10
39.79908591834864
 20
54.97981316362788
 30
0.0
 10
39.7998474453461
 20
54.98120308245449
 30
0.0
 10
39.80328254686201
 20
54.98747273840144
 30
0.0
 10
39.78878792439552
 20
54.96098879657763
 30
0.0
 10
39.77084655390281
 20
54.92841139253077
 30
0.0
 10
39.76484892877119
 20
54.91752108416141
 30
0.0
  0
LINE
  5
10F
330
1F
100
AcDbEntity
  8
0
  6
Continuous
 62
     7
370
    25
100
AcDbLine
 10
39.0871275235
 20
53.7469040752
 30
0.0
 11
39.0871275235
 21
52.6081200074
 31
0.0
  0
SPLINE
  5
110
330
1F
100
AcDbEntity
  8
0
  6
Continuous
 62
     7
370
    25
100
AcDbSpline
210
0.0
220
0.0
230
1.0
 70
     8
 71
     3
 72
     9
 73
     5
 74
     0
 42
0.00000001
 43
0.00000001
 40
0.0
 40
0.0
 40
0.0
 40
0.0
 40
0.5789479223839474
 40
0.9999999999999999
 40
0.9999999999999999
 40
0.9999999999999999
 40
0.9999999999999999
 10
39.76484892877119
 20
35.57628706630894
 30
0.0
 10
39.77718981908545
 20
35.55384569911658
 30
0.0
 10
39.79850588195936
 20
35.51508337469203
 30
0.0
 10
39.7989140558739
 20
35.51431747183266
 30
0.0
 10
39.79908591834864
 20
35.51399498684248
 30
0.0
  0
LINE
  5
111
330
1F
100
AcDbEntity
  8
0
  6
Continuous
 62
     7
370
    25
100
AcDbLine
 10
39.0871275235
 20
37.8856881431
 30
0.0
 11
39.0871275235
 21
36.7469040752
 31
0.0
  0
LINE
  5
112
330
1F
100
AcDbEntity
  8
0
  6
Continuous
 62
     7
370
    25
100
AcDbLine
 10
60.3247318305
 20
35.5092997682
 30
0.0
 11
60.2577445324
 21
35.5762870663
 31
0.0
  0
LINE
  5
113
330
1F
100
AcDbEntity
  8
0
  6
Continuous
 62
     7
370
    25
100
AcDbLine
 10
40.9165105146
 20
35.5762870663
 30
0.0
 11
40.8495232165
 21
35.5092997682
 31
0.0
  0
LINE
  5
114
330
1F
100
AcDbEntity
  8
0
  6
Continuous
 62
     7
370
    25
100
AcDbLine
 10
52.5871275235
 20
55.7469040752
 30
0.0
 11
52.587127618
 21
55.7847209532
 31
0.0
  0
LINE
  5
115
330
1F
100
AcDbEntity
  8
0
  6
Continuous
 62
     7
370
    25
100
AcDbLine
 10
43.5871275235
 20
55.7469040752
 30
0.0
 11
52.5871275235
 21
55.7469040752
 31
0.0
  0
LINE
  5
116
330
1F
100
AcDbEntity
  8
0
  6
Continuous
 62
     7
370
    25
100
AcDbLine
 10
43.1371275235
 20
63.7469040752
 30
0.0
 11
55.0616744076
 21
63.7469040752
 31
0.0
  0
SPLINE
  5
117
330
1F
100
AcDbEntity
  8
0
  6
Continuous
 62
     7
370
    25
100
AcDbSpline
210
0.0
220
0.0
230
1.0
 70
     8
 71
     3
 72
    16
 73
    12
 74
     0
 42
0.00000001
 43
0.00000001
 40
0.0
 40
0.0
 40
0.0
 40
0.0
 40
0.0155634360124117
 40
0.0359329243097674
 40
0.0739120889290614
 40
0.1570057548437684
 40
0.2406581385754913
 40
0.4592958294318597
 40
0.6783839187935417
 40
0.897495434429485
 40
1.0
 40
1.0
 40
1.0
 40
1.0
 10
52.74307277393815
 20
55.74690407523528
 30
0.0
 10
52.78546476320678
 20
55.75209744701445
 30
0.0
 10
52.8833395602963
 20
55.76408792488223
 30
0.0
 10
53.05681823130914
 20
55.88241384887919
 30
0.0
 10
53.30515191031181
 20
56.19366515632814
 30
0.0
 10
53.55961645235774
 20
56.71931265769319
 30
0.0
 10
53.90329586404884
 20
57.75785882196334
 30
0.0
 10
54.28451588331554
 20
59.19293286430947
 30
0.0
 10
54.63461753931521
 20
61.0311849657489
 30
0.0
 10
54.87840938840344
 20
62.55236781456834
 30
0.0
 10
55.01738158356047
 20
63.45819985536485
 30
0.0
 10
55.06167440759313
 20
63.74690407523281
 30
0.0
  0
SPLINE
  5
118
330
1F
100
AcDbEntity
  8
0
  6
Continuous
 62
     7
370
    25
100
AcDbSpline
210
0.0
220
0.0
230
1.0
 70
     8
 71
     3
 72
     9
 73
     5
 74
     0
 42
0.00000001
 43
0.00000001
 40
0.0
 40
0.0
 40
0.0
 40
0.0
 40
0.5124861829376838
 40
0.9999999999999999
 40
0.9999999999999999
 40
0.9999999999999999
 40
0.9999999999999999
 10
52.58712761804237
 20
55.7847209531754
 30
0.0
 10
52.6127701222142
 20
55.77369304022422
 30
0.0
 10
52.66280562565909
 20
55.75217458115482
 30
0.0
 10
52.71676623251756
 20
55.74863141680967
 30
0.0
 10
52.74307277393815
 20
55.74690407523528
 30
0.0
  0
LINE
  5
119
330
1F
100
AcDbEntity
  8
0
  6
Continuous
 62
     7
370
    25
100
AcDbLine
 10
55.8109296979
 20
71.7469040752
 30
0.0
 11
45.3480421909
 21
71.7469040752
 31
0.0
  0
LINE
  5
11A
330
1F
100
AcDbEntity
  8
0
  6
Continuous
 62
     7
370
    25
100
AcDbLine
 10
57.5390683618
 20
64.7416476532
 30
0.0
 11
55.8109296979
 21
71.7469040752
 31
0.0
  0
LINE
  5
11B
330
1F
100
AcDbEntity
  8
0
  6
Continuous
 62
     7
370
    25
100
AcDbLine
 10
55.0616744076
 20
63.7469040752
 30
0.0
 11
54.3014636518
 21
64.7416476532
 31
0.0
  0
LINE
  5
11C
330
1F
100
AcDbEntity
  8
0
  6
Continuous
 62
     7
370
    25
100
AcDbLine
 10
54.3014636518
 20
64.7416476532
 30
0.0
 11
72.762564385
 21
64.7416476532
 31
0.0
  0
LINE
  5
11D
330
1F
100
AcDbEntity
  8
0
  6
Continuous
 62
     7
370
    25
100
AcDbLine
 10
72.762564385
 20
64.7416476532
 30
0.0
 11
72.762564385
 21
61.4990797682
 31
0.0
  0
SPLINE
  5
11E
330
1F
100
AcDbEntity
  8
0
  6
Continuous
 62
     7
370
    25
100
AcDbSpline
210
0.0
220
0.0
230
1.0
 70
     8
 71
     3
 72
     9
 73
     5
 74
     0
 42
0.00000001
 43
0.00000001
 40
0.0
 40
0.0
 40
0.0
 40
0.0
 40
0.4977232396629078
 40
1.0
 40
1.0
 40
1.0
 40
1.0
 10
65.69217076280394
 20
60.17587926722522
 30
0.0
 10
66.84949199473793
 20
60.46547166784936
 30
0.0
 10
69.17472244352669
 20
61.04730586313485
 30
0.0
 10
71.56299205951669
 20
61.34803201227298
 30
0.0
 10
72.76256438504765
 20
61.49907976821073
 30
0.0
  0
LINE
  5
11F
330
1F
100
AcDbEntity
  8
0
  6
Continuous
 62
     7
370
    25
100
AcDbLine
 10
65.6921707628
 20
60.1758792672
 30
0.0
 11
59.9124139129
 21
58.6072578267
 31
0.0
  0
SPLINE
  5
120
330
1F
100
AcDbEntity
  8
0
  6
Continuous
 62
     7
370
    25
100
AcDbSpline
210
0.0
220
0.0
230
1.0
 70
     8
 71
     3
 72
    13
 73
     9
 74
     0
 42
0.00000001
 43
0.00000001
 40
0.0
 40
0.0
 40
0.0
 40
0.0
 40
0.1610294006389558
 40
0.3266880383557516
 40
0.4877296220820637
 40
0.6535536198224136
 40
0.8237602734841889
 40
1.0
 40
1.0
 40
1.0
 40
1.0
 10
59.91241391294865
 20
58.60725782674234
 30
0.0
 10
59.69854385891755
 20
58.5378609321651
 30
0.0
 10
59.26465546253015
 20
58.39707213665655
 30
0.0
 10
58.67333471386449
 20
58.0509473189489
 30
0.0
 10
58.1394033650138
 20
57.61174067589686
 30
0.0
 10
57.68571939321071
 20
57.07813883895727
 30
0.0
 10
57.31126568022523
 20
56.45431253225757
 30
0.0
 10
57.16270260946645
 20
55.98542863405559
 30
0.0
 10
57.087127523511
 20
55.74690407523519
 30
0.0
  0
LINE
  5
121
330
1F
100
AcDbEntity
  8
0
  6
Continuous
 62
     7
370
    25
100
AcDbLine
 10
57.0871275235
 20
55.7469040752
 30
0.0
 11
52.7430727739
 21
55.7469040752
 31
0.0
  0
LINE
  5
122
330
1F
100
AcDbEntity
  8
0
  6
Continuous
 62
     7
370
    25
100
AcDbLine
 10
52.5939268814
 20
55.7469040752
 30
0.0
 11
52.587127618
 21
55.7847209532
 31
0.0
  0
LINE
  5
123
330
1F
100
AcDbEntity
  8
0
  6
Continuous
 62
     7
370
    25
100
AcDbLine
 10
52.5871275235
 20
55.7469040752
 30
0.0
 11
52.5939268814
 21
55.7469040752
 31
0.0
  0
LINE
  5
124
330
1F
100
AcDbEntity
  8
0
  6
Continuous
 62
     7
370
    25
100
AcDbLine
 10
52.7430727739
 20
55.7469040752
 30
0.0
 11
52.5939268814
 21
55.7469040752
 31
0.0
  0
LINE
  5
125
330
1F
100
AcDbEntity
  8
0
  6
Continuous
 62
     7
370
    25
100
AcDbLine
 10
72.762564385
 20
64.7416476532
 30
0.0
 11
72.762564385
 21
73.7469040752
 31
0.0
  0
LINE
  5
126
330
1F
100
AcDbEntity
  8
0
  6
Continuous
 62
     7
370
    25
100
AcDbLine
 10
72.762564385
 20
73.7469040752
 30
0.0
 11
90.5871275235
 21
73.7469040752
 31
0.0
  0
LINE
  5
127
330
1F
100
AcDbEntity
  8
0
  6
Continuous
 62
     7
370
    25
100
AcDbLine
 10
90.5871275235
 20
73.7469040752
 30
0.0
 11
90.5871275235
 21
66.7469040752
 31
0.0
  0
ARC
  5
128
330
1F
100
AcDbEntity
  8
0
  6
Continuous
 62
     7
370
    25
100
AcDbCircle
 10
85.5871275235
 20
66.7469040752
 30
0.0
 40
5.0
100
AcDbArc
 50
270.0
 51
0.0
  0
LINE
  5
129
330
1F
100
AcDbEntity
  8
0
  6
Continuous
 62
     7
370
    25
100
AcDbLine
 10
85.5871275235
 20
61.7469040752
 30
0.0
 11
77.4787953813
 21
61.7469040752
 31
0.0
  0
ARC
  5
12A
330
1F
100
AcDbEntity
  8
0
  6
Continuous
 62
     7
370
    25
100
AcDbCircle
 10
77.4787953813
 20
16.7467748211
 30
0.0
 40
45.00012925418373
100
AcDbArc
 50
90.0
 51
96.0159222295
  0
ARC
  5
12B
330
1F
100
AcDbEntity
  8
0
  6
Continuous
 62
     7
370
    25
100
AcDbCircle
 10
64.9760810878
 20
75.7469040752
 30
0.0
 40
10.00000000000847
100
AcDbArc
 50
203.5781784783
 51
264.4198332155
  0
ARC
  5
12C
330
1F
100
AcDbEntity
  8
0
  6
Continuous
 62
     7
370
    25
100
AcDbCircle
 10
64.5871275235
 20
71.7658595986
 30
0.0
 40
6.000000000000014
100
AcDbArc
 50
264.4198332155
 51
0.0
  0
LINE
  5
12D
330
1F
100
AcDbEntity
  8
0
  6
Continuous
 62
     7
370
    25
100
AcDbLine
 10
70.5871275235
 20
73.7469040752
 30
0.0
 11
70.5871275235
 21
71.7658595986
 31
0.0
  0
LINE
  5
12E
330
1F
100
AcDbEntity
  8
0
  6
Continuous
 62
     7
370
    25
100
AcDbLine
 10
70.5871275235
 20
73.7469040752
 30
0.0
 11
72.762564385
 21
73.7469040752
 31
0.0
  0
LINE
  5
12F
330
1F
100
AcDbEntity
  8
0
  6
Continuous
 62
     7
370
    25
100
AcDbLine
 10
57.5871275235
 20
55.7469040752
 30
0.0
 11
57.0871275235
 21
55.7469040752
 31
0.0
  0
LINE
  5
130
330
1F
100
AcDbEntity
  8
0
  6
Continuous
 62
     7
370
    25
100
AcDbLine
 10
55.8109296979
 20
71.7469040752
 30
0.0
 11
55.8262128562
 21
71.7469040752
 31
0.0
  0
LINE
  5
131
330
1F
100
AcDbEntity
  8
0
  6
Continuous
 62
     7
370
    25
100
AcDbLine
 10
55.8262128562
 20
71.7469040752
 30
0.0
 11
55.8262128562
 21
72.3469040752
 31
0.0
  0
LINE
  5
132
330
1F
100
AcDbEntity
  8
0
  6
Continuous
 62
     7
370
    25
100
AcDbLine
 10
45.3480421909
 20
72.3469040752
 30
0.0
 11
45.3480421909
 21
71.7469040752
 31
0.0
  0
LINE
  5
133
330
1F
100
AcDbEntity
  8
0
  6
Continuous
 62
     7
370
    25
100
AcDbLine
 10
55.8262128562
 20
72.3469040752
 30
0.0
 11
45.3480421909
 21
72.3469040752
 31
0.0
  0
LINE
  5
134
330
1F
100
AcDbEntity
  8
0
  6
Continuous
 62
     7
370
    25
100
AcDbLine
 10
45.3480421909
 20
71.7469040752
 30
0.0
 11
55.8262128562
 21
71.7469040752
 31
0.0
  0
SPLINE
  5
135
330
1F
100
AcDbEntity
  8
0
  6
Continuous
 62
     7
370
    25
100
AcDbSpline
210
0.0
220
0.0
230
1.0
 70
     8
 71
     3
 72
    15
 73
    11
 74
     0
 42
0.00000001
 43
0.00000001
 40
0.0
 40
0.0
 40
0.0
 40
0.0
 40
0.0090459071881971
 40
0.1032433785236877
 40
0.1542564497735194
 40
0.3133169026715105
 40
0.5243720399414429
 40
0.6678060008509186
 40
0.9918332554187028
 40
1.0
 40
1.0
 40
1.0
 40
1.0
 10
55.82621285616911
 20
72.34690407523519
 30
0.0
 10
55.82620716420244
 20
72.3485851738196
 30
0.0
 10
55.82614220025165
 20
72.36777200537509
 30
0.0
 10
55.82414651381577
 20
72.3964662848951
 30
0.0
 10
55.81632951759931
 20
72.44714232486704
 30
0.0
 10
55.79915969384435
 20
72.50501862444395
 30
0.0
 10
55.77257579727681
 20
72.54988413917862
 30
0.0
 10
55.73474649878818
 20
72.58724652243319
 30
0.0
 10
55.70646571877791
 20
72.59679253470253
 30
0.0
 10
55.68663457124666
 20
72.59690139888941
 30
0.0
 10
55.68614703710379
 20
72.59690407523519
 30
0.0
  0
SPLINE
  5
136
330
1F
100
AcDbEntity
  8
0
  6
Continuous
 62
     7
370
    25
100
AcDbSpline
210
0.0
220
0.0
230
1.0
 70
     8
 71
     3
 72
    15
 73
    11
 74
     0
 42
0.00000001
 43
0.00000001
 40
0.0
 40
0.0
 40
0.0
 40
0.0
 40
0.0081667445812973
 40
0.3321939991490809
 40
0.4756279600585568
 40
0.6866830973284903
 40
0.8457435502264812
 40
0.8967566214763185
 40
0.9909540928118028
 40
1.0
 40
1.0
 40
1.0
 40
1.0
 10
45.48810800991822
 20
72.59690407523519
 30
0.0
 10
45.48762047577534
 20
72.59690139888941
 30
0.0
 10
45.46778932824406
 20
72.59679253470276
 30
0.0
 10
45.43950854823383
 20
72.58724652243315
 30
0.0
 10
45.4016792497452
 20
72.54988413917862
 30
0.0
 10
45.37509535317766
 20
72.50501862444395
 30
0.0
 10
45.35792552942269
 20
72.44714232486703
 30
0.0
 10
45.35010853320624
 20
72.39646628489513
 30
0.0
 10
45.34811284677036
 20
72.3677720053751
 30
0.0
 10
45.34804788281956
 20
72.3485851738196
 30
0.0
 10
45.34804219085289
 20
72.3469040752352
 30
0.0
  0
LINE
  5
137
330
1F
100
AcDbEntity
  8
0
  6
Continuous
 62
     7
370
    25
100
AcDbLine
 10
45.4881080099
 20
72.5969040752
 30
0.0
 11
55.6861470371
 21
72.5969040752
 31
0.0
  0
SPLINE
  5
138
330
1F
100
AcDbEntity
  8
0
  6
Continuous
 62
     7
370
    25
100
AcDbSpline
210
0.0
220
0.0
230
1.0
 70
     8
 71
     3
 72
    15
 73
    11
 74
     0
 42
0.00000001
 43
0.00000001
 40
0.0
 40
0.0
 40
0.0
 40
0.0
 40
0.0089557228015919
 40
0.0999003359608152
 40
0.1531632460581695
 40
0.3125636920784853
 40
0.5249666935695046
 40
0.6689893599351767
 40
0.991915253381045
 40
1.0
 40
1.0
 40
1.0
 40
1.0
 10
45.10990194845934
 20
72.34690407523519
 30
0.0
 10
45.10991770403795
 20
72.3485852008081
 30
0.0
 10
45.11009345619451
 20
72.36733801543255
 30
0.0
 10
45.11552247221403
 20
72.39610024454002
 30
0.0
 10
45.13705795592134
 20
72.44698731800834
 30
0.0
 10
45.18476338418616
 20
72.505122968141
 30
0.0
 10
45.25715432917809
 20
72.54983084132441
 30
0.0
 10
45.35907344119576
 20
72.58711266478615
 30
0.0
 10
45.4344285326508
 20
72.5967918196237
 30
0.0
 10
45.48682817837409
 20
72.59690139882552
 30
0.0
 10
45.48810800991822
 20
72.59690407523519
 30
0.0
  0
LINE
  5
139
330
1F
100
AcDbEntity
  8
0
  6
Continuous
 62
     7
370
    25
100
AcDbLine
 10
45.1099019485
 20
72.3469040752
 30
0.0
 11
45.3480421909
 21
72.3469040752
 31
0.0
  0
SPLINE
  5
13A
330
1F
100
AcDbEntity
  8
0
  6
Continuous
 62
     7
370
    25
100
AcDbSpline
210
0.0
220
0.0
230
1.0
 70
     8
 71
     3
 72
    15
 73
    11
 74
     0
 42
0.00000001
 43
0.00000001
 40
0.0
 40
0.0
 40
0.0
 40
0.0
 40
0.0080847466189582
 40
0.3310106400648248
 40
0.475033306430495
 40
0.6874363079215143
 40
0.8468367539418303
 40
0.9000996640391847
 40
0.991044277198408
 40
1.0
 40
1.0
 40
1.0
 40
1.0
 10
55.68614703710379
 20
72.59690407523519
 30
0.0
 10
55.68742686864791
 20
72.59690139882551
 30
0.0
 10
55.73982651437114
 20
72.59679181962373
 30
0.0
 10
55.81518160582626
 20
72.58711266478616
 30
0.0
 10
55.91710071784391
 20
72.5498308413244
 30
0.0
 10
55.98949166283584
 20
72.50512296814101
 30
0.0
 10
56.03719709110065
 20
72.44698731800833
 30
0.0
 10
56.05873257480797
 20
72.39610024454004
 30
0.0
 10
56.0641615908275
 20
72.36733801543252
 30
0.0
 10
56.06433734298405
 20
72.3485852008081
 30
0.0
 10
56.06435309856266
 20
72.34690407523519
 30
0.0
  0
LINE
  5
13B
330
1F
100
AcDbEntity
  8
0
  6
Continuous
 62
     7
370
    25
100
AcDbLine
 10
55.8262128562
 20
72.3469040752
 30
0.0
 11
56.0643530986
 21
72.3469040752
 31
0.0
  0
LINE
  5
13C
330
1F
100
AcDbEntity
  8
0
  6
Continuous
 62
     7
370
    25
100
AcDbLine
 10
45.1099019485
 20
71.7469040752
 30
0.0
 11
45.1099019485
 21
72.3469040752
 31
0.0
  0
LINE
  5
13D
330
1F
100
AcDbEntity
  8
0
  6
Continuous
 62
     7
370
    25
100
AcDbLine
 10
45.3480421909
 20
71.7469040752
 30
0.0
 11
45.1099019485
 21
71.7469040752
 31
0.0
  0
LINE
  5
13E
330
1F
100
AcDbEntity
  8
0
  6
Continuous
 62
     7
370
    25
100
AcDbLine
 10
56.0643530986
 20
72.3469040752
 30
0.0
 11
56.0643530986
 21
71.7469040752
 31
0.0
  0
LINE
  5
13F
330
1F
100
AcDbEntity
  8
0
  6
Continuous
 62
     7
370
    25
100
AcDbLine
 10
56.0643530986
 20
71.7469040752
 30
0.0
 11
55.8262128562
 21
71.7469040752
 31
0.0
  0
LINE
  5
140
330
1F
100
AcDbEntity
  8
0
  6
Continuous
 62
     7
370
    25
100
AcDbLine
 10
44.8371275235
 20
72.3469040752
 30
0.0
 11
44.8371275235
 21
71.7469040752
 31
0.0
  0
LINE
  5
141
330
1F
100
AcDbEntity
  8
0
  6
Continuous
 62
     7
370
    25
100
AcDbLine
 10
45.1099019485
 20
72.3469040752
 30
0.0
 11
44.8371275235
 21
72.3469040752
 31
0.0
  0
LINE
  5
142
330
1F
100
AcDbEntity
  8
0
  6
Continuous
 62
     7
370
    25
100
AcDbLine
 10
44.8371275235
 20
71.7469040752
 30
0.0
 11
45.1099019485
 21
71.7469040752
 31
0.0
  0
ARC
  5
143
330
1F
100
AcDbEntity
  8
0
  6
Continuous
 62
     7
370
    25
100
AcDbCircle
 10
44.8371275235
 20
72.3469040752
 30
0.0
 40
0.25
100
AcDbArc
 50
90.0
 51
180.0
  0
LINE
  5
144
330
1F
100
AcDbEntity
  8
0
  6
Continuous
 62
     7
370
    25
100
AcDbLine
 10
44.8371275235
 20
72.5969040752
 30
0.0
 11
44.8371275235
 21
72.3469040752
 31
0.0
  0
LINE
  5
145
330
1F
100
AcDbEntity
  8
0
  6
Continuous
 62
     7
370
    25
100
AcDbLine
 10
44.5871275235
 20
72.3469040752
 30
0.0
 11
44.8371275235
 21
72.3469040752
 31
0.0
  0
LINE
  5
146
330
1F
100
AcDbEntity
  8
0
  6
Continuous
 62
     7
370
    25
100
AcDbLine
 10
44.5871275235
 20
71.7469040752
 30
0.0
 11
44.5871275235
 21
72.3469040752
 31
0.0
  0
LINE
  5
147
330
1F
100
AcDbEntity
  8
0
  6
Continuous
 62
     7
370
    25
100
AcDbLine
 10
44.8371275235
 20
71.7469040752
 30
0.0
 11
44.5871275235
 21
71.7469040752
 31
0.0
  0
LINE
  5
148
330
1F
100
AcDbEntity
  8
0
  6
Continuous
 62
     7
370
    25
100
AcDbLine
 10
44.8371275235
 20
72.5969040752
 30
0.0
 11
45.4881080099
 21
72.5969040752
 31
0.0
  0
LINE
  5
149
330
1F
100
AcDbEntity
  8
0
  6
Continuous
 62
     7
370
    25
100
AcDbLine
 10
56.3371275235
 20
72.3469040752
 30
0.0
 11
56.3371275235
 21
72.5969040752
 31
0.0
  0
LINE
  5
14A
330
1F
100
AcDbEntity
  8
0
  6
Continuous
 62
     7
370
    25
100
AcDbLine
 10
56.3371275235
 20
72.3469040752
 30
0.0
 11
56.0643530986
 21
72.3469040752
 31
0.0
  0
LINE
  5
14B
330
1F
100
AcDbEntity
  8
0
  6
Continuous
 62
     7
370
    25
100
AcDbLine
 10
55.6861470371
 20
72.5969040752
 30
0.0
 11
56.3371275235
 21
72.5969040752
 31
0.0
  0
LINE
  5
14C
330
1F
100
AcDbEntity
  8
0
  6
Continuous
 62
     7
370
    25
100
AcDbLine
 10
56.3371275235
 20
71.7469040752
 30
0.0
 11
56.3371275235
 21
72.3469040752
 31
0.0
  0
LINE
  5
14D
330
1F
100
AcDbEntity
  8
0
  6
Continuous
 62
     7
370
    25
100
AcDbLine
 10
56.0643530986
 20
71.7469040752
 30
0.0
 11
56.3371275235
 21
71.7469040752
 31
0.0
  0
LINE
  5
14E
330
1F
100
AcDbEntity
  8
0
  6
Continuous
 62
     7
370
    25
100
AcDbLine
 10
56.3371275235
 20
72.3469040752
 30
0.0
 11
56.5871275235
 21
72.3469040752
 31
0.0
  0
LINE
  5
14F
330
1F
100
AcDbEntity
  8
0
  6
Continuous
 62
     7
370
    25
100
AcDbLine
 10
56.5871275235
 20
72.3469040752
 30
0.0
 11
56.5871275235
 21
71.7469040752
 31
0.0
  0
LINE
  5
150
330
1F
100
AcDbEntity
  8
0
  6
Continuous
 62
     7
370
    25
100
AcDbLine
 10
56.5871275235
 20
71.7469040752
 30
0.0
 11
56.3371275235
 21
71.7469040752
 31
0.0
  0
ARC
  5
151
330
1F
100
AcDbEntity
  8
0
  6
Continuous
 62
     7
370
    25
100
AcDbCircle
 10
56.3371275235
 20
72.3469040752
 30
0.0
 40
0.25
100
AcDbArc
 50
0.0
 51
90.0
  0
LINE
  5
152
330
1F
100
AcDbEntity
  8
0
  6
Continuous
 62
     7
370
    25
100
AcDbLine
 10
55.5871275235
 20
72.5969040752
 30
0.0
 11
55.5871275235
 21
72.6069040752
 31
0.0
  0
LINE
  5
153
330
1F
100
AcDbEntity
  8
0
  6
Continuous
 62
     7
370
    25
100
AcDbLine
 10
45.5871275235
 20
72.5969040752
 30
0.0
 11
45.5871275235
 21
72.6069040752
 31
0.0
  0
LINE
  5
154
330
1F
100
AcDbEntity
  8
0
  6
Continuous
 62
     7
370
    25
100
AcDbLine
 10
45.5871275235
 20
72.6069040752
 30
0.0
 11
55.5871275235
 21
72.6069040752
 31
0.0
  0
SPLINE
  5
155
330
1F
100
AcDbEntity
  8
0
  6
Continuous
 62
     7
370
    25
100
AcDbSpline
210
0.0
220
0.0
230
1.0
 70
     8
 71
     3
 72
    30
 73
    26
 74
     0
 42
0.00000001
 43
0.00000001
 40
0.0
 40
0.0
 40
0.0
 40
0.0
 40
0.0110312886146619
 40
0.0532777057087787
 40
0.0955512614580859
 40
0.1522056016217255
 40
0.2089596127082029
 40
0.2161891239269317
 40
0.2769252670319227
 40
0.3376606363774972
 40
0.3847641757321519
 40
0.4317729587998944
 40
0.4687717585226137
 40
0.5057318185595604
 40
0.5426497999798867
 40
0.5796168587647319
 40
0.6291520068393605
 40
0.6787789066972317
 40
0.7318145844054983
 40
0.7848415787041616
 40
0.8294805410302885
 40
0.8740847032149914
 40
0.9165650994019404
 40
0.9590104870830726
 40
1.0
 40
1.0
 40
1.0
 40
1.0
 10
44.687127523511
 20
54.74690407523519
 30
0.0
 10
44.68795157085724
 20
54.74620624333748
 30
0.0
 10
44.69193146418944
 20
54.7428359315109
 30
0.0
 10
44.76271317311866
 20
54.68248628790555
 30
0.0
 10
44.98400190321793
 20
54.49695619224763
 30
0.0
 10
45.37456491861442
 20
54.17641024730598
 30
0.0
 10
45.77780700470065
 20
53.86273334376565
 30
0.0
 10
46.24462124378953
 20
53.51634405587573
 30
0.0
 10
46.78024907786757
 20
53.13591910887229
 30
0.0
 10
47.59599945587008
 20
52.63789555861164
 30
0.0
 10
48.43755926163453
 20
52.2257776855378
 30
0.0
 10
49.22096618026133
 20
51.94877856932284
 30
0.0
 10
49.99395105736571
 20
51.79736141686062
 30
0.0
 10
50.72454136164248
 20
51.75921194632616
 30
0.0
 10
51.44926382409459
 20
51.83854384276158
 30
0.0
 10
52.22263341382702
 20
52.03104702603355
 30
0.0
 10
53.01302838245461
 20
52.34820661884937
 30
0.0
 10
53.809832339625
 20
52.77348465789331
 30
0.0
 10
54.53720178857982
 20
53.23594734998431
 30
0.0
 10
55.15139923385402
 20
53.6763536264203
 30
0.0
 10
55.64488404539659
 20
54.05483530022816
 30
0.0
 10
56.01985853616887
 20
54.35652682255264
 30
0.0
 10
56.29038199535642
 20
54.58039937322853
 30
0.0
 10
56.46155565619167
 20
54.72518640773995
 30
0.0
 10
56.47696735459636
 20
54.73820214312324
 30
0.0
 10
56.48453874266422
 20
54.74459645353523
 30
0.0
  0
LINE
  5
156
330
1F
100
AcDbEntity
  8
0
  6
Continuous
 62
     7
370
    18
100
AcDbLine
 10
35.0871275235
 20
51.3254040752
 30
0.0
 11
26.5871275235
 21
51.3254040752
 31
0.0
  0
LINE
  5
157
330
1F
100
AcDbEntity
  8
0
  6
Continuous
 62
     7
370
    18
100
AcDbLine
 10
26.5871275235
 20
39.1684040752
 30
0.0
 11
35.0871275235
 21
39.1684040752
 31
0.0
  0
LINE
  5
158
330
1F
100
AcDbEntity
  8
0
  6
Continuous
 62
     7
370
    25
100
AcDbLine
 10
35.0871275235
 20
51.8254040752
 30
0.0
 11
35.0871275235
 21
51.8227213158
 31
0.0
  0
SPLINE
  5
159
330
1F
100
AcDbEntity
  8
0
  6
Continuous
 62
     7
370
     0
100
AcDbSpline
210
0.0
220
0.0
230
1.0
 70
     8
 71
     3
 72
    35
 73
    31
 74
     0
 42
0.00000001
 43
0.00000001
 40
0.0
 40
0.0
 40
0.0
 40
0.0
 40
0.036697076021592
 40
0.0733941520315526
 40
0.1100912280415131
 40
0.1467883040514737
 40
0.1834853800614342
 40
0.2201824560713949
 40
0.2568795320813554
 40
0.2935766080913159
 40
0.3302736841012765
 40
0.366970760111237
 40
0.4036678361211976
 40
0.4403649121311582
 40
0.4770619881411186
 40
0.5137590641510791
 40
0.5504561401610396
 40
0.5871532161710004
 40
0.6238502921809611
 40
0.6605473681909214
 40
0.6972444442008819
 40
0.7339415202108425
 40
0.7706385962208033
 40
0.807335672230764
 40
0.8440327482407245
 40
0.8807298242506851
 40
0.9174269002606457
 40
0.9541239762706063
 40
0.9908210522805667
 40
0.9999999999999999
 40
0.9999999999999999
 40
0.9999999999999999
 40
0.9999999999999999
 10
35.08710861206055
 20
51.82272131575543
 30
0.0
 10
35.087127523511
 20
51.7584444306489
 30
0.0
 10
35.087127523511
 20
51.60927965889201
 30
0.0
 10
35.087127523511
 20
51.37717159140272
 30
0.0
 10
35.087127523511
 20
51.0651461118043
 30
0.0
 10
35.087127523511
 20
50.67727094940478
 30
0.0
 10
35.087127523511
 20
50.21860265012465
 30
0.0
 10
35.087127523511
 20
49.6951206566878
 30
0.0
 10
35.087127523511
 20
49.11364935744119
 30
0.0
 10
35.087127523511
 20
48.48176912001625
 30
0.0
 10
35.087127523511
 20
47.80771746964411
 30
0.0
 10
35.087127523511
 20
47.10028170041649
 30
0.0
 10
35.087127523511
 20
46.36868431946885
 30
0.0
 10
35.087127523511
 20
45.62246281749586
 30
0.0
 10
35.087127523511
 20
44.87134533297442
 30
0.0
 10
35.087127523511
 20
44.12512383100142
 30
0.0
 10
35.087127523511
 20
43.39352645005378
 30
0.0
 10
35.087127523511
 20
42.68609068082617
 30
0.0
 10
35.087127523511
 20
42.01203903045403
 30
0.0
 10
35.087127523511
 20
41.3801587930291
 30
0.0
 10
35.087127523511
 20
40.7986874937825
 30
0.0
 10
35.087127523511
 20
40.27520550034565
 30
0.0
 10
35.087127523511
 20
39.81653720106553
 30
0.0
 10
35.087127523511
 20
39.42866203866603
 30
0.0
 10
35.087127523511
 20
39.11663655906761
 30
0.0
 10
35.087127523511
 20
38.88452849157834
 30
0.0
 10
35.087127523511
 20
38.73536371982145
 30
0.0
 10
35.087127523511
 20
38.67108683471493
 30
0.0
 10
35.087127523511
 20
38.66840407523518
 30
0.0
 10
35.087127523511
 20
38.66896634649394
 30
0.0
 10
35.087127523511
 20
38.66840407523518
 30
0.0
  0
LINE
  5
15A
330
1F
100
AcDbEntity
  8
0
  6
CENTERX2
 62
     7
370
    18
100
AcDbLine
 10
65.7047945266
 20
45.2469040752
 30
0.0
 11
23.1921039446
 21
45.2469040752
 31
0.0
  0
LINE
  5
15B
330
1F
100
AcDbEntity
  8
0
  6
CENTERX2
 62
     7
370
    18
100
AcDbLine
 10
50.5871275235
 20
19.5838742574
 30
0.0
 11
50.5871275235
 21
75.216510019
 31
0.0
  0
LINE
  5
15C
330
1F
100
AcDbEntity
  8
0
  6
Continuous
 62
     7
370
    25
100
AcDbLine
 10
36.2871275235
 20
116.3891992476
 30
0.0
 11
36.0871275235
 21
116.1891992476
 31
0.0
  0
LINE
  5
15D
330
1F
100
AcDbEntity
  8
0
  6
Continuous
 62
     7
370
    25
100
AcDbLine
 10
36.0871275235
 20
99.5891992476
 30
0.0
 11
36.2871275235
 21
99.3891992476
 31
0.0
  0
LINE
  5
15E
330
1F
100
AcDbEntity
  8
0
  6
Continuous
 62
     7
370
    25
100
AcDbLine
 10
39.0871275235
 20
116.3891992476
 30
0.0
 11
36.2871275235
 21
116.3891992476
 31
0.0
  0
LINE
  5
15F
330
1F
100
AcDbEntity
  8
0
  6
Continuous
 62
     7
370
    25
100
AcDbLine
 10
36.2871275235
 20
99.3891992476
 30
0.0
 11
39.0871275235
 21
99.3891992476
 31
0.0
  0
LINE
  5
160
330
1F
100
AcDbEntity
  8
0
  6
Continuous
 62
     7
370
    25
100
AcDbLine
 10
27.0871275235
 20
114.4676992476
 30
0.0
 11
26.0871275235
 21
113.4676992476
 31
0.0
  0
LINE
  5
161
330
1F
100
AcDbEntity
  8
0
  6
Continuous
 62
     7
370
    25
100
AcDbLine
 10
26.0871275235
 20
102.3106992476
 30
0.0
 11
27.0871275235
 21
101.3106992476
 31
0.0
  0
LINE
  5
162
330
1F
100
AcDbEntity
  8
0
  6
Continuous
 62
     7
370
    25
100
AcDbLine
 10
36.0871275235
 20
114.4676992476
 30
0.0
 11
27.0871275235
 21
114.4676992476
 31
0.0
  0
LINE
  5
163
330
1F
100
AcDbEntity
  8
0
  6
Continuous
 62
     7
370
    25
100
AcDbLine
 10
27.0871275235
 20
101.3106992476
 30
0.0
 11
36.0871275235
 21
101.3106992476
 31
0.0
  0
LINE
  5
164
330
1F
100
AcDbEntity
  8
0
  6
Continuous
 62
     7
370
    25
100
AcDbLine
 10
62.4427899562
 20
99.3891992476
 30
0.0
 11
62.5871275235
 21
99.6391992476
 31
0.0
  0
LINE
  5
165
330
1F
100
AcDbEntity
  8
0
  6
Continuous
 62
     7
370
    25
100
AcDbLine
 10
62.5871275235
 20
116.1391992476
 30
0.0
 11
62.4427899562
 21
116.3891992476
 31
0.0
  0
LINE
  5
166
330
1F
100
AcDbEntity
  8
0
  6
Continuous
 62
     7
370
    25
100
AcDbLine
 10
36.0871275235
 20
104.5956000899
 30
0.0
 11
36.0871275235
 21
116.1891992476
 31
0.0
  0
LINE
  5
167
330
1F
100
AcDbEntity
  8
0
  6
Continuous
 62
     7
370
    25
100
AcDbLine
 10
36.0871275235
 20
99.5891992476
 30
0.0
 11
36.0871275235
 21
104.5956000899
 31
0.0
  0
LINE
  5
168
330
1F
100
AcDbEntity
  8
0
  6
Continuous
 62
     7
370
    25
100
AcDbLine
 10
36.2871275235
 20
104.5162362548
 30
0.0
 11
36.2871275235
 21
99.3891992476
 31
0.0
  0
LINE
  5
169
330
1F
100
AcDbEntity
  8
0
  6
Continuous
 62
     7
370
    25
100
AcDbLine
 10
36.2871275235
 20
116.3891992476
 30
0.0
 11
36.2871275235
 21
104.5162362548
 31
0.0
  0
LINE
  5
16A
330
1F
100
AcDbEntity
  8
0
  6
Continuous
 62
     7
370
    25
100
AcDbLine
 10
39.0871275235
 20
104.5162362548
 30
0.0
 11
39.0871275235
 21
116.3891992476
 31
0.0
  0
LINE
  5
16B
330
1F
100
AcDbEntity
  8
0
  6
Continuous
 62
     7
370
    25
100
AcDbLine
 10
39.0871275235
 20
99.3891992476
 30
0.0
 11
39.0871275235
 21
104.5162362548
 31
0.0
  0
LINE
  5
16C
330
1F
100
AcDbEntity
  8
0
  6
Continuous
 62
     7
370
    25
100
AcDbLine
 10
26.0871275235
 20
105.6755434764
 30
0.0
 11
26.0871275235
 21
113.4676992476
 31
0.0
  0
LINE
  5
16D
330
1F
100
AcDbEntity
  8
0
  6
Continuous
 62
     7
370
    25
100
AcDbLine
 10
26.0871275235
 20
102.3106992476
 30
0.0
 11
26.0871275235
 21
105.6755434764
 31
0.0
  0
LINE
  5
16E
330
1F
100
AcDbEntity
  8
0
  6
Continuous
 62
     7
370
    25
100
AcDbLine
 10
27.0871275235
 20
105.2787243008
 30
0.0
 11
27.0871275235
 21
101.3106992476
 31
0.0
  0
LINE
  5
16F
330
1F
100
AcDbEntity
  8
0
  6
Continuous
 62
     7
370
    25
100
AcDbLine
 10
27.0871275235
 20
114.4676992476
 30
0.0
 11
27.0871275235
 21
105.2787243008
 31
0.0
  0
SPLINE
  5
170
330
1F
100
AcDbEntity
  8
0
  6
Continuous
 62
     7
370
    25
100
AcDbSpline
210
0.0
220
0.0
230
1.0
 70
    24
 71
     3
 72
    10
 73
     6
 74
     0
 42
0.00000001
 43
0.00000001
 40
0.0
 40
0.0
 40
0.0
 40
0.0
 40
0.3696167977216699
 40
0.7422791372488083
 40
1.0
 40
1.0
 40
1.0
 40
1.0
 10
61.7650685509534
 20
99.38919924764885
 30
0.0
 10
61.90627136830514
 20
99.38919924764885
 30
0.0
 10
62.18984047578892
 20
99.38919924764885
 30
0.0
 10
62.40898043852769
 20
99.38919924764885
 30
0.0
 10
62.43137141998507
 20
99.38919924764885
 30
0.0
 10
62.44052557104458
 20
99.38919924764885
 30
0.0
  0
SPLINE
  5
171
330
1F
100
AcDbEntity
  8
0
  6
Continuous
 62
     7
370
    25
100
AcDbSpline
210
0.0
220
0.0
230
1.0
 70
     8
 71
     3
 72
    10
 73
     6
 74
     0
 42
0.00000001
 43
0.00000001
 40
0.0
 40
0.0
 40
0.0
 40
0.0
 40
0.5
 40
0.5
 40
1.0
 40
1.0
 40
1.0
 40
1.0
 10
61.7650685509534
 20
99.63919924764885
 30
0.0
 10
61.74139315652901
 20
99.56481887027151
 30
0.0
 10
61.72830204664437
 20
99.50051823148574
 30
0.0
 10
61.72821572535609
 20
99.4123025467028
 30
0.0
 10
61.74138465929993
 20
99.38919924764885
 30
0.0
 10
61.7650685509534
 20
99.38919924764885
 30
0.0
  0
SPLINE
  5
172
330
1F
100
AcDbEntity
  8
0
  6
Continuous
 62
     7
370
    25
100
AcDbSpline
210
0.0
220
0.0
230
1.0
 70
     8
 71
     3
 72
    10
 73
     6
 74
     0
 42
0.00000001
 43
0.00000001
 40
0.0
 40
0.0
 40
0.0
 40
0.0
 40
0.0464493845805497
 40
0.5192910163878975
 40
1.0
 40
1.0
 40
1.0
 40
1.0
 10
62.43449732951911
 20
103.5196504034888
 30
0.0
 10
62.4361787346612
 20
103.4587624683399
 30
0.0
 10
62.4549763698307
 20
102.7780525296665
 30
0.0
 10
62.27799064923194
 20
101.4660010262156
 30
0.0
 10
61.93698042848391
 20
100.2514733623409
 30
0.0
 10
61.7650685509534
 20
99.63919924764885
 30
0.0
  0
SPLINE
  5
173
330
1F
100
AcDbEntity
  8
0
  6
Continuous
 62
     7
370
    25
100
AcDbSpline
210
0.0
220
0.0
230
1.0
 70
     8
 71
     3
 72
    10
 73
     6
 74
     0
 42
0.00000001
 43
0.00000001
 40
0.0
 40
0.0
 40
0.0
 40
0.0
 40
0.5436626511115941
 40
0.8212383966513609
 40
1.0
 40
1.0
 40
1.0
 40
1.0
 10
61.7650685509534
 20
116.1391992476488
 30
0.0
 10
61.96107367145549
 20
115.4403816762214
 30
0.0
 10
62.25715237130268
 20
114.3847715092595
 30
0.0
 10
62.42365754471141
 20
113.0678387063691
 30
0.0
 10
62.42803094636324
 20
112.464707945124
 30
0.0
 10
62.42974414449017
 20
112.2284427738166
 30
0.0
  0
SPLINE
  5
174
330
1F
100
AcDbEntity
  8
0
  6
Continuous
 62
     7
370
    25
100
AcDbSpline
210
0.0
220
0.0
230
1.0
 70
     8
 71
     3
 72
    10
 73
     6
 74
     0
 42
0.00000001
 43
0.00000001
 40
0.0
 40
0.0
 40
0.0
 40
0.0
 40
0.5
 40
0.5
 40
1.0
 40
1.0
 40
1.0
 40
1.0
 10
61.7650685509534
 20
116.3891992476488
 30
0.0
 10
61.74139315652901
 20
116.3891992476488
 30
0.0
 10
61.72830204664437
 20
116.3664067983191
 30
0.0
 10
61.72821572535609
 20
116.278464094226
 30
0.0
 10
61.74138465929993
 20
116.2136063205521
 30
0.0
 10
61.7650685509534
 20
116.1391992476488
 30
0.0
  0
SPLINE
  5
175
330
1F
100
AcDbEntity
  8
0
  6
Continuous
 62
     7
370
    25
100
AcDbSpline
210
0.0
220
0.0
230
1.0
 70
    24
 71
     3
 72
    10
 73
     6
 74
     0
 42
0.00000001
 43
0.00000001
 40
0.0
 40
0.0
 40
0.0
 40
0.0
 40
0.2577168732906999
 40
0.6270807091078531
 40
1.0
 40
1.0
 40
1.0
 40
1.0
 10
62.43918372260001
 20
116.3891992476488
 30
0.0
 10
62.43058002619839
 20
116.3891992476488
 30
0.0
 10
62.40964537814223
 20
116.3891992476488
 30
0.0
 10
62.19067479289583
 20
116.3891992476488
 30
0.0
 10
61.90738959997498
 20
116.3891992476488
 30
0.0
 10
61.7650685509534
 20
116.3891992476488
 30
0.0
  0
LINE
  5
176
330
1F
100
AcDbEntity
  8
0
  6
Continuous
 62
     7
370
    25
100
AcDbLine
 10
62.5871275235
 20
116.1391992476
 30
0.0
 11
62.5871275235
 21
112.1905973573
 31
0.0
  0
LINE
  5
177
330
1F
100
AcDbEntity
  8
0
  6
Continuous
 62
     7
370
    25
100
AcDbLine
 10
62.5871275235
 20
103.587801138
 30
0.0
 11
62.5871275235
 21
99.6391992476
 31
0.0
  0
SPLINE
  5
178
330
1F
100
AcDbEntity
  8
0
  6
Continuous
 62
     7
370
    25
100
AcDbSpline
210
0.0
220
0.0
230
1.0
 70
     8
 71
     3
 72
    10
 73
     6
 74
     0
 42
0.00000001
 43
0.00000001
 40
0.0
 40
0.0
 40
0.0
 40
0.0
 40
0.5
 40
0.5
 40
1.0
 40
1.0
 40
1.0
 40
1.0
 10
39.76484892877119
 20
108.1391992476488
 30
0.0
 10
39.7885225332623
 20
108.0648244936588
 30
0.0
 10
39.80161530905554
 20
107.9777307620929
 30
0.0
 10
39.8017018771565
 20
107.8015649335484
 30
0.0
 10
39.7885320530332
 20
107.7136039096581
 30
0.0
 10
39.76484892877119
 20
107.6391992476488
 30
0.0
  0
SPLINE
  5
179
330
1F
100
AcDbEntity
  8
0
  6
Continuous
 62
     7
370
    25
100
AcDbSpline
210
0.0
220
0.0
230
1.0
 70
     8
 71
     3
 72
    12
 73
     8
 74
     0
 42
0.00000001
 43
0.00000001
 40
0.0
 40
0.0
 40
0.0
 40
0.0
 40
0.2499999999999999
 40
0.2499999999999999
 40
0.5
 40
0.5
 40
1.0
 40
1.0
 40
1.0
 40
1.0
 10
39.087127523511
 20
103.6391992476488
 30
0.0
 10
39.08712752351101
 20
103.9769551826716
 30
0.0
 10
39.10287385353296
 20
104.3173631975501
 30
0.0
 10
39.16431887811839
 20
104.9918578819505
 30
0.0
 10
39.20990763737212
 20
105.3269832008178
 30
0.0
 10
39.38635863962872
 20
106.3266945191579
 30
0.0
 10
39.55681634159221
 20
106.9856286222232
 30
0.0
 10
39.76484892877105
 20
107.6391992476489
 30
0.0
  0
LINE
  5
17A
330
1F
100
AcDbEntity
  8
0
  6
Continuous
 62
     7
370
    25
100
AcDbLine
 10
39.0871275235
 20
112.1391992476
 30
0.0
 11
39.0871275235
 21
103.6391992476
 31
0.0
  0
SPLINE
  5
17B
330
1F
100
AcDbEntity
  8
0
  6
Continuous
 62
     7
370
    25
100
AcDbSpline
210
0.0
220
0.0
230
1.0
 70
     8
 71
     3
 72
    10
 73
     6
 74
     0
 42
0.00000001
 43
0.00000001
 40
0.0
 40
0.0
 40
0.0
 40
0.0
 40
0.5
 40
0.5
 40
1.0
 40
1.0
 40
1.0
 40
1.0
 10
39.76484892877072
 20
108.1391992476488
 30
0.0
 10
39.55603900410447
 20
108.7952120142539
 30
0.0
 10
39.38550486435722
 20
109.4554789211116
 30
0.0
 10
39.1507190593383
 20
110.7878254397466
 30
0.0
 10
39.08712752351101
 20
111.459978421234
 30
0.0
 10
39.08712752351101
 20
112.1391992476488
 30
0.0
  0
SPLINE
  5
17C
330
1F
100
AcDbEntity
  8
0
  6
Continuous
 62
     7
370
    25
100
AcDbSpline
210
0.0
220
0.0
230
1.0
 70
     8
 71
     3
 72
     9
 73
     5
 74
     0
 42
0.00000001
 43
0.00000001
 40
0.0
 40
0.0
 40
0.0
 40
0.0
 40
0.3146215586889222
 40
1.0
 40
1.0
 40
1.0
 40
1.0
 10
56.69879193089562
 20
113.4289353847119
 30
0.0
 10
56.72373084992326
 20
113.7178587949973
 30
0.0
 10
56.8029972521735
 20
114.6361792415981
 30
0.0
 10
57.07703165612518
 20
115.527978952102
 30
0.0
 10
57.26484892877119
 20
116.1391992476488
 30
0.0
  0
LINE
  5
17D
330
1F
100
AcDbEntity
  8
0
  6
Continuous
 62
     7
370
    25
100
AcDbLine
 10
61.765068551
 20
116.1391992476
 30
0.0
 11
57.2648489288
 21
116.1391992476
 31
0.0
  0
SPLINE
  5
17E
330
1F
100
AcDbEntity
  8
0
  6
Continuous
 62
     7
370
    25
100
AcDbSpline
210
0.0
220
0.0
230
1.0
 70
     8
 71
     3
 72
    12
 73
     8
 74
     0
 42
0.00000001
 43
0.00000001
 40
0.0
 40
0.0
 40
0.0
 40
0.0
 40
0.2500000000000001
 40
0.2500000000000001
 40
0.5000000000000002
 40
0.5000000000000002
 40
1.0
 40
1.0
 40
1.0
 40
1.0
 10
39.08712752351101
 20
112.1391992476488
 30
0.0
 10
39.087127523511
 20
112.4769551826716
 30
0.0
 10
39.10287385353296
 20
112.8173631975501
 30
0.0
 10
39.16431887811839
 20
113.4918578819505
 30
0.0
 10
39.20990763737212
 20
113.8269832008178
 30
0.0
 10
39.38635863962872
 20
114.8266945191579
 30
0.0
 10
39.55681634159221
 20
115.4856286222232
 30
0.0
 10
39.76484892877105
 20
116.1391992476489
 30
0.0
  0
LINE
  5
17F
330
1F
100
AcDbEntity
  8
0
  6
Continuous
 62
     7
370
    25
100
AcDbLine
 10
43.9094061183
 20
116.1391992476
 30
0.0
 11
39.7648489288
 21
116.1391992476
 31
0.0
  0
SPLINE
  5
180
330
1F
100
AcDbEntity
  8
0
  6
Continuous
 62
     7
370
    25
100
AcDbSpline
210
0.0
220
0.0
230
1.0
 70
     8
 71
     3
 72
    10
 73
     6
 74
     0
 42
0.00000001
 43
0.00000001
 40
0.0
 40
0.0
 40
0.0
 40
0.0
 40
0.5134574137275343
 40
0.7747452382362819
 40
1.0
 40
1.0
 40
1.0
 40
1.0
 10
43.90940611825079
 20
116.1391992476489
 30
0.0
 10
44.09427515286352
 20
115.4881953016432
 30
0.0
 10
44.3732202034837
 20
114.5059089547007
 30
0.0
 10
44.55315442914075
 20
113.2082996457121
 30
0.0
 10
44.57191923764915
 20
112.5737229286656
 30
0.0
 10
44.58060678646677
 20
112.2799327625997
 30
0.0
  0
SPLINE
  5
181
330
1F
100
AcDbEntity
  8
0
  6
Continuous
 62
     7
370
    25
100
AcDbSpline
210
0.0
220
0.0
230
1.0
 70
     8
 71
     3
 72
    12
 73
     8
 74
     0
 42
0.00000001
 43
0.00000001
 40
0.0
 40
0.0
 40
0.0
 40
0.0
 40
0.2500000000000001
 40
0.2500000000000001
 40
0.5000000000000002
 40
0.5000000000000002
 40
1.0
 40
1.0
 40
1.0
 40
1.0
 10
44.587127523511
 20
103.6391992476488
 30
0.0
 10
44.587127523511
 20
103.300163703153
 30
0.0
 10
44.57128458742205
 20
102.9595271438827
 30
0.0
 10
44.50978172718438
 20
102.2852947963778
 30
0.0
 10
44.46417808614069
 20
101.9503091849146
 30
0.0
 10
44.28772706865147
 20
100.9510387557754
 30
0.0
 10
44.11732970139962
 20
100.2924274179185
 30
0.0
 10
43.90940611825081
 20
99.63919924764885
 30
0.0
  0
LINE
  5
182
330
1F
100
AcDbEntity
  8
0
  6
Continuous
 62
     7
370
    25
100
AcDbLine
 10
39.7648489288
 20
99.6391992476
 30
0.0
 11
43.9094061183
 21
99.6391992476
 31
0.0
  0
SPLINE
  5
183
330
1F
100
AcDbEntity
  8
0
  6
Continuous
 62
     7
370
    25
100
AcDbSpline
210
0.0
220
0.0
230
1.0
 70
     8
 71
     3
 72
    10
 73
     6
 74
     0
 42
0.00000001
 43
0.00000001
 40
0.0
 40
0.0
 40
0.0
 40
0.0
 40
0.5
 40
0.5
 40
1.0
 40
1.0
 40
1.0
 40
1.0
 10
39.76484892877072
 20
99.63919924764879
 30
0.0
 10
39.55603900410447
 20
100.2952120142539
 30
0.0
 10
39.38550486435722
 20
100.9554789211116
 30
0.0
 10
39.1507190593383
 20
102.2878254397466
 30
0.0
 10
39.087127523511
 20
102.959978421234
 30
0.0
 10
39.087127523511
 20
103.6391992476488
 30
0.0
  0
LINE
  5
184
330
1F
100
AcDbEntity
  8
0
  6
Continuous
 62
     7
370
    25
100
AcDbLine
 10
57.2648489288
 20
99.6391992476
 30
0.0
 11
61.765068551
 21
99.6391992476
 31
0.0
  0
SPLINE
  5
185
330
1F
100
AcDbEntity
  8
0
  6
Continuous
 62
     7
370
    25
100
AcDbSpline
210
0.0
220
0.0
230
1.0
 70
     8
 71
     3
 72
     9
 73
     5
 74
     0
 42
0.00000001
 43
0.00000001
 40
0.0
 40
0.0
 40
0.0
 40
0.0
 40
0.7362912822556114
 40
1.0
 40
1.0
 40
1.0
 40
1.0
 10
57.26484892877121
 20
99.6391992476488
 30
0.0
 10
57.07292912837205
 20
100.2896040503854
 30
0.0
 10
56.8122716888174
 20
101.1729566289247
 30
0.0
 10
56.70368832248379
 20
102.0782838500917
 30
0.0
 10
56.67505394217959
 20
102.3170265307247
 30
0.0
  0
LINE
  5
186
330
1F
100
AcDbEntity
  8
0
  6
Continuous
 62
     7
370
    25
100
AcDbLine
 10
56.5871275235
 20
102.3443836437
 30
0.0
 11
56.5871275235
 21
100.3891992476
 31
0.0
  0
LINE
  5
187
330
1F
100
AcDbEntity
  8
0
  6
Continuous
 62
     7
370
    25
100
AcDbLine
 10
56.5871275235
 20
100.3891992476
 30
0.0
 11
44.5871275235
 21
100.3891992476
 31
0.0
  0
LINE
  5
188
330
1F
100
AcDbEntity
  8
0
  6
Continuous
 62
     7
370
    25
100
AcDbLine
 10
44.5871275235
 20
103.4730357543
 30
0.0
 11
44.5871275235
 21
100.3891992476
 31
0.0
  0
LINE
  5
189
330
1F
100
AcDbEntity
  8
0
  6
Continuous
 62
     7
370
    25
100
AcDbLine
 10
44.5871275235
 20
115.3891992476
 30
0.0
 11
44.5871275235
 21
112.305362741
 31
0.0
  0
LINE
  5
18A
330
1F
100
AcDbEntity
  8
0
  6
Continuous
 62
     7
370
    25
100
AcDbLine
 10
44.5871275235
 20
115.3891992476
 30
0.0
 11
56.5871275235
 21
115.3891992476
 31
0.0
  0
LINE
  5
18B
330
1F
100
AcDbEntity
  8
0
  6
Continuous
 62
     7
370
    25
100
AcDbLine
 10
56.5871275235
 20
115.3891992476
 30
0.0
 11
56.5871275235
 21
113.4340148516
 31
0.0
  0
SPLINE
  5
18C
330
1F
100
AcDbEntity
  8
0
  6
Continuous
 62
     7
370
    25
100
AcDbSpline
210
0.0
220
0.0
230
1.0
 70
     8
 71
     3
 72
     8
 73
     4
 74
     0
 42
0.00000001
 43
0.00000001
 40
0.0
 40
0.0
 40
0.0
 40
0.0
 40
1.0
 40
1.0
 40
1.0
 40
1.0
 10
44.07089144653182
 20
116.3891992476489
 30
0.0
 10
44.2445945227516
 20
116.0566878255134
 30
0.0
 10
44.4168967418143
 20
115.7233607256145
 30
0.0
 10
44.587127523511
 20
115.3891992476488
 30
0.0
  0
SPLINE
  5
18D
330
1F
100
AcDbEntity
  8
0
  6
Continuous
 62
     7
370
    25
100
AcDbSpline
210
0.0
220
0.0
230
1.0
 70
     8
 71
     3
 72
    10
 73
     6
 74
     0
 42
0.00000001
 43
0.00000001
 40
0.0
 40
0.0
 40
0.0
 40
0.0
 40
0.5
 40
0.5
 40
1.0
 40
1.0
 40
1.0
 40
1.0
 10
43.90940611825646
 20
116.3891992476488
 30
0.0
 10
43.88573072383215
 20
116.3891992476488
 30
0.0
 10
43.87263961394185
 20
116.3664067983194
 30
0.0
 10
43.87255329265344
 20
116.2784640942263
 30
0.0
 10
43.88572222659727
 20
116.2136063205523
 30
0.0
 10
43.90940611825079
 20
116.1391992476489
 30
0.0
  0
SPLINE
  5
18E
330
1F
100
AcDbEntity
  8
0
  6
Continuous
 62
     7
370
    25
100
AcDbSpline
210
0.0
220
0.0
230
1.0
 70
    24
 71
     3
 72
     8
 73
     4
 74
     0
 42
0.00000001
 43
0.00000001
 40
0.0
 40
0.0
 40
0.0
 40
0.0
 40
1.0
 40
1.0
 40
1.0
 40
1.0
 10
44.07089144653181
 20
116.3891992476488
 30
0.0
 10
44.01999272960941
 20
116.3891992476488
 30
0.0
 10
43.96605859335879
 20
116.3891992476488
 30
0.0
 10
43.9094061182512
 20
116.3891992476488
 30
0.0
  0
SPLINE
  5
18F
330
1F
100
AcDbEntity
  8
0
  6
Continuous
 62
     7
370
    25
100
AcDbSpline
210
0.0
220
0.0
230
1.0
 70
     8
 71
     3
 72
     8
 73
     4
 74
     0
 42
0.00000001
 43
0.00000001
 40
0.0
 40
0.0
 40
0.0
 40
0.0
 40
1.0
 40
1.0
 40
1.0
 40
1.0
 10
56.587127523511
 20
115.3891992476488
 30
0.0
 10
56.75740513085472
 20
115.7234526439342
 30
0.0
 10
56.9296768794804
 20
116.0567191335031
 30
0.0
 10
57.10336360049006
 20
116.3891992476486
 30
0.0
  0
SPLINE
  5
190
330
1F
100
AcDbEntity
  8
0
  6
Continuous
 62
     7
370
    25
100
AcDbSpline
210
0.0
220
0.0
230
1.0
 70
    24
 71
     3
 72
     8
 73
     4
 74
     0
 42
0.00000001
 43
0.00000001
 40
0.0
 40
0.0
 40
0.0
 40
0.0
 40
1.0
 40
1.0
 40
1.0
 40
1.0
 10
57.10336360048965
 20
116.3891992476488
 30
0.0
 10
57.15425983374489
 20
116.3891992476488
 30
0.0
 10
57.20819378870872
 20
116.3891992476488
 30
0.0
 10
57.26484892877119
 20
116.3891992476488
 30
0.0
  0
SPLINE
  5
191
330
1F
100
AcDbEntity
  8
0
  6
Continuous
 62
     7
370
    25
100
AcDbSpline
210
0.0
220
0.0
230
1.0
 70
     8
 71
     3
 72
    10
 73
     6
 74
     0
 42
0.00000001
 43
0.00000001
 40
0.0
 40
0.0
 40
0.0
 40
0.0
 40
0.5
 40
0.5
 40
1.0
 40
1.0
 40
1.0
 40
1.0
 10
57.26484892877119
 20
116.1391992476488
 30
0.0
 10
57.28852432319558
 20
116.2135796250262
 30
0.0
 10
57.30161543308022
 20
116.277880263812
 30
0.0
 10
57.3017017543685
 20
116.3660959485949
 30
0.0
 10
57.28853282042466
 20
116.3891992476488
 30
0.0
 10
57.26484892877119
 20
116.3891992476488
 30
0.0
  0
SPLINE
  5
192
330
1F
100
AcDbEntity
  8
0
  6
Continuous
 62
     7
370
    25
100
AcDbSpline
210
0.0
220
0.0
230
1.0
 70
     8
 71
     3
 72
    10
 73
     6
 74
     0
 42
0.00000001
 43
0.00000001
 40
0.0
 40
0.0
 40
0.0
 40
0.0
 40
0.5
 40
0.5
 40
1.0
 40
1.0
 40
1.0
 40
1.0
 10
39.76484892877119
 20
116.3891992476488
 30
0.0
 10
39.78852282932714
 20
116.3891992476488
 30
0.0
 10
39.80161538650628
 20
116.3664086760014
 30
0.0
 10
39.80170180048857
 20
116.2784626787026
 30
0.0
 10
39.78853140888994
 20
116.2136018859698
 30
0.0
 10
39.76484892877119
 20
116.1391992476488
 30
0.0
  0
SPLINE
  5
193
330
1F
100
AcDbEntity
  8
0
  6
Continuous
 62
     7
370
    25
100
AcDbSpline
210
0.0
220
0.0
230
1.0
 70
    24
 71
     3
 72
    12
 73
     8
 74
     0
 42
0.00000001
 43
0.00000001
 40
0.0
 40
0.0
 40
0.0
 40
0.0
 40
0.2499999999999999
 40
0.2499999999999999
 40
0.4999999999999998
 40
0.4999999999999998
 40
1.0
 40
1.0
 40
1.0
 40
1.0
 10
39.087127523511
 20
116.3891992476488
 30
0.0
 10
39.08712752351101
 20
116.3891992476488
 30
0.0
 10
39.10312632849207
 20
116.3891992476488
 30
0.0
 10
39.16489646680647
 20
116.3891992476488
 30
0.0
 10
39.21063859110806
 20
116.3891992476488
 30
0.0
 10
39.38730873845491
 20
116.3891992476488
 30
0.0
 10
39.5575638039352
 20
116.3891992476488
 30
0.0
 10
39.76484892877119
 20
116.3891992476488
 30
0.0
  0
LINE
  5
194
330
1F
100
AcDbEntity
  8
0
  6
Continuous
 62
     7
370
    25
100
AcDbLine
 10
39.0871275235
 20
116.3891992476
 30
0.0
 11
39.0871275235
 21
112.1391992476
 31
0.0
  0
SPLINE
  5
195
330
1F
100
AcDbEntity
  8
0
  6
Continuous
 62
     7
370
    25
100
AcDbSpline
210
0.0
220
0.0
230
1.0
 70
     8
 71
     3
 72
     8
 73
     4
 74
     0
 42
0.00000001
 43
0.00000001
 40
0.0
 40
0.0
 40
0.0
 40
0.0
 40
1.0
 40
1.0
 40
1.0
 40
1.0
 10
57.10336360049018
 20
99.38919924764883
 30
0.0
 10
56.9296605242704
 20
99.72171066978434
 30
0.0
 10
56.7573583052077
 20
100.0550377696832
 30
0.0
 10
56.587127523511
 20
100.3891992476488
 30
0.0
  0
SPLINE
  5
196
330
1F
100
AcDbEntity
  8
0
  6
Continuous
 62
     7
370
    25
100
AcDbSpline
210
0.0
220
0.0
230
1.0
 70
     8
 71
     3
 72
    10
 73
     6
 74
     0
 42
0.00000001
 43
0.00000001
 40
0.0
 40
0.0
 40
0.0
 40
0.0
 40
0.5
 40
0.5
 40
1.0
 40
1.0
 40
1.0
 40
1.0
 10
57.26484892877122
 20
99.38919924764885
 30
0.0
 10
57.2885243231956
 20
99.38919924764885
 30
0.0
 10
57.30161543308022
 20
99.41199169697863
 30
0.0
 10
57.3017017543685
 20
99.49993440107168
 30
0.0
 10
57.28853282042467
 20
99.56479217474553
 30
0.0
 10
57.26484892877122
 20
99.63919924764879
 30
0.0
  0
SPLINE
  5
197
330
1F
100
AcDbEntity
  8
0
  6
Continuous
 62
     7
370
    25
100
AcDbSpline
210
0.0
220
0.0
230
1.0
 70
    24
 71
     3
 72
     8
 73
     4
 74
     0
 42
0.00000001
 43
0.00000001
 40
0.0
 40
0.0
 40
0.0
 40
0.0
 40
1.0
 40
1.0
 40
1.0
 40
1.0
 10
57.10336360049019
 20
99.38919924764885
 30
0.0
 10
57.15425983374526
 20
99.38919924764885
 30
0.0
 10
57.20819378870893
 20
99.38919924764885
 30
0.0
 10
57.26484892877119
 20
99.38919924764885
 30
0.0
  0
SPLINE
  5
198
330
1F
100
AcDbEntity
  8
0
  6
Continuous
 62
     7
370
    25
100
AcDbSpline
210
0.0
220
0.0
230
1.0
 70
     8
 71
     3
 72
     8
 73
     4
 74
     0
 42
0.00000001
 43
0.00000001
 40
0.0
 40
0.0
 40
0.0
 40
0.0
 40
1.0
 40
1.0
 40
1.0
 40
1.0
 10
44.587127523511
 20
100.3891992476488
 30
0.0
 10
44.41684991616724
 20
100.0549458513634
 30
0.0
 10
44.24457816754153
 20
99.72167936179441
 30
0.0
 10
44.07089144653182
 20
99.38919924764885
 30
0.0
  0
SPLINE
  5
199
330
1F
100
AcDbEntity
  8
0
  6
Continuous
 62
     7
370
    25
100
AcDbSpline
210
0.0
220
0.0
230
1.0
 70
    24
 71
     3
 72
     8
 73
     4
 74
     0
 42
0.00000001
 43
0.00000001
 40
0.0
 40
0.0
 40
0.0
 40
0.0
 40
1.0
 40
1.0
 40
1.0
 40
1.0
 10
44.07089144653182
 20
99.38919924764885
 30
0.0
 10
44.01999272960931
 20
99.38919924764885
 30
0.0
 10
43.96605859335855
 20
99.38919924764885
 30
0.0
 10
43.90940611825081
 20
99.38919924764885
 30
0.0
  0
SPLINE
  5
19A
330
1F
100
AcDbEntity
  8
0
  6
Continuous
 62
     7
370
    25
100
AcDbSpline
210
0.0
220
0.0
230
1.0
 70
     8
 71
     3
 72
    10
 73
     6
 74
     0
 42
0.00000001
 43
0.00000001
 40
0.0
 40
0.0
 40
0.0
 40
0.0
 40
0.5
 40
0.5
 40
1.0
 40
1.0
 40
1.0
 40
1.0
 10
43.90940611825081
 20
99.63919924764885
 30
0.0
 10
43.88573072382643
 20
99.56481887027151
 30
0.0
 10
43.87263961394179
 20
99.50051823148574
 30
0.0
 10
43.8725532926535
 20
99.4123025467028
 30
0.0
 10
43.88572222659734
 20
99.38919924764885
 30
0.0
 10
43.90940611825081
 20
99.38919924764885
 30
0.0
  0
SPLINE
  5
19B
330
1F
100
AcDbEntity
  8
0
  6
Continuous
 62
     7
370
    25
100
AcDbSpline
210
0.0
220
0.0
230
1.0
 70
     8
 71
     3
 72
    10
 73
     6
 74
     0
 42
0.00000001
 43
0.00000001
 40
0.0
 40
0.0
 40
0.0
 40
0.0
 40
0.5
 40
0.5
 40
1.0
 40
1.0
 40
1.0
 40
1.0
 10
39.76484892877119
 20
99.63919924764885
 30
0.0
 10
39.78852116868276
 20
99.56482878072329
 30
0.0
 10
39.80161515861801
 20
99.50052318443542
 30
0.0
 10
39.80170202607946
 20
99.41230039662958
 30
0.0
 10
39.7885322363201
 20
99.38919924764885
 30
0.0
 10
39.76484892877119
 20
99.38919924764885
 30
0.0
  0
SPLINE
  5
19C
330
1F
100
AcDbEntity
  8
0
  6
Continuous
 62
     7
370
    25
100
AcDbSpline
210
0.0
220
0.0
230
1.0
 70
    24
 71
     3
 72
    12
 73
     8
 74
     0
 42
0.00000001
 43
0.00000001
 40
0.0
 40
0.0
 40
0.0
 40
0.0
 40
0.2500000000000001
 40
0.2500000000000001
 40
0.5000000000000001
 40
0.5000000000000001
 40
1.0
 40
1.0
 40
1.0
 40
1.0
 10
39.087127523511
 20
99.38919924764885
 30
0.0
 10
39.087127523511
 20
99.38919924764885
 30
0.0
 10
39.10312632849207
 20
99.38919924764885
 30
0.0
 10
39.16489646680646
 20
99.38919924764885
 30
0.0
 10
39.21063859110806
 20
99.38919924764885
 30
0.0
 10
39.38730873845491
 20
99.38919924764885
 30
0.0
 10
39.5575638039352
 20
99.38919924764885
 30
0.0
 10
39.76484892877119
 20
99.38919924764885
 30
0.0
  0
LINE
  5
19D
330
1F
100
AcDbEntity
  8
0
  6
Continuous
 62
     7
370
    25
100
AcDbLine
 10
39.0871275235
 20
99.3891992476
 30
0.0
 11
39.0871275235
 21
103.6391992476
 31
0.0
  0
LINE
  5
19E
330
1F
100
AcDbEntity
  8
0
  6
Continuous
 62
     7
370
    25
100
AcDbLine
 10
57.2648489288
 20
116.3891992476
 30
0.0
 11
61.765068551
 21
116.3891992476
 31
0.0
  0
LINE
  5
19F
330
1F
100
AcDbEntity
  8
0
  6
Continuous
 62
     7
370
    25
100
AcDbLine
 10
39.7648489288
 20
116.3891992476
 30
0.0
 11
43.9094061183
 21
116.3891992476
 31
0.0
  0
LINE
  5
1A0
330
1F
100
AcDbEntity
  8
0
  6
Continuous
 62
     7
370
    25
100
AcDbLine
 10
61.765068551
 20
99.3891992476
 30
0.0
 11
57.2648489288
 21
99.3891992476
 31
0.0
  0
LINE
  5
1A1
330
1F
100
AcDbEntity
  8
0
  6
Continuous
 62
     7
370
    25
100
AcDbLine
 10
43.9094061183
 20
99.3891992476
 30
0.0
 11
39.7648489288
 21
99.3891992476
 31
0.0
  0
LINE
  5
1A2
330
1F
100
AcDbEntity
  8
0
  6
Continuous
 62
     7
370
    25
100
AcDbLine
 10
57.1033636005
 20
116.3891992476
 30
0.0
 11
44.0708914465
 21
116.3891992476
 31
0.0
  0
LINE
  5
1A3
330
1F
100
AcDbEntity
  8
0
  6
Continuous
 62
     7
370
    25
100
AcDbLine
 10
57.1033636005
 20
99.3891992476
 30
0.0
 11
44.0708914465
 21
99.3891992476
 31
0.0
  0
LINE
  5
1A4
330
1F
100
AcDbEntity
  8
0
  6
Continuous
 62
     7
370
    25
100
AcDbLine
 10
70.5871275235
 20
104.6174999836
 30
0.0
 11
72.762564385
 21
104.3891992476
 31
0.0
  0
LINE
  5
1A5
330
1F
100
AcDbEntity
  8
0
  6
Continuous
 62
     7
370
    25
100
AcDbLine
 10
70.5871275235
 20
111.1608985117
 30
0.0
 11
70.5871275235
 21
104.6174999836
 31
0.0
  0
LINE
  5
1A6
330
1F
100
AcDbEntity
  8
0
  6
Continuous
 62
     7
370
    25
100
AcDbLine
 10
72.762564385
 20
111.3891992476
 30
0.0
 11
70.5871275235
 21
111.1608985117
 31
0.0
  0
LINE
  5
1A7
330
1F
100
AcDbEntity
  8
0
  6
Continuous
 62
     7
370
    25
100
AcDbLine
 10
90.5871275235
 20
111.3891992476
 30
0.0
 11
72.762564385
 21
111.3891992476
 31
0.0
  0
LINE
  5
1A8
330
1F
100
AcDbEntity
  8
0
  6
Continuous
 62
     7
370
    25
100
AcDbLine
 10
90.5871275235
 20
104.3891992476
 30
0.0
 11
90.5871275235
 21
111.3891992476
 31
0.0
  0
LINE
  5
1A9
330
1F
100
AcDbEntity
  8
0
  6
Continuous
 62
     7
370
    25
100
AcDbLine
 10
72.762564385
 20
104.3891992476
 30
0.0
 11
90.5871275235
 21
104.3891992476
 31
0.0
  0
LINE
  5
1AA
330
1F
100
AcDbEntity
  8
0
  6
Continuous
 62
     7
370
    25
100
AcDbLine
 10
55.8109296979
 20
106.1681847668
 30
0.0
 11
55.9074940152
 21
106.3275840871
 31
0.0
  0
LINE
  5
1AB
330
1F
100
AcDbEntity
  8
0
  6
Continuous
 62
     7
370
    25
100
AcDbLine
 10
55.9297713958
 20
109.434416915
 30
0.0
 11
55.8109296979
 21
109.6102137285
 31
0.0
  0
LINE
  5
1AC
330
1F
100
AcDbEntity
  8
0
  6
Continuous
 62
     7
370
    25
100
AcDbLine
 10
64.0036971771
 20
105.3083966121
 30
0.0
 11
64.0036971771
 21
110.4700018832
 31
0.0
  0
LINE
  5
1AD
330
1F
100
AcDbEntity
  8
0
  6
Continuous
 62
     7
370
    25
100
AcDbLine
 10
64.0036971771
 20
105.3083966121
 30
0.0
 11
55.8109296979
 21
106.1681847668
 31
0.0
  0
LINE
  5
1AE
330
1F
100
AcDbEntity
  8
0
  6
Continuous
 62
     7
370
    25
100
AcDbLine
 10
55.8109296979
 20
109.6102137285
 30
0.0
 11
64.0036971771
 21
110.4700018832
 31
0.0
  0
LINE
  5
1AF
330
1F
100
AcDbEntity
  8
0
  6
Continuous
 62
     7
370
    25
100
AcDbLine
 10
70.5871275235
 20
104.6174999836
 30
0.0
 11
64.0036971771
 21
105.3083966121
 31
0.0
  0
LINE
  5
1B0
330
1F
100
AcDbEntity
  8
0
  6
Continuous
 62
     7
370
    25
100
AcDbLine
 10
64.0036971771
 20
110.4700018832
 30
0.0
 11
70.5871275235
 21
111.1608985117
 31
0.0
  0
ARC
  5
1B1
330
1F
100
AcDbEntity
  8
0
  6
Continuous
 62
     7
370
    25
100
AcDbCircle
 10
50.5871275235
 20
107.8891992476
 30
0.0
 40
7.450000000000647
100
AcDbArc
 50
53.0863788866
 51
306.9136211134
  0
ARC
  5
1B2
330
1F
100
AcDbEntity
  8
0
  6
Continuous
 62
     7
370
    25
100
AcDbCircle
 10
50.5871275235
 20
107.8891992476
 30
0.0
 40
7.207531252870791
100
AcDbArc
 50
15.3041237151
 51
58.9797515565
  0
ARC
  5
1B3
330
1F
100
AcDbEntity
  8
0
  6
Continuous
 62
     7
370
    25
100
AcDbCircle
 10
50.5871275235
 20
107.8891992476
 30
0.0
 40
7.207531252872437
100
AcDbArc
 50
301.0202484435
 51
344.6958762849
  0
ARC
  5
1B4
330
1F
100
AcDbEntity
  8
0
  6
Continuous
 62
     7
370
    25
100
AcDbCircle
 10
72.762564385
 20
176.3891992476
 30
0.0
 40
65.0
100
AcDbArc
 50
253.4999050078
 51
270.0
  0
ARC
  5
1B5
330
1F
100
AcDbEntity
  8
0
  6
Continuous
 62
     7
370
    25
100
AcDbCircle
 10
72.762564385
 20
39.3891992476
 30
0.0
 40
64.99999999999999
100
AcDbArc
 50
90.0
 51
106.5000949923
  0
SPLINE
  5
1B6
330
1F
100
AcDbEntity
  8
0
  6
Continuous
 62
     7
370
    25
100
AcDbSpline
210
0.0
220
0.0
230
1.0
 70
     8
 71
     3
 72
    15
 73
    11
 74
     0
 42
0.00000001
 43
0.00000001
 40
0.0
 40
0.0
 40
0.0
 40
0.0
 40
0.0081667445812695
 40
0.3321939991490077
 40
0.4756279600585576
 40
0.6866830973284903
 40
0.8457435502264813
 40
0.8967566214763186
 40
0.9909540928118028
 40
1.0
 40
1.0
 40
1.0
 40
1.0
 10
55.68614703710379
 20
109.1391992476488
 30
0.0
 10
55.68663457124667
 20
109.1406367105879
 30
0.0
 10
55.70646571877876
 20
109.1991075685396
 30
0.0
 10
55.73474649878801
 20
109.2835327462591
 30
0.0
 10
55.77257579727684
 20
109.3981118182815
 30
0.0
 10
55.79915969384434
 20
109.4794827054781
 30
0.0
 10
55.81632951759931
 20
109.5325016974798
 30
0.0
 10
55.82414651381577
 20
109.5567036293239
 30
0.0
 10
55.82614220025165
 20
109.5628932499901
 30
0.0
 10
55.82620716420244
 20
109.5630946454026
 30
0.0
 10
55.82621285616911
 20
109.5631122911271
 30
0.0
  0
ARC
  5
1B7
330
1F
100
AcDbEntity
  8
0
  6
Continuous
 62
     7
370
    25
100
AcDbCircle
 10
50.5871275235
 20
107.8891992476
 30
0.0
 40
5.250000000000002
100
AcDbArc
 50
13.774146998
 51
166.225853002
  0
SPLINE
  5
1B8
330
1F
100
AcDbEntity
  8
0
  6
Continuous
 62
     7
370
    25
100
AcDbSpline
210
0.0
220
0.0
230
1.0
 70
     8
 71
     3
 72
    15
 73
    11
 74
     0
 42
0.00000001
 43
0.00000001
 40
0.0
 40
0.0
 40
0.0
 40
0.0
 40
0.0090459071881971
 40
0.1032433785236875
 40
0.1542564497735192
 40
0.3133169026715104
 40
0.5243720399414423
 40
0.6678060008509901
 40
0.9918332554187292
 40
1.0
 40
1.0
 40
1.0
 40
1.0
 10
45.34804219085289
 20
109.5631122911271
 30
0.0
 10
45.34804788281956
 20
109.5630946454026
 30
0.0
 10
45.34811284677034
 20
109.5628932499901
 30
0.0
 10
45.35010853320624
 20
109.5567036293239
 30
0.0
 10
45.35792552942269
 20
109.5325016974798
 30
0.0
 10
45.37509535317767
 20
109.4794827054781
 30
0.0
 10
45.40167924974516
 20
109.3981118182815
 30
0.0
 10
45.43950854823399
 20
109.2835327462591
 30
0.0
 10
45.46778932824323
 20
109.1991075685396
 30
0.0
 10
45.48762047577533
 20
109.1406367105879
 30
0.0
 10
45.48810800991822
 20
109.1391992476488
 30
0.0
  0
ARC
  5
1B9
330
1F
100
AcDbEntity
  8
0
  6
Continuous
 62
     7
370
    25
100
AcDbCircle
 10
50.5871275235
 20
107.8891992476
 30
0.0
 40
5.499999999999997
100
AcDbArc
 50
17.7189318734
 51
162.2810681266
  0
ARC
  5
1BA
330
1F
100
AcDbEntity
  8
0
  6
Continuous
 62
     7
370
    25
100
AcDbCircle
 10
45.1099019485
 20
109.6391992476
 30
0.0
 40
0.2500000000000034
100
AcDbArc
 50
270.0
 51
342.2810681266
  0
SPLINE
  5
1BB
330
1F
100
AcDbEntity
  8
0
  6
Continuous
 62
     7
370
    25
100
AcDbSpline
210
0.0
220
0.0
230
1.0
 70
     8
 71
     3
 72
    15
 73
    11
 74
     0
 42
0.00000001
 43
0.00000001
 40
0.0
 40
0.0
 40
0.0
 40
0.0
 40
0.0080847466189818
 40
0.3310106400647567
 40
0.4750333064304976
 40
0.6874363079215146
 40
0.8468367539418311
 40
0.9000996640391853
 40
0.9910442771984082
 40
1.0
 40
1.0
 40
1.0
 40
1.0
 10
45.48810800991822
 20
109.1391992476488
 30
0.0
 10
45.48682817837408
 20
109.1400151836371
 30
0.0
 10
45.43442853265028
 20
109.1734217338308
 30
0.0
 10
45.35907344119587
 20
109.2222352985656
 30
0.0
 10
45.25715432917806
 20
109.2896057708338
 30
0.0
 10
45.18476338418617
 20
109.3381898111773
 30
0.0
 10
45.13705795592134
 20
109.3706386726358
 30
0.0
 10
45.11552247221403
 20
109.3853497137021
 30
0.0
 10
45.11009345619452
 20
109.3890681646202
 30
0.0
 10
45.10991770403795
 20
109.3891884632857
 30
0.0
 10
45.10990194845934
 20
109.3891992476488
 30
0.0
  0
SPLINE
  5
1BC
330
1F
100
AcDbEntity
  8
0
  6
Continuous
 62
     7
370
    25
100
AcDbSpline
210
0.0
220
0.0
230
1.0
 70
     8
 71
     3
 72
    15
 73
    11
 74
     0
 42
0.00000001
 43
0.00000001
 40
0.0
 40
0.0
 40
0.0
 40
0.0
 40
0.0089557228015919
 40
0.0999003359608152
 40
0.1531632460581695
 40
0.3125636920784853
 40
0.5249666935695046
 40
0.6689893599351767
 40
0.991915253381045
 40
1.0
 40
1.0
 40
1.0
 40
1.0
 10
45.10990194845934
 20
106.3891992476488
 30
0.0
 10
45.10991770403795
 20
106.389210032012
 30
0.0
 10
45.11009345619451
 20
106.3893303306775
 30
0.0
 10
45.11552247221403
 20
106.3930487815956
 30
0.0
 10
45.13705795592134
 20
106.4077598226619
 30
0.0
 10
45.18476338418616
 20
106.4402086841204
 30
0.0
 10
45.25715432917809
 20
106.4887927244639
 30
0.0
 10
45.35907344119576
 20
106.5561631967322
 30
0.0
 10
45.4344285326508
 20
106.6049767614661
 30
0.0
 10
45.48682817837409
 20
106.6383833116606
 30
0.0
 10
45.48810800991822
 20
106.6391992476488
 30
0.0
  0
SPLINE
  5
1BD
330
1F
100
AcDbEntity
  8
0
  6
Continuous
 62
     7
370
    25
100
AcDbSpline
210
0.0
220
0.0
230
1.0
 70
     8
 71
     3
 72
    15
 73
    11
 74
     0
 42
0.00000001
 43
0.00000001
 40
0.0
 40
0.0
 40
0.0
 40
0.0
 40
0.0081667445812973
 40
0.3321939991490809
 40
0.4756279600585568
 40
0.6866830973284903
 40
0.8457435502264812
 40
0.8967566214763185
 40
0.9909540928118028
 40
1.0
 40
1.0
 40
1.0
 40
1.0
 10
45.48810800991822
 20
106.6391992476488
 30
0.0
 10
45.48762047577534
 20
106.6377617847098
 30
0.0
 10
45.46778932824406
 20
106.5792909267578
 30
0.0
 10
45.43950854823383
 20
106.4948657490387
 30
0.0
 10
45.4016792497452
 20
106.3802866770162
 30
0.0
 10
45.37509535317766
 20
106.2989157898196
 30
0.0
 10
45.35792552942269
 20
106.2458967978179
 30
0.0
 10
45.35010853320624
 20
106.2216948659738
 30
0.0
 10
45.34811284677036
 20
106.2155052453076
 30
0.0
 10
45.34804788281956
 20
106.2153038498951
 30
0.0
 10
45.34804219085289
 20
106.2152862041706
 30
0.0
  0
ARC
  5
1BE
330
1F
100
AcDbEntity
  8
0
  6
Continuous
 62
     7
370
    25
100
AcDbCircle
 10
45.1099019485
 20
106.1391992476
 30
0.0
 40
0.2500000000000077
100
AcDbArc
 50
17.7189318734
 51
90.0
  0
ARC
  5
1BF
330
1F
100
AcDbEntity
  8
0
  6
Continuous
 62
     7
370
    25
100
AcDbCircle
 10
56.0643530986
 20
109.6391992476
 30
0.0
 40
0.2500000000000034
100
AcDbArc
 50
197.7189318734
 51
270.0
  0
SPLINE
  5
1C0
330
1F
100
AcDbEntity
  8
0
  6
Continuous
 62
     7
370
    25
100
AcDbSpline
210
0.0
220
0.0
230
1.0
 70
     8
 71
     3
 72
    15
 73
    11
 74
     0
 42
0.00000001
 43
0.00000001
 40
0.0
 40
0.0
 40
0.0
 40
0.0
 40
0.0089557228015919
 40
0.0999003359608148
 40
0.153163246058169
 40
0.3125636920784848
 40
0.5249666935694998
 40
0.6689893599352452
 40
0.9919152533810159
 40
1.0
 40
1.0
 40
1.0
 40
1.0
 10
56.06435309856266
 20
109.3891992476488
 30
0.0
 10
56.06433734298405
 20
109.3891884632857
 30
0.0
 10
56.0641615908275
 20
109.3890681646202
 30
0.0
 10
56.05873257480797
 20
109.3853497137021
 30
0.0
 10
56.03719709110066
 20
109.3706386726358
 30
0.0
 10
55.98949166283583
 20
109.3381898111773
 30
0.0
 10
55.91710071784393
 20
109.2896057708338
 30
0.0
 10
55.81518160582615
 20
109.2222352985656
 30
0.0
 10
55.7398265143717
 20
109.1734217338308
 30
0.0
 10
55.68742686864793
 20
109.1400151836371
 30
0.0
 10
55.68614703710379
 20
109.1391992476488
 30
0.0
  0
SPLINE
  5
1C1
330
1F
100
AcDbEntity
  8
0
  6
Continuous
 62
     7
370
    25
100
AcDbSpline
210
0.0
220
0.0
230
1.0
 70
     8
 71
     3
 72
    15
 73
    11
 74
     0
 42
0.00000001
 43
0.00000001
 40
0.0
 40
0.0
 40
0.0
 40
0.0
 40
0.0090459071881971
 40
0.1032433785236877
 40
0.1542564497735194
 40
0.3133169026715105
 40
0.5243720399414429
 40
0.6678060008509186
 40
0.9918332554187028
 40
1.0
 40
1.0
 40
1.0
 40
1.0
 10
55.82621285616911
 20
106.2152862041706
 30
0.0
 10
55.82620716420244
 20
106.2153038498951
 30
0.0
 10
55.82614220025165
 20
106.2155052453076
 30
0.0
 10
55.82414651381577
 20
106.2216948659738
 30
0.0
 10
55.81632951759931
 20
106.2458967978179
 30
0.0
 10
55.79915969384435
 20
106.2989157898196
 30
0.0
 10
55.77257579727681
 20
106.3802866770162
 30
0.0
 10
55.73474649878818
 20
106.4948657490387
 30
0.0
 10
55.70646571877791
 20
106.5792909267578
 30
0.0
 10
55.68663457124666
 20
106.6377617847098
 30
0.0
 10
55.68614703710379
 20
106.6391992476488
 30
0.0
  0
ARC
  5
1C2
330
1F
100
AcDbEntity
  8
0
  6
Continuous
 62
     7
370
    25
100
AcDbCircle
 10
50.5871275235
 20
107.8891992476
 30
0.0
 40
5.499999999999993
100
AcDbArc
 50
197.7189318734
 51
342.2810681266
  0
ARC
  5
1C3
330
1F
100
AcDbEntity
  8
0
  6
Continuous
 62
     7
370
    25
100
AcDbCircle
 10
50.5871275235
 20
107.8891992476
 30
0.0
 40
5.250000000000002
100
AcDbArc
 50
193.774146998
 51
346.225853002
  0
SPLINE
  5
1C4
330
1F
100
AcDbEntity
  8
0
  6
Continuous
 62
     7
370
    25
100
AcDbSpline
210
0.0
220
0.0
230
1.0
 70
     8
 71
     3
 72
    15
 73
    11
 74
     0
 42
0.00000001
 43
0.00000001
 40
0.0
 40
0.0
 40
0.0
 40
0.0
 40
0.0080847466189582
 40
0.3310106400648248
 40
0.475033306430495
 40
0.6874363079215143
 40
0.8468367539418303
 40
0.9000996640391847
 40
0.991044277198408
 40
1.0
 40
1.0
 40
1.0
 40
1.0
 10
55.68614703710379
 20
106.6391992476488
 30
0.0
 10
55.68742686864791
 20
106.6383833116606
 30
0.0
 10
55.73982651437114
 20
106.604976761466
 30
0.0
 10
55.81518160582626
 20
106.5561631967322
 30
0.0
 10
55.91710071784391
 20
106.4887927244639
 30
0.0
 10
55.98949166283584
 20
106.4402086841204
 30
0.0
 10
56.03719709110065
 20
106.4077598226619
 30
0.0
 10
56.05873257480797
 20
106.3930487815956
 30
0.0
 10
56.0641615908275
 20
106.3893303306775
 30
0.0
 10
56.06433734298405
 20
106.389210032012
 30
0.0
 10
56.06435309856266
 20
106.3891992476488
 30
0.0
  0
ARC
  5
1C5
330
1F
100
AcDbEntity
  8
0
  6
Continuous
 62
     7
370
    25
100
AcDbCircle
 10
56.0643530986
 20
106.1391992476
 30
0.0
 40
0.2500000000000077
100
AcDbArc
 50
90.0
 51
162.2810681266
  0
LINE
  5
1C6
330
1F
100
AcDbEntity
  8
0
  6
Continuous
 62
     7
370
    25
100
AcDbLine
 10
55.5871275235
 20
107.2891992476
 30
0.0
 11
55.5871275235
 21
108.4891992476
 31
0.0
  0
LINE
  5
1C7
330
1F
100
AcDbEntity
  8
0
  6
Continuous
 62
     7
370
    25
100
AcDbLine
 10
45.5871275235
 20
107.2891992476
 30
0.0
 11
55.5871275235
 21
107.2891992476
 31
0.0
  0
LINE
  5
1C8
330
1F
100
AcDbEntity
  8
0
  6
Continuous
 62
     7
370
    25
100
AcDbLine
 10
45.5871275235
 20
108.4891992476
 30
0.0
 11
45.5871275235
 21
107.2891992476
 31
0.0
  0
LINE
  5
1C9
330
1F
100
AcDbEntity
  8
0
  6
Continuous
 62
     7
370
    25
100
AcDbLine
 10
55.5871275235
 20
108.4891992476
 30
0.0
 11
45.5871275235
 21
108.4891992476
 31
0.0
  0
LINE
  5
1CA
330
1F
100
AcDbEntity
  8
0
  6
Continuous
 62
     7
370
    25
100
AcDbLine
 10
56.3371275235
 20
109.1391992476
 30
0.0
 11
55.6861470371
 21
109.1391992476
 31
0.0
  0
LINE
  5
1CB
330
1F
100
AcDbEntity
  8
0
  6
Continuous
 62
     7
370
    25
100
AcDbLine
 10
56.3371275235
 20
106.6391992476
 30
0.0
 11
56.3371275235
 21
109.1391992476
 31
0.0
  0
LINE
  5
1CC
330
1F
100
AcDbEntity
  8
0
  6
Continuous
 62
     7
370
    25
100
AcDbLine
 10
55.6861470371
 20
106.6391992476
 30
0.0
 11
56.3371275235
 21
106.6391992476
 31
0.0
  0
LINE
  5
1CD
330
1F
100
AcDbEntity
  8
0
  6
Continuous
 62
     7
370
    25
100
AcDbLine
 10
44.8371275235
 20
106.6391992476
 30
0.0
 11
45.4881080099
 21
106.6391992476
 31
0.0
  0
LINE
  5
1CE
330
1F
100
AcDbEntity
  8
0
  6
Continuous
 62
     7
370
    25
100
AcDbLine
 10
44.8371275235
 20
109.1391992476
 30
0.0
 11
44.8371275235
 21
106.6391992476
 31
0.0
  0
LINE
  5
1CF
330
1F
100
AcDbEntity
  8
0
  6
Continuous
 62
     7
370
    25
100
AcDbLine
 10
45.4881080099
 20
109.1391992476
 30
0.0
 11
44.8371275235
 21
109.1391992476
 31
0.0
  0
LINE
  5
1D0
330
1F
100
AcDbEntity
  8
0
  6
Continuous
 62
     7
370
    25
100
AcDbLine
 10
44.8371275235
 20
109.3891992476
 30
0.0
 11
44.8371275235
 21
109.1391992476
 31
0.0
  0
LINE
  5
1D1
330
1F
100
AcDbEntity
  8
0
  6
Continuous
 62
     7
370
    25
100
AcDbLine
 10
44.8371275235
 20
109.1391992476
 30
0.0
 11
44.5871275235
 21
109.1391992476
 31
0.0
  0
ARC
  5
1D2
330
1F
100
AcDbEntity
  8
0
  6
Continuous
 62
     7
370
    25
100
AcDbCircle
 10
44.8371275235
 20
109.1391992476
 30
0.0
 40
0.25
100
AcDbArc
 50
90.0
 51
180.0
  0
ARC
  5
1D3
330
1F
100
AcDbEntity
  8
0
  6
Continuous
 62
     7
370
    25
100
AcDbCircle
 10
56.3371275235
 20
109.1391992476
 30
0.0
 40
0.25
100
AcDbArc
 50
0.0
 51
90.0
  0
LINE
  5
1D4
330
1F
100
AcDbEntity
  8
0
  6
Continuous
 62
     7
370
    25
100
AcDbLine
 10
56.5871275235
 20
109.1391992476
 30
0.0
 11
56.3371275235
 21
109.1391992476
 31
0.0
  0
LINE
  5
1D5
330
1F
100
AcDbEntity
  8
0
  6
Continuous
 62
     7
370
    25
100
AcDbLine
 10
56.3371275235
 20
109.1391992476
 30
0.0
 11
56.3371275235
 21
109.3891992476
 31
0.0
  0
LINE
  5
1D6
330
1F
100
AcDbEntity
  8
0
  6
Continuous
 62
     7
370
    25
100
AcDbLine
 10
44.8371275235
 20
109.3891992476
 30
0.0
 11
45.1099019485
 21
109.3891992476
 31
0.0
  0
LINE
  5
1D7
330
1F
100
AcDbEntity
  8
0
  6
Continuous
 62
     7
370
    25
100
AcDbLine
 10
56.0643530986
 20
109.3891992476
 30
0.0
 11
56.3371275235
 21
109.3891992476
 31
0.0
  0
LINE
  5
1D8
330
1F
100
AcDbEntity
  8
0
  6
Continuous
 62
     7
370
    25
100
AcDbLine
 10
56.5871275235
 20
109.1391992476
 30
0.0
 11
56.5871275235
 21
106.6391992476
 31
0.0
  0
LINE
  5
1D9
330
1F
100
AcDbEntity
  8
0
  6
Continuous
 62
     7
370
    25
100
AcDbLine
 10
56.3371275235
 20
106.6391992476
 30
0.0
 11
56.5871275235
 21
106.6391992476
 31
0.0
  0
LINE
  5
1DA
330
1F
100
AcDbEntity
  8
0
  6
Continuous
 62
     7
370
    25
100
AcDbLine
 10
44.5871275235
 20
106.6391992476
 30
0.0
 11
44.8371275235
 21
106.6391992476
 31
0.0
  0
LINE
  5
1DB
330
1F
100
AcDbEntity
  8
0
  6
Continuous
 62
     7
370
    25
100
AcDbLine
 10
44.5871275235
 20
106.6391992476
 30
0.0
 11
44.5871275235
 21
109.1391992476
 31
0.0
  0
LINE
  5
1DC
330
1F
100
AcDbEntity
  8
0
  6
Continuous
 62
     7
370
    25
100
AcDbLine
 10
45.1099019485
 20
106.3891992476
 30
0.0
 11
44.8371275235
 21
106.3891992476
 31
0.0
  0
LINE
  5
1DD
330
1F
100
AcDbEntity
  8
0
  6
Continuous
 62
     7
370
    25
100
AcDbLine
 10
44.8371275235
 20
106.6391992476
 30
0.0
 11
44.8371275235
 21
106.3891992476
 31
0.0
  0
ARC
  5
1DE
330
1F
100
AcDbEntity
  8
0
  6
Continuous
 62
     7
370
    25
100
AcDbCircle
 10
44.8371275235
 20
106.6391992476
 30
0.0
 40
0.25
100
AcDbArc
 50
180.0
 51
270.0
  0
LINE
  5
1DF
330
1F
100
AcDbEntity
  8
0
  6
Continuous
 62
     7
370
    25
100
AcDbLine
 10
56.3371275235
 20
106.3891992476
 30
0.0
 11
56.3371275235
 21
106.6391992476
 31
0.0
  0
LINE
  5
1E0
330
1F
100
AcDbEntity
  8
0
  6
Continuous
 62
     7
370
    25
100
AcDbLine
 10
56.3371275235
 20
106.3891992476
 30
0.0
 11
56.0643530986
 21
106.3891992476
 31
0.0
  0
ARC
  5
1E1
330
1F
100
AcDbEntity
  8
0
  6
Continuous
 62
     7
370
    25
100
AcDbCircle
 10
56.3371275235
 20
106.6391992476
 30
0.0
 40
0.25
100
AcDbArc
 50
270.0
 51
0.0
  0
LINE
  5
1E2
330
1F
100
AcDbEntity
  8
0
  6
Continuous
 62
     7
370
    25
100
AcDbLine
 10
43.1413233359
 20
107.6391992476
 30
0.0
 11
39.7648489288
 21
107.6391992476
 31
0.0
  0
LINE
  5
1E3
330
1F
100
AcDbEntity
  8
0
  6
Continuous
 62
     7
370
    25
100
AcDbLine
 10
39.7648489288
 20
108.1391992476
 30
0.0
 11
43.1413233359
 21
108.1391992476
 31
0.0
  0
INSERT
  5
1EF
330
1F
100
AcDbEntity
  8
0
  6
Continuous
 62
     7
370
    18
100
AcDbBlockReference
  2
SW_CENTERMARKSYMBOL_0
 10
50.5871275235
 20
107.8891992476
 30
0.0
  0
LINE
  5
1F0
330
1F
100
AcDbEntity
  8
0
  6
Continuous
 62
     7
370
    18
100
AcDbLine
 10
35.0871275235
 20
113.9676992476
 30
0.0
 11
26.5871275235
 21
113.9676992476
 31
0.0
  0
LINE
  5
1F1
330
1F
100
AcDbEntity
  8
0
  6
Continuous
 62
     7
370
    18
100
AcDbLine
 10
26.5871275235
 20
101.8106992476
 30
0.0
 11
35.0871275235
 21
101.8106992476
 31
0.0
  0
LINE
  5
1F2
330
1F
100
AcDbEntity
  8
0
  6
Continuous
 62
     7
370
    25
100
AcDbLine
 10
35.0871275235
 20
114.4676992476
 30
0.0
 11
35.0871275235
 21
114.4248188436
 31
0.0
  0
SPLINE
  5
1F3
330
1F
100
AcDbEntity
  8
0
  6
Continuous
 62
     7
370
     0
100
AcDbSpline
210
0.0
220
0.0
230
1.0
 70
     8
 71
     3
 72
    34
 73
    30
 74
     0
 42
0.00000001
 43
0.00000001
 40
0.0
 40
0.0
 40
0.0
 40
0.0
 40
0.037735558594346
 40
0.0754711171767313
 40
0.1132066757591169
 40
0.1509422343415021
 40
0.1886777929238877
 40
0.2264133515062729
 40
0.2641489100886587
 40
0.301884468671044
 40
0.3396200272534296
 40
0.3773555858358149
 40
0.4150911444181998
 40
0.4528267030005853
 40
0.4905622615829711
 40
0.5282978201653565
 40
0.5660333787477418
 40
0.6037689373301272
 40
0.6415044959125129
 40
0.679240054494898
 40
0.7169756130772835
 40
0.7547111716596688
 40
0.7924467302420541
 40
0.8301822888244399
 40
0.8679178474068252
 40
0.9056534059892106
 40
0.9433889645715962
 40
0.9811245231539815
 40
1.0
 40
1.0
 40
1.0
 40
1.0
 10
35.08710861206055
 20
114.4248188436393
 30
0.0
 10
35.087127523511
 20
114.296736643254
 30
0.0
 10
35.087127523511
 20
114.0851223938515
 30
0.0
 10
35.087127523511
 20
113.7927348107949
 30
0.0
 10
35.087127523511
 20
113.4233856133788
 30
0.0
 10
35.087127523511
 20
112.981889833238
 30
0.0
 10
35.087127523511
 20
112.4740030430477
 30
0.0
 10
35.087127523511
 20
111.9063463238305
 30
0.0
 10
35.087127523511
 20
111.2863199490407
 30
0.0
 10
35.087127523511
 20
110.6220069106817
 30
0.0
 10
35.087127523511
 20
109.9220675451444
 30
0.0
 10
35.087127523511
 20
109.1956266324779
 30
0.0
 10
35.087127523511
 20
108.4521544409269
 30
0.0
 10
35.087127523511
 20
107.7013432675025
 30
0.0
 10
35.087127523511
 20
106.952981084068
 30
0.0
 10
35.087127523511
 20
106.2168239361569
 30
0.0
 10
35.087127523511
 20
105.5024687579996
 30
0.0
 10
35.087127523511
 20
104.8192282618087
 30
0.0
 10
35.087127523511
 20
104.1760095323338
 30
0.0
 10
35.087127523511
 20
103.5811979093897
 30
0.0
 10
35.087127523511
 20
103.0425476721289
 30
0.0
 10
35.087127523511
 20
102.5670809501532
 30
0.0
 10
35.087127523511
 20
102.1609961793164
 30
0.0
 10
35.087127523511
 20
101.8295872956328
 30
0.0
 10
35.087127523511
 20
101.5771747207259
 30
0.0
 10
35.087127523511
 20
101.4070490385248
 30
0.0
 10
35.087127523511
 20
101.3214280974708
 30
0.0
 10
35.087127523511
 20
101.3106992476489
 30
0.0
 10
35.087127523511
 20
101.3128646245372
 30
0.0
 10
35.087127523511
 20
101.3106992476489
 30
0.0
  0
LINE
  5
1F4
330
1F
100
AcDbEntity
  8
0
  6
Continuous
 62
     7
370
    25
100
AcDbLine
 10
113.4587290282
 20
33.3912416425
 30
0.0
 11
113.7087290282
 21
33.2469040752
 31
0.0
  0
LINE
  5
1F5
330
1F
100
AcDbEntity
  8
0
  6
Continuous
 62
     7
370
    25
100
AcDbLine
 10
130.2087290282
 20
33.2469040752
 30
0.0
 11
130.4587290282
 21
33.3912416425
 31
0.0
  0
LINE
  5
1F6
330
1F
100
AcDbEntity
  8
0
  6
Continuous
 62
     7
370
    25
100
AcDbLine
 10
113.7087290282
 20
22.2469040752
 30
0.0
 11
114.2087290282
 21
21.7469040752
 31
0.0
  0
LINE
  5
1F7
330
1F
100
AcDbEntity
  8
0
  6
Continuous
 62
     7
370
    25
100
AcDbLine
 10
129.7087290282
 20
21.7469040752
 30
0.0
 11
130.2087290282
 21
22.2469040752
 31
0.0
  0
LINE
  5
1F8
330
1F
100
AcDbEntity
  8
0
  6
Continuous
 62
     7
370
    25
100
AcDbLine
 10
130.2087290282
 20
22.2469040752
 30
0.0
 11
130.2087290282
 21
33.2469040752
 31
0.0
  0
LINE
  5
1F9
330
1F
100
AcDbEntity
  8
0
  6
Continuous
 62
     7
370
    25
100
AcDbLine
 10
113.7087290282
 20
33.2469040752
 30
0.0
 11
113.7087290282
 21
22.2469040752
 31
0.0
  0
LINE
  5
1FA
330
1F
100
AcDbEntity
  8
0
  6
Continuous
 62
     7
370
    25
100
AcDbLine
 10
127.8587290282
 20
51.7801303284
 30
0.0
 11
127.8587290282
 21
55.7469040752
 31
0.0
  0
LINE
  5
1FB
330
1F
100
AcDbEntity
  8
0
  6
Continuous
 62
     7
370
    25
100
AcDbLine
 10
116.0587290282
 20
55.7469040752
 30
0.0
 11
116.0587290282
 21
51.7854327392
 31
0.0
  0
LINE
  5
1FC
330
1F
100
AcDbEntity
  8
0
  6
Continuous
 62
     7
370
    25
100
AcDbLine
 10
129.4087290282
 20
63.7469040752
 30
0.0
 11
127.4587290282
 21
71.7469040752
 31
0.0
  0
LINE
  5
1FD
330
1F
100
AcDbEntity
  8
0
  6
Continuous
 62
     7
370
    25
100
AcDbLine
 10
116.4587290282
 20
71.7469040752
 30
0.0
 11
114.5087290282
 21
63.7469040752
 31
0.0
  0
LINE
  5
1FE
330
1F
100
AcDbEntity
  8
0
  6
Continuous
 62
     7
370
    25
100
AcDbLine
 10
114.5087290282
 20
63.7469040752
 30
0.0
 11
114.9587290282
 21
55.7469040752
 31
0.0
  0
LINE
  5
1FF
330
1F
100
AcDbEntity
  8
0
  6
Continuous
 62
     7
370
    25
100
AcDbLine
 10
128.9587290282
 20
55.7469040752
 30
0.0
 11
129.4087290282
 21
63.7469040752
 31
0.0
  0
ARC
  5
200
330
1F
100
AcDbEntity
  8
0
  6
Continuous
 62
     7
370
    25
100
AcDbCircle
 10
116.7087290282
 20
72.3469040752
 30
0.0
 40
0.25
100
AcDbArc
 50
90.0
 51
180.0
  0
ARC
  5
201
330
1F
100
AcDbEntity
  8
0
  6
Continuous
 62
     7
370
    25
100
AcDbCircle
 10
127.2087290282
 20
72.3469040752
 30
0.0
 40
0.25
100
AcDbArc
 50
0.0
 51
90.0
  0
LINE
  5
202
330
1F
100
AcDbEntity
  8
0
  6
Continuous
 62
     7
370
    25
100
AcDbLine
 10
116.4587290282
 20
72.3469040752
 30
0.0
 11
116.4587290282
 21
71.7469040752
 31
0.0
  0
LINE
  5
203
330
1F
100
AcDbEntity
  8
0
  6
Continuous
 62
     7
370
    25
100
AcDbLine
 10
127.4587290282
 20
71.7469040752
 30
0.0
 11
127.4587290282
 21
72.3469040752
 31
0.0
  0
CIRCLE
  5
204
330
1F
100
AcDbEntity
  8
0
  6
Continuous
 62
     7
370
    25
100
AcDbCircle
 10
121.9587290282
 20
45.2469040752
 30
0.0
 40
8.25
  0
SPLINE
  5
205
330
1F
100
AcDbEntity
  8
0
  6
Continuous
 62
     7
370
    25
100
AcDbSpline
210
0.0
220
0.0
230
1.0
 70
     8
 71
     3
 72
    10
 73
     6
 74
     0
 42
0.00000001
 43
0.00000001
 40
0.0
 40
0.0
 40
0.0
 40
0.0
 40
0.5
 40
0.5
 40
1.0
 40
1.0
 40
1.0
 40
1.0
 10
113.4587290282131
 20
40.62810192171818
 30
0.0
 10
113.4587290282131
 20
40.54221485991572
 30
0.0
 10
113.4815214775429
 20
40.45480765093558
 30
0.0
 10
113.569464181636
 20
40.30217120834185
 30
0.0
 10
113.6343219553098
 20
40.23804816339626
 30
0.0
 10
113.7087290282131
 20
40.19508921982596
 30
0.0
  0
SPLINE
  5
206
330
1F
100
AcDbEntity
  8
0
  6
Continuous
 62
     7
370
    25
100
AcDbSpline
210
0.0
220
0.0
230
1.0
 70
    24
 71
     3
 72
    14
 73
    10
 74
     0
 42
0.00000001
 43
0.00000001
 40
0.0
 40
0.0
 40
0.0
 40
0.0
 40
0.25
 40
0.25
 40
0.5
 40
0.5
 40
0.75
 40
0.75
 40
1.0
 40
1.0
 40
1.0
 40
1.0
 10
113.4587290282131
 20
40.62810192171813
 30
0.0
 10
113.4587290282131
 20
41.38248198236812
 30
0.0
 10
113.4587290282131
 20
42.15192314983361
 30
0.0
 10
113.4587290282131
 20
43.69243451077477
 30
0.0
 10
113.4587290282131
 20
44.46728889078179
 30
0.0
 10
113.4587290282131
 20
46.02764984566736
 30
0.0
 10
113.4587290282131
 20
46.81810603845238
 30
0.0
 10
113.4587290282131
 20
48.36038570126085
 30
0.0
 10
113.4587290282131
 20
49.11777645446203
 30
0.0
 10
113.4587290282131
 20
49.8657062287522
 30
0.0
  0
SPLINE
  5
207
330
1F
100
AcDbEntity
  8
0
  6
Continuous
 62
     7
370
    25
100
AcDbSpline
210
0.0
220
0.0
230
1.0
 70
     8
 71
     3
 72
    10
 73
     6
 74
     0
 42
0.00000001
 43
0.00000001
 40
0.0
 40
0.0
 40
0.0
 40
0.0
 40
0.5
 40
0.5
 40
1.0
 40
1.0
 40
1.0
 40
1.0
 10
113.7087290282131
 20
50.29871893064441
 30
0.0
 10
113.6343486508357
 20
50.25577539974319
 30
0.0
 10
113.57004801205
 20
50.19233295511906
 30
0.0
 10
113.481832327267
 20
50.03985411800009
 30
0.0
 10
113.4587290282131
 20
49.95162411589282
 30
0.0
 10
113.4587290282131
 20
49.8657062287522
 30
0.0
  0
SPLINE
  5
208
330
1F
100
AcDbEntity
  8
0
  6
Continuous
 62
     7
370
    25
100
AcDbSpline
210
0.0
220
0.0
230
1.0
 70
    24
 71
     3
 72
    16
 73
    12
 74
     0
 42
0.00000001
 43
0.00000001
 40
0.0
 40
0.0
 40
0.0
 40
0.0
 40
0.2500000000000001
 40
0.2500000000000001
 40
0.5000000000000001
 40
0.5000000000000001
 40
0.6250000000000001
 40
0.6250000000000001
 40
0.7500000000000002
 40
0.7500000000000002
 40
1.0
 40
1.0
 40
1.0
 40
1.0
 10
121.7087290282131
 20
54.91752108416141
 30
0.0
 10
121.0552122481723
 20
54.54021299528493
 30
0.0
 10
120.3969918390823
 20
54.16018926491072
 30
0.0
 10
119.0674292557165
 20
53.39256594950002
 30
0.0
 10
118.396005273646
 20
53.00491913271123
 30
0.0
 10
117.3770041866392
 20
52.41659858082338
 30
0.0
 10
117.0356634043231
 20
52.21952538826773
 30
0.0
 10
116.3600649013526
 20
51.82946841071363
 30
0.0
 10
116.024405751388
 20
51.63567551012559
 30
0.0
 10
115.0231401148883
 20
51.05759452536217
 30
0.0
 10
114.3632324562851
 20
50.67659666102735
 30
0.0
 10
113.7087290282131
 20
50.29871893064441
 30
0.0
  0
SPLINE
  5
209
330
1F
100
AcDbEntity
  8
0
  6
Continuous
 62
     7
370
    25
100
AcDbSpline
210
0.0
220
0.0
230
1.0
 70
     8
 71
     3
 72
    10
 73
     6
 74
     0
 42
0.00000001
 43
0.00000001
 40
0.0
 40
0.0
 40
0.0
 40
0.0
 40
0.5
 40
0.5
 40
1.0
 40
1.0
 40
1.0
 40
1.0
 10
122.2087290282131
 20
54.91752108416141
 30
0.0
 10
122.1343486508357
 20
54.96046461506265
 30
0.0
 10
122.0472555627202
 20
54.98442937941863
 30
0.0
 10
121.8710971738442
 20
54.98458698489341
 30
0.0
 10
121.7831361011163
 20
54.96048002773173
 30
0.0
 10
121.7087290282131
 20
54.91752108416142
 30
0.0
  0
SPLINE
  5
20A
330
1F
100
AcDbEntity
  8
0
  6
Continuous
 62
     7
370
    25
100
AcDbSpline
210
0.0
220
0.0
230
1.0
 70
    24
 71
     3
 72
    16
 73
    12
 74
     0
 42
0.00000001
 43
0.00000001
 40
0.0
 40
0.0
 40
0.0
 40
0.0
 40
0.2499999999999997
 40
0.2499999999999997
 40
0.4999999999999993
 40
0.4999999999999993
 40
0.6249999999999993
 40
0.6249999999999993
 40
0.7499999999999996
 40
0.7499999999999996
 40
1.0
 40
1.0
 40
1.0
 40
1.0
 10
130.2087290282131
 20
50.29871893064441
 30
0.0
 10
129.5552122481723
 20
50.67602701952091
 30
0.0
 10
128.8969918390823
 20
51.05605074989511
 30
0.0
 10
127.5674292557165
 20
51.8236740653058
 30
0.0
 10
126.8960052736459
 20
52.21132088209461
 30
0.0
 10
125.8770041866392
 20
52.79964143398246
 30
0.0
 10
125.5356634043231
 20
52.9967146265381
 30
0.0
 10
124.8600649013526
 20
53.3867716040922
 30
0.0
 10
124.524405751388
 20
53.58056450468024
 30
0.0
 10
123.5231401148883
 20
54.15864548944367
 30
0.0
 10
122.8632324562851
 20
54.53964335377849
 30
0.0
 10
122.2087290282131
 20
54.91752108416141
 30
0.0
  0
SPLINE
  5
20B
330
1F
100
AcDbEntity
  8
0
  6
Continuous
 62
     7
370
    25
100
AcDbSpline
210
0.0
220
0.0
230
1.0
 70
     8
 71
     3
 72
    10
 73
     6
 74
     0
 42
0.00000001
 43
0.00000001
 40
0.0
 40
0.0
 40
0.0
 40
0.0
 40
0.5
 40
0.5
 40
1.0
 40
1.0
 40
1.0
 40
1.0
 10
130.4587290282131
 20
49.8657062287522
 30
0.0
 10
130.4587290282131
 20
49.95159329055465
 30
0.0
 10
130.4359365788833
 20
50.03900049953476
 30
0.0
 10
130.3479938747902
 20
50.19163694212851
 30
0.0
 10
130.2831361011163
 20
50.2557599870741
 30
0.0
 10
130.2087290282131
 20
50.29871893064441
 30
0.0
  0
SPLINE
  5
20C
330
1F
100
AcDbEntity
  8
0
  6
Continuous
 62
     7
370
    25
100
AcDbSpline
210
0.0
220
0.0
230
1.0
 70
    24
 71
     3
 72
    14
 73
    10
 74
     0
 42
0.00000001
 43
0.00000001
 40
0.0
 40
0.0
 40
0.0
 40
0.0
 40
0.25
 40
0.25
 40
0.5
 40
0.5
 40
0.75
 40
0.75
 40
1.0
 40
1.0
 40
1.0
 40
1.0
 10
130.4587290282131
 20
40.62810192171813
 30
0.0
 10
130.4587290282131
 20
41.38248198236811
 30
0.0
 10
130.4587290282131
 20
42.15192314983361
 30
0.0
 10
130.4587290282131
 20
43.69243451077477
 30
0.0
 10
130.4587290282131
 20
44.46728889078179
 30
0.0
 10
130.4587290282131
 20
46.02764984566735
 30
0.0
 10
130.4587290282131
 20
46.81810603845238
 30
0.0
 10
130.4587290282131
 20
48.36038570126085
 30
0.0
 10
130.4587290282131
 20
49.11777645446203
 30
0.0
 10
130.4587290282131
 20
49.8657062287522
 30
0.0
  0
SPLINE
  5
20D
330
1F
100
AcDbEntity
  8
0
  6
Continuous
 62
     7
370
    25
100
AcDbSpline
210
0.0
220
0.0
230
1.0
 70
     8
 71
     3
 72
    10
 73
     6
 74
     0
 42
0.00000001
 43
0.00000001
 40
0.0
 40
0.0
 40
0.0
 40
0.0
 40
0.5
 40
0.5
 40
1.0
 40
1.0
 40
1.0
 40
1.0
 10
130.2087290282131
 20
40.19508921982596
 30
0.0
 10
130.2831094055902
 20
40.23803275072709
 30
0.0
 10
130.3474100443757
 20
40.30147519535076
 30
0.0
 10
130.435625729159
 20
40.45395403246988
 30
0.0
 10
130.4587290282131
 20
40.54218403457736
 30
0.0
 10
130.4587290282131
 20
40.62810192171816
 30
0.0
  0
SPLINE
  5
20E
330
1F
100
AcDbEntity
  8
0
  6
Continuous
 62
     7
370
    25
100
AcDbSpline
210
0.0
220
0.0
230
1.0
 70
    24
 71
     3
 72
    16
 73
    12
 74
     0
 42
0.00000001
 43
0.00000001
 40
0.0
 40
0.0
 40
0.0
 40
0.0
 40
0.2500000000000002
 40
0.2500000000000002
 40
0.5000000000000004
 40
0.5000000000000004
 40
0.6250000000000003
 40
0.6250000000000003
 40
0.7500000000000002
 40
0.7500000000000002
 40
1.0
 40
1.0
 40
1.0
 40
1.0
 10
122.2087290282131
 20
35.57628706630895
 30
0.0
 10
122.8622458082538
 20
35.95359515518542
 30
0.0
 10
123.5204662173438
 20
36.33361888555959
 30
0.0
 10
124.8500288007094
 20
37.10124220097023
 30
0.0
 10
125.5214527827799
 20
37.488889017759
 30
0.0
 10
126.5404538697866
 20
38.07720956964679
 30
0.0
 10
126.8817946521027
 20
38.27428276220243
 30
0.0
 10
127.5573931550731
 20
38.6643397397565
 30
0.0
 10
127.8930523050377
 20
38.85813264034452
 30
0.0
 10
128.8943179415374
 20
39.43621362510791
 30
0.0
 10
129.5542256001405
 20
39.8172114894427
 30
0.0
 10
130.2087290282124
 20
40.1950892198256
 30
0.0
  0
SPLINE
  5
20F
330
1F
100
AcDbEntity
  8
0
  6
Continuous
 62
     7
370
    25
100
AcDbSpline
210
0.0
220
0.0
230
1.0
 70
     8
 71
     3
 72
    10
 73
     6
 74
     0
 42
0.00000001
 43
0.00000001
 40
0.0
 40
0.0
 40
0.0
 40
0.0
 40
0.5
 40
0.5
 40
1.0
 40
1.0
 40
1.0
 40
1.0
 10
121.7087290282131
 20
35.57628706630895
 30
0.0
 10
121.7831094055904
 20
35.53334353540772
 30
0.0
 10
121.870202493706
 20
35.50937877105174
 30
0.0
 10
122.046360882582
 20
35.50922116557695
 30
0.0
 10
122.1343219553098
 20
35.53332812273865
 30
0.0
 10
122.2087290282131
 20
35.57628706630895
 30
0.0
  0
SPLINE
  5
210
330
1F
100
AcDbEntity
  8
0
  6
Continuous
 62
     7
370
    25
100
AcDbSpline
210
0.0
220
0.0
230
1.0
 70
    24
 71
     3
 72
    16
 73
    12
 74
     0
 42
0.00000001
 43
0.00000001
 40
0.0
 40
0.0
 40
0.0
 40
0.0
 40
0.2500000000000001
 40
0.2500000000000001
 40
0.5000000000000002
 40
0.5000000000000002
 40
0.6250000000000001
 40
0.6250000000000001
 40
0.7500000000000001
 40
0.7500000000000001
 40
1.0
 40
1.0
 40
1.0
 40
1.0
 10
113.7087290282131
 20
40.19508921982596
 30
0.0
 10
114.3622458082539
 20
39.81778113094946
 30
0.0
 10
115.0204662173439
 20
39.43775740057526
 30
0.0
 10
116.3500288007097
 20
38.67013408516456
 30
0.0
 10
117.0214527827802
 20
38.28248726837577
 30
0.0
 10
118.0404538697869
 20
37.69416671648792
 30
0.0
 10
118.3817946521031
 20
37.49709352393226
 30
0.0
 10
119.0573931550736
 20
37.10703654637817
 30
0.0
 10
119.3930523050382
 20
36.91324364579013
 30
0.0
 10
120.3943179415379
 20
36.33516266102671
 30
0.0
 10
121.054225600141
 20
35.95416479669188
 30
0.0
 10
121.7087290282131
 20
35.57628706630895
 30
0.0
  0
LINE
  5
211
330
1F
100
AcDbEntity
  8
0
  6
Continuous
 62
     7
370
    25
100
AcDbLine
 10
122.2087290282
 20
35.5762870663
 30
0.0
 11
122.2087290282
 21
34.0689630478
 31
0.0
  0
SPLINE
  5
212
330
1F
100
AcDbEntity
  8
0
  6
Continuous
 62
     7
370
    25
100
AcDbSpline
210
0.0
220
0.0
230
1.0
 70
     8
 71
     3
 72
    10
 73
     6
 74
     0
 42
0.00000001
 43
0.00000001
 40
0.0
 40
0.0
 40
0.0
 40
0.0
 40
0.5
 40
0.5
 40
1.0
 40
1.0
 40
1.0
 40
1.0
 10
121.7087290282131
 20
34.06896304779278
 30
0.0
 10
121.7831037822031
 20
34.09263665228389
 30
0.0
 10
121.870197513769
 20
34.10572942807713
 30
0.0
 10
122.0463633423135
 20
34.10581599617807
 30
0.0
 10
122.1343243662038
 20
34.09264617205479
 30
0.0
 10
122.2087290282131
 20
34.06896304779278
 30
0.0
  0
LINE
  5
213
330
1F
100
AcDbEntity
  8
0
  6
Continuous
 62
     7
370
    25
100
AcDbLine
 10
121.7087290282
 20
34.0689630478
 30
0.0
 11
121.7087290282
 21
35.5762870663
 31
0.0
  0
LINE
  5
214
330
1F
100
AcDbEntity
  8
0
  6
Continuous
 62
     7
370
    25
100
AcDbLine
 10
130.2087290282
 20
33.2469040752
 30
0.0
 11
113.7087290282
 21
33.2469040752
 31
0.0
  0
SPLINE
  5
215
330
1F
100
AcDbEntity
  8
0
  6
Continuous
 62
     7
370
    25
100
AcDbSpline
210
0.0
220
0.0
230
1.0
 70
     8
 71
     3
 72
    10
 73
     6
 74
     0
 42
0.00000001
 43
0.00000001
 40
0.0
 40
0.0
 40
0.0
 40
0.0
 40
0.5
 40
0.5
 40
1.0
 40
1.0
 40
1.0
 40
1.0
 10
113.4587290282131
 20
34.06896304779278
 30
0.0
 10
113.4587290282131
 20
34.09263694834873
 30
0.0
 10
113.4815195998605
 20
34.10572950552787
 30
0.0
 10
113.5694655971593
 20
34.10581591951016
 30
0.0
 10
113.6343263898921
 20
34.09264552791153
 30
0.0
 10
113.7087290282131
 20
34.06896304779278
 30
0.0
  0
SPLINE
  5
216
330
1F
100
AcDbEntity
  8
0
  6
Continuous
 62
     7
370
    25
100
AcDbSpline
210
0.0
220
0.0
230
1.0
 70
     8
 71
     3
 72
    16
 73
    12
 74
     0
 42
0.00000001
 43
0.00000001
 40
0.0
 40
0.0
 40
0.0
 40
0.0
 40
0.2500000000000001
 40
0.2500000000000001
 40
0.5000000000000001
 40
0.5000000000000001
 40
0.6250000000000001
 40
0.6250000000000001
 40
0.7500000000000002
 40
0.7500000000000002
 40
1.0
 40
1.0
 40
1.0
 40
1.0
 10
121.7087290282131
 20
34.06896304779232
 30
0.0
 10
121.0545073747736
 20
33.86072323734367
 30
0.0
 10
120.3960548392624
 20
33.69054995093422
 30
0.0
 10
119.0674102142792
 20
33.45582769131837
 30
0.0
 10
118.3971457699917
 20
33.39192971624391
 30
0.0
 10
117.38121002643
 20
33.39090601415741
 30
0.0
 10
117.0398589083303
 20
33.40639256130211
 30
0.0
 10
116.3634425968658
 20
33.46751628276009
 30
0.0
 10
116.027369827825
 20
33.51303801005511
 30
0.0
 10
115.0248517667639
 20
33.68953737380028
 30
0.0
 10
114.3640938966724
 20
33.86035935015411
 30
0.0
 10
113.7087290282131
 20
34.06896304779263
 30
0.0
  0
SPLINE
  5
217
330
1F
100
AcDbEntity
  8
0
  6
Continuous
 62
     7
370
    25
100
AcDbSpline
210
0.0
220
0.0
230
1.0
 70
     8
 71
     3
 72
    16
 73
    12
 74
     0
 42
0.00000001
 43
0.00000001
 40
0.0
 40
0.0
 40
0.0
 40
0.0
 40
0.2500000000000001
 40
0.2500000000000001
 40
0.5000000000000002
 40
0.5000000000000002
 40
0.6250000000000001
 40
0.6250000000000001
 40
0.75
 40
0.75
 40
1.0
 40
1.0
 40
1.0
 40
1.0
 10
130.2087290282131
 20
34.06896304779232
 30
0.0
 10
129.5545073747736
 20
33.86072323734367
 30
0.0
 10
128.8960548392624
 20
33.69054995093423
 30
0.0
 10
127.5674102142792
 20
33.45582769131838
 30
0.0
 10
126.8971457699917
 20
33.39192971624391
 30
0.0
 10
125.88121002643
 20
33.39090601415741
 30
0.0
 10
125.5398589083303
 20
33.40639256130211
 30
0.0
 10
124.8634425968658
 20
33.46751628276009
 30
0.0
 10
124.527369827825
 20
33.51303801005512
 30
0.0
 10
123.5248517667639
 20
33.68953737380028
 30
0.0
 10
122.8640938966724
 20
33.86035935015411
 30
0.0
 10
122.2087290282131
 20
34.06896304779263
 30
0.0
  0
SPLINE
  5
218
330
1F
100
AcDbEntity
  8
0
  6
Continuous
 62
     7
370
    25
100
AcDbSpline
210
0.0
220
0.0
230
1.0
 70
     8
 71
     3
 72
    10
 73
     6
 74
     0
 42
0.00000001
 43
0.00000001
 40
0.0
 40
0.0
 40
0.0
 40
0.0
 40
0.5
 40
0.5
 40
1.0
 40
1.0
 40
1.0
 40
1.0
 10
130.2087290282131
 20
34.06896304779278
 30
0.0
 10
130.2830994951386
 20
34.09263528770434
 30
0.0
 10
130.3474050914265
 20
34.1057292776396
 30
0.0
 10
130.4356278792324
 20
34.10581614510104
 30
0.0
 10
130.4587290282131
 20
34.09264635534169
 30
0.0
 10
130.4587290282131
 20
34.06896304779278
 30
0.0
  0
SPLINE
  5
219
330
1F
100
AcDbEntity
  8
0
  6
Continuous
 62
     7
370
    25
100
AcDbSpline
210
0.0
220
0.0
230
1.0
 70
    24
 71
     3
 72
    11
 73
     7
 74
     0
 42
0.00000001
 43
0.00000001
 40
0.0
 40
0.0
 40
0.0
 40
0.0
 40
0.0993824904658
 40
0.3936245454690598
 40
0.6967564350875574
 40
1.0
 40
1.0
 40
1.0
 40
1.0
 10
130.4587290282131
 20
33.4060550134284
 30
0.0
 10
130.4587290282131
 20
33.4021970471663
 30
0.0
 10
130.4587290282131
 20
33.38691678794524
 30
0.0
 10
130.4587290282131
 20
33.49248172306488
 30
0.0
 10
130.4587290282131
 20
33.71365611144709
 30
0.0
 10
130.4587290282131
 20
33.95051286182205
 30
0.0
 10
130.4587290282131
 20
34.06896304779278
 30
0.0
  0
SPLINE
  5
21A
330
1F
100
AcDbEntity
  8
0
  6
Continuous
 62
     7
370
    25
100
AcDbSpline
210
0.0
220
0.0
230
1.0
 70
    24
 71
     3
 72
    10
 73
     6
 74
     0
 42
0.00000001
 43
0.00000001
 40
0.0
 40
0.0
 40
0.0
 40
0.0
 40
0.3920143550812971
 40
0.7877549027641365
 40
1.0
 40
1.0
 40
1.0
 40
1.0
 10
113.4587290282131
 20
34.06896304779278
 30
0.0
 10
113.4587290282131
 20
33.92052988811537
 30
0.0
 10
113.4587290282131
 20
33.62225267516891
 30
0.0
 10
113.4587290282131
 20
33.41058228172243
 30
0.0
 10
113.4587290282131
 20
33.40666777793315
 30
0.0
 10
113.4587290282131
 20
33.40530124198887
 30
0.0
  0
LINE
  5
21B
330
1F
100
AcDbEntity
  8
0
  6
Continuous
 62
     7
370
    25
100
AcDbLine
 10
113.7087290282
 20
37.2805075354
 30
0.0
 11
113.7087290282
 21
34.0689630478
 31
0.0
  0
SPLINE
  5
21C
330
1F
100
AcDbEntity
  8
0
  6
Continuous
 62
     7
370
    25
100
AcDbSpline
210
0.0
220
0.0
230
1.0
 70
     8
 71
     3
 72
    10
 73
     6
 74
     0
 42
0.00000001
 43
0.00000001
 40
0.0
 40
0.0
 40
0.0
 40
0.0
 40
0.5
 40
0.5
 40
1.0
 40
1.0
 40
1.0
 40
1.0
 10
113.7087290282136
 20
37.28050753538034
 30
0.0
 10
114.3435567340272
 20
37.48257422093126
 30
0.0
 10
114.982822436603
 20
37.6489669932019
 30
0.0
 10
116.2736373681929
 20
37.88301396707196
 30
0.0
 10
116.9252570036627
 20
37.95010222103078
 30
0.0
 10
117.5842989354828
 20
37.95752789060057
 30
0.0
  0
SPLINE
  5
21D
330
1F
100
AcDbEntity
  8
0
  6
Continuous
 62
     7
370
    25
100
AcDbSpline
210
0.0
220
0.0
230
1.0
 70
     8
 71
     3
 72
    12
 73
     8
 74
     0
 42
0.00000001
 43
0.00000001
 40
0.0
 40
0.0
 40
0.0
 40
0.0
 40
0.2499999999999999
 40
0.2499999999999999
 40
0.4999999999999998
 40
0.4999999999999998
 40
1.0
 40
1.0
 40
1.0
 40
1.0
 10
126.3331591209654
 20
37.95752789060032
 30
0.0
 10
126.6622941113586
 20
37.95381940474389
 30
0.0
 10
126.9917562642953
 20
37.93523690190622
 30
0.0
 10
127.644629882353
 20
37.87036986494007
 30
0.0
 10
127.9690824742301
 20
37.82410431168979
 30
0.0
 10
128.9371429154222
 20
37.64837978138284
 30
0.0
 10
129.5754653996701
 20
37.48207637260608
 30
0.0
 10
130.2087290282131
 20
37.28050753538018
 30
0.0
  0
LINE
  5
21E
330
1F
100
AcDbEntity
  8
0
  6
Continuous
 62
     7
370
    25
100
AcDbLine
 10
130.2087290282
 20
34.0689630478
 30
0.0
 11
130.2087290282
 21
37.2805075354
 31
0.0
  0
LINE
  5
21F
330
1F
100
AcDbEntity
  8
0
  6
Continuous
 62
     7
370
    25
100
AcDbLine
 10
129.7087290282
 20
21.7469040752
 30
0.0
 11
114.2087290282
 21
21.7469040752
 31
0.0
  0
LINE
  5
220
330
1F
100
AcDbEntity
  8
0
  6
Continuous
 62
     7
370
    25
100
AcDbLine
 10
113.7087290282
 20
22.2469040752
 30
0.0
 11
130.2087290282
 21
22.2469040752
 31
0.0
  0
SPLINE
  5
221
330
1F
100
AcDbEntity
  8
0
  6
Continuous
 62
     7
370
    25
100
AcDbSpline
210
0.0
220
0.0
230
1.0
 70
     8
 71
     3
 72
     8
 73
     4
 74
     0
 42
0.00000001
 43
0.00000001
 40
0.0
 40
0.0
 40
0.0
 40
0.0
 40
1.0
 40
1.0
 40
1.0
 40
1.0
 10
113.4587290282131
 20
37.4419928636612
 30
0.0
 10
113.9805351795149
 20
37.71458299933055
 30
0.0
 10
114.5041886483711
 20
37.98373550045195
 30
0.0
 10
115.0305257979376
 20
38.24690407523519
 30
0.0
  0
SPLINE
  5
222
330
1F
100
AcDbEntity
  8
0
  6
Continuous
 62
     7
370
    25
100
AcDbSpline
210
0.0
220
0.0
230
1.0
 70
     8
 71
     3
 72
    10
 73
     6
 74
     0
 42
0.00000001
 43
0.00000001
 40
0.0
 40
0.0
 40
0.0
 40
0.0
 40
0.5
 40
0.5
 40
1.0
 40
1.0
 40
1.0
 40
1.0
 10
113.4587290282131
 20
37.28050753538016
 30
0.0
 10
113.4587290282131
 20
37.25683214095575
 30
0.0
 10
113.4815214775429
 20
37.24374103107112
 30
0.0
 10
113.5694641816362
 20
37.2436547097829
 30
0.0
 10
113.6343219553103
 20
37.25682364372685
 30
0.0
 10
113.7087290282137
 20
37.28050753538039
 30
0.0
  0
SPLINE
  5
223
330
1F
100
AcDbEntity
  8
0
  6
Continuous
 62
     7
370
    25
100
AcDbSpline
210
0.0
220
0.0
230
1.0
 70
    24
 71
     3
 72
     8
 73
     4
 74
     0
 42
0.00000001
 43
0.00000001
 40
0.0
 40
0.0
 40
0.0
 40
0.0
 40
1.0
 40
1.0
 40
1.0
 40
1.0
 10
113.4587290282131
 20
37.4419928636612
 30
0.0
 10
113.4587290282131
 20
37.39109807396038
 30
0.0
 10
113.4587290282131
 20
37.33716422459894
 30
0.0
 10
113.4587290282131
 20
37.28050753538018
 30
0.0
  0
SPLINE
  5
224
330
1F
100
AcDbEntity
  8
0
  6
Continuous
 62
     7
370
    25
100
AcDbSpline
210
0.0
220
0.0
230
1.0
 70
     8
 71
     3
 72
     8
 73
     4
 74
     0
 42
0.00000001
 43
0.00000001
 40
0.0
 40
0.0
 40
0.0
 40
0.0
 40
1.0
 40
1.0
 40
1.0
 40
1.0
 10
128.8869322584886
 20
38.24690407523518
 30
0.0
 10
129.4133531196978
 20
37.98369364463058
 30
0.0
 10
129.9368975764115
 20
37.71459621624388
 30
0.0
 10
130.4587290282131
 20
37.44199286366122
 30
0.0
  0
SPLINE
  5
225
330
1F
100
AcDbEntity
  8
0
  6
Continuous
 62
     7
370
    25
100
AcDbSpline
210
0.0
220
0.0
230
1.0
 70
     8
 71
     3
 72
    10
 73
     6
 74
     0
 42
0.00000001
 43
0.00000001
 40
0.0
 40
0.0
 40
0.0
 40
0.0
 40
0.5
 40
0.5
 40
1.0
 40
1.0
 40
1.0
 40
1.0
 10
130.2087290282131
 20
37.28050753538018
 30
0.0
 10
130.2831094055904
 20
37.25683214095579
 30
0.0
 10
130.3474100443762
 20
37.24374103107116
 30
0.0
 10
130.4356257291591
 20
37.24365470978287
 30
0.0
 10
130.4587290282131
 20
37.25682364372671
 30
0.0
 10
130.4587290282131
 20
37.28050753538017
 30
0.0
  0
SPLINE
  5
226
330
1F
100
AcDbEntity
  8
0
  6
Continuous
 62
     7
370
    25
100
AcDbSpline
210
0.0
220
0.0
230
1.0
 70
    24
 71
     3
 72
     8
 73
     4
 74
     0
 42
0.00000001
 43
0.00000001
 40
0.0
 40
0.0
 40
0.0
 40
0.0
 40
1.0
 40
1.0
 40
1.0
 40
1.0
 10
130.4587290282131
 20
37.4419928636612
 30
0.0
 10
130.4587290282131
 20
37.39109807396038
 30
0.0
 10
130.4587290282131
 20
37.33716422459894
 30
0.0
 10
130.4587290282131
 20
37.28050753538018
 30
0.0
  0
LINE
  5
227
330
1F
100
AcDbEntity
  8
0
  6
Continuous
 62
     7
370
    25
100
AcDbLine
 10
114.4587290282
 20
38.2469040752
 30
0.0
 11
114.4587290282
 21
39.7620765179
 31
0.0
  0
LINE
  5
228
330
1F
100
AcDbEntity
  8
0
  6
Continuous
 62
     7
370
    25
100
AcDbLine
 10
114.4587290282
 20
38.2469040752
 30
0.0
 11
117.0830846812
 21
38.2469040752
 31
0.0
  0
LINE
  5
229
330
1F
100
AcDbEntity
  8
0
  6
Continuous
 62
     7
370
    25
100
AcDbLine
 10
129.4587290282
 20
39.7620765179
 30
0.0
 11
129.4587290282
 21
38.2469040752
 31
0.0
  0
LINE
  5
22A
330
1F
100
AcDbEntity
  8
0
  6
Continuous
 62
     7
370
    25
100
AcDbLine
 10
126.8343733752
 20
38.2469040752
 30
0.0
 11
129.4587290282
 21
38.2469040752
 31
0.0
  0
LINE
  5
22B
330
1F
100
AcDbEntity
  8
0
  6
Continuous
 62
     7
370
    25
100
AcDbLine
 10
113.4587290282
 20
34.0689630478
 30
0.0
 11
113.4587290282
 21
37.2805075354
 31
0.0
  0
LINE
  5
22C
330
1F
100
AcDbEntity
  8
0
  6
Continuous
 62
     7
370
    25
100
AcDbLine
 10
130.4587290282
 20
37.2805075354
 30
0.0
 11
130.4587290282
 21
34.0689630478
 31
0.0
  0
LINE
  5
22D
330
1F
100
AcDbEntity
  8
0
  6
Continuous
 62
     7
370
    25
100
AcDbLine
 10
113.4587290282
 20
37.4419928637
 30
0.0
 11
113.4587290282
 21
40.5797365943
 31
0.0
  0
LINE
  5
22E
330
1F
100
AcDbEntity
  8
0
  6
Continuous
 62
     7
370
    25
100
AcDbLine
 10
130.4587290282
 20
37.4419928637
 30
0.0
 11
130.4587290282
 21
40.5797365943
 31
0.0
  0
LINE
  5
22F
330
1F
100
AcDbEntity
  8
0
  6
Continuous
 62
     7
370
    25
100
AcDbLine
 10
125.4587290282
 20
61.7469040752
 30
0.0
 11
118.4587290282
 21
61.7469040752
 31
0.0
  0
LINE
  5
230
330
1F
100
AcDbEntity
  8
0
  6
Continuous
 62
     7
370
    25
100
AcDbLine
 10
118.4587290282
 20
61.7469040752
 30
0.0
 11
118.4587290282
 21
66.7469040752
 31
0.0
  0
LINE
  5
231
330
1F
100
AcDbEntity
  8
0
  6
Continuous
 62
     7
370
    25
100
AcDbLine
 10
118.4587290282
 20
66.7469040752
 30
0.0
 11
125.4587290282
 21
66.7469040752
 31
0.0
  0
LINE
  5
232
330
1F
100
AcDbEntity
  8
0
  6
Continuous
 62
     7
370
    25
100
AcDbLine
 10
125.4587290282
 20
66.7469040752
 30
0.0
 11
125.4587290282
 21
61.7469040752
 31
0.0
  0
LINE
  5
233
330
1F
100
AcDbEntity
  8
0
  6
Continuous
 62
     7
370
    25
100
AcDbLine
 10
125.4587290282
 20
66.7469040752
 30
0.0
 11
125.4587290282
 21
73.7469040752
 31
0.0
  0
LINE
  5
234
330
1F
100
AcDbEntity
  8
0
  6
Continuous
 62
     7
370
    25
100
AcDbLine
 10
118.4587290282
 20
73.7469040752
 30
0.0
 11
118.4587290282
 21
66.7469040752
 31
0.0
  0
LINE
  5
235
330
1F
100
AcDbEntity
  8
0
  6
Continuous
 62
     7
370
    25
100
AcDbLine
 10
118.4587290282
 20
73.7469040752
 30
0.0
 11
125.4587290282
 21
73.7469040752
 31
0.0
  0
SPLINE
  5
236
330
1F
100
AcDbEntity
  8
0
  6
Continuous
 62
     7
370
    25
100
AcDbSpline
210
0.0
220
0.0
230
1.0
 70
     8
 71
     3
 72
     9
 73
     5
 74
     0
 42
0.00000001
 43
0.00000001
 40
0.0
 40
0.0
 40
0.0
 40
0.0
 40
0.4976931370791441
 40
0.9999999999999999
 40
0.9999999999999999
 40
0.9999999999999999
 40
0.9999999999999999
 10
125.4587290282131
 20
61.49907976821073
 30
0.0
 10
125.4753985414303
 20
61.34963288721028
 30
0.0
 10
125.5088920979519
 20
61.04935371945339
 30
0.0
 10
125.7322307815935
 20
60.46793159206597
 30
0.0
 10
125.8444153351425
 20
60.17587926722521
 30
0.0
  0
LINE
  5
237
330
1F
100
AcDbEntity
  8
0
  6
Continuous
 62
     7
370
    25
100
AcDbLine
 10
125.8444153351
 20
60.1758792672
 30
0.0
 11
118.0730427213
 21
60.1758792672
 31
0.0
  0
SPLINE
  5
238
330
1F
100
AcDbEntity
  8
0
  6
Continuous
 62
     7
370
    25
100
AcDbSpline
210
0.0
220
0.0
230
1.0
 70
     8
 71
     3
 72
     9
 73
     5
 74
     0
 42
0.00000001
 43
0.00000001
 40
0.0
 40
0.0
 40
0.0
 40
0.0
 40
0.4977232396629078
 40
1.0
 40
1.0
 40
1.0
 40
1.0
 10
118.0730427212837
 20
60.17587926722522
 30
0.0
 10
118.1843393973976
 20
60.46547166784936
 30
0.0
 10
118.4079509695422
 20
61.04730586313485
 30
0.0
 10
118.4417517045409
 20
61.34803201227298
 30
0.0
 10
118.458729028213
 20
61.49907976821073
 30
0.0
  0
LINE
  5
239
330
1F
100
AcDbEntity
  8
0
  6
Continuous
 62
     7
370
    25
100
AcDbLine
 10
125.4587290282
 20
61.7469040752
 30
0.0
 11
125.4587290282
 21
61.4990797682
 31
0.0
  0
LINE
  5
23A
330
1F
100
AcDbEntity
  8
0
  6
Continuous
 62
     7
370
    25
100
AcDbLine
 10
118.4587290282
 20
61.4990797682
 30
0.0
 11
118.4587290282
 21
61.7469040752
 31
0.0
  0
SPLINE
  5
23B
330
1F
100
AcDbEntity
  8
0
  6
Continuous
 62
     7
370
    25
100
AcDbSpline
210
0.0
220
0.0
230
1.0
 70
     8
 71
     3
 72
    16
 73
    12
 74
     0
 42
0.00000001
 43
0.00000001
 40
0.0
 40
0.0
 40
0.0
 40
0.0
 40
0.0155634360124117
 40
0.0359329243097674
 40
0.0739120889290614
 40
0.1570057548437684
 40
0.2406581385754913
 40
0.4592958294318597
 40
0.6783839187935417
 40
0.897495434429485
 40
1.0
 40
1.0
 40
1.0
 40
1.0
 10
115.2990068059908
 20
55.74690407523528
 30
0.0
 10
115.3127004730042
 20
55.75209744701445
 30
0.0
 10
115.3443164670508
 20
55.76408792488223
 30
0.0
 10
115.3997961573609
 20
55.88241384887919
 30
0.0
 10
115.4783969678514
 20
56.19366515632814
 30
0.0
 10
115.5577371544804
 20
56.71931265769319
 30
0.0
 10
115.6629648625836
 20
57.75785882196334
 30
0.0
 10
115.7779582638029
 20
59.19293286430947
 30
0.0
 10
115.8803582642178
 20
61.0311849657489
 30
0.0
 10
115.9501071440982
 20
62.55236781456834
 30
0.0
 10
115.989565763527
 20
63.45819985536485
 30
0.0
 10
116.00214190284
 20
63.74690407523281
 30
0.0
  0
LINE
  5
23C
330
1F
100
AcDbEntity
  8
0
  6
Continuous
 62
     7
370
    25
100
AcDbLine
 10
116.0021419028
 20
63.7469040752
 30
0.0
 11
115.7819811876
 21
64.7416476532
 31
0.0
  0
ELLIPSE
  5
23D
330
1F
100
AcDbEntity
  8
0
  6
Continuous
 62
     7
370
    25
100
AcDbEllipse
 10
53.4587290282
 20
62.0947785076
 30
0.0
 11
65.0
 21
0.0
 31
0.0
210
0.0
220
0.0
230
1.0
 40
0.2713992096
 41
6.084179739699223
 42
6.174194364446292
  0
SPLINE
  5
23E
330
1F
100
AcDbEntity
  8
0
  6
Continuous
 62
     7
370
    25
100
AcDbSpline
210
0.0
220
0.0
230
1.0
 70
     8
 71
     3
 72
    13
 73
     9
 74
     0
 42
0.00000001
 43
0.00000001
 40
0.0
 40
0.0
 40
0.0
 40
0.0
 40
0.1610294006389558
 40
0.3266880383557516
 40
0.4877296220820637
 40
0.6535536198224136
 40
0.8237602734841889
 40
1.0
 40
1.0
 40
1.0
 40
1.0
 10
117.1758666981085
 20
58.60725782674234
 30
0.0
 10
117.1320629306761
 20
58.5378609321651
 30
0.0
 10
117.0431961349339
 20
58.39707213665655
 30
0.0
 10
116.9141761162619
 20
58.0509473189489
 30
0.0
 10
116.7931660204946
 20
57.61174067589686
 30
0.0
 10
116.6864850373699
 20
57.07813883895727
 30
0.0
 10
116.5958177500141
 20
56.45431253225757
 30
0.0
 10
116.5589989411173
 20
55.98542863405559
 30
0.0
 10
116.540268952346
 20
55.74690407523519
 30
0.0
  0
LINE
  5
23F
330
1F
100
AcDbEntity
  8
0
  6
Continuous
 62
     7
370
    25
100
AcDbLine
 10
116.5402689523
 20
55.7469040752
 30
0.0
 11
115.299006806
 21
55.7469040752
 31
0.0
  0
LINE
  5
240
330
1F
100
AcDbEntity
  8
0
  6
Continuous
 62
     7
370
    25
100
AcDbLine
 10
115.7819811876
 20
64.7416476532
 30
0.0
 11
118.4587290282
 21
64.7416476532
 31
0.0
  0
SPLINE
  5
241
330
1F
100
AcDbEntity
  8
0
  6
Continuous
 62
     7
370
    25
100
AcDbSpline
210
0.0
220
0.0
230
1.0
 70
     8
 71
     3
 72
    17
 73
    13
 74
     0
 42
0.00000001
 43
0.00000001
 40
0.0
 40
0.0
 40
0.0
 40
0.0
 40
0.3241697628029875
 40
0.542275846362072
 40
0.689509052693928
 40
0.7894036290694506
 40
0.8577090008137825
 40
0.9049823971474137
 40
0.9551712229700868
 40
0.9753097783197816
 40
0.9919572060138848
 40
1.0
 40
1.0
 40
1.0
 40
1.0
 10
127.9153161535861
 20
63.74690407523281
 30
0.0
 10
127.9559665923129
 20
62.83429057262714
 30
0.0
 10
128.0239672314686
 20
61.3076575663658
 30
0.0
 10
128.1354001307849
 20
59.38088466408482
 30
0.0
 10
128.2279047908435
 20
58.09324919315206
 30
0.0
 10
128.3058062471609
 20
57.23409722643031
 30
0.0
 10
128.3718587465832
 20
56.66062933805291
 30
0.0
 10
128.4352153539456
 20
56.23909718402295
 30
0.0
 10
128.4933418216395
 20
55.95860464122751
 30
0.0
 10
128.5526836499623
 20
55.80305597264686
 30
0.0
 10
128.589689718585
 20
55.75244537344936
 30
0.0
 10
128.6113842854555
 20
55.74826562164473
 30
0.0
 10
128.6184512504353
 20
55.74690407523525
 30
0.0
  0
LINE
  5
242
330
1F
100
AcDbEntity
  8
0
  6
Continuous
 62
     7
370
    25
100
AcDbLine
 10
128.6184512504
 20
55.7469040752
 30
0.0
 11
127.3771891041
 21
55.7469040752
 31
0.0
  0
SPLINE
  5
243
330
1F
100
AcDbEntity
  8
0
  6
Continuous
 62
     7
370
    25
100
AcDbSpline
210
0.0
220
0.0
230
1.0
 70
     8
 71
     3
 72
    14
 73
    10
 74
     0
 42
0.00000001
 43
0.00000001
 40
0.0
 40
0.0
 40
0.0
 40
0.0
 40
0.1576095309202821
 40
0.3152382602707094
 40
0.4726926441579496
 40
0.6301650083177253
 40
0.7907313191165902
 40
0.9513050385928076
 40
1.0
 40
1.0
 40
1.0
 40
1.0
 10
127.3771891040801
 20
55.74690407523519
 30
0.0
 10
127.3606837672377
 20
55.96040586371259
 30
0.0
 10
127.3276710830364
 20
56.3874354473381
 30
0.0
 10
127.2478673931244
 20
56.9726825261944
 30
0.0
 10
127.1500799856382
 20
57.49483706701684
 30
0.0
 10
127.0364901459562
 20
57.9438151944367
 30
0.0
 10
126.9119480469245
 20
58.30309692624308
 30
0.0
 10
126.811590706148
 20
58.50766310534427
 30
0.0
 10
126.7548049085329
 20
58.58845765369556
 30
0.0
 10
126.7415913583176
 20
58.60725782674233
 30
0.0
  0
ELLIPSE
  5
244
330
1F
100
AcDbEntity
  8
0
  6
Continuous
 62
     7
370
    25
100
AcDbEllipse
 10
190.4587290282
 20
62.0947785076
 30
0.0
 11
65.0
 21
0.0
 31
0.0
210
0.0
220
0.0
230
1.0
 40
0.2713992096
 41
3.25058359632319
 42
3.340598221070255
  0
LINE
  5
245
330
1F
100
AcDbEntity
  8
0
  6
Continuous
 62
     7
370
    25
100
AcDbLine
 10
125.4587290282
 20
64.7416476532
 30
0.0
 11
128.1354768689
 21
64.7416476532
 31
0.0
  0
LINE
  5
246
330
1F
100
AcDbEntity
  8
0
  6
Continuous
 62
     7
370
    25
100
AcDbLine
 10
128.1354768689
 20
64.7416476532
 30
0.0
 11
127.9153161536
 21
63.7469040752
 31
0.0
  0
LINE
  5
247
330
1F
100
AcDbEntity
  8
0
  6
Continuous
 62
     7
370
    25
100
AcDbLine
 10
117.1758666981
 20
58.6072578267
 30
0.0
 11
126.7415913583
 21
58.6072578267
 31
0.0
  0
SPLINE
  5
248
330
1F
100
AcDbEntity
  8
0
  6
Continuous
 62
     7
370
    25
100
AcDbSpline
210
0.0
220
0.0
230
1.0
 70
     8
 71
     3
 72
    16
 73
    12
 74
     0
 42
0.00000001
 43
0.00000001
 40
0.0
 40
0.0
 40
0.0
 40
0.0
 40
0.1082397394540288
 40
0.2409347985297594
 40
0.3278143823752722
 40
0.4147786007912546
 40
0.5911316736061375
 40
0.6905102391473411
 40
0.7897210831517909
 40
0.9112972329116562
 40
1.0
 40
1.0
 40
1.0
 40
1.0
 10
124.5568052395664
 20
55.74690407523519
 30
0.0
 10
124.438751356339
 20
55.92996126992603
 30
0.0
 10
124.1759708959046
 20
56.33743498101155
 30
0.0
 10
123.5992931348272
 20
56.6816646494855
 30
0.0
 10
123.0137355424331
 20
56.88564719360327
 30
0.0
 10
122.3067135294011
 20
57.01706122396535
 30
0.0
 10
121.5468905947857
 20
57.01404097990981
 30
0.0
 10
120.7929220885351
 20
56.85928124520147
 30
0.0
 10
120.1925458859686
 20
56.61873491385827
 30
0.0
 10
119.6758917748308
 20
56.25829307542861
 30
0.0
 10
119.4541788399188
 20
55.89862447087428
 30
0.0
 10
119.3606528168597
 20
55.74690407523519
 30
0.0
  0
LINE
  5
249
330
1F
100
AcDbEntity
  8
0
  6
Continuous
 62
     7
370
    25
100
AcDbLine
 10
119.3606528169
 20
55.7469040752
 30
0.0
 11
116.5402689523
 21
55.7469040752
 31
0.0
  0
LINE
  5
24A
330
1F
100
AcDbEntity
  8
0
  6
Continuous
 62
     7
370
    25
100
AcDbLine
 10
127.3771891041
 20
55.7469040752
 30
0.0
 11
124.5568052396
 21
55.7469040752
 31
0.0
  0
LINE
  5
24B
330
1F
100
AcDbEntity
  8
0
  6
Continuous
 62
     7
370
    25
100
AcDbLine
 10
124.5568052396
 20
55.7469040752
 30
0.0
 11
119.3606528169
 21
55.7469040752
 31
0.0
  0
LINE
  5
24C
330
1F
100
AcDbEntity
  8
0
  6
Continuous
 62
     7
370
    25
100
AcDbLine
 10
127.9153161536
 20
63.7469040752
 30
0.0
 11
129.4087290282
 21
63.7469040752
 31
0.0
  0
LINE
  5
24D
330
1F
100
AcDbEntity
  8
0
  6
Continuous
 62
     7
370
    25
100
AcDbLine
 10
114.5087290282
 20
63.7469040752
 30
0.0
 11
116.0021419028
 21
63.7469040752
 31
0.0
  0
LINE
  5
24E
330
1F
100
AcDbEntity
  8
0
  6
Continuous
 62
     7
370
    25
100
AcDbLine
 10
118.4587290282
 20
71.7469040752
 30
0.0
 11
116.4587290282
 21
71.7469040752
 31
0.0
  0
LINE
  5
24F
330
1F
100
AcDbEntity
  8
0
  6
Continuous
 62
     7
370
    25
100
AcDbLine
 10
127.4587290282
 20
71.7469040752
 30
0.0
 11
125.4587290282
 21
71.7469040752
 31
0.0
  0
SPLINE
  5
250
330
1F
100
AcDbEntity
  8
0
  6
Continuous
 62
     7
370
    25
100
AcDbSpline
210
0.0
220
0.0
230
1.0
 70
     8
 71
     3
 72
     9
 73
     5
 74
     0
 42
0.00000001
 43
0.00000001
 40
0.0
 40
0.0
 40
0.0
 40
0.0
 40
0.4875141023677128
 40
0.9999999999999999
 40
0.9999999999999999
 40
0.9999999999999999
 40
0.9999999999999999
 10
128.6184512504353
 20
55.74690407523525
 30
0.0
 10
128.6269773619711
 20
55.74863142120695
 30
0.0
 10
128.6444663156124
 20
55.75217459249843
 30
0.0
 10
128.6607880194988
 20
55.77369307844774
 30
0.0
 10
128.6691526625659
 20
55.78472099903517
 30
0.0
  0
SPLINE
  5
251
330
1F
100
AcDbEntity
  8
0
  6
Continuous
 62
     7
370
    25
100
AcDbSpline
210
0.0
220
0.0
230
1.0
 70
     8
 71
     3
 72
     9
 73
     5
 74
     0
 42
0.00000001
 43
0.00000001
 40
0.0
 40
0.0
 40
0.0
 40
0.0
 40
0.5124861829376838
 40
0.9999999999999999
 40
0.9999999999999999
 40
0.9999999999999999
 40
0.9999999999999999
 10
115.2483054247265
 20
55.7847209531754
 30
0.0
 10
115.2566700678501
 20
55.77369304022422
 30
0.0
 10
115.2729917627604
 20
55.75217458115482
 30
0.0
 10
115.2904807050022
 20
55.74863141680967
 30
0.0
 10
115.2990068059908
 20
55.74690407523528
 30
0.0
  0
LINE
  5
252
330
1F
100
AcDbEntity
  8
0
  6
Continuous
 62
     7
370
    25
100
AcDbLine
 10
128.6669329607
 20
55.7469040752
 30
0.0
 11
128.9587290282
 21
55.7469040752
 31
0.0
  0
LINE
  5
253
330
1F
100
AcDbEntity
  8
0
  6
Continuous
 62
     7
370
    25
100
AcDbLine
 10
114.9587290282
 20
55.7469040752
 30
0.0
 11
115.2505250957
 21
55.7469040752
 31
0.0
  0
LINE
  5
254
330
1F
100
AcDbEntity
  8
0
  6
Continuous
 62
     7
370
    25
100
AcDbLine
 10
128.6691526626
 20
55.784720999
 30
0.0
 11
128.6669329607
 21
55.7469040752
 31
0.0
  0
LINE
  5
255
330
1F
100
AcDbEntity
  8
0
  6
Continuous
 62
     7
370
    25
100
AcDbLine
 10
128.6669329607
 20
55.7469040752
 30
0.0
 11
128.6184512504
 21
55.7469040752
 31
0.0
  0
LINE
  5
256
330
1F
100
AcDbEntity
  8
0
  6
Continuous
 62
     7
370
    25
100
AcDbLine
 10
115.2505250957
 20
55.7469040752
 30
0.0
 11
115.2483054247
 21
55.7847209532
 31
0.0
  0
LINE
  5
257
330
1F
100
AcDbEntity
  8
0
  6
Continuous
 62
     7
370
    25
100
AcDbLine
 10
115.299006806
 20
55.7469040752
 30
0.0
 11
115.2505250957
 21
55.7469040752
 31
0.0
  0
LINE
  5
258
330
1F
100
AcDbEntity
  8
0
  6
Continuous
 62
     7
370
    25
100
AcDbLine
 10
116.7087290282
 20
72.5969040752
 30
0.0
 11
118.4587290282
 21
72.5969040752
 31
0.0
  0
LINE
  5
259
330
1F
100
AcDbEntity
  8
0
  6
Continuous
 62
     7
370
    25
100
AcDbLine
 10
125.4587290282
 20
72.5969040752
 30
0.0
 11
127.2087290282
 21
72.5969040752
 31
0.0
  0
SPLINE
  5
25A
330
1F
100
AcDbEntity
  8
0
  6
Continuous
 62
     7
370
    25
100
AcDbSpline
210
0.0
220
0.0
230
1.0
 70
     8
 71
     3
 72
    19
 73
    15
 74
     0
 42
0.00000001
 43
0.00000001
 40
0.0
 40
0.0
 40
0.0
 40
0.0
 40
0.0167783204815172
 40
0.0954947675757542
 40
0.1743158573297208
 40
0.2799346022531591
 40
0.3857489801476747
 40
0.4988315474445749
 40
0.6118955999926633
 40
0.7070747073300855
 40
0.8021796138746725
 40
0.8927562307519727
 40
0.983258202562291
 40
0.9999999999999999
 40
0.9999999999999999
 40
0.9999999999999999
 40
0.9999999999999999
 10
116.0663767348613
 20
51.78631294356094
 30
0.0
 10
116.0638501919713
 20
51.7831770225113
 30
0.0
 10
116.0494702290712
 20
51.76532874907407
 30
0.0
 10
116.1129155574069
 20
51.84439173756951
 30
0.0
 10
116.2680218434992
 20
52.02887708579132
 30
0.0
 10
116.5563192508838
 20
52.34885587199284
 30
0.0
 10
116.9887532077719
 20
52.77330418677435
 30
0.0
 10
117.5431859521786
 20
53.23596875225195
 30
0.0
 10
118.1860815095727
 20
53.67644875079168
 30
0.0
 10
118.8855184339496
 20
54.05450968361732
 30
0.0
 10
119.6075187541389
 20
54.35773321377068
 30
0.0
 10
120.3852381433567
 20
54.57613233188202
 30
0.0
 10
120.9732866161281
 20
54.69753209167668
 30
0.0
 10
121.3028767946416
 20
54.71083191902502
 30
0.0
 10
121.3543290332642
 20
54.71290815167688
 30
0.0
  0
SPLINE
  5
25B
330
1F
100
AcDbEntity
  8
0
  6
Continuous
 62
     7
370
    25
100
AcDbSpline
210
0.0
220
0.0
230
1.0
 70
     8
 71
     3
 72
    19
 73
    15
 74
     0
 42
0.00000001
 43
0.00000001
 40
0.0
 40
0.0
 40
0.0
 40
0.0
 40
0.0313540714848487
 40
0.0973965044873531
 40
0.197409750987071
 40
0.2975352625173757
 40
0.4181225070789071
 40
0.5388061940877782
 40
0.6564369082052449
 40
0.77390122845689
 40
0.8504355774949934
 40
0.9268692173435403
 40
0.9967359128202189
 40
1.0
 40
1.0
 40
1.0
 40
1.0
 10
122.5709262381541
 20
54.70840642750222
 30
0.0
 10
122.6667981597763
 20
54.70318638797024
 30
0.0
 10
122.9646092446621
 20
54.68697115404292
 30
0.0
 10
123.5474946466323
 20
54.5725986891452
 30
0.0
 10
124.2967389850116
 20
54.36332618374511
 30
0.0
 10
125.1172037110355
 20
54.01900429093289
 30
0.0
 10
125.8843503959661
 20
53.58340525129046
 30
0.0
 10
126.5656409955214
 20
53.08800635067786
 30
0.0
 10
127.1163510732225
 20
52.59761033868271
 30
0.0
 10
127.4850886868927
 20
52.21465424358691
 30
0.0
 10
127.713113872025
 20
51.95390252096337
 30
0.0
 10
127.8242203056981
 20
51.8194450476445
 30
0.0
 10
127.8681961399935
 20
51.765547650824
 30
0.0
 10
127.8572700961288
 20
51.77888236314544
 30
0.0
 10
127.8567824278938
 20
51.7794775388287
 30
0.0
  0
LINE
  5
25C
330
1F
100
AcDbEntity
  8
0
  6
Continuous
 62
     7
370
    25
100
AcDbLine
 10
118.4587290282
 20
72.3469040752
 30
0.0
 11
116.4587290282
 21
72.3469040752
 31
0.0
  0
LINE
  5
25D
330
1F
100
AcDbEntity
  8
0
  6
Continuous
 62
     7
370
    25
100
AcDbLine
 10
127.4587290282
 20
72.3469040752
 30
0.0
 11
125.4587290282
 21
72.3469040752
 31
0.0
  0
INSERT
  5
269
330
1F
100
AcDbEntity
  8
0
  6
Continuous
 62
     7
370
    18
100
AcDbBlockReference
  2
SW_CENTERMARKSYMBOL_1
 10
121.9587290282
 20
45.2469040752
 30
0.0
  0
ENDSEC
  0
SECTION
  2
OBJECTS
  0
DICTIONARY
  5
C
330
0
100
AcDbDictionary
281
     1
  3
ACAD_GROUP
350
D
  3
ACAD_LAYOUT
350
1A
  3
ACAD_MLINESTYLE
350
17
  3
ACAD_PLOTSETTINGS
350
19
  3
ACAD_PLOTSTYLENAME
350
E
  3
ACAD_SCALELIST
350
47
  3
DWGPROPS
350
26A
  0
DICTIONARY
  5
D
102
{ACAD_REACTORS
330
C
102
}
330
C
100
AcDbDictionary
281
     1
  0
DICTIONARY
  5
1A
102
{ACAD_REACTORS
330
C
102
}
330
C
100
AcDbDictionary
281
     1
  3
Layout1
350
1E
  3
Layout2
350
26
  3
Model
350
22
  0
DICTIONARY
  5
17
102
{ACAD_REACTORS
330
C
102
}
330
C
100
AcDbDictionary
281
     1
  3
Standard
350
18
  0
DICTIONARY
  5
19
102
{ACAD_REACTORS
330
C
102
}
330
C
100
AcDbDictionary
281
     1
  0
ACDBDICTIONARYWDFLT
  5
E
102
{ACAD_REACTORS
330
C
102
}
330
C
100
AcDbDictionary
281
     1
  3
Normal
350
F
100
AcDbDictionaryWithDefault
340
F
  0
DICTIONARY
  5
47
102
{ACAD_REACTORS
330
C
102
}
330
C
100
AcDbDictionary
281
     1
  3
A0
350
48
  3
A1
350
49
  3
A2
350
4A
  3
A3
350
4B
  3
A4
350
4C
  3
A5
350
4D
  3
A6
350
4E
  3
A7
350
4F
  3
A8
350
50
  3
A9
350
51
  3
B0
350
52
  3
B1
350
53
  3
B2
350
54
  3
B3
350
55
  3
B4
350
56
  3
B5
350
57
  3
B6
350
58
  0
XRECORD
  5
26A
102
{ACAD_REACTORS
330
C
102
}
330
C
100
AcDbXrecord
280
     1
  1
DWGPROPS COOKIE
  2

  3

  4

  6

  7

  8
user52
  9

300
=
301
=
302
=
303
=
304
=
305
=
306
=
307
=
308
=
309
=
 40
0.0
 41
2460339.116200081
 42
2460339.116200509
  1

 90
        0
  0
LAYOUT
  5
1E
102
{ACAD_REACTORS
330
1A
102
}
330
1A
100
AcDbPlotSettings
  1

  2
none_device
  4

  6

 40
0.0
 41
0.0
 42
0.0
 43
0.0
 44
0.0
 45
0.0
 46
0.0
 47
0.0
 48
0.0
 49
0.0
140
0.0
141
0.0
142
1.0
143
1.0
 70
   688
 72
     1
 73
     0
 74
     5
  7

 75
    16
147
1.0
148
0.0
149
0.0
100
AcDbLayout
  1
Layout1
 70
     1
 71
     1
 10
0.0
 20
0.0
 11
420.0
 21
297.0
 12
0.0
 22
0.0
 32
0.0
 14
1.0000000000E+20
 24
1.0000000000E+20
 34
1.0000000000E+20
 15
-1.0000000000E+20
 25
-1.0000000000E+20
 35
-1.0000000000E+20
146
0.0
 13
0.0
 23
0.0
 33
0.0
 16
1.0
 26
0.0
 36
0.0
 17
0.0
 27
1.0
 37
0.0
 76
     0
330
1B
  0
LAYOUT
  5
26
102
{ACAD_REACTORS
330
1A
102
}
330
1A
100
AcDbPlotSettings
  1

  2
none_device
  4

  6

 40
0.0
 41
0.0
 42
0.0
 43
0.0
 44
0.0
 45
0.0
 46
0.0
 47
0.0
 48
0.0
 49
0.0
140
0.0
141
0.0
142
1.0
143
1.0
 70
   688
 72
     1
 73
     0
 74
     5
  7

 75
    16
147
1.0
148
0.0
149
0.0
100
AcDbLayout
  1
Layout2
 70
     1
 71
     2
 10
0.0
 20
0.0
 11
0.0
 21
0.0
 12
0.0
 22
0.0
 32
0.0
 14
0.0
 24
0.0
 34
0.0
 15
0.0
 25
0.0
 35
0.0
146
0.0
 13
0.0
 23
0.0
 33
0.0
 16
1.0
 26
0.0
 36
0.0
 17
0.0
 27
1.0
 37
0.0
 76
     0
330
23
  0
LAYOUT
  5
22
102
{ACAD_REACTORS
330
1A
102
}
330
1A
100
AcDbPlotSettings
  1

  2
none_device
  4
Letter_(8.50_x_11.00_Inches)
  6

 40
6.35
 41
6.35
 42
6.35000508
 43
6.35000508
 44
215.9
 45
279.4
 46
0.0
 47
0.0
 48
0.0
 49
0.0
140
0.0
141
0.0
142
1.0
143
1.0
 70
  1712
 72
     1
 73
     0
 74
     0
  7

 75
     0
147
1.0
148
0.0
149
0.0
100
AcDbLayout
  1
Model
 70
     1
 71
     0
 10
0.0
 20
0.0
 11
431.8
 21
279.4
 12
0.0
 22
0.0
 32
0.0
 14
0.0
 24
0.0
 34
0.0
 15
431.8
 25
279.4
 35
0.0
146
0.0
 13
0.0
 23
0.0
 33
0.0
 16
1.0
 26
0.0
 36
0.0
 17
0.0
 27
1.0
 37
0.0
 76
     0
330
1F
331
29
  0
MLINESTYLE
  5
18
102
{ACAD_REACTORS
330
17
102
}
330
17
100
AcDbMlineStyle
  2
Standard
 70
     0
  3

 62
   256
 51
90.0
 52
90.0
 71
     2
 49
0.5
 62
   256
  6
BYLAYER
 49
-0.5
 62
   256
  6
BYLAYER
  0
ACDBPLACEHOLDER
  5
F
102
{ACAD_REACTORS
330
E
102
}
330
E
  0
SCALE
  5
48
102
{ACAD_REACTORS
330
47
102
}
330
47
100
AcDbScale
 70
     0
300
1:1
140
1.0
141
1.0
290
     1
  0
SCALE
  5
49
102
{ACAD_REACTORS
330
47
102
}
330
47
100
AcDbScale
 70
     0
300
1:2
140
1.0
141
2.0
290
     0
  0
SCALE
  5
4A
102
{ACAD_REACTORS
330
47
102
}
330
47
100
AcDbScale
 70
     0
300
1:4
140
1.0
141
4.0
290
     0
  0
SCALE
  5
4B
102
{ACAD_REACTORS
330
47
102
}
330
47
100
AcDbScale
 70
     0
300
1:5
140
1.0
141
5.0
290
     0
  0
SCALE
  5
4C
102
{ACAD_REACTORS
330
47
102
}
330
47
100
AcDbScale
 70
     0
300
1:8
140
1.0
141
8.0
290
     0
  0
SCALE
  5
4D
102
{ACAD_REACTORS
330
47
102
}
330
47
100
AcDbScale
 70
     0
300
1:10
140
1.0
141
10.0
290
     0
  0
SCALE
  5
4E
102
{ACAD_REACTORS
330
47
102
}
330
47
100
AcDbScale
 70
     0
300
1:16
140
1.0
141
16.0
290
     0
  0
SCALE
  5
4F
102
{ACAD_REACTORS
330
47
102
}
330
47
100
AcDbScale
 70
     0
300
1:20
140
1.0
141
20.0
290
     0
  0
SCALE
  5
50
102
{ACAD_REACTORS
330
47
102
}
330
47
100
AcDbScale
 70
     0
300
1:30
140
1.0
141
30.0
290
     0
  0
SCALE
  5
51
102
{ACAD_REACTORS
330
47
102
}
330
47
100
AcDbScale
 70
     0
300
1:40
140
1.0
141
40.0
290
     0
  0
SCALE
  5
52
102
{ACAD_REACTORS
330
47
102
}
330
47
100
AcDbScale
 70
     0
300
1:50
140
1.0
141
50.0
290
     0
  0
SCALE
  5
53
102
{ACAD_REACTORS
330
47
102
}
330
47
100
AcDbScale
 70
     0
300
1:100
140
1.0
141
100.0
290
     0
  0
SCALE
  5
54
102
{ACAD_REACTORS
330
47
102
}
330
47
100
AcDbScale
 70
     0
300
2:1
140
2.0
141
1.0
290
     0
  0
SCALE
  5
55
102
{ACAD_REACTORS
330
47
102
}
330
47
100
AcDbScale
 70
     0
300
4:1
140
4.0
141
1.0
290
     0
  0
SCALE
  5
56
102
{ACAD_REACTORS
330
47
102
}
330
47
100
AcDbScale
 70
     0
300
8:1
140
8.0
141
1.0
290
     0
  0
SCALE
  5
57
102
{ACAD_REACTORS
330
47
102
}
330
47
100
AcDbScale
 70
     0
300
10:1
140
10.0
141
1.0
290
     0
  0
SCALE
  5
58
102
{ACAD_REACTORS
330
47
102
}
330
47
100
AcDbScale
 70
     0
300
100:1
140
100.0
141
1.0
290
     0
  0
ENDSEC
  0
EOF
