  0
SECTION
  2
HEADER
  9
$ACADVER
  1
AC1015
  9
$ACADMAINTVER
 70
     6
  9
$DWGCODEPAGE
  3
DOS932
  9
$INSBASE
 10
0.0
 20
0.0
 30
0.0
  9
$EXTMIN
 10
0.0
 20
0.0
 30
0.0
  9
$EXTMAX
 10
431.8
 20
279.4
 30
0.0
  9
$LIMMIN
 10
0.0
 20
0.0
  9
$LIMMAX
 10
431.8
 20
279.4
  9
$ORTHOMODE
 70
     0
  9
$REGENMODE
 70
     1
  9
$FILLMODE
 70
     1
  9
$QTEXTMODE
 70
     0
  9
$MIRRTEXT
 70
     1
  9
$LTSCALE
 40
1.0
  9
$ATTMODE
 70
     1
  9
$TEXTSIZE
 40
3.5
  9
$TRACEWID
 40
1.0
  9
$TEXTSTYLE
  7
Standard
  9
$CLAYER
  8
0
  9
$CELTYPE
  6
ByLayer
  9
$CECOLOR
 62
   256
  9
$CELTSCALE
 40
1.0
  9
$DISPSILH
 70
     0
  9
$DIMSCALE
 40
1.0
  9
$DIMASZ
 40
3.556
  9
$DIMEXO
 40
1.0
  9
$DIMDLI
 40
3.75
  9
$DIMRND
 40
0.0
  9
$DIMDLE
 40
0.0
  9
$DIMEXE
 40
1.0
  9
$DIMTP
 40
0.0
  9
$DIMTM
 40
0.0
  9
$DIMTXT
 40
3.5
  9
$DIMCEN
 40
2.5
  9
$DIMTSZ
 40
0.0
  9
$DIMTOL
 70
     0
  9
$DIMLIM
 70
     0
  9
$DIMTIH
 70
     1
  9
$DIMTOH
 70
     1
  9
$DIMSE1
 70
     0
  9
$DIMSE2
 70
     0
  9
$DIMTAD
 70
     1
  9
$DIMZIN
 70
     0
  9
$DIMBLK
  1

  9
$DIMASO
 70
     1
  9
$DIMSHO
 70
     1
  9
$DIMPOST
  1

  9
$DIMAPOST
  1

  9
$DIMALT
 70
     0
  9
$DIMALTD
 70
     3
  9
$DIMALTF
 40
0.0393700787
  9
$DIMLFAC
 40
1.0
  9
$DIMTOFL
 70
     1
  9
$DIMTVP
 40
0.0
  9
$DIMTIX
 70
     0
  9
$DIMSOXD
 70
     0
  9
$DIMSAH
 70
     0
  9
$DIMBLK1
  1

  9
$DIMBLK2
  1

  9
$DIMSTYLE
  2
ISO-25
  9
$DIMCLRD
 70
     0
  9
$DIMCLRE
 70
     0
  9
$DIMCLRT
 70
     0
  9
$DIMTFAC
 40
1.0
  9
$DIMGAP
 40
1.524
  9
$DIMJUST
 70
     0
  9
$DIMSD1
 70
     0
  9
$DIMSD2
 70
     0
  9
$DIMTOLJ
 70
     0
  9
$DIMTZIN
 70
     0
  9
$DIMALTZ
 70
     0
  9
$DIMALTTZ
 70
     0
  9
$DIMUPT
 70
     0
  9
$DIMDEC
 70
     3
  9
$DIMTDEC
 70
     3
  9
$DIMALTU
 70
     2
  9
$DIMALTTD
 70
     3
  9
$DIMTXSTY
  7
Standard
  9
$DIMAUNIT
 70
     0
  9
$DIMADEC
 70
     2
  9
$DIMALTRND
 40
0.0
  9
$DIMAZIN
 70
     0
  9
$DIMDSEP
 70
    44
  9
$DIMATFIT
 70
     3
  9
$DIMFRAC
 70
     0
  9
$DIMLDRBLK
  1

  9
$DIMLUNIT
 70
     2
  9
$DIMLWD
 70
    -2
  9
$DIMLWE
 70
    -2
  9
$DIMTMOVE
 70
     0
  9
$LUNITS
 70
     2
  9
$LUPREC
 70
     3
  9
$SKETCHINC
 40
1.0
  9
$FILLETRAD
 40
0.0
  9
$AUNITS
 70
     0
  9
$AUPREC
 70
     2
  9
$MENU
  1
.
  9
$ELEVATION
 40
0.0
  9
$PELEVATION
 40
0.0
  9
$THICKNESS
 40
0.0
  9
$LIMCHECK
 70
     0
  9
$CHAMFERA
 40
0.0
  9
$CHAMFERB
 40
0.0
  9
$CHAMFERC
 40
0.0
  9
$CHAMFERD
 40
0.0
  9
$SKPOLY
 70
     0
  9
$TDCREATE
 40
2460339.457496505
  9
$TDUCREATE
 40
2460339.082496505
  9
$TDUPDATE
 40
2460339.457496921
  9
$TDUUPDATE
 40
2460339.082496921
  9
$TDINDWG
 40
0.0000000116
  9
$TDUSRTIMER
 40
0.0000000116
  9
$USRTIMER
 70
     1
  9
$ANGBASE
 50
0.0
  9
$ANGDIR
 70
     0
  9
$PDMODE
 70
     0
  9
$PDSIZE
 40
-1.0
  9
$PLINEWID
 40
0.0
  9
$SPLFRAME
 70
     0
  9
$SPLINETYPE
 70
     6
  9
$SPLINESEGS
 70
     8
  9
$HANDSEED
  5
261
  9
$SURFTAB1
 70
     6
  9
$SURFTAB2
 70
     6
  9
$SURFTYPE
 70
     6
  9
$SURFU
 70
     6
  9
$SURFV
 70
     6
  9
$UCSBASE
  2

  9
$UCSNAME
  2

  9
$UCSORG
 10
0.0
 20
0.0
 30
0.0
  9
$UCSXDIR
 10
1.0
 20
0.0
 30
0.0
  9
$UCSYDIR
 10
0.0
 20
1.0
 30
0.0
  9
$UCSORTHOREF
  2

  9
$UCSORTHOVIEW
 70
     0
  9
$UCSORGTOP
 10
0.0
 20
0.0
 30
0.0
  9
$UCSORGBOTTOM
 10
0.0
 20
0.0
 30
0.0
  9
$UCSORGLEFT
 10
0.0
 20
0.0
 30
0.0
  9
$UCSORGRIGHT
 10
0.0
 20
0.0
 30
0.0
  9
$UCSORGFRONT
 10
0.0
 20
0.0
 30
0.0
  9
$UCSORGBACK
 10
0.0
 20
0.0
 30
0.0
  9
$PUCSBASE
  2

  9
$PUCSNAME
  2

  9
$PUCSORG
 10
0.0
 20
0.0
 30
0.0
  9
$PUCSXDIR
 10
1.0
 20
0.0
 30
0.0
  9
$PUCSYDIR
 10
0.0
 20
1.0
 30
0.0
  9
$PUCSORTHOREF
  2

  9
$PUCSORTHOVIEW
 70
     0
  9
$PUCSORGTOP
 10
0.0
 20
0.0
 30
0.0
  9
$PUCSORGBOTTOM
 10
0.0
 20
0.0
 30
0.0
  9
$PUCSORGLEFT
 10
0.0
 20
0.0
 30
0.0
  9
$PUCSORGRIGHT
 10
0.0
 20
0.0
 30
0.0
  9
$PUCSORGFRONT
 10
0.0
 20
0.0
 30
0.0
  9
$PUCSORGBACK
 10
0.0
 20
0.0
 30
0.0
  9
$USERI1
 70
     0
  9
$USERI2
 70
     0
  9
$USERI3
 70
     0
  9
$USERI4
 70
     0
  9
$USERI5
 70
     0
  9
$USERR1
 40
0.0
  9
$USERR2
 40
0.0
  9
$USERR3
 40
0.0
  9
$USERR4
 40
0.0
  9
$USERR5
 40
0.0
  9
$WORLDVIEW
 70
     1
  9
$SHADEDGE
 70
     3
  9
$SHADEDIF
 70
    70
  9
$TILEMODE
 70
     1
  9
$MAXACTVP
 70
    64
  9
$PINSBASE
 10
0.0
 20
0.0
 30
0.0
  9
$PLIMCHECK
 70
     0
  9
$PEXTMIN
 10
1.0000000000E+20
 20
1.0000000000E+20
 30
1.0000000000E+20
  9
$PEXTMAX
 10
-1.0000000000E+20
 20
-1.0000000000E+20
 30
-1.0000000000E+20
  9
$PLIMMIN
 10
0.0
 20
0.0
  9
$PLIMMAX
 10
420.0
 20
297.0
  9
$UNITMODE
 70
     0
  9
$VISRETAIN
 70
     1
  9
$PLINEGEN
 70
     0
  9
$PSLTSCALE
 70
     1
  9
$TREEDEPTH
 70
  3020
  9
$CMLSTYLE
  2
Standard
  9
$CMLJUST
 70
     0
  9
$CMLSCALE
 40
20.0
  9
$PROXYGRAPHICS
 70
     1
  9
$MEASUREMENT
 70
     1
  9
$CELWEIGHT
370
    -1
  9
$ENDCAPS
280
     0
  9
$JOINSTYLE
280
     0
  9
$LWDISPLAY
290
     1
  9
$INSUNITS
 70
     4
  9
$HYPERLINKBASE
  1

  9
$STYLESHEET
  1

  9
$XEDIT
290
     1
  9
$CEPSNTYPE
380
     0
  9
$PSTYLEMODE
290
     1
  9
$FINGERPRINTGUID
  2
{8c357c2f-e79a-4eea-97e6-432c9693aad4}
  9
$VERSIONGUID
  2
{FAEB1C32-E019-11D5-929B-00C0DF256EC4}
  9
$EXTNAMES
290
     1
  9
$PSVPSCALE
 40
0.0
  9
$OLESTARTUP
290
     0
  0
ENDSEC
  0
SECTION
  2
CLASSES
  0
CLASS
  1
ACDBDICTIONARYWDFLT
  2
AcDbDictionaryWithDefault
  3
ObjectDBX Classes
 90
        0
280
     0
281
     0
  0
CLASS
  1
VISUALSTYLE
  2
AcDbVisualStyle
  3
ObjectDBX Classes
 90
     4095
280
     0
281
     0
  0
CLASS
  1
MATERIAL
  2
AcDbMaterial
  3
ObjectDBX Classes
 90
     1153
280
     0
281
     0
  0
CLASS
  1
SCALE
  2
AcDbScale
  3
ObjectDBX Classes
 90
     1153
280
     0
281
     0
  0
CLASS
  1
TABLESTYLE
  2
AcDbTableStyle
  3
ObjectDBX Classes
 90
     4095
280
     0
281
     0
  0
CLASS
  1
MLEADERSTYLE
  2
AcDbMLeaderStyle
  3
ACDB_MLEADERSTYLE_CLASS
 90
     4095
280
     0
281
     0
  0
CLASS
  1
SUN
  2
AcDbSun
  3
SCENEOE
 90
     1153
280
     0
281
     0
  0
CLASS
  1
ACDBPLACEHOLDER
  2
AcDbPlaceHolder
  3
ObjectDBX Classes
 90
        0
280
     0
281
     0
  0
CLASS
  1
LAYOUT
  2
AcDbLayout
  3
ObjectDBX Classes
 90
        0
280
     0
281
     0
  0
ENDSEC
  0
SECTION
  2
TABLES
  0
TABLE
  2
VPORT
  5
8
330
0
100
AcDbSymbolTable
 70
     1
  0
VPORT
  5
29
330
8
100
AcDbSymbolTableRecord
100
AcDbViewportTableRecord
  2
*Active
 70
     0
 10
0.0
 20
0.0
 11
1.0
 21
1.0
 12
215.9
 22
139.7
 13
0.0
 23
0.0
 14
10.0
 24
10.0
 15
10.0
 25
10.0
 16
0.0
 26
0.0
 36
1.0
 17
0.0
 27
0.0
 37
0.0
 40
279.4
 41
1.5454545455
 42
50.0
 43
0.0
 44
0.0
 50
0.0
 51
0.0
 71
     0
 72
  2000
 73
     1
 74
     3
 75
     0
 76
     0
 77
     0
 78
     0
281
     0
 65
     1
110
0.0
120
0.0
130
0.0
111
1.0
121
0.0
131
0.0
112
0.0
122
1.0
132
0.0
 79
     0
146
0.0
  0
ENDTAB
  0
TABLE
  2
LTYPE
  5
5
330
0
100
AcDbSymbolTable
 70
     6
  0
LTYPE
  5
14
330
5
100
AcDbSymbolTableRecord
100
AcDbLinetypeTableRecord
  2
ByBlock
 70
     0
  3

 72
    65
 73
     0
 40
0.0
  0
LTYPE
  5
15
330
5
100
AcDbSymbolTableRecord
100
AcDbLinetypeTableRecord
  2
ByLayer
 70
     0
  3

 72
    65
 73
     0
 40
0.0
  0
LTYPE
  5
16
330
5
100
AcDbSymbolTableRecord
100
AcDbLinetypeTableRecord
  2
Continuous
 70
     0
  3
Solid line
 72
    65
 73
     0
 40
0.0
  0
LTYPE
  5
5E
330
5
100
AcDbSymbolTableRecord
100
AcDbLinetypeTableRecord
  2
HIDDEN
 70
     0
  3
Hidden __ __ __ __ __ __ __ __ __ __ __ __ __ __
 72
    65
 73
     2
 40
1.905
 49
1.27
 74
     0
 49
-0.635
 74
     0
  0
LTYPE
  5
5F
330
5
100
AcDbSymbolTableRecord
100
AcDbLinetypeTableRecord
  2
PHANTOM
 70
     0
  3
Phantom ______  __  __  ______  __  __  ______
 72
    65
 73
     6
 40
12.7
 49
6.35
 74
     0
 49
-1.27
 74
     0
 49
1.27
 74
     0
 49
-1.27
 74
     0
 49
1.27
 74
     0
 49
-1.27
 74
     0
  0
LTYPE
  5
60
330
5
100
AcDbSymbolTableRecord
100
AcDbLinetypeTableRecord
  2
CENTER
 70
     0
  3
Center ____ _ ____ _ ____ _ ____ _ ____ _ ____
 72
    65
 73
     4
 40
10.16
 49
6.35
 74
     0
 49
-1.27
 74
     0
 49
1.27
 74
     0
 49
-1.27
 74
     0
  0
LTYPE
  5
61
330
5
100
AcDbSymbolTableRecord
100
AcDbLinetypeTableRecord
  2
CENTERX2
 70
     0
  3
Center (2x) ________  __  ________  __  _____
 72
    65
 73
     4
 40
20.32
 49
12.7
 74
     0
 49
-2.54
 74
     0
 49
2.54
 74
     0
 49
-2.54
 74
     0
  0
LTYPE
  5
62
330
5
100
AcDbSymbolTableRecord
100
AcDbLinetypeTableRecord
  2
DOT2
 70
     0
  3
Dot (.5x) ........................................
 72
    65
 73
     2
 40
0.635
 49
0.0
 74
     0
 49
-0.635
 74
     0
  0
ENDTAB
  0
TABLE
  2
LAYER
  5
2
330
0
100
AcDbSymbolTable
 70
     1
  0
LAYER
  5
10
330
2
100
AcDbSymbolTableRecord
100
AcDbLayerTableRecord
  2
0
 70
     0
 62
     7
  6
Continuous
370
    -3
390
F
  0
ENDTAB
  0
TABLE
  2
STYLE
  5
3
330
0
100
AcDbSymbolTable
 70
     2
  0
STYLE
  5
11
330
3
100
AcDbSymbolTableRecord
100
AcDbTextStyleTableRecord
  2
Standard
 70
     0
 40
0.0
 41
1.0
 50
0.0
 71
     0
 42
3.5
  3
txt
  4
bigfont
  0
STYLE
  5
1D7
330
3
100
AcDbSymbolTableRecord
100
AcDbTextStyleTableRecord
  2
SLDTEXTSTYLE0
 70
     0
 40
0.0
 41
0.75
 50
0.0
 71
     0
 42
3.5
  3
TXT
  4
bigfont
  0
ENDTAB
  0
TABLE
  2
VIEW
  5
6
330
0
100
AcDbSymbolTable
 70
     0
  0
ENDTAB
  0
TABLE
  2
UCS
  5
7
330
0
100
AcDbSymbolTable
 70
     0
  0
ENDTAB
  0
TABLE
  2
APPID
  5
9
330
0
100
AcDbSymbolTable
 70
     1
  0
APPID
  5
12
330
9
100
AcDbSymbolTableRecord
100
AcDbRegAppTableRecord
  2
ACAD
 70
     0
  0
ENDTAB
  0
TABLE
  2
DIMSTYLE
  5
A
330
0
100
AcDbSymbolTable
 70
     1
100
AcDbDimStyleTable
  0
DIMSTYLE
105
27
330
A
100
AcDbSymbolTableRecord
100
AcDbDimStyleTableRecord
  2
ISO-25
 70
     0
 41
2.5
 42
0.625
 43
3.75
 44
1.25
 73
     0
 74
     0
 77
     1
 78
     8
140
2.5
141
2.5
143
0.0393700787
147
0.625
171
     3
172
     1
178
     0
271
     2
272
     2
274
     3
278
    44
283
     0
284
     8
340
11
  0
ENDTAB
  0
TABLE
  2
BLOCK_RECORD
  5
1
330
0
100
AcDbSymbolTable
 70
     3
  0
BLOCK_RECORD
  5
1F
330
1
100
AcDbSymbolTableRecord
100
AcDbBlockTableRecord
  2
*Model_Space
340
22
  0
BLOCK_RECORD
  5
1B
330
1
100
AcDbSymbolTableRecord
100
AcDbBlockTableRecord
  2
*Paper_Space
340
1E
  0
BLOCK_RECORD
  5
23
330
1
100
AcDbSymbolTableRecord
100
AcDbBlockTableRecord
  2
*Paper_Space0
340
26
  0
BLOCK_RECORD
  5
1DA
330
1
100
AcDbSymbolTableRecord
100
AcDbBlockTableRecord
  2
SW_CENTERMARKSYMBOL_0
340
0
102
{BLKREFS
331
1E5
102
}
  0
BLOCK_RECORD
  5
254
330
1
100
AcDbSymbolTableRecord
100
AcDbBlockTableRecord
  2
SW_CENTERMARKSYMBOL_1
340
0
102
{BLKREFS
331
25F
102
}
  0
ENDTAB
  0
ENDSEC
  0
SECTION
  2
BLOCKS
  0
BLOCK
  5
20
330
1F
100
AcDbEntity
  8
0
100
AcDbBlockBegin
  2
*Model_Space
 70
     0
 10
0.0
 20
0.0
 30
0.0
  3
*Model_Space
  1

  0
ENDBLK
  5
21
330
1F
100
AcDbEntity
  8
0
100
AcDbBlockEnd
  0
BLOCK
  5
1C
330
1B
100
AcDbEntity
 67
     1
  8
0
100
AcDbBlockBegin
  2
*Paper_Space
 70
     0
 10
0.0
 20
0.0
 30
0.0
  3
*Paper_Space
  1

  0
ENDBLK
  5
1D
330
1B
100
AcDbEntity
 67
     1
  8
0
100
AcDbBlockEnd
  0
BLOCK
  5
24
330
23
100
AcDbEntity
  8
0
100
AcDbBlockBegin
  2
*Paper_Space0
 70
     0
 10
0.0
 20
0.0
 30
0.0
  3
*Paper_Space0
  1

  0
ENDBLK
  5
25
330
23
100
AcDbEntity
  8
0
100
AcDbBlockEnd
  0
BLOCK
  5
1DB
330
1DA
100
AcDbEntity
  8
0
100
AcDbBlockBegin
  2
SW_CENTERMARKSYMBOL_0
 70
     0
 10
0.0
 20
0.0
 30
0.0
  3
SW_CENTERMARKSYMBOL_0
  1

  0
LINE
  5
1DD
330
1DA
100
AcDbEntity
  8
0
  6
Continuous
 62
     0
370
    18
100
AcDbLine
 10
0.0
 20
0.0
 30
0.0
 11
0.0
 21
2.5
 31
0.0
  0
LINE
  5
1DE
330
1DA
100
AcDbEntity
  8
0
  6
Continuous
 62
     0
370
    18
100
AcDbLine
 10
0.0
 20
0.0
 30
0.0
 11
-2.5
 21
0.0
 31
0.0
  0
LINE
  5
1DF
330
1DA
100
AcDbEntity
  8
0
  6
Continuous
 62
     0
370
    18
100
AcDbLine
 10
0.0
 20
0.0
 30
0.0
 11
0.0
 21
-2.5
 31
0.0
  0
LINE
  5
1E0
330
1DA
100
AcDbEntity
  8
0
  6
Continuous
 62
     0
370
    18
100
AcDbLine
 10
0.0
 20
0.0
 30
0.0
 11
2.5
 21
0.0
 31
0.0
  0
LINE
  5
1E1
330
1DA
100
AcDbEntity
  8
0
  6
Continuous
 62
     0
370
    18
100
AcDbLine
 10
0.0
 20
5.0
 30
0.0
 11
0.0
 21
10.9391685035
 31
0.0
  0
LINE
  5
1E2
330
1DA
100
AcDbEntity
  8
0
  6
Continuous
 62
     0
370
    18
100
AcDbLine
 10
-5.0
 20
0.0
 30
0.0
 11
-26.3453794744
 21
0.0
 31
0.0
  0
LINE
  5
1E3
330
1DA
100
AcDbEntity
  8
0
  6
Continuous
 62
     0
370
    18
100
AcDbLine
 10
0.0
 20
-5.0
 30
0.0
 11
0.0
 21
-10.2767650765
 31
0.0
  0
LINE
  5
1E4
330
1DA
100
AcDbEntity
  8
0
  6
Continuous
 62
     0
370
    18
100
AcDbLine
 10
5.0
 20
0.0
 30
0.0
 11
42.5746442812
 21
0.0
 31
0.0
  0
ENDBLK
  5
1DC
330
1DA
100
AcDbEntity
  8
0
100
AcDbBlockEnd
  0
BLOCK
  5
255
330
254
100
AcDbEntity
  8
0
100
AcDbBlockBegin
  2
SW_CENTERMARKSYMBOL_1
 70
     0
 10
0.0
 20
0.0
 30
0.0
  3
SW_CENTERMARKSYMBOL_1
  1

  0
LINE
  5
257
330
254
100
AcDbEntity
  8
0
  6
Continuous
 62
     0
370
    18
100
AcDbLine
 10
0.0
 20
0.0
 30
0.0
 11
0.0
 21
2.5
 31
0.0
  0
LINE
  5
258
330
254
100
AcDbEntity
  8
0
  6
Continuous
 62
     0
370
    18
100
AcDbLine
 10
0.0
 20
0.0
 30
0.0
 11
-2.5
 21
0.0
 31
0.0
  0
LINE
  5
259
330
254
100
AcDbEntity
  8
0
  6
Continuous
 62
     0
370
    18
100
AcDbLine
 10
0.0
 20
0.0
 30
0.0
 11
0.0
 21
-2.5
 31
0.0
  0
LINE
  5
25A
330
254
100
AcDbEntity
  8
0
  6
Continuous
 62
     0
370
    18
100
AcDbLine
 10
0.0
 20
0.0
 30
0.0
 11
2.5
 21
0.0
 31
0.0
  0
LINE
  5
25B
330
254
100
AcDbEntity
  8
0
  6
Continuous
 62
     0
370
    18
100
AcDbLine
 10
0.0
 20
5.0
 30
0.0
 11
0.0
 21
31.1359798311
 31
0.0
  0
LINE
  5
25C
330
254
100
AcDbEntity
  8
0
  6
Continuous
 62
     0
370
    18
100
AcDbLine
 10
-5.0
 20
0.0
 30
0.0
 11
-12.1084879101
 21
0.0
 31
0.0
  0
LINE
  5
25D
330
254
100
AcDbEntity
  8
0
  6
Continuous
 62
     0
370
    18
100
AcDbLine
 10
0.0
 20
-5.0
 30
0.0
 11
0.0
 21
-25.5417916161
 31
0.0
  0
LINE
  5
25E
330
254
100
AcDbEntity
  8
0
  6
Continuous
 62
     0
370
    18
100
AcDbLine
 10
5.0
 20
0.0
 30
0.0
 11
11.7399485444
 21
0.0
 31
0.0
  0
ENDBLK
  5
256
330
254
100
AcDbEntity
  8
0
100
AcDbBlockEnd
  0
ENDSEC
  0
SECTION
  2
ENTITIES
  0
LINE
  5
63
330
1F
100
AcDbEntity
  8
0
  6
Continuous
 62
     7
370
    25
100
AcDbLine
 10
35.9332382445
 20
64.2912476489
 30
0.0
 11
33.9832382445
 21
56.2912476489
 31
0.0
  0
LINE
  5
64
330
1F
100
AcDbEntity
  8
0
  6
Continuous
 62
     7
370
    25
100
AcDbLine
 10
33.9832382445
 20
56.2912476489
 30
0.0
 11
34.4332382445
 21
48.2912476489
 31
0.0
  0
LINE
  5
65
330
1F
100
AcDbEntity
  8
0
  6
Continuous
 62
     7
370
    25
100
AcDbLine
 10
48.4332382445
 20
48.2912476489
 30
0.0
 11
48.5019836621
 21
49.5133884062
 31
0.0
  0
LINE
  5
66
330
1F
100
AcDbEntity
  8
0
  6
Continuous
 62
     7
370
    25
100
AcDbLine
 10
47.186469779
 20
63.2523490457
 30
0.0
 11
46.9332382445
 21
64.2912476489
 31
0.0
  0
LINE
  5
67
330
1F
100
AcDbEntity
  8
0
  6
Continuous
 62
     7
370
    25
100
AcDbLine
 10
27.1332382445
 20
45.7912476489
 30
0.0
 11
26.9332382445
 21
45.5912476489
 31
0.0
  0
LINE
  5
68
330
1F
100
AcDbEntity
  8
0
  6
Continuous
 62
     7
370
    25
100
AcDbLine
 10
26.9332382445
 20
29.9912476489
 30
0.0
 11
27.1332382445
 21
29.7912476489
 31
0.0
  0
LINE
  5
69
330
1F
100
AcDbEntity
  8
0
  6
Continuous
 62
     7
370
    25
100
AcDbLine
 10
29.9332382445
 20
45.7912476489
 30
0.0
 11
27.1332382445
 21
45.7912476489
 31
0.0
  0
LINE
  5
6A
330
1F
100
AcDbEntity
  8
0
  6
Continuous
 62
     7
370
    25
100
AcDbLine
 10
27.1332382445
 20
29.7912476489
 30
0.0
 11
29.9332382445
 21
29.7912476489
 31
0.0
  0
LINE
  5
6B
330
1F
100
AcDbEntity
  8
0
  6
Continuous
 62
     7
370
    25
100
AcDbLine
 10
17.4332382445
 20
42.6552476489
 30
0.0
 11
16.9332382445
 21
42.1552476489
 31
0.0
  0
LINE
  5
6C
330
1F
100
AcDbEntity
  8
0
  6
Continuous
 62
     7
370
    25
100
AcDbLine
 10
16.9332382445
 20
33.4272476489
 30
0.0
 11
17.4332382445
 21
32.9272476489
 31
0.0
  0
LINE
  5
6D
330
1F
100
AcDbEntity
  8
0
  6
Continuous
 62
     7
370
    25
100
AcDbLine
 10
26.9332382445
 20
42.6552476489
 30
0.0
 11
17.4332382445
 21
42.6552476489
 31
0.0
  0
LINE
  5
6E
330
1F
100
AcDbEntity
  8
0
  6
Continuous
 62
     7
370
    25
100
AcDbLine
 10
17.4332382445
 20
32.9272476489
 30
0.0
 11
26.9332382445
 21
32.9272476489
 31
0.0
  0
LINE
  5
6F
330
1F
100
AcDbEntity
  8
0
  6
Continuous
 62
     7
370
    25
100
AcDbLine
 10
31.6956339375
 20
26.150116396
 30
0.0
 11
33.1832382445
 21
25.2912476489
 31
0.0
  0
LINE
  5
70
330
1F
100
AcDbEntity
  8
0
  6
Continuous
 62
     7
370
    25
100
AcDbLine
 10
49.6832382445
 20
25.2912476489
 30
0.0
 11
51.1708425515
 21
26.150116396
 31
0.0
  0
LINE
  5
71
330
1F
100
AcDbEntity
  8
0
  6
Continuous
 62
     7
370
    25
100
AcDbLine
 10
52.5743694974
 20
28.0536433419
 30
0.0
 11
53.4332382445
 21
29.5412476489
 31
0.0
  0
LINE
  5
72
330
1F
100
AcDbEntity
  8
0
  6
Continuous
 62
     7
370
    25
100
AcDbLine
 10
53.4332382445
 20
46.0412476489
 30
0.0
 11
52.5743694974
 21
47.5288519559
 31
0.0
  0
SPLINE
  5
73
330
1F
100
AcDbEntity
  8
0
  6
Continuous
 62
     7
370
    25
100
AcDbSpline
210
0.0
220
0.0
230
1.0
 70
     8
 71
     3
 72
    11
 73
     7
 74
     0
 42
0.00000001
 43
0.00000001
 40
0.0
 40
0.0
 40
0.0
 40
0.0
 40
0.3047324785258019
 40
0.660812481289755
 40
0.9681069959854071
 40
0.9999999999999999
 40
0.9999999999999999
 40
0.9999999999999999
 40
0.9999999999999999
 10
47.60008150411469
 20
46.57800004890494
 30
0.0
 10
47.54655519822663
 20
46.63827040276531
 30
0.0
 10
47.43048338606116
 20
46.76896668520742
 30
0.0
 10
47.34196865130853
 20
47.01079736816709
 30
0.0
 10
47.30637407171214
 20
47.19352198847993
 30
0.0
 10
47.316270476468
 20
47.28200623880607
 30
0.0
 10
47.31720101211332
 20
47.29032620459257
 30
0.0
  0
SPLINE
  5
74
330
1F
100
AcDbEntity
  8
0
  6
Continuous
 62
     7
370
    25
100
AcDbSpline
210
0.0
220
0.0
230
1.0
 70
     8
 71
     3
 72
    11
 73
     7
 74
     0
 42
0.00000001
 43
0.00000001
 40
0.0
 40
0.0
 40
0.0
 40
0.0
 40
0.1939709217654527
 40
0.5381549880915206
 40
0.8928899371643627
 40
1.0
 40
1.0
 40
1.0
 40
1.0
 10
35.54006425147738
 20
47.29290174537473
 30
0.0
 10
35.54154777157841
 20
47.24181376543638
 30
0.0
 10
35.54566366552292
 20
47.10007473061037
 30
0.0
 10
35.47229965919198
 20
46.87449959937796
 30
0.0
 10
35.37237887641182
 20
46.6821004651196
 30
0.0
 10
35.28063666227705
 20
46.60248292111425
 30
0.0
 10
35.25936001303914
 20
46.58401819827144
 30
0.0
  0
LINE
  5
75
330
1F
100
AcDbEntity
  8
0
  6
Continuous
 62
     7
370
    25
100
AcDbLine
 10
47.9332382445
 20
14.5412476489
 30
0.0
 11
47.9332382445
 21
25.2912476489
 31
0.0
  0
LINE
  5
76
330
1F
100
AcDbEntity
  8
0
  6
Continuous
 62
     7
370
    25
100
AcDbLine
 10
34.9332382445
 20
25.2912476489
 30
0.0
 11
34.9332382445
 21
14.5412476489
 31
0.0
  0
LINE
  5
77
330
1F
100
AcDbEntity
  8
0
  6
Continuous
 62
     7
370
    25
100
AcDbLine
 10
34.9332382445
 20
14.5412476489
 30
0.0
 11
35.1832382445
 21
14.2912476489
 31
0.0
  0
LINE
  5
78
330
1F
100
AcDbEntity
  8
0
  6
Continuous
 62
     7
370
    25
100
AcDbLine
 10
47.6832382445
 20
14.2912476489
 30
0.0
 11
47.9332382445
 21
14.5412476489
 31
0.0
  0
LINE
  5
79
330
1F
100
AcDbEntity
  8
0
  6
Continuous
 62
     7
370
    25
100
AcDbLine
 10
47.3332382445
 20
47.2867168288
 30
0.0
 11
47.3332382445
 21
48.2912476489
 31
0.0
  0
LINE
  5
7A
330
1F
100
AcDbEntity
  8
0
  6
Continuous
 62
     7
370
    25
100
AcDbLine
 10
35.5332382445
 20
48.2912476489
 30
0.0
 11
35.5332382445
 21
47.2912476489
 31
0.0
  0
LINE
  5
7B
330
1F
100
AcDbEntity
  8
0
  6
Continuous
 62
     7
370
    25
100
AcDbLine
 10
35.2630713372
 20
46.5859853782
 30
0.0
 11
34.7187070647
 21
47.5288519559
 31
0.0
  0
LINE
  5
7C
330
1F
100
AcDbEntity
  8
0
  6
Continuous
 62
     7
370
    25
100
AcDbLine
 10
30.6477694243
 20
47.5288519559
 30
0.0
 11
29.9332382445
 21
46.2912476489
 31
0.0
  0
LINE
  5
7D
330
1F
100
AcDbEntity
  8
0
  6
Continuous
 62
     7
370
    25
100
AcDbLine
 10
48.1477694243
 20
47.5288519559
 30
0.0
 11
47.6034051519
 21
46.5859853782
 31
0.0
  0
LINE
  5
7E
330
1F
100
AcDbEntity
  8
0
  6
Continuous
 62
     7
370
    25
100
AcDbLine
 10
29.9332382445
 20
29.2912476489
 30
0.0
 11
30.6477694243
 21
28.0536433419
 31
0.0
  0
LINE
  5
7F
330
1F
100
AcDbEntity
  8
0
  6
Continuous
 62
     7
370
    25
100
AcDbLine
 10
51.1708425515
 20
26.1475560147
 30
0.0
 11
51.1708425515
 21
28.0536433419
 31
0.0
  0
LINE
  5
80
330
1F
100
AcDbEntity
  8
0
  6
Continuous
 62
     7
370
    25
100
AcDbLine
 10
51.1708425515
 20
28.0536433419
 30
0.0
 11
52.5769375529
 21
28.0536433419
 31
0.0
  0
LINE
  5
81
330
1F
100
AcDbEntity
  8
0
  6
Continuous
 62
     7
370
    25
100
AcDbLine
 10
34.7212751202
 20
47.5288519559
 30
0.0
 11
30.645209043
 21
47.5288519559
 31
0.0
  0
LINE
  5
82
330
1F
100
AcDbEntity
  8
0
  6
Continuous
 62
     7
370
    25
100
AcDbLine
 10
52.5769375529
 20
47.5288519559
 30
0.0
 11
48.1452013689
 21
47.5288519559
 31
0.0
  0
LINE
  5
83
330
1F
100
AcDbEntity
  8
0
  6
Continuous
 62
     7
370
    25
100
AcDbLine
 10
31.6956339375
 20
28.0536433419
 30
0.0
 11
31.6956339375
 21
26.1475560147
 31
0.0
  0
LINE
  5
84
330
1F
100
AcDbEntity
  8
0
  6
Continuous
 62
     7
370
    25
100
AcDbLine
 10
30.645209043
 20
28.0536433419
 30
0.0
 11
31.6956339375
 21
28.0536433419
 31
0.0
  0
LINE
  5
85
330
1F
100
AcDbEntity
  8
0
  6
Continuous
 62
     7
370
    25
100
AcDbLine
 10
33.9832382445
 20
56.2912476489
 30
0.0
 11
45.9077851286
 21
56.2912476489
 31
0.0
  0
LINE
  5
86
330
1F
100
AcDbEntity
  8
0
  6
Continuous
 62
     7
370
    25
100
AcDbLine
 10
46.6570404189
 20
64.2912476489
 30
0.0
 11
36.1941529119
 21
64.2912476489
 31
0.0
  0
LINE
  5
87
330
1F
100
AcDbEntity
  8
0
  6
Continuous
 62
     7
370
    25
100
AcDbLine
 10
48.3851790828
 20
57.2859912269
 30
0.0
 11
46.6570404189
 21
64.2912476489
 31
0.0
  0
LINE
  5
88
330
1F
100
AcDbEntity
  8
0
  6
Continuous
 62
     7
370
    25
100
AcDbLine
 10
45.9077851286
 20
56.2912476489
 30
0.0
 11
45.1475743728
 21
57.2859912269
 31
0.0
  0
LINE
  5
89
330
1F
100
AcDbEntity
  8
0
  6
Continuous
 62
     7
370
    25
100
AcDbLine
 10
43.4332382445
 20
48.2912476489
 30
0.0
 11
43.433238339
 21
48.3290645268
 31
0.0
  0
LINE
  5
8A
330
1F
100
AcDbEntity
  8
0
  6
Continuous
 62
     7
370
    25
100
AcDbLine
 10
34.4332382445
 20
48.2912476489
 30
0.0
 11
43.4332382445
 21
48.2912476489
 31
0.0
  0
SPLINE
  5
8B
330
1F
100
AcDbEntity
  8
0
  6
Continuous
 62
     7
370
    25
100
AcDbSpline
210
0.0
220
0.0
230
1.0
 70
     8
 71
     3
 72
    16
 73
    12
 74
     0
 42
0.00000001
 43
0.00000001
 40
0.0
 40
0.0
 40
0.0
 40
0.0
 40
0.0155634360124117
 40
0.0359329243097674
 40
0.0739120889290614
 40
0.1570057548437684
 40
0.2406581385754913
 40
0.4592958294318596
 40
0.6783839187935412
 40
0.8974954344294845
 40
1.0
 40
1.0
 40
1.0
 40
1.0
 10
43.5891834949413
 20
48.29124764890294
 30
0.0
 10
43.63157548420993
 20
48.29644102068211
 30
0.0
 10
43.72945028129944
 20
48.30843149854989
 30
0.0
 10
43.90292895231229
 20
48.42675742254685
 30
0.0
 10
44.15126263131496
 20
48.7380087299958
 30
0.0
 10
44.40572717336089
 20
49.26365623136086
 30
0.0
 10
44.74940658505199
 20
50.30220239563101
 30
0.0
 10
45.13062660431869
 20
51.73727643797713
 30
0.0
 10
45.48072826031836
 20
53.57552853941657
 30
0.0
 10
45.72452010940658
 20
55.096711388236
 30
0.0
 10
45.86349230456361
 20
56.00254342903252
 30
0.0
 10
45.90778512859628
 20
56.29124764890048
 30
0.0
  0
SPLINE
  5
8C
330
1F
100
AcDbEntity
  8
0
  6
Continuous
 62
     7
370
    25
100
AcDbSpline
210
0.0
220
0.0
230
1.0
 70
     8
 71
     3
 72
     9
 73
     5
 74
     0
 42
0.00000001
 43
0.00000001
 40
0.0
 40
0.0
 40
0.0
 40
0.0
 40
0.5124861829376838
 40
0.9999999999999999
 40
0.9999999999999999
 40
0.9999999999999999
 40
0.9999999999999999
 10
43.43323833904552
 20
48.32906452684307
 30
0.0
 10
43.45888084321735
 20
48.31803661389189
 30
0.0
 10
43.50891634666223
 20
48.29651815482249
 30
0.0
 10
43.56287695352071
 20
48.29297499047733
 30
0.0
 10
43.5891834949413
 20
48.29124764890295
 30
0.0
  0
LINE
  5
8D
330
1F
100
AcDbEntity
  8
0
  6
Continuous
 62
     7
370
    25
100
AcDbLine
 10
45.1475743728
 20
57.2859912269
 30
0.0
 11
63.6086751061
 21
57.2859912269
 31
0.0
  0
LINE
  5
8E
330
1F
100
AcDbEntity
  8
0
  6
Continuous
 62
     7
370
    25
100
AcDbLine
 10
63.6086751061
 20
57.2859912269
 30
0.0
 11
63.6086751061
 21
54.0434233419
 31
0.0
  0
SPLINE
  5
8F
330
1F
100
AcDbEntity
  8
0
  6
Continuous
 62
     7
370
    25
100
AcDbSpline
210
0.0
220
0.0
230
1.0
 70
     8
 71
     3
 72
     9
 73
     5
 74
     0
 42
0.00000001
 43
0.00000001
 40
0.0
 40
0.0
 40
0.0
 40
0.0
 40
0.4977232396629078
 40
1.0
 40
1.0
 40
1.0
 40
1.0
 10
56.53828148380709
 20
52.72022284089289
 30
0.0
 10
57.69560271574107
 20
53.00981524151705
 30
0.0
 10
60.02083316452985
 20
53.59164943680253
 30
0.0
 10
62.40910278051984
 20
53.89237558594065
 30
0.0
 10
63.6086751060508
 20
54.04342334187839
 30
0.0
  0
LINE
  5
90
330
1F
100
AcDbEntity
  8
0
  6
Continuous
 62
     7
370
    25
100
AcDbLine
 10
56.5382814838
 20
52.7202228409
 30
0.0
 11
50.758524634
 21
51.1516014004
 31
0.0
  0
SPLINE
  5
91
330
1F
100
AcDbEntity
  8
0
  6
Continuous
 62
     7
370
    25
100
AcDbSpline
210
0.0
220
0.0
230
1.0
 70
     8
 71
     3
 72
    13
 73
     9
 74
     0
 42
0.00000001
 43
0.00000001
 40
0.0
 40
0.0
 40
0.0
 40
0.0
 40
0.1610294006389558
 40
0.3266880383557516
 40
0.4877296220820637
 40
0.6535536198224136
 40
0.8237602734841889
 40
1.0
 40
1.0
 40
1.0
 40
1.0
 10
50.7585246339518
 20
51.15160140041001
 30
0.0
 10
50.5446545799207
 20
51.08220450583276
 30
0.0
 10
50.1107661835333
 20
50.94141571032421
 30
0.0
 10
49.51944543486763
 20
50.59529089261657
 30
0.0
 10
48.98551408601694
 20
50.15608424956453
 30
0.0
 10
48.53183011421386
 20
49.62248241262493
 30
0.0
 10
48.15737640122838
 20
48.99865610592524
 30
0.0
 10
48.0088133304696
 20
48.52977220772325
 30
0.0
 10
47.93323824451415
 20
48.29124764890285
 30
0.0
  0
LINE
  5
92
330
1F
100
AcDbEntity
  8
0
  6
Continuous
 62
     7
370
    25
100
AcDbLine
 10
47.9332382445
 20
48.2912476489
 30
0.0
 11
43.5891834949
 21
48.2912476489
 31
0.0
  0
LINE
  5
93
330
1F
100
AcDbEntity
  8
0
  6
Continuous
 62
     7
370
    25
100
AcDbLine
 10
43.4400376024
 20
48.2912476489
 30
0.0
 11
43.433238339
 21
48.3290645268
 31
0.0
  0
LINE
  5
94
330
1F
100
AcDbEntity
  8
0
  6
Continuous
 62
     7
370
    25
100
AcDbLine
 10
43.4332382445
 20
48.2912476489
 30
0.0
 11
43.4400376024
 21
48.2912476489
 31
0.0
  0
LINE
  5
95
330
1F
100
AcDbEntity
  8
0
  6
Continuous
 62
     7
370
    25
100
AcDbLine
 10
43.5891834949
 20
48.2912476489
 30
0.0
 11
43.4400376024
 21
48.2912476489
 31
0.0
  0
LINE
  5
96
330
1F
100
AcDbEntity
  8
0
  6
Continuous
 62
     7
370
    25
100
AcDbLine
 10
63.6086751061
 20
57.2859912269
 30
0.0
 11
63.6086751061
 21
66.2912476489
 31
0.0
  0
LINE
  5
97
330
1F
100
AcDbEntity
  8
0
  6
Continuous
 62
     7
370
    25
100
AcDbLine
 10
63.6086751061
 20
66.2912476489
 30
0.0
 11
81.4332382445
 21
66.2912476489
 31
0.0
  0
LINE
  5
98
330
1F
100
AcDbEntity
  8
0
  6
Continuous
 62
     7
370
    25
100
AcDbLine
 10
81.4332382445
 20
66.2912476489
 30
0.0
 11
81.4332382445
 21
59.2912476489
 31
0.0
  0
ARC
  5
99
330
1F
100
AcDbEntity
  8
0
  6
Continuous
 62
     7
370
    25
100
AcDbCircle
 10
76.4332382445
 20
59.2912476489
 30
0.0
 40
5.000000000000007
100
AcDbArc
 50
270.0
 51
0.0
  0
LINE
  5
9A
330
1F
100
AcDbEntity
  8
0
  6
Continuous
 62
     7
370
    25
100
AcDbLine
 10
76.4332382445
 20
54.2912476489
 30
0.0
 11
68.3249061023
 21
54.2912476489
 31
0.0
  0
ARC
  5
9B
330
1F
100
AcDbEntity
  8
0
  6
Continuous
 62
     7
370
    25
100
AcDbCircle
 10
68.3249061023
 20
9.2911183947
 30
0.0
 40
45.00012925418373
100
AcDbArc
 50
90.0
 51
96.0159222295
  0
ARC
  5
9C
330
1F
100
AcDbEntity
  8
0
  6
Continuous
 62
     7
370
    25
100
AcDbCircle
 10
55.8221918088
 20
68.2912476489
 30
0.0
 40
10.00000000000847
100
AcDbArc
 50
203.5781784783
 51
264.4198332155
  0
ARC
  5
9D
330
1F
100
AcDbEntity
  8
0
  6
Continuous
 62
     7
370
    25
100
AcDbCircle
 10
55.4332382445
 20
64.3102031723
 30
0.0
 40
6.000000000000004
100
AcDbArc
 50
264.4198332155
 51
0.0
  0
LINE
  5
9E
330
1F
100
AcDbEntity
  8
0
  6
Continuous
 62
     7
370
    25
100
AcDbLine
 10
61.4332382445
 20
66.2912476489
 30
0.0
 11
61.4332382445
 21
64.3102031723
 31
0.0
  0
LINE
  5
9F
330
1F
100
AcDbEntity
  8
0
  6
Continuous
 62
     7
370
    25
100
AcDbLine
 10
61.4332382445
 20
66.2912476489
 30
0.0
 11
63.6086751061
 21
66.2912476489
 31
0.0
  0
LINE
  5
A0
330
1F
100
AcDbEntity
  8
0
  6
Continuous
 62
     7
370
    25
100
AcDbLine
 10
48.4332382445
 20
48.2912476489
 30
0.0
 11
47.9332382445
 21
48.2912476489
 31
0.0
  0
LINE
  5
A1
330
1F
100
AcDbEntity
  8
0
  6
Continuous
 62
     7
370
    25
100
AcDbLine
 10
46.6570404189
 20
64.2912476489
 30
0.0
 11
46.6723235772
 21
64.2912476489
 31
0.0
  0
SPLINE
  5
A2
330
1F
100
AcDbEntity
  8
0
  6
Continuous
 62
     7
370
    25
100
AcDbSpline
210
0.0
220
0.0
230
1.0
 70
     8
 71
     3
 72
    15
 73
    11
 74
     0
 42
0.00000001
 43
0.00000001
 40
0.0
 40
0.0
 40
0.0
 40
0.0
 40
0.0090459071881971
 40
0.1032433785236816
 40
0.1542564497735189
 40
0.31331690267151
 40
0.5243720399414428
 40
0.6678060008509183
 40
0.9918332554187028
 40
1.0
 40
1.0
 40
1.0
 40
1.0
 10
46.67232357717226
 20
64.89124764890285
 30
0.0
 10
46.67231788520559
 20
64.89292874748728
 30
0.0
 10
46.6722529212548
 20
64.9121155790428
 30
0.0
 10
46.67025723481891
 20
64.94080985856277
 30
0.0
 10
46.66244023860246
 20
64.9914858985347
 30
0.0
 10
46.6452704148475
 20
65.04936219811161
 30
0.0
 10
46.61868651827995
 20
65.09422771284629
 30
0.0
 10
46.58085721979132
 20
65.13159009610082
 30
0.0
 10
46.55257643978108
 20
65.14113610837029
 30
0.0
 10
46.53274529224981
 20
65.14124497255708
 30
0.0
 10
46.53225775810693
 20
65.14124764890285
 30
0.0
  0
LINE
  5
A3
330
1F
100
AcDbEntity
  8
0
  6
Continuous
 62
     7
370
    25
100
AcDbLine
 10
46.6723235772
 20
64.8912476489
 30
0.0
 11
36.1941529119
 21
64.8912476489
 31
0.0
  0
SPLINE
  5
A4
330
1F
100
AcDbEntity
  8
0
  6
Continuous
 62
     7
370
    25
100
AcDbSpline
210
0.0
220
0.0
230
1.0
 70
     8
 71
     3
 72
    15
 73
    11
 74
     0
 42
0.00000001
 43
0.00000001
 40
0.0
 40
0.0
 40
0.0
 40
0.0
 40
0.0081667445812973
 40
0.3321939991490807
 40
0.4756279600585565
 40
0.6866830973284899
 40
0.8457435502264806
 40
0.8967566214763123
 40
0.9909540928118028
 40
0.9999999999999999
 40
0.9999999999999999
 40
0.9999999999999999
 40
0.9999999999999999
 10
36.33421873092136
 20
65.14124764890285
 30
0.0
 10
36.33373119677849
 20
65.14124497255708
 30
0.0
 10
36.31390004924722
 20
65.14113610837029
 30
0.0
 10
36.28561926923697
 20
65.13159009610084
 30
0.0
 10
36.24778997074834
 20
65.09422771284629
 30
0.0
 10
36.22120607418081
 20
65.04936219811162
 30
0.0
 10
36.20403625042585
 20
64.99148589853469
 30
0.0
 10
36.19621925420938
 20
64.94080985856279
 30
0.0
 10
36.1942235677735
 20
64.91211557904278
 30
0.0
 10
36.19415860382271
 20
64.89292874748728
 30
0.0
 10
36.19415291185604
 20
64.89124764890285
 30
0.0
  0
LINE
  5
A5
330
1F
100
AcDbEntity
  8
0
  6
Continuous
 62
     7
370
    25
100
AcDbLine
 10
36.3342187309
 20
65.1412476489
 30
0.0
 11
46.5322577581
 21
65.1412476489
 31
0.0
  0
LINE
  5
A6
330
1F
100
AcDbEntity
  8
0
  6
Continuous
 62
     7
370
    25
100
AcDbLine
 10
46.6723235772
 20
64.2912476489
 30
0.0
 11
46.6723235772
 21
64.8912476489
 31
0.0
  0
LINE
  5
A7
330
1F
100
AcDbEntity
  8
0
  6
Continuous
 62
     7
370
    25
100
AcDbLine
 10
36.1941529119
 20
64.8912476489
 30
0.0
 11
36.1941529119
 21
64.2912476489
 31
0.0
  0
LINE
  5
A8
330
1F
100
AcDbEntity
  8
0
  6
Continuous
 62
     7
370
    25
100
AcDbLine
 10
36.1941529119
 20
64.2912476489
 30
0.0
 11
46.6723235772
 21
64.2912476489
 31
0.0
  0
SPLINE
  5
A9
330
1F
100
AcDbEntity
  8
0
  6
Continuous
 62
     7
370
    25
100
AcDbSpline
210
0.0
220
0.0
230
1.0
 70
     8
 71
     3
 72
    15
 73
    11
 74
     0
 42
0.00000001
 43
0.00000001
 40
0.0
 40
0.0
 40
0.0
 40
0.0
 40
0.0089557228015919
 40
0.0999003359608212
 40
0.1531632460581699
 40
0.3125636920784857
 40
0.5249666935695049
 40
0.6689893599351769
 40
0.991915253381045
 40
1.0
 40
1.0
 40
1.0
 40
1.0
 10
35.95601266946249
 20
64.89124764890285
 30
0.0
 10
35.95602842504109
 20
64.89292877447576
 30
0.0
 10
35.95620417719765
 20
64.91168158910021
 30
0.0
 10
35.96163319321717
 20
64.94044381820768
 30
0.0
 10
35.9831686769245
 20
64.991330891676
 30
0.0
 10
36.03087410518931
 20
65.04946654180867
 30
0.0
 10
36.10326505018124
 20
65.09417441499207
 30
0.0
 10
36.20518416219891
 20
65.13145623845382
 30
0.0
 10
36.28053925365395
 20
65.14113539329144
 30
0.0
 10
36.33293889937724
 20
65.14124497249317
 30
0.0
 10
36.33421873092136
 20
65.14124764890285
 30
0.0
  0
LINE
  5
AA
330
1F
100
AcDbEntity
  8
0
  6
Continuous
 62
     7
370
    25
100
AcDbLine
 10
35.9560126695
 20
64.8912476489
 30
0.0
 11
36.1941529119
 21
64.8912476489
 31
0.0
  0
SPLINE
  5
AB
330
1F
100
AcDbEntity
  8
0
  6
Continuous
 62
     7
370
    25
100
AcDbSpline
210
0.0
220
0.0
230
1.0
 70
     8
 71
     3
 72
    15
 73
    11
 74
     0
 42
0.00000001
 43
0.00000001
 40
0.0
 40
0.0
 40
0.0
 40
0.0
 40
0.0080847466189582
 40
0.3310106400648247
 40
0.4750333064304952
 40
0.6874363079215144
 40
0.8468367539418304
 40
0.9000996640391848
 40
0.9910442771984082
 40
1.0
 40
1.0
 40
1.0
 40
1.0
 10
46.53225775810693
 20
65.14124764890285
 30
0.0
 10
46.53353758965105
 20
65.14124497249317
 30
0.0
 10
46.58593723537427
 20
65.14113539329136
 30
0.0
 10
46.66129232682941
 20
65.13145623845385
 30
0.0
 10
46.76321143884706
 20
65.09417441499205
 30
0.0
 10
46.83560238383899
 20
65.04946654180867
 30
0.0
 10
46.8833078121038
 20
64.991330891676
 30
0.0
 10
46.90484329581112
 20
64.94044381820768
 30
0.0
 10
46.91027231183064
 20
64.91168158910024
 30
0.0
 10
46.9104480639872
 20
64.89292877447576
 30
0.0
 10
46.91046381956581
 20
64.89124764890285
 30
0.0
  0
LINE
  5
AC
330
1F
100
AcDbEntity
  8
0
  6
Continuous
 62
     7
370
    25
100
AcDbLine
 10
46.6723235772
 20
64.8912476489
 30
0.0
 11
46.9104638196
 21
64.8912476489
 31
0.0
  0
LINE
  5
AD
330
1F
100
AcDbEntity
  8
0
  6
Continuous
 62
     7
370
    25
100
AcDbLine
 10
35.9560126695
 20
64.2912476489
 30
0.0
 11
35.9560126695
 21
64.8912476489
 31
0.0
  0
LINE
  5
AE
330
1F
100
AcDbEntity
  8
0
  6
Continuous
 62
     7
370
    25
100
AcDbLine
 10
36.1941529119
 20
64.2912476489
 30
0.0
 11
35.9560126695
 21
64.2912476489
 31
0.0
  0
LINE
  5
AF
330
1F
100
AcDbEntity
  8
0
  6
Continuous
 62
     7
370
    25
100
AcDbLine
 10
46.9104638196
 20
64.8912476489
 30
0.0
 11
46.9104638196
 21
64.2912476489
 31
0.0
  0
LINE
  5
B0
330
1F
100
AcDbEntity
  8
0
  6
Continuous
 62
     7
370
    25
100
AcDbLine
 10
46.9104638196
 20
64.2912476489
 30
0.0
 11
46.6723235772
 21
64.2912476489
 31
0.0
  0
LINE
  5
B1
330
1F
100
AcDbEntity
  8
0
  6
Continuous
 62
     7
370
    25
100
AcDbLine
 10
35.9560126695
 20
64.8912476489
 30
0.0
 11
35.6832382445
 21
64.8912476489
 31
0.0
  0
LINE
  5
B2
330
1F
100
AcDbEntity
  8
0
  6
Continuous
 62
     7
370
    25
100
AcDbLine
 10
35.6832382445
 20
65.1412476489
 30
0.0
 11
35.6832382445
 21
64.8912476489
 31
0.0
  0
LINE
  5
B3
330
1F
100
AcDbEntity
  8
0
  6
Continuous
 62
     7
370
    25
100
AcDbLine
 10
35.6832382445
 20
65.1412476489
 30
0.0
 11
36.3342187309
 21
65.1412476489
 31
0.0
  0
LINE
  5
B4
330
1F
100
AcDbEntity
  8
0
  6
Continuous
 62
     7
370
    25
100
AcDbLine
 10
35.4332382445
 20
64.2912476489
 30
0.0
 11
35.4332382445
 21
64.8912476489
 31
0.0
  0
LINE
  5
B5
330
1F
100
AcDbEntity
  8
0
  6
Continuous
 62
     7
370
    25
100
AcDbLine
 10
35.4332382445
 20
64.8912476489
 30
0.0
 11
35.6832382445
 21
64.8912476489
 31
0.0
  0
LINE
  5
B6
330
1F
100
AcDbEntity
  8
0
  6
Continuous
 62
     7
370
    25
100
AcDbLine
 10
35.6832382445
 20
64.8912476489
 30
0.0
 11
35.6832382445
 21
64.2912476489
 31
0.0
  0
LINE
  5
B7
330
1F
100
AcDbEntity
  8
0
  6
Continuous
 62
     7
370
    25
100
AcDbLine
 10
35.6832382445
 20
64.2912476489
 30
0.0
 11
35.4332382445
 21
64.2912476489
 31
0.0
  0
LINE
  5
B8
330
1F
100
AcDbEntity
  8
0
  6
Continuous
 62
     7
370
    25
100
AcDbLine
 10
35.6832382445
 20
64.2912476489
 30
0.0
 11
35.9560126695
 21
64.2912476489
 31
0.0
  0
ARC
  5
B9
330
1F
100
AcDbEntity
  8
0
  6
Continuous
 62
     7
370
    25
100
AcDbCircle
 10
35.6832382445
 20
64.8912476489
 30
0.0
 40
0.25
100
AcDbArc
 50
90.0
 51
180.0
  0
LINE
  5
BA
330
1F
100
AcDbEntity
  8
0
  6
Continuous
 62
     7
370
    25
100
AcDbLine
 10
47.1832382445
 20
64.8912476489
 30
0.0
 11
47.4332382445
 21
64.8912476489
 31
0.0
  0
LINE
  5
BB
330
1F
100
AcDbEntity
  8
0
  6
Continuous
 62
     7
370
    25
100
AcDbLine
 10
47.1832382445
 20
64.8912476489
 30
0.0
 11
47.1832382445
 21
65.1412476489
 31
0.0
  0
ARC
  5
BC
330
1F
100
AcDbEntity
  8
0
  6
Continuous
 62
     7
370
    25
100
AcDbCircle
 10
47.1832382445
 20
64.8912476489
 30
0.0
 40
0.25
100
AcDbArc
 50
0.0
 51
90.0
  0
LINE
  5
BD
330
1F
100
AcDbEntity
  8
0
  6
Continuous
 62
     7
370
    25
100
AcDbLine
 10
47.1832382445
 20
64.8912476489
 30
0.0
 11
46.9104638196
 21
64.8912476489
 31
0.0
  0
LINE
  5
BE
330
1F
100
AcDbEntity
  8
0
  6
Continuous
 62
     7
370
    25
100
AcDbLine
 10
46.5322577581
 20
65.1412476489
 30
0.0
 11
47.1832382445
 21
65.1412476489
 31
0.0
  0
LINE
  5
BF
330
1F
100
AcDbEntity
  8
0
  6
Continuous
 62
     7
370
    25
100
AcDbLine
 10
47.1832382445
 20
64.2912476489
 30
0.0
 11
47.1832382445
 21
64.8912476489
 31
0.0
  0
LINE
  5
C0
330
1F
100
AcDbEntity
  8
0
  6
Continuous
 62
     7
370
    25
100
AcDbLine
 10
46.9104638196
 20
64.2912476489
 30
0.0
 11
47.1832382445
 21
64.2912476489
 31
0.0
  0
LINE
  5
C1
330
1F
100
AcDbEntity
  8
0
  6
Continuous
 62
     7
370
    25
100
AcDbLine
 10
47.4332382445
 20
64.8912476489
 30
0.0
 11
47.4332382445
 21
64.2912476489
 31
0.0
  0
LINE
  5
C2
330
1F
100
AcDbEntity
  8
0
  6
Continuous
 62
     7
370
    25
100
AcDbLine
 10
47.4332382445
 20
64.2912476489
 30
0.0
 11
47.1832382445
 21
64.2912476489
 31
0.0
  0
LINE
  5
C3
330
1F
100
AcDbEntity
  8
0
  6
Continuous
 62
     7
370
    25
100
AcDbLine
 10
36.4332382445
 20
65.1512476489
 30
0.0
 11
46.4332382445
 21
65.1512476489
 31
0.0
  0
LINE
  5
C4
330
1F
100
AcDbEntity
  8
0
  6
Continuous
 62
     7
370
    25
100
AcDbLine
 10
36.4332382445
 20
65.1412476489
 30
0.0
 11
36.4332382445
 21
65.1512476489
 31
0.0
  0
LINE
  5
C5
330
1F
100
AcDbEntity
  8
0
  6
Continuous
 62
     7
370
    25
100
AcDbLine
 10
46.4332382445
 20
65.1412476489
 30
0.0
 11
46.4332382445
 21
65.1512476489
 31
0.0
  0
LINE
  5
C6
330
1F
100
AcDbEntity
  8
0
  6
Continuous
 62
     7
370
    25
100
AcDbLine
 10
26.9332382445
 20
36.018189555
 30
0.0
 11
26.9332382445
 21
45.5912476489
 31
0.0
  0
LINE
  5
C7
330
1F
100
AcDbEntity
  8
0
  6
Continuous
 62
     7
370
    25
100
AcDbLine
 10
26.9332382445
 20
29.9912476489
 30
0.0
 11
26.9332382445
 21
36.018189555
 31
0.0
  0
LINE
  5
C8
330
1F
100
AcDbEntity
  8
0
  6
Continuous
 62
     7
370
    25
100
AcDbLine
 10
27.1332382445
 20
35.972726527
 30
0.0
 11
27.1332382445
 21
29.7912476489
 31
0.0
  0
LINE
  5
C9
330
1F
100
AcDbEntity
  8
0
  6
Continuous
 62
     7
370
    25
100
AcDbLine
 10
27.1332382445
 20
45.7912476489
 30
0.0
 11
27.1332382445
 21
35.972726527
 31
0.0
  0
LINE
  5
CA
330
1F
100
AcDbEntity
  8
0
  6
Continuous
 62
     7
370
    25
100
AcDbLine
 10
16.9332382445
 20
36.7992443769
 30
0.0
 11
16.9332382445
 21
42.1552476489
 31
0.0
  0
LINE
  5
CB
330
1F
100
AcDbEntity
  8
0
  6
Continuous
 62
     7
370
    25
100
AcDbLine
 10
16.9332382445
 20
33.4272476489
 30
0.0
 11
16.9332382445
 21
36.7992443769
 31
0.0
  0
LINE
  5
CC
330
1F
100
AcDbEntity
  8
0
  6
Continuous
 62
     7
370
    25
100
AcDbLine
 10
17.4332382445
 20
36.6855868068
 30
0.0
 11
17.4332382445
 21
32.9272476489
 31
0.0
  0
LINE
  5
CD
330
1F
100
AcDbEntity
  8
0
  6
Continuous
 62
     7
370
    25
100
AcDbLine
 10
17.4332382445
 20
42.6552476489
 30
0.0
 11
17.4332382445
 21
36.6855868068
 31
0.0
  0
LINE
  5
CE
330
1F
100
AcDbEntity
  8
0
  6
Continuous
 62
     7
370
    25
100
AcDbLine
 10
36.814436091
 20
29.824851109
 30
0.0
 11
36.814436091
 21
26.1133066215
 31
0.0
  0
SPLINE
  5
CF
330
1F
100
AcDbEntity
  8
0
  6
Continuous
 62
     7
370
    25
100
AcDbSpline
210
0.0
220
0.0
230
1.0
 70
     8
 71
     3
 72
     8
 73
     4
 74
     0
 42
0.00000001
 43
0.00000001
 40
0.0
 40
0.0
 40
0.0
 40
0.0
 40
1.0
 40
1.0
 40
1.0
 40
1.0
 10
36.81443609099712
 20
29.82485110904785
 30
0.0
 10
37.01962191354041
 20
29.88141207617207
 30
0.0
 10
37.22584511424773
 20
29.93535214758591
 30
0.0
 10
37.43323824451416
 20
29.98633643732887
 30
0.0
  0
LINE
  5
D0
330
1F
100
AcDbEntity
  8
0
  6
Continuous
 62
     7
370
    25
100
AcDbLine
 10
37.4332382445
 20
33.7912476489
 30
0.0
 11
34.9170021675
 21
33.7912476489
 31
0.0
  0
SPLINE
  5
D1
330
1F
100
AcDbEntity
  8
0
  6
Continuous
 62
     7
370
    25
100
AcDbSpline
210
0.0
220
0.0
230
1.0
 70
     8
 71
     3
 72
     8
 73
     4
 74
     0
 42
0.00000001
 43
0.00000001
 40
0.0
 40
0.0
 40
0.0
 40
0.0
 40
1.0
 40
1.0
 40
1.0
 40
1.0
 10
34.75551683925397
 20
33.17244549538581
 30
0.0
 10
34.8120802087222
 20
33.37764003289558
 30
0.0
 10
34.86602013154345
 20
33.58386368641274
 30
0.0
 10
34.91700216753497
 20
33.79124764890285
 30
0.0
  0
LINE
  5
D2
330
1F
100
AcDbEntity
  8
0
  6
Continuous
 62
     7
370
    25
100
AcDbLine
 10
30.6109596498
 20
33.1724454954
 30
0.0
 11
34.7555168393
 21
33.1724454954
 31
0.0
  0
SPLINE
  5
D3
330
1F
100
AcDbEntity
  8
0
  6
Continuous
 62
     7
370
    25
100
AcDbSpline
210
0.0
220
0.0
230
1.0
 70
     8
 71
     3
 72
    10
 73
     6
 74
     0
 42
0.00000001
 43
0.00000001
 40
0.0
 40
0.0
 40
0.0
 40
0.0
 40
0.5
 40
0.5
 40
1.0
 40
1.0
 40
1.0
 40
1.0
 10
30.61095964977434
 20
33.17244549538583
 30
0.0
 10
30.40289097354312
 20
33.92725476843513
 30
0.0
 10
30.23249196751859
 20
34.68800115566702
 30
0.0
 10
29.99733198781975
 20
36.22614353329029
 30
0.0
 10
29.93323824451415
 20
37.0036446858151
 30
0.0
 10
29.93323824451415
 20
37.79124764890285
 30
0.0
  0
SPLINE
  5
D4
330
1F
100
AcDbEntity
  8
0
  6
Continuous
 62
     7
370
    25
100
AcDbSpline
210
0.0
220
0.0
230
1.0
 70
     8
 71
     3
 72
    12
 73
     8
 74
     0
 42
0.00000001
 43
0.00000001
 40
0.0
 40
0.0
 40
0.0
 40
0.0
 40
0.2500000000000001
 40
0.2500000000000001
 40
0.5000000000000001
 40
0.5000000000000001
 40
1.0
 40
1.0
 40
1.0
 40
1.0
 10
29.93323824451415
 20
37.79124764890285
 30
0.0
 10
29.93323824451415
 20
38.18556572957469
 30
0.0
 10
29.94923704949522
 20
38.57922477352512
 30
0.0
 10
30.01100718780961
 20
39.35876077307046
 30
0.0
 10
30.0567493121112
 20
39.74571396119589
 30
0.0
 10
30.23341945945805
 20
40.89910052404989
 30
0.0
 10
30.40367452493835
 20
41.65808301325492
 30
0.0
 10
30.61095964977434
 20
42.41004980241986
 30
0.0
  0
LINE
  5
D5
330
1F
100
AcDbEntity
  8
0
  6
Continuous
 62
     7
370
    25
100
AcDbLine
 10
34.7555168393
 20
42.4100498024
 30
0.0
 11
30.6109596498
 21
42.4100498024
 31
0.0
  0
SPLINE
  5
D6
330
1F
100
AcDbEntity
  8
0
  6
Continuous
 62
     7
370
    25
100
AcDbSpline
210
0.0
220
0.0
230
1.0
 70
     8
 71
     3
 72
     8
 73
     4
 74
     0
 42
0.00000001
 43
0.00000001
 40
0.0
 40
0.0
 40
0.0
 40
0.0
 40
1.0
 40
1.0
 40
1.0
 40
1.0
 10
34.91700216753497
 20
41.79124764890285
 30
0.0
 10
34.86610345061246
 20
41.99829268733184
 30
0.0
 10
34.8121693143617
 20
42.20453201700848
 30
0.0
 10
34.75551683925396
 20
42.41004980241986
 30
0.0
  0
SPLINE
  5
D7
330
1F
100
AcDbEntity
  8
0
  6
Continuous
 62
     7
370
    25
100
AcDbSpline
210
0.0
220
0.0
230
1.0
 70
     8
 71
     3
 72
     8
 73
     4
 74
     0
 42
0.00000001
 43
0.00000001
 40
0.0
 40
0.0
 40
0.0
 40
0.0
 40
1.0
 40
1.0
 40
1.0
 40
1.0
 10
47.94947432149334
 20
41.79124764890292
 30
0.0
 10
48.00037055474841
 20
41.99828258430668
 30
0.0
 10
48.05430450971207
 20
42.20452234937167
 30
0.0
 10
48.11095964977434
 20
42.41004980241986
 30
0.0
  0
LINE
  5
D8
330
1F
100
AcDbEntity
  8
0
  6
Continuous
 62
     7
370
    25
100
AcDbLine
 10
52.611179272
 20
42.4100498024
 30
0.0
 11
48.1109596498
 21
42.4100498024
 31
0.0
  0
SPLINE
  5
D9
330
1F
100
AcDbEntity
  8
0
  6
Continuous
 62
     7
370
    25
100
AcDbSpline
210
0.0
220
0.0
230
1.0
 70
     8
 71
     3
 72
    14
 73
    10
 74
     0
 42
0.00000001
 43
0.00000001
 40
0.0
 40
0.0
 40
0.0
 40
0.0
 40
0.25
 40
0.25
 40
0.5
 40
0.5
 40
0.75
 40
0.75
 40
1.0
 40
1.0
 40
1.0
 40
1.0
 10
52.61117927195656
 20
33.17244549538579
 30
0.0
 10
52.81912963266233
 20
33.92682555603578
 30
0.0
 10
52.9913514413512
 20
34.69626672350127
 30
0.0
 10
53.22598656410211
 20
36.23677808444243
 30
0.0
 10
53.28893062272978
 20
37.01163246444946
 30
0.0
 10
53.28887070999831
 20
38.57199341933502
 30
0.0
 10
53.22425604370621
 20
39.36244961212005
 30
0.0
 10
52.98769670430498
 20
40.90472927492851
 30
0.0
 10
52.81735156422555
 20
41.6621200281297
 30
0.0
 10
52.61117927195655
 20
42.41004980241986
 30
0.0
  0
LINE
  5
DA
330
1F
100
AcDbEntity
  8
0
  6
Continuous
 62
     7
370
    25
100
AcDbLine
 10
48.1109596498
 20
33.1724454954
 30
0.0
 11
52.611179272
 21
33.1724454954
 31
0.0
  0
SPLINE
  5
DB
330
1F
100
AcDbEntity
  8
0
  6
Continuous
 62
     7
370
    25
100
AcDbSpline
210
0.0
220
0.0
230
1.0
 70
     8
 71
     3
 72
     8
 73
     4
 74
     0
 42
0.00000001
 43
0.00000001
 40
0.0
 40
0.0
 40
0.0
 40
0.0
 40
1.0
 40
1.0
 40
1.0
 40
1.0
 10
48.11095964977434
 20
33.17244549538582
 30
0.0
 10
48.05439780633738
 20
33.37763449692263
 30
0.0
 10
48.000457789081
 20
33.58385786298733
 30
0.0
 10
47.94947432149334
 20
33.79124764890279
 30
0.0
  0
LINE
  5
DC
330
1F
100
AcDbEntity
  8
0
  6
Continuous
 62
     7
370
    25
100
AcDbLine
 10
47.9494743215
 20
33.7912476489
 30
0.0
 11
45.4332382445
 21
33.7912476489
 31
0.0
  0
LINE
  5
DD
330
1F
100
AcDbEntity
  8
0
  6
Continuous
 62
     7
370
    25
100
AcDbLine
 10
45.4332382445
 20
29.9863364373
 30
0.0
 11
45.4332382445
 21
33.7912476489
 31
0.0
  0
SPLINE
  5
DE
330
1F
100
AcDbEntity
  8
0
  6
Continuous
 62
     7
370
    25
100
AcDbSpline
210
0.0
220
0.0
230
1.0
 70
     8
 71
     3
 72
     8
 73
     4
 74
     0
 42
0.00000001
 43
0.00000001
 40
0.0
 40
0.0
 40
0.0
 40
0.0
 40
1.0
 40
1.0
 40
1.0
 40
1.0
 10
45.43323824451415
 20
29.98633643732886
 30
0.0
 10
45.64026730784954
 20
29.93544164762804
 30
0.0
 10
45.84650732511889
 20
29.8815077982666
 30
0.0
 10
46.05204039803116
 20
29.82485110904785
 30
0.0
  0
LINE
  5
DF
330
1F
100
AcDbEntity
  8
0
  6
Continuous
 62
     7
370
    25
100
AcDbLine
 10
46.052040398
 20
26.1133066215
 30
0.0
 11
46.052040398
 21
29.824851109
 31
0.0
  0
SPLINE
  5
E0
330
1F
100
AcDbEntity
  8
0
  6
Continuous
 62
     7
370
    25
100
AcDbSpline
210
0.0
220
0.0
230
1.0
 70
     8
 71
     3
 72
    18
 73
    14
 74
     0
 42
0.00000001
 43
0.00000001
 40
0.0
 40
0.0
 40
0.0
 40
0.0
 40
0.2499999999999997
 40
0.2499999999999997
 40
0.3749999999999997
 40
0.3749999999999997
 40
0.4999999999999997
 40
0.4999999999999997
 40
0.7499999999999998
 40
0.7499999999999998
 40
0.8749999999999999
 40
0.8749999999999999
 40
1.0
 40
1.0
 40
1.0
 40
1.0
 10
36.81443609099715
 20
26.11330662146044
 30
0.0
 10
37.5651280061313
 20
25.90637292494074
 30
0.0
 10
38.32681139490946
 20
25.735056982791
 30
0.0
 10
39.4937080589219
 20
25.5570589201456
 30
0.0
 10
39.88601941973928
 20
25.51123664208039
 30
0.0
 10
40.6656004240625
 20
25.45050900453759
 30
0.0
 10
41.05446154065498
 20
25.43534715400678
 30
0.0
 10
42.21821990853105
 20
25.43606985717187
 30
0.0
 10
42.99025076485415
 20
25.49884005941052
 30
0.0
 10
44.14331219624055
 20
25.67453265041494
 30
0.0
 10
44.52684656266938
 20
25.74650050095177
 30
0.0
 10
45.29248466595968
 20
25.9138370229225
 30
0.0
 10
45.67497327692993
 20
26.00936532193069
 30
0.0
 10
46.05204039803115
 20
26.11330662146045
 30
0.0
  0
ARC
  5
E1
330
1F
100
AcDbEntity
  8
0
  6
Continuous
 62
     7
370
    25
100
AcDbCircle
 10
42.9839696002
 20
37.2143286556
 30
0.0
 40
0.8890000000000019
100
AcDbArc
 50
45.0
 51
315.0
  0
LINE
  5
E2
330
1F
100
AcDbEntity
  8
0
  6
Continuous
 62
     7
370
    25
100
AcDbLine
 10
43.6125875287
 20
37.8429465841
 30
0.0
 11
44.0791979143
 21
38.3095569697
 31
0.0
  0
ARC
  5
E3
330
1F
100
AcDbEntity
  8
0
  6
Continuous
 62
     7
370
    25
100
AcDbCircle
 10
42.9839696002
 20
37.2143286556
 30
0.0
 40
1.548886735692399
100
AcDbArc
 50
45.0
 51
315.0
  0
LINE
  5
E4
330
1F
100
AcDbEntity
  8
0
  6
Continuous
 62
     7
370
    25
100
AcDbLine
 10
44.0791979143
 20
36.1191003415
 30
0.0
 11
43.6125875287
 21
36.5857107271
 31
0.0
  0
ARC
  5
E5
330
1F
100
AcDbEntity
  8
0
  6
Continuous
 62
     7
370
    25
100
AcDbCircle
 10
46.3261141966
 20
37.2143286556
 30
0.0
 40
0.8889999999999868
100
AcDbArc
 50
45.0
 51
159.0751675724
  0
LINE
  5
E6
330
1F
100
AcDbEntity
  8
0
  6
Continuous
 62
     7
370
    25
100
AcDbLine
 10
46.9547321251
 20
37.8429465841
 30
0.0
 11
47.4213425107
 21
38.3095569697
 31
0.0
  0
ARC
  5
E7
330
1F
100
AcDbEntity
  8
0
  6
Continuous
 62
     7
370
    25
100
AcDbCircle
 10
46.3261141966
 20
37.2143286556
 30
0.0
 40
1.548886735692384
100
AcDbArc
 50
45.0
 51
315.0
  0
LINE
  5
E8
330
1F
100
AcDbEntity
  8
0
  6
Continuous
 62
     7
370
    25
100
AcDbLine
 10
47.4213425107
 20
36.1191003415
 30
0.0
 11
46.9547321251
 21
36.5857107271
 31
0.0
  0
ARC
  5
E9
330
1F
100
AcDbEntity
  8
0
  6
Continuous
 62
     7
370
    25
100
AcDbCircle
 10
46.3261141966
 20
37.2143286556
 30
0.0
 40
0.8890000000000032
100
AcDbArc
 50
200.9248324276
 51
315.0
  0
LINE
  5
EA
330
1F
100
AcDbEntity
  8
0
  6
Continuous
 62
     7
370
    25
100
AcDbLine
 10
45.4957439478
 20
36.8968286556
 30
0.0
 11
47.4213425107
 21
36.8968286556
 31
0.0
  0
LINE
  5
EB
330
1F
100
AcDbEntity
  8
0
  6
Continuous
 62
     7
370
    25
100
AcDbLine
 10
47.4213425107
 20
36.8968286556
 30
0.0
 11
47.4213425107
 21
37.5318286556
 31
0.0
  0
LINE
  5
EC
330
1F
100
AcDbEntity
  8
0
  6
Continuous
 62
     7
370
    25
100
AcDbLine
 10
47.4213425107
 20
37.5318286556
 30
0.0
 11
45.4957439478
 21
37.5318286556
 31
0.0
  0
LINE
  5
ED
330
1F
100
AcDbEntity
  8
0
  6
Continuous
 62
     7
370
    25
100
AcDbLine
 10
40.5314793305
 20
36.3688746313
 30
0.0
 11
40.4898290112
 21
36.3450697015
 31
0.0
  0
ELLIPSE
  5
EE
330
1F
100
AcDbEntity
  8
0
  6
Continuous
 62
     7
370
    25
100
AcDbEllipse
 10
40.1409858317
 20
36.8997521727
 30
0.0
 11
0.6784129479252741
 21
6.039613253960852E-13
 31
0.0
210
0.0
220
0.0
230
1.0
 40
0.9533039403
 41
3.470145824140289
 42
5.2524691805363
  0
LINE
  5
EF
330
1F
100
AcDbEntity
  8
0
  6
Continuous
 62
     7
370
    25
100
AcDbLine
 10
39.4988610647
 20
36.6910680577
 30
0.0
 11
38.2392068598
 21
40.2135124544
 31
0.0
  0
ELLIPSE
  5
F0
330
1F
100
AcDbEntity
  8
0
  6
Continuous
 62
     7
370
    25
100
AcDbEllipse
 10
37.6482243019
 20
39.9511732183
 30
0.0
 11
0.6519124952381432
 21
6.110667527536862E-13
 31
0.0
210
0.0
220
0.0
230
1.0
 40
0.9533023292
 41
0.4357905044354779
 42
2.705800116361513
  0
LINE
  5
F1
330
1F
100
AcDbEntity
  8
0
  6
Continuous
 62
     7
370
    25
100
AcDbLine
 10
37.0572423033
 20
40.2135135996
 30
0.0
 11
35.7978775017
 21
36.6918901979
 31
0.0
  0
ELLIPSE
  5
F2
330
1F
100
AcDbEntity
  8
0
  6
Continuous
 62
     7
370
    25
100
AcDbEllipse
 10
35.1557563177
 20
36.9005730315
 30
0.0
 11
-0.6784085062757796
 21
3.268496584496460E-13
 31
0.0
210
0.0
220
0.0
230
1.0
 40
0.9533122623
 41
1.047193771187954
 42
2.813042320199927
  0
LINE
  5
F3
330
1F
100
AcDbEntity
  8
0
  6
Continuous
 62
     7
370
    25
100
AcDbLine
 10
34.8165498437
 20
36.3404851863
 30
0.0
 11
34.7649692732
 21
36.3688746313
 31
0.0
  0
LINE
  5
F4
330
1F
100
AcDbEntity
  8
0
  6
Continuous
 62
     7
370
    25
100
AcDbLine
 10
34.7649692732
 20
36.3688746313
 30
0.0
 11
35.5612379327
 21
34.8507025299
 31
0.0
  0
ELLIPSE
  5
F5
330
1F
100
AcDbEntity
  8
0
  6
Continuous
 62
     7
370
    25
100
AcDbEllipse
 10
35.6370868061
 20
34.8868560448
 30
0.0
 11
0.08480161849065126
 21
-2.131628207280301E-14
 31
0.0
210
0.0
220
0.0
230
1.0
 40
0.9533039403
 41
3.605240262590869
 42
5.462183310215459
  0
ELLIPSE
  5
F6
330
1F
100
AcDbEntity
  8
0
  6
Continuous
 62
     7
370
    25
100
AcDbEllipse
 10
37.6482243019
 20
32.8280074243
 30
0.0
 11
2.866293551216202
 21
-1.492139745096210E-12
 31
0.0
210
0.0
220
0.0
230
1.0
 40
0.9533046568
 41
0.8210016221243798
 42
2.320591031466439
  0
ELLIPSE
  5
F7
330
1F
100
AcDbEntity
  8
0
  6
Continuous
 62
     7
370
    25
100
AcDbEllipse
 10
39.6593617976
 20
34.8868560448
 30
0.0
 11
0.08480161849060863
 21
-7.105427357601002E-15
 31
0.0
210
0.0
220
0.0
230
1.0
 40
0.9533039403
 41
3.962594650556592
 42
5.819537698177222
  0
LINE
  5
F8
330
1F
100
AcDbEntity
  8
0
  6
Continuous
 62
     7
370
    25
100
AcDbLine
 10
39.735210671
 20
34.8507025299
 30
0.0
 11
40.5314793305
 21
36.3688746313
 31
0.0
  0
LINE
  5
F9
330
1F
100
AcDbEntity
  8
0
  6
Continuous
 62
     7
370
    25
100
AcDbLine
 10
47.9494743215
 20
41.7912476489
 30
0.0
 11
34.9170021675
 21
41.7912476489
 31
0.0
  0
LINE
  5
FA
330
1F
100
AcDbEntity
  8
0
  6
Continuous
 62
     7
370
    25
100
AcDbLine
 10
37.4332382445
 20
29.9863364373
 30
0.0
 11
37.4332382445
 21
33.7912476489
 31
0.0
  0
LINE
  5
FB
330
1F
100
AcDbEntity
  8
0
  6
Continuous
 62
     7
370
    25
100
AcDbLine
 10
35.4332382445
 20
45.1524635811
 30
0.0
 11
35.4332382445
 21
41.7912476489
 31
0.0
  0
SPLINE
  5
FC
330
1F
100
AcDbEntity
  8
0
  6
Continuous
 62
     7
370
    25
100
AcDbSpline
210
0.0
220
0.0
230
1.0
 70
     8
 71
     3
 72
    10
 73
     6
 74
     0
 42
0.00000001
 43
0.00000001
 40
0.0
 40
0.0
 40
0.0
 40
0.0
 40
0.5
 40
0.5
 40
1.0
 40
1.0
 40
1.0
 40
1.0
 10
34.75551683925396
 20
42.84306250431208
 30
0.0
 10
34.73184144482958
 20
42.80011897341085
 30
0.0
 10
34.71875033494494
 20
42.73667652878672
 30
0.0
 10
34.71866401365665
 20
42.58419769166775
 30
0.0
 10
34.73183294760049
 20
42.49596768956049
 30
0.0
 10
34.75551683925396
 20
42.41004980241986
 30
0.0
  0
SPLINE
  5
FD
330
1F
100
AcDbEntity
  8
0
  6
Continuous
 62
     7
370
    25
100
AcDbSpline
210
0.0
220
0.0
230
1.0
 70
     8
 71
     3
 72
    12
 73
     8
 74
     0
 42
0.00000001
 43
0.00000001
 40
0.0
 40
0.0
 40
0.0
 40
0.0
 40
0.2500000000000001
 40
0.2500000000000001
 40
0.5000000000000002
 40
0.5000000000000002
 40
1.0
 40
1.0
 40
1.0
 40
1.0
 10
35.43323824451415
 20
45.15246358107058
 30
0.0
 10
35.43323824451415
 20
44.95672131819107
 30
0.0
 10
35.4173953084252
 20
44.76005470900051
 30
0.0
 10
35.35589244818753
 20
44.37078648167222
 30
0.0
 10
35.31028880714384
 20
44.17738244871931
 30
0.0
 10
35.13383778965462
 20
43.60045339746254
 30
0.0
 10
34.96344042240276
 20
43.22020396425954
 30
0.0
 10
34.75551683925396
 20
42.84306250431208
 30
0.0
  0
SPLINE
  5
FE
330
1F
100
AcDbEntity
  8
0
  6
Continuous
 62
     7
370
    25
100
AcDbSpline
210
0.0
220
0.0
230
1.0
 70
     8
 71
     3
 72
    10
 73
     6
 74
     0
 42
0.00000001
 43
0.00000001
 40
0.0
 40
0.0
 40
0.0
 40
0.0
 40
0.5
 40
0.5
 40
1.0
 40
1.0
 40
1.0
 40
1.0
 10
46.05204039803115
 20
29.82485110904783
 30
0.0
 10
46.1379274598337
 20
29.80117571462342
 30
0.0
 10
46.22533466881391
 20
29.78808460473878
 30
0.0
 10
46.37797111140777
 20
29.78799828345057
 30
0.0
 10
46.44209415635353
 20
29.80116721739451
 30
0.0
 10
46.48505309992376
 20
29.82485110904806
 30
0.0
  0
LINE
  5
FF
330
1F
100
AcDbEntity
  8
0
  6
Continuous
 62
     7
370
    25
100
AcDbLine
 10
46.4850530999
 20
29.824851109
 30
0.0
 11
46.4850530999
 21
26.1133066215
 31
0.0
  0
SPLINE
  5
100
330
1F
100
AcDbEntity
  8
0
  6
Continuous
 62
     7
370
    25
100
AcDbSpline
210
0.0
220
0.0
230
1.0
 70
     8
 71
     3
 72
    10
 73
     6
 74
     0
 42
0.00000001
 43
0.00000001
 40
0.0
 40
0.0
 40
0.0
 40
0.0
 40
0.5
 40
0.5
 40
1.0
 40
1.0
 40
1.0
 40
1.0
 10
46.05204039803115
 20
26.11330662146044
 30
0.0
 10
46.13792204053761
 20
26.13698052201639
 30
0.0
 10
46.22533124650304
 20
26.15007307919554
 30
0.0
 10
46.37797373157798
 20
26.15015949317782
 30
0.0
 10
46.44209671666034
 20
26.13698910157919
 30
0.0
 10
46.48505309992338
 20
26.11330662146044
 30
0.0
  0
SPLINE
  5
101
330
1F
100
AcDbEntity
  8
0
  6
Continuous
 62
     7
370
    25
100
AcDbSpline
210
0.0
220
0.0
230
1.0
 70
     8
 71
     3
 72
     8
 73
     4
 74
     0
 42
0.00000001
 43
0.00000001
 40
0.0
 40
0.0
 40
0.0
 40
0.0
 40
1.0
 40
1.0
 40
1.0
 40
1.0
 10
34.14386205989752
 20
30.50187146427411
 30
0.0
 10
34.45287920253929
 20
30.60287657210424
 30
0.0
 10
34.76819695885726
 20
30.69953336117017
 30
0.0
 10
35.09067628570028
 20
30.79124764890285
 30
0.0
  0
SPLINE
  5
102
330
1F
100
AcDbEntity
  8
0
  6
Continuous
 62
     7
370
    25
100
AcDbSpline
210
0.0
220
0.0
230
1.0
 70
     8
 71
     3
 72
    10
 73
     6
 74
     0
 42
0.00000001
 43
0.00000001
 40
0.0
 40
0.0
 40
0.0
 40
0.0
 40
0.5
 40
0.5
 40
1.0
 40
1.0
 40
1.0
 40
1.0
 10
36.38142338910492
 20
29.82485110904785
 30
0.0
 10
36.42436692000616
 20
29.80117571462346
 30
0.0
 10
36.48780936463028
 20
29.78808460473882
 30
0.0
 10
36.64028820174924
 20
29.78799828345054
 30
0.0
 10
36.72851820385651
 20
29.80116721739438
 30
0.0
 10
36.81443609099713
 20
29.82485110904784
 30
0.0
  0
SPLINE
  5
103
330
1F
100
AcDbEntity
  8
0
  6
Continuous
 62
     7
370
    25
100
AcDbSpline
210
0.0
220
0.0
230
1.0
 70
     8
 71
     3
 72
    12
 73
     8
 74
     0
 42
0.00000001
 43
0.00000001
 40
0.0
 40
0.0
 40
0.0
 40
0.0
 40
0.2500000000000002
 40
0.2500000000000002
 40
0.5000000000000004
 40
0.5000000000000004
 40
1.0
 40
1.0
 40
1.0
 40
1.0
 10
34.14386205989229
 20
30.50187146426799
 30
0.0
 10
34.3338882351955
 20
30.49816297841156
 30
0.0
 10
34.52410329788132
 20
30.47958047557388
 30
0.0
 10
34.90104005701372
 20
30.41471343860773
 30
0.0
 10
35.08836284827322
 20
30.36844788535747
 30
0.0
 10
35.64727280458731
 20
30.1927233550505
 30
0.0
 10
36.01580846269763
 20
30.02641994627375
 30
0.0
 10
36.38142338910492
 20
29.82485110904785
 30
0.0
  0
LINE
  5
104
330
1F
100
AcDbEntity
  8
0
  6
Continuous
 62
     7
370
    25
100
AcDbLine
 10
49.6832382445
 20
25.2912476489
 30
0.0
 11
33.1832382445
 21
25.2912476489
 31
0.0
  0
SPLINE
  5
105
330
1F
100
AcDbEntity
  8
0
  6
Continuous
 62
     7
370
    25
100
AcDbSpline
210
0.0
220
0.0
230
1.0
 70
     8
 71
     3
 72
    10
 73
     6
 74
     0
 42
0.00000001
 43
0.00000001
 40
0.0
 40
0.0
 40
0.0
 40
0.0
 40
0.5
 40
0.5
 40
1.0
 40
1.0
 40
1.0
 40
1.0
 10
36.38142338910492
 20
26.11330662146044
 30
0.0
 10
36.42436119820417
 20
26.13697886137201
 30
0.0
 10
36.48780178809636
 20
26.15007285130726
 30
0.0
 10
36.6402909336052
 20
26.15015971876871
 30
0.0
 10
36.72852032280851
 20
26.13698992900935
 30
0.0
 10
36.81443609099715
 20
26.11330662146044
 30
0.0
  0
SPLINE
  5
106
330
1F
100
AcDbEntity
  8
0
  6
Continuous
 62
     7
370
    25
100
AcDbSpline
210
0.0
220
0.0
230
1.0
 70
     8
 71
     3
 72
    16
 73
    12
 74
     0
 42
0.00000001
 43
0.00000001
 40
0.0
 40
0.0
 40
0.0
 40
0.0
 40
0.2500000000000001
 40
0.2500000000000001
 40
0.5000000000000001
 40
0.5000000000000001
 40
0.6250000000000001
 40
0.6250000000000001
 40
0.7500000000000002
 40
0.7500000000000002
 40
1.0
 40
1.0
 40
1.0
 40
1.0
 10
51.10385525344041
 20
26.11330662145998
 30
0.0
 10
50.72614020571742
 20
25.90506681101133
 30
0.0
 10
50.34598245709146
 20
25.73489352460189
 30
0.0
 10
49.57888912520006
 20
25.50017126498604
 30
0.0
 10
49.19191176786239
 20
25.43627328991157
 30
0.0
 10
48.60536099283772
 20
25.43524958782507
 30
0.0
 10
48.40828183291465
 20
25.45073613496977
 30
0.0
 10
48.01775269340639
 20
25.51185985642776
 30
0.0
 10
47.82372098973335
 20
25.55738158372278
 30
0.0
 10
47.2449169173123
 20
25.73388094746795
 30
0.0
 10
46.86342818314578
 20
25.90470292382177
 30
0.0
 10
46.48505309992336
 20
26.1133066214603
 30
0.0
  0
SPLINE
  5
107
330
1F
100
AcDbEntity
  8
0
  6
Continuous
 62
     7
370
    25
100
AcDbSpline
210
0.0
220
0.0
230
1.0
 70
     8
 71
     3
 72
     9
 73
     5
 74
     0
 42
0.00000001
 43
0.00000001
 40
0.0
 40
0.0
 40
0.0
 40
0.0
 40
0.5789479223911497
 40
1.0
 40
1.0
 40
1.0
 40
1.0
 10
51.10385525344039
 20
26.11330662146045
 30
0.0
 10
51.12629662063303
 20
26.12564751177485
 30
0.0
 10
51.16505894505757
 20
26.14696357464877
 30
0.0
 10
51.16582484791666
 20
26.14737174856315
 30
0.0
 10
51.16614733290672
 20
26.14754361103783
 30
0.0
  0
SPLINE
  5
108
330
1F
100
AcDbEntity
  8
0
  6
Continuous
 62
     7
370
    25
100
AcDbSpline
210
0.0
220
0.0
230
1.0
 70
     8
 71
     3
 72
    10
 73
     6
 74
     0
 42
0.00000001
 43
0.00000001
 40
0.0
 40
0.0
 40
0.0
 40
0.0
 40
0.1593935213061664
 40
0.7189934545756295
 40
1.0
 40
1.0
 40
1.0
 40
1.0
 10
31.70032915612157
 20
26.14754361103783
 30
0.0
 10
31.69893923729494
 20
26.14830513803529
 30
0.0
 10
31.69266958134813
 20
26.15174023955115
 30
0.0
 10
31.71915352317212
 20
26.13724561708455
 30
0.0
 10
31.7517309272188
 20
26.11930424659193
 30
0.0
 10
31.76262123558791
 20
26.11330662146044
 30
0.0
  0
SPLINE
  5
109
330
1F
100
AcDbEntity
  8
0
  6
Continuous
 62
     7
370
    25
100
AcDbSpline
210
0.0
220
0.0
230
1.0
 70
     8
 71
     3
 72
    16
 73
    12
 74
     0
 42
0.00000001
 43
0.00000001
 40
0.0
 40
0.0
 40
0.0
 40
0.0
 40
0.2500000000000003
 40
0.2500000000000003
 40
0.5000000000000006
 40
0.5000000000000006
 40
0.6250000000000006
 40
0.6250000000000006
 40
0.7500000000000004
 40
0.7500000000000004
 40
1.0
 40
1.0
 40
1.0
 40
1.0
 10
36.38142338910495
 20
26.11330662145998
 30
0.0
 10
36.00370834138197
 20
25.90506681101132
 30
0.0
 10
35.623550592756
 20
25.73489352460189
 30
0.0
 10
34.8564572608646
 20
25.50017126498604
 30
0.0
 10
34.46947990352694
 20
25.43627328991157
 30
0.0
 10
33.88292912850225
 20
25.43524958782507
 30
0.0
 10
33.68584996857919
 20
25.45073613496977
 30
0.0
 10
33.29532082907093
 20
25.51185985642775
 30
0.0
 10
33.10128912539788
 20
25.55738158372278
 30
0.0
 10
32.52248505297685
 20
25.73388094746795
 30
0.0
 10
32.14099631881032
 20
25.90470292382178
 30
0.0
 10
31.7626212355879
 20
26.1133066214603
 30
0.0
  0
LINE
  5
10A
330
1F
100
AcDbEntity
  8
0
  6
Continuous
 62
     7
370
    25
100
AcDbLine
 10
52.611179272
 20
32.7394327935
 30
0.0
 11
48.1109596498
 21
32.7394327935
 31
0.0
  0
SPLINE
  5
10B
330
1F
100
AcDbEntity
  8
0
  6
Continuous
 62
     7
370
    25
100
AcDbSpline
210
0.0
220
0.0
230
1.0
 70
     8
 71
     3
 72
    10
 73
     6
 74
     0
 42
0.00000001
 43
0.00000001
 40
0.0
 40
0.0
 40
0.0
 40
0.0
 40
0.5
 40
0.5
 40
1.0
 40
1.0
 40
1.0
 40
1.0
 10
48.11095964977108
 20
32.73943279349363
 30
0.0
 10
48.13463504419542
 20
32.78237632439478
 30
0.0
 10
48.14772615408333
 20
32.84581876901857
 30
0.0
 10
48.14781247537169
 20
32.99829760613765
 30
0.0
 10
48.13464354142784
 20
33.08652760824508
 30
0.0
 10
48.11095964977434
 20
33.17244549538583
 30
0.0
  0
SPLINE
  5
10C
330
1F
100
AcDbEntity
  8
0
  6
Continuous
 62
     7
370
    25
100
AcDbSpline
210
0.0
220
0.0
230
1.0
 70
     8
 71
     3
 72
    10
 73
     6
 74
     0
 42
0.00000001
 43
0.00000001
 40
0.0
 40
0.0
 40
0.0
 40
0.0
 40
0.5
 40
0.5
 40
1.0
 40
1.0
 40
1.0
 40
1.0
 10
52.61117927195643
 20
33.17244549538584
 30
0.0
 10
52.58750387753204
 20
33.08655843358338
 30
0.0
 10
52.57441276764752
 20
32.99915122460325
 30
0.0
 10
52.57432644635924
 20
32.84651478200951
 30
0.0
 10
52.58749538030309
 20
32.78239173706393
 30
0.0
 10
52.61117927195655
 20
32.73943279349363
 30
0.0
  0
SPLINE
  5
10D
330
1F
100
AcDbEntity
  8
0
  6
Continuous
 62
     7
370
    25
100
AcDbSpline
210
0.0
220
0.0
230
1.0
 70
     8
 71
     3
 72
    10
 73
     6
 74
     0
 42
0.00000001
 43
0.00000001
 40
0.0
 40
0.0
 40
0.0
 40
0.0
 40
0.5
 40
0.5
 40
1.0
 40
1.0
 40
1.0
 40
1.0
 10
48.11095964977436
 20
42.41004980241986
 30
0.0
 10
48.13463504419875
 20
42.49593686422231
 30
0.0
 10
48.14772615408337
 20
42.58334407320242
 30
0.0
 10
48.14781247537165
 20
42.73598051579615
 30
0.0
 10
48.13464354142782
 20
42.80010356074173
 30
0.0
 10
48.11095964977436
 20
42.84306250431204
 30
0.0
  0
LINE
  5
10E
330
1F
100
AcDbEntity
  8
0
  6
Continuous
 62
     7
370
    25
100
AcDbLine
 10
48.1109596498
 20
42.8430625043
 30
0.0
 11
52.611179272
 21
42.8430625043
 31
0.0
  0
SPLINE
  5
10F
330
1F
100
AcDbEntity
  8
0
  6
Continuous
 62
     7
370
    25
100
AcDbSpline
210
0.0
220
0.0
230
1.0
 70
     8
 71
     3
 72
    10
 73
     6
 74
     0
 42
0.00000001
 43
0.00000001
 40
0.0
 40
0.0
 40
0.0
 40
0.0
 40
0.5
 40
0.5
 40
1.0
 40
1.0
 40
1.0
 40
1.0
 10
52.61117927195655
 20
42.84306250431208
 30
0.0
 10
52.58750387753216
 20
42.80011897341085
 30
0.0
 10
52.57441276764752
 20
42.73667652878672
 30
0.0
 10
52.57432644635924
 20
42.58419769166775
 30
0.0
 10
52.58749538030308
 20
42.49596768956048
 30
0.0
 10
52.61117927195655
 20
42.41004980241986
 30
0.0
  0
LINE
  5
110
330
1F
100
AcDbEntity
  8
0
  6
Continuous
 62
     7
370
    25
100
AcDbLine
 10
37.379477238
 20
37.2168157924
 30
0.0
 11
37.9868255968
 21
37.2168157924
 31
0.0
  0
ELLIPSE
  5
111
330
1F
100
AcDbEntity
  8
0
  6
Continuous
 62
     7
370
    25
100
AcDbEllipse
 10
37.6831514192
 20
38.1082401265
 30
0.0
 11
0.08480161849065837
 21
0.0
 31
0.0
210
0.0
220
0.0
230
1.0
 40
0.9533039403
 41
0.3430239404205541
 42
2.798568713169156
  0
LINE
  5
112
330
1F
100
AcDbEntity
  8
0
  6
Continuous
 62
     7
370
    25
100
AcDbLine
 10
38.0666868351
 20
37.3248475212
 30
0.0
 11
37.7630126575
 21
38.1354301384
 31
0.0
  0
ELLIPSE
  5
113
330
1F
100
AcDbEntity
  8
0
  6
Continuous
 62
     7
370
    25
100
AcDbEllipse
 10
37.9868255968
 20
37.2976575095
 30
0.0
 11
-0.08480161849066548
 21
-4.973799150320701E-14
 31
0.0
210
0.0
220
0.0
230
1.0
 40
0.9533039403
 41
1.570796326794337
 42
3.484616592149195
  0
ELLIPSE
  5
114
330
1F
100
AcDbEntity
  8
0
  6
Continuous
 62
     7
370
    25
100
AcDbEllipse
 10
37.379477238
 20
37.2976575095
 30
0.0
 11
0.08480161849065837
 21
-7.105427357601002E-15
 31
0.0
210
0.0
220
0.0
230
1.0
 40
0.9533039403
 41
2.798568711308354
 42
4.712388980384782
  0
LINE
  5
115
330
1F
100
AcDbEntity
  8
0
  6
Continuous
 62
     7
370
    25
100
AcDbLine
 10
37.6032901809
 20
38.1354301384
 30
0.0
 11
37.2996159997
 21
37.3248475215
 31
0.0
  0
SPLINE
  5
116
330
1F
100
AcDbEntity
  8
0
  6
Continuous
 62
     7
370
    25
100
AcDbSpline
210
0.0
220
0.0
230
1.0
 70
     8
 71
     3
 72
    10
 73
     6
 74
     0
 42
0.00000001
 43
0.00000001
 40
0.0
 40
0.0
 40
0.0
 40
0.0
 40
0.5
 40
0.5
 40
1.0
 40
1.0
 40
1.0
 40
1.0
 10
30.61095964977434
 20
33.17244549538583
 30
0.0
 10
30.6346335503303
 20
33.08656385287938
 30
0.0
 10
30.64772610750943
 20
32.99915464691395
 30
0.0
 10
30.64781252149171
 20
32.84651216183902
 30
0.0
 10
30.63464212989309
 20
32.78238917675665
 30
0.0
 10
30.61095964977434
 20
32.73943279349363
 30
0.0
  0
SPLINE
  5
117
330
1F
100
AcDbEntity
  8
0
  6
Continuous
 62
     7
370
    25
100
AcDbSpline
210
0.0
220
0.0
230
1.0
 70
     8
 71
     3
 72
    12
 73
     8
 74
     0
 42
0.00000001
 43
0.00000001
 40
0.0
 40
0.0
 40
0.0
 40
0.0
 40
0.2499999999999999
 40
0.2499999999999999
 40
0.4999999999999998
 40
0.4999999999999998
 40
1.0
 40
1.0
 40
1.0
 40
1.0
 10
29.93323824451415
 20
30.43003171673512
 30
0.0
 10
29.93323824451415
 20
30.62503519674091
 30
0.0
 10
29.94898457453611
 20
30.82156985576532
 30
0.0
 10
30.01042959912154
 20
31.21098954337088
 30
0.0
 10
30.05601835837527
 20
31.40447423643113
 30
0.0
 10
30.23246936063186
 20
31.98165783518673
 30
0.0
 10
30.40292706259535
 20
32.36209361696969
 30
0.0
 10
30.6109596497742
 20
32.73943279349363
 30
0.0
  0
LINE
  5
118
330
1F
100
AcDbEntity
  8
0
  6
Continuous
 62
     7
370
    25
100
AcDbLine
 10
29.9332382445
 20
37.7912476489
 30
0.0
 11
29.9332382445
 21
30.4300317167
 31
0.0
  0
SPLINE
  5
119
330
1F
100
AcDbEntity
  8
0
  6
Continuous
 62
     7
370
    25
100
AcDbSpline
210
0.0
220
0.0
230
1.0
 70
     8
 71
     3
 72
    10
 73
     6
 74
     0
 42
0.00000001
 43
0.00000001
 40
0.0
 40
0.0
 40
0.0
 40
0.0
 40
0.5
 40
0.5
 40
1.0
 40
1.0
 40
1.0
 40
1.0
 10
30.61095964977387
 20
42.84306250431204
 30
0.0
 10
30.40214972510762
 20
43.22181165170333
 30
0.0
 10
30.23161558536036
 20
43.60301692811463
 30
0.0
 10
29.99682978034145
 20
44.37224754930242
 30
0.0
 10
29.93323824451415
 20
44.76031525410074
 30
0.0
 10
29.93323824451415
 20
45.15246358107058
 30
0.0
  0
SPLINE
  5
11A
330
1F
100
AcDbEntity
  8
0
  6
Continuous
 62
     7
370
    25
100
AcDbSpline
210
0.0
220
0.0
230
1.0
 70
     8
 71
     3
 72
    10
 73
     6
 74
     0
 42
0.00000001
 43
0.00000001
 40
0.0
 40
0.0
 40
0.0
 40
0.0
 40
0.5
 40
0.5
 40
1.0
 40
1.0
 40
1.0
 40
1.0
 10
30.61095964977434
 20
42.84306250431208
 30
0.0
 10
30.6346318896859
 20
42.80012469521284
 30
0.0
 10
30.64772587962116
 20
42.73668410532064
 30
0.0
 10
30.64781274708261
 20
42.5841949598118
 30
0.0
 10
30.63464295732325
 20
42.49596557060849
 30
0.0
 10
30.61095964977434
 20
42.41004980241986
 30
0.0
  0
LINE
  5
11B
330
1F
100
AcDbEntity
  8
0
  6
Continuous
 62
     7
370
    25
100
AcDbLine
 10
29.9332382445
 20
37.7912476489
 30
0.0
 11
29.9332382445
 21
45.1524635811
 31
0.0
  0
LINE
  5
11C
330
1F
100
AcDbEntity
  8
0
  6
Continuous
 62
     7
370
    25
100
AcDbLine
 10
36.3814233891
 20
26.1133066215
 30
0.0
 11
36.3814233891
 21
29.824851109
 31
0.0
  0
SPLINE
  5
11D
330
1F
100
AcDbEntity
  8
0
  6
Continuous
 62
     7
370
    25
100
AcDbSpline
210
0.0
220
0.0
230
1.0
 70
     8
 71
     3
 72
     8
 73
     4
 74
     0
 42
0.00000001
 43
0.00000001
 40
0.0
 40
0.0
 40
0.0
 40
0.0
 40
1.0
 40
1.0
 40
1.0
 40
1.0
 10
47.55462173601031
 20
31.3811261155776
 30
0.0
 10
47.51350646036904
 20
31.51715651006715
 30
0.0
 10
47.47301747750119
 20
31.65386057470459
 30
0.0
 10
47.43323824451415
 20
31.79124764890284
 30
0.0
  0
LINE
  5
11E
330
1F
100
AcDbEntity
  8
0
  6
Continuous
 62
     7
370
    25
100
AcDbLine
 10
47.4332382445
 20
33.7912476489
 30
0.0
 11
47.4332382445
 21
31.7912476489
 31
0.0
  0
SPLINE
  5
11F
330
1F
100
AcDbEntity
  8
0
  6
Continuous
 62
     7
370
    25
100
AcDbSpline
210
0.0
220
0.0
230
1.0
 70
     8
 71
     3
 72
     8
 73
     4
 74
     0
 42
0.00000001
 43
0.00000001
 40
0.0
 40
0.0
 40
0.0
 40
0.0
 40
1.0
 40
1.0
 40
1.0
 40
1.0
 10
47.55462173601031
 20
31.3811261155776
 30
0.0
 10
47.67025434603937
 20
31.83967704763537
 30
0.0
 10
47.86414375085979
 20
32.29174664339362
 30
0.0
 10
48.11095964977419
 20
32.73943279349336
 30
0.0
  0
LINE
  5
120
330
1F
100
AcDbEntity
  8
0
  6
Continuous
 62
     7
370
    25
100
AcDbLine
 10
35.4332382445
 20
33.7912476489
 30
0.0
 11
35.4332382445
 21
31.7912476489
 31
0.0
  0
SPLINE
  5
121
330
1F
100
AcDbEntity
  8
0
  6
Continuous
 62
     7
370
    25
100
AcDbSpline
210
0.0
220
0.0
230
1.0
 70
     8
 71
     3
 72
     8
 73
     4
 74
     0
 42
0.00000001
 43
0.00000001
 40
0.0
 40
0.0
 40
0.0
 40
0.0
 40
1.0
 40
1.0
 40
1.0
 40
1.0
 10
35.43323824451415
 20
31.79124764890284
 30
0.0
 10
35.39345958632398
 20
31.65386255990274
 30
0.0
 10
35.35297062349574
 20
31.51715847809097
 30
0.0
 10
35.31185475301798
 20
31.3811261155776
 30
0.0
  0
SPLINE
  5
122
330
1F
100
AcDbEntity
  8
0
  6
Continuous
 62
     7
370
    25
100
AcDbSpline
210
0.0
220
0.0
230
1.0
 70
     8
 71
     3
 72
     8
 73
     4
 74
     0
 42
0.00000001
 43
0.00000001
 40
0.0
 40
0.0
 40
0.0
 40
0.0
 40
1.0
 40
1.0
 40
1.0
 40
1.0
 10
34.75551683925396
 20
32.73943279349363
 30
0.0
 10
35.00269062013789
 20
32.2910975004423
 30
0.0
 10
35.19641228844188
 20
31.8389230096987
 30
0.0
 10
35.31185475301798
 20
31.3811261155776
 30
0.0
  0
SPLINE
  5
123
330
1F
100
AcDbEntity
  8
0
  6
Continuous
 62
     7
370
    25
100
AcDbSpline
210
0.0
220
0.0
230
1.0
 70
     8
 71
     3
 72
    10
 73
     6
 74
     0
 42
0.00000001
 43
0.00000001
 40
0.0
 40
0.0
 40
0.0
 40
0.0
 40
0.5
 40
0.5
 40
1.0
 40
1.0
 40
1.0
 40
1.0
 10
34.7555168392539
 20
33.17244549538584
 30
0.0
 10
34.73184144482952
 20
33.08655843358338
 30
0.0
 10
34.71875033494493
 20
32.99915122460326
 30
0.0
 10
34.71866401365666
 20
32.84651478200952
 30
0.0
 10
34.73183294760049
 20
32.78239173706393
 30
0.0
 10
34.75551683925396
 20
32.73943279349363
 30
0.0
  0
SPLINE
  5
124
330
1F
100
AcDbEntity
  8
0
  6
Continuous
 62
     7
370
    25
100
AcDbSpline
210
0.0
220
0.0
230
1.0
 70
     8
 71
     3
 72
     8
 73
     4
 74
     0
 42
0.00000001
 43
0.00000001
 40
0.0
 40
0.0
 40
0.0
 40
0.0
 40
1.0
 40
1.0
 40
1.0
 40
1.0
 10
47.77580020332802
 20
30.79124764890285
 30
0.0
 10
48.09827953017729
 20
30.69953336116839
 30
0.0
 10
48.41359728650126
 20
30.60287657210048
 30
0.0
 10
48.72261442914876
 20
30.50187146426823
 30
0.0
  0
SPLINE
  5
125
330
1F
100
AcDbEntity
  8
0
  6
Continuous
 62
     7
370
    25
100
AcDbSpline
210
0.0
220
0.0
230
1.0
 70
     8
 71
     3
 72
    10
 73
     6
 74
     0
 42
0.00000001
 43
0.00000001
 40
0.0
 40
0.0
 40
0.0
 40
0.0
 40
0.5
 40
0.5
 40
1.0
 40
1.0
 40
1.0
 40
1.0
 10
46.48505309992365
 20
29.824851109048
 30
0.0
 10
46.85157104676419
 20
30.02691779459892
 30
0.0
 10
47.22065127223001
 20
30.19331056686957
 30
0.0
 10
47.96590362045742
 20
30.42735754073962
 30
0.0
 10
48.34211639240518
 20
30.49444579469845
 30
0.0
 10
48.72261442914876
 20
30.50187146426823
 30
0.0
  0
LINE
  5
126
330
1F
100
AcDbEntity
  8
0
  6
Continuous
 62
     7
370
    25
100
AcDbLine
 10
47.4332382445
 20
45.1524635811
 30
0.0
 11
47.4332382445
 21
41.7912476489
 31
0.0
  0
SPLINE
  5
127
330
1F
100
AcDbEntity
  8
0
  6
Continuous
 62
     7
370
    25
100
AcDbSpline
210
0.0
220
0.0
230
1.0
 70
     8
 71
     3
 72
    10
 73
     6
 74
     0
 42
0.00000001
 43
0.00000001
 40
0.0
 40
0.0
 40
0.0
 40
0.0
 40
0.5
 40
0.5
 40
1.0
 40
1.0
 40
1.0
 40
1.0
 10
48.11095964977435
 20
42.84306250431205
 30
0.0
 10
47.90253889695693
 20
43.22110575371421
 30
0.0
 10
47.7320750616795
 20
43.60187525851006
 30
0.0
 10
47.49709262674111
 20
44.3710237840676
 30
0.0
 10
47.43323824451415
 20
44.75945051224285
 30
0.0
 10
47.43323824451415
 20
45.15246358107058
 30
0.0
  0
SPLINE
  5
128
330
1F
100
AcDbEntity
  8
0
  6
Continuous
 62
     7
370
    25
100
AcDbSpline
210
0.0
220
0.0
230
1.0
 70
     8
 71
     3
 72
    16
 73
    12
 74
     0
 42
0.00000001
 43
0.00000001
 40
0.0
 40
0.0
 40
0.0
 40
0.0
 40
0.2500000000000001
 40
0.2500000000000001
 40
0.5000000000000001
 40
0.5000000000000001
 40
0.6250000000000001
 40
0.6250000000000001
 40
0.7500000000000002
 40
0.7500000000000002
 40
1.0
 40
1.0
 40
1.0
 40
1.0
 10
52.61117927195655
 20
47.46186465782908
 30
0.0
 10
52.8191947200623
 20
47.08455656895259
 30
0.0
 10
52.98940102503529
 20
46.70453283857839
 30
0.0
 10
53.22433705660288
 20
45.93690952316769
 30
0.0
 10
53.28840918826653
 20
45.54926270637889
 30
0.0
 10
53.28914213718755
 20
44.96094215449105
 30
0.0
 10
53.27348265710452
 20
44.7638689619354
 30
0.0
 10
53.21220753046759
 20
44.3738119843813
 30
0.0
 10
53.16665125796845
 20
44.18001908379325
 30
0.0
 10
52.99016522521219
 20
43.60193809902983
 30
0.0
 10
52.81950877172648
 20
43.22094023469501
 30
0.0
 10
52.61117927195655
 20
42.84306250431208
 30
0.0
  0
SPLINE
  5
129
330
1F
100
AcDbEntity
  8
0
  6
Continuous
 62
     7
370
    25
100
AcDbSpline
210
0.0
220
0.0
230
1.0
 70
     8
 71
     3
 72
    10
 73
     6
 74
     0
 42
0.00000001
 43
0.00000001
 40
0.0
 40
0.0
 40
0.0
 40
0.0
 40
0.1601790552921226
 40
0.7197651707803578
 40
1.0
 40
1.0
 40
1.0
 40
1.0
 10
52.57694983883963
 20
47.52414293657883
 30
0.0
 10
52.57618704874639
 20
47.52553516460519
 30
0.0
 10
52.57275944867265
 20
47.53179114633352
 30
0.0
 10
52.58726691347096
 20
47.50528388160561
 30
0.0
 10
52.60519646658878
 20
47.47272802646045
 30
0.0
 10
52.61117927195655
 20
47.46186465782908
 30
0.0
  0
SPLINE
  5
12A
330
1F
100
AcDbEntity
  8
0
  6
Continuous
 62
     7
370
    25
100
AcDbSpline
210
0.0
220
0.0
230
1.0
 70
     8
 71
     3
 72
     9
 73
     5
 74
     0
 42
0.00000001
 43
0.00000001
 40
0.0
 40
0.0
 40
0.0
 40
0.0
 40
0.5797912171256352
 40
1.0
 40
1.0
 40
1.0
 40
1.0
 10
52.61117927195655
 20
28.12063063997661
 30
0.0
 10
52.59882066861008
 20
28.09815699173549
 30
0.0
 10
52.57750505881568
 20
28.05939536931466
 30
0.0
 10
52.57711411631291
 20
28.05866096455646
 30
0.0
 10
52.57694983883964
 20
28.05835236122687
 30
0.0
  0
SPLINE
  5
12B
330
1F
100
AcDbEntity
  8
0
  6
Continuous
 62
     7
370
    25
100
AcDbSpline
210
0.0
220
0.0
230
1.0
 70
     8
 71
     3
 72
    16
 73
    12
 74
     0
 42
0.00000001
 43
0.00000001
 40
0.0
 40
0.0
 40
0.0
 40
0.0
 40
0.2500000000000001
 40
0.2500000000000001
 40
0.5000000000000002
 40
0.5000000000000002
 40
0.6250000000000001
 40
0.6250000000000001
 40
0.7500000000000001
 40
0.7500000000000001
 40
1.0
 40
1.0
 40
1.0
 40
1.0
 10
52.61117927195656
 20
32.73943279349363
 30
0.0
 10
52.8191947200623
 20
32.36212470461713
 30
0.0
 10
52.98940102503529
 20
31.98210097424292
 30
0.0
 10
53.22433705660288
 20
31.21447765883223
 30
0.0
 10
53.28840918826653
 20
30.82683084204343
 30
0.0
 10
53.28914213718755
 20
30.23851029015558
 30
0.0
 10
53.27348265710452
 20
30.04143709759994
 30
0.0
 10
53.21220753046759
 20
29.65138012004583
 30
0.0
 10
53.16665125796845
 20
29.4575872194578
 30
0.0
 10
52.99016522521218
 20
28.87950623469437
 30
0.0
 10
52.81950877172648
 20
28.49850837035955
 30
0.0
 10
52.61117927195655
 20
28.12063063997661
 30
0.0
  0
LINE
  5
12C
330
1F
100
AcDbEntity
  8
0
  6
Continuous
 62
     7
370
    25
100
AcDbLine
 10
53.4332382445
 20
46.0412476489
 30
0.0
 11
53.4332382445
 21
29.5412476489
 31
0.0
  0
LINE
  5
12D
330
1F
100
AcDbEntity
  8
0
  6
Continuous
 62
     7
370
    25
100
AcDbLine
 10
30.6109596498
 20
42.8430625043
 30
0.0
 11
34.7555168393
 21
42.8430625043
 31
0.0
  0
LINE
  5
12E
330
1F
100
AcDbEntity
  8
0
  6
Continuous
 62
     7
370
    25
100
AcDbLine
 10
34.7555168393
 20
32.7394327935
 30
0.0
 11
30.6109596498
 21
32.7394327935
 31
0.0
  0
SPLINE
  5
12F
330
1F
100
AcDbEntity
  8
0
  6
Continuous
 62
     7
370
    25
100
AcDbSpline
210
0.0
220
0.0
230
1.0
 70
     8
 71
     3
 72
    12
 73
     8
 74
     0
 42
0.00000001
 43
0.00000001
 40
0.0
 40
0.0
 40
0.0
 40
0.0
 40
0.2499999999999999
 40
0.2499999999999999
 40
0.4999999999999998
 40
0.4999999999999998
 40
1.0
 40
1.0
 40
1.0
 40
1.0
 10
47.43323824451415
 20
45.15246358107058
 30
0.0
 10
47.43323824451415
 20
45.34820584395009
 30
0.0
 10
47.44908118060311
 20
45.54487245314065
 30
0.0
 10
47.51058404084077
 20
45.93414068046894
 30
0.0
 10
47.55618768188446
 20
46.12754471342186
 30
0.0
 10
47.73263869937369
 20
46.70447376467862
 30
0.0
 10
47.90303606662554
 20
47.08472319788162
 30
0.0
 10
48.11095964977434
 20
47.46186465782908
 30
0.0
  0
LINE
  5
130
330
1F
100
AcDbEntity
  8
0
  6
Continuous
 62
     7
370
    25
100
AcDbLine
 10
52.611179272
 20
47.4618646578
 30
0.0
 11
48.1109596498
 21
47.4618646578
 31
0.0
  0
ELLIPSE
  5
131
330
1F
100
AcDbEntity
  8
0
  6
Continuous
 62
     7
370
    25
100
AcDbEllipse
 10
41.4332382445
 20
27.9762930727
 30
0.0
 11
8.5
 21
0.0
 31
0.0
210
0.0
220
0.0
230
1.0
 40
0.5773502692
 41
2.374833212873086
 42
2.530692279913059
  0
LINE
  5
132
330
1F
100
AcDbEntity
  8
0
  6
Continuous
 62
     7
370
    25
100
AcDbLine
 10
34.1438620599
 20
30.5018714643
 30
0.0
 11
31.7626212356
 21
28.12063064
 31
0.0
  0
LINE
  5
133
330
1F
100
AcDbEntity
  8
0
  6
Continuous
 62
     7
370
    25
100
AcDbLine
 10
30.6109596498
 20
28.12063064
 30
0.0
 11
31.7626212356
 21
28.12063064
 31
0.0
  0
SPLINE
  5
134
330
1F
100
AcDbEntity
  8
0
  6
Continuous
 62
     7
370
    25
100
AcDbSpline
210
0.0
220
0.0
230
1.0
 70
     8
 71
     3
 72
    10
 73
     6
 74
     0
 42
0.00000001
 43
0.00000001
 40
0.0
 40
0.0
 40
0.0
 40
0.0
 40
0.5
 40
0.5
 40
1.0
 40
1.0
 40
1.0
 40
1.0
 10
30.61095964977387
 20
28.12063063997658
 30
0.0
 10
30.40214972510762
 20
28.49937978736788
 30
0.0
 10
30.23161558536036
 20
28.88058506377918
 30
0.0
 10
29.99682978034145
 20
29.64981568496695
 30
0.0
 10
29.93323824451415
 20
30.03788338976528
 30
0.0
 10
29.93323824451415
 20
30.43003171673512
 30
0.0
  0
ELLIPSE
  5
135
330
1F
100
AcDbEntity
  8
0
  6
Continuous
 62
     7
370
    25
100
AcDbEllipse
 10
41.4332382445
 20
27.9762930727
 30
0.0
 11
8.5
 21
0.0
 31
0.0
210
0.0
220
0.0
230
1.0
 40
0.5773502692
 41
0.6109003736767338
 42
0.766759440716708
  0
LINE
  5
136
330
1F
100
AcDbEntity
  8
0
  6
Continuous
 62
     7
370
    25
100
AcDbLine
 10
51.1038552534
 20
28.12063064
 30
0.0
 11
52.611179272
 21
28.12063064
 31
0.0
  0
LINE
  5
137
330
1F
100
AcDbEntity
  8
0
  6
Continuous
 62
     7
370
    25
100
AcDbLine
 10
51.1038552534
 20
28.12063064
 30
0.0
 11
48.7226144291
 21
30.5018714643
 31
0.0
  0
LINE
  5
138
330
1F
100
AcDbEntity
  8
0
  6
Continuous
 62
     7
370
    25
100
AcDbLine
 10
51.1038552534
 20
26.1133066215
 30
0.0
 11
51.1038552534
 21
28.12063064
 31
0.0
  0
LINE
  5
139
330
1F
100
AcDbEntity
  8
0
  6
Continuous
 62
     7
370
    25
100
AcDbLine
 10
31.7626212356
 20
28.12063064
 30
0.0
 11
31.7626212356
 21
26.1133066215
 31
0.0
  0
SPLINE
  5
13A
330
1F
100
AcDbEntity
  8
0
  6
Continuous
 62
     7
370
    25
100
AcDbSpline
210
0.0
220
0.0
230
1.0
 70
     8
 71
     3
 72
    12
 73
     8
 74
     0
 42
0.00000001
 43
0.00000001
 40
0.0
 40
0.0
 40
0.0
 40
0.0
 40
0.2499999999999999
 40
0.2499999999999999
 40
0.5
 40
0.5
 40
1.0
 40
1.0
 40
1.0
 40
1.0
 10
29.93323824451415
 20
45.15246358107058
 30
0.0
 10
29.93323824451415
 20
45.34746706107637
 30
0.0
 10
29.94898457453611
 20
45.54400172010079
 30
0.0
 10
30.01042959912154
 20
45.93342140770633
 30
0.0
 10
30.05601835837527
 20
46.12690610076659
 30
0.0
 10
30.23246936063186
 20
46.70408969952219
 30
0.0
 10
30.40292706259536
 20
47.08452548130516
 30
0.0
 10
30.61095964977419
 20
47.4618646578291
 30
0.0
  0
LINE
  5
13B
330
1F
100
AcDbEntity
  8
0
  6
Continuous
 62
     7
370
    25
100
AcDbLine
 10
34.7555168393
 20
47.4618646578
 30
0.0
 11
30.6109596498
 21
47.4618646578
 31
0.0
  0
SPLINE
  5
13C
330
1F
100
AcDbEntity
  8
0
  6
Continuous
 62
     7
370
    25
100
AcDbSpline
210
0.0
220
0.0
230
1.0
 70
     8
 71
     3
 72
    10
 73
     6
 74
     0
 42
0.00000001
 43
0.00000001
 40
0.0
 40
0.0
 40
0.0
 40
0.0
 40
0.5
 40
0.5
 40
1.0
 40
1.0
 40
1.0
 40
1.0
 10
34.75551683925394
 20
47.4618646578291
 30
0.0
 10
34.96393759207137
 20
47.08382140842694
 30
0.0
 10
35.13440142734881
 20
46.7030519036311
 30
0.0
 10
35.36938386228719
 20
45.93390337807355
 30
0.0
 10
35.43323824451415
 20
45.54547664989831
 30
0.0
 10
35.43323824451415
 20
45.15246358107058
 30
0.0
  0
LINE
  5
13D
330
1F
100
AcDbEntity
  8
0
  6
Continuous
 62
     7
370
    25
100
AcDbLine
 10
47.4332382445
 20
31.7912476489
 30
0.0
 11
45.4332382445
 21
33.7912476489
 31
0.0
  0
LINE
  5
13E
330
1F
100
AcDbEntity
  8
0
  6
Continuous
 62
     7
370
    25
100
AcDbLine
 10
45.4332382445
 20
30.7912476489
 30
0.0
 11
48.3958593172
 21
30.7912476489
 31
0.0
  0
LINE
  5
13F
330
1F
100
AcDbEntity
  8
0
  6
Continuous
 62
     7
370
    25
100
AcDbLine
 10
37.4332382445
 20
33.7912476489
 30
0.0
 11
35.4332382445
 21
31.7912476489
 31
0.0
  0
LINE
  5
140
330
1F
100
AcDbEntity
  8
0
  6
Continuous
 62
     7
370
    25
100
AcDbLine
 10
34.4706171719
 20
30.7912476489
 30
0.0
 11
37.4332382445
 21
30.7912476489
 31
0.0
  0
LINE
  5
141
330
1F
100
AcDbEntity
  8
0
  6
Continuous
 62
     7
370
    25
100
AcDbLine
 10
35.4332382445
 20
45.7257021271
 30
0.0
 11
35.4332382445
 21
45.1524635811
 31
0.0
  0
SPLINE
  5
142
330
1F
100
AcDbEntity
  8
0
  6
Continuous
 62
     7
370
    25
100
AcDbSpline
210
0.0
220
0.0
230
1.0
 70
     8
 71
     3
 72
    32
 73
    28
 74
     0
 42
0.00000001
 43
0.00000001
 40
0.0
 40
0.0
 40
0.0
 40
0.0
 40
0.0625000000000001
 40
0.0625000000000001
 40
0.1250000000000001
 40
0.1250000000000001
 40
0.1875000000000002
 40
0.1875000000000002
 40
0.2500000000000003
 40
0.2500000000000003
 40
0.3750000000000003
 40
0.3750000000000003
 40
0.4375000000000003
 40
0.4375000000000003
 40
0.5000000000000002
 40
0.5000000000000002
 40
0.5625000000000002
 40
0.5625000000000002
 40
0.6250000000000001
 40
0.6250000000000001
 40
0.7500000000000001
 40
0.7500000000000001
 40
0.8750000000000002
 40
0.8750000000000002
 40
0.9375000000000001
 40
0.9375000000000001
 40
1.0
 40
1.0
 40
1.0
 40
1.0
 10
47.43323824450567
 20
45.7257021271235
 30
0.0
 10
47.27638190858879
 20
45.63074514922781
 30
0.0
 10
47.10338347443315
 20
45.52799197460263
 30
0.0
 10
46.72667888780735
 20
45.31128077295435
 30
0.0
 10
46.52382610735066
 20
45.19786206246435
 30
0.0
 10
46.09784484454806
 20
44.96977192576617
 30
0.0
 10
45.87366688426004
 20
44.85446504331432
 30
0.0
 10
45.40231579068365
 20
44.62614194093954
 30
0.0
 10
45.15363027531856
 20
44.51249192480579
 30
0.0
 10
44.38305779062691
 20
44.18942789357175
 30
0.0
 10
43.83742038054474
 20
43.99652936940824
 30
0.0
 10
42.95464063204841
 20
43.78493544413455
 30
0.0
 10
42.65600153217556
 20
43.7292930580168
 30
0.0
 10
42.04949993145979
 20
43.65362498865296
 30
0.0
 10
41.73935269279387
 20
43.63365174287664
 30
0.0
 10
41.11926720411009
 20
43.6339855091299
 30
0.0
 10
40.81269616664206
 20
43.65398447445268
 30
0.0
 10
40.20604141933387
 20
43.73002326064915
 30
0.0
 10
39.90366835470856
 20
43.7866763607807
 30
0.0
 10
39.02703205195561
 20
43.99745491082655
 30
0.0
 10
38.4789779199787
 20
44.1910007413983
 30
0.0
 10
37.44848065273541
 20
44.62362003467409
 30
0.0
 10
36.98092061745595
 20
44.85609667936451
 30
0.0
 10
36.34270701382802
 20
45.19783468028356
 30
0.0
 10
36.13949727563818
 20
45.31145219571195
 30
0.0
 10
35.76316034924375
 20
45.52795458806818
 30
0.0
 10
35.59018174075225
 20
45.63069238451258
 30
0.0
 10
35.43323824451416
 20
45.72570212712866
 30
0.0
  0
LINE
  5
143
330
1F
100
AcDbEntity
  8
0
  6
Continuous
 62
     7
370
    25
100
AcDbLine
 10
47.4332382445
 20
45.7257021271
 30
0.0
 11
47.4332382445
 21
45.1524635811
 31
0.0
  0
SPLINE
  5
144
330
1F
100
AcDbEntity
  8
0
  6
Continuous
 62
     7
370
    25
100
AcDbSpline
210
0.0
220
0.0
230
1.0
 70
     8
 71
     3
 72
    11
 73
     7
 74
     0
 42
0.00000001
 43
0.00000001
 40
0.0
 40
0.0
 40
0.0
 40
0.0
 40
0.0860363962994498
 40
0.3126240132839471
 40
0.544481681962628
 40
1.0
 40
1.0
 40
1.0
 40
1.0
 10
47.60658543198117
 20
46.58414924260397
 30
0.0
 10
47.60777424900127
 20
46.58816286814233
 30
0.0
 10
47.61209396442255
 20
46.60274687883533
 30
0.0
 10
47.5809144561028
 20
46.49619065473306
 30
0.0
 10
47.49848684719495
 20
46.21564272287409
 30
0.0
 10
47.45924409091992
 20
45.92097557908223
 30
0.0
 10
47.43323824451415
 20
45.72570212712152
 30
0.0
  0
SPLINE
  5
145
330
1F
100
AcDbEntity
  8
0
  6
Continuous
 62
     7
370
    25
100
AcDbSpline
210
0.0
220
0.0
230
1.0
 70
     8
 71
     3
 72
    11
 73
     7
 74
     0
 42
0.00000001
 43
0.00000001
 40
0.0
 40
0.0
 40
0.0
 40
0.0
 40
0.3176320446803731
 40
0.6359512136117157
 40
0.8656776221213547
 40
0.9999999999999999
 40
0.9999999999999999
 40
0.9999999999999999
 40
0.9999999999999999
 10
35.43323824451415
 20
45.72570212712856
 30
0.0
 10
35.41959950185866
 20
45.85696670864116
 30
0.0
 10
35.39229251224864
 20
46.11977983255368
 30
0.0
 10
35.30428766517469
 20
46.43142502839829
 30
0.0
 10
35.25972691108667
 20
46.58517283120647
 30
0.0
 10
35.26007583352204
 20
46.58365874412163
 30
0.0
 10
35.26020457475938
 20
46.58310009433303
 30
0.0
  0
LINE
  5
146
330
1F
100
AcDbEntity
  8
0
  6
Continuous
 62
     7
370
    25
100
AcDbLine
 10
34.9332382445
 20
14.5412476489
 30
0.0
 11
47.9332382445
 21
14.5412476489
 31
0.0
  0
LINE
  5
147
330
1F
100
AcDbEntity
  8
0
  6
Continuous
 62
     7
370
    25
100
AcDbLine
 10
47.6832382445
 20
14.2912476489
 30
0.0
 11
35.1832382445
 21
14.2912476489
 31
0.0
  0
SPLINE
  5
148
330
1F
100
AcDbEntity
  8
0
  6
Continuous
 62
     7
370
    25
100
AcDbSpline
210
0.0
220
0.0
230
1.0
 70
     8
 71
     3
 72
    10
 73
     6
 74
     0
 42
0.00000001
 43
0.00000001
 40
0.0
 40
0.0
 40
0.0
 40
0.0
 40
0.1601790552921523
 40
0.7197651707804853
 40
1.0
 40
1.0
 40
1.0
 40
1.0
 10
34.72128740613704
 20
47.52414293657883
 30
0.0
 10
34.7205246160438
 20
47.52553516460519
 30
0.0
 10
34.71709701597007
 20
47.53179114633352
 30
0.0
 10
34.73160448076835
 20
47.50528388160561
 30
0.0
 10
34.74953403388619
 20
47.47272802646047
 30
0.0
 10
34.75551683925394
 20
47.4618646578291
 30
0.0
  0
SPLINE
  5
149
330
1F
100
AcDbEntity
  8
0
  6
Continuous
 62
     7
370
    25
100
AcDbSpline
210
0.0
220
0.0
230
1.0
 70
     8
 71
     3
 72
    10
 73
     6
 74
     0
 42
0.00000001
 43
0.00000001
 40
0.0
 40
0.0
 40
0.0
 40
0.0
 40
0.1593935212994522
 40
0.7189934545690309
 40
1.0
 40
1.0
 40
1.0
 40
1.0
 10
30.64519663935179
 20
47.52415673729554
 30
0.0
 10
30.64595816634924
 20
47.52554665612216
 30
0.0
 10
30.64939326786516
 20
47.5318163120691
 30
0.0
 10
30.63489864539867
 20
47.5053323702453
 30
0.0
 10
30.61695727490596
 20
47.47275496619843
 30
0.0
 10
30.61095964977434
 20
47.46186465782908
 30
0.0
  0
LINE
  5
14A
330
1F
100
AcDbEntity
  8
0
  6
Continuous
 62
     7
370
    25
100
AcDbLine
 10
29.9332382445
 20
46.2912476489
 30
0.0
 11
29.9332382445
 21
45.1524635811
 31
0.0
  0
SPLINE
  5
14B
330
1F
100
AcDbEntity
  8
0
  6
Continuous
 62
     7
370
    25
100
AcDbSpline
210
0.0
220
0.0
230
1.0
 70
     8
 71
     3
 72
     9
 73
     5
 74
     0
 42
0.00000001
 43
0.00000001
 40
0.0
 40
0.0
 40
0.0
 40
0.0
 40
0.5797912171256431
 40
1.0
 40
1.0
 40
1.0
 40
1.0
 10
48.11095964977434
 20
47.46186465782908
 30
0.0
 10
48.12331825312081
 20
47.48433830607022
 30
0.0
 10
48.14463386291521
 20
47.52309992849104
 30
0.0
 10
48.14502480541799
 20
47.52383433324925
 30
0.0
 10
48.14518908289126
 20
47.52414293657883
 30
0.0
  0
SPLINE
  5
14C
330
1F
100
AcDbEntity
  8
0
  6
Continuous
 62
     7
370
    25
100
AcDbSpline
210
0.0
220
0.0
230
1.0
 70
     8
 71
     3
 72
     9
 73
     5
 74
     0
 42
0.00000001
 43
0.00000001
 40
0.0
 40
0.0
 40
0.0
 40
0.0
 40
0.5789479223839474
 40
0.9999999999999999
 40
0.9999999999999999
 40
0.9999999999999999
 40
0.9999999999999999
 10
30.61095964977434
 20
28.12063063997661
 30
0.0
 10
30.6233005400886
 20
28.09818927278424
 30
0.0
 10
30.64461660296251
 20
28.05942694835969
 30
0.0
 10
30.64502477687705
 20
28.05866104550033
 30
0.0
 10
30.64519663935179
 20
28.05833856051015
 30
0.0
  0
LINE
  5
14D
330
1F
100
AcDbEntity
  8
0
  6
Continuous
 62
     7
370
    25
100
AcDbLine
 10
29.9332382445
 20
30.4300317167
 30
0.0
 11
29.9332382445
 21
29.2912476489
 31
0.0
  0
LINE
  5
14E
330
1F
100
AcDbEntity
  8
0
  6
Continuous
 62
     7
370
    25
100
AcDbLine
 10
51.1708425515
 20
28.0536433419
 30
0.0
 11
51.1038552534
 21
28.12063064
 31
0.0
  0
LINE
  5
14F
330
1F
100
AcDbEntity
  8
0
  6
Continuous
 62
     7
370
    25
100
AcDbLine
 10
31.7626212356
 20
28.12063064
 30
0.0
 11
31.6956339375
 21
28.0536433419
 31
0.0
  0
SPLINE
  5
150
330
1F
100
AcDbEntity
  8
0
  6
Continuous
 62
     7
370
    25
100
AcDbSpline
210
0.0
220
0.0
230
1.0
 70
     8
 71
     3
 72
    30
 73
    26
 74
     0
 42
0.00000001
 43
0.00000001
 40
0.0
 40
0.0
 40
0.0
 40
0.0
 40
0.011031317132675
 40
0.0532778434419446
 40
0.0955515084765635
 40
0.1522059951026216
 40
0.2089601529091862
 40
0.2161896828175988
 40
0.2769259829372577
 40
0.3376615092955
 40
0.3847651704219074
 40
0.4317740750164392
 40
0.4687729703882063
 40
0.5057331259740514
 40
0.5426512028344946
 40
0.5796183571863311
 40
0.6291536333188908
 40
0.6787806614718893
 40
0.7318164762876327
 40
0.7848436076713244
 40
0.8294826853977961
 40
0.8740869628928788
 40
0.9165674688998617
 40
0.9590129663105244
 40
1.0
 40
1.0
 40
1.0
 40
1.0
 10
35.53323824451414
 20
47.29124764890285
 30
0.0
 10
35.53406229186039
 20
47.29054981700514
 30
0.0
 10
35.53804218519259
 20
47.28717950517855
 30
0.0
 10
35.60882389412181
 20
47.22682986157321
 30
0.0
 10
35.83011262422107
 20
47.04129976591529
 30
0.0
 10
36.22067563961757
 20
46.72075382097365
 30
0.0
 10
36.6239177257038
 20
46.40707691743332
 30
0.0
 10
37.09073196479268
 20
46.06068762954339
 30
0.0
 10
37.62635979887072
 20
45.68026268253996
 30
0.0
 10
38.44211017687324
 20
45.18223913227931
 30
0.0
 10
39.28366998263765
 20
44.77012125920544
 30
0.0
 10
40.0670769012646
 20
44.4931221429906
 30
0.0
 10
40.84006177836852
 20
44.34170499052799
 30
0.0
 10
41.57065208264692
 20
44.30355551999492
 30
0.0
 10
42.29537454509293
 20
44.3828874164252
 30
0.0
 10
43.06874413485068
 20
44.57539059971857
 30
0.0
 10
43.85913910335161
 20
44.89255019242722
 30
0.0
 10
44.65594306103275
 20
45.3178282319033
 30
0.0
 10
45.38331250795844
 20
45.78029092227753
 30
0.0
 10
45.99750996050066
 20
46.22069720486266
 30
0.0
 10
46.49099474901805
 20
46.59917885918995
 30
0.0
 10
46.86596932104732
 20
46.90087045026232
 30
0.0
 10
47.13649249055666
 20
47.12474275585446
 30
0.0
 10
47.30766369389087
 20
47.26952771190975
 30
0.0
 10
47.32307539345558
 20
47.2825434489999
 30
0.0
 10
47.33064653915788
 20
47.28893755508266
 30
0.0
  0
LINE
  5
151
330
1F
100
AcDbEntity
  8
0
  6
Continuous
 62
     7
370
    18
100
AcDbLine
 10
26.9332382445
 20
42.0712476489
 30
0.0
 11
16.9332382445
 21
42.0712476489
 31
0.0
  0
LINE
  5
152
330
1F
100
AcDbEntity
  8
0
  6
Continuous
 62
     7
370
    18
100
AcDbLine
 10
16.9332382445
 20
33.5112476489
 30
0.0
 11
26.9332382445
 21
33.5112476489
 31
0.0
  0
LINE
  5
153
330
1F
100
AcDbEntity
  8
0
  6
CENTERX2
 62
     7
370
    18
100
AcDbLine
 10
41.4332382445
 20
67.2009334926
 30
0.0
 11
41.4332382445
 21
10.6433048131
 31
0.0
  0
LINE
  5
154
330
1F
100
AcDbEntity
  8
0
  6
CENTERX2
 62
     7
370
    18
100
AcDbLine
 10
13.7307909332
 20
37.7912476489
 30
0.0
 11
57.3414925656
 21
37.7912476489
 31
0.0
  0
LINE
  5
155
330
1F
100
AcDbEntity
  8
0
  6
Continuous
 62
     7
370
    25
100
AcDbLine
 10
27.1332382445
 20
101.1766637488
 30
0.0
 11
26.9332382445
 21
100.9766637488
 31
0.0
  0
LINE
  5
156
330
1F
100
AcDbEntity
  8
0
  6
Continuous
 62
     7
370
    25
100
AcDbLine
 10
26.9332382445
 20
85.3766637488
 30
0.0
 11
27.1332382445
 21
85.1766637488
 31
0.0
  0
LINE
  5
157
330
1F
100
AcDbEntity
  8
0
  6
Continuous
 62
     7
370
    25
100
AcDbLine
 10
29.9332382445
 20
101.1766637488
 30
0.0
 11
27.1332382445
 21
101.1766637488
 31
0.0
  0
LINE
  5
158
330
1F
100
AcDbEntity
  8
0
  6
Continuous
 62
     7
370
    25
100
AcDbLine
 10
27.1332382445
 20
85.1766637488
 30
0.0
 11
29.9332382445
 21
85.1766637488
 31
0.0
  0
LINE
  5
159
330
1F
100
AcDbEntity
  8
0
  6
Continuous
 62
     7
370
    25
100
AcDbLine
 10
17.4332382445
 20
98.0406637488
 30
0.0
 11
16.9332382445
 21
97.5406637488
 31
0.0
  0
LINE
  5
15A
330
1F
100
AcDbEntity
  8
0
  6
Continuous
 62
     7
370
    25
100
AcDbLine
 10
16.9332382445
 20
88.8126637488
 30
0.0
 11
17.4332382445
 21
88.3126637488
 31
0.0
  0
LINE
  5
15B
330
1F
100
AcDbEntity
  8
0
  6
Continuous
 62
     7
370
    25
100
AcDbLine
 10
26.9332382445
 20
98.0406637488
 30
0.0
 11
17.4332382445
 21
98.0406637488
 31
0.0
  0
LINE
  5
15C
330
1F
100
AcDbEntity
  8
0
  6
Continuous
 62
     7
370
    25
100
AcDbLine
 10
17.4332382445
 20
88.3126637488
 30
0.0
 11
26.9332382445
 21
88.3126637488
 31
0.0
  0
LINE
  5
15D
330
1F
100
AcDbEntity
  8
0
  6
Continuous
 62
     7
370
    25
100
AcDbLine
 10
53.2889006772
 20
84.6766637488
 30
0.0
 11
53.4332382445
 21
84.9266637488
 31
0.0
  0
LINE
  5
15E
330
1F
100
AcDbEntity
  8
0
  6
Continuous
 62
     7
370
    25
100
AcDbLine
 10
53.4332382445
 20
101.4266637488
 30
0.0
 11
53.2889006772
 21
101.6766637488
 31
0.0
  0
LINE
  5
15F
330
1F
100
AcDbEntity
  8
0
  6
Continuous
 62
     7
370
    25
100
AcDbLine
 10
61.4332382445
 20
89.9049644847
 30
0.0
 11
63.6086751061
 21
89.6766637488
 31
0.0
  0
LINE
  5
160
330
1F
100
AcDbEntity
  8
0
  6
Continuous
 62
     7
370
    25
100
AcDbLine
 10
61.4332382445
 20
96.4483630129
 30
0.0
 11
61.4332382445
 21
89.9049644847
 31
0.0
  0
LINE
  5
161
330
1F
100
AcDbEntity
  8
0
  6
Continuous
 62
     7
370
    25
100
AcDbLine
 10
81.4332382445
 20
96.6766637488
 30
0.0
 11
63.6086751061
 21
96.6766637488
 31
0.0
  0
LINE
  5
162
330
1F
100
AcDbEntity
  8
0
  6
Continuous
 62
     7
370
    25
100
AcDbLine
 10
81.4332382445
 20
89.6766637488
 30
0.0
 11
81.4332382445
 21
96.6766637488
 31
0.0
  0
LINE
  5
163
330
1F
100
AcDbEntity
  8
0
  6
Continuous
 62
     7
370
    25
100
AcDbLine
 10
63.6086751061
 20
89.6766637488
 30
0.0
 11
81.4332382445
 21
89.6766637488
 31
0.0
  0
LINE
  5
164
330
1F
100
AcDbEntity
  8
0
  6
Continuous
 62
     7
370
    25
100
AcDbLine
 10
63.6086751061
 20
96.6766637488
 30
0.0
 11
61.4332382445
 21
96.4483630129
 31
0.0
  0
LINE
  5
165
330
1F
100
AcDbEntity
  8
0
  6
Continuous
 62
     7
370
    25
100
AcDbLine
 10
46.6570404189
 20
91.455649268
 30
0.0
 11
46.7536047362
 21
91.6150485882
 31
0.0
  0
LINE
  5
166
330
1F
100
AcDbEntity
  8
0
  6
Continuous
 62
     7
370
    25
100
AcDbLine
 10
46.7758821168
 20
94.7218814162
 30
0.0
 11
46.6570404189
 21
94.8976782296
 31
0.0
  0
LINE
  5
167
330
1F
100
AcDbEntity
  8
0
  6
Continuous
 62
     7
370
    25
100
AcDbLine
 10
54.8498078981
 20
90.5958611132
 30
0.0
 11
54.8498078981
 21
95.7574663844
 31
0.0
  0
LINE
  5
168
330
1F
100
AcDbEntity
  8
0
  6
Continuous
 62
     7
370
    25
100
AcDbLine
 10
54.8498078981
 20
90.5958611132
 30
0.0
 11
46.6570404189
 21
91.455649268
 31
0.0
  0
LINE
  5
169
330
1F
100
AcDbEntity
  8
0
  6
Continuous
 62
     7
370
    25
100
AcDbLine
 10
46.6570404189
 20
94.8976782296
 30
0.0
 11
54.8498078981
 21
95.7574663844
 31
0.0
  0
LINE
  5
16A
330
1F
100
AcDbEntity
  8
0
  6
Continuous
 62
     7
370
    25
100
AcDbLine
 10
61.4332382445
 20
89.9049644847
 30
0.0
 11
54.8498078981
 21
90.5958611132
 31
0.0
  0
LINE
  5
16B
330
1F
100
AcDbEntity
  8
0
  6
Continuous
 62
     7
370
    25
100
AcDbLine
 10
54.8498078981
 20
95.7574663844
 30
0.0
 11
61.4332382445
 21
96.4483630129
 31
0.0
  0
ARC
  5
16C
330
1F
100
AcDbEntity
  8
0
  6
Continuous
 62
     7
370
    25
100
AcDbCircle
 10
41.4332382445
 20
93.1766637488
 30
0.0
 40
7.450000000000653
100
AcDbArc
 50
53.0863788866
 51
306.9136211134
  0
ARC
  5
16D
330
1F
100
AcDbEntity
  8
0
  6
Continuous
 62
     7
370
    25
100
AcDbCircle
 10
41.4332382445
 20
93.1766637488
 30
0.0
 40
7.207531252870774
100
AcDbArc
 50
15.3041237151
 51
58.9797515565
  0
ARC
  5
16E
330
1F
100
AcDbEntity
  8
0
  6
Continuous
 62
     7
370
    25
100
AcDbCircle
 10
41.4332382445
 20
93.1766637488
 30
0.0
 40
7.20753125287243
100
AcDbArc
 50
301.0202484435
 51
344.6958762849
  0
ARC
  5
16F
330
1F
100
AcDbEntity
  8
0
  6
Continuous
 62
     7
370
    25
100
AcDbCircle
 10
63.6086751061
 20
161.6766637488
 30
0.0
 40
65.0
100
AcDbArc
 50
253.4999050078
 51
270.0
  0
ARC
  5
170
330
1F
100
AcDbEntity
  8
0
  6
Continuous
 62
     7
370
    25
100
AcDbCircle
 10
63.6086751061
 20
24.6766637488
 30
0.0
 40
64.99999999999999
100
AcDbArc
 50
90.0
 51
106.5000949923
  0
SPLINE
  5
171
330
1F
100
AcDbEntity
  8
0
  6
Continuous
 62
     7
370
    25
100
AcDbSpline
210
0.0
220
0.0
230
1.0
 70
     8
 71
     3
 72
    15
 73
    11
 74
     0
 42
0.00000001
 43
0.00000001
 40
0.0
 40
0.0
 40
0.0
 40
0.0
 40
0.0081667445812695
 40
0.3321939991490078
 40
0.4756279600585578
 40
0.6866830973284903
 40
0.8457435502264812
 40
0.8967566214763185
 40
0.9909540928118028
 40
1.0
 40
1.0
 40
1.0
 40
1.0
 10
46.53225775810693
 20
94.42666374879963
 30
0.0
 10
46.53274529224982
 20
94.42810121173864
 30
0.0
 10
46.55257643978191
 20
94.48657206969034
 30
0.0
 10
46.58085721979116
 20
94.57099724740984
 30
0.0
 10
46.61868651827999
 20
94.68557631943229
 30
0.0
 10
46.64527041484749
 20
94.76694720662887
 30
0.0
 10
46.66244023860246
 20
94.81996619863054
 30
0.0
 10
46.67025723481891
 20
94.84416813047469
 30
0.0
 10
46.6722529212548
 20
94.85035775114086
 30
0.0
 10
46.67231788520559
 20
94.85055914655342
 30
0.0
 10
46.67232357717226
 20
94.85057679227789
 30
0.0
  0
ARC
  5
172
330
1F
100
AcDbEntity
  8
0
  6
Continuous
 62
     7
370
    25
100
AcDbCircle
 10
41.4332382445
 20
93.1766637488
 30
0.0
 40
5.249999999999998
100
AcDbArc
 50
13.774146998
 51
166.225853002
  0
SPLINE
  5
173
330
1F
100
AcDbEntity
  8
0
  6
Continuous
 62
     7
370
    25
100
AcDbSpline
210
0.0
220
0.0
230
1.0
 70
     8
 71
     3
 72
    15
 73
    11
 74
     0
 42
0.00000001
 43
0.00000001
 40
0.0
 40
0.0
 40
0.0
 40
0.0
 40
0.0090459071881971
 40
0.1032433785236874
 40
0.1542564497735246
 40
0.313316902671511
 40
0.5243720399414428
 40
0.6678060008509903
 40
0.9918332554187292
 40
1.0
 40
1.0
 40
1.0
 40
1.0
 10
36.19415291185604
 20
94.85057679227788
 30
0.0
 10
36.19415860382271
 20
94.85055914655342
 30
0.0
 10
36.19422356777349
 20
94.85035775114086
 30
0.0
 10
36.19621925420938
 20
94.84416813047469
 30
0.0
 10
36.20403625042584
 20
94.81996619863054
 30
0.0
 10
36.22120607418082
 20
94.76694720662887
 30
0.0
 10
36.2477899707483
 20
94.68557631943229
 30
0.0
 10
36.28561926923714
 20
94.57099724740984
 30
0.0
 10
36.31390004924639
 20
94.48657206969035
 30
0.0
 10
36.33373119677848
 20
94.42810121173862
 30
0.0
 10
36.33421873092136
 20
94.42666374879961
 30
0.0
  0
ARC
  5
174
330
1F
100
AcDbEntity
  8
0
  6
Continuous
 62
     7
370
    25
100
AcDbCircle
 10
41.4332382445
 20
93.1766637488
 30
0.0
 40
5.499999999999997
100
AcDbArc
 50
17.7189318734
 51
162.2810681266
  0
SPLINE
  5
175
330
1F
100
AcDbEntity
  8
0
  6
Continuous
 62
     7
370
    25
100
AcDbSpline
210
0.0
220
0.0
230
1.0
 70
     8
 71
     3
 72
    15
 73
    11
 74
     0
 42
0.00000001
 43
0.00000001
 40
0.0
 40
0.0
 40
0.0
 40
0.0
 40
0.0090459071881971
 40
0.1032433785236816
 40
0.1542564497735189
 40
0.31331690267151
 40
0.5243720399414428
 40
0.6678060008509183
 40
0.9918332554187028
 40
1.0
 40
1.0
 40
1.0
 40
1.0
 10
46.67232357717226
 20
91.50275070532136
 30
0.0
 10
46.67231788520559
 20
91.50276835104583
 30
0.0
 10
46.6722529212548
 20
91.50296974645838
 30
0.0
 10
46.67025723481891
 20
91.50915936712455
 30
0.0
 10
46.66244023860246
 20
91.5333612989687
 30
0.0
 10
46.6452704148475
 20
91.58638029097038
 30
0.0
 10
46.61868651827995
 20
91.66775117816695
 30
0.0
 10
46.58085721979132
 20
91.78233025018945
 30
0.0
 10
46.55257643978108
 20
91.86675542790859
 30
0.0
 10
46.53274529224981
 20
91.9252262858606
 30
0.0
 10
46.53225775810693
 20
91.92666374879963
 30
0.0
  0
SPLINE
  5
176
330
1F
100
AcDbEntity
  8
0
  6
Continuous
 62
     7
370
    25
100
AcDbSpline
210
0.0
220
0.0
230
1.0
 70
     8
 71
     3
 72
    15
 73
    11
 74
     0
 42
0.00000001
 43
0.00000001
 40
0.0
 40
0.0
 40
0.0
 40
0.0
 40
0.0080847466189582
 40
0.3310106400648247
 40
0.4750333064304952
 40
0.6874363079215144
 40
0.8468367539418304
 40
0.9000996640391848
 40
0.9910442771984082
 40
1.0
 40
1.0
 40
1.0
 40
1.0
 10
46.53225775810693
 20
91.92666374879963
 30
0.0
 10
46.53353758965105
 20
91.92584781281133
 30
0.0
 10
46.58593723537427
 20
91.89244126261681
 30
0.0
 10
46.66129232682941
 20
91.843627697883
 30
0.0
 10
46.76321143884706
 20
91.77625722561464
 30
0.0
 10
46.83560238383899
 20
91.72767318527123
 30
0.0
 10
46.8833078121038
 20
91.69522432381268
 30
0.0
 10
46.90484329581112
 20
91.6805132827464
 30
0.0
 10
46.91027231183064
 20
91.67679483182827
 30
0.0
 10
46.9104480639872
 20
91.67667453316277
 30
0.0
 10
46.91046381956581
 20
91.67666374879963
 30
0.0
  0
ARC
  5
177
330
1F
100
AcDbEntity
  8
0
  6
Continuous
 62
     7
370
    25
100
AcDbCircle
 10
46.9104638196
 20
91.4266637488
 30
0.0
 40
0.2500000000000034
100
AcDbArc
 50
90.0
 51
162.2810681266
  0
SPLINE
  5
178
330
1F
100
AcDbEntity
  8
0
  6
Continuous
 62
     7
370
    25
100
AcDbSpline
210
0.0
220
0.0
230
1.0
 70
     8
 71
     3
 72
    15
 73
    11
 74
     0
 42
0.00000001
 43
0.00000001
 40
0.0
 40
0.0
 40
0.0
 40
0.0
 40
0.0089557228015919
 40
0.0999003359608212
 40
0.1531632460581699
 40
0.3125636920784857
 40
0.5249666935695049
 40
0.6689893599351769
 40
0.991915253381045
 40
1.0
 40
1.0
 40
1.0
 40
1.0
 10
35.95601266946249
 20
91.67666374879963
 30
0.0
 10
35.95602842504109
 20
91.67667453316277
 30
0.0
 10
35.95620417719765
 20
91.67679483182827
 30
0.0
 10
35.96163319321717
 20
91.6805132827464
 30
0.0
 10
35.9831686769245
 20
91.69522432381268
 30
0.0
 10
36.03087410518931
 20
91.72767318527123
 30
0.0
 10
36.10326505018124
 20
91.77625722561466
 30
0.0
 10
36.20518416219891
 20
91.84362769788298
 30
0.0
 10
36.28053925365395
 20
91.8924412626169
 30
0.0
 10
36.33293889937724
 20
91.92584781281134
 30
0.0
 10
36.33421873092136
 20
91.92666374879963
 30
0.0
  0
SPLINE
  5
179
330
1F
100
AcDbEntity
  8
0
  6
Continuous
 62
     7
370
    25
100
AcDbSpline
210
0.0
220
0.0
230
1.0
 70
     8
 71
     3
 72
    15
 73
    11
 74
     0
 42
0.00000001
 43
0.00000001
 40
0.0
 40
0.0
 40
0.0
 40
0.0
 40
0.0081667445812973
 40
0.3321939991490807
 40
0.4756279600585565
 40
0.6866830973284899
 40
0.8457435502264806
 40
0.8967566214763123
 40
0.9909540928118028
 40
0.9999999999999999
 40
0.9999999999999999
 40
0.9999999999999999
 40
0.9999999999999999
 10
36.33421873092136
 20
91.92666374879963
 30
0.0
 10
36.33373119677849
 20
91.9252262858606
 30
0.0
 10
36.31390004924722
 20
91.86675542790859
 30
0.0
 10
36.28561926923697
 20
91.78233025018945
 30
0.0
 10
36.24778997074834
 20
91.66775117816695
 30
0.0
 10
36.22120607418081
 20
91.58638029097038
 30
0.0
 10
36.20403625042585
 20
91.53336129896871
 30
0.0
 10
36.19621925420938
 20
91.50915936712455
 30
0.0
 10
36.1942235677735
 20
91.50296974645838
 30
0.0
 10
36.19415860382271
 20
91.50276835104583
 30
0.0
 10
36.19415291185604
 20
91.50275070532136
 30
0.0
  0
ARC
  5
17A
330
1F
100
AcDbEntity
  8
0
  6
Continuous
 62
     7
370
    25
100
AcDbCircle
 10
35.9560126695
 20
91.4266637488
 30
0.0
 40
0.2500000000000034
100
AcDbArc
 50
17.7189318734
 51
90.0
  0
ARC
  5
17B
330
1F
100
AcDbEntity
  8
0
  6
Continuous
 62
     7
370
    25
100
AcDbCircle
 10
41.4332382445
 20
93.1766637488
 30
0.0
 40
5.499999999999997
100
AcDbArc
 50
197.7189318734
 51
342.2810681266
  0
ARC
  5
17C
330
1F
100
AcDbEntity
  8
0
  6
Continuous
 62
     7
370
    25
100
AcDbCircle
 10
41.4332382445
 20
93.1766637488
 30
0.0
 40
5.250000000000002
100
AcDbArc
 50
193.774146998
 51
346.225853002
  0
ARC
  5
17D
330
1F
100
AcDbEntity
  8
0
  6
Continuous
 62
     7
370
    25
100
AcDbCircle
 10
46.9104638196
 20
94.9266637488
 30
0.0
 40
0.2500000000000034
100
AcDbArc
 50
197.7189318734
 51
270.0
  0
SPLINE
  5
17E
330
1F
100
AcDbEntity
  8
0
  6
Continuous
 62
     7
370
    25
100
AcDbSpline
210
0.0
220
0.0
230
1.0
 70
     8
 71
     3
 72
    15
 73
    11
 74
     0
 42
0.00000001
 43
0.00000001
 40
0.0
 40
0.0
 40
0.0
 40
0.0
 40
0.0089557228015919
 40
0.0999003359608148
 40
0.153163246058169
 40
0.3125636920784848
 40
0.5249666935694999
 40
0.6689893599352451
 40
0.9919152533810159
 40
1.0
 40
1.0
 40
1.0
 40
1.0
 10
46.91046381956581
 20
94.67666374879963
 30
0.0
 10
46.9104480639872
 20
94.67665296443647
 30
0.0
 10
46.91027231183064
 20
94.67653266577096
 30
0.0
 10
46.90484329581112
 20
94.67281421485283
 30
0.0
 10
46.88330781210381
 20
94.65810317378657
 30
0.0
 10
46.83560238383898
 20
94.62565431232802
 30
0.0
 10
46.76321143884707
 20
94.57707027198454
 30
0.0
 10
46.6612923268293
 20
94.50969979971639
 30
0.0
 10
46.58593723537482
 20
94.46088623498161
 30
0.0
 10
46.53353758965107
 20
94.4274796847879
 30
0.0
 10
46.53225775810693
 20
94.42666374879963
 30
0.0
  0
ARC
  5
17F
330
1F
100
AcDbEntity
  8
0
  6
Continuous
 62
     7
370
    25
100
AcDbCircle
 10
35.9560126695
 20
94.9266637488
 30
0.0
 40
0.2500000000000034
100
AcDbArc
 50
270.0
 51
342.2810681266
  0
SPLINE
  5
180
330
1F
100
AcDbEntity
  8
0
  6
Continuous
 62
     7
370
    25
100
AcDbSpline
210
0.0
220
0.0
230
1.0
 70
     8
 71
     3
 72
    15
 73
    11
 74
     0
 42
0.00000001
 43
0.00000001
 40
0.0
 40
0.0
 40
0.0
 40
0.0
 40
0.0080847466189818
 40
0.3310106400647564
 40
0.4750333064304971
 40
0.6874363079215139
 40
0.8468367539418258
 40
0.9000996640391854
 40
0.9910442771984082
 40
1.0
 40
1.0
 40
1.0
 40
1.0
 10
36.33421873092136
 20
94.42666374879961
 30
0.0
 10
36.33293889937722
 20
94.42747968478788
 30
0.0
 10
36.28053925365344
 20
94.46088623498153
 30
0.0
 10
36.20518416219901
 20
94.5096997997164
 30
0.0
 10
36.10326505018121
 20
94.57707027198454
 30
0.0
 10
36.03087410518932
 20
94.62565431232802
 30
0.0
 10
35.98316867692449
 20
94.65810317378657
 30
0.0
 10
35.96163319321717
 20
94.67281421485283
 30
0.0
 10
35.95620417719766
 20
94.67653266577096
 30
0.0
 10
35.95602842504109
 20
94.67665296443647
 30
0.0
 10
35.95601266946249
 20
94.67666374879961
 30
0.0
  0
LINE
  5
181
330
1F
100
AcDbEntity
  8
0
  6
Continuous
 62
     7
370
    25
100
AcDbLine
 10
46.4332382445
 20
93.7766637488
 30
0.0
 11
36.4332382445
 21
93.7766637488
 31
0.0
  0
LINE
  5
182
330
1F
100
AcDbEntity
  8
0
  6
Continuous
 62
     7
370
    25
100
AcDbLine
 10
36.4332382445
 20
92.5766637488
 30
0.0
 11
46.4332382445
 21
92.5766637488
 31
0.0
  0
LINE
  5
183
330
1F
100
AcDbEntity
  8
0
  6
Continuous
 62
     7
370
    25
100
AcDbLine
 10
36.4332382445
 20
93.7766637488
 30
0.0
 11
36.4332382445
 21
92.5766637488
 31
0.0
  0
LINE
  5
184
330
1F
100
AcDbEntity
  8
0
  6
Continuous
 62
     7
370
    25
100
AcDbLine
 10
46.4332382445
 20
92.5766637488
 30
0.0
 11
46.4332382445
 21
93.7766637488
 31
0.0
  0
LINE
  5
185
330
1F
100
AcDbEntity
  8
0
  6
Continuous
 62
     7
370
    25
100
AcDbLine
 10
47.1832382445
 20
94.4266637488
 30
0.0
 11
46.5322577581
 21
94.4266637488
 31
0.0
  0
LINE
  5
186
330
1F
100
AcDbEntity
  8
0
  6
Continuous
 62
     7
370
    25
100
AcDbLine
 10
47.1832382445
 20
91.9266637488
 30
0.0
 11
47.1832382445
 21
94.4266637488
 31
0.0
  0
LINE
  5
187
330
1F
100
AcDbEntity
  8
0
  6
Continuous
 62
     7
370
    25
100
AcDbLine
 10
46.5322577581
 20
91.9266637488
 30
0.0
 11
47.1832382445
 21
91.9266637488
 31
0.0
  0
LINE
  5
188
330
1F
100
AcDbEntity
  8
0
  6
Continuous
 62
     7
370
    25
100
AcDbLine
 10
35.6832382445
 20
91.9266637488
 30
0.0
 11
36.3342187309
 21
91.9266637488
 31
0.0
  0
LINE
  5
189
330
1F
100
AcDbEntity
  8
0
  6
Continuous
 62
     7
370
    25
100
AcDbLine
 10
35.6832382445
 20
94.4266637488
 30
0.0
 11
35.6832382445
 21
91.9266637488
 31
0.0
  0
LINE
  5
18A
330
1F
100
AcDbEntity
  8
0
  6
Continuous
 62
     7
370
    25
100
AcDbLine
 10
36.3342187309
 20
94.4266637488
 30
0.0
 11
35.6832382445
 21
94.4266637488
 31
0.0
  0
LINE
  5
18B
330
1F
100
AcDbEntity
  8
0
  6
Continuous
 62
     7
370
    25
100
AcDbLine
 10
47.1832382445
 20
94.4266637488
 30
0.0
 11
47.1832382445
 21
94.6766637488
 31
0.0
  0
LINE
  5
18C
330
1F
100
AcDbEntity
  8
0
  6
Continuous
 62
     7
370
    25
100
AcDbLine
 10
46.9104638196
 20
94.6766637488
 30
0.0
 11
47.1832382445
 21
94.6766637488
 31
0.0
  0
LINE
  5
18D
330
1F
100
AcDbEntity
  8
0
  6
Continuous
 62
     7
370
    25
100
AcDbLine
 10
35.6832382445
 20
94.6766637488
 30
0.0
 11
35.6832382445
 21
94.4266637488
 31
0.0
  0
LINE
  5
18E
330
1F
100
AcDbEntity
  8
0
  6
Continuous
 62
     7
370
    25
100
AcDbLine
 10
35.6832382445
 20
94.4266637488
 30
0.0
 11
35.4332382445
 21
94.4266637488
 31
0.0
  0
ARC
  5
18F
330
1F
100
AcDbEntity
  8
0
  6
Continuous
 62
     7
370
    25
100
AcDbCircle
 10
35.6832382445
 20
94.4266637488
 30
0.0
 40
0.25
100
AcDbArc
 50
90.0
 51
180.0
  0
LINE
  5
190
330
1F
100
AcDbEntity
  8
0
  6
Continuous
 62
     7
370
    25
100
AcDbLine
 10
35.6832382445
 20
94.6766637488
 30
0.0
 11
35.9560126695
 21
94.6766637488
 31
0.0
  0
ARC
  5
191
330
1F
100
AcDbEntity
  8
0
  6
Continuous
 62
     7
370
    25
100
AcDbCircle
 10
47.1832382445
 20
94.4266637488
 30
0.0
 40
0.25
100
AcDbArc
 50
0.0
 51
90.0
  0
LINE
  5
192
330
1F
100
AcDbEntity
  8
0
  6
Continuous
 62
     7
370
    25
100
AcDbLine
 10
47.4332382445
 20
94.4266637488
 30
0.0
 11
47.1832382445
 21
94.4266637488
 31
0.0
  0
LINE
  5
193
330
1F
100
AcDbEntity
  8
0
  6
Continuous
 62
     7
370
    25
100
AcDbLine
 10
47.4332382445
 20
94.4266637488
 30
0.0
 11
47.4332382445
 21
91.9266637488
 31
0.0
  0
LINE
  5
194
330
1F
100
AcDbEntity
  8
0
  6
Continuous
 62
     7
370
    25
100
AcDbLine
 10
47.1832382445
 20
91.9266637488
 30
0.0
 11
47.4332382445
 21
91.9266637488
 31
0.0
  0
LINE
  5
195
330
1F
100
AcDbEntity
  8
0
  6
Continuous
 62
     7
370
    25
100
AcDbLine
 10
35.4332382445
 20
91.9266637488
 30
0.0
 11
35.6832382445
 21
91.9266637488
 31
0.0
  0
LINE
  5
196
330
1F
100
AcDbEntity
  8
0
  6
Continuous
 62
     7
370
    25
100
AcDbLine
 10
35.4332382445
 20
91.9266637488
 30
0.0
 11
35.4332382445
 21
94.4266637488
 31
0.0
  0
ARC
  5
197
330
1F
100
AcDbEntity
  8
0
  6
Continuous
 62
     7
370
    25
100
AcDbCircle
 10
47.1832382445
 20
91.9266637488
 30
0.0
 40
0.25
100
AcDbArc
 50
270.0
 51
0.0
  0
LINE
  5
198
330
1F
100
AcDbEntity
  8
0
  6
Continuous
 62
     7
370
    25
100
AcDbLine
 10
47.1832382445
 20
91.6766637488
 30
0.0
 11
47.1832382445
 21
91.9266637488
 31
0.0
  0
LINE
  5
199
330
1F
100
AcDbEntity
  8
0
  6
Continuous
 62
     7
370
    25
100
AcDbLine
 10
47.1832382445
 20
91.6766637488
 30
0.0
 11
46.9104638196
 21
91.6766637488
 31
0.0
  0
LINE
  5
19A
330
1F
100
AcDbEntity
  8
0
  6
Continuous
 62
     7
370
    25
100
AcDbLine
 10
35.9560126695
 20
91.6766637488
 30
0.0
 11
35.6832382445
 21
91.6766637488
 31
0.0
  0
LINE
  5
19B
330
1F
100
AcDbEntity
  8
0
  6
Continuous
 62
     7
370
    25
100
AcDbLine
 10
35.6832382445
 20
91.9266637488
 30
0.0
 11
35.6832382445
 21
91.6766637488
 31
0.0
  0
ARC
  5
19C
330
1F
100
AcDbEntity
  8
0
  6
Continuous
 62
     7
370
    25
100
AcDbCircle
 10
35.6832382445
 20
91.9266637488
 30
0.0
 40
0.25
100
AcDbArc
 50
180.0
 51
270.0
  0
LINE
  5
19D
330
1F
100
AcDbEntity
  8
0
  6
Continuous
 62
     7
370
    25
100
AcDbLine
 10
26.9332382445
 20
85.3766637488
 30
0.0
 11
26.9332382445
 21
100.9766637488
 31
0.0
  0
LINE
  5
19E
330
1F
100
AcDbEntity
  8
0
  6
Continuous
 62
     7
370
    25
100
AcDbLine
 10
27.1332382445
 20
101.1766637488
 30
0.0
 11
27.1332382445
 21
85.1766637488
 31
0.0
  0
LINE
  5
19F
330
1F
100
AcDbEntity
  8
0
  6
Continuous
 62
     7
370
    25
100
AcDbLine
 10
16.9332382445
 20
88.8126637488
 30
0.0
 11
16.9332382445
 21
97.5406637488
 31
0.0
  0
LINE
  5
1A0
330
1F
100
AcDbEntity
  8
0
  6
Continuous
 62
     7
370
    25
100
AcDbLine
 10
17.4332382445
 20
98.0406637488
 30
0.0
 11
17.4332382445
 21
88.3126637488
 31
0.0
  0
SPLINE
  5
1A1
330
1F
100
AcDbEntity
  8
0
  6
Continuous
 62
     7
370
    25
100
AcDbSpline
210
0.0
220
0.0
230
1.0
 70
    24
 71
     3
 72
    10
 73
     6
 74
     0
 42
0.00000001
 43
0.00000001
 40
0.0
 40
0.0
 40
0.0
 40
0.0
 40
0.3696171268609157
 40
0.7422797982393176
 40
1.0
 40
1.0
 40
1.0
 40
1.0
 10
52.61117927195655
 20
84.67666374879961
 30
0.0
 10
52.7523820842276
 20
84.67666374879961
 30
0.0
 10
53.03595118150813
 20
84.67666374879961
 30
0.0
 10
53.25509101817449
 20
84.67666374879961
 30
0.0
 10
53.27748199843712
 20
84.67666374879961
 30
0.0
 10
53.28663613030967
 20
84.67666374879961
 30
0.0
  0
SPLINE
  5
1A2
330
1F
100
AcDbEntity
  8
0
  6
Continuous
 62
     7
370
    25
100
AcDbSpline
210
0.0
220
0.0
230
1.0
 70
     8
 71
     3
 72
    10
 73
     6
 74
     0
 42
0.00000001
 43
0.00000001
 40
0.0
 40
0.0
 40
0.0
 40
0.0
 40
0.5
 40
0.5
 40
1.0
 40
1.0
 40
1.0
 40
1.0
 10
52.61117927195655
 20
84.92666374879961
 30
0.0
 10
52.58750387753216
 20
84.85228337142229
 30
0.0
 10
52.57441276764752
 20
84.78798273263652
 30
0.0
 10
52.57432644635924
 20
84.69976704785358
 30
0.0
 10
52.58749538030308
 20
84.67666374879961
 30
0.0
 10
52.61117927195655
 20
84.67666374879961
 30
0.0
  0
SPLINE
  5
1A3
330
1F
100
AcDbEntity
  8
0
  6
Continuous
 62
     7
370
    25
100
AcDbSpline
210
0.0
220
0.0
230
1.0
 70
     8
 71
     3
 72
    10
 73
     6
 74
     0
 42
0.00000001
 43
0.00000001
 40
0.0
 40
0.0
 40
0.0
 40
0.0
 40
0.0466598737247324
 40
0.5193971292894314
 40
1.0
 40
1.0
 40
1.0
 40
1.0
 10
53.28058828372163
 20
88.8079831976119
 30
0.0
 10
53.28227894850659
 20
88.7468058465892
 30
0.0
 10
53.30109868301923
 20
88.06580656471837
 30
0.0
 10
53.12411257636883
 20
86.75346559079622
 30
0.0
 10
52.78309490535465
 20
85.53893788475092
 30
0.0
 10
52.61117927195655
 20
84.92666374879961
 30
0.0
  0
SPLINE
  5
1A4
330
1F
100
AcDbEntity
  8
0
  6
Continuous
 62
     7
370
    25
100
AcDbSpline
210
0.0
220
0.0
230
1.0
 70
     8
 71
     3
 72
    10
 73
     6
 74
     0
 42
0.00000001
 43
0.00000001
 40
0.0
 40
0.0
 40
0.0
 40
0.0
 40
0.543859002794703
 40
0.8215349988569501
 40
1.0
 40
1.0
 40
1.0
 40
1.0
 10
52.61117927195655
 20
101.4266637487996
 30
0.0
 10
52.80717961323811
 20
100.7278460328701
 30
0.0
 10
53.10325109375652
 20
99.67223564762818
 30
0.0
 10
53.26972718829515
 20
98.35577924084208
 30
0.0
 10
53.27410821650218
 20
97.75312598550786
 30
0.0
 10
53.27582229221291
 20
97.51733811605294
 30
0.0
  0
SPLINE
  5
1A5
330
1F
100
AcDbEntity
  8
0
  6
Continuous
 62
     7
370
    25
100
AcDbSpline
210
0.0
220
0.0
230
1.0
 70
     8
 71
     3
 72
    10
 73
     6
 74
     0
 42
0.00000001
 43
0.00000001
 40
0.0
 40
0.0
 40
0.0
 40
0.0
 40
0.5
 40
0.5
 40
1.0
 40
1.0
 40
1.0
 40
1.0
 10
52.61117927195655
 20
101.6766637487996
 30
0.0
 10
52.58750387753216
 20
101.6766637487996
 30
0.0
 10
52.57441276764752
 20
101.6538712994698
 30
0.0
 10
52.57432644635924
 20
101.5659285953768
 30
0.0
 10
52.58749538030308
 20
101.5010708217029
 30
0.0
 10
52.61117927195655
 20
101.4266637487996
 30
0.0
  0
SPLINE
  5
1A6
330
1F
100
AcDbEntity
  8
0
  6
Continuous
 62
     7
370
    25
100
AcDbSpline
210
0.0
220
0.0
230
1.0
 70
    24
 71
     3
 72
    10
 73
     6
 74
     0
 42
0.00000001
 43
0.00000001
 40
0.0
 40
0.0
 40
0.0
 40
0.0
 40
0.2577162304103001
 40
0.6270803861279897
 40
1.0
 40
1.0
 40
1.0
 40
1.0
 10
53.28529429080428
 20
101.6766637487996
 30
0.0
 10
53.27669061106198
 20
101.6766637487996
 30
0.0
 10
53.25575596210203
 20
101.6766637487996
 30
0.0
 10
53.03678549868611
 20
101.6766637487996
 30
0.0
 10
52.75350031589101
 20
101.6766637487996
 30
0.0
 10
52.61117927195655
 20
101.6766637487996
 30
0.0
  0
LINE
  5
1A7
330
1F
100
AcDbEntity
  8
0
  6
Continuous
 62
     7
370
    25
100
AcDbLine
 10
53.4332382445
 20
101.4266637488
 30
0.0
 11
53.4332382445
 21
97.4780618584
 31
0.0
  0
LINE
  5
1A8
330
1F
100
AcDbEntity
  8
0
  6
Continuous
 62
     7
370
    25
100
AcDbLine
 10
53.4332382445
 20
88.8752656392
 30
0.0
 11
53.4332382445
 21
84.9266637488
 31
0.0
  0
SPLINE
  5
1A9
330
1F
100
AcDbEntity
  8
0
  6
Continuous
 62
     7
370
    25
100
AcDbSpline
210
0.0
220
0.0
230
1.0
 70
     8
 71
     3
 72
    10
 73
     6
 74
     0
 42
0.00000001
 43
0.00000001
 40
0.0
 40
0.0
 40
0.0
 40
0.0
 40
0.5
 40
0.5
 40
1.0
 40
1.0
 40
1.0
 40
1.0
 10
30.61095964977434
 20
93.42666374879963
 30
0.0
 10
30.63463325426545
 20
93.35228899480961
 30
0.0
 10
30.64772603005869
 20
93.2651952632437
 30
0.0
 10
30.64781259815964
 20
93.08902943469919
 30
0.0
 10
30.63464277403635
 20
93.0010684108089
 30
0.0
 10
30.61095964977434
 20
92.92666374879963
 30
0.0
  0
SPLINE
  5
1AA
330
1F
100
AcDbEntity
  8
0
  6
Continuous
 62
     7
370
    25
100
AcDbSpline
210
0.0
220
0.0
230
1.0
 70
     8
 71
     3
 72
    12
 73
     8
 74
     0
 42
0.00000001
 43
0.00000001
 40
0.0
 40
0.0
 40
0.0
 40
0.0
 40
0.2499999999999999
 40
0.2499999999999999
 40
0.5
 40
0.5
 40
1.0
 40
1.0
 40
1.0
 40
1.0
 10
29.93323824451415
 20
88.92666374879963
 30
0.0
 10
29.93323824451415
 20
89.2644196838224
 30
0.0
 10
29.94898457453611
 20
89.6048276987009
 30
0.0
 10
30.01042959912154
 20
90.27932238310132
 30
0.0
 10
30.05601835837527
 20
90.61444770196856
 30
0.0
 10
30.23246936063186
 20
91.6141590203087
 30
0.0
 10
30.40292706259536
 20
92.27309312337398
 30
0.0
 10
30.61095964977419
 20
92.92666374879964
 30
0.0
  0
LINE
  5
1AB
330
1F
100
AcDbEntity
  8
0
  6
Continuous
 62
     7
370
    25
100
AcDbLine
 10
29.9332382445
 20
97.4266637488
 30
0.0
 11
29.9332382445
 21
88.9266637488
 31
0.0
  0
SPLINE
  5
1AC
330
1F
100
AcDbEntity
  8
0
  6
Continuous
 62
     7
370
    25
100
AcDbSpline
210
0.0
220
0.0
230
1.0
 70
     8
 71
     3
 72
    10
 73
     6
 74
     0
 42
0.00000001
 43
0.00000001
 40
0.0
 40
0.0
 40
0.0
 40
0.0
 40
0.5
 40
0.5
 40
1.0
 40
1.0
 40
1.0
 40
1.0
 10
30.61095964977387
 20
93.42666374879957
 30
0.0
 10
30.40214972510762
 20
94.08267651540469
 30
0.0
 10
30.23161558536036
 20
94.74294342226239
 30
0.0
 10
29.99682978034145
 20
96.07528994089739
 30
0.0
 10
29.93323824451415
 20
96.74744292238472
 30
0.0
 10
29.93323824451415
 20
97.42666374879961
 30
0.0
  0
SPLINE
  5
1AD
330
1F
100
AcDbEntity
  8
0
  6
Continuous
 62
     7
370
    25
100
AcDbSpline
210
0.0
220
0.0
230
1.0
 70
     8
 71
     3
 72
     9
 73
     5
 74
     0
 42
0.00000001
 43
0.00000001
 40
0.0
 40
0.0
 40
0.0
 40
0.0
 40
0.3143008762195873
 40
1.0
 40
1.0
 40
1.0
 40
1.0
 10
47.54504252211579
 20
98.7176844026453
 30
0.0
 10
47.56995091099082
 20
99.00617744931958
 30
0.0
 10
47.64920105236688
 20
99.9240655893218
 30
0.0
 10
47.92312810784989
 20
100.8154453962402
 30
0.0
 10
48.11095964977434
 20
101.4266637487996
 30
0.0
  0
LINE
  5
1AE
330
1F
100
AcDbEntity
  8
0
  6
Continuous
 62
     7
370
    25
100
AcDbLine
 10
52.611179272
 20
101.4266637488
 30
0.0
 11
48.1109596498
 21
101.4266637488
 31
0.0
  0
SPLINE
  5
1AF
330
1F
100
AcDbEntity
  8
0
  6
Continuous
 62
     7
370
    25
100
AcDbSpline
210
0.0
220
0.0
230
1.0
 70
     8
 71
     3
 72
    12
 73
     8
 74
     0
 42
0.00000001
 43
0.00000001
 40
0.0
 40
0.0
 40
0.0
 40
0.0
 40
0.2500000000000001
 40
0.2500000000000001
 40
0.5000000000000002
 40
0.5000000000000002
 40
1.0
 40
1.0
 40
1.0
 40
1.0
 10
29.93323824451415
 20
97.42666374879961
 30
0.0
 10
29.93323824451415
 20
97.76441968382241
 30
0.0
 10
29.94898457453611
 20
98.1048276987009
 30
0.0
 10
30.01042959912154
 20
98.77932238310132
 30
0.0
 10
30.05601835837527
 20
99.11444770196856
 30
0.0
 10
30.23246936063186
 20
100.1141590203087
 30
0.0
 10
30.40292706259536
 20
100.773093123374
 30
0.0
 10
30.61095964977419
 20
101.4266637487996
 30
0.0
  0
LINE
  5
1B0
330
1F
100
AcDbEntity
  8
0
  6
Continuous
 62
     7
370
    25
100
AcDbLine
 10
34.7555168393
 20
101.4266637488
 30
0.0
 11
30.6109596498
 21
101.4266637488
 31
0.0
  0
SPLINE
  5
1B1
330
1F
100
AcDbEntity
  8
0
  6
Continuous
 62
     7
370
    25
100
AcDbSpline
210
0.0
220
0.0
230
1.0
 70
     8
 71
     3
 72
    10
 73
     6
 74
     0
 42
0.00000001
 43
0.00000001
 40
0.0
 40
0.0
 40
0.0
 40
0.0
 40
0.5144951200955101
 40
0.7763110118443408
 40
1.0
 40
1.0
 40
1.0
 40
1.0
 10
34.75551683925394
 20
101.4266637487997
 30
0.0
 10
34.94036709672314
 20
100.7756589197692
 30
0.0
 10
35.21928381490106
 20
99.79337124044909
 30
0.0
 10
35.39898383287801
 20
98.49838518579013
 30
0.0
 10
35.41771981623572
 20
97.86644138150963
 30
0.0
 10
35.42635213556526
 20
97.57528288650428
 30
0.0
  0
SPLINE
  5
1B2
330
1F
100
AcDbEntity
  8
0
  6
Continuous
 62
     7
370
    25
100
AcDbSpline
210
0.0
220
0.0
230
1.0
 70
     8
 71
     3
 72
    12
 73
     8
 74
     0
 42
0.00000001
 43
0.00000001
 40
0.0
 40
0.0
 40
0.0
 40
0.0
 40
0.2500000000000001
 40
0.2500000000000001
 40
0.5000000000000002
 40
0.5000000000000002
 40
1.0
 40
1.0
 40
1.0
 40
1.0
 10
35.43323824451415
 20
88.92666374879963
 30
0.0
 10
35.43323824451415
 20
88.5876282043038
 30
0.0
 10
35.4173953084252
 20
88.24699164503346
 30
0.0
 10
35.35589244818753
 20
87.5727592975286
 30
0.0
 10
35.31028880714384
 20
87.23777368606542
 30
0.0
 10
35.13383778965462
 20
86.2385032569262
 30
0.0
 10
34.96344042240276
 20
85.57989191906933
 30
0.0
 10
34.75551683925396
 20
84.92666374879961
 30
0.0
  0
LINE
  5
1B3
330
1F
100
AcDbEntity
  8
0
  6
Continuous
 62
     7
370
    25
100
AcDbLine
 10
30.6109596498
 20
84.9266637488
 30
0.0
 11
34.7555168393
 21
84.9266637488
 31
0.0
  0
SPLINE
  5
1B4
330
1F
100
AcDbEntity
  8
0
  6
Continuous
 62
     7
370
    25
100
AcDbSpline
210
0.0
220
0.0
230
1.0
 70
     8
 71
     3
 72
    10
 73
     6
 74
     0
 42
0.00000001
 43
0.00000001
 40
0.0
 40
0.0
 40
0.0
 40
0.0
 40
0.5
 40
0.5
 40
1.0
 40
1.0
 40
1.0
 40
1.0
 10
30.61095964977387
 20
84.92666374879957
 30
0.0
 10
30.40214972510762
 20
85.58267651540467
 30
0.0
 10
30.23161558536036
 20
86.24294342226239
 30
0.0
 10
29.99682978034145
 20
87.57528994089739
 30
0.0
 10
29.93323824451415
 20
88.24744292238474
 30
0.0
 10
29.93323824451415
 20
88.92666374879963
 30
0.0
  0
LINE
  5
1B5
330
1F
100
AcDbEntity
  8
0
  6
Continuous
 62
     7
370
    25
100
AcDbLine
 10
48.1109596498
 20
84.9266637488
 30
0.0
 11
52.611179272
 21
84.9266637488
 31
0.0
  0
SPLINE
  5
1B6
330
1F
100
AcDbEntity
  8
0
  6
Continuous
 62
     7
370
    25
100
AcDbSpline
210
0.0
220
0.0
230
1.0
 70
     8
 71
     3
 72
     9
 73
     5
 74
     0
 42
0.00000001
 43
0.00000001
 40
0.0
 40
0.0
 40
0.0
 40
0.0
 40
0.7361773364763236
 40
0.9999999999999999
 40
0.9999999999999999
 40
0.9999999999999999
 40
0.9999999999999999
 10
48.11095964977435
 20
84.92666374879958
 30
0.0
 10
47.91904410224243
 20
85.57706916607374
 30
0.0
 10
47.65835209500064
 20
86.46055930499503
 30
0.0
 10
47.54975769905684
 20
87.36602748778657
 30
0.0
 10
47.52110803627519
 20
87.60491051550659
 30
0.0
  0
LINE
  5
1B7
330
1F
100
AcDbEntity
  8
0
  6
Continuous
 62
     7
370
    25
100
AcDbLine
 10
47.4332382445
 20
87.6318481448
 30
0.0
 11
47.4332382445
 21
85.6766637488
 31
0.0
  0
LINE
  5
1B8
330
1F
100
AcDbEntity
  8
0
  6
Continuous
 62
     7
370
    25
100
AcDbLine
 10
47.4332382445
 20
85.6766637488
 30
0.0
 11
35.4332382445
 21
85.6766637488
 31
0.0
  0
LINE
  5
1B9
330
1F
100
AcDbEntity
  8
0
  6
Continuous
 62
     7
370
    25
100
AcDbLine
 10
35.4332382445
 20
88.7605002554
 30
0.0
 11
35.4332382445
 21
85.6766637488
 31
0.0
  0
LINE
  5
1BA
330
1F
100
AcDbEntity
  8
0
  6
Continuous
 62
     7
370
    25
100
AcDbLine
 10
35.4332382445
 20
100.6766637488
 30
0.0
 11
35.4332382445
 21
97.5928272422
 31
0.0
  0
LINE
  5
1BB
330
1F
100
AcDbEntity
  8
0
  6
Continuous
 62
     7
370
    25
100
AcDbLine
 10
35.4332382445
 20
100.6766637488
 30
0.0
 11
47.4332382445
 21
100.6766637488
 31
0.0
  0
LINE
  5
1BC
330
1F
100
AcDbEntity
  8
0
  6
Continuous
 62
     7
370
    25
100
AcDbLine
 10
47.4332382445
 20
100.6766637488
 30
0.0
 11
47.4332382445
 21
98.7214793528
 31
0.0
  0
SPLINE
  5
1BD
330
1F
100
AcDbEntity
  8
0
  6
Continuous
 62
     7
370
    25
100
AcDbSpline
210
0.0
220
0.0
230
1.0
 70
     8
 71
     3
 72
     8
 73
     4
 74
     0
 42
0.00000001
 43
0.00000001
 40
0.0
 40
0.0
 40
0.0
 40
0.0
 40
1.0
 40
1.0
 40
1.0
 40
1.0
 10
34.91700216753497
 20
101.6766637487996
 30
0.0
 10
35.09070524375475
 20
101.3441523266641
 30
0.0
 10
35.26300746281745
 20
101.0108252267653
 30
0.0
 10
35.43323824451415
 20
100.6766637487996
 30
0.0
  0
SPLINE
  5
1BE
330
1F
100
AcDbEntity
  8
0
  6
Continuous
 62
     7
370
    25
100
AcDbSpline
210
0.0
220
0.0
230
1.0
 70
     8
 71
     3
 72
    10
 73
     6
 74
     0
 42
0.00000001
 43
0.00000001
 40
0.0
 40
0.0
 40
0.0
 40
0.0
 40
0.5
 40
0.5
 40
1.0
 40
1.0
 40
1.0
 40
1.0
 10
34.75551683925961
 20
101.6766637487996
 30
0.0
 10
34.7318414448353
 20
101.6766637487996
 30
0.0
 10
34.71875033494499
 20
101.6538712994701
 30
0.0
 10
34.71866401365659
 20
101.5659285953771
 30
0.0
 10
34.73183294760042
 20
101.5010708217031
 30
0.0
 10
34.75551683925394
 20
101.4266637487997
 30
0.0
  0
SPLINE
  5
1BF
330
1F
100
AcDbEntity
  8
0
  6
Continuous
 62
     7
370
    25
100
AcDbSpline
210
0.0
220
0.0
230
1.0
 70
    24
 71
     3
 72
     8
 73
     4
 74
     0
 42
0.00000001
 43
0.00000001
 40
0.0
 40
0.0
 40
0.0
 40
0.0
 40
1.0
 40
1.0
 40
1.0
 40
1.0
 10
34.91700216753496
 20
101.6766637487996
 30
0.0
 10
34.86610345061256
 20
101.6766637487996
 30
0.0
 10
34.81216931436194
 20
101.6766637487996
 30
0.0
 10
34.75551683925435
 20
101.6766637487996
 30
0.0
  0
SPLINE
  5
1C0
330
1F
100
AcDbEntity
  8
0
  6
Continuous
 62
     7
370
    25
100
AcDbSpline
210
0.0
220
0.0
230
1.0
 70
     8
 71
     3
 72
     8
 73
     4
 74
     0
 42
0.00000001
 43
0.00000001
 40
0.0
 40
0.0
 40
0.0
 40
0.0
 40
1.0
 40
1.0
 40
1.0
 40
1.0
 10
47.43323824451415
 20
100.6766637487996
 30
0.0
 10
47.60351585185787
 20
101.0109171450849
 30
0.0
 10
47.77578760048355
 20
101.3441836346539
 30
0.0
 10
47.94947432149321
 20
101.6766637487994
 30
0.0
  0
SPLINE
  5
1C1
330
1F
100
AcDbEntity
  8
0
  6
Continuous
 62
     7
370
    25
100
AcDbSpline
210
0.0
220
0.0
230
1.0
 70
    24
 71
     3
 72
     8
 73
     4
 74
     0
 42
0.00000001
 43
0.00000001
 40
0.0
 40
0.0
 40
0.0
 40
0.0
 40
1.0
 40
1.0
 40
1.0
 40
1.0
 10
47.94947432149279
 20
101.6766637487996
 30
0.0
 10
48.00037055474803
 20
101.6766637487996
 30
0.0
 10
48.05430450971187
 20
101.6766637487996
 30
0.0
 10
48.11095964977434
 20
101.6766637487996
 30
0.0
  0
SPLINE
  5
1C2
330
1F
100
AcDbEntity
  8
0
  6
Continuous
 62
     7
370
    25
100
AcDbSpline
210
0.0
220
0.0
230
1.0
 70
     8
 71
     3
 72
    10
 73
     6
 74
     0
 42
0.00000001
 43
0.00000001
 40
0.0
 40
0.0
 40
0.0
 40
0.0
 40
0.5
 40
0.5
 40
1.0
 40
1.0
 40
1.0
 40
1.0
 10
48.11095964977434
 20
101.4266637487996
 30
0.0
 10
48.13463504419873
 20
101.501044126177
 30
0.0
 10
48.14772615408337
 20
101.5653447649627
 30
0.0
 10
48.14781247537165
 20
101.6535604497457
 30
0.0
 10
48.13464354142781
 20
101.6766637487996
 30
0.0
 10
48.11095964977434
 20
101.6766637487996
 30
0.0
  0
SPLINE
  5
1C3
330
1F
100
AcDbEntity
  8
0
  6
Continuous
 62
     7
370
    25
100
AcDbSpline
210
0.0
220
0.0
230
1.0
 70
     8
 71
     3
 72
    10
 73
     6
 74
     0
 42
0.00000001
 43
0.00000001
 40
0.0
 40
0.0
 40
0.0
 40
0.0
 40
0.5
 40
0.5
 40
1.0
 40
1.0
 40
1.0
 40
1.0
 10
30.61095964977434
 20
101.6766637487996
 30
0.0
 10
30.63463355033028
 20
101.6766637487996
 30
0.0
 10
30.64772610750943
 20
101.6538731771522
 30
0.0
 10
30.64781252149172
 20
101.5659271798534
 30
0.0
 10
30.63464212989309
 20
101.5010663871206
 30
0.0
 10
30.61095964977434
 20
101.4266637487996
 30
0.0
  0
SPLINE
  5
1C4
330
1F
100
AcDbEntity
  8
0
  6
Continuous
 62
     7
370
    25
100
AcDbSpline
210
0.0
220
0.0
230
1.0
 70
    24
 71
     3
 72
    12
 73
     8
 74
     0
 42
0.00000001
 43
0.00000001
 40
0.0
 40
0.0
 40
0.0
 40
0.0
 40
0.2499999999999999
 40
0.2499999999999999
 40
0.4999999999999998
 40
0.4999999999999998
 40
1.0
 40
1.0
 40
1.0
 40
1.0
 10
29.93323824451415
 20
101.6766637487996
 30
0.0
 10
29.93323824451415
 20
101.6766637487996
 30
0.0
 10
29.94923704949522
 20
101.6766637487996
 30
0.0
 10
30.01100718780961
 20
101.6766637487996
 30
0.0
 10
30.0567493121112
 20
101.6766637487996
 30
0.0
 10
30.23341945945805
 20
101.6766637487996
 30
0.0
 10
30.40367452493835
 20
101.6766637487996
 30
0.0
 10
30.61095964977434
 20
101.6766637487996
 30
0.0
  0
LINE
  5
1C5
330
1F
100
AcDbEntity
  8
0
  6
Continuous
 62
     7
370
    25
100
AcDbLine
 10
29.9332382445
 20
101.6766637488
 30
0.0
 11
29.9332382445
 21
97.4266637488
 31
0.0
  0
SPLINE
  5
1C6
330
1F
100
AcDbEntity
  8
0
  6
Continuous
 62
     7
370
    25
100
AcDbSpline
210
0.0
220
0.0
230
1.0
 70
     8
 71
     3
 72
     8
 73
     4
 74
     0
 42
0.00000001
 43
0.00000001
 40
0.0
 40
0.0
 40
0.0
 40
0.0
 40
1.0
 40
1.0
 40
1.0
 40
1.0
 10
47.94947432149333
 20
84.67666374879961
 30
0.0
 10
47.77577124527355
 20
85.00917517093512
 30
0.0
 10
47.60346902621085
 20
85.34250227083398
 30
0.0
 10
47.43323824451415
 20
85.67666374879963
 30
0.0
  0
SPLINE
  5
1C7
330
1F
100
AcDbEntity
  8
0
  6
Continuous
 62
     7
370
    25
100
AcDbSpline
210
0.0
220
0.0
230
1.0
 70
     8
 71
     3
 72
    10
 73
     6
 74
     0
 42
0.00000001
 43
0.00000001
 40
0.0
 40
0.0
 40
0.0
 40
0.0
 40
0.5
 40
0.5
 40
1.0
 40
1.0
 40
1.0
 40
1.0
 10
48.11095964977436
 20
84.67666374879961
 30
0.0
 10
48.13463504419875
 20
84.67666374879961
 30
0.0
 10
48.14772615408337
 20
84.69945619812941
 30
0.0
 10
48.14781247537165
 20
84.78739890222246
 30
0.0
 10
48.13464354142782
 20
84.85225667589631
 30
0.0
 10
48.11095964977436
 20
84.92666374879957
 30
0.0
  0
SPLINE
  5
1C8
330
1F
100
AcDbEntity
  8
0
  6
Continuous
 62
     7
370
    25
100
AcDbSpline
210
0.0
220
0.0
230
1.0
 70
    24
 71
     3
 72
     8
 73
     4
 74
     0
 42
0.00000001
 43
0.00000001
 40
0.0
 40
0.0
 40
0.0
 40
0.0
 40
1.0
 40
1.0
 40
1.0
 40
1.0
 10
47.94947432149334
 20
84.67666374879961
 30
0.0
 10
48.00037055474841
 20
84.67666374879961
 30
0.0
 10
48.05430450971207
 20
84.67666374879961
 30
0.0
 10
48.11095964977434
 20
84.67666374879961
 30
0.0
  0
SPLINE
  5
1C9
330
1F
100
AcDbEntity
  8
0
  6
Continuous
 62
     7
370
    25
100
AcDbSpline
210
0.0
220
0.0
230
1.0
 70
     8
 71
     3
 72
     8
 73
     4
 74
     0
 42
0.00000001
 43
0.00000001
 40
0.0
 40
0.0
 40
0.0
 40
0.0
 40
1.0
 40
1.0
 40
1.0
 40
1.0
 10
35.43323824451415
 20
85.67666374879963
 30
0.0
 10
35.26296063717039
 20
85.34241035251422
 30
0.0
 10
35.09068888854468
 20
85.0091438629452
 30
0.0
 10
34.91700216753497
 20
84.67666374879961
 30
0.0
  0
SPLINE
  5
1CA
330
1F
100
AcDbEntity
  8
0
  6
Continuous
 62
     7
370
    25
100
AcDbSpline
210
0.0
220
0.0
230
1.0
 70
    24
 71
     3
 72
     8
 73
     4
 74
     0
 42
0.00000001
 43
0.00000001
 40
0.0
 40
0.0
 40
0.0
 40
0.0
 40
1.0
 40
1.0
 40
1.0
 40
1.0
 10
34.91700216753497
 20
84.67666374879961
 30
0.0
 10
34.86610345061246
 20
84.67666374879961
 30
0.0
 10
34.8121693143617
 20
84.67666374879961
 30
0.0
 10
34.75551683925396
 20
84.67666374879961
 30
0.0
  0
SPLINE
  5
1CB
330
1F
100
AcDbEntity
  8
0
  6
Continuous
 62
     7
370
    25
100
AcDbSpline
210
0.0
220
0.0
230
1.0
 70
     8
 71
     3
 72
    10
 73
     6
 74
     0
 42
0.00000001
 43
0.00000001
 40
0.0
 40
0.0
 40
0.0
 40
0.0
 40
0.5
 40
0.5
 40
1.0
 40
1.0
 40
1.0
 40
1.0
 10
34.75551683925396
 20
84.92666374879961
 30
0.0
 10
34.73184144482958
 20
84.85228337142229
 30
0.0
 10
34.71875033494494
 20
84.78798273263652
 30
0.0
 10
34.71866401365665
 20
84.69976704785358
 30
0.0
 10
34.73183294760049
 20
84.67666374879961
 30
0.0
 10
34.75551683925396
 20
84.67666374879961
 30
0.0
  0
SPLINE
  5
1CC
330
1F
100
AcDbEntity
  8
0
  6
Continuous
 62
     7
370
    25
100
AcDbSpline
210
0.0
220
0.0
230
1.0
 70
     8
 71
     3
 72
    10
 73
     6
 74
     0
 42
0.00000001
 43
0.00000001
 40
0.0
 40
0.0
 40
0.0
 40
0.0
 40
0.5
 40
0.5
 40
1.0
 40
1.0
 40
1.0
 40
1.0
 10
30.61095964977434
 20
84.92666374879961
 30
0.0
 10
30.6346318896859
 20
84.85229328187405
 30
0.0
 10
30.64772587962116
 20
84.78798768558619
 30
0.0
 10
30.64781274708261
 20
84.69976489778035
 30
0.0
 10
30.63464295732325
 20
84.67666374879961
 30
0.0
 10
30.61095964977434
 20
84.67666374879961
 30
0.0
  0
SPLINE
  5
1CD
330
1F
100
AcDbEntity
  8
0
  6
Continuous
 62
     7
370
    25
100
AcDbSpline
210
0.0
220
0.0
230
1.0
 70
    24
 71
     3
 72
    12
 73
     8
 74
     0
 42
0.00000001
 43
0.00000001
 40
0.0
 40
0.0
 40
0.0
 40
0.0
 40
0.2500000000000001
 40
0.2500000000000001
 40
0.5000000000000001
 40
0.5000000000000001
 40
1.0
 40
1.0
 40
1.0
 40
1.0
 10
29.93323824451415
 20
84.67666374879961
 30
0.0
 10
29.93323824451415
 20
84.67666374879961
 30
0.0
 10
29.94923704949522
 20
84.67666374879961
 30
0.0
 10
30.01100718780961
 20
84.67666374879961
 30
0.0
 10
30.0567493121112
 20
84.67666374879961
 30
0.0
 10
30.23341945945805
 20
84.67666374879961
 30
0.0
 10
30.40367452493835
 20
84.67666374879961
 30
0.0
 10
30.61095964977434
 20
84.67666374879961
 30
0.0
  0
LINE
  5
1CE
330
1F
100
AcDbEntity
  8
0
  6
Continuous
 62
     7
370
    25
100
AcDbLine
 10
29.9332382445
 20
84.6766637488
 30
0.0
 11
29.9332382445
 21
88.9266637488
 31
0.0
  0
LINE
  5
1CF
330
1F
100
AcDbEntity
  8
0
  6
Continuous
 62
     7
370
    25
100
AcDbLine
 10
48.1109596498
 20
101.6766637488
 30
0.0
 11
52.611179272
 21
101.6766637488
 31
0.0
  0
LINE
  5
1D0
330
1F
100
AcDbEntity
  8
0
  6
Continuous
 62
     7
370
    25
100
AcDbLine
 10
30.6109596498
 20
101.6766637488
 30
0.0
 11
34.7555168393
 21
101.6766637488
 31
0.0
  0
LINE
  5
1D1
330
1F
100
AcDbEntity
  8
0
  6
Continuous
 62
     7
370
    25
100
AcDbLine
 10
52.611179272
 20
84.6766637488
 30
0.0
 11
48.1109596498
 21
84.6766637488
 31
0.0
  0
LINE
  5
1D2
330
1F
100
AcDbEntity
  8
0
  6
Continuous
 62
     7
370
    25
100
AcDbLine
 10
34.7555168393
 20
84.6766637488
 30
0.0
 11
30.6109596498
 21
84.6766637488
 31
0.0
  0
LINE
  5
1D3
330
1F
100
AcDbEntity
  8
0
  6
Continuous
 62
     7
370
    25
100
AcDbLine
 10
47.9494743215
 20
101.6766637488
 30
0.0
 11
34.9170021675
 21
101.6766637488
 31
0.0
  0
LINE
  5
1D4
330
1F
100
AcDbEntity
  8
0
  6
Continuous
 62
     7
370
    25
100
AcDbLine
 10
47.9494743215
 20
84.6766637488
 30
0.0
 11
34.9170021675
 21
84.6766637488
 31
0.0
  0
LINE
  5
1D5
330
1F
100
AcDbEntity
  8
0
  6
Continuous
 62
     7
370
    25
100
AcDbLine
 10
33.9874340569
 20
92.9266637488
 30
0.0
 11
30.6109596498
 21
92.9266637488
 31
0.0
  0
LINE
  5
1D6
330
1F
100
AcDbEntity
  8
0
  6
Continuous
 62
     7
370
    25
100
AcDbLine
 10
30.6109596498
 20
93.4266637488
 30
0.0
 11
33.9874340569
 21
93.4266637488
 31
0.0
  0
MTEXT
  5
1D8
330
1F
100
AcDbEntity
  8
0
  6
Continuous
 62
     7
370
     0
100
AcDbMText
 10
65.4488106215
 20
81.3913628128
 30
0.0
 40
3.5
 41
0.0
 71
     1
 72
     1
  1
エースボール　アングル型
  7
SLDTEXTSTYLE0
 73
     1
 44
1.0
  0
MTEXT
  5
1D9
330
1F
100
AcDbEntity
  8
0
  6
Continuous
 62
     7
370
     0
100
AcDbMText
 10
65.4488106215
 20
76.8656682823
 30
0.0
 40
3.5
 41
0.0
 71
     1
 72
     1
  1
BV-3011R
  7
SLDTEXTSTYLE0
 73
     1
 44
1.0
  0
INSERT
  5
1E5
330
1F
100
AcDbEntity
  8
0
  6
Continuous
 62
     7
370
    18
100
AcDbBlockReference
  2
SW_CENTERMARKSYMBOL_0
 10
41.4332382445
 20
93.1766637488
 30
0.0
  0
LINE
  5
1E6
330
1F
100
AcDbEntity
  8
0
  6
Continuous
 62
     7
370
    18
100
AcDbLine
 10
26.9332382445
 20
97.4566637488
 30
0.0
 11
16.9332382445
 21
97.4566637488
 31
0.0
  0
LINE
  5
1E7
330
1F
100
AcDbEntity
  8
0
  6
Continuous
 62
     7
370
    18
100
AcDbLine
 10
16.9332382445
 20
88.8966637488
 30
0.0
 11
26.9332382445
 21
88.8966637488
 31
0.0
  0
LINE
  5
1E8
330
1F
100
AcDbEntity
  8
0
  6
Continuous
 62
     7
370
    25
100
AcDbLine
 10
114.5414723421
 20
56.2912476489
 30
0.0
 11
112.5914723421
 21
64.2912476489
 31
0.0
  0
LINE
  5
1E9
330
1F
100
AcDbEntity
  8
0
  6
Continuous
 62
     7
370
    25
100
AcDbLine
 10
101.5914723421
 20
64.2912476489
 30
0.0
 11
99.6414723421
 21
56.2912476489
 31
0.0
  0
LINE
  5
1EA
330
1F
100
AcDbEntity
  8
0
  6
Continuous
 62
     7
370
    25
100
AcDbLine
 10
99.6414723421
 20
56.2912476489
 30
0.0
 11
100.0914723421
 21
48.2912476489
 31
0.0
  0
LINE
  5
1EB
330
1F
100
AcDbEntity
  8
0
  6
Continuous
 62
     7
370
    25
100
AcDbLine
 10
114.0914723421
 20
48.2912476489
 30
0.0
 11
114.5414723421
 21
56.2912476489
 31
0.0
  0
ARC
  5
1EC
330
1F
100
AcDbEntity
  8
0
  6
Continuous
 62
     7
370
    25
100
AcDbCircle
 10
101.8414723421
 20
64.8912476489
 30
0.0
 40
0.25
100
AcDbArc
 50
90.0
 51
180.0
  0
ARC
  5
1ED
330
1F
100
AcDbEntity
  8
0
  6
Continuous
 62
     7
370
    25
100
AcDbCircle
 10
112.3414723421
 20
64.8912476489
 30
0.0
 40
0.25
100
AcDbArc
 50
0.0
 51
90.0
  0
LINE
  5
1EE
330
1F
100
AcDbEntity
  8
0
  6
Continuous
 62
     7
370
    25
100
AcDbLine
 10
112.5914723421
 20
64.2912476489
 30
0.0
 11
112.5914723421
 21
64.8912476489
 31
0.0
  0
LINE
  5
1EF
330
1F
100
AcDbEntity
  8
0
  6
Continuous
 62
     7
370
    25
100
AcDbLine
 10
101.5914723421
 20
64.8912476489
 30
0.0
 11
101.5914723421
 21
64.2912476489
 31
0.0
  0
LINE
  5
1F0
330
1F
100
AcDbEntity
  8
0
  6
Continuous
 62
     7
370
    25
100
AcDbLine
 10
98.5914723421
 20
25.4355852162
 30
0.0
 11
98.8414723421
 21
25.2912476489
 31
0.0
  0
LINE
  5
1F1
330
1F
100
AcDbEntity
  8
0
  6
Continuous
 62
     7
370
    25
100
AcDbLine
 10
115.3414723421
 20
25.2912476489
 30
0.0
 11
115.5914723421
 21
25.4355852162
 31
0.0
  0
LINE
  5
1F2
330
1F
100
AcDbEntity
  8
0
  6
Continuous
 62
     7
370
    25
100
AcDbLine
 10
100.5914723421
 20
14.5412476489
 30
0.0
 11
100.8414723421
 21
14.2912476489
 31
0.0
  0
LINE
  5
1F3
330
1F
100
AcDbEntity
  8
0
  6
Continuous
 62
     7
370
    25
100
AcDbLine
 10
113.3414723421
 20
14.2912476489
 30
0.0
 11
113.5914723421
 21
14.5412476489
 31
0.0
  0
LINE
  5
1F4
330
1F
100
AcDbEntity
  8
0
  6
Continuous
 62
     7
370
    25
100
AcDbLine
 10
113.5914723421
 20
14.5412476489
 30
0.0
 11
113.5914723421
 21
25.2912476489
 31
0.0
  0
LINE
  5
1F5
330
1F
100
AcDbEntity
  8
0
  6
Continuous
 62
     7
370
    25
100
AcDbLine
 10
100.5914723421
 20
25.2912476489
 30
0.0
 11
100.5914723421
 21
14.5412476489
 31
0.0
  0
LINE
  5
1F6
330
1F
100
AcDbEntity
  8
0
  6
Continuous
 62
     7
370
    25
100
AcDbLine
 10
112.9914723421
 20
44.3244739021
 30
0.0
 11
112.9914723421
 21
48.2912476489
 31
0.0
  0
LINE
  5
1F7
330
1F
100
AcDbEntity
  8
0
  6
Continuous
 62
     7
370
    25
100
AcDbLine
 10
101.1914723421
 20
48.2912476489
 30
0.0
 11
101.1914723421
 21
44.3297763128
 31
0.0
  0
LINE
  5
1F8
330
1F
100
AcDbEntity
  8
0
  6
Continuous
 62
     7
370
    25
100
AcDbLine
 10
103.5914723421
 20
66.2912476489
 30
0.0
 11
110.5914723421
 21
66.2912476489
 31
0.0
  0
LINE
  5
1F9
330
1F
100
AcDbEntity
  8
0
  6
Continuous
 62
     7
370
    25
100
AcDbLine
 10
110.5914723421
 20
59.2912476489
 30
0.0
 11
110.5914723421
 21
66.2912476489
 31
0.0
  0
LINE
  5
1FA
330
1F
100
AcDbEntity
  8
0
  6
Continuous
 62
     7
370
    25
100
AcDbLine
 10
103.5914723421
 20
59.2912476489
 30
0.0
 11
110.5914723421
 21
59.2912476489
 31
0.0
  0
LINE
  5
1FB
330
1F
100
AcDbEntity
  8
0
  6
Continuous
 62
     7
370
    25
100
AcDbLine
 10
103.5914723421
 20
66.2912476489
 30
0.0
 11
103.5914723421
 21
59.2912476489
 31
0.0
  0
LINE
  5
1FC
330
1F
100
AcDbEntity
  8
0
  6
Continuous
 62
     7
370
    25
100
AcDbLine
 10
110.5914723421
 20
54.2912476489
 30
0.0
 11
103.5914723421
 21
54.2912476489
 31
0.0
  0
LINE
  5
1FD
330
1F
100
AcDbEntity
  8
0
  6
Continuous
 62
     7
370
    25
100
AcDbLine
 10
103.5914723421
 20
54.2912476489
 30
0.0
 11
103.5914723421
 21
59.2912476489
 31
0.0
  0
LINE
  5
1FE
330
1F
100
AcDbEntity
  8
0
  6
Continuous
 62
     7
370
    25
100
AcDbLine
 10
110.5914723421
 20
59.2912476489
 30
0.0
 11
110.5914723421
 21
54.2912476489
 31
0.0
  0
SPLINE
  5
1FF
330
1F
100
AcDbEntity
  8
0
  6
Continuous
 62
     7
370
    25
100
AcDbSpline
210
0.0
220
0.0
230
1.0
 70
     8
 71
     3
 72
     9
 73
     5
 74
     0
 42
0.00000001
 43
0.00000001
 40
0.0
 40
0.0
 40
0.0
 40
0.0
 40
0.4976931370791441
 40
0.9999999999999999
 40
0.9999999999999999
 40
0.9999999999999999
 40
0.9999999999999999
 10
110.5914723420961
 20
54.04342334187839
 30
0.0
 10
110.6081418553133
 20
53.89397646087796
 30
0.0
 10
110.6416354118349
 20
53.59369729312107
 30
0.0
 10
110.8649740954765
 20
53.01227516573363
 30
0.0
 10
110.9771586490255
 20
52.72022284089288
 30
0.0
  0
LINE
  5
200
330
1F
100
AcDbEntity
  8
0
  6
Continuous
 62
     7
370
    25
100
AcDbLine
 10
110.977158649
 20
52.7202228409
 30
0.0
 11
103.2057860352
 21
52.7202228409
 31
0.0
  0
SPLINE
  5
201
330
1F
100
AcDbEntity
  8
0
  6
Continuous
 62
     7
370
    25
100
AcDbSpline
210
0.0
220
0.0
230
1.0
 70
     8
 71
     3
 72
     9
 73
     5
 74
     0
 42
0.00000001
 43
0.00000001
 40
0.0
 40
0.0
 40
0.0
 40
0.0
 40
0.4977232396629078
 40
1.0
 40
1.0
 40
1.0
 40
1.0
 10
103.2057860351667
 20
52.72022284089289
 30
0.0
 10
103.3170827112806
 20
53.00981524151705
 30
0.0
 10
103.5406942834252
 20
53.59164943680253
 30
0.0
 10
103.5744950184239
 20
53.89237558594065
 30
0.0
 10
103.5914723420961
 20
54.04342334187839
 30
0.0
  0
LINE
  5
202
330
1F
100
AcDbEntity
  8
0
  6
Continuous
 62
     7
370
    25
100
AcDbLine
 10
103.5914723421
 20
54.0434233419
 30
0.0
 11
103.5914723421
 21
54.2912476489
 31
0.0
  0
LINE
  5
203
330
1F
100
AcDbEntity
  8
0
  6
Continuous
 62
     7
370
    25
100
AcDbLine
 10
110.5914723421
 20
54.2912476489
 30
0.0
 11
110.5914723421
 21
54.0434233419
 31
0.0
  0
SPLINE
  5
204
330
1F
100
AcDbEntity
  8
0
  6
Continuous
 62
     7
370
    25
100
AcDbSpline
210
0.0
220
0.0
230
1.0
 70
     8
 71
     3
 72
    16
 73
    12
 74
     0
 42
0.00000001
 43
0.00000001
 40
0.0
 40
0.0
 40
0.0
 40
0.0
 40
0.0155634360124117
 40
0.0359329243097674
 40
0.0739120889290614
 40
0.1570057548437684
 40
0.2406581385754913
 40
0.4592958294318596
 40
0.6783839187935412
 40
0.8974954344294845
 40
1.0
 40
1.0
 40
1.0
 40
1.0
 10
100.4317501198738
 20
48.29124764890294
 30
0.0
 10
100.4454437868872
 20
48.29644102068211
 30
0.0
 10
100.4770597809338
 20
48.30843149854989
 30
0.0
 10
100.5325394712439
 20
48.42675742254685
 30
0.0
 10
100.6111402817344
 20
48.7380087299958
 30
0.0
 10
100.6904804683635
 20
49.26365623136086
 30
0.0
 10
100.7957081764666
 20
50.30220239563101
 30
0.0
 10
100.9107015776859
 20
51.73727643797713
 30
0.0
 10
101.0131015781008
 20
53.57552853941657
 30
0.0
 10
101.0828504579812
 20
55.096711388236
 30
0.0
 10
101.12230907741
 20
56.00254342903252
 30
0.0
 10
101.134885216723
 20
56.29124764890048
 30
0.0
  0
LINE
  5
205
330
1F
100
AcDbEntity
  8
0
  6
Continuous
 62
     7
370
    25
100
AcDbLine
 10
101.1348852167
 20
56.2912476489
 30
0.0
 11
100.9147245014
 21
57.2859912269
 31
0.0
  0
LINE
  5
206
330
1F
100
AcDbEntity
  8
0
  6
Continuous
 62
     7
370
    25
100
AcDbLine
 10
100.9147245014
 20
57.2859912269
 30
0.0
 11
103.5914723421
 21
57.2859912269
 31
0.0
  0
ELLIPSE
  5
207
330
1F
100
AcDbEntity
  8
0
  6
Continuous
 62
     7
370
    25
100
AcDbEllipse
 10
38.5914723421
 20
54.6391220812
 30
0.0
 11
65.0
 21
0.0
 31
0.0
210
0.0
220
0.0
230
1.0
 40
0.2713992096
 41
6.084179739699223
 42
6.174194364446292
  0
SPLINE
  5
208
330
1F
100
AcDbEntity
  8
0
  6
Continuous
 62
     7
370
    25
100
AcDbSpline
210
0.0
220
0.0
230
1.0
 70
     8
 71
     3
 72
    13
 73
     9
 74
     0
 42
0.00000001
 43
0.00000001
 40
0.0
 40
0.0
 40
0.0
 40
0.0
 40
0.1610294006389558
 40
0.3266880383557516
 40
0.4877296220820637
 40
0.6535536198224136
 40
0.8237602734841889
 40
1.0
 40
1.0
 40
1.0
 40
1.0
 10
102.3086100119915
 20
51.15160140041001
 30
0.0
 10
102.2648062445591
 20
51.08220450583276
 30
0.0
 10
102.1759394488169
 20
50.94141571032421
 30
0.0
 10
102.0469194301449
 20
50.59529089261657
 30
0.0
 10
101.9259093343776
 20
50.15608424956453
 30
0.0
 10
101.8192283512529
 20
49.62248241262493
 30
0.0
 10
101.7285610638971
 20
48.99865610592524
 30
0.0
 10
101.6917422550003
 20
48.52977220772325
 30
0.0
 10
101.673012266229
 20
48.29124764890285
 30
0.0
  0
LINE
  5
209
330
1F
100
AcDbEntity
  8
0
  6
Continuous
 62
     7
370
    25
100
AcDbLine
 10
101.6730122662
 20
48.2912476489
 30
0.0
 11
100.4317501199
 21
48.2912476489
 31
0.0
  0
SPLINE
  5
20A
330
1F
100
AcDbEntity
  8
0
  6
Continuous
 62
     7
370
    25
100
AcDbSpline
210
0.0
220
0.0
230
1.0
 70
     8
 71
     3
 72
    17
 73
    13
 74
     0
 42
0.00000001
 43
0.00000001
 40
0.0
 40
0.0
 40
0.0
 40
0.0
 40
0.3241697628029873
 40
0.5422758463620719
 40
0.689509052693928
 40
0.7894036290694505
 40
0.8577090008137825
 40
0.9049823971474137
 40
0.9551712229700868
 40
0.9753097783197817
 40
0.9919572060138848
 40
1.0
 40
1.0
 40
1.0
 40
1.0
 10
113.0480594674692
 20
56.29124764890049
 30
0.0
 10
113.0887099061959
 20
55.37863414629481
 30
0.0
 10
113.1567105453516
 20
53.85200114003347
 30
0.0
 10
113.268143444668
 20
51.92522823775249
 30
0.0
 10
113.3606481047265
 20
50.63759276681973
 30
0.0
 10
113.4385495610439
 20
49.77844080009798
 30
0.0
 10
113.5046020604662
 20
49.20497291172058
 30
0.0
 10
113.5679586678286
 20
48.78344075769061
 30
0.0
 10
113.6260851355225
 20
48.50294821489519
 30
0.0
 10
113.6854269638453
 20
48.34739954631452
 30
0.0
 10
113.7224330324681
 20
48.29678894711702
 30
0.0
 10
113.7441275993385
 20
48.29260919531239
 30
0.0
 10
113.7511945643183
 20
48.29124764890291
 30
0.0
  0
LINE
  5
20B
330
1F
100
AcDbEntity
  8
0
  6
Continuous
 62
     7
370
    25
100
AcDbLine
 10
113.7511945643
 20
48.2912476489
 30
0.0
 11
112.509932418
 21
48.2912476489
 31
0.0
  0
SPLINE
  5
20C
330
1F
100
AcDbEntity
  8
0
  6
Continuous
 62
     7
370
    25
100
AcDbSpline
210
0.0
220
0.0
230
1.0
 70
     8
 71
     3
 72
    14
 73
    10
 74
     0
 42
0.00000001
 43
0.00000001
 40
0.0
 40
0.0
 40
0.0
 40
0.0
 40
0.1576095309202822
 40
0.3152382602707094
 40
0.4726926441579498
 40
0.6301650083177254
 40
0.7907313191165901
 40
0.9513050385928076
 40
1.0
 40
1.0
 40
1.0
 40
1.0
 10
112.5099324179632
 20
48.29124764890285
 30
0.0
 10
112.4934270811207
 20
48.50474943738025
 30
0.0
 10
112.4604143969193
 20
48.93177902100576
 30
0.0
 10
112.3806107070074
 20
49.51702609986208
 30
0.0
 10
112.2828232995212
 20
50.03918064068449
 30
0.0
 10
112.1692334598392
 20
50.48815876810436
 30
0.0
 10
112.0446913608075
 20
50.84744049991075
 30
0.0
 10
111.944334020031
 20
51.05200667901192
 30
0.0
 10
111.8875482224159
 20
51.13280122736323
 30
0.0
 10
111.8743346722006
 20
51.15160140041001
 30
0.0
  0
ELLIPSE
  5
20D
330
1F
100
AcDbEntity
  8
0
  6
Continuous
 62
     7
370
    25
100
AcDbEllipse
 10
175.5914723421
 20
54.6391220812
 30
0.0
 11
65.0
 21
0.0
 31
0.0
210
0.0
220
0.0
230
1.0
 40
0.2713992096
 41
3.25058359632319
 42
3.340598221070255
  0
LINE
  5
20E
330
1F
100
AcDbEntity
  8
0
  6
Continuous
 62
     7
370
    25
100
AcDbLine
 10
113.2682201827
 20
57.2859912269
 30
0.0
 11
113.0480594675
 21
56.2912476489
 31
0.0
  0
LINE
  5
20F
330
1F
100
AcDbEntity
  8
0
  6
Continuous
 62
     7
370
    25
100
AcDbLine
 10
110.5914723421
 20
57.2859912269
 30
0.0
 11
113.2682201827
 21
57.2859912269
 31
0.0
  0
LINE
  5
210
330
1F
100
AcDbEntity
  8
0
  6
Continuous
 62
     7
370
    25
100
AcDbLine
 10
102.308610012
 20
51.1516014004
 30
0.0
 11
111.8743346722
 21
51.1516014004
 31
0.0
  0
SPLINE
  5
211
330
1F
100
AcDbEntity
  8
0
  6
Continuous
 62
     7
370
    25
100
AcDbSpline
210
0.0
220
0.0
230
1.0
 70
     8
 71
     3
 72
    16
 73
    12
 74
     0
 42
0.00000001
 43
0.00000001
 40
0.0
 40
0.0
 40
0.0
 40
0.0
 40
0.1082397394540288
 40
0.2409347985297594
 40
0.3278143823752722
 40
0.4147786007912546
 40
0.5911316736061375
 40
0.6905102391473411
 40
0.7897210831517909
 40
0.9112972329116562
 40
1.0
 40
1.0
 40
1.0
 40
1.0
 10
109.6895485534494
 20
48.29124764890285
 30
0.0
 10
109.5714946702221
 20
48.47430484359371
 30
0.0
 10
109.3087142097876
 20
48.88177855467922
 30
0.0
 10
108.7320364487102
 20
49.22600822315317
 30
0.0
 10
108.1464788563161
 20
49.42999076727094
 30
0.0
 10
107.4394568432841
 20
49.56140479763302
 30
0.0
 10
106.6796339086687
 20
49.55838455357748
 30
0.0
 10
105.9256654024181
 20
49.40362481886915
 30
0.0
 10
105.3252891998516
 20
49.16307848752594
 30
0.0
 10
104.8086350887139
 20
48.80263664909627
 30
0.0
 10
104.5869221538018
 20
48.44296804454196
 30
0.0
 10
104.4933961307428
 20
48.29124764890285
 30
0.0
  0
LINE
  5
212
330
1F
100
AcDbEntity
  8
0
  6
Continuous
 62
     7
370
    25
100
AcDbLine
 10
104.4933961307
 20
48.2912476489
 30
0.0
 11
101.6730122662
 21
48.2912476489
 31
0.0
  0
LINE
  5
213
330
1F
100
AcDbEntity
  8
0
  6
Continuous
 62
     7
370
    25
100
AcDbLine
 10
112.509932418
 20
48.2912476489
 30
0.0
 11
109.6895485534
 21
48.2912476489
 31
0.0
  0
LINE
  5
214
330
1F
100
AcDbEntity
  8
0
  6
Continuous
 62
     7
370
    25
100
AcDbLine
 10
109.6895485534
 20
48.2912476489
 30
0.0
 11
104.4933961307
 21
48.2912476489
 31
0.0
  0
LINE
  5
215
330
1F
100
AcDbEntity
  8
0
  6
Continuous
 62
     7
370
    25
100
AcDbLine
 10
113.0480594675
 20
56.2912476489
 30
0.0
 11
114.5414723421
 21
56.2912476489
 31
0.0
  0
LINE
  5
216
330
1F
100
AcDbEntity
  8
0
  6
Continuous
 62
     7
370
    25
100
AcDbLine
 10
99.6414723421
 20
56.2912476489
 30
0.0
 11
101.1348852167
 21
56.2912476489
 31
0.0
  0
LINE
  5
217
330
1F
100
AcDbEntity
  8
0
  6
Continuous
 62
     7
370
    25
100
AcDbLine
 10
103.5914723421
 20
64.2912476489
 30
0.0
 11
101.5914723421
 21
64.2912476489
 31
0.0
  0
LINE
  5
218
330
1F
100
AcDbEntity
  8
0
  6
Continuous
 62
     7
370
    25
100
AcDbLine
 10
112.5914723421
 20
64.2912476489
 30
0.0
 11
110.5914723421
 21
64.2912476489
 31
0.0
  0
SPLINE
  5
219
330
1F
100
AcDbEntity
  8
0
  6
Continuous
 62
     7
370
    25
100
AcDbSpline
210
0.0
220
0.0
230
1.0
 70
     8
 71
     3
 72
     9
 73
     5
 74
     0
 42
0.00000001
 43
0.00000001
 40
0.0
 40
0.0
 40
0.0
 40
0.0
 40
0.4875141023677128
 40
0.9999999999999999
 40
0.9999999999999999
 40
0.9999999999999999
 40
0.9999999999999999
 10
113.7511945643183
 20
48.29124764890291
 30
0.0
 10
113.7597206758541
 20
48.29297499487461
 30
0.0
 10
113.7772096294954
 20
48.29651816616609
 30
0.0
 10
113.7935313333818
 20
48.3180366521154
 30
0.0
 10
113.8018959764489
 20
48.32906457270283
 30
0.0
  0
SPLINE
  5
21A
330
1F
100
AcDbEntity
  8
0
  6
Continuous
 62
     7
370
    25
100
AcDbSpline
210
0.0
220
0.0
230
1.0
 70
     8
 71
     3
 72
     9
 73
     5
 74
     0
 42
0.00000001
 43
0.00000001
 40
0.0
 40
0.0
 40
0.0
 40
0.0
 40
0.5124861829376838
 40
0.9999999999999999
 40
0.9999999999999999
 40
0.9999999999999999
 40
0.9999999999999999
 10
100.3810487386095
 20
48.32906452684307
 30
0.0
 10
100.3894133817331
 20
48.31803661389189
 30
0.0
 10
100.4057350766434
 20
48.29651815482249
 30
0.0
 10
100.4232240188852
 20
48.29297499047733
 30
0.0
 10
100.4317501198738
 20
48.29124764890295
 30
0.0
  0
LINE
  5
21B
330
1F
100
AcDbEntity
  8
0
  6
Continuous
 62
     7
370
    25
100
AcDbLine
 10
113.7996762746
 20
48.2912476489
 30
0.0
 11
114.0914723421
 21
48.2912476489
 31
0.0
  0
LINE
  5
21C
330
1F
100
AcDbEntity
  8
0
  6
Continuous
 62
     7
370
    25
100
AcDbLine
 10
100.0914723421
 20
48.2912476489
 30
0.0
 11
100.3832684096
 21
48.2912476489
 31
0.0
  0
LINE
  5
21D
330
1F
100
AcDbEntity
  8
0
  6
Continuous
 62
     7
370
    25
100
AcDbLine
 10
113.8018959764
 20
48.3290645727
 30
0.0
 11
113.7996762746
 21
48.2912476489
 31
0.0
  0
LINE
  5
21E
330
1F
100
AcDbEntity
  8
0
  6
Continuous
 62
     7
370
    25
100
AcDbLine
 10
113.7996762746
 20
48.2912476489
 30
0.0
 11
113.7511945643
 21
48.2912476489
 31
0.0
  0
LINE
  5
21F
330
1F
100
AcDbEntity
  8
0
  6
Continuous
 62
     7
370
    25
100
AcDbLine
 10
100.3832684096
 20
48.2912476489
 30
0.0
 11
100.3810487386
 21
48.3290645268
 31
0.0
  0
LINE
  5
220
330
1F
100
AcDbEntity
  8
0
  6
Continuous
 62
     7
370
    25
100
AcDbLine
 10
100.4317501199
 20
48.2912476489
 30
0.0
 11
100.3832684096
 21
48.2912476489
 31
0.0
  0
LINE
  5
221
330
1F
100
AcDbEntity
  8
0
  6
Continuous
 62
     7
370
    25
100
AcDbLine
 10
101.8414723421
 20
65.1412476489
 30
0.0
 11
103.5914723421
 21
65.1412476489
 31
0.0
  0
LINE
  5
222
330
1F
100
AcDbEntity
  8
0
  6
Continuous
 62
     7
370
    25
100
AcDbLine
 10
110.5914723421
 20
65.1412476489
 30
0.0
 11
112.3414723421
 21
65.1412476489
 31
0.0
  0
CIRCLE
  5
223
330
1F
100
AcDbEntity
  8
0
  6
Continuous
 62
     7
370
    25
100
AcDbCircle
 10
107.0914723421
 20
37.7912476489
 30
0.0
 40
8.249999999999986
  0
SPLINE
  5
224
330
1F
100
AcDbEntity
  8
0
  6
Continuous
 62
     7
370
    25
100
AcDbSpline
210
0.0
220
0.0
230
1.0
 70
     8
 71
     3
 72
    10
 73
     6
 74
     0
 42
0.00000001
 43
0.00000001
 40
0.0
 40
0.0
 40
0.0
 40
0.0
 40
0.5
 40
0.5
 40
1.0
 40
1.0
 40
1.0
 40
1.0
 10
98.59147234209608
 20
33.17244549538584
 30
0.0
 10
98.59147234209607
 20
33.08655843358338
 30
0.0
 10
98.6142647914259
 20
32.99915122460325
 30
0.0
 10
98.70220749551896
 20
32.84651478200951
 30
0.0
 10
98.76706526919283
 20
32.78239173706393
 30
0.0
 10
98.84147234209607
 20
32.73943279349363
 30
0.0
  0
SPLINE
  5
225
330
1F
100
AcDbEntity
  8
0
  6
Continuous
 62
     7
370
    25
100
AcDbSpline
210
0.0
220
0.0
230
1.0
 70
    24
 71
     3
 72
    14
 73
    10
 74
     0
 42
0.00000001
 43
0.00000001
 40
0.0
 40
0.0
 40
0.0
 40
0.0
 40
0.25
 40
0.25
 40
0.5
 40
0.5
 40
0.75
 40
0.75
 40
1.0
 40
1.0
 40
1.0
 40
1.0
 10
98.59147234209608
 20
33.17244549538579
 30
0.0
 10
98.59147234209608
 20
33.92682555603578
 30
0.0
 10
98.59147234209608
 20
34.69626672350127
 30
0.0
 10
98.59147234209608
 20
36.23677808444243
 30
0.0
 10
98.59147234209608
 20
37.01163246444946
 30
0.0
 10
98.59147234209607
 20
38.57199341933502
 30
0.0
 10
98.59147234209608
 20
39.36244961212005
 30
0.0
 10
98.59147234209607
 20
40.90472927492851
 30
0.0
 10
98.59147234209608
 20
41.6621200281297
 30
0.0
 10
98.59147234209608
 20
42.41004980241986
 30
0.0
  0
SPLINE
  5
226
330
1F
100
AcDbEntity
  8
0
  6
Continuous
 62
     7
370
    25
100
AcDbSpline
210
0.0
220
0.0
230
1.0
 70
     8
 71
     3
 72
    10
 73
     6
 74
     0
 42
0.00000001
 43
0.00000001
 40
0.0
 40
0.0
 40
0.0
 40
0.0
 40
0.5
 40
0.5
 40
1.0
 40
1.0
 40
1.0
 40
1.0
 10
98.84147234209608
 20
42.84306250431208
 30
0.0
 10
98.76709196471874
 20
42.80011897341085
 30
0.0
 10
98.70279132593298
 20
42.73667652878672
 30
0.0
 10
98.61457564115003
 20
42.58419769166775
 30
0.0
 10
98.59147234209608
 20
42.49596768956048
 30
0.0
 10
98.59147234209608
 20
42.41004980241986
 30
0.0
  0
SPLINE
  5
227
330
1F
100
AcDbEntity
  8
0
  6
Continuous
 62
     7
370
    25
100
AcDbSpline
210
0.0
220
0.0
230
1.0
 70
    24
 71
     3
 72
    16
 73
    12
 74
     0
 42
0.00000001
 43
0.00000001
 40
0.0
 40
0.0
 40
0.0
 40
0.0
 40
0.2500000000000001
 40
0.2500000000000001
 40
0.5000000000000001
 40
0.5000000000000001
 40
0.6250000000000001
 40
0.6250000000000001
 40
0.7500000000000002
 40
0.7500000000000002
 40
1.0
 40
1.0
 40
1.0
 40
1.0
 10
106.8414723420961
 20
47.46186465782908
 30
0.0
 10
106.1879555620553
 20
47.08455656895259
 30
0.0
 10
105.5297351529653
 20
46.70453283857839
 30
0.0
 10
104.2001725695995
 20
45.93690952316769
 30
0.0
 10
103.528748587529
 20
45.54926270637889
 30
0.0
 10
102.5097475005223
 20
44.96094215449105
 30
0.0
 10
102.1684067182061
 20
44.7638689619354
 30
0.0
 10
101.4928082152356
 20
44.3738119843813
 30
0.0
 10
101.157149065271
 20
44.18001908379325
 30
0.0
 10
100.1558834287713
 20
43.60193809902983
 30
0.0
 10
99.49597577016814
 20
43.22094023469501
 30
0.0
 10
98.84147234209608
 20
42.84306250431208
 30
0.0
  0
SPLINE
  5
228
330
1F
100
AcDbEntity
  8
0
  6
Continuous
 62
     7
370
    25
100
AcDbSpline
210
0.0
220
0.0
230
1.0
 70
     8
 71
     3
 72
    10
 73
     6
 74
     0
 42
0.00000001
 43
0.00000001
 40
0.0
 40
0.0
 40
0.0
 40
0.0
 40
0.5
 40
0.5
 40
1.0
 40
1.0
 40
1.0
 40
1.0
 10
107.3414723420961
 20
47.46186465782908
 30
0.0
 10
107.2670919647187
 20
47.50480818873031
 30
0.0
 10
107.1799988766032
 20
47.5287729530863
 30
0.0
 10
107.0038404877272
 20
47.52893055856108
 30
0.0
 10
106.9158794149994
 20
47.50482360139939
 30
0.0
 10
106.8414723420961
 20
47.46186465782909
 30
0.0
  0
SPLINE
  5
229
330
1F
100
AcDbEntity
  8
0
  6
Continuous
 62
     7
370
    25
100
AcDbSpline
210
0.0
220
0.0
230
1.0
 70
    24
 71
     3
 72
    16
 73
    12
 74
     0
 42
0.00000001
 43
0.00000001
 40
0.0
 40
0.0
 40
0.0
 40
0.0
 40
0.2499999999999997
 40
0.2499999999999997
 40
0.4999999999999993
 40
0.4999999999999993
 40
0.6249999999999993
 40
0.6249999999999993
 40
0.7499999999999996
 40
0.7499999999999996
 40
1.0
 40
1.0
 40
1.0
 40
1.0
 10
115.3414723420961
 20
42.84306250431208
 30
0.0
 10
114.6879555620553
 20
43.22037059318858
 30
0.0
 10
114.0297351529653
 20
43.60039432356277
 30
0.0
 10
112.7001725695995
 20
44.36801763897347
 30
0.0
 10
112.028748587529
 20
44.75566445576228
 30
0.0
 10
111.0097475005223
 20
45.34398500765012
 30
0.0
 10
110.6684067182061
 20
45.54105820020576
 30
0.0
 10
109.9928082152356
 20
45.93111517775986
 30
0.0
 10
109.657149065271
 20
46.1249080783479
 30
0.0
 10
108.6558834287713
 20
46.70298906311134
 30
0.0
 10
107.9959757701681
 20
47.08398692744615
 30
0.0
 10
107.3414723420961
 20
47.46186465782908
 30
0.0
  0
SPLINE
  5
22A
330
1F
100
AcDbEntity
  8
0
  6
Continuous
 62
     7
370
    25
100
AcDbSpline
210
0.0
220
0.0
230
1.0
 70
     8
 71
     3
 72
    10
 73
     6
 74
     0
 42
0.00000001
 43
0.00000001
 40
0.0
 40
0.0
 40
0.0
 40
0.0
 40
0.5
 40
0.5
 40
1.0
 40
1.0
 40
1.0
 40
1.0
 10
115.5914723420961
 20
42.41004980241986
 30
0.0
 10
115.5914723420961
 20
42.49593686422232
 30
0.0
 10
115.5686798927663
 20
42.58334407320243
 30
0.0
 10
115.4807371886732
 20
42.73598051579618
 30
0.0
 10
115.4158794149994
 20
42.80010356074177
 30
0.0
 10
115.3414723420961
 20
42.84306250431208
 30
0.0
  0
SPLINE
  5
22B
330
1F
100
AcDbEntity
  8
0
  6
Continuous
 62
     7
370
    25
100
AcDbSpline
210
0.0
220
0.0
230
1.0
 70
    24
 71
     3
 72
    14
 73
    10
 74
     0
 42
0.00000001
 43
0.00000001
 40
0.0
 40
0.0
 40
0.0
 40
0.0
 40
0.25
 40
0.25
 40
0.5
 40
0.5
 40
0.75
 40
0.75
 40
1.0
 40
1.0
 40
1.0
 40
1.0
 10
115.5914723420961
 20
33.17244549538579
 30
0.0
 10
115.5914723420961
 20
33.92682555603577
 30
0.0
 10
115.5914723420961
 20
34.69626672350127
 30
0.0
 10
115.5914723420961
 20
36.23677808444243
 30
0.0
 10
115.5914723420961
 20
37.01163246444946
 30
0.0
 10
115.5914723420961
 20
38.57199341933501
 30
0.0
 10
115.5914723420961
 20
39.36244961212005
 30
0.0
 10
115.5914723420961
 20
40.90472927492851
 30
0.0
 10
115.5914723420961
 20
41.6621200281297
 30
0.0
 10
115.5914723420961
 20
42.41004980241986
 30
0.0
  0
SPLINE
  5
22C
330
1F
100
AcDbEntity
  8
0
  6
Continuous
 62
     7
370
    25
100
AcDbSpline
210
0.0
220
0.0
230
1.0
 70
     8
 71
     3
 72
    10
 73
     6
 74
     0
 42
0.00000001
 43
0.00000001
 40
0.0
 40
0.0
 40
0.0
 40
0.0
 40
0.5
 40
0.5
 40
1.0
 40
1.0
 40
1.0
 40
1.0
 10
115.3414723420961
 20
32.73943279349363
 30
0.0
 10
115.4158527194732
 20
32.78237632439475
 30
0.0
 10
115.4801533582588
 20
32.84581876901842
 30
0.0
 10
115.568369043042
 20
32.99829760613755
 30
0.0
 10
115.5914723420961
 20
33.08652760824503
 30
0.0
 10
115.5914723420961
 20
33.17244549538582
 30
0.0
  0
SPLINE
  5
22D
330
1F
100
AcDbEntity
  8
0
  6
Continuous
 62
     7
370
    25
100
AcDbSpline
210
0.0
220
0.0
230
1.0
 70
    24
 71
     3
 72
    16
 73
    12
 74
     0
 42
0.00000001
 43
0.00000001
 40
0.0
 40
0.0
 40
0.0
 40
0.0
 40
0.2500000000000002
 40
0.2500000000000002
 40
0.5000000000000004
 40
0.5000000000000004
 40
0.6250000000000003
 40
0.6250000000000003
 40
0.7500000000000002
 40
0.7500000000000002
 40
1.0
 40
1.0
 40
1.0
 40
1.0
 10
107.3414723420961
 20
28.12063063997661
 30
0.0
 10
107.9949891221368
 20
28.49793872885308
 30
0.0
 10
108.6532095312268
 20
28.87796245922726
 30
0.0
 10
109.9827721145924
 20
29.64558577463789
 30
0.0
 10
110.6541960966629
 20
30.03323259142666
 30
0.0
 10
111.6731971836696
 20
30.62155314331446
 30
0.0
 10
112.0145379659857
 20
30.81862633587009
 30
0.0
 10
112.6901364689562
 20
31.20868331342416
 30
0.0
 10
113.0257956189208
 20
31.40247621401219
 30
0.0
 10
114.0270612554204
 20
31.98055719877557
 30
0.0
 10
114.6869689140235
 20
32.36155506311037
 30
0.0
 10
115.3414723420955
 20
32.73943279349327
 30
0.0
  0
SPLINE
  5
22E
330
1F
100
AcDbEntity
  8
0
  6
Continuous
 62
     7
370
    25
100
AcDbSpline
210
0.0
220
0.0
230
1.0
 70
     8
 71
     3
 72
    10
 73
     6
 74
     0
 42
0.00000001
 43
0.00000001
 40
0.0
 40
0.0
 40
0.0
 40
0.0
 40
0.5
 40
0.5
 40
1.0
 40
1.0
 40
1.0
 40
1.0
 10
106.8414723420961
 20
28.12063063997661
 30
0.0
 10
106.9158527194734
 20
28.07768710907538
 30
0.0
 10
107.002945807589
 20
28.0537223447194
 30
0.0
 10
107.179104196465
 20
28.05356473924462
 30
0.0
 10
107.2670652691928
 20
28.0776716964063
 30
0.0
 10
107.3414723420961
 20
28.12063063997661
 30
0.0
  0
SPLINE
  5
22F
330
1F
100
AcDbEntity
  8
0
  6
Continuous
 62
     7
370
    25
100
AcDbSpline
210
0.0
220
0.0
230
1.0
 70
    24
 71
     3
 72
    16
 73
    12
 74
     0
 42
0.00000001
 43
0.00000001
 40
0.0
 40
0.0
 40
0.0
 40
0.0
 40
0.2500000000000001
 40
0.2500000000000001
 40
0.5000000000000002
 40
0.5000000000000002
 40
0.6250000000000001
 40
0.6250000000000001
 40
0.7500000000000001
 40
0.7500000000000001
 40
1.0
 40
1.0
 40
1.0
 40
1.0
 10
98.84147234209607
 20
32.73943279349363
 30
0.0
 10
99.49498912213689
 20
32.36212470461713
 30
0.0
 10
100.1532095312269
 20
31.98210097424292
 30
0.0
 10
101.4827721145926
 20
31.21447765883223
 30
0.0
 10
102.1541960966632
 20
30.82683084204343
 30
0.0
 10
103.1731971836699
 20
30.23851029015558
 30
0.0
 10
103.5145379659861
 20
30.04143709759994
 30
0.0
 10
104.1901364689566
 20
29.65138012004583
 30
0.0
 10
104.5257956189212
 20
29.4575872194578
 30
0.0
 10
105.5270612554209
 20
28.87950623469437
 30
0.0
 10
106.186968914024
 20
28.49850837035955
 30
0.0
 10
106.8414723420961
 20
28.12063063997661
 30
0.0
  0
LINE
  5
230
330
1F
100
AcDbEntity
  8
0
  6
Continuous
 62
     7
370
    25
100
AcDbLine
 10
107.3414723421
 20
28.12063064
 30
0.0
 11
107.3414723421
 21
26.1133066215
 31
0.0
  0
SPLINE
  5
231
330
1F
100
AcDbEntity
  8
0
  6
Continuous
 62
     7
370
    25
100
AcDbSpline
210
0.0
220
0.0
230
1.0
 70
     8
 71
     3
 72
    10
 73
     6
 74
     0
 42
0.00000001
 43
0.00000001
 40
0.0
 40
0.0
 40
0.0
 40
0.0
 40
0.5
 40
0.5
 40
1.0
 40
1.0
 40
1.0
 40
1.0
 10
106.8414723420961
 20
26.11330662146045
 30
0.0
 10
106.9158470960861
 20
26.13698022595156
 30
0.0
 10
107.0029408276521
 20
26.15007300174479
 30
0.0
 10
107.1791066561965
 20
26.15015956984574
 30
0.0
 10
107.2670676800868
 20
26.13698974572246
 30
0.0
 10
107.3414723420961
 20
26.11330662146044
 30
0.0
  0
LINE
  5
232
330
1F
100
AcDbEntity
  8
0
  6
Continuous
 62
     7
370
    25
100
AcDbLine
 10
106.8414723421
 20
26.1133066215
 30
0.0
 11
106.8414723421
 21
28.12063064
 31
0.0
  0
LINE
  5
233
330
1F
100
AcDbEntity
  8
0
  6
Continuous
 62
     7
370
    25
100
AcDbLine
 10
115.3414723421
 20
25.2912476489
 30
0.0
 11
98.8414723421
 21
25.2912476489
 31
0.0
  0
SPLINE
  5
234
330
1F
100
AcDbEntity
  8
0
  6
Continuous
 62
     7
370
    25
100
AcDbSpline
210
0.0
220
0.0
230
1.0
 70
     8
 71
     3
 72
    10
 73
     6
 74
     0
 42
0.00000001
 43
0.00000001
 40
0.0
 40
0.0
 40
0.0
 40
0.0
 40
0.5
 40
0.5
 40
1.0
 40
1.0
 40
1.0
 40
1.0
 10
98.59147234209608
 20
26.11330662146044
 30
0.0
 10
98.59147234209607
 20
26.13698052201639
 30
0.0
 10
98.61426291374352
 20
26.15007307919554
 30
0.0
 10
98.70220891104233
 20
26.15015949317782
 30
0.0
 10
98.76706970377512
 20
26.13698910157919
 30
0.0
 10
98.84147234209608
 20
26.11330662146044
 30
0.0
  0
SPLINE
  5
235
330
1F
100
AcDbEntity
  8
0
  6
Continuous
 62
     7
370
    25
100
AcDbSpline
210
0.0
220
0.0
230
1.0
 70
     8
 71
     3
 72
    16
 73
    12
 74
     0
 42
0.00000001
 43
0.00000001
 40
0.0
 40
0.0
 40
0.0
 40
0.0
 40
0.2500000000000001
 40
0.2500000000000001
 40
0.5000000000000001
 40
0.5000000000000001
 40
0.6250000000000001
 40
0.6250000000000001
 40
0.7500000000000002
 40
0.7500000000000002
 40
1.0
 40
1.0
 40
1.0
 40
1.0
 10
106.8414723420961
 20
26.11330662145998
 30
0.0
 10
106.1872506886566
 20
25.90506681101133
 30
0.0
 10
105.5287981531454
 20
25.73489352460189
 30
0.0
 10
104.2001535281622
 20
25.50017126498604
 30
0.0
 10
103.5298890838747
 20
25.43627328991157
 30
0.0
 10
102.513953340313
 20
25.43524958782507
 30
0.0
 10
102.1726022222133
 20
25.45073613496977
 30
0.0
 10
101.4961859107488
 20
25.51185985642776
 30
0.0
 10
101.160113141708
 20
25.55738158372278
 30
0.0
 10
100.1575950806469
 20
25.73388094746795
 30
0.0
 10
99.4968372105554
 20
25.90470292382177
 30
0.0
 10
98.84147234209605
 20
26.1133066214603
 30
0.0
  0
SPLINE
  5
236
330
1F
100
AcDbEntity
  8
0
  6
Continuous
 62
     7
370
    25
100
AcDbSpline
210
0.0
220
0.0
230
1.0
 70
     8
 71
     3
 72
    16
 73
    12
 74
     0
 42
0.00000001
 43
0.00000001
 40
0.0
 40
0.0
 40
0.0
 40
0.0
 40
0.2500000000000001
 40
0.2500000000000001
 40
0.5000000000000002
 40
0.5000000000000002
 40
0.6250000000000001
 40
0.6250000000000001
 40
0.75
 40
0.75
 40
1.0
 40
1.0
 40
1.0
 40
1.0
 10
115.3414723420961
 20
26.11330662145998
 30
0.0
 10
114.6872506886566
 20
25.90506681101133
 30
0.0
 10
114.0287981531455
 20
25.73489352460189
 30
0.0
 10
112.7001535281623
 20
25.50017126498604
 30
0.0
 10
112.0298890838747
 20
25.43627328991157
 30
0.0
 10
111.013953340313
 20
25.43524958782507
 30
0.0
 10
110.6726022222133
 20
25.45073613496977
 30
0.0
 10
109.9961859107488
 20
25.51185985642775
 30
0.0
 10
109.660113141708
 20
25.55738158372278
 30
0.0
 10
108.6575950806469
 20
25.73388094746795
 30
0.0
 10
107.9968372105554
 20
25.90470292382177
 30
0.0
 10
107.3414723420961
 20
26.1133066214603
 30
0.0
  0
SPLINE
  5
237
330
1F
100
AcDbEntity
  8
0
  6
Continuous
 62
     7
370
    25
100
AcDbSpline
210
0.0
220
0.0
230
1.0
 70
     8
 71
     3
 72
    10
 73
     6
 74
     0
 42
0.00000001
 43
0.00000001
 40
0.0
 40
0.0
 40
0.0
 40
0.0
 40
0.5
 40
0.5
 40
1.0
 40
1.0
 40
1.0
 40
1.0
 10
115.3414723420961
 20
26.11330662146045
 30
0.0
 10
115.4158428090217
 20
26.136978861372
 30
0.0
 10
115.4801484053095
 20
26.15007285130726
 30
0.0
 10
115.5683711931153
 20
26.15015971876871
 30
0.0
 10
115.5914723420961
 20
26.13698992900935
 30
0.0
 10
115.5914723420961
 20
26.11330662146044
 30
0.0
  0
SPLINE
  5
238
330
1F
100
AcDbEntity
  8
0
  6
Continuous
 62
     7
370
    25
100
AcDbSpline
210
0.0
220
0.0
230
1.0
 70
    24
 71
     3
 72
    11
 73
     7
 74
     0
 42
0.00000001
 43
0.00000001
 40
0.0
 40
0.0
 40
0.0
 40
0.0
 40
0.1494789556427516
 40
0.4649868829923623
 40
0.7803638442226483
 40
1.0
 40
1.0
 40
1.0
 40
1.0
 10
98.59147234209608
 20
26.11330662146044
 30
0.0
 10
98.59147234209608
 20
26.05317738422174
 30
0.0
 10
98.59147234209608
 20
25.86613228158434
 30
0.0
 10
98.59147234209608
 20
25.62684718564578
 30
0.0
 10
98.59147234209607
 20
25.45257377493732
 30
0.0
 10
98.59147234209608
 20
25.4533503153662
 30
0.0
 10
98.59147234209608
 20
25.45366910447471
 30
0.0
  0
SPLINE
  5
239
330
1F
100
AcDbEntity
  8
0
  6
Continuous
 62
     7
370
    25
100
AcDbSpline
210
0.0
220
0.0
230
1.0
 70
    24
 71
     3
 72
    11
 73
     7
 74
     0
 42
0.00000001
 43
0.00000001
 40
0.0
 40
0.0
 40
0.0
 40
0.0
 40
0.1965539981665453
 40
0.523460588134037
 40
0.8505170639684512
 40
1.0
 40
1.0
 40
1.0
 40
1.0
 10
115.5914723420961
 20
25.45340283764889
 30
0.0
 10
115.5914723420961
 20
25.45193639165184
 30
0.0
 10
115.5914723420961
 20
25.44803096774165
 30
0.0
 10
115.5914723420961
 20
25.61718530651678
 30
0.0
 10
115.5914723420961
 20
25.86147580380196
 30
0.0
 10
115.5914723420961
 20
26.05317392790207
 30
0.0
 10
115.5914723420961
 20
26.11330662146045
 30
0.0
  0
SPLINE
  5
23A
330
1F
100
AcDbEntity
  8
0
  6
Continuous
 62
     7
370
    25
100
AcDbSpline
210
0.0
220
0.0
230
1.0
 70
     8
 71
     3
 72
    12
 73
     8
 74
     0
 42
0.00000001
 43
0.00000001
 40
0.0
 40
0.0
 40
0.0
 40
0.0
 40
0.2499999999999999
 40
0.2499999999999999
 40
0.4999999999999998
 40
0.4999999999999998
 40
1.0
 40
1.0
 40
1.0
 40
1.0
 10
111.4659024348484
 20
30.50187146426799
 30
0.0
 10
111.7950374252416
 20
30.49816297841156
 30
0.0
 10
112.1244995781783
 20
30.47958047557388
 30
0.0
 10
112.777373196236
 20
30.41471343860773
 30
0.0
 10
113.1018257881131
 20
30.36844788535747
 30
0.0
 10
114.0698862293052
 20
30.1927233550505
 30
0.0
 10
114.7082087135531
 20
30.02641994627374
 30
0.0
 10
115.3414723420961
 20
29.82485110904785
 30
0.0
  0
LINE
  5
23B
330
1F
100
AcDbEntity
  8
0
  6
Continuous
 62
     7
370
    25
100
AcDbLine
 10
115.3414723421
 20
26.1133066215
 30
0.0
 11
115.3414723421
 21
29.824851109
 31
0.0
  0
LINE
  5
23C
330
1F
100
AcDbEntity
  8
0
  6
Continuous
 62
     7
370
    25
100
AcDbLine
 10
98.8414723421
 20
29.824851109
 30
0.0
 11
98.8414723421
 21
26.1133066215
 31
0.0
  0
SPLINE
  5
23D
330
1F
100
AcDbEntity
  8
0
  6
Continuous
 62
     7
370
    25
100
AcDbSpline
210
0.0
220
0.0
230
1.0
 70
     8
 71
     3
 72
    10
 73
     6
 74
     0
 42
0.00000001
 43
0.00000001
 40
0.0
 40
0.0
 40
0.0
 40
0.0
 40
0.5
 40
0.5
 40
1.0
 40
1.0
 40
1.0
 40
1.0
 10
98.84147234209657
 20
29.824851109048
 30
0.0
 10
99.4763000479102
 20
30.02691779459892
 30
0.0
 10
100.115565750486
 20
30.19331056686957
 30
0.0
 10
101.4063806820759
 20
30.42735754073962
 30
0.0
 10
102.0580003175457
 20
30.49444579469845
 30
0.0
 10
102.7170422493658
 20
30.50187146426823
 30
0.0
  0
SPLINE
  5
23E
330
1F
100
AcDbEntity
  8
0
  6
Continuous
 62
     7
370
    25
100
AcDbSpline
210
0.0
220
0.0
230
1.0
 70
     8
 71
     3
 72
     8
 73
     4
 74
     0
 42
0.00000001
 43
0.00000001
 40
0.0
 40
0.0
 40
0.0
 40
0.0
 40
1.0
 40
1.0
 40
1.0
 40
1.0
 10
98.59147234209608
 20
29.98633643732886
 30
0.0
 10
99.1132784933979
 20
30.25892657299822
 30
0.0
 10
99.6369319622541
 20
30.52807907411961
 30
0.0
 10
100.1632691118206
 20
30.79124764890285
 30
0.0
  0
SPLINE
  5
23F
330
1F
100
AcDbEntity
  8
0
  6
Continuous
 62
     7
370
    25
100
AcDbSpline
210
0.0
220
0.0
230
1.0
 70
     8
 71
     3
 72
    10
 73
     6
 74
     0
 42
0.00000001
 43
0.00000001
 40
0.0
 40
0.0
 40
0.0
 40
0.0
 40
0.5
 40
0.5
 40
1.0
 40
1.0
 40
1.0
 40
1.0
 10
98.59147234209608
 20
29.82485110904783
 30
0.0
 10
98.59147234209607
 20
29.80117571462342
 30
0.0
 10
98.61426479142592
 20
29.78808460473878
 30
0.0
 10
98.70220749551918
 20
29.78799828345057
 30
0.0
 10
98.76706526919335
 20
29.80116721739451
 30
0.0
 10
98.84147234209675
 20
29.82485110904806
 30
0.0
  0
SPLINE
  5
240
330
1F
100
AcDbEntity
  8
0
  6
Continuous
 62
     7
370
    25
100
AcDbSpline
210
0.0
220
0.0
230
1.0
 70
    24
 71
     3
 72
     8
 73
     4
 74
     0
 42
0.00000001
 43
0.00000001
 40
0.0
 40
0.0
 40
0.0
 40
0.0
 40
1.0
 40
1.0
 40
1.0
 40
1.0
 10
98.59147234209608
 20
29.98633643732886
 30
0.0
 10
98.59147234209608
 20
29.93544164762804
 30
0.0
 10
98.59147234209608
 20
29.8815077982666
 30
0.0
 10
98.59147234209608
 20
29.82485110904785
 30
0.0
  0
SPLINE
  5
241
330
1F
100
AcDbEntity
  8
0
  6
Continuous
 62
     7
370
    25
100
AcDbSpline
210
0.0
220
0.0
230
1.0
 70
     8
 71
     3
 72
     8
 73
     4
 74
     0
 42
0.00000001
 43
0.00000001
 40
0.0
 40
0.0
 40
0.0
 40
0.0
 40
1.0
 40
1.0
 40
1.0
 40
1.0
 10
114.0196755723716
 20
30.79124764890285
 30
0.0
 10
114.5460964335808
 20
30.52803721829824
 30
0.0
 10
115.0696408902945
 20
30.25893978991154
 30
0.0
 10
115.5914723420961
 20
29.98633643732888
 30
0.0
  0
SPLINE
  5
242
330
1F
100
AcDbEntity
  8
0
  6
Continuous
 62
     7
370
    25
100
AcDbSpline
210
0.0
220
0.0
230
1.0
 70
     8
 71
     3
 72
    10
 73
     6
 74
     0
 42
0.00000001
 43
0.00000001
 40
0.0
 40
0.0
 40
0.0
 40
0.0
 40
0.5
 40
0.5
 40
1.0
 40
1.0
 40
1.0
 40
1.0
 10
115.3414723420961
 20
29.82485110904785
 30
0.0
 10
115.4158527194734
 20
29.80117571462346
 30
0.0
 10
115.4801533582592
 20
29.78808460473882
 30
0.0
 10
115.5683690430421
 20
29.78799828345054
 30
0.0
 10
115.5914723420961
 20
29.80116721739438
 30
0.0
 10
115.5914723420961
 20
29.82485110904784
 30
0.0
  0
SPLINE
  5
243
330
1F
100
AcDbEntity
  8
0
  6
Continuous
 62
     7
370
    25
100
AcDbSpline
210
0.0
220
0.0
230
1.0
 70
    24
 71
     3
 72
     8
 73
     4
 74
     0
 42
0.00000001
 43
0.00000001
 40
0.0
 40
0.0
 40
0.0
 40
0.0
 40
1.0
 40
1.0
 40
1.0
 40
1.0
 10
115.5914723420961
 20
29.98633643732886
 30
0.0
 10
115.5914723420961
 20
29.93544164762804
 30
0.0
 10
115.5914723420961
 20
29.8815077982666
 30
0.0
 10
115.5914723420961
 20
29.82485110904785
 30
0.0
  0
LINE
  5
244
330
1F
100
AcDbEntity
  8
0
  6
Continuous
 62
     7
370
    25
100
AcDbLine
 10
99.5914723421
 20
30.7912476489
 30
0.0
 11
102.2158279951
 21
30.7912476489
 31
0.0
  0
LINE
  5
245
330
1F
100
AcDbEntity
  8
0
  6
Continuous
 62
     7
370
    25
100
AcDbLine
 10
99.5914723421
 20
30.7912476489
 30
0.0
 11
99.5914723421
 21
32.3064200916
 31
0.0
  0
LINE
  5
246
330
1F
100
AcDbEntity
  8
0
  6
Continuous
 62
     7
370
    25
100
AcDbLine
 10
111.9671166891
 20
30.7912476489
 30
0.0
 11
114.5914723421
 21
30.7912476489
 31
0.0
  0
LINE
  5
247
330
1F
100
AcDbEntity
  8
0
  6
Continuous
 62
     7
370
    25
100
AcDbLine
 10
114.5914723421
 20
32.3064200916
 30
0.0
 11
114.5914723421
 21
30.7912476489
 31
0.0
  0
LINE
  5
248
330
1F
100
AcDbEntity
  8
0
  6
Continuous
 62
     7
370
    25
100
AcDbLine
 10
107.0914723421
 20
14.2912476489
 30
0.0
 11
100.8414723421
 21
14.2912476489
 31
0.0
  0
LINE
  5
249
330
1F
100
AcDbEntity
  8
0
  6
Continuous
 62
     7
370
    25
100
AcDbLine
 10
113.3414723421
 20
14.2912476489
 30
0.0
 11
107.0914723421
 21
14.2912476489
 31
0.0
  0
LINE
  5
24A
330
1F
100
AcDbEntity
  8
0
  6
Continuous
 62
     7
370
    25
100
AcDbLine
 10
107.0914723421
 20
14.5412476489
 30
0.0
 11
113.5914723421
 21
14.5412476489
 31
0.0
  0
LINE
  5
24B
330
1F
100
AcDbEntity
  8
0
  6
Continuous
 62
     7
370
    25
100
AcDbLine
 10
100.5914723421
 20
14.5412476489
 30
0.0
 11
107.0914723421
 21
14.5412476489
 31
0.0
  0
LINE
  5
24C
330
1F
100
AcDbEntity
  8
0
  6
Continuous
 62
     7
370
    25
100
AcDbLine
 10
98.5914723421
 20
26.1133066215
 30
0.0
 11
98.5914723421
 21
29.824851109
 31
0.0
  0
LINE
  5
24D
330
1F
100
AcDbEntity
  8
0
  6
Continuous
 62
     7
370
    25
100
AcDbLine
 10
115.5914723421
 20
29.824851109
 30
0.0
 11
115.5914723421
 21
26.1133066215
 31
0.0
  0
LINE
  5
24E
330
1F
100
AcDbEntity
  8
0
  6
Continuous
 62
     7
370
    25
100
AcDbLine
 10
98.5914723421
 20
29.9863364373
 30
0.0
 11
98.5914723421
 21
33.1245095354
 31
0.0
  0
LINE
  5
24F
330
1F
100
AcDbEntity
  8
0
  6
Continuous
 62
     7
370
    25
100
AcDbLine
 10
115.5914723421
 20
29.9863364373
 30
0.0
 11
115.5914723421
 21
33.1245095354
 31
0.0
  0
LINE
  5
250
330
1F
100
AcDbEntity
  8
0
  6
Continuous
 62
     7
370
    25
100
AcDbLine
 10
103.5914723421
 20
64.8912476489
 30
0.0
 11
101.5914723421
 21
64.8912476489
 31
0.0
  0
LINE
  5
251
330
1F
100
AcDbEntity
  8
0
  6
Continuous
 62
     7
370
    25
100
AcDbLine
 10
112.5914723421
 20
64.8912476489
 30
0.0
 11
110.5914723421
 21
64.8912476489
 31
0.0
  0
SPLINE
  5
252
330
1F
100
AcDbEntity
  8
0
  6
Continuous
 62
     7
370
    25
100
AcDbSpline
210
0.0
220
0.0
230
1.0
 70
     8
 71
     3
 72
    19
 73
    15
 74
     0
 42
0.00000001
 43
0.00000001
 40
0.0
 40
0.0
 40
0.0
 40
0.0
 40
0.0167728413424201
 40
0.0954897270949698
 40
0.1743112560903846
 40
0.2799305895889194
 40
0.3857455571487231
 40
0.4988287546139042
 40
0.6118934372270978
 40
0.7070730749632886
 40
0.8021785114931503
 40
0.8927556331212032
 40
0.9832581092663042
 40
1.0
 40
1.0
 40
1.0
 40
1.0
 10
101.1991180351091
 20
44.33065401969434
 30
0.0
 10
101.1965924661339
 20
44.32751930793221
 30
0.0
 10
101.1822141096422
 20
44.30967303105064
 30
0.0
 10
101.2456594526124
 20
44.38873603481225
 30
0.0
 10
101.4007649416395
 20
44.57322039092288
 30
0.0
 10
101.6890626295057
 20
44.89319952624123
 30
0.0
 10
102.1214965029549
 20
45.31764773716612
 30
0.0
 10
102.6759292712409
 20
45.78031233236632
 30
0.0
 10
103.3188248223099
 20
46.22079232303317
 30
0.0
 10
104.0182617481173
 20
46.59885325763933
 30
0.0
 10
104.7402620679494
 20
46.90207678734814
 30
0.0
 10
105.5179814572595
 20
47.12047590557435
 30
0.0
 10
106.1060299300104
 20
47.24187566534347
 30
0.0
 10
106.4356201085246
 20
47.25517549269257
 30
0.0
 10
106.4870723471472
 20
47.25725172534455
 30
0.0
  0
SPLINE
  5
253
330
1F
100
AcDbEntity
  8
0
  6
Continuous
 62
     7
370
    25
100
AcDbSpline
210
0.0
220
0.0
230
1.0
 70
     8
 71
     3
 72
    19
 73
    15
 74
     0
 42
0.00000001
 43
0.00000001
 40
0.0
 40
0.0
 40
0.0
 40
0.0
 40
0.0313541525049339
 40
0.0973967561635377
 40
0.1974102611011989
 40
0.2975360313595438
 40
0.4181235875229935
 40
0.5388075863829936
 40
0.6564386044625942
 40
0.7739032282464052
 40
0.8504377750521088
 40
0.9268716124080197
 40
0.9967384884228341
 40
1.0
 40
1.0
 40
1.0
 40
1.0
 10
107.7036695520372
 20
47.25275000116988
 30
0.0
 10
107.7995414736596
 20
47.24752996163767
 30
0.0
 10
108.0973525585459
 20
47.23131472770961
 30
0.0
 10
108.680237960506
 20
47.11694226282426
 30
0.0
 10
109.4294822989484
 20
46.90766975734695
 30
0.0
 10
110.2499470247034
 20
46.56334786486388
 30
0.0
 10
111.0170937108359
 20
46.12774882375047
 30
0.0
 10
111.6983843057807
 20
45.63234992878052
 30
0.0
 10
112.2490944002353
 20
45.14195389628127
 30
0.0
 10
112.6178319590207
 20
44.75899786835748
 30
0.0
 10
112.8458572826982
 20
44.49824597617205
 30
0.0
 10
112.9569632669809
 20
44.36378905285068
 30
0.0
 10
113.0009394101105
 20
44.30989127937719
 30
0.0
 10
112.9900141148306
 20
44.32322507684604
 30
0.0
 10
112.9895268488288
 20
44.32381976156758
 30
0.0
  0
INSERT
  5
25F
330
1F
100
AcDbEntity
  8
0
  6
Continuous
 62
     7
370
    18
100
AcDbBlockReference
  2
SW_CENTERMARKSYMBOL_1
 10
107.0914723421
 20
37.7912476489
 30
0.0
  0
ENDSEC
  0
SECTION
  2
OBJECTS
  0
DICTIONARY
  5
C
330
0
100
AcDbDictionary
281
     1
  3
ACAD_GROUP
350
D
  3
ACAD_LAYOUT
350
1A
  3
ACAD_MLINESTYLE
350
17
  3
ACAD_PLOTSETTINGS
350
19
  3
ACAD_PLOTSTYLENAME
350
E
  3
ACAD_SCALELIST
350
47
  3
DWGPROPS
350
260
  0
DICTIONARY
  5
D
102
{ACAD_REACTORS
330
C
102
}
330
C
100
AcDbDictionary
281
     1
  0
DICTIONARY
  5
1A
102
{ACAD_REACTORS
330
C
102
}
330
C
100
AcDbDictionary
281
     1
  3
Layout1
350
1E
  3
Layout2
350
26
  3
Model
350
22
  0
DICTIONARY
  5
17
102
{ACAD_REACTORS
330
C
102
}
330
C
100
AcDbDictionary
281
     1
  3
Standard
350
18
  0
DICTIONARY
  5
19
102
{ACAD_REACTORS
330
C
102
}
330
C
100
AcDbDictionary
281
     1
  0
ACDBDICTIONARYWDFLT
  5
E
102
{ACAD_REACTORS
330
C
102
}
330
C
100
AcDbDictionary
281
     1
  3
Normal
350
F
100
AcDbDictionaryWithDefault
340
F
  0
DICTIONARY
  5
47
102
{ACAD_REACTORS
330
C
102
}
330
C
100
AcDbDictionary
281
     1
  3
A0
350
48
  3
A1
350
49
  3
A2
350
4A
  3
A3
350
4B
  3
A4
350
4C
  3
A5
350
4D
  3
A6
350
4E
  3
A7
350
4F
  3
A8
350
50
  3
A9
350
51
  3
B0
350
52
  3
B1
350
53
  3
B2
350
54
  3
B3
350
55
  3
B4
350
56
  3
B5
350
57
  3
B6
350
58
  0
XRECORD
  5
260
102
{ACAD_REACTORS
330
C
102
}
330
C
100
AcDbXrecord
280
     1
  1
DWGPROPS COOKIE
  2

  3

  4

  6

  7

  8
user52
  9

300
=
301
=
302
=
303
=
304
=
305
=
306
=
307
=
308
=
309
=
 40
0.0
 41
2460339.082496505
 42
2460339.082496921
  1

 90
        0
  0
LAYOUT
  5
1E
102
{ACAD_REACTORS
330
1A
102
}
330
1A
100
AcDbPlotSettings
  1

  2
none_device
  4

  6

 40
0.0
 41
0.0
 42
0.0
 43
0.0
 44
0.0
 45
0.0
 46
0.0
 47
0.0
 48
0.0
 49
0.0
140
0.0
141
0.0
142
1.0
143
1.0
 70
   688
 72
     1
 73
     0
 74
     5
  7

 75
    16
147
1.0
148
0.0
149
0.0
100
AcDbLayout
  1
Layout1
 70
     1
 71
     1
 10
0.0
 20
0.0
 11
420.0
 21
297.0
 12
0.0
 22
0.0
 32
0.0
 14
1.0000000000E+20
 24
1.0000000000E+20
 34
1.0000000000E+20
 15
-1.0000000000E+20
 25
-1.0000000000E+20
 35
-1.0000000000E+20
146
0.0
 13
0.0
 23
0.0
 33
0.0
 16
1.0
 26
0.0
 36
0.0
 17
0.0
 27
1.0
 37
0.0
 76
     0
330
1B
  0
LAYOUT
  5
26
102
{ACAD_REACTORS
330
1A
102
}
330
1A
100
AcDbPlotSettings
  1

  2
none_device
  4

  6

 40
0.0
 41
0.0
 42
0.0
 43
0.0
 44
0.0
 45
0.0
 46
0.0
 47
0.0
 48
0.0
 49
0.0
140
0.0
141
0.0
142
1.0
143
1.0
 70
   688
 72
     1
 73
     0
 74
     5
  7

 75
    16
147
1.0
148
0.0
149
0.0
100
AcDbLayout
  1
Layout2
 70
     1
 71
     2
 10
0.0
 20
0.0
 11
0.0
 21
0.0
 12
0.0
 22
0.0
 32
0.0
 14
0.0
 24
0.0
 34
0.0
 15
0.0
 25
0.0
 35
0.0
146
0.0
 13
0.0
 23
0.0
 33
0.0
 16
1.0
 26
0.0
 36
0.0
 17
0.0
 27
1.0
 37
0.0
 76
     0
330
23
  0
LAYOUT
  5
22
102
{ACAD_REACTORS
330
1A
102
}
330
1A
100
AcDbPlotSettings
  1

  2
none_device
  4
Letter_(8.50_x_11.00_Inches)
  6

 40
6.35
 41
6.35
 42
6.35000508
 43
6.35000508
 44
215.9
 45
279.4
 46
0.0
 47
0.0
 48
0.0
 49
0.0
140
0.0
141
0.0
142
1.0
143
1.0
 70
  1712
 72
     1
 73
     0
 74
     0
  7

 75
     0
147
1.0
148
0.0
149
0.0
100
AcDbLayout
  1
Model
 70
     1
 71
     0
 10
0.0
 20
0.0
 11
431.8
 21
279.4
 12
0.0
 22
0.0
 32
0.0
 14
0.0
 24
0.0
 34
0.0
 15
431.8
 25
279.4
 35
0.0
146
0.0
 13
0.0
 23
0.0
 33
0.0
 16
1.0
 26
0.0
 36
0.0
 17
0.0
 27
1.0
 37
0.0
 76
     0
330
1F
331
29
  0
MLINESTYLE
  5
18
102
{ACAD_REACTORS
330
17
102
}
330
17
100
AcDbMlineStyle
  2
Standard
 70
     0
  3

 62
   256
 51
90.0
 52
90.0
 71
     2
 49
0.5
 62
   256
  6
BYLAYER
 49
-0.5
 62
   256
  6
BYLAYER
  0
ACDBPLACEHOLDER
  5
F
102
{ACAD_REACTORS
330
E
102
}
330
E
  0
SCALE
  5
48
102
{ACAD_REACTORS
330
47
102
}
330
47
100
AcDbScale
 70
     0
300
1:1
140
1.0
141
1.0
290
     1
  0
SCALE
  5
49
102
{ACAD_REACTORS
330
47
102
}
330
47
100
AcDbScale
 70
     0
300
1:2
140
1.0
141
2.0
290
     0
  0
SCALE
  5
4A
102
{ACAD_REACTORS
330
47
102
}
330
47
100
AcDbScale
 70
     0
300
1:4
140
1.0
141
4.0
290
     0
  0
SCALE
  5
4B
102
{ACAD_REACTORS
330
47
102
}
330
47
100
AcDbScale
 70
     0
300
1:5
140
1.0
141
5.0
290
     0
  0
SCALE
  5
4C
102
{ACAD_REACTORS
330
47
102
}
330
47
100
AcDbScale
 70
     0
300
1:8
140
1.0
141
8.0
290
     0
  0
SCALE
  5
4D
102
{ACAD_REACTORS
330
47
102
}
330
47
100
AcDbScale
 70
     0
300
1:10
140
1.0
141
10.0
290
     0
  0
SCALE
  5
4E
102
{ACAD_REACTORS
330
47
102
}
330
47
100
AcDbScale
 70
     0
300
1:16
140
1.0
141
16.0
290
     0
  0
SCALE
  5
4F
102
{ACAD_REACTORS
330
47
102
}
330
47
100
AcDbScale
 70
     0
300
1:20
140
1.0
141
20.0
290
     0
  0
SCALE
  5
50
102
{ACAD_REACTORS
330
47
102
}
330
47
100
AcDbScale
 70
     0
300
1:30
140
1.0
141
30.0
290
     0
  0
SCALE
  5
51
102
{ACAD_REACTORS
330
47
102
}
330
47
100
AcDbScale
 70
     0
300
1:40
140
1.0
141
40.0
290
     0
  0
SCALE
  5
52
102
{ACAD_REACTORS
330
47
102
}
330
47
100
AcDbScale
 70
     0
300
1:50
140
1.0
141
50.0
290
     0
  0
SCALE
  5
53
102
{ACAD_REACTORS
330
47
102
}
330
47
100
AcDbScale
 70
     0
300
1:100
140
1.0
141
100.0
290
     0
  0
SCALE
  5
54
102
{ACAD_REACTORS
330
47
102
}
330
47
100
AcDbScale
 70
     0
300
2:1
140
2.0
141
1.0
290
     0
  0
SCALE
  5
55
102
{ACAD_REACTORS
330
47
102
}
330
47
100
AcDbScale
 70
     0
300
4:1
140
4.0
141
1.0
290
     0
  0
SCALE
  5
56
102
{ACAD_REACTORS
330
47
102
}
330
47
100
AcDbScale
 70
     0
300
8:1
140
8.0
141
1.0
290
     0
  0
SCALE
  5
57
102
{ACAD_REACTORS
330
47
102
}
330
47
100
AcDbScale
 70
     0
300
10:1
140
10.0
141
1.0
290
     0
  0
SCALE
  5
58
102
{ACAD_REACTORS
330
47
102
}
330
47
100
AcDbScale
 70
     0
300
100:1
140
100.0
141
1.0
290
     0
  0
ENDSEC
  0
EOF
