  0
SECTION
  2
HEADER
  9
$ACADVER
  1
AC1015
  9
$ACADMAINTVER
 70
     6
  9
$DWGCODEPAGE
  3
DOS932
  9
$INSBASE
 10
0.0
 20
0.0
 30
0.0
  9
$EXTMIN
 10
0.0
 20
0.0
 30
0.0
  9
$EXTMAX
 10
297.0
 20
210.0
 30
0.0
  9
$LIMMIN
 10
0.0
 20
0.0
  9
$LIMMAX
 10
297.0
 20
210.0
  9
$ORTHOMODE
 70
     0
  9
$REGENMODE
 70
     1
  9
$FILLMODE
 70
     1
  9
$QTEXTMODE
 70
     0
  9
$MIRRTEXT
 70
     1
  9
$LTSCALE
 40
1.0
  9
$ATTMODE
 70
     1
  9
$TEXTSIZE
 40
3.5277777778
  9
$TRACEWID
 40
1.0
  9
$TEXTSTYLE
  7
Standard
  9
$CLAYER
  8
0
  9
$CELTYPE
  6
ByLayer
  9
$CECOLOR
 62
   256
  9
$CELTSCALE
 40
1.0
  9
$DISPSILH
 70
     0
  9
$DIMSCALE
 40
1.0
  9
$DIMASZ
 40
2.728515625
  9
$DIMEXO
 40
1.0
  9
$DIMDLI
 40
3.75
  9
$DIMRND
 40
0.0
  9
$DIMDLE
 40
0.0
  9
$DIMEXE
 40
1.0
  9
$DIMTP
 40
0.0
  9
$DIMTM
 40
0.0
  9
$DIMTXT
 40
3.5277777778
  9
$DIMCEN
 40
2.5
  9
$DIMTSZ
 40
0.0
  9
$DIMTOL
 70
     0
  9
$DIMLIM
 70
     0
  9
$DIMTIH
 70
     1
  9
$DIMTOH
 70
     1
  9
$DIMSE1
 70
     0
  9
$DIMSE2
 70
     0
  9
$DIMTAD
 70
     1
  9
$DIMZIN
 70
     0
  9
$DIMBLK
  1

  9
$DIMASO
 70
     1
  9
$DIMSHO
 70
     1
  9
$DIMPOST
  1

  9
$DIMAPOST
  1

  9
$DIMALT
 70
     0
  9
$DIMALTD
 70
     3
  9
$DIMALTF
 40
0.0393700787
  9
$DIMLFAC
 40
1.0
  9
$DIMTOFL
 70
     1
  9
$DIMTVP
 40
0.0
  9
$DIMTIX
 70
     0
  9
$DIMSOXD
 70
     0
  9
$DIMSAH
 70
     0
  9
$DIMBLK1
  1

  9
$DIMBLK2
  1

  9
$DIMSTYLE
  2
ISO-25
  9
$DIMCLRD
 70
     0
  9
$DIMCLRE
 70
     0
  9
$DIMCLRT
 70
     0
  9
$DIMTFAC
 40
1.0
  9
$DIMGAP
 40
1.524
  9
$DIMJUST
 70
     0
  9
$DIMSD1
 70
     0
  9
$DIMSD2
 70
     0
  9
$DIMTOLJ
 70
     0
  9
$DIMTZIN
 70
     0
  9
$DIMALTZ
 70
     0
  9
$DIMALTTZ
 70
     0
  9
$DIMUPT
 70
     0
  9
$DIMDEC
 70
     2
  9
$DIMTDEC
 70
     2
  9
$DIMALTU
 70
     2
  9
$DIMALTTD
 70
     3
  9
$DIMTXSTY
  7
Standard
  9
$DIMAUNIT
 70
     0
  9
$DIMADEC
 70
     2
  9
$DIMALTRND
 40
0.0
  9
$DIMAZIN
 70
     0
  9
$DIMDSEP
 70
    44
  9
$DIMATFIT
 70
     3
  9
$DIMFRAC
 70
     0
  9
$DIMLDRBLK
  1

  9
$DIMLUNIT
 70
     2
  9
$DIMLWD
 70
    -2
  9
$DIMLWE
 70
    -2
  9
$DIMTMOVE
 70
     0
  9
$LUNITS
 70
     2
  9
$LUPREC
 70
     2
  9
$SKETCHINC
 40
1.0
  9
$FILLETRAD
 40
0.0
  9
$AUNITS
 70
     0
  9
$AUPREC
 70
     2
  9
$MENU
  1
.
  9
$ELEVATION
 40
0.0
  9
$PELEVATION
 40
0.0
  9
$THICKNESS
 40
0.0
  9
$LIMCHECK
 70
     0
  9
$CHAMFERA
 40
0.0
  9
$CHAMFERB
 40
0.0
  9
$CHAMFERC
 40
0.0
  9
$CHAMFERD
 40
0.0
  9
$SKPOLY
 70
     0
  9
$TDCREATE
 40
2460406.713977384
  9
$TDUCREATE
 40
2460406.338977384
  9
$TDUPDATE
 40
2460406.713978114
  9
$TDUUPDATE
 40
2460406.338978114
  9
$TDINDWG
 40
0.0000000116
  9
$TDUSRTIMER
 40
0.0000000116
  9
$USRTIMER
 70
     1
  9
$ANGBASE
 50
0.0
  9
$ANGDIR
 70
     0
  9
$PDMODE
 70
     0
  9
$PDSIZE
 40
-1.0
  9
$PLINEWID
 40
0.0
  9
$SPLFRAME
 70
     0
  9
$SPLINETYPE
 70
     6
  9
$SPLINESEGS
 70
     8
  9
$HANDSEED
  5
29E
  9
$SURFTAB1
 70
     6
  9
$SURFTAB2
 70
     6
  9
$SURFTYPE
 70
     6
  9
$SURFU
 70
     6
  9
$SURFV
 70
     6
  9
$UCSBASE
  2

  9
$UCSNAME
  2

  9
$UCSORG
 10
0.0
 20
0.0
 30
0.0
  9
$UCSXDIR
 10
1.0
 20
0.0
 30
0.0
  9
$UCSYDIR
 10
0.0
 20
1.0
 30
0.0
  9
$UCSORTHOREF
  2

  9
$UCSORTHOVIEW
 70
     0
  9
$UCSORGTOP
 10
0.0
 20
0.0
 30
0.0
  9
$UCSORGBOTTOM
 10
0.0
 20
0.0
 30
0.0
  9
$UCSORGLEFT
 10
0.0
 20
0.0
 30
0.0
  9
$UCSORGRIGHT
 10
0.0
 20
0.0
 30
0.0
  9
$UCSORGFRONT
 10
0.0
 20
0.0
 30
0.0
  9
$UCSORGBACK
 10
0.0
 20
0.0
 30
0.0
  9
$PUCSBASE
  2

  9
$PUCSNAME
  2

  9
$PUCSORG
 10
0.0
 20
0.0
 30
0.0
  9
$PUCSXDIR
 10
1.0
 20
0.0
 30
0.0
  9
$PUCSYDIR
 10
0.0
 20
1.0
 30
0.0
  9
$PUCSORTHOREF
  2

  9
$PUCSORTHOVIEW
 70
     0
  9
$PUCSORGTOP
 10
0.0
 20
0.0
 30
0.0
  9
$PUCSORGBOTTOM
 10
0.0
 20
0.0
 30
0.0
  9
$PUCSORGLEFT
 10
0.0
 20
0.0
 30
0.0
  9
$PUCSORGRIGHT
 10
0.0
 20
0.0
 30
0.0
  9
$PUCSORGFRONT
 10
0.0
 20
0.0
 30
0.0
  9
$PUCSORGBACK
 10
0.0
 20
0.0
 30
0.0
  9
$USERI1
 70
     0
  9
$USERI2
 70
     0
  9
$USERI3
 70
     0
  9
$USERI4
 70
     0
  9
$USERI5
 70
     0
  9
$USERR1
 40
0.0
  9
$USERR2
 40
0.0
  9
$USERR3
 40
0.0
  9
$USERR4
 40
0.0
  9
$USERR5
 40
0.0
  9
$WORLDVIEW
 70
     1
  9
$SHADEDGE
 70
     3
  9
$SHADEDIF
 70
    70
  9
$TILEMODE
 70
     1
  9
$MAXACTVP
 70
    64
  9
$PINSBASE
 10
0.0
 20
0.0
 30
0.0
  9
$PLIMCHECK
 70
     0
  9
$PEXTMIN
 10
1.0000000000E+20
 20
1.0000000000E+20
 30
1.0000000000E+20
  9
$PEXTMAX
 10
-1.0000000000E+20
 20
-1.0000000000E+20
 30
-1.0000000000E+20
  9
$PLIMMIN
 10
0.0
 20
0.0
  9
$PLIMMAX
 10
420.0
 20
297.0
  9
$UNITMODE
 70
     0
  9
$VISRETAIN
 70
     1
  9
$PLINEGEN
 70
     0
  9
$PSLTSCALE
 70
     1
  9
$TREEDEPTH
 70
  3020
  9
$CMLSTYLE
  2
Standard
  9
$CMLJUST
 70
     0
  9
$CMLSCALE
 40
20.0
  9
$PROXYGRAPHICS
 70
     1
  9
$MEASUREMENT
 70
     1
  9
$CELWEIGHT
370
    -1
  9
$ENDCAPS
280
     0
  9
$JOINSTYLE
280
     0
  9
$LWDISPLAY
290
     1
  9
$INSUNITS
 70
     4
  9
$HYPERLINKBASE
  1

  9
$STYLESHEET
  1

  9
$XEDIT
290
     1
  9
$CEPSNTYPE
380
     0
  9
$PSTYLEMODE
290
     1
  9
$FINGERPRINTGUID
  2
{f34f3aec-7cda-4d31-a79e-c2bc1386c9e5}
  9
$VERSIONGUID
  2
{FAEB1C32-E019-11D5-929B-00C0DF256EC4}
  9
$EXTNAMES
290
     1
  9
$PSVPSCALE
 40
0.0
  9
$OLESTARTUP
290
     0
  0
ENDSEC
  0
SECTION
  2
CLASSES
  0
CLASS
  1
ACDBDICTIONARYWDFLT
  2
AcDbDictionaryWithDefault
  3
ObjectDBX Classes
 90
        0
280
     0
281
     0
  0
CLASS
  1
VISUALSTYLE
  2
AcDbVisualStyle
  3
ObjectDBX Classes
 90
     4095
280
     0
281
     0
  0
CLASS
  1
MATERIAL
  2
AcDbMaterial
  3
ObjectDBX Classes
 90
     1153
280
     0
281
     0
  0
CLASS
  1
SCALE
  2
AcDbScale
  3
ObjectDBX Classes
 90
     1153
280
     0
281
     0
  0
CLASS
  1
TABLESTYLE
  2
AcDbTableStyle
  3
ObjectDBX Classes
 90
     4095
280
     0
281
     0
  0
CLASS
  1
MLEADERSTYLE
  2
AcDbMLeaderStyle
  3
ACDB_MLEADERSTYLE_CLASS
 90
     4095
280
     0
281
     0
  0
CLASS
  1
SUN
  2
AcDbSun
  3
SCENEOE
 90
     1153
280
     0
281
     0
  0
CLASS
  1
ACDBPLACEHOLDER
  2
AcDbPlaceHolder
  3
ObjectDBX Classes
 90
        0
280
     0
281
     0
  0
CLASS
  1
LAYOUT
  2
AcDbLayout
  3
ObjectDBX Classes
 90
        0
280
     0
281
     0
  0
ENDSEC
  0
SECTION
  2
TABLES
  0
TABLE
  2
VPORT
  5
8
330
0
100
AcDbSymbolTable
 70
     1
  0
VPORT
  5
29
330
8
100
AcDbSymbolTableRecord
100
AcDbViewportTableRecord
  2
*Active
 70
     0
 10
0.0
 20
0.0
 11
1.0
 21
1.0
 12
148.5
 22
105.0
 13
0.0
 23
0.0
 14
10.0
 24
10.0
 15
10.0
 25
10.0
 16
0.0
 26
0.0
 36
1.0
 17
0.0
 27
0.0
 37
0.0
 40
210.0
 41
1.4142857143
 42
50.0
 43
0.0
 44
0.0
 50
0.0
 51
0.0
 71
     0
 72
  2000
 73
     1
 74
     3
 75
     0
 76
     0
 77
     0
 78
     0
281
     0
 65
     1
110
0.0
120
0.0
130
0.0
111
1.0
121
0.0
131
0.0
112
0.0
122
1.0
132
0.0
 79
     0
146
0.0
  0
ENDTAB
  0
TABLE
  2
LTYPE
  5
5
330
0
100
AcDbSymbolTable
 70
     6
  0
LTYPE
  5
14
330
5
100
AcDbSymbolTableRecord
100
AcDbLinetypeTableRecord
  2
ByBlock
 70
     0
  3

 72
    65
 73
     0
 40
0.0
  0
LTYPE
  5
15
330
5
100
AcDbSymbolTableRecord
100
AcDbLinetypeTableRecord
  2
ByLayer
 70
     0
  3

 72
    65
 73
     0
 40
0.0
  0
LTYPE
  5
16
330
5
100
AcDbSymbolTableRecord
100
AcDbLinetypeTableRecord
  2
Continuous
 70
     0
  3
Solid line
 72
    65
 73
     0
 40
0.0
  0
LTYPE
  5
5E
330
5
100
AcDbSymbolTableRecord
100
AcDbLinetypeTableRecord
  2
HIDDEN
 70
     0
  3
Hidden __ __ __ __ __ __ __ __ __ __ __ __ __ __
 72
    65
 73
     2
 40
1.905
 49
1.27
 74
     0
 49
-0.635
 74
     0
  0
LTYPE
  5
5F
330
5
100
AcDbSymbolTableRecord
100
AcDbLinetypeTableRecord
  2
PHANTOM
 70
     0
  3
Phantom ______  __  __  ______  __  __  ______
 72
    65
 73
     6
 40
12.7
 49
6.35
 74
     0
 49
-1.27
 74
     0
 49
1.27
 74
     0
 49
-1.27
 74
     0
 49
1.27
 74
     0
 49
-1.27
 74
     0
  0
LTYPE
  5
60
330
5
100
AcDbSymbolTableRecord
100
AcDbLinetypeTableRecord
  2
CENTER
 70
     0
  3
Center ____ _ ____ _ ____ _ ____ _ ____ _ ____
 72
    65
 73
     4
 40
10.16
 49
6.35
 74
     0
 49
-1.27
 74
     0
 49
1.27
 74
     0
 49
-1.27
 74
     0
  0
LTYPE
  5
61
330
5
100
AcDbSymbolTableRecord
100
AcDbLinetypeTableRecord
  2
CENTERX2
 70
     0
  3
Center (2x) ________  __  ________  __  _____
 72
    65
 73
     4
 40
20.32
 49
12.7
 74
     0
 49
-2.54
 74
     0
 49
2.54
 74
     0
 49
-2.54
 74
     0
  0
LTYPE
  5
62
330
5
100
AcDbSymbolTableRecord
100
AcDbLinetypeTableRecord
  2
DOT2
 70
     0
  3
Dot (.5x) ........................................
 72
    65
 73
     2
 40
0.635
 49
0.0
 74
     0
 49
-0.635
 74
     0
  0
ENDTAB
  0
TABLE
  2
LAYER
  5
2
330
0
100
AcDbSymbolTable
 70
     2
  0
LAYER
  5
10
330
2
100
AcDbSymbolTableRecord
100
AcDbLayerTableRecord
  2
0
 70
     0
 62
     7
  6
Continuous
370
    -3
390
F
  0
LAYER
  5
63
330
2
100
AcDbSymbolTableRecord
100
AcDbLayerTableRecord
  2
FORMAT
 70
     0
 62
     7
  6
Continuous
370
    -3
390
F
  0
ENDTAB
  0
TABLE
  2
STYLE
  5
3
330
0
100
AcDbSymbolTable
 70
     2
  0
STYLE
  5
11
330
3
100
AcDbSymbolTableRecord
100
AcDbTextStyleTableRecord
  2
Standard
 70
     0
 40
0.0
 41
1.0
 50
0.0
 71
     0
 42
3.5277777778
  3
txt
  4
bigfont
  0
STYLE
  5
64
330
3
100
AcDbSymbolTableRecord
100
AcDbTextStyleTableRecord
  2
SLDTEXTSTYLE0
 70
     0
 40
0.0
 41
0.7
 50
0.0
 71
     0
 42
3.5277777778
  3
TXT
  4
bigfont
  0
ENDTAB
  0
TABLE
  2
VIEW
  5
6
330
0
100
AcDbSymbolTable
 70
     0
  0
ENDTAB
  0
TABLE
  2
UCS
  5
7
330
0
100
AcDbSymbolTable
 70
     0
  0
ENDTAB
  0
TABLE
  2
APPID
  5
9
330
0
100
AcDbSymbolTable
 70
     1
  0
APPID
  5
12
330
9
100
AcDbSymbolTableRecord
100
AcDbRegAppTableRecord
  2
ACAD
 70
     0
  0
ENDTAB
  0
TABLE
  2
DIMSTYLE
  5
A
330
0
100
AcDbSymbolTable
 70
     1
100
AcDbDimStyleTable
  0
DIMSTYLE
105
27
330
A
100
AcDbSymbolTableRecord
100
AcDbDimStyleTableRecord
  2
ISO-25
 70
     0
 41
2.5
 42
0.625
 43
3.75
 44
1.25
 73
     0
 74
     0
 77
     1
 78
     8
140
2.5
141
2.5
143
0.0393700787
147
0.625
171
     3
172
     1
178
     0
271
     2
272
     2
274
     3
278
    44
283
     0
284
     8
340
11
  0
ENDTAB
  0
TABLE
  2
BLOCK_RECORD
  5
1
330
0
100
AcDbSymbolTable
 70
     3
  0
BLOCK_RECORD
  5
1F
330
1
100
AcDbSymbolTableRecord
100
AcDbBlockTableRecord
  2
*Model_Space
340
22
  0
BLOCK_RECORD
  5
1B
330
1
100
AcDbSymbolTableRecord
100
AcDbBlockTableRecord
  2
*Paper_Space
340
1E
  0
BLOCK_RECORD
  5
23
330
1
100
AcDbSymbolTableRecord
100
AcDbBlockTableRecord
  2
*Paper_Space0
340
26
  0
BLOCK_RECORD
  5
1BA
330
1
100
AcDbSymbolTableRecord
100
AcDbBlockTableRecord
  2
SW_CENTERMARKSYMBOL_0
340
0
102
{BLKREFS
331
1C5
102
}
  0
BLOCK_RECORD
  5
28E
330
1
100
AcDbSymbolTableRecord
100
AcDbBlockTableRecord
  2
SW_CENTERMARKSYMBOL_1
340
0
102
{BLKREFS
331
299
102
}
  0
ENDTAB
  0
ENDSEC
  0
SECTION
  2
BLOCKS
  0
BLOCK
  5
20
330
1F
100
AcDbEntity
  8
0
100
AcDbBlockBegin
  2
*Model_Space
 70
     0
 10
0.0
 20
0.0
 30
0.0
  3
*Model_Space
  1

  0
ENDBLK
  5
21
330
1F
100
AcDbEntity
  8
0
100
AcDbBlockEnd
  0
BLOCK
  5
1C
330
1B
100
AcDbEntity
 67
     1
  8
0
100
AcDbBlockBegin
  2
*Paper_Space
 70
     0
 10
0.0
 20
0.0
 30
0.0
  3
*Paper_Space
  1

  0
ENDBLK
  5
1D
330
1B
100
AcDbEntity
 67
     1
  8
0
100
AcDbBlockEnd
  0
BLOCK
  5
24
330
23
100
AcDbEntity
  8
0
100
AcDbBlockBegin
  2
*Paper_Space0
 70
     0
 10
0.0
 20
0.0
 30
0.0
  3
*Paper_Space0
  1

  0
ENDBLK
  5
25
330
23
100
AcDbEntity
  8
0
100
AcDbBlockEnd
  0
BLOCK
  5
1BB
330
1BA
100
AcDbEntity
  8
0
100
AcDbBlockBegin
  2
SW_CENTERMARKSYMBOL_0
 70
     0
 10
0.0
 20
0.0
 30
0.0
  3
SW_CENTERMARKSYMBOL_0
  1

  0
LINE
  5
1BD
330
1BA
100
AcDbEntity
  8
FORMAT
 62
     0
100
AcDbLine
 10
0.0
 20
0.0
 30
0.0
 11
0.0
 21
2.5
 31
0.0
  0
LINE
  5
1BE
330
1BA
100
AcDbEntity
  8
FORMAT
 62
     0
100
AcDbLine
 10
0.0
 20
0.0
 30
0.0
 11
-2.5
 21
0.0
 31
0.0
  0
LINE
  5
1BF
330
1BA
100
AcDbEntity
  8
FORMAT
 62
     0
100
AcDbLine
 10
0.0
 20
0.0
 30
0.0
 11
0.0
 21
-2.5
 31
0.0
  0
LINE
  5
1C0
330
1BA
100
AcDbEntity
  8
FORMAT
 62
     0
100
AcDbLine
 10
0.0
 20
0.0
 30
0.0
 11
2.5
 21
0.0
 31
0.0
  0
LINE
  5
1C1
330
1BA
100
AcDbEntity
  8
FORMAT
 62
     0
100
AcDbLine
 10
0.0
 20
5.0
 30
0.0
 11
0.0
 21
29.9182354807
 31
0.0
  0
LINE
  5
1C2
330
1BA
100
AcDbEntity
  8
FORMAT
 62
     0
100
AcDbLine
 10
-5.0
 20
0.0
 30
0.0
 11
-12.5
 21
0.0
 31
0.0
  0
LINE
  5
1C3
330
1BA
100
AcDbEntity
  8
FORMAT
 62
     0
100
AcDbLine
 10
0.0
 20
-5.0
 30
0.0
 11
0.0
 21
-12.5
 31
0.0
  0
LINE
  5
1C4
330
1BA
100
AcDbEntity
  8
FORMAT
 62
     0
100
AcDbLine
 10
5.0
 20
0.0
 30
0.0
 11
12.5
 21
0.0
 31
0.0
  0
ENDBLK
  5
1BC
330
1BA
100
AcDbEntity
  8
0
100
AcDbBlockEnd
  0
BLOCK
  5
28F
330
28E
100
AcDbEntity
  8
0
100
AcDbBlockBegin
  2
SW_CENTERMARKSYMBOL_1
 70
     0
 10
0.0
 20
0.0
 30
0.0
  3
SW_CENTERMARKSYMBOL_1
  1

  0
LINE
  5
291
330
28E
100
AcDbEntity
  8
FORMAT
 62
     0
100
AcDbLine
 10
0.0
 20
0.0
 30
0.0
 11
0.0
 21
2.5
 31
0.0
  0
LINE
  5
292
330
28E
100
AcDbEntity
  8
FORMAT
 62
     0
100
AcDbLine
 10
0.0
 20
0.0
 30
0.0
 11
-2.5
 21
0.0
 31
0.0
  0
LINE
  5
293
330
28E
100
AcDbEntity
  8
FORMAT
 62
     0
100
AcDbLine
 10
0.0
 20
0.0
 30
0.0
 11
0.0
 21
-2.5
 31
0.0
  0
LINE
  5
294
330
28E
100
AcDbEntity
  8
FORMAT
 62
     0
100
AcDbLine
 10
0.0
 20
0.0
 30
0.0
 11
2.5
 21
0.0
 31
0.0
  0
LINE
  5
295
330
28E
100
AcDbEntity
  8
FORMAT
 62
     0
100
AcDbLine
 10
0.0
 20
5.0
 30
0.0
 11
0.0
 21
9.95
 31
0.0
  0
LINE
  5
296
330
28E
100
AcDbEntity
  8
FORMAT
 62
     0
100
AcDbLine
 10
-5.0
 20
0.0
 30
0.0
 11
-41.212853368
 21
0.0
 31
0.0
  0
LINE
  5
297
330
28E
100
AcDbEntity
  8
FORMAT
 62
     0
100
AcDbLine
 10
0.0
 20
-5.0
 30
0.0
 11
0.0
 21
-9.95
 31
0.0
  0
LINE
  5
298
330
28E
100
AcDbEntity
  8
FORMAT
 62
     0
100
AcDbLine
 10
5.0
 20
0.0
 30
0.0
 11
21.1710012915
 21
0.0
 31
0.0
  0
ENDBLK
  5
290
330
28E
100
AcDbEntity
  8
0
100
AcDbBlockEnd
  0
ENDSEC
  0
SECTION
  2
ENTITIES
  0
MTEXT
  5
65
330
1F
100
AcDbEntity
  8
FORMAT
100
AcDbMText
 10
148.4569911572
 20
101.4047175025
 30
0.0
 40
3.7041666667
 41
0.0
 71
     1
 72
     1
  1
エースボール　BU-1385R
  7
SLDTEXTSTYLE0
 73
     1
 44
1.0
  0
LINE
  5
66
330
1F
100
AcDbEntity
  8
0
  6
Continuous
 62
     7
370
    25
100
AcDbLine
 10
117.8167384477
 20
47.7279344875
 30
0.0
 11
118.5384262842
 21
48.9779344875
 31
0.0
  0
LINE
  5
67
330
1F
100
AcDbEntity
  8
0
  6
Continuous
 62
     7
370
    25
100
AcDbLine
 10
118.5384262842
 20
67.4779344875
 30
0.0
 11
117.8167384477
 21
68.7279344875
 31
0.0
  0
LINE
  5
68
330
1F
100
AcDbEntity
  8
0
  6
Continuous
 62
     7
370
    25
100
AcDbLine
 10
107.2569623938
 20
68.7279344875
 30
0.0
 11
98.6345524538
 21
66.2554982231
 31
0.0
  0
LINE
  5
69
330
1F
100
AcDbEntity
  8
0
  6
Continuous
 62
     7
370
    25
100
AcDbLine
 10
98.6345524538
 20
50.2003707519
 30
0.0
 11
107.2569623938
 21
47.7279344875
 31
0.0
  0
LINE
  5
6A
330
1F
100
AcDbEntity
  8
0
  6
Continuous
 62
     7
370
    25
100
AcDbLine
 10
98.6345524538
 20
66.2554982231
 30
0.0
 11
98.5384262842
 21
66.0820820226
 31
0.0
  0
LINE
  5
6B
330
1F
100
AcDbEntity
  8
0
  6
Continuous
 62
     7
370
    25
100
AcDbLine
 10
98.5384262842
 20
50.3737869524
 30
0.0
 11
98.6345524538
 21
50.2003707519
 31
0.0
  0
LINE
  5
6C
330
1F
100
AcDbEntity
  8
0
  6
Continuous
 62
     7
370
    25
100
AcDbLine
 10
117.8167384477
 20
68.7279344875
 30
0.0
 11
107.2569623938
 21
68.7279344875
 31
0.0
  0
LINE
  5
6D
330
1F
100
AcDbEntity
  8
0
  6
Continuous
 62
     7
370
    25
100
AcDbLine
 10
107.2569623938
 20
47.7279344875
 30
0.0
 11
117.8167384477
 21
47.7279344875
 31
0.0
  0
LINE
  5
6E
330
1F
100
AcDbEntity
  8
0
  6
Continuous
 62
     7
370
    25
100
AcDbLine
 10
123.8167384477
 20
47.7279344875
 30
0.0
 11
124.5384262842
 21
48.9779344875
 31
0.0
  0
LINE
  5
6F
330
1F
100
AcDbEntity
  8
0
  6
Continuous
 62
     7
370
    25
100
AcDbLine
 10
124.5384262842
 20
67.4779344875
 30
0.0
 11
123.8167384477
 21
68.7279344875
 31
0.0
  0
LINE
  5
70
330
1F
100
AcDbEntity
  8
0
  6
Continuous
 62
     7
370
    25
100
AcDbLine
 10
119.2601141207
 20
68.7279344875
 30
0.0
 11
118.5384262842
 21
67.4779344875
 31
0.0
  0
LINE
  5
71
330
1F
100
AcDbEntity
  8
0
  6
Continuous
 62
     7
370
    25
100
AcDbLine
 10
118.5384262842
 20
48.9779344875
 30
0.0
 11
119.2601141207
 21
47.7279344875
 31
0.0
  0
LINE
  5
72
330
1F
100
AcDbEntity
  8
0
  6
Continuous
 62
     7
370
    25
100
AcDbLine
 10
119.2601141207
 20
47.7279344875
 30
0.0
 11
123.8167384477
 21
47.7279344875
 31
0.0
  0
LINE
  5
73
330
1F
100
AcDbEntity
  8
0
  6
Continuous
 62
     7
370
    25
100
AcDbLine
 10
123.8167384477
 20
68.7279344875
 30
0.0
 11
119.2601141207
 21
68.7279344875
 31
0.0
  0
LINE
  5
74
330
1F
100
AcDbEntity
  8
0
  6
Continuous
 62
     7
370
    25
100
AcDbLine
 10
144.0384262842
 20
68.2279344875
 30
0.0
 11
142.4203922954
 21
68.2279344875
 31
0.0
  0
LINE
  5
75
330
1F
100
AcDbEntity
  8
0
  6
Continuous
 62
     7
370
    25
100
AcDbLine
 10
142.4203922954
 20
48.2279344875
 30
0.0
 11
144.0384262842
 21
48.2279344875
 31
0.0
  0
ARC
  5
76
330
1F
100
AcDbEntity
  8
0
  6
Continuous
 62
     7
370
    25
100
AcDbCircle
 10
143.5384262842
 20
67.2279344875
 30
0.0
 40
1.5
100
AcDbArc
 50
138.1896851042
 51
180.0
  0
ARC
  5
77
330
1F
100
AcDbEntity
  8
0
  6
Continuous
 62
     7
370
    25
100
AcDbCircle
 10
143.5384262842
 20
49.2279344875
 30
0.0
 40
1.5
100
AcDbArc
 50
180.0
 51
221.8103148958
  0
LINE
  5
78
330
1F
100
AcDbEntity
  8
0
  6
Continuous
 62
     7
370
    25
100
AcDbLine
 10
144.0384262842
 20
48.2279344875
 30
0.0
 11
144.5384262842
 21
48.7279344875
 31
0.0
  0
LINE
  5
79
330
1F
100
AcDbEntity
  8
0
  6
Continuous
 62
     7
370
    25
100
AcDbLine
 10
144.5384262842
 20
67.7279344875
 30
0.0
 11
144.0384262842
 21
68.2279344875
 31
0.0
  0
LINE
  5
7A
330
1F
100
AcDbEntity
  8
0
  6
Continuous
 62
     7
370
    25
100
AcDbLine
 10
124.7884262842
 20
48.2279344875
 30
0.0
 11
126.6564602729
 21
48.2279344875
 31
0.0
  0
LINE
  5
7B
330
1F
100
AcDbEntity
  8
0
  6
Continuous
 62
     7
370
    25
100
AcDbLine
 10
126.6564602729
 20
68.2279344875
 30
0.0
 11
124.7884262842
 21
68.2279344875
 31
0.0
  0
ARC
  5
7C
330
1F
100
AcDbEntity
  8
0
  6
Continuous
 62
     7
370
    25
100
AcDbCircle
 10
125.5384262842
 20
49.2279344875
 30
0.0
 40
1.500000000000004
100
AcDbArc
 50
318.1896851042
 51
0.0
  0
ARC
  5
7D
330
1F
100
AcDbEntity
  8
0
  6
Continuous
 62
     7
370
    25
100
AcDbCircle
 10
125.5384262842
 20
67.2279344875
 30
0.0
 40
1.500000000000004
100
AcDbArc
 50
0.0
 51
41.8103148958
  0
LINE
  5
7E
330
1F
100
AcDbEntity
  8
0
  6
Continuous
 62
     7
370
    25
100
AcDbLine
 10
124.7884262842
 20
68.2279344875
 30
0.0
 11
124.5384262842
 21
67.9779344875
 31
0.0
  0
LINE
  5
7F
330
1F
100
AcDbEntity
  8
0
  6
Continuous
 62
     7
370
    25
100
AcDbLine
 10
124.5384262842
 20
48.4779344875
 30
0.0
 11
124.7884262842
 21
48.2279344875
 31
0.0
  0
LINE
  5
80
330
1F
100
AcDbEntity
  8
0
  6
Continuous
 62
     7
370
    25
100
AcDbLine
 10
144.5384262842
 20
49.7828719875
 30
0.0
 11
152.4645168505
 21
50.0305623177
 31
0.0
  0
LINE
  5
81
330
1F
100
AcDbEntity
  8
0
  6
Continuous
 62
     7
370
    25
100
AcDbLine
 10
152.4645168505
 20
66.4253066573
 30
0.0
 11
144.5384262842
 21
66.6729969875
 31
0.0
  0
LINE
  5
82
330
1F
100
AcDbEntity
  8
0
  6
Continuous
 62
     7
370
    25
100
AcDbLine
 10
152.4645168505
 20
50.0305623177
 30
0.0
 11
154.5384262842
 21
51.2279344875
 31
0.0
  0
LINE
  5
83
330
1F
100
AcDbEntity
  8
0
  6
Continuous
 62
     7
370
    25
100
AcDbLine
 10
154.5384262842
 20
65.2279344875
 30
0.0
 11
152.4645168505
 21
66.4253066573
 31
0.0
  0
ARC
  5
84
330
1F
100
AcDbEntity
  8
0
  6
Continuous
 62
     7
370
    25
100
AcDbCircle
 10
141.5384262842
 20
67.2279344875
 30
0.0
 40
0.5
100
AcDbArc
 50
270.0
 51
0.0
  0
ARC
  5
85
330
1F
100
AcDbEntity
  8
0
  6
Continuous
 62
     7
370
    25
100
AcDbCircle
 10
127.5384262842
 20
49.2279344875
 30
0.0
 40
0.5
100
AcDbArc
 50
90.0
 51
180.0
  0
ARC
  5
86
330
1F
100
AcDbEntity
  8
0
  6
Continuous
 62
     7
370
    25
100
AcDbCircle
 10
127.5384262842
 20
67.2279344875
 30
0.0
 40
0.5
100
AcDbArc
 50
180.0
 51
270.0
  0
ARC
  5
87
330
1F
100
AcDbEntity
  8
0
  6
Continuous
 62
     7
370
    25
100
AcDbCircle
 10
141.5384262842
 20
49.2279344875
 30
0.0
 40
0.5
100
AcDbArc
 50
0.0
 51
90.0
  0
LINE
  5
88
330
1F
100
AcDbEntity
  8
0
  6
Continuous
 62
     7
370
    25
100
AcDbLine
 10
128.1561054092
 20
66.7279344875
 30
0.0
 11
127.5384262842
 21
66.7279344875
 31
0.0
  0
LINE
  5
89
330
1F
100
AcDbEntity
  8
0
  6
Continuous
 62
     7
370
    25
100
AcDbLine
 10
141.5384262842
 20
66.7279344875
 30
0.0
 11
140.9384262842
 21
66.7279344875
 31
0.0
  0
LINE
  5
8A
330
1F
100
AcDbEntity
  8
0
  6
Continuous
 62
     7
370
    25
100
AcDbLine
 10
127.5384262842
 20
49.7279344875
 30
0.0
 11
141.5384262842
 21
49.7279344875
 31
0.0
  0
SPLINE
  5
8B
330
1F
100
AcDbEntity
  8
0
  6
Continuous
 62
     7
370
    25
100
AcDbSpline
210
0.0
220
0.0
230
1.0
 70
     8
 71
     3
 72
    13
 73
     9
 74
     0
 42
0.00000001
 43
0.00000001
 40
0.0
 40
0.0
 40
0.0
 40
0.0
 40
0.1653483772704199
 40
0.3289780008660353
 40
0.5087155491987039
 40
0.6921965826657347
 40
0.8676459392758011
 40
1.0
 40
1.0
 40
1.0
 40
1.0
 10
140.9387259418189
 20
66.73118048284235
 30
0.0
 10
140.8951502351642
 20
66.73308431305443
 30
0.0
 10
140.8084517800706
 20
66.73687218365525
 30
0.0
 10
140.6840722721807
 20
66.79105221861353
 30
0.0
 10
140.5733771010493
 20
66.87585117359282
 30
0.0
 10
140.4905233254356
 20
66.99212417718412
 30
0.0
 10
140.4443811475465
 20
67.11479743692432
 30
0.0
 10
140.4413089847723
 20
67.1956694791136
 30
0.0
 10
140.4399879688399
 20
67.23044408712644
 30
0.0
  0
SPLINE
  5
8C
330
1F
100
AcDbEntity
  8
0
  6
Continuous
 62
     7
370
    25
100
AcDbSpline
210
0.0
220
0.0
230
1.0
 70
     8
 71
     3
 72
    14
 73
    10
 74
     0
 42
0.00000001
 43
0.00000001
 40
0.0
 40
0.0
 40
0.0
 40
0.0
 40
0.0257257692842105
 40
0.2045790861478943
 40
0.3938576180250259
 40
0.5970327684481203
 40
0.7687243788274964
 40
0.9188671766742781
 40
1.0
 40
1.0
 40
1.0
 40
1.0
 10
128.6360680131465
 20
67.21554443682496
 30
0.0
 10
128.6366277838312
 20
67.20909353705916
 30
0.0
 10
128.6410792493583
 20
67.15779403404575
 30
0.0
 10
128.6137942017974
 20
67.05926287284345
 30
0.0
 10
128.5499516649158
 20
66.9301309886506
 30
0.0
 10
128.4483183301741
 20
66.82674205460904
 30
0.0
 10
128.3321752059188
 20
66.76229518641338
 30
0.0
 10
128.2337608767334
 20
66.73244558690752
 30
0.0
 10
128.1755102285276
 20
66.73103976201067
 30
0.0
 10
128.1550755647895
 20
66.73054659051942
 30
0.0
  0
LINE
  5
8D
330
1F
100
AcDbEntity
  8
0
  6
Continuous
 62
     7
370
    25
100
AcDbLine
 10
140.4384262842
 20
67.2279344875
 30
0.0
 11
140.4384262842
 21
68.7279344875
 31
0.0
  0
LINE
  5
8E
330
1F
100
AcDbEntity
  8
0
  6
Continuous
 62
     7
370
    25
100
AcDbLine
 10
128.6384262842
 20
68.7279344875
 30
0.0
 11
128.6384262842
 21
67.2166637476
 31
0.0
  0
LINE
  5
8F
330
1F
100
AcDbEntity
  8
0
  6
Continuous
 62
     7
370
    25
100
AcDbLine
 10
141.9884262842
 20
76.7279344875
 30
0.0
 11
140.0384262842
 21
84.7279344875
 31
0.0
  0
LINE
  5
90
330
1F
100
AcDbEntity
  8
0
  6
Continuous
 62
     7
370
    25
100
AcDbLine
 10
141.5384262842
 20
68.7279344875
 30
0.0
 11
141.9884262842
 21
76.7279344875
 31
0.0
  0
LINE
  5
91
330
1F
100
AcDbEntity
  8
0
  6
Continuous
 62
     7
370
    25
100
AcDbLine
 10
127.4677696584
 20
69.9840522788
 30
0.0
 11
127.5384262842
 21
68.7279344875
 31
0.0
  0
LINE
  5
92
330
1F
100
AcDbEntity
  8
0
  6
Continuous
 62
     7
370
    25
100
AcDbLine
 10
129.0384262842
 20
84.7279344875
 30
0.0
 11
128.7844494439
 21
83.6859782196
 31
0.0
  0
LINE
  5
93
330
1F
100
AcDbEntity
  8
0
  6
Continuous
 62
     7
370
    25
100
AcDbLine
 10
117.8167384477
 20
53.7557985325
 30
0.0
 11
107.2569623938
 21
53.7557985325
 31
0.0
  0
SPLINE
  5
94
330
1F
100
AcDbEntity
  8
0
  6
Continuous
 62
     7
370
    25
100
AcDbSpline
210
0.0
220
0.0
230
1.0
 70
     8
 71
     3
 72
    22
 73
    18
 74
     0
 42
0.00000001
 43
0.00000001
 40
0.0
 40
0.0
 40
0.0
 40
0.0
 40
0.1030943261231017
 40
0.2060863399348692
 40
0.2692483176586212
 40
0.3323305108308089
 40
0.383998797618624
 40
0.4355610823842002
 40
0.497004693216938
 40
0.5421190929646695
 40
0.5872850973795216
 40
0.6461441508226765
 40
0.7051476750038707
 40
0.8007462423303093
 40
0.8968696567745014
 40
0.9929379302588247
 40
1.0
 40
1.0
 40
1.0
 40
1.0
 10
107.2569623937866
 20
53.75579853251342
 30
0.0
 10
106.9248304382967
 20
53.9867434261316
 30
0.0
 10
106.2608961399087
 20
54.44840402029068
 30
0.0
 10
105.4562430182263
 20
55.13628238271315
 30
0.0
 10
104.8305623297973
 20
55.78343048020249
 30
0.0
 10
104.4015206575283
 20
56.33634574318914
 30
0.0
 10
104.0730897696031
 20
56.90238476957188
 30
0.0
 10
103.8391718018685
 20
57.50785294672571
 30
0.0
 10
103.7460752957677
 20
58.12883714020309
 30
0.0
 10
103.7993905561273
 20
58.72517983564399
 30
0.0
 10
103.9559242272882
 20
59.29181652556422
 30
0.0
 10
104.2395544475594
 20
59.86930917879319
 30
0.0
 10
104.7216042149269
 20
60.55641936510644
 30
0.0
 10
105.3958393400304
 20
61.27765401450009
 30
0.0
 10
106.2615162807826
 20
62.00469129028819
 30
0.0
 10
106.8987647128632
 20
62.45817554536509
 30
0.0
 10
107.2340060310416
 20
62.6845677541904
 30
0.0
 10
107.2569623937866
 20
62.70007044251258
 30
0.0
  0
LINE
  5
95
330
1F
100
AcDbEntity
  8
0
  6
Continuous
 62
     7
370
    25
100
AcDbLine
 10
107.2569623938
 20
62.7000704425
 30
0.0
 11
117.8167384477
 21
62.7000704425
 31
0.0
  0
SPLINE
  5
96
330
1F
100
AcDbEntity
  8
0
  6
Continuous
 62
     7
370
    25
100
AcDbSpline
210
0.0
220
0.0
230
1.0
 70
     8
 71
     3
 72
    14
 73
    10
 74
     0
 42
0.00000001
 43
0.00000001
 40
0.0
 40
0.0
 40
0.0
 40
0.0
 40
0.1398770721431952
 40
0.2802644202987035
 40
0.4307410145400788
 40
0.5812056740670991
 40
0.7356355360611129
 40
0.8901010649031568
 40
1.0
 40
1.0
 40
1.0
 40
1.0
 10
117.8167384476973
 20
62.70007044251258
 30
0.0
 10
117.9112129976171
 20
62.28923524375369
 30
0.0
 10
118.1005067436225
 20
61.46606610635148
 30
0.0
 10
118.2949579993496
 20
60.18156166340129
 30
0.0
 10
118.4002574119312
 20
58.85481749251524
 30
0.0
 10
118.3968425137321
 20
57.4810822658422
 30
0.0
 10
118.2750609980574
 20
56.1010386725665
 30
0.0
 10
118.0728732696173
 20
54.85413231276347
 30
0.0
 10
117.8919500346247
 20
54.07831394048887
 30
0.0
 10
117.8167384476976
 20
53.7557985325131
 30
0.0
  0
LINE
  5
97
330
1F
100
AcDbEntity
  8
0
  6
Continuous
 62
     7
370
    25
100
AcDbLine
 10
118.5384262842
 20
67.4779344875
 30
0.0
 11
118.5384262842
 21
48.9779344875
 31
0.0
  0
LINE
  5
98
330
1F
100
AcDbEntity
  8
0
  6
Continuous
 62
     7
370
    25
100
AcDbLine
 10
117.8167384477
 20
52.2367611291
 30
0.0
 11
117.8167384477
 21
53.7557985325
 31
0.0
  0
LINE
  5
99
330
1F
100
AcDbEntity
  8
0
  6
Continuous
 62
     7
370
    25
100
AcDbLine
 10
117.8167384477
 20
62.7000704425
 30
0.0
 11
117.8167384477
 21
64.219107846
 31
0.0
  0
SPLINE
  5
9A
330
1F
100
AcDbEntity
  8
0
  6
Continuous
 62
     7
370
    25
100
AcDbSpline
210
0.0
220
0.0
230
1.0
 70
     8
 71
     3
 72
    13
 73
     9
 74
     0
 42
0.00000001
 43
0.00000001
 40
0.0
 40
0.0
 40
0.0
 40
0.0
 40
0.1560946016369933
 40
0.3121477071956414
 40
0.4719957467881129
 40
0.6318375672398525
 40
0.8152147947534314
 40
0.9999999999999999
 40
0.9999999999999999
 40
0.9999999999999999
 40
0.9999999999999999
 10
117.8167384476973
 20
68.69124380096498
 30
0.0
 10
117.9212842975477
 20
68.46190609861445
 30
0.0
 10
118.1303482048538
 20
68.00329166088575
 30
0.0
 10
118.3272716639535
 20
67.2982034479392
 30
0.0
 10
118.4129521374907
 20
66.58199471421531
 30
0.0
 10
118.3688501980511
 20
65.82365976679542
 30
0.0
 10
118.1824942593571
 20
65.03216616669283
 30
0.0
 10
117.9389674945042
 20
64.49081738651908
 30
0.0
 10
117.8167384476973
 20
64.21910784596541
 30
0.0
  0
LINE
  5
9B
330
1F
100
AcDbEntity
  8
0
  6
Continuous
 62
     7
370
    25
100
AcDbLine
 10
117.8167384477
 20
68.691243801
 30
0.0
 11
117.8167384477
 21
68.7279344875
 31
0.0
  0
LINE
  5
9C
330
1F
100
AcDbEntity
  8
0
  6
Continuous
 62
     7
370
    25
100
AcDbLine
 10
117.8167384477
 20
47.7279344875
 30
0.0
 11
117.8167384477
 21
47.7646251741
 31
0.0
  0
SPLINE
  5
9D
330
1F
100
AcDbEntity
  8
0
  6
Continuous
 62
     7
370
    25
100
AcDbSpline
210
0.0
220
0.0
230
1.0
 70
     8
 71
     3
 72
    13
 73
     9
 74
     0
 42
0.00000001
 43
0.00000001
 40
0.0
 40
0.0
 40
0.0
 40
0.0
 40
0.1560946016369933
 40
0.3121477071956412
 40
0.4719957467881127
 40
0.6318375672398522
 40
0.8152147947534314
 40
0.9999999999999999
 40
0.9999999999999999
 40
0.9999999999999999
 40
0.9999999999999999
 10
117.8167384476973
 20
52.2367611290606
 30
0.0
 10
117.9212842975477
 20
52.00742342671007
 30
0.0
 10
118.1303482048538
 20
51.54880898898138
 30
0.0
 10
118.3272716639535
 20
50.84372077603483
 30
0.0
 10
118.4129521374907
 20
50.12751204231096
 30
0.0
 10
118.3688501980511
 20
49.36917709489106
 30
0.0
 10
118.1824942593571
 20
48.57768349478849
 30
0.0
 10
117.9389674945042
 20
48.03633471461475
 30
0.0
 10
117.8167384476973
 20
47.76462517406107
 30
0.0
  0
LINE
  5
9E
330
1F
100
AcDbEntity
  8
0
  6
Continuous
 62
     7
370
    25
100
AcDbLine
 10
107.2569623938
 20
53.7557985325
 30
0.0
 11
107.2569623938
 21
52.2367611291
 31
0.0
  0
SPLINE
  5
9F
330
1F
100
AcDbEntity
  8
0
  6
Continuous
 62
     7
370
    25
100
AcDbSpline
210
0.0
220
0.0
230
1.0
 70
     8
 71
     3
 72
    22
 73
    18
 74
     0
 42
0.00000001
 43
0.00000001
 40
0.0
 40
0.0
 40
0.0
 40
0.0
 40
0.0886448200637557
 40
0.177336235894876
 40
0.2657042856716869
 40
0.3178354022311217
 40
0.3699039806172352
 40
0.4227749210969924
 40
0.4755197313119366
 40
0.5223974882658291
 40
0.5693104164564463
 40
0.6221702960482695
 40
0.675142943385844
 40
0.7399080221121809
 40
0.8049319894362854
 40
0.8699018717152494
 40
1.0
 40
1.0
 40
1.0
 40
1.0
 10
107.2569623937866
 20
47.76462517406107
 30
0.0
 10
106.9707299978008
 20
47.86343927663163
 30
0.0
 10
106.3981147490046
 20
48.06111942297961
 30
0.0
 10
105.5900920597434
 20
48.39139897072393
 30
0.0
 10
104.9510110737701
 20
48.70914065664216
 30
0.0
 10
104.4768102338424
 20
49.00384521511464
 30
0.0
 10
104.1466028566941
 20
49.26503824049649
 30
0.0
 10
103.8987159424953
 20
49.54994780346676
 30
0.0
 10
103.7654757969645
 20
49.8440030046459
 30
0.0
 10
103.765652739379
 20
50.13343786747948
 30
0.0
 10
103.8766558802729
 20
50.41740927779718
 30
0.0
 10
104.1049969834669
 20
50.69629676772092
 30
0.0
 10
104.4524880489465
 20
50.98333772386925
 30
0.0
 10
104.9013957306716
 20
51.2641015064591
 30
0.0
 10
105.4404269866462
 20
51.5354431390471
 30
0.0
 10
106.2122975354211
 20
51.86985859583318
 30
0.0
 10
106.8389946950603
 20
52.08996437769878
 30
0.0
 10
107.2569623937866
 20
52.2367611290606
 30
0.0
  0
LINE
  5
A0
330
1F
100
AcDbEntity
  8
0
  6
Continuous
 62
     7
370
    25
100
AcDbLine
 10
107.2569623938
 20
47.7646251741
 30
0.0
 11
107.2569623938
 21
47.7279344875
 31
0.0
  0
LINE
  5
A1
330
1F
100
AcDbEntity
  8
0
  6
Continuous
 62
     7
370
    25
100
AcDbLine
 10
107.2569623938
 20
68.7279344875
 30
0.0
 11
107.2569623938
 21
68.691243801
 31
0.0
  0
SPLINE
  5
A2
330
1F
100
AcDbEntity
  8
0
  6
Continuous
 62
     7
370
    25
100
AcDbSpline
210
0.0
220
0.0
230
1.0
 70
     8
 71
     3
 72
    22
 73
    18
 74
     0
 42
0.00000001
 43
0.00000001
 40
0.0
 40
0.0
 40
0.0
 40
0.0
 40
0.0886448200637559
 40
0.1773362358948762
 40
0.2657042856716874
 40
0.3178354022311219
 40
0.3699039806172354
 40
0.4227749210969925
 40
0.4755197313119366
 40
0.5223974882658289
 40
0.5693104164564464
 40
0.6221702960482693
 40
0.6751429433858442
 40
0.739908022112181
 40
0.8049319894362859
 40
0.8699018717152501
 40
1.0
 40
1.0
 40
1.0
 40
1.0
 10
107.2569623937866
 20
64.2191078459654
 30
0.0
 10
106.9707299978008
 20
64.31792194853595
 30
0.0
 10
106.3981147490046
 20
64.51560209488395
 30
0.0
 10
105.5900920597434
 20
64.84588164262827
 30
0.0
 10
104.9510110737701
 20
65.16362332854649
 30
0.0
 10
104.4768102338424
 20
65.45832788701898
 30
0.0
 10
104.1466028566941
 20
65.71952091240084
 30
0.0
 10
103.8987159424953
 20
66.00443047537111
 30
0.0
 10
103.7654757969645
 20
66.29848567655026
 30
0.0
 10
103.765652739379
 20
66.58792053938384
 30
0.0
 10
103.8766558802729
 20
66.87189194970156
 30
0.0
 10
104.1049969834669
 20
67.15077943962528
 30
0.0
 10
104.4524880489465
 20
67.43782039577361
 30
0.0
 10
104.9013957306716
 20
67.71858417836347
 30
0.0
 10
105.4404269866463
 20
67.98992581095146
 30
0.0
 10
106.2122975354211
 20
68.32434126773757
 30
0.0
 10
106.8389946950603
 20
68.54444704960316
 30
0.0
 10
107.2569623937866
 20
68.69124380096498
 30
0.0
  0
LINE
  5
A3
330
1F
100
AcDbEntity
  8
0
  6
Continuous
 62
     7
370
    25
100
AcDbLine
 10
107.2569623938
 20
64.219107846
 30
0.0
 11
107.2569623938
 21
62.7000704425
 31
0.0
  0
LINE
  5
A4
330
1F
100
AcDbEntity
  8
0
  6
Continuous
 62
     7
370
    25
100
AcDbLine
 10
98.6345524538
 20
66.2554982231
 30
0.0
 11
98.6345524538
 21
50.2003707519
 31
0.0
  0
LINE
  5
A5
330
1F
100
AcDbEntity
  8
0
  6
Continuous
 62
     7
370
    25
100
AcDbLine
 10
117.8167384477
 20
64.219107846
 30
0.0
 11
107.2569623938
 21
64.219107846
 31
0.0
  0
LINE
  5
A6
330
1F
100
AcDbEntity
  8
0
  6
Continuous
 62
     7
370
    25
100
AcDbLine
 10
107.2569623938
 20
52.2367611291
 30
0.0
 11
117.8167384477
 21
52.2367611291
 31
0.0
  0
LINE
  5
A7
330
1F
100
AcDbEntity
  8
0
  6
Continuous
 62
     7
370
    25
100
AcDbLine
 10
107.2569623938
 20
68.691243801
 30
0.0
 11
117.8167384477
 21
68.691243801
 31
0.0
  0
LINE
  5
A8
330
1F
100
AcDbEntity
  8
0
  6
Continuous
 62
     7
370
    25
100
AcDbLine
 10
117.8167384477
 20
47.7646251741
 30
0.0
 11
107.2569623938
 21
47.7646251741
 31
0.0
  0
LINE
  5
A9
330
1F
100
AcDbEntity
  8
0
  6
Continuous
 62
     7
370
    25
100
AcDbLine
 10
98.5384262842
 20
50.3737869524
 30
0.0
 11
98.5384262842
 21
66.0820820226
 31
0.0
  0
LINE
  5
AA
330
1F
100
AcDbEntity
  8
0
  6
Continuous
 62
     7
370
    25
100
AcDbLine
 10
123.8167384477
 20
47.7279344875
 30
0.0
 11
123.8167384477
 21
47.7646251741
 31
0.0
  0
SPLINE
  5
AB
330
1F
100
AcDbEntity
  8
0
  6
Continuous
 62
     7
370
    25
100
AcDbSpline
210
0.0
220
0.0
230
1.0
 70
     8
 71
     3
 72
    13
 73
     9
 74
     0
 42
0.00000001
 43
0.00000001
 40
0.0
 40
0.0
 40
0.0
 40
0.0
 40
0.1560946016369929
 40
0.3121477071956406
 40
0.4719957467881116
 40
0.6318375672398506
 40
0.8152147947534306
 40
1.0
 40
1.0
 40
1.0
 40
1.0
 10
123.8167384476973
 20
52.23676112906073
 30
0.0
 10
123.9212842975477
 20
52.0074234267102
 30
0.0
 10
124.1303482048538
 20
51.5488089889815
 30
0.0
 10
124.3272716639535
 20
50.84372077603494
 30
0.0
 10
124.4129521374907
 20
50.12751204231103
 30
0.0
 10
124.3688501980511
 20
49.36917709489112
 30
0.0
 10
124.1824942593571
 20
48.57768349478851
 30
0.0
 10
123.9389674945042
 20
48.03633471461475
 30
0.0
 10
123.8167384476973
 20
47.76462517406107
 30
0.0
  0
LINE
  5
AC
330
1F
100
AcDbEntity
  8
0
  6
Continuous
 62
     7
370
    25
100
AcDbLine
 10
123.8167384477
 20
52.2367611291
 30
0.0
 11
123.8167384477
 21
53.7557985325
 31
0.0
  0
SPLINE
  5
AD
330
1F
100
AcDbEntity
  8
0
  6
Continuous
 62
     7
370
    25
100
AcDbSpline
210
0.0
220
0.0
230
1.0
 70
     8
 71
     3
 72
    14
 73
    10
 74
     0
 42
0.00000001
 43
0.00000001
 40
0.0
 40
0.0
 40
0.0
 40
0.0
 40
0.1378112084178204
 40
0.2761084666007194
 40
0.4263630367413825
 40
0.5766050274707357
 40
0.730800079132035
 40
0.885030206770378
 40
1.0
 40
1.0
 40
1.0
 40
1.0
 10
123.8167384476973
 20
62.70007044251272
 30
0.0
 10
123.9099067190127
 20
62.29532646504766
 30
0.0
 10
124.0965718591277
 20
61.48441100855634
 30
0.0
 10
124.2909421596717
 20
60.21329849867085
 30
0.0
 10
124.3986333884106
 20
58.89441976407954
 30
0.0
 10
124.3986453293544
 20
57.52273268691151
 30
0.0
 10
124.2804717855859
 20
56.14447290034861
 30
0.0
 10
124.0790787890448
 20
54.88336187135697
 30
0.0
 10
123.8952485792712
 20
54.0932424255717
 30
0.0
 10
123.8167384476973
 20
53.75579853251354
 30
0.0
  0
LINE
  5
AE
330
1F
100
AcDbEntity
  8
0
  6
Continuous
 62
     7
370
    25
100
AcDbLine
 10
123.8167384477
 20
62.7000704425
 30
0.0
 11
123.8167384477
 21
64.219107846
 31
0.0
  0
SPLINE
  5
AF
330
1F
100
AcDbEntity
  8
0
  6
Continuous
 62
     7
370
    25
100
AcDbSpline
210
0.0
220
0.0
230
1.0
 70
     8
 71
     3
 72
    13
 73
     9
 74
     0
 42
0.00000001
 43
0.00000001
 40
0.0
 40
0.0
 40
0.0
 40
0.0
 40
0.1560946016369959
 40
0.3121477071956467
 40
0.4719957467881207
 40
0.631837567239863
 40
0.8152147947534367
 40
1.0
 40
1.0
 40
1.0
 40
1.0
 10
123.8167384476973
 20
68.69124380096498
 30
0.0
 10
123.9212842975477
 20
68.46190609861446
 30
0.0
 10
124.1303482048538
 20
68.00329166088576
 30
0.0
 10
124.3272716639535
 20
67.29820344793922
 30
0.0
 10
124.4129521374907
 20
66.58199471421534
 30
0.0
 10
124.3688501980511
 20
65.82365976679547
 30
0.0
 10
124.182494259357
 20
65.0321661666929
 30
0.0
 10
123.9389674945042
 20
64.49081738651918
 30
0.0
 10
123.8167384476973
 20
64.21910784596552
 30
0.0
  0
LINE
  5
B0
330
1F
100
AcDbEntity
  8
0
  6
Continuous
 62
     7
370
    25
100
AcDbLine
 10
123.8167384477
 20
68.691243801
 30
0.0
 11
123.8167384477
 21
68.7279344875
 31
0.0
  0
LINE
  5
B1
330
1F
100
AcDbEntity
  8
0
  6
Continuous
 62
     7
370
    25
100
AcDbLine
 10
118.5384262842
 20
58.2279344875
 30
0.0
 11
118.5384262842
 21
67.4779344875
 31
0.0
  0
LINE
  5
B2
330
1F
100
AcDbEntity
  8
0
  6
Continuous
 62
     7
370
    25
100
AcDbLine
 10
118.5384262842
 20
48.9779344875
 30
0.0
 11
118.5384262842
 21
58.2279344875
 31
0.0
  0
LINE
  5
B3
330
1F
100
AcDbEntity
  8
0
  6
Continuous
 62
     7
370
    25
100
AcDbLine
 10
119.2601141207
 20
68.7279344875
 30
0.0
 11
119.2601141207
 21
68.691243801
 31
0.0
  0
SPLINE
  5
B4
330
1F
100
AcDbEntity
  8
0
  6
Continuous
 62
     7
370
    25
100
AcDbSpline
210
0.0
220
0.0
230
1.0
 70
     8
 71
     3
 72
    13
 73
     9
 74
     0
 42
0.00000001
 43
0.00000001
 40
0.0
 40
0.0
 40
0.0
 40
0.0
 40
0.1560946016369959
 40
0.3121477071956463
 40
0.4719957467881204
 40
0.6318375672398627
 40
0.8152147947534367
 40
1.0
 40
1.0
 40
1.0
 40
1.0
 10
119.2601141206714
 20
64.21910784596552
 30
0.0
 10
119.155568270821
 20
64.44844554831606
 30
0.0
 10
118.9465043635149
 20
64.90705998604474
 30
0.0
 10
118.7495809044152
 20
65.6121481989913
 30
0.0
 10
118.663900430878
 20
66.32835693271518
 30
0.0
 10
118.7080023703176
 20
67.08669188013505
 30
0.0
 10
118.8943583090117
 20
67.87818548023762
 30
0.0
 10
119.1378850738645
 20
68.41953426041133
 30
0.0
 10
119.2601141206714
 20
68.69124380096498
 30
0.0
  0
LINE
  5
B5
330
1F
100
AcDbEntity
  8
0
  6
Continuous
 62
     7
370
    25
100
AcDbLine
 10
119.2601141207
 20
64.219107846
 30
0.0
 11
119.2601141207
 21
62.7000704425
 31
0.0
  0
SPLINE
  5
B6
330
1F
100
AcDbEntity
  8
0
  6
Continuous
 62
     7
370
    25
100
AcDbSpline
210
0.0
220
0.0
230
1.0
 70
     8
 71
     3
 72
    14
 73
    10
 74
     0
 42
0.00000001
 43
0.00000001
 40
0.0
 40
0.0
 40
0.0
 40
0.0
 40
0.1151637259473397
 40
0.2655051613930186
 40
0.4158145907537728
 40
0.5699258496929774
 40
0.7240503276523451
 40
0.8617568937687804
 40
1.0
 40
1.0
 40
1.0
 40
1.0
 10
119.2601141206714
 20
53.75579853251354
 30
0.0
 10
119.1814726817301
 20
54.09381246732728
 30
0.0
 10
119.0001681280043
 20
54.87308947992452
 30
0.0
 10
118.8013697218918
 20
56.11139433075751
 30
0.0
 10
118.6802383374837
 20
57.47748154687638
 30
0.0
 10
118.675974598187
 20
58.86088015614403
 30
0.0
 10
118.7841493220618
 20
60.20142366075238
 30
0.0
 10
118.9801491237305
 20
61.4835935988148
 30
0.0
 10
119.1666715673127
 20
62.29405289168011
 30
0.0
 10
119.2601141206714
 20
62.70007044251272
 30
0.0
  0
LINE
  5
B7
330
1F
100
AcDbEntity
  8
0
  6
Continuous
 62
     7
370
    25
100
AcDbLine
 10
119.2601141207
 20
53.7557985325
 30
0.0
 11
119.2601141207
 21
52.2367611291
 31
0.0
  0
SPLINE
  5
B8
330
1F
100
AcDbEntity
  8
0
  6
Continuous
 62
     7
370
    25
100
AcDbSpline
210
0.0
220
0.0
230
1.0
 70
     8
 71
     3
 72
    13
 73
     9
 74
     0
 42
0.00000001
 43
0.00000001
 40
0.0
 40
0.0
 40
0.0
 40
0.0
 40
0.1560946016369932
 40
0.312147707195641
 40
0.4719957467881122
 40
0.6318375672398514
 40
0.815214794753431
 40
1.0
 40
1.0
 40
1.0
 40
1.0
 10
119.2601141206714
 20
47.76462517406107
 30
0.0
 10
119.155568270821
 20
47.99396287641161
 30
0.0
 10
118.9465043635149
 20
48.45257731414032
 30
0.0
 10
118.7495809044152
 20
49.15766552708688
 30
0.0
 10
118.663900430878
 20
49.87387426081077
 30
0.0
 10
118.7080023703176
 20
50.63220920823068
 30
0.0
 10
118.8943583090116
 20
51.42370280833329
 30
0.0
 10
119.1378850738645
 20
51.96505158850704
 30
0.0
 10
119.2601141206714
 20
52.23676112906072
 30
0.0
  0
LINE
  5
B9
330
1F
100
AcDbEntity
  8
0
  6
Continuous
 62
     7
370
    25
100
AcDbLine
 10
119.2601141207
 20
47.7646251741
 30
0.0
 11
119.2601141207
 21
47.7279344875
 31
0.0
  0
LINE
  5
BA
330
1F
100
AcDbEntity
  8
0
  6
Continuous
 62
     7
370
    25
100
AcDbLine
 10
123.8167384477
 20
53.7557985325
 30
0.0
 11
119.2601141207
 21
53.7557985325
 31
0.0
  0
LINE
  5
BB
330
1F
100
AcDbEntity
  8
0
  6
Continuous
 62
     7
370
    25
100
AcDbLine
 10
119.2601141207
 20
62.7000704425
 30
0.0
 11
123.8167384477
 21
62.7000704425
 31
0.0
  0
LINE
  5
BC
330
1F
100
AcDbEntity
  8
0
  6
Continuous
 62
     7
370
    25
100
AcDbLine
 10
119.2601141207
 20
52.2367611291
 30
0.0
 11
123.8167384477
 21
52.2367611291
 31
0.0
  0
LINE
  5
BD
330
1F
100
AcDbEntity
  8
0
  6
Continuous
 62
     7
370
    25
100
AcDbLine
 10
123.8167384477
 20
64.219107846
 30
0.0
 11
119.2601141207
 21
64.219107846
 31
0.0
  0
LINE
  5
BE
330
1F
100
AcDbEntity
  8
0
  6
Continuous
 62
     7
370
    25
100
AcDbLine
 10
123.8167384477
 20
47.7646251741
 30
0.0
 11
119.2601141207
 21
47.7646251741
 31
0.0
  0
LINE
  5
BF
330
1F
100
AcDbEntity
  8
0
  6
Continuous
 62
     7
370
    25
100
AcDbLine
 10
119.2601141207
 20
68.691243801
 30
0.0
 11
123.8167384477
 21
68.691243801
 31
0.0
  0
LINE
  5
C0
330
1F
100
AcDbEntity
  8
0
  6
Continuous
 62
     7
370
    25
100
AcDbLine
 10
142.4203922954
 20
48.2279344875
 30
0.0
 11
142.4203922954
 21
68.2279344875
 31
0.0
  0
LINE
  5
C1
330
1F
100
AcDbEntity
  8
0
  6
Continuous
 62
     7
370
    25
100
AcDbLine
 10
144.0384262842
 20
48.2279344875
 30
0.0
 11
144.0384262842
 21
68.2279344875
 31
0.0
  0
SPLINE
  5
C2
330
1F
100
AcDbEntity
  8
0
  6
Continuous
 62
     7
370
    25
100
AcDbSpline
210
0.0
220
0.0
230
1.0
 70
     8
 71
     3
 72
     8
 73
     4
 74
     0
 42
0.00000001
 43
0.00000001
 40
0.0
 40
0.0
 40
0.0
 40
0.0
 40
1.0
 40
1.0
 40
1.0
 40
1.0
 10
142.1356274088383
 20
52.82824463601714
 30
0.0
 10
142.0677909912622
 20
52.79688169500636
 30
0.0
 10
142.0384262841843
 20
52.7634135343568
 30
0.0
 10
142.0384262841843
 20
52.72793448751303
 30
0.0
  0
SPLINE
  5
C3
330
1F
100
AcDbEntity
  8
0
  6
Continuous
 62
     7
370
    25
100
AcDbSpline
210
0.0
220
0.0
230
1.0
 70
     8
 71
     3
 72
    12
 73
     8
 74
     0
 42
0.00000001
 43
0.00000001
 40
0.0
 40
0.0
 40
0.0
 40
0.0
 40
0.5000000000000001
 40
0.5000000000000001
 40
0.75
 40
0.75
 40
1.0
 40
1.0
 40
1.0
 40
1.0
 10
142.1356274088383
 20
52.82824463601714
 30
0.0
 10
142.2034971688481
 20
52.85962299229923
 30
0.0
 10
142.2795317201018
 20
52.99333151279778
 30
0.0
 10
142.3261763184788
 20
53.27135762246356
 30
0.0
 10
142.3306153150015
 20
53.37820380646752
 30
0.0
 10
142.3148847012086
 20
53.60508528052327
 30
0.0
 10
142.2950042712663
 20
53.72525425282788
 30
0.0
 10
142.2675123512864
 20
53.84670389763813
 30
0.0
  0
SPLINE
  5
C4
330
1F
100
AcDbEntity
  8
0
  6
Continuous
 62
     7
370
    25
100
AcDbSpline
210
0.0
220
0.0
230
1.0
 70
     8
 71
     3
 72
    12
 73
     8
 74
     0
 42
0.00000001
 43
0.00000001
 40
0.0
 40
0.0
 40
0.0
 40
0.0
 40
0.5
 40
0.5
 40
0.75
 40
0.75
 40
1.0
 40
1.0
 40
1.0
 40
1.0
 10
142.0384262841843
 20
58.22793448751304
 30
0.0
 10
142.0384262841843
 20
57.49397746535582
 30
0.0
 10
142.0338688891851
 20
56.76099902099302
 30
0.0
 10
142.0610525535644
 20
55.6641749080466
 30
0.0
 10
142.0765022244816
 20
55.29902731947617
 30
0.0
 10
142.1393658260134
 20
54.57023930561213
 30
0.0
 10
142.1863957491817
 20
54.2050485502138
 30
0.0
 10
142.2675123512864
 20
53.84670389763813
 30
0.0
  0
SPLINE
  5
C5
330
1F
100
AcDbEntity
  8
0
  6
Continuous
 62
     7
370
    25
100
AcDbSpline
210
0.0
220
0.0
230
1.0
 70
     8
 71
     3
 72
    12
 73
     8
 74
     0
 42
0.00000001
 43
0.00000001
 40
0.0
 40
0.0
 40
0.0
 40
0.0
 40
0.25
 40
0.25
 40
0.5
 40
0.5
 40
1.0
 40
1.0
 40
1.0
 40
1.0
 10
142.2675123512864
 20
62.60916507738794
 30
0.0
 10
142.1863957491817
 20
62.25082042481226
 30
0.0
 10
142.1393658260134
 20
61.88562966941394
 30
0.0
 10
142.0765022244816
 20
61.1568416555499
 30
0.0
 10
142.0610525535644
 20
60.79169406697947
 30
0.0
 10
142.0338688891851
 20
59.69486995403305
 30
0.0
 10
142.0384262841843
 20
58.96189150967025
 30
0.0
 10
142.0384262841843
 20
58.22793448751302
 30
0.0
  0
SPLINE
  5
C6
330
1F
100
AcDbEntity
  8
0
  6
Continuous
 62
     7
370
    25
100
AcDbSpline
210
0.0
220
0.0
230
1.0
 70
     8
 71
     3
 72
    14
 73
    10
 74
     0
 42
0.00000001
 43
0.00000001
 40
0.0
 40
0.0
 40
0.0
 40
0.0
 40
0.25
 40
0.25
 40
0.5
 40
0.5
 40
0.75
 40
0.75
 40
1.0
 40
1.0
 40
1.0
 40
1.0
 10
142.2675123512864
 20
62.60916507738794
 30
0.0
 10
142.2950333390314
 20
62.73074313337365
 30
0.0
 10
142.3149532608679
 20
62.85126787039877
 30
0.0
 10
142.3306203026859
 20
63.07824412950688
 30
0.0
 10
142.3261284708736
 20
63.18521410707307
 30
0.0
 10
142.29487212559
 20
63.37067965885279
 30
0.0
 10
142.2684995422083
 20
63.44956491997161
 30
0.0
 10
142.205662991064
 20
63.57020271114472
 30
0.0
 10
142.1696234122039
 20
63.61190690158733
 30
0.0
 10
142.1356274088383
 20
63.62762433900892
 30
0.0
  0
SPLINE
  5
C7
330
1F
100
AcDbEntity
  8
0
  6
Continuous
 62
     7
370
    25
100
AcDbSpline
210
0.0
220
0.0
230
1.0
 70
     8
 71
     3
 72
     8
 73
     4
 74
     0
 42
0.00000001
 43
0.00000001
 40
0.0
 40
0.0
 40
0.0
 40
0.0
 40
1.0
 40
1.0
 40
1.0
 40
1.0
 10
142.0384262841843
 20
63.72793448751303
 30
0.0
 10
142.0384262841843
 20
63.69245544066926
 30
0.0
 10
142.0677909912622
 20
63.6589872800197
 30
0.0
 10
142.1356274088383
 20
63.62762433900892
 30
0.0
  0
LINE
  5
C8
330
1F
100
AcDbEntity
  8
0
  6
Continuous
 62
     7
370
    25
100
AcDbLine
 10
142.0384262842
 20
63.7279344875
 30
0.0
 11
142.0384262842
 21
67.2279344875
 31
0.0
  0
LINE
  5
C9
330
1F
100
AcDbEntity
  8
0
  6
Continuous
 62
     7
370
    25
100
AcDbLine
 10
142.0384262842
 20
49.2279344875
 30
0.0
 11
142.0384262842
 21
52.7279344875
 31
0.0
  0
LINE
  5
CA
330
1F
100
AcDbEntity
  8
0
  6
Continuous
 62
     7
370
    25
100
AcDbLine
 10
144.5384262842
 20
67.7279344875
 30
0.0
 11
144.5384262842
 21
48.7279344875
 31
0.0
  0
LINE
  5
CB
330
1F
100
AcDbEntity
  8
0
  6
Continuous
 62
     7
370
    25
100
AcDbLine
 10
126.6564602729
 20
58.2279344875
 30
0.0
 11
126.6564602729
 21
48.2279344875
 31
0.0
  0
LINE
  5
CC
330
1F
100
AcDbEntity
  8
0
  6
Continuous
 62
     7
370
    25
100
AcDbLine
 10
126.6564602729
 20
68.2279344875
 30
0.0
 11
126.6564602729
 21
58.2279344875
 31
0.0
  0
LINE
  5
CD
330
1F
100
AcDbEntity
  8
0
  6
Continuous
 62
     7
370
    25
100
AcDbLine
 10
124.7884262842
 20
58.2279344875
 30
0.0
 11
124.7884262842
 21
48.2279344875
 31
0.0
  0
LINE
  5
CE
330
1F
100
AcDbEntity
  8
0
  6
Continuous
 62
     7
370
    25
100
AcDbLine
 10
124.7884262842
 20
68.2279344875
 30
0.0
 11
124.7884262842
 21
58.2279344875
 31
0.0
  0
LINE
  5
CF
330
1F
100
AcDbEntity
  8
0
  6
Continuous
 62
     7
370
    25
100
AcDbLine
 10
127.0384262842
 20
67.2279344875
 30
0.0
 11
127.0384262842
 21
63.7279344875
 31
0.0
  0
SPLINE
  5
D0
330
1F
100
AcDbEntity
  8
0
  6
Continuous
 62
     7
370
    25
100
AcDbSpline
210
0.0
220
0.0
230
1.0
 70
     8
 71
     3
 72
     8
 73
     4
 74
     0
 42
0.00000001
 43
0.00000001
 40
0.0
 40
0.0
 40
0.0
 40
0.0
 40
1.0
 40
1.0
 40
1.0
 40
1.0
 10
126.9412251595304
 20
63.62762433900892
 30
0.0
 10
127.0090615771065
 20
63.6589872800197
 30
0.0
 10
127.0384262841844
 20
63.69245544066926
 30
0.0
 10
127.0384262841844
 20
63.72793448751303
 30
0.0
  0
SPLINE
  5
D1
330
1F
100
AcDbEntity
  8
0
  6
Continuous
 62
     7
370
    25
100
AcDbSpline
210
0.0
220
0.0
230
1.0
 70
     8
 71
     3
 72
    12
 73
     8
 74
     0
 42
0.00000001
 43
0.00000001
 40
0.0
 40
0.0
 40
0.0
 40
0.0
 40
0.4999999999999992
 40
0.4999999999999992
 40
0.7499999999999996
 40
0.7499999999999996
 40
1.0
 40
1.0
 40
1.0
 40
1.0
 10
126.9412251595304
 20
63.62762433900892
 30
0.0
 10
126.8733553995206
 20
63.59624598272683
 30
0.0
 10
126.7973208482669
 20
63.46253746222828
 30
0.0
 10
126.7506762498899
 20
63.1845113525625
 30
0.0
 10
126.7462372533673
 20
63.07766516855855
 30
0.0
 10
126.7619678671601
 20
62.85078369450279
 30
0.0
 10
126.7818482971025
 20
62.73061472219818
 30
0.0
 10
126.8093402170823
 20
62.60916507738794
 30
0.0
  0
SPLINE
  5
D2
330
1F
100
AcDbEntity
  8
0
  6
Continuous
 62
     7
370
    25
100
AcDbSpline
210
0.0
220
0.0
230
1.0
 70
     8
 71
     3
 72
    12
 73
     8
 74
     0
 42
0.00000001
 43
0.00000001
 40
0.0
 40
0.0
 40
0.0
 40
0.0
 40
0.4999999999999998
 40
0.4999999999999998
 40
0.7499999999999999
 40
0.7499999999999999
 40
1.0
 40
1.0
 40
1.0
 40
1.0
 10
127.0384262841844
 20
58.22793448751302
 30
0.0
 10
127.0384262841844
 20
58.96189150967023
 30
0.0
 10
127.0429836791836
 20
59.69486995403305
 30
0.0
 10
127.0158000148043
 20
60.79169406697946
 30
0.0
 10
127.0003503438871
 20
61.15684165554989
 30
0.0
 10
126.9374867423553
 20
61.88562966941394
 30
0.0
 10
126.890456819187
 20
62.25082042481226
 30
0.0
 10
126.8093402170823
 20
62.60916507738794
 30
0.0
  0
SPLINE
  5
D3
330
1F
100
AcDbEntity
  8
0
  6
Continuous
 62
     7
370
    25
100
AcDbSpline
210
0.0
220
0.0
230
1.0
 70
     8
 71
     3
 72
    12
 73
     8
 74
     0
 42
0.00000001
 43
0.00000001
 40
0.0
 40
0.0
 40
0.0
 40
0.0
 40
0.2500000000000001
 40
0.2500000000000001
 40
0.5000000000000002
 40
0.5000000000000002
 40
1.0
 40
1.0
 40
1.0
 40
1.0
 10
126.8093402170823
 20
53.84670389763813
 30
0.0
 10
126.890456819187
 20
54.2050485502138
 30
0.0
 10
126.9374867423553
 20
54.57023930561213
 30
0.0
 10
127.0003503438871
 20
55.29902731947617
 30
0.0
 10
127.0158000148043
 20
55.6641749080466
 30
0.0
 10
127.0429836791836
 20
56.76099902099301
 30
0.0
 10
127.0384262841844
 20
57.49397746535581
 30
0.0
 10
127.0384262841844
 20
58.22793448751303
 30
0.0
  0
SPLINE
  5
D4
330
1F
100
AcDbEntity
  8
0
  6
Continuous
 62
     7
370
    25
100
AcDbSpline
210
0.0
220
0.0
230
1.0
 70
     8
 71
     3
 72
    14
 73
    10
 74
     0
 42
0.00000001
 43
0.00000001
 40
0.0
 40
0.0
 40
0.0
 40
0.0
 40
0.25
 40
0.25
 40
0.5
 40
0.5
 40
0.75
 40
0.75
 40
1.0
 40
1.0
 40
1.0
 40
1.0
 10
126.8093402170823
 20
53.84670389763813
 30
0.0
 10
126.7818192293372
 20
53.72512584165241
 30
0.0
 10
126.7618993075008
 20
53.60460110462729
 30
0.0
 10
126.7462322656828
 20
53.37762484551918
 30
0.0
 10
126.7507240974951
 20
53.270654867953
 30
0.0
 10
126.7819804427787
 20
53.08518931617327
 30
0.0
 10
126.8083530261604
 20
53.00630405505444
 30
0.0
 10
126.8711895773047
 20
52.88566626388135
 30
0.0
 10
126.9072291561648
 20
52.84396207343874
 30
0.0
 10
126.9412251595304
 20
52.82824463601713
 30
0.0
  0
SPLINE
  5
D5
330
1F
100
AcDbEntity
  8
0
  6
Continuous
 62
     7
370
    25
100
AcDbSpline
210
0.0
220
0.0
230
1.0
 70
     8
 71
     3
 72
     8
 73
     4
 74
     0
 42
0.00000001
 43
0.00000001
 40
0.0
 40
0.0
 40
0.0
 40
0.0
 40
1.0
 40
1.0
 40
1.0
 40
1.0
 10
127.0384262841844
 20
52.72793448751303
 30
0.0
 10
127.0384262841844
 20
52.7634135343568
 30
0.0
 10
127.0090615771065
 20
52.79688169500636
 30
0.0
 10
126.9412251595304
 20
52.82824463601714
 30
0.0
  0
LINE
  5
D6
330
1F
100
AcDbEntity
  8
0
  6
Continuous
 62
     7
370
    25
100
AcDbLine
 10
127.0384262842
 20
52.7279344875
 30
0.0
 11
127.0384262842
 21
49.2279344875
 31
0.0
  0
LINE
  5
D7
330
1F
100
AcDbEntity
  8
0
  6
Continuous
 62
     7
370
    25
100
AcDbLine
 10
124.5384262842
 20
58.2279344875
 30
0.0
 11
124.5384262842
 21
67.9779344875
 31
0.0
  0
LINE
  5
D8
330
1F
100
AcDbEntity
  8
0
  6
Continuous
 62
     7
370
    25
100
AcDbLine
 10
124.5384262842
 20
48.4779344875
 30
0.0
 11
124.5384262842
 21
58.2279344875
 31
0.0
  0
SPLINE
  5
D9
330
1F
100
AcDbEntity
  8
0
  6
Continuous
 62
     7
370
    25
100
AcDbSpline
210
0.0
220
0.0
230
1.0
 70
     8
 71
     3
 72
    14
 73
    10
 74
     0
 42
0.00000001
 43
0.00000001
 40
0.0
 40
0.0
 40
0.0
 40
0.0
 40
0.2500000000000001
 40
0.2500000000000001
 40
0.5000000000000001
 40
0.5000000000000001
 40
0.7500000000000001
 40
0.7500000000000001
 40
1.0
 40
1.0
 40
1.0
 40
1.0
 10
127.5384262841844
 20
58.22793448751303
 30
0.0
 10
127.5384262841844
 20
57.85141777542606
 30
0.0
 10
127.538835545904
 20
57.47488171779709
 30
0.0
 10
127.5355241977981
 20
56.72200481894851
 30
0.0
 10
127.5317607123335
 20
56.34566600443316
 30
0.0
 10
127.5059874565538
 20
55.59385086571802
 30
0.0
 10
127.4840693618752
 20
55.21837020806902
 30
0.0
 10
127.39885169869
 20
54.46936496880033
 30
0.0
 10
127.3355387125391
 20
54.09375705335889
 30
0.0
 10
127.232978194715
 20
53.72793448751303
 30
0.0
  0
LINE
  5
DA
330
1F
100
AcDbEntity
  8
0
  6
Continuous
 62
     7
370
    25
100
AcDbLine
 10
127.2329781947
 20
53.7279344875
 30
0.0
 11
126.8093402171
 21
53.8467038976
 31
0.0
  0
LINE
  5
DB
330
1F
100
AcDbEntity
  8
0
  6
Continuous
 62
     7
370
    25
100
AcDbLine
 10
127.5384262842
 20
58.2279344875
 30
0.0
 11
127.0384262842
 21
58.2279344875
 31
0.0
  0
LINE
  5
DC
330
1F
100
AcDbEntity
  8
0
  6
Continuous
 62
     7
370
    25
100
AcDbLine
 10
142.0384262842
 20
58.2279344875
 30
0.0
 11
141.5384262842
 21
58.2279344875
 31
0.0
  0
SPLINE
  5
DD
330
1F
100
AcDbEntity
  8
0
  6
Continuous
 62
     7
370
    25
100
AcDbSpline
210
0.0
220
0.0
230
1.0
 70
     8
 71
     3
 72
    14
 73
    10
 74
     0
 42
0.00000001
 43
0.00000001
 40
0.0
 40
0.0
 40
0.0
 40
0.0
 40
0.2499999999999999
 40
0.2499999999999999
 40
0.4999999999999999
 40
0.4999999999999999
 40
0.7499999999999999
 40
0.7499999999999999
 40
1.0
 40
1.0
 40
1.0
 40
1.0
 10
141.5384262841843
 20
58.22793448751302
 30
0.0
 10
141.5384262841843
 20
58.6044511996
 30
0.0
 10
141.5380170224647
 20
58.98098725722896
 30
0.0
 10
141.5413283705706
 20
59.73386415607754
 30
0.0
 10
141.5450918560352
 20
60.11020297059289
 30
0.0
 10
141.570865111815
 20
60.86201810930803
 30
0.0
 10
141.5927832064935
 20
61.23749876695704
 30
0.0
 10
141.6780008696788
 20
61.98650400622573
 30
0.0
 10
141.7413138558296
 20
62.36211192166718
 30
0.0
 10
141.8438743736537
 20
62.72793448751303
 30
0.0
  0
LINE
  5
DE
330
1F
100
AcDbEntity
  8
0
  6
Continuous
 62
     7
370
    25
100
AcDbLine
 10
142.2675123513
 20
62.6091650774
 30
0.0
 11
141.8438743737
 21
62.7279344875
 31
0.0
  0
LINE
  5
DF
330
1F
100
AcDbEntity
  8
0
  6
Continuous
 62
     7
370
    25
100
AcDbLine
 10
142.2675123513
 20
53.8467038976
 30
0.0
 11
141.8438743737
 21
53.7279344875
 31
0.0
  0
SPLINE
  5
E0
330
1F
100
AcDbEntity
  8
0
  6
Continuous
 62
     7
370
    25
100
AcDbSpline
210
0.0
220
0.0
230
1.0
 70
     8
 71
     3
 72
    14
 73
    10
 74
     0
 42
0.00000001
 43
0.00000001
 40
0.0
 40
0.0
 40
0.0
 40
0.0
 40
0.2500000000000002
 40
0.2500000000000002
 40
0.5000000000000003
 40
0.5000000000000003
 40
0.7500000000000002
 40
0.7500000000000002
 40
1.0
 40
1.0
 40
1.0
 40
1.0
 10
141.8438743736537
 20
53.72793448751303
 30
0.0
 10
141.7413138558296
 20
54.09375705335889
 30
0.0
 10
141.6780008696788
 20
54.46936496880033
 30
0.0
 10
141.5927832064935
 20
55.21837020806903
 30
0.0
 10
141.570865111815
 20
55.59385086571803
 30
0.0
 10
141.5450918560352
 20
56.34566600443317
 30
0.0
 10
141.5413283705706
 20
56.72200481894852
 30
0.0
 10
141.5380170224647
 20
57.4748817177971
 30
0.0
 10
141.5384262841843
 20
57.85141777542606
 30
0.0
 10
141.5384262841843
 20
58.22793448751304
 30
0.0
  0
SPLINE
  5
E1
330
1F
100
AcDbEntity
  8
0
  6
Continuous
 62
     7
370
    25
100
AcDbSpline
210
0.0
220
0.0
230
1.0
 70
     8
 71
     3
 72
    14
 73
    10
 74
     0
 42
0.00000001
 43
0.00000001
 40
0.0
 40
0.0
 40
0.0
 40
0.0
 40
0.2500000000000001
 40
0.2500000000000001
 40
0.5000000000000001
 40
0.5000000000000001
 40
0.75
 40
0.75
 40
1.0
 40
1.0
 40
1.0
 40
1.0
 10
127.232978194715
 20
62.72793448751303
 30
0.0
 10
127.3355387125391
 20
62.36211192166718
 30
0.0
 10
127.39885169869
 20
61.98650400622572
 30
0.0
 10
127.4840693618752
 20
61.23749876695704
 30
0.0
 10
127.5059874565538
 20
60.86201810930802
 30
0.0
 10
127.5317607123335
 20
60.11020297059289
 30
0.0
 10
127.5355241977981
 20
59.73386415607753
 30
0.0
 10
127.538835545904
 20
58.98098725722895
 30
0.0
 10
127.5384262841844
 20
58.60445119959999
 30
0.0
 10
127.5384262841844
 20
58.22793448751302
 30
0.0
  0
LINE
  5
E2
330
1F
100
AcDbEntity
  8
0
  6
Continuous
 62
     7
370
    25
100
AcDbLine
 10
127.2329781947
 20
62.7279344875
 30
0.0
 11
126.8093402171
 21
62.6091650774
 31
0.0
  0
SPLINE
  5
E3
330
1F
100
AcDbEntity
  8
0
  6
Continuous
 62
     7
370
    25
100
AcDbSpline
210
0.0
220
0.0
230
1.0
 70
     8
 71
     3
 72
    14
 73
    10
 74
     0
 42
0.00000001
 43
0.00000001
 40
0.0
 40
0.0
 40
0.0
 40
0.0
 40
0.25
 40
0.25
 40
0.5
 40
0.5
 40
0.75
 40
0.75
 40
1.0
 40
1.0
 40
1.0
 40
1.0
 10
127.4088247846458
 20
53.22793448751303
 30
0.0
 10
127.3703493010242
 20
53.22793448751303
 30
0.0
 10
127.3292603795542
 20
53.23872105849625
 30
0.0
 10
127.2499775321136
 20
53.2816528455614
 30
0.0
 10
127.2126946310032
 20
53.31307035386628
 30
0.0
 10
127.1598888716914
 20
53.40438519944249
 30
0.0
 10
127.1479196115977
 20
53.46561568220676
 30
0.0
 10
127.1679213999699
 20
53.59647904286248
 30
0.0
 10
127.1973778555222
 20
53.66444315720006
 30
0.0
 10
127.232978194715
 20
53.72793448751303
 30
0.0
  0
ARC
  5
E4
330
1F
100
AcDbEntity
  8
0
  6
Continuous
 62
     7
370
    25
100
AcDbCircle
 10
127.4173733682
 20
52.7445646768
 30
0.0
 40
0.48344539731922
100
AcDbArc
 50
91.0131925738
 51
170.032425387
  0
SPLINE
  5
E5
330
1F
100
AcDbEntity
  8
0
  6
Continuous
 62
     7
370
    25
100
AcDbSpline
210
0.0
220
0.0
230
1.0
 70
     8
 71
     3
 72
    14
 73
    10
 74
     0
 42
0.00000001
 43
0.00000001
 40
0.0
 40
0.0
 40
0.0
 40
0.0
 40
0.25
 40
0.25
 40
0.5
 40
0.5
 40
0.75
 40
0.75
 40
1.0
 40
1.0
 40
1.0
 40
1.0
 10
141.6680277837229
 20
63.22793448751303
 30
0.0
 10
141.7065032673445
 20
63.22793448751303
 30
0.0
 10
141.7475921888145
 20
63.21714791652981
 30
0.0
 10
141.8268750362551
 20
63.17421612946465
 30
0.0
 10
141.8641579373655
 20
63.14279862115978
 30
0.0
 10
141.9169636966773
 20
63.05148377558356
 30
0.0
 10
141.928932956771
 20
62.9902532928193
 30
0.0
 10
141.9089311683988
 20
62.85938993216359
 30
0.0
 10
141.8794747128465
 20
62.791425817826
 30
0.0
 10
141.8438743736537
 20
62.72793448751303
 30
0.0
  0
ARC
  5
E6
330
1F
100
AcDbEntity
  8
0
  6
Continuous
 62
     7
370
    25
100
AcDbCircle
 10
141.6594792002
 20
63.7113042982
 30
0.0
 40
0.4834453973191883
100
AcDbArc
 50
271.0131925738
 51
350.032425387
  0
ARC
  5
E7
330
1F
100
AcDbEntity
  8
0
  6
Continuous
 62
     7
370
    25
100
AcDbCircle
 10
141.6594792002
 20
52.7445646768
 30
0.0
 40
0.4834453973191883
100
AcDbArc
 50
9.967574613
 51
88.9868074262
  0
SPLINE
  5
E8
330
1F
100
AcDbEntity
  8
0
  6
Continuous
 62
     7
370
    25
100
AcDbSpline
210
0.0
220
0.0
230
1.0
 70
     8
 71
     3
 72
    16
 73
    12
 74
     0
 42
0.00000001
 43
0.00000001
 40
0.0
 40
0.0
 40
0.0
 40
0.0
 40
0.2499999999999999
 40
0.2499999999999999
 40
0.3750000000000003
 40
0.3750000000000003
 40
0.5000000000000007
 40
0.5000000000000007
 40
0.7500000000000003
 40
0.7500000000000003
 40
1.0
 40
1.0
 40
1.0
 40
1.0
 10
141.8438743736537
 20
53.72793448751303
 30
0.0
 10
141.8794283031024
 20
53.66452592653484
 30
0.0
 10
141.9087004443311
 20
53.59725862621402
 30
0.0
 10
141.923912994552
 20
53.49881931507168
 30
0.0
 10
141.9239736627255
 20
53.4663439087164
 30
0.0
 10
141.9137630782482
 20
53.40771870159019
 30
0.0
 10
141.9039797487229
 20
53.3820958900372
 30
0.0
 10
141.864815200191
 20
53.31388704634175
 30
0.0
 10
141.8269421269177
 20
53.28172429117598
 30
0.0
 10
141.7478691539262
 20
53.23883607206009
 30
0.0
 10
141.7064820213353
 20
53.22793448751303
 30
0.0
 10
141.6680277837229
 20
53.22793448751303
 30
0.0
  0
SPLINE
  5
E9
330
1F
100
AcDbEntity
  8
0
  6
Continuous
 62
     7
370
    25
100
AcDbSpline
210
0.0
220
0.0
230
1.0
 70
     8
 71
     3
 72
    16
 73
    12
 74
     0
 42
0.00000001
 43
0.00000001
 40
0.0
 40
0.0
 40
0.0
 40
0.0
 40
0.2500000000000049
 40
0.2500000000000049
 40
0.3750000000000051
 40
0.3750000000000051
 40
0.5000000000000052
 40
0.5000000000000052
 40
0.7500000000000026
 40
0.7500000000000026
 40
1.0
 40
1.0
 40
1.0
 40
1.0
 10
127.232978194715
 20
62.72793448751303
 30
0.0
 10
127.1974242652663
 20
62.79134304849122
 30
0.0
 10
127.1681521240376
 20
62.85861034881204
 30
0.0
 10
127.1529395738167
 20
62.95704965995439
 30
0.0
 10
127.1528789056432
 20
62.98952506630967
 30
0.0
 10
127.1630894901205
 20
63.04815027343587
 30
0.0
 10
127.1728728196458
 20
63.07377308498886
 30
0.0
 10
127.2120373681777
 20
63.14198192868431
 30
0.0
 10
127.249910441451
 20
63.17414468385009
 30
0.0
 10
127.3289834144426
 20
63.21703290296598
 30
0.0
 10
127.3703705470334
 20
63.22793448751303
 30
0.0
 10
127.4088247846458
 20
63.22793448751303
 30
0.0
  0
ARC
  5
EA
330
1F
100
AcDbEntity
  8
0
  6
Continuous
 62
     7
370
    25
100
AcDbCircle
 10
127.4173733682
 20
63.7113042982
 30
0.0
 40
0.4834453973192188
100
AcDbArc
 50
189.967574613
 51
268.9868074262
  0
ELLIPSE
  5
EB
330
1F
100
AcDbEntity
  8
0
  6
Continuous
 62
     7
370
    25
100
AcDbEllipse
 10
131.2444828032
 20
57.7374682373
 30
0.0
 11
0.06784129479237322
 21
0.0
 31
0.0
210
0.0
220
0.0
230
1.0
 40
0.9533039403
 41
2.798568711307185
 42
4.712388980384703
  0
LINE
  5
EC
330
1F
100
AcDbEntity
  8
0
  6
Continuous
 62
     7
370
    25
100
AcDbLine
 10
131.4235331575
 20
58.4076863406
 30
0.0
 11
131.1805938126
 21
57.7592202469
 31
0.0
  0
ELLIPSE
  5
ED
330
1F
100
AcDbEntity
  8
0
  6
Continuous
 62
     7
370
    25
100
AcDbEllipse
 10
131.4874221481
 20
58.385934331
 30
0.0
 11
0.06784129479268586
 21
0.0
 31
0.0
210
0.0
220
0.0
230
1.0
 40
0.9533039403
 41
0.3430239385579588
 42
2.798568711309112
  0
LINE
  5
EE
330
1F
100
AcDbEntity
  8
0
  6
Continuous
 62
     7
370
    25
100
AcDbLine
 10
131.7942504809
 20
57.7592202467
 30
0.0
 11
131.5513111388
 21
58.4076863403
 31
0.0
  0
ELLIPSE
  5
EF
330
1F
100
AcDbEntity
  8
0
  6
Continuous
 62
     7
370
    25
100
AcDbEllipse
 10
131.7303614902
 20
57.7374682373
 30
0.0
 11
-0.0678412947923448
 21
0.0
 31
0.0
210
0.0
220
0.0
230
1.0
 40
0.9533039403
 41
1.570796326794897
 42
3.484616592149523
  0
LINE
  5
F0
330
1F
100
AcDbEntity
  8
0
  6
Continuous
 62
     7
370
    25
100
AcDbLine
 10
131.2444828032
 20
57.6727948637
 30
0.0
 11
131.7303614902
 21
57.6727948637
 31
0.0
  0
LINE
  5
F1
330
1F
100
AcDbEntity
  8
0
  6
Continuous
 62
     7
370
    25
100
AcDbLine
 10
141.8438743737
 20
62.7279344875
 30
0.0
 11
127.2329781947
 21
62.7279344875
 31
0.0
  0
LINE
  5
F2
330
1F
100
AcDbEntity
  8
0
  6
Continuous
 62
     7
370
    25
100
AcDbLine
 10
127.4088247846
 20
63.2279344875
 30
0.0
 11
141.6680277837
 21
63.2279344875
 31
0.0
  0
LINE
  5
F3
330
1F
100
AcDbEntity
  8
0
  6
Continuous
 62
     7
370
    25
100
AcDbLine
 10
141.6680277837
 20
53.2279344875
 30
0.0
 11
127.4088247846
 21
53.2279344875
 31
0.0
  0
LINE
  5
F4
330
1F
100
AcDbEntity
  8
0
  6
Continuous
 62
     7
370
    25
100
AcDbLine
 10
127.2329781947
 20
53.7279344875
 30
0.0
 11
141.8438743737
 21
53.7279344875
 31
0.0
  0
ARC
  5
F5
330
1F
100
AcDbEntity
  8
0
  6
Continuous
 62
     7
370
    25
100
AcDbCircle
 10
138.4017923701
 20
57.422888347
 30
0.0
 40
0.7112000000000971
100
AcDbArc
 50
200.9248324276
 51
315.0
  0
LINE
  5
F6
330
1F
100
AcDbEntity
  8
0
  6
Continuous
 62
     7
370
    25
100
AcDbLine
 10
139.2779750213
 20
57.168888347
 30
0.0
 11
139.2779750213
 21
57.676888347
 31
0.0
  0
LINE
  5
F7
330
1F
100
AcDbEntity
  8
0
  6
Continuous
 62
     7
370
    25
100
AcDbLine
 10
137.7374961711
 20
57.168888347
 30
0.0
 11
139.2779750213
 21
57.168888347
 31
0.0
  0
LINE
  5
F8
330
1F
100
AcDbEntity
  8
0
  6
Continuous
 62
     7
370
    25
100
AcDbLine
 10
139.2779750213
 20
57.676888347
 30
0.0
 11
137.7374961711
 21
57.676888347
 31
0.0
  0
LINE
  5
F9
330
1F
100
AcDbEntity
  8
0
  6
Continuous
 62
     7
370
    25
100
AcDbLine
 10
133.1570112418
 20
56.199563688
 30
0.0
 11
133.7940261695
 21
57.4141013691
 31
0.0
  0
LINE
  5
FA
330
1F
100
AcDbEntity
  8
0
  6
Continuous
 62
     7
370
    25
100
AcDbLine
 10
129.22208258
 20
57.3913898131
 30
0.0
 11
129.1808181236
 21
57.4141013691
 31
0.0
  0
LINE
  5
FB
330
1F
100
AcDbEntity
  8
0
  6
Continuous
 62
     7
370
    25
100
AcDbLine
 10
129.1808181236
 20
57.4141013691
 30
0.0
 11
129.8178330512
 21
56.199563688
 31
0.0
  0
ELLIPSE
  5
FC
330
1F
100
AcDbEntity
  8
0
  6
Continuous
 62
     7
370
    25
100
AcDbEllipse
 10
131.4874221465
 20
60.2799402387
 30
0.0
 11
0.5215299537176747
 21
0.0
 31
0.0
210
0.0
220
0.0
230
1.0
 40
0.9533039403
 41
0.4357918987553402
 42
2.705800754834443
  0
LINE
  5
FD
330
1F
100
AcDbEntity
  8
0
  6
Continuous
 62
     7
370
    25
100
AcDbLine
 10
138.9046867128
 20
57.9257826898
 30
0.0
 11
139.2779750213
 21
58.2990709983
 31
0.0
  0
LINE
  5
FE
330
1F
100
AcDbEntity
  8
0
  6
Continuous
 62
     7
370
    25
100
AcDbLine
 10
133.7940261695
 20
57.4141013691
 30
0.0
 11
133.760705914
 21
57.3950574252
 31
0.0
  0
ELLIPSE
  5
FF
330
1F
100
AcDbEntity
  8
0
  6
Continuous
 62
     7
370
    25
100
AcDbEllipse
 10
133.0963321431
 20
56.2284864999
 30
0.0
 11
0.0678412947923448
 21
0.0
 31
0.0
210
0.0
220
0.0
230
1.0
 40
0.9533039403
 41
3.96259465055491
 42
5.819537698174868
  0
ELLIPSE
  5
100
330
1F
100
AcDbEntity
  8
0
  6
Continuous
 62
     7
370
    25
100
AcDbEllipse
 10
131.4874221465
 20
54.5814076035
 30
0.0
 11
2.293035763987575
 21
-1.058708676282549E-12
 31
0.0
210
0.0
220
0.0
230
1.0
 40
0.9533039403
 41
0.8210019969645953
 42
2.32059065662513
  0
ELLIPSE
  5
101
330
1F
100
AcDbEntity
  8
0
  6
Continuous
 62
     7
370
    25
100
AcDbEllipse
 10
129.8785121499
 20
56.2284864999
 30
0.0
 11
0.06784129479237322
 21
0.0
 31
0.0
210
0.0
220
0.0
230
1.0
 40
0.9533039403
 41
3.60524026258072
 42
5.462183310226515
  0
LINE
  5
102
330
1F
100
AcDbEntity
  8
0
  6
Continuous
 62
     7
370
    25
100
AcDbLine
 10
131.0146364456
 20
60.4898125936
 30
0.0
 11
130.0071475728
 21
57.6725127973
 31
0.0
  0
LINE
  5
103
330
1F
100
AcDbEntity
  8
0
  6
Continuous
 62
     7
370
    25
100
AcDbLine
 10
136.2309710358
 20
57.9257826898
 30
0.0
 11
136.6042593442
 21
58.2990709983
 31
0.0
  0
ELLIPSE
  5
104
330
1F
100
AcDbEntity
  8
0
  6
Continuous
 62
     7
370
    25
100
AcDbEllipse
 10
133.4816313704
 20
57.8388034022
 30
0.0
 11
0.5427303583402932
 21
3.481659405224491E-13
 31
0.0
210
0.0
220
0.0
230
1.0
 40
0.9533039404
 41
3.470145824142436
 42
5.252469180527934
  0
LINE
  5
105
330
1F
100
AcDbEntity
  8
0
  6
Continuous
 62
     7
370
    25
100
AcDbLine
 10
136.6042593442
 20
56.5467056957
 30
0.0
 11
136.2309710358
 21
56.9199940042
 31
0.0
  0
ARC
  5
106
330
1F
100
AcDbEntity
  8
0
  6
Continuous
 62
     7
370
    25
100
AcDbCircle
 10
135.728076693
 20
57.422888347
 30
0.0
 40
1.239109388553836
100
AcDbArc
 50
45.0
 51
315.0
  0
ARC
  5
107
330
1F
100
AcDbEntity
  8
0
  6
Continuous
 62
     7
370
    25
100
AcDbCircle
 10
138.4017923701
 20
57.422888347
 30
0.0
 40
1.239109388553836
100
AcDbArc
 50
45.0
 51
315.0
  0
LINE
  5
108
330
1F
100
AcDbEntity
  8
0
  6
Continuous
 62
     7
370
    25
100
AcDbLine
 10
132.9679315568
 20
57.6718561102
 30
0.0
 11
131.9602078474
 21
60.4898125936
 31
0.0
  0
LINE
  5
109
330
1F
100
AcDbEntity
  8
0
  6
Continuous
 62
     7
370
    25
100
AcDbLine
 10
139.2779750213
 20
56.5467056957
 30
0.0
 11
138.9046867128
 21
56.9199940042
 31
0.0
  0
ELLIPSE
  5
10A
330
1F
100
AcDbEntity
  8
0
  6
Continuous
 62
     7
370
    25
100
AcDbEllipse
 10
129.4934477592
 20
57.8394600893
 30
0.0
 11
-0.5427303583406342
 21
3.552713678800501E-13
 31
0.0
210
0.0
220
0.0
230
1.0
 40
0.9533039403
 41
1.047197551196557
 42
2.813039483039298
  0
ARC
  5
10B
330
1F
100
AcDbEntity
  8
0
  6
Continuous
 62
     7
370
    25
100
AcDbCircle
 10
138.4017923701
 20
57.422888347
 30
0.0
 40
0.7112000000000287
100
AcDbArc
 50
45.0
 51
159.0751675723
  0
ARC
  5
10C
330
1F
100
AcDbEntity
  8
0
  6
Continuous
 62
     7
370
    25
100
AcDbCircle
 10
135.728076693
 20
57.422888347
 30
0.0
 40
0.7111999999997725
100
AcDbArc
 50
45.0
 51
315.0
  0
LINE
  5
10D
330
1F
100
AcDbEntity
  8
0
  6
Continuous
 62
     7
370
    25
100
AcDbLine
 10
152.4645168505
 20
58.2279344875
 30
0.0
 11
152.4645168505
 21
50.0305623177
 31
0.0
  0
LINE
  5
10E
330
1F
100
AcDbEntity
  8
0
  6
Continuous
 62
     7
370
    25
100
AcDbLine
 10
152.4645168505
 20
66.4253066573
 30
0.0
 11
152.4645168505
 21
58.2279344875
 31
0.0
  0
LINE
  5
10F
330
1F
100
AcDbEntity
  8
0
  6
Continuous
 62
     7
370
    25
100
AcDbLine
 10
154.5384262842
 20
65.2279344875
 30
0.0
 11
154.5384262842
 21
51.2279344875
 31
0.0
  0
ARC
  5
110
330
1F
100
AcDbEntity
  8
0
  6
Continuous
 62
     7
370
    25
100
AcDbCircle
 10
141.5384262842
 20
52.7279344875
 30
0.0
 40
0.5
100
AcDbArc
 50
0.0
 51
90.0
  0
ARC
  5
111
330
1F
100
AcDbEntity
  8
0
  6
Continuous
 62
     7
370
    25
100
AcDbCircle
 10
127.5384262842
 20
52.7279344875
 30
0.0
 40
0.5
100
AcDbArc
 50
90.0
 51
180.0
  0
ARC
  5
112
330
1F
100
AcDbEntity
  8
0
  6
Continuous
 62
     7
370
    25
100
AcDbCircle
 10
141.5384262842
 20
63.7279344875
 30
0.0
 40
0.5
100
AcDbArc
 50
270.0
 51
0.0
  0
ARC
  5
113
330
1F
100
AcDbEntity
  8
0
  6
Continuous
 62
     7
370
    25
100
AcDbCircle
 10
127.5384262842
 20
63.7279344875
 30
0.0
 40
0.5
100
AcDbArc
 50
180.0
 51
270.0
  0
LWPOLYLINE
  5
114
330
1F
100
AcDbEntity
  8
0
  6
Continuous
 62
     7
370
    25
100
AcDbPolyline
 90
        9
 70
   128
 43
0.0
 10
141.5384262842
 20
63.422378932
 10
141.6359714452
 20
63.4282500963
 10
141.7297680004
 20
63.4456379637
 10
141.8162114007
 20
63.4738743282
 10
141.8919796748
 20
63.5118740822
 10
141.9541610903
 20
63.5581769163
 10
142.0003660504
 20
63.6110034387
 10
142.0288189244
 20
63.6683235558
 10
142.0384262842
 20
63.7279344875
  0
LINE
  5
115
330
1F
100
AcDbEntity
  8
0
  6
Continuous
 62
     7
370
    25
100
AcDbLine
 10
141.5384262842
 20
63.2279344875
 30
0.0
 11
141.5384262842
 21
63.422378932
 31
0.0
  0
LWPOLYLINE
  5
116
330
1F
100
AcDbEntity
  8
0
  6
Continuous
 62
     7
370
    25
100
AcDbPolyline
 90
        9
 70
   128
 43
0.0
 10
127.5384262842
 20
53.0334900431
 10
127.4408811232
 20
53.0276188787
 10
127.347084568
 20
53.0102310113
 10
127.2606411677
 20
52.9819946468
 10
127.1848728936
 20
52.9439948929
 10
127.122691478
 20
52.8976920587
 10
127.0764865179
 20
52.8448655363
 10
127.048033644
 20
52.7875454192
 10
127.0384262842
 20
52.7279344875
  0
LINE
  5
117
330
1F
100
AcDbEntity
  8
0
  6
Continuous
 62
     7
370
    25
100
AcDbLine
 10
127.5384262842
 20
53.0334900431
 30
0.0
 11
127.5384262842
 21
53.2279344875
 31
0.0
  0
LINE
  5
118
330
1F
100
AcDbEntity
  8
0
  6
Continuous
 62
     7
370
    25
100
AcDbLine
 10
141.5384262842
 20
53.0334900431
 30
0.0
 11
127.5384262842
 21
53.0334900431
 31
0.0
  0
LINE
  5
119
330
1F
100
AcDbEntity
  8
0
  6
Continuous
 62
     7
370
    25
100
AcDbLine
 10
141.5384262842
 20
53.0334900431
 30
0.0
 11
141.5384262842
 21
53.2279344875
 31
0.0
  0
LWPOLYLINE
  5
11A
330
1F
100
AcDbEntity
  8
0
  6
Continuous
 62
     7
370
    25
100
AcDbPolyline
 90
        9
 70
   128
 43
0.0
 10
127.0384262842
 20
63.7279344875
 10
127.048033644
 20
63.6683235558
 10
127.0764865179
 20
63.6110034387
 10
127.122691478
 20
63.5581769163
 10
127.1848728936
 20
63.5118740822
 10
127.2606411677
 20
63.4738743282
 10
127.347084568
 20
63.4456379637
 10
127.4408811232
 20
63.4282500963
 10
127.5384262842
 20
63.422378932
  0
LINE
  5
11B
330
1F
100
AcDbEntity
  8
0
  6
Continuous
 62
     7
370
    25
100
AcDbLine
 10
127.5384262842
 20
63.2279344875
 30
0.0
 11
127.5384262842
 21
63.422378932
 31
0.0
  0
LWPOLYLINE
  5
11C
330
1F
100
AcDbEntity
  8
0
  6
Continuous
 62
     7
370
    25
100
AcDbPolyline
 90
        9
 70
   128
 43
0.0
 10
142.0384262842
 20
52.7279344875
 10
142.0288189244
 20
52.7875454192
 10
142.0003660504
 20
52.8448655363
 10
141.9541610903
 20
52.8976920587
 10
141.8919796748
 20
52.9439948929
 10
141.8162114007
 20
52.9819946468
 10
141.7297680004
 20
53.0102310113
 10
141.6359714452
 20
53.0276188787
 10
141.5384262842
 20
53.0334900431
  0
LINE
  5
11D
330
1F
100
AcDbEntity
  8
0
  6
Continuous
 62
     7
370
    25
100
AcDbLine
 10
127.5384262842
 20
63.422378932
 30
0.0
 11
141.5384262842
 21
63.422378932
 31
0.0
  0
SPLINE
  5
11E
330
1F
100
AcDbEntity
  8
0
  6
Continuous
 62
     7
370
    25
100
AcDbSpline
210
0.0
220
0.0
230
1.0
 70
    11
 71
     3
 72
    26
 73
    22
 74
     0
 42
0.00000001
 43
0.00000001
 40
0.0
 40
0.0
 40
0.0
 40
0.0
 40
0.125
 40
0.125
 40
0.1875
 40
0.1875
 40
0.25
 40
0.25
 40
0.3125
 40
0.3125
 40
0.375
 40
0.375
 40
0.5
 40
0.5
 40
0.625
 40
0.625
 40
0.75
 40
0.75
 40
0.875
 40
0.875
 40
1.0
 40
1.0
 40
1.0
 40
1.0
 10
135.0517452530327
 20
66.22793448751304
 30
0.0
 10
135.0517452530327
 20
66.36705351874186
 30
0.0
 10
134.9989492818838
 20
66.50278122171734
 30
0.0
 10
134.8574936920064
 20
66.65579995821311
 30
0.0
 10
134.8009397556346
 20
66.69730285923364
 30
0.0
 10
134.6753956041912
 20
66.75450275302732
 30
0.0
 10
134.6062439910831
 20
66.76978674177165
 30
0.0
 10
134.4690856163397
 20
66.76956586800802
 30
0.0
 10
134.3999710335336
 20
66.75400580672036
 30
0.0
 10
134.2752112649025
 20
66.69679997222636
 30
0.0
 10
134.218580176568
 20
66.65504854495939
 30
0.0
 10
134.0784665500451
 20
66.50320767667594
 30
0.0
 10
134.0251460160984
 20
66.36715534940808
 30
0.0
 10
134.0250686575224
 20
66.08902265570472
 30
0.0
 10
134.078757039544
 20
65.95222064568473
 30
0.0
 10
134.2654518538517
 20
65.75015184201968
 30
0.0
 10
134.4013330632153
 20
65.68598208233414
 30
0.0
 10
134.6769641972538
 20
65.68640313513512
 30
0.0
 10
134.8119392356674
 20
65.75067181755844
 30
0.0
 10
134.9977867127335
 20
65.95194936878258
 30
0.0
 10
135.0517452530327
 20
66.08881545628421
 30
0.0
 10
135.0517452530327
 20
66.22793448751304
 30
0.0
  0
SPLINE
  5
11F
330
1F
100
AcDbEntity
  8
0
  6
Continuous
 62
     7
370
    25
100
AcDbSpline
210
0.0
220
0.0
230
1.0
 70
    11
 71
     3
 72
    38
 73
    34
 74
     0
 42
0.00000001
 43
0.00000001
 40
0.0
 40
0.0
 40
0.0
 40
0.0
 40
0.0625
 40
0.0625
 40
0.125
 40
0.125
 40
0.1874999999999999
 40
0.1874999999999999
 40
0.2499999999999999
 40
0.2499999999999999
 40
0.3125
 40
0.3125
 40
0.375
 40
0.375
 40
0.4375000000000001
 40
0.4375000000000001
 40
0.5000000000000001
 40
0.5000000000000001
 40
0.5625000000000001
 40
0.5625000000000001
 40
0.6250000000000001
 40
0.6250000000000001
 40
0.6875000000000001
 40
0.6875000000000001
 40
0.75
 40
0.75
 40
0.8125
 40
0.8125
 40
0.875
 40
0.875
 40
0.9375
 40
0.9375
 40
1.0
 40
1.0
 40
1.0
 40
1.0
 10
133.5384262841844
 20
66.22793448751301
 30
0.0
 10
133.5384262841844
 20
66.09554857260272
 30
0.0
 10
133.5645748353272
 20
65.96566124612401
 30
0.0
 10
133.665040504785
 20
65.72358225153815
 30
0.0
 10
133.7393253711815
 20
65.61280089748213
 30
0.0
 10
133.9234745509163
 20
65.42869361737635
 30
0.0
 10
134.0348501735105
 20
65.35422494608036
 30
0.0
 10
134.2753986780444
 20
65.25439776995168
 30
0.0
 10
134.4071565740318
 20
65.22800984987836
 30
0.0
 10
134.6685452661957
 20
65.22785945619154
 30
0.0
 10
134.7997173367874
 20
65.25379927660157
 30
0.0
 10
135.0421550227871
 20
65.35416690902686
 30
0.0
 10
135.1522091909367
 20
65.42755581217209
 30
0.0
 10
135.3384625083476
 20
65.61370527900164
 30
0.0
 10
135.4118888362407
 20
65.72374379640162
 30
0.0
 10
135.5122535838696
 20
65.9656265134903
 30
0.0
 10
135.5383748481658
 20
66.09690103200163
 30
0.0
 10
135.538477565651
 20
66.35818168137413
 30
0.0
 10
135.5122339375573
 20
66.48999708488707
 30
0.0
 10
135.4125655807592
 20
66.73078500296855
 30
0.0
 10
135.3382847887906
 20
66.84211720436653
 30
0.0
 10
135.1540980483571
 20
67.02664739956154
 30
0.0
 10
135.0436744742945
 20
67.10083372883531
 30
0.0
 10
134.8012897590545
 20
67.20165498780547
 30
0.0
 10
134.6713655794881
 20
67.22782921711051
 30
0.0
 10
134.4070754699712
 20
67.22803912709742
 30
0.0
 10
134.2768417113092
 20
67.20195140473425
 30
0.0
 10
134.0349490401385
 20
67.10180296075563
 30
0.0
 10
133.9239331147319
 20
67.02751666559048
 30
0.0
 10
133.7397653787519
 20
66.8436245661537
 30
0.0
 10
133.6651667072497
 20
66.73229441559968
 30
0.0
 10
133.5651158937046
 20
66.49180587579106
 30
0.0
 10
133.5384262841844
 20
66.36032040242333
 30
0.0
 10
133.5384262841844
 20
66.22793448751302
 30
0.0
  0
LINE
  5
120
330
1F
100
AcDbEntity
  8
0
  6
Continuous
 62
     7
370
    25
100
AcDbLine
 10
139.7775116168
 20
84.7279344875
 30
0.0
 11
139.7775116168
 21
85.3279344875
 31
0.0
  0
LINE
  5
121
330
1F
100
AcDbEntity
  8
0
  6
Continuous
 62
     7
370
    25
100
AcDbLine
 10
129.2993409515
 20
84.7279344875
 30
0.0
 11
139.7775116168
 21
84.7279344875
 31
0.0
  0
LINE
  5
122
330
1F
100
AcDbEntity
  8
0
  6
Continuous
 62
     7
370
    25
100
AcDbLine
 10
129.2993409515
 20
85.3279344875
 30
0.0
 11
129.2993409515
 21
84.7279344875
 31
0.0
  0
LINE
  5
123
330
1F
100
AcDbEntity
  8
0
  6
Continuous
 62
     7
370
    25
100
AcDbLine
 10
139.7775116168
 20
85.3279344875
 30
0.0
 11
129.2993409515
 21
85.3279344875
 31
0.0
  0
SPLINE
  5
124
330
1F
100
AcDbEntity
  8
0
  6
Continuous
 62
     7
370
    25
100
AcDbSpline
210
0.0
220
0.0
230
1.0
 70
     8
 71
     3
 72
    15
 73
    11
 74
     0
 42
0.00000001
 43
0.00000001
 40
0.0
 40
0.0
 40
0.0
 40
0.0
 40
0.0090459071881971
 40
0.1032433785236876
 40
0.1542564497735193
 40
0.3133169026715103
 40
0.524372039941443
 40
0.6678060008509185
 40
0.9918332554187027
 40
0.9999999999999999
 40
0.9999999999999999
 40
0.9999999999999999
 40
0.9999999999999999
 10
139.7775116168424
 20
85.32793448751303
 30
0.0
 10
139.7775059248758
 20
85.32961558609746
 30
0.0
 10
139.777440960925
 20
85.34880241765298
 30
0.0
 10
139.7754452744891
 20
85.37749669717296
 30
0.0
 10
139.7676282782727
 20
85.42817273714489
 30
0.0
 10
139.7504584545177
 20
85.48604903672177
 30
0.0
 10
139.7238745579502
 20
85.53091455145648
 30
0.0
 10
139.6860452594615
 20
85.56827693471104
 30
0.0
 10
139.6577644794513
 20
85.57782294698038
 30
0.0
 10
139.63793333192
 20
85.57793181116726
 30
0.0
 10
139.6374457977772
 20
85.57793448751303
 30
0.0
  0
SPLINE
  5
125
330
1F
100
AcDbEntity
  8
0
  6
Continuous
 62
     7
370
    25
100
AcDbSpline
210
0.0
220
0.0
230
1.0
 70
     8
 71
     3
 72
    15
 73
    11
 74
     0
 42
0.00000001
 43
0.00000001
 40
0.0
 40
0.0
 40
0.0
 40
0.0
 40
0.0081667445812973
 40
0.3321939991490806
 40
0.4756279600585563
 40
0.6866830973284899
 40
0.8457435502264806
 40
0.8967566214763123
 40
0.9909540928118028
 40
1.0
 40
1.0
 40
1.0
 40
1.0
 10
129.4394067705916
 20
85.57793448751303
 30
0.0
 10
129.4389192364487
 20
85.57793181116726
 30
0.0
 10
129.4190880889174
 20
85.5778229469805
 30
0.0
 10
129.3908073089072
 20
85.56827693471102
 30
0.0
 10
129.3529780104186
 20
85.53091455145646
 30
0.0
 10
129.326394113851
 20
85.4860490367218
 30
0.0
 10
129.3092242900961
 20
85.42817273714488
 30
0.0
 10
129.3014072938796
 20
85.37749669717299
 30
0.0
 10
129.2994116074437
 20
85.34880241765296
 30
0.0
 10
129.2993466434929
 20
85.32961558609746
 30
0.0
 10
129.2993409515262
 20
85.32793448751303
 30
0.0
  0
LINE
  5
126
330
1F
100
AcDbEntity
  8
0
  6
Continuous
 62
     7
370
    25
100
AcDbLine
 10
129.4394067706
 20
85.5779344875
 30
0.0
 11
139.6374457978
 21
85.5779344875
 31
0.0
  0
SPLINE
  5
127
330
1F
100
AcDbEntity
  8
0
  6
Continuous
 62
     7
370
    25
100
AcDbSpline
210
0.0
220
0.0
230
1.0
 70
     8
 71
     3
 72
    15
 73
    11
 74
     0
 42
0.00000001
 43
0.00000001
 40
0.0
 40
0.0
 40
0.0
 40
0.0
 40
0.0089557228015919
 40
0.099900335960821
 40
0.1531632460581752
 40
0.3125636920784863
 40
0.5249666935695052
 40
0.6689893599351772
 40
0.991915253381045
 40
1.0
 40
1.0
 40
1.0
 40
1.0
 10
129.0612007091327
 20
85.32793448751303
 30
0.0
 10
129.0612164647113
 20
85.32961561308593
 30
0.0
 10
129.0613922168679
 20
85.34836842771037
 30
0.0
 10
129.0668212328874
 20
85.37713065681788
 30
0.0
 10
129.0883567165947
 20
85.42801773028617
 30
0.0
 10
129.1360621448595
 20
85.48615338041887
 30
0.0
 10
129.2084530898514
 20
85.53086125360225
 30
0.0
 10
129.3103722018691
 20
85.568143077064
 30
0.0
 10
129.3857272933242
 20
85.57782223190168
 30
0.0
 10
129.4381269390474
 20
85.57793181110334
 30
0.0
 10
129.4394067705916
 20
85.57793448751303
 30
0.0
  0
LINE
  5
128
330
1F
100
AcDbEntity
  8
0
  6
Continuous
 62
     7
370
    25
100
AcDbLine
 10
129.0612007091
 20
85.3279344875
 30
0.0
 11
129.2993409515
 21
85.3279344875
 31
0.0
  0
SPLINE
  5
129
330
1F
100
AcDbEntity
  8
0
  6
Continuous
 62
     7
370
    25
100
AcDbSpline
210
0.0
220
0.0
230
1.0
 70
     8
 71
     3
 72
    15
 73
    11
 74
     0
 42
0.00000001
 43
0.00000001
 40
0.0
 40
0.0
 40
0.0
 40
0.0
 40
0.0080847466189581
 40
0.3310106400648243
 40
0.4750333064304945
 40
0.6874363079215134
 40
0.8468367539418247
 40
0.9000996640391788
 40
0.991044277198408
 40
1.0
 40
1.0
 40
1.0
 40
1.0
 10
139.6374457977772
 20
85.57793448751303
 30
0.0
 10
139.6387256293212
 20
85.57793181110335
 30
0.0
 10
139.6911252750445
 20
85.57782223190154
 30
0.0
 10
139.7664803664996
 20
85.56814307706401
 30
0.0
 10
139.8683994785173
 20
85.53086125360225
 30
0.0
 10
139.9407904235092
 20
85.48615338041884
 30
0.0
 10
139.988495851774
 20
85.4280177302862
 30
0.0
 10
140.0100313354813
 20
85.37713065681787
 30
0.0
 10
140.0154603515008
 20
85.34836842771038
 30
0.0
 10
140.0156361036574
 20
85.32961561308593
 30
0.0
 10
140.015651859236
 20
85.32793448751303
 30
0.0
  0
LINE
  5
12A
330
1F
100
AcDbEntity
  8
0
  6
Continuous
 62
     7
370
    25
100
AcDbLine
 10
139.7775116168
 20
85.3279344875
 30
0.0
 11
140.0156518592
 21
85.3279344875
 31
0.0
  0
LINE
  5
12B
330
1F
100
AcDbEntity
  8
0
  6
Continuous
 62
     7
370
    25
100
AcDbLine
 10
129.0612007091
 20
84.7279344875
 30
0.0
 11
129.0612007091
 21
85.3279344875
 31
0.0
  0
LINE
  5
12C
330
1F
100
AcDbEntity
  8
0
  6
Continuous
 62
     7
370
    25
100
AcDbLine
 10
129.2993409515
 20
84.7279344875
 30
0.0
 11
129.0612007091
 21
84.7279344875
 31
0.0
  0
LINE
  5
12D
330
1F
100
AcDbEntity
  8
0
  6
Continuous
 62
     7
370
    25
100
AcDbLine
 10
140.0156518592
 20
85.3279344875
 30
0.0
 11
140.0156518592
 21
84.7279344875
 31
0.0
  0
LINE
  5
12E
330
1F
100
AcDbEntity
  8
0
  6
Continuous
 62
     7
370
    25
100
AcDbLine
 10
140.0156518592
 20
84.7279344875
 30
0.0
 11
139.7775116168
 21
84.7279344875
 31
0.0
  0
LINE
  5
12F
330
1F
100
AcDbEntity
  8
0
  6
Continuous
 62
     7
370
    25
100
AcDbLine
 10
128.5384262842
 20
84.7279344875
 30
0.0
 11
128.5384262842
 21
85.3279344875
 31
0.0
  0
LINE
  5
130
330
1F
100
AcDbEntity
  8
0
  6
Continuous
 62
     7
370
    25
100
AcDbLine
 10
128.5384262842
 20
85.3279344875
 30
0.0
 11
128.7884262842
 21
85.3279344875
 31
0.0
  0
LINE
  5
131
330
1F
100
AcDbEntity
  8
0
  6
Continuous
 62
     7
370
    25
100
AcDbLine
 10
128.7884262842
 20
85.3279344875
 30
0.0
 11
128.7884262842
 21
84.7279344875
 31
0.0
  0
LINE
  5
132
330
1F
100
AcDbEntity
  8
0
  6
Continuous
 62
     7
370
    25
100
AcDbLine
 10
128.7884262842
 20
84.7279344875
 30
0.0
 11
128.5384262842
 21
84.7279344875
 31
0.0
  0
ARC
  5
133
330
1F
100
AcDbEntity
  8
0
  6
Continuous
 62
     7
370
    25
100
AcDbCircle
 10
128.7884262842
 20
85.3279344875
 30
0.0
 40
0.25
100
AcDbArc
 50
90.0
 51
180.0
  0
LINE
  5
134
330
1F
100
AcDbEntity
  8
0
  6
Continuous
 62
     7
370
    25
100
AcDbLine
 10
128.7884262842
 20
85.5779344875
 30
0.0
 11
128.7884262842
 21
85.3279344875
 31
0.0
  0
LINE
  5
135
330
1F
100
AcDbEntity
  8
0
  6
Continuous
 62
     7
370
    25
100
AcDbLine
 10
129.0612007091
 20
85.3279344875
 30
0.0
 11
128.7884262842
 21
85.3279344875
 31
0.0
  0
LINE
  5
136
330
1F
100
AcDbEntity
  8
0
  6
Continuous
 62
     7
370
    25
100
AcDbLine
 10
128.7884262842
 20
85.5779344875
 30
0.0
 11
129.4394067706
 21
85.5779344875
 31
0.0
  0
LINE
  5
137
330
1F
100
AcDbEntity
  8
0
  6
Continuous
 62
     7
370
    25
100
AcDbLine
 10
128.7884262842
 20
84.7279344875
 30
0.0
 11
129.0612007091
 21
84.7279344875
 31
0.0
  0
LINE
  5
138
330
1F
100
AcDbEntity
  8
0
  6
Continuous
 62
     7
370
    25
100
AcDbLine
 10
140.2884262842
 20
84.7279344875
 30
0.0
 11
140.2884262842
 21
85.3279344875
 31
0.0
  0
LINE
  5
139
330
1F
100
AcDbEntity
  8
0
  6
Continuous
 62
     7
370
    25
100
AcDbLine
 10
140.2884262842
 20
85.3279344875
 30
0.0
 11
140.5384262842
 21
85.3279344875
 31
0.0
  0
LINE
  5
13A
330
1F
100
AcDbEntity
  8
0
  6
Continuous
 62
     7
370
    25
100
AcDbLine
 10
140.5384262842
 20
85.3279344875
 30
0.0
 11
140.5384262842
 21
84.7279344875
 31
0.0
  0
LINE
  5
13B
330
1F
100
AcDbEntity
  8
0
  6
Continuous
 62
     7
370
    25
100
AcDbLine
 10
140.5384262842
 20
84.7279344875
 30
0.0
 11
140.2884262842
 21
84.7279344875
 31
0.0
  0
LINE
  5
13C
330
1F
100
AcDbEntity
  8
0
  6
Continuous
 62
     7
370
    25
100
AcDbLine
 10
140.2884262842
 20
85.3279344875
 30
0.0
 11
140.0156518592
 21
85.3279344875
 31
0.0
  0
LINE
  5
13D
330
1F
100
AcDbEntity
  8
0
  6
Continuous
 62
     7
370
    25
100
AcDbLine
 10
140.0156518592
 20
84.7279344875
 30
0.0
 11
140.2884262842
 21
84.7279344875
 31
0.0
  0
LINE
  5
13E
330
1F
100
AcDbEntity
  8
0
  6
Continuous
 62
     7
370
    25
100
AcDbLine
 10
140.2884262842
 20
85.3279344875
 30
0.0
 11
140.2884262842
 21
85.5779344875
 31
0.0
  0
LINE
  5
13F
330
1F
100
AcDbEntity
  8
0
  6
Continuous
 62
     7
370
    25
100
AcDbLine
 10
139.6374457978
 20
85.5779344875
 30
0.0
 11
140.2884262842
 21
85.5779344875
 31
0.0
  0
ARC
  5
140
330
1F
100
AcDbEntity
  8
0
  6
Continuous
 62
     7
370
    25
100
AcDbCircle
 10
140.2884262842
 20
85.3279344875
 30
0.0
 40
0.25
100
AcDbArc
 50
0.0
 51
90.0
  0
LINE
  5
141
330
1F
100
AcDbEntity
  8
0
  6
Continuous
 62
     7
370
    25
100
AcDbLine
 10
129.5384262842
 20
85.5779344875
 30
0.0
 11
129.5384262842
 21
85.5879344875
 31
0.0
  0
LINE
  5
142
330
1F
100
AcDbEntity
  8
0
  6
Continuous
 62
     7
370
    25
100
AcDbLine
 10
129.5384262842
 20
85.5879344875
 30
0.0
 11
139.5384262842
 21
85.5879344875
 31
0.0
  0
LINE
  5
143
330
1F
100
AcDbEntity
  8
0
  6
Continuous
 62
     7
370
    25
100
AcDbLine
 10
139.5384262842
 20
85.5779344875
 30
0.0
 11
139.5384262842
 21
85.5879344875
 31
0.0
  0
LINE
  5
144
330
1F
100
AcDbEntity
  8
0
  6
Continuous
 62
     7
370
    25
100
AcDbLine
 10
130.0638794001
 20
76.7279344875
 30
0.0
 11
141.9884262842
 21
76.7279344875
 31
0.0
  0
SPLINE
  5
145
330
1F
100
AcDbEntity
  8
0
  6
Continuous
 62
     7
370
    25
100
AcDbSpline
210
0.0
220
0.0
230
1.0
 70
     8
 71
     3
 72
     9
 73
     5
 74
     0
 42
0.00000001
 43
0.00000001
 40
0.0
 40
0.0
 40
0.0
 40
0.0
 40
0.4978401817595094
 40
1.0
 40
1.0
 40
1.0
 40
1.0
 10
130.824090155864
 20
77.72267806547995
 30
0.0
 10
130.6877682474933
 20
77.56616688278736
 30
0.0
 10
130.4139415991724
 20
77.25178650846836
 30
0.0
 10
130.1809023480758
 20
76.90305396044208
 30
0.0
 10
130.0638794001022
 20
76.72793448751067
 30
0.0
  0
LINE
  5
146
330
1F
100
AcDbEntity
  8
0
  6
Continuous
 62
     7
370
    25
100
AcDbLine
 10
129.3146241098
 20
84.7279344875
 30
0.0
 11
127.5864854459
 21
77.7226780655
 31
0.0
  0
LINE
  5
147
330
1F
100
AcDbEntity
  8
0
  6
Continuous
 62
     7
370
    25
100
AcDbLine
 10
139.7775116168
 20
84.7279344875
 30
0.0
 11
129.3146241098
 21
84.7279344875
 31
0.0
  0
LINE
  5
148
330
1F
100
AcDbEntity
  8
0
  6
Continuous
 62
     7
370
    25
100
AcDbLine
 10
132.5384262842
 20
68.7279344875
 30
0.0
 11
141.5384262842
 21
68.7279344875
 31
0.0
  0
LINE
  5
149
330
1F
100
AcDbEntity
  8
0
  6
Continuous
 62
     7
370
    25
100
AcDbLine
 10
132.5384262842
 20
68.7657514113
 30
0.0
 11
132.5384262842
 21
68.7279344875
 31
0.0
  0
SPLINE
  5
14A
330
1F
100
AcDbEntity
  8
0
  6
Continuous
 62
     7
370
    25
100
AcDbSpline
210
0.0
220
0.0
230
1.0
 70
     8
 71
     3
 72
     9
 73
     5
 74
     0
 42
0.00000001
 43
0.00000001
 40
0.0
 40
0.0
 40
0.0
 40
0.0
 40
0.4875141023677128
 40
0.9999999999999999
 40
0.9999999999999999
 40
0.9999999999999999
 40
0.9999999999999999
 10
132.3824810337572
 20
68.72793448751311
 30
0.0
 10
132.4087876076797
 20
68.72966183348481
 30
0.0
 10
132.462748249628
 20
68.73320500477628
 30
0.0
 10
132.5127837803227
 20
68.7547234907256
 30
0.0
 10
132.5384262841844
 20
68.765751411313
 30
0.0
  0
SPLINE
  5
14B
330
1F
100
AcDbEntity
  8
0
  6
Continuous
 62
     7
370
    25
100
AcDbSpline
210
0.0
220
0.0
230
1.0
 70
     8
 71
     3
 72
    17
 73
    13
 74
     0
 42
0.00000001
 43
0.00000001
 40
0.0
 40
0.0
 40
0.0
 40
0.0
 40
0.3241697628029873
 40
0.5422758463620719
 40
0.689509052693928
 40
0.7894036290694505
 40
0.8577090008137825
 40
0.9049823971474137
 40
0.9551712229700868
 40
0.9753097783197817
 40
0.9919572060138848
 40
1.0
 40
1.0
 40
1.0
 40
1.0
 10
130.0638794001022
 20
76.72793448751067
 30
0.0
 10
130.2065947601194
 20
75.81532098490499
 30
0.0
 10
130.4453310690613
 20
74.28868797864365
 30
0.0
 10
130.824918263513
 20
72.36191507636268
 30
0.0
 10
131.1340524718601
 20
71.07427960542992
 30
0.0
 10
131.3901660000602
 20
70.21512763870815
 30
0.0
 10
131.6044770029552
 20
69.64165975033076
 30
0.0
 10
131.8077112239831
 20
69.22012759630081
 30
0.0
 10
131.9922564885257
 20
68.93963505350537
 30
0.0
 10
132.1783275748938
 20
68.7840863849247
 30
0.0
 10
132.2935381741497
 20
68.73347578572721
 30
0.0
 10
132.3606269796226
 20
68.72929603392257
 30
0.0
 10
132.3824810337572
 20
68.72793448751311
 30
0.0
  0
SPLINE
  5
14C
330
1F
100
AcDbEntity
  8
0
  6
Continuous
 62
     7
370
    25
100
AcDbSpline
210
0.0
220
0.0
230
1.0
 70
     8
 71
     3
 72
    14
 73
    10
 74
     0
 42
0.00000001
 43
0.00000001
 40
0.0
 40
0.0
 40
0.0
 40
0.0
 40
0.1576095309202822
 40
0.3152382602707094
 40
0.4726926441579498
 40
0.6301650083177254
 40
0.7907313191165901
 40
0.9513050385928076
 40
1.0
 40
1.0
 40
1.0
 40
1.0
 10
128.0384262841843
 20
68.72793448751304
 30
0.0
 10
127.9718552694023
 20
68.94143627599044
 30
0.0
 10
127.8387051308174
 20
69.36846585961594
 30
0.0
 10
127.5101381690667
 20
69.95371293847226
 30
0.0
 10
127.0967485283347
 20
70.47586747929468
 30
0.0
 10
126.60107360939
 20
70.92484560671456
 30
0.0
 10
126.0347839041055
 20
71.28412733852093
 30
0.0
 10
125.5585332477125
 20
71.48869351762212
 30
0.0
 10
125.2783386795197
 20
71.56948806597342
 30
0.0
 10
125.2131398947467
 20
71.58828823902019
 30
0.0
  0
LINE
  5
14D
330
1F
100
AcDbEntity
  8
0
  6
Continuous
 62
     7
370
    25
100
AcDbLine
 10
125.2131398947
 20
71.588288239
 30
0.0
 11
119.4333830449
 21
73.1569096795
 31
0.0
  0
SPLINE
  5
14E
330
1F
100
AcDbEntity
  8
0
  6
Continuous
 62
     7
370
    25
100
AcDbSpline
210
0.0
220
0.0
230
1.0
 70
     8
 71
     3
 72
    11
 73
     7
 74
     0
 42
0.00000001
 43
0.00000001
 40
0.0
 40
0.0
 40
0.0
 40
0.0
 40
0.2488466353289361
 40
0.4976946020535204
 40
0.7488461225871278
 40
1.0
 40
1.0
 40
1.0
 40
1.0
 10
112.3629894226477
 20
74.48011018048858
 30
0.0
 10
112.957425471784
 20
74.41058580399495
 30
0.0
 10
114.1463007504474
 20
74.27153667903377
 30
0.0
 10
115.9210254211564
 20
73.97120794090849
 30
0.0
 10
117.6876060628988
 20
73.60929832265334
 30
0.0
 10
118.8514555639184
 20
73.30770636558879
 30
0.0
 10
119.4333830448914
 20
73.15690967950306
 30
0.0
  0
LINE
  5
14F
330
1F
100
AcDbEntity
  8
0
  6
Continuous
 62
     7
370
    25
100
AcDbLine
 10
112.3629894226
 20
74.4801101805
 30
0.0
 11
112.3629894226
 21
77.7226780655
 31
0.0
  0
LINE
  5
150
330
1F
100
AcDbEntity
  8
0
  6
Continuous
 62
     7
370
    25
100
AcDbLine
 10
112.3629894226
 20
77.7226780655
 30
0.0
 11
130.8240901559
 21
77.7226780655
 31
0.0
  0
LINE
  5
151
330
1F
100
AcDbEntity
  8
0
  6
Continuous
 62
     7
370
    25
100
AcDbLine
 10
132.3824810338
 20
68.7279344875
 30
0.0
 11
128.0384262842
 21
68.7279344875
 31
0.0
  0
LINE
  5
152
330
1F
100
AcDbEntity
  8
0
  6
Continuous
 62
     7
370
    25
100
AcDbLine
 10
132.5384262842
 20
68.7657514113
 30
0.0
 11
132.5316269263
 21
68.7279344875
 31
0.0
  0
LINE
  5
153
330
1F
100
AcDbEntity
  8
0
  6
Continuous
 62
     7
370
    25
100
AcDbLine
 10
132.5316269263
 20
68.7279344875
 30
0.0
 11
132.3824810338
 21
68.7279344875
 31
0.0
  0
LINE
  5
154
330
1F
100
AcDbEntity
  8
0
  6
Continuous
 62
     7
370
    25
100
AcDbLine
 10
132.5384262842
 20
68.7279344875
 30
0.0
 11
132.5316269263
 21
68.7279344875
 31
0.0
  0
LINE
  5
155
330
1F
100
AcDbEntity
  8
0
  6
Continuous
 62
     7
370
    25
100
AcDbLine
 10
94.5384262842
 20
86.7279344875
 30
0.0
 11
112.3629894226
 21
86.7279344875
 31
0.0
  0
LINE
  5
156
330
1F
100
AcDbEntity
  8
0
  6
Continuous
 62
     7
370
    25
100
AcDbLine
 10
112.3629894226
 20
86.7279344875
 30
0.0
 11
112.3629894226
 21
77.7226780655
 31
0.0
  0
LINE
  5
157
330
1F
100
AcDbEntity
  8
0
  6
Continuous
 62
     7
370
    25
100
AcDbLine
 10
107.6467584264
 20
74.7279344875
 30
0.0
 11
99.5384262842
 21
74.7279344875
 31
0.0
  0
ARC
  5
158
330
1F
100
AcDbEntity
  8
0
  6
Continuous
 62
     7
370
    25
100
AcDbCircle
 10
99.5384262842
 20
79.7279344875
 30
0.0
 40
5.0
100
AcDbArc
 50
180.0
 51
270.0
  0
LINE
  5
159
330
1F
100
AcDbEntity
  8
0
  6
Continuous
 62
     7
370
    25
100
AcDbLine
 10
94.5384262842
 20
79.7279344875
 30
0.0
 11
94.5384262842
 21
86.7279344875
 31
0.0
  0
ARC
  5
15A
330
1F
100
AcDbEntity
  8
0
  6
Continuous
 62
     7
370
    25
100
AcDbCircle
 10
107.6467584264
 20
29.7278052333
 30
0.0
 40
45.00012925418375
100
AcDbArc
 50
83.9840777705
 51
90.0
  0
LINE
  5
15B
330
1F
100
AcDbEntity
  8
0
  6
Continuous
 62
     7
370
    25
100
AcDbLine
 10
112.3629894226
 20
86.7279344875
 30
0.0
 11
114.5384262842
 21
86.7279344875
 31
0.0
  0
LINE
  5
15C
330
1F
100
AcDbEntity
  8
0
  6
Continuous
 62
     7
370
    25
100
AcDbLine
 10
114.5384262842
 20
86.7279344875
 30
0.0
 11
114.5384262842
 21
84.7468900109
 31
0.0
  0
ARC
  5
15D
330
1F
100
AcDbEntity
  8
0
  6
Continuous
 62
     7
370
    25
100
AcDbCircle
 10
120.5384262842
 20
84.7468900109
 30
0.0
 40
6.000000000000003
100
AcDbArc
 50
180.0
 51
275.5801667845
  0
ARC
  5
15E
330
1F
100
AcDbEntity
  8
0
  6
Continuous
 62
     7
370
    25
100
AcDbCircle
 10
120.1494727199
 20
88.7279344875
 30
0.0
 40
10.00000000000846
100
AcDbArc
 50
275.5801667845
 51
336.4218215217
  0
LINE
  5
15F
330
1F
100
AcDbEntity
  8
0
  6
Continuous
 62
     7
370
    25
100
AcDbLine
 10
128.0384262842
 20
68.7279344875
 30
0.0
 11
127.5384262842
 21
68.7279344875
 31
0.0
  0
LINE
  5
160
330
1F
100
AcDbEntity
  8
0
  6
Continuous
 62
     7
370
    25
100
AcDbLine
 10
129.2993409515
 20
84.7279344875
 30
0.0
 11
129.3146241098
 21
84.7279344875
 31
0.0
  0
LINE
  5
161
330
1F
100
AcDbEntity
  8
0
  6
Continuous
 62
     7
370
    25
100
AcDbLine
 10
141.5384262842
 20
63.422378932
 30
0.0
 11
141.5384262842
 21
66.7279344875
 31
0.0
  0
LINE
  5
162
330
1F
100
AcDbEntity
  8
0
  6
Continuous
 62
     7
370
    25
100
AcDbLine
 10
127.5384262842
 20
53.0334900431
 30
0.0
 11
127.5384262842
 21
49.7279344875
 31
0.0
  0
LINE
  5
163
330
1F
100
AcDbEntity
  8
0
  6
Continuous
 62
     7
370
    25
100
AcDbLine
 10
127.5384262842
 20
66.7279344875
 30
0.0
 11
127.5384262842
 21
63.422378932
 31
0.0
  0
LINE
  5
164
330
1F
100
AcDbEntity
  8
0
  6
Continuous
 62
     7
370
    25
100
AcDbLine
 10
141.5384262842
 20
49.7279344875
 30
0.0
 11
141.5384262842
 21
53.0334900431
 31
0.0
  0
SPLINE
  5
165
330
1F
100
AcDbEntity
  8
0
  6
Continuous
 62
     7
370
    25
100
AcDbSpline
210
0.0
220
0.0
230
1.0
 70
     8
 71
     3
 72
    32
 73
    28
 74
     0
 42
0.00000001
 43
0.00000001
 40
0.0
 40
0.0
 40
0.0
 40
0.0
 40
0.0401450235848357
 40
0.0814946510747366
 40
0.1230108374273918
 40
0.1655335881087852
 40
0.213102689944118
 40
0.2616869956899938
 40
0.3186512837064658
 40
0.3479268696243464
 40
0.3771976325562726
 40
0.4187548087056146
 40
0.4612652019558922
 40
0.5031787598671369
 40
0.5464778200637773
 40
0.5837150053189375
 40
0.6216789039917089
 40
0.649608003238977
 40
0.6775412817538382
 40
0.7348752066615024
 40
0.7907587055724206
 40
0.8195305177303107
 40
0.848297267517085
 40
0.8930422512982819
 40
0.939068727387773
 40
0.9835429316127413
 40
1.0
 40
1.0
 40
1.0
 40
1.0
 10
140.9384262841843
 20
66.72793448751304
 30
0.0
 10
140.927107473816
 20
66.72031580553079
 30
0.0
 10
140.9041302173797
 20
66.70484983305525
 30
0.0
 10
140.7194537848832
 20
66.58163055681833
 30
0.0
 10
140.4288740124369
 20
66.39160662375993
 30
0.0
 10
140.0179337235732
 20
66.13107188304095
 30
0.0
 10
139.4853017891986
 20
65.8092675887397
 30
0.0
 10
138.796857065312
 20
65.42340795378239
 30
0.0
 10
138.1049011126032
 20
65.07923943744608
 30
0.0
 10
137.4589825036311
 20
64.80519754962455
 30
0.0
 10
136.868796477767
 20
64.58811112147684
 30
0.0
 10
136.1609037300807
 20
64.3825619739889
 30
0.0
 10
135.3308067268425
 20
64.23312428795607
 30
0.0
 10
134.4640118687968
 20
64.18554140329367
 30
0.0
 10
133.6349340562063
 20
64.24900964428149
 30
0.0
 10
132.85919179696
 20
64.3992351485306
 30
0.0
 10
132.215874930217
 20
64.58664426160334
 30
0.0
 10
131.6610235127089
 20
64.78857898312965
 30
0.0
 10
131.0242940873357
 20
65.055010446263
 30
0.0
 10
130.2941932946623
 20
65.4144370035909
 30
0.0
 10
129.655314618123
 20
65.77340345529339
 30
0.0
 10
129.2117056820342
 20
66.03854634314052
 30
0.0
 10
128.8567751563069
 20
66.25829465505424
 30
0.0
 10
128.5134531739901
 20
66.47884511220039
 30
0.0
 10
128.2567954635004
 20
66.64846130369561
 30
0.0
 10
128.1337172906132
 20
66.73109124012474
 30
0.0
 10
128.1513444492021
 20
66.71926603595026
 30
0.0
 10
128.1561054092466
 20
66.7160721391966
 30
0.0
  0
SPLINE
  5
166
330
1F
100
AcDbEntity
  8
0
  6
Continuous
 62
     7
370
    25
100
AcDbSpline
210
0.0
220
0.0
230
1.0
 70
     8
 71
     3
 72
    32
 73
    28
 74
     0
 42
0.00000001
 43
0.00000001
 40
0.0
 40
0.0
 40
0.0
 40
0.0
 40
0.0148242529817184
 40
0.0619113519340424
 40
0.1074433409988294
 40
0.1543372005590945
 40
0.1825994496035272
 40
0.2108660049327927
 40
0.269027097168617
 40
0.3246081692535049
 40
0.3531542158488447
 40
0.3816936824966581
 40
0.417991076432422
 40
0.4550305302041455
 40
0.4953234366006107
 40
0.5372325054966889
 40
0.5776056507021098
 40
0.6191602253044716
 40
0.6475101989612795
 40
0.6758664738346869
 40
0.7341705529935286
 40
0.7822942877570007
 40
0.8313630102073389
 40
0.8736471364191402
 40
0.9168682936064078
 40
0.9578490604636208
 40
1.0
 40
1.0
 40
1.0
 40
1.0
 10
128.6529327597999
 20
67.21675486400093
 30
0.0
 10
128.6489882218202
 20
67.21979452162053
 30
0.0
 10
128.6325144285449
 20
67.23248921273766
 30
0.0
 10
128.7432886656692
 20
67.14703629031641
 30
0.0
 10
128.9807218102499
 20
66.96679634792898
 30
0.0
 10
129.293539725752
 20
66.73580050719909
 30
0.0
 10
129.6186620866029
 20
66.50450230931405
 30
0.0
 10
130.0247509215038
 20
66.22524642793728
 30
0.0
 10
130.6069765091387
 20
65.84855062773408
 30
0.0
 10
131.282767685471
 20
65.46544084118943
 30
0.0
 10
131.869340535151
 20
65.18162559939518
 30
0.0
 10
132.3846018857027
 20
64.96549010585701
 30
0.0
 10
132.9821013356489
 20
64.76462270935129
 30
0.0
 10
133.6881903046782
 20
64.60613616443197
 30
0.0
 10
134.459563945829
 20
64.53603950651055
 30
0.0
 10
135.2564130821015
 20
64.58434033624032
 30
0.0
 10
136.0323530454638
 20
64.74404243530014
 30
0.0
 10
136.6812486808352
 20
64.9601442848697
 30
0.0
 10
137.2222964019047
 20
65.18841121733564
 30
0.0
 10
137.8199987560831
 20
65.4786272847815
 30
0.0
 10
138.4573451791175
 20
65.84252824588758
 30
0.0
 10
139.0967419902121
 20
66.25379550332586
 30
0.0
 10
139.5847854520547
 20
66.59238298506217
 30
0.0
 10
139.9666065758167
 20
66.8702666810089
 30
0.0
 10
140.2329258305483
 20
67.07027573999943
 30
0.0
 10
140.4057024670861
 20
67.20263088842623
 30
0.0
 10
140.4274164621482
 20
67.21942117373965
 30
0.0
 10
140.4384262841843
 20
67.22793448751304
 30
0.0
  0
LINE
  5
167
330
1F
100
AcDbEntity
  8
FORMAT
100
AcDbLine
 10
153.7872998824
 20
50.7942714573
 30
0.0
 11
145.0384262842
 21
50.5208691573
 31
0.0
  0
LINE
  5
168
330
1F
100
AcDbEntity
  8
FORMAT
100
AcDbLine
 10
153.7872998824
 20
65.6615975178
 30
0.0
 11
145.0384262842
 21
65.9349998177
 31
0.0
  0
LINE
  5
169
330
1F
100
AcDbEntity
  8
FORMAT
100
AcDbLine
 10
145.0384262842
 20
66.6573719875
 30
0.0
 11
145.0384262842
 21
49.7984969875
 31
0.0
  0
LINE
  5
16A
330
1F
100
AcDbEntity
  8
FORMAT
  6
CENTERX2
370
    18
100
AcDbLine
 10
97.1697672033
 20
58.2279344875
 30
0.0
 11
155.9117535908
 21
58.2279344875
 31
0.0
  0
LINE
  5
16B
330
1F
100
AcDbEntity
  8
FORMAT
  6
CENTERX2
370
    18
100
AcDbLine
 10
134.5384262842
 20
48.2879449913
 30
0.0
 11
134.5384262842
 21
86.7973298675
 31
0.0
  0
LINE
  5
16C
330
1F
100
AcDbEntity
  8
0
  6
Continuous
 62
     7
370
    25
100
AcDbLine
 10
195.5157710547
 20
66.3019669373
 30
0.0
 11
195.5157710547
 21
68.7279344875
 31
0.0
  0
LINE
  5
16D
330
1F
100
AcDbEntity
  8
0
  6
Continuous
 62
     7
370
    25
100
AcDbLine
 10
183.7157710547
 20
68.7279344875
 30
0.0
 11
183.7157710547
 21
67.2260281578
 31
0.0
  0
ARC
  5
16E
330
1F
100
AcDbEntity
  8
0
  6
Continuous
 62
     7
370
    25
100
AcDbCircle
 10
183.9157710547
 20
66.7696769178
 30
0.0
 40
0.5000000000000135
100
AcDbArc
 50
113.6449780875
 51
180.007858636
  0
ARC
  5
16F
330
1F
100
AcDbEntity
  8
0
  6
Continuous
 62
     7
370
    25
100
AcDbCircle
 10
194.8657710547
 20
85.3279344875
 30
0.0
 40
0.25
100
AcDbArc
 50
0.0
 51
90.0
  0
ARC
  5
170
330
1F
100
AcDbEntity
  8
0
  6
Continuous
 62
     7
370
    25
100
AcDbCircle
 10
184.3657710547
 20
85.3279344875
 30
0.0
 40
0.25
100
AcDbArc
 50
90.0
 51
180.0
  0
LINE
  5
171
330
1F
100
AcDbEntity
  8
0
  6
Continuous
 62
     7
370
    25
100
AcDbLine
 10
195.1157710547
 20
84.7279344875
 30
0.0
 11
195.1157710547
 21
85.3279344875
 31
0.0
  0
LINE
  5
172
330
1F
100
AcDbEntity
  8
0
  6
Continuous
 62
     7
370
    25
100
AcDbLine
 10
184.1157710547
 20
85.3279344875
 30
0.0
 11
184.1157710547
 21
84.7279344875
 31
0.0
  0
LINE
  5
173
330
1F
100
AcDbEntity
  8
0
  6
Continuous
 62
     7
370
    25
100
AcDbLine
 10
197.0657710547
 20
76.7279344875
 30
0.0
 11
195.1157710547
 21
84.7279344875
 31
0.0
  0
LINE
  5
174
330
1F
100
AcDbEntity
  8
0
  6
Continuous
 62
     7
370
    25
100
AcDbLine
 10
184.1157710547
 20
84.7279344875
 30
0.0
 11
182.1657710547
 21
76.7279344875
 31
0.0
  0
LINE
  5
175
330
1F
100
AcDbEntity
  8
0
  6
Continuous
 62
     7
370
    25
100
AcDbLine
 10
182.1657710547
 20
76.7279344875
 30
0.0
 11
182.6157710547
 21
68.7279344875
 31
0.0
  0
LINE
  5
176
330
1F
100
AcDbEntity
  8
0
  6
Continuous
 62
     7
370
    25
100
AcDbLine
 10
196.6157710547
 20
68.7279344875
 30
0.0
 11
197.0657710547
 21
76.7279344875
 31
0.0
  0
ARC
  5
177
330
1F
100
AcDbEntity
  8
0
  6
Continuous
 62
     7
370
    25
100
AcDbCircle
 10
189.6157710547
 20
58.2279344875
 30
0.0
 40
10.50000000000001
100
AcDbArc
 50
265.2087652968
 51
274.7912347032
  0
SPLINE
  5
178
330
1F
100
AcDbEntity
  8
0
  6
Continuous
 62
     7
370
    25
100
AcDbSpline
210
0.0
220
0.0
230
1.0
 70
    24
 71
     3
 72
     9
 73
     5
 74
     0
 42
0.00000001
 43
0.00000001
 40
0.0
 40
0.0
 40
0.0
 40
0.0
 40
0.9933576114764272
 40
1.0
 40
1.0
 40
1.0
 40
1.0
 10
180.9927877084692
 20
52.23676112906073
 30
0.0
 10
181.3886609795468
 20
52.00820358943903
 30
0.0
 10
181.7871813779451
 20
51.77811773014612
 30
0.0
 10
182.1931835635322
 20
51.54371225900596
 30
0.0
 10
182.1958803877903
 20
51.5421552467946
 30
0.0
  0
LINE
  5
179
330
1F
100
AcDbEntity
  8
0
  6
Continuous
 62
     7
370
    25
100
AcDbLine
 10
187.4985695181
 20
48.48064625
 30
0.0
 11
188.7387544009
 21
47.7646251741
 31
0.0
  0
ARC
  5
17A
330
1F
100
AcDbEntity
  8
0
  6
Continuous
 62
     7
370
    25
100
AcDbCircle
 10
189.6157710547
 20
58.2279344875
 30
0.0
 40
10.50000000000001
100
AcDbArc
 50
205.2087652968
 51
214.7912347032
  0
SPLINE
  5
17B
330
1F
100
AcDbEntity
  8
0
  6
Continuous
 62
     7
370
    25
100
AcDbSpline
210
0.0
220
0.0
230
1.0
 70
    24
 71
     3
 72
     9
 73
     5
 74
     0
 42
0.00000001
 43
0.00000001
 40
0.0
 40
0.0
 40
0.0
 40
0.0
 40
0.8748433813780241
 40
1.0
 40
1.0
 40
1.0
 40
1.0
 10
180.1157710546767
 20
62.70007044251272
 30
0.0
 10
180.1157710546767
 20
62.29632684916884
 30
0.0
 10
180.1157710546767
 20
61.83482299380685
 30
0.0
 10
180.1157710546767
 20
61.36541233606205
 30
0.0
 10
180.1157710546767
 20
61.30666248539359
 30
0.0
  0
SPLINE
  5
17C
330
1F
100
AcDbEntity
  8
0
  6
Continuous
 62
     7
370
    25
100
AcDbSpline
210
0.0
220
0.0
230
1.0
 70
    24
 71
     3
 72
     9
 73
     5
 74
     0
 42
0.00000001
 43
0.00000001
 40
0.0
 40
0.0
 40
0.0
 40
0.0
 40
0.273419796712905
 40
1.0
 40
1.0
 40
1.0
 40
1.0
 10
180.1157710546766
 20
55.15635561972825
 30
0.0
 10
180.1157710546766
 20
55.0274616484658
 30
0.0
 10
180.1157710546766
 20
54.55604746115374
 30
0.0
 10
180.1157710546766
 20
54.09255962136694
 30
0.0
 10
180.1157710546766
 20
53.75579853251354
 30
0.0
  0
ARC
  5
17D
330
1F
100
AcDbEntity
  8
0
  6
Continuous
 62
     7
370
    25
100
AcDbCircle
 10
189.6157710547
 20
58.2279344875
 30
0.0
 40
10.49999999999999
100
AcDbArc
 50
145.2087652968
 51
154.7912347032
  0
LINE
  5
17E
330
1F
100
AcDbEntity
  8
0
  6
Continuous
 62
     7
370
    25
100
AcDbLine
 10
182.1858937232
 20
64.9079479248
 30
0.0
 11
180.9927877085
 21
64.219107846
 31
0.0
  0
SPLINE
  5
17F
330
1F
100
AcDbEntity
  8
0
  6
Continuous
 62
     7
370
    25
100
AcDbSpline
210
0.0
220
0.0
230
1.0
 70
    24
 71
     3
 72
     9
 73
     5
 74
     0
 42
0.00000001
 43
0.00000001
 40
0.0
 40
0.0
 40
0.0
 40
0.0
 40
0.9897185491745578
 40
1.0
 40
1.0
 40
1.0
 40
1.0
 10
198.2387544008841
 20
64.2191078459654
 30
0.0
 10
197.8428721145266
 20
64.44767059056126
 30
0.0
 10
197.4428773011651
 20
64.67860770372997
 30
0.0
 10
197.0353731910874
 20
64.9138803113792
 30
0.0
 10
197.0311834576185
 20
64.91629925512534
 30
0.0
  0
ARC
  5
180
330
1F
100
AcDbEntity
  8
0
  6
Continuous
 62
     7
370
    25
100
AcDbCircle
 10
189.6157710547
 20
58.2279344875
 30
0.0
 40
10.50000000000002
100
AcDbArc
 50
25.2087652968
 51
34.7912347032
  0
SPLINE
  5
181
330
1F
100
AcDbEntity
  8
0
  6
Continuous
 62
     7
370
    25
100
AcDbSpline
210
0.0
220
0.0
230
1.0
 70
    24
 71
     3
 72
     9
 73
     5
 74
     0
 42
0.00000001
 43
0.00000001
 40
0.0
 40
0.0
 40
0.0
 40
0.0
 40
0.728353077567765
 40
1.0
 40
1.0
 40
1.0
 40
1.0
 10
199.1157710546766
 20
53.75579853251341
 30
0.0
 10
199.1157710546766
 20
54.09257529141178
 30
0.0
 10
199.1157710546766
 20
54.55495647612922
 30
0.0
 10
199.1157710546766
 20
55.0251368534607
 30
0.0
 10
199.1157710546766
 20
55.15285990595083
 30
0.0
  0
SPLINE
  5
182
330
1F
100
AcDbEntity
  8
0
  6
Continuous
 62
     7
370
    25
100
AcDbSpline
210
0.0
220
0.0
230
1.0
 70
    24
 71
     3
 72
     9
 73
     5
 74
     0
 42
0.00000001
 43
0.00000001
 40
0.0
 40
0.0
 40
0.0
 40
0.0
 40
0.1284127556283115
 40
1.0
 40
1.0
 40
1.0
 40
1.0
 10
199.1157710546767
 20
61.29617876553691
 30
0.0
 10
199.1157710546767
 20
61.35690918606269
 30
0.0
 10
199.1157710546767
 20
61.82984055669355
 30
0.0
 10
199.1157710546767
 20
62.29480946927619
 30
0.0
 10
199.1157710546767
 20
62.70007044251259
 30
0.0
  0
ARC
  5
183
330
1F
100
AcDbEntity
  8
0
  6
Continuous
 62
     7
370
    25
100
AcDbCircle
 10
189.6157710547
 20
58.2279344875
 30
0.0
 40
10.50000000000002
100
AcDbArc
 50
325.2087652968
 51
334.7912347032
  0
SPLINE
  5
184
330
1F
100
AcDbEntity
  8
0
  6
Continuous
 62
     7
370
    25
100
AcDbSpline
210
0.0
220
0.0
230
1.0
 70
    24
 71
     3
 72
     9
 73
     5
 74
     0
 42
0.00000001
 43
0.00000001
 40
0.0
 40
0.0
 40
0.0
 40
0.0
 40
0.9639920334327775
 40
1.0
 40
1.0
 40
1.0
 40
1.0
 10
190.4927877084691
 20
47.76462517406106
 30
0.0
 10
190.8887337287556
 20
47.993224715458
 30
0.0
 10
191.2994695092956
 20
48.23036312891863
 30
0.0
 10
191.7179149907393
 20
48.47195274027131
 30
0.0
 10
191.7329823616454
 20
48.48065189091989
 30
0.0
  0
LINE
  5
185
330
1F
100
AcDbEntity
  8
0
  6
Continuous
 62
     7
370
    25
100
AcDbLine
 10
197.0404798309
 20
51.5449369835
 30
0.0
 11
198.2387544009
 21
52.2367611291
 31
0.0
  0
CIRCLE
  5
186
330
1F
100
AcDbEntity
  8
0
  6
Continuous
 62
     7
370
    25
100
AcDbCircle
 10
189.6157710547
 20
58.2279344875
 30
0.0
 40
8.197372169802065
  0
CIRCLE
  5
187
330
1F
100
AcDbEntity
  8
0
  6
Continuous
 62
     7
370
    25
100
AcDbCircle
 10
189.6157710547
 20
58.2279344875
 30
0.0
 40
7.000000000000028
  0
CIRCLE
  5
188
330
1F
100
AcDbEntity
  8
0
  6
Continuous
 62
     7
370
    25
100
AcDbCircle
 10
189.6157710547
 20
58.2279344875
 30
0.0
 40
5.0
  0
CIRCLE
  5
189
330
1F
100
AcDbEntity
  8
0
  6
Continuous
 62
     7
370
    25
100
AcDbCircle
 10
189.6157710547
 20
58.2279344875
 30
0.0
 40
4.5
  0
CIRCLE
  5
18A
330
1F
100
AcDbEntity
  8
0
  6
Continuous
 62
     7
370
    25
100
AcDbCircle
 10
189.6157710547
 20
58.2279344875
 30
0.0
 40
8.445062500000006
  0
CIRCLE
  5
18B
330
1F
100
AcDbEntity
  8
0
  6
Continuous
 62
     7
370
    25
100
AcDbCircle
 10
189.6157710547
 20
58.2279344875
 30
0.0
 40
10.0
  0
CIRCLE
  5
18C
330
1F
100
AcDbEntity
  8
0
  6
Continuous
 62
     7
370
    25
100
AcDbCircle
 10
189.6157710547
 20
58.2279344875
 30
0.0
 40
9.500000000000028
  0
CIRCLE
  5
18D
330
1F
100
AcDbEntity
  8
0
  6
Continuous
 62
     7
370
    25
100
AcDbCircle
 10
189.6157710547
 20
58.2279344875
 30
0.0
 40
3.0
  0
SPLINE
  5
18E
330
1F
100
AcDbEntity
  8
0
  6
Continuous
 62
     7
370
    25
100
AcDbSpline
210
0.0
220
0.0
230
1.0
 70
     8
 71
     3
 72
    13
 73
     9
 74
     0
 42
0.00000001
 43
0.00000001
 40
0.0
 40
0.0
 40
0.0
 40
0.0
 40
0.0742931466200761
 40
0.3010942407473241
 40
0.530072705035311
 40
0.7614972344732689
 40
0.9918492627674992
 40
1.0
 40
1.0
 40
1.0
 40
1.0
 10
183.7980828685364
 20
66.3336022116021
 30
0.0
 10
183.7980016873152
 20
66.36992356786611
 30
0.0
 10
183.7976726771808
 20
66.51712625996842
 30
0.0
 10
183.7785201970533
 20
66.7585401762471
 30
0.0
 10
183.7491648274043
 20
67.01798559712469
 30
0.0
 10
183.7244586543549
 20
67.17713164597545
 30
0.0
 10
183.7129188866032
 20
67.24518484410399
 30
0.0
 10
183.7159817048311
 20
67.22666119614476
 30
0.0
 10
183.7160863754269
 20
67.22602815783694
 30
0.0
  0
SPLINE
  5
18F
330
1F
100
AcDbEntity
  8
0
  6
Continuous
 62
     7
370
    25
100
AcDbSpline
210
0.0
220
0.0
230
1.0
 70
    24
 71
     3
 72
    14
 73
    10
 74
     0
 42
0.00000001
 43
0.00000001
 40
0.0
 40
0.0
 40
0.0
 40
0.0
 40
0.0686782875714484
 40
0.293216909137959
 40
0.2935197863693179
 40
0.5073359099559678
 40
0.7069537562193142
 40
0.9001971037285486
 40
1.0
 40
1.0
 40
1.0
 40
1.0
 10
183.4157710546766
 20
66.22793448751388
 30
0.0
 10
183.4157710546766
 20
66.24678658874149
 30
0.0
 10
183.4157710546766
 20
66.32727425155579
 30
0.0
 10
183.4157710546766
 20
66.40696325789884
 30
0.0
 10
183.4157710546767
 20
66.51617498067515
 30
0.0
 10
183.4157710546766
 20
66.6128710611854
 30
0.0
 10
183.4157710546766
 20
66.71445360347555
 30
0.0
 10
183.4157710546766
 20
66.76800567292989
 30
0.0
 10
183.4157710546766
 20
66.76379887166502
 30
0.0
 10
183.4157710546766
 20
66.76236615939116
 30
0.0
  0
SPLINE
  5
190
330
1F
100
AcDbEntity
  8
0
  6
Continuous
 62
     7
370
    25
100
AcDbSpline
210
0.0
220
0.0
230
1.0
 70
    24
 71
     3
 72
     9
 73
     5
 74
     0
 42
0.00000001
 43
0.00000001
 40
0.0
 40
0.0
 40
0.0
 40
0.0
 40
0.3032708280230745
 40
1.0
 40
1.0
 40
1.0
 40
1.0
 10
183.4157710546766
 20
66.04530161705402
 30
0.0
 10
183.4157710546766
 20
66.06257451552088
 30
0.0
 10
183.4157710546766
 20
66.11952987314447
 30
0.0
 10
183.4157710546766
 20
66.18342021944122
 30
0.0
 10
183.4157710546766
 20
66.22793448751388
 30
0.0
  0
LINE
  5
191
330
1F
100
AcDbEntity
  8
0
  6
Continuous
 62
     7
370
    25
100
AcDbLine
 10
190.8657710547
 20
85.3279344875
 30
0.0
 11
191.1157710547
 21
85.3279344875
 31
0.0
  0
LINE
  5
192
330
1F
100
AcDbEntity
  8
0
  6
Continuous
 62
     7
370
    25
100
AcDbLine
 10
190.8657710547
 20
85.3279344875
 30
0.0
 11
190.8657710547
 21
85.5779344875
 31
0.0
  0
ARC
  5
193
330
1F
100
AcDbEntity
  8
0
  6
Continuous
 62
     7
370
    25
100
AcDbCircle
 10
190.8657710547
 20
85.3279344875
 30
0.0
 40
0.25
100
AcDbArc
 50
0.0
 51
90.0
  0
LINE
  5
194
330
1F
100
AcDbEntity
  8
0
  6
Continuous
 62
     7
370
    25
100
AcDbLine
 10
190.8657710547
 20
84.7279344875
 30
0.0
 11
190.8657710547
 21
85.3279344875
 31
0.0
  0
LINE
  5
195
330
1F
100
AcDbEntity
  8
0
  6
Continuous
 62
     7
370
    25
100
AcDbLine
 10
191.1157710547
 20
85.3279344875
 30
0.0
 11
191.1157710547
 21
84.7279344875
 31
0.0
  0
LINE
  5
196
330
1F
100
AcDbEntity
  8
0
  6
Continuous
 62
     7
370
    25
100
AcDbLine
 10
191.1157710547
 20
84.7279344875
 30
0.0
 11
190.8657710547
 21
84.7279344875
 31
0.0
  0
LINE
  5
197
330
1F
100
AcDbEntity
  8
0
  6
Continuous
 62
     7
370
    25
100
AcDbLine
 10
188.3657710547
 20
85.3279344875
 30
0.0
 11
188.3657710547
 21
84.7279344875
 31
0.0
  0
LINE
  5
198
330
1F
100
AcDbEntity
  8
0
  6
Continuous
 62
     7
370
    25
100
AcDbLine
 10
190.8657710547
 20
85.3279344875
 30
0.0
 11
188.3657710547
 21
85.3279344875
 31
0.0
  0
LINE
  5
199
330
1F
100
AcDbEntity
  8
0
  6
Continuous
 62
     7
370
    25
100
AcDbLine
 10
188.3657710547
 20
84.7279344875
 30
0.0
 11
190.8657710547
 21
84.7279344875
 31
0.0
  0
LINE
  5
19A
330
1F
100
AcDbEntity
  8
0
  6
Continuous
 62
     7
370
    25
100
AcDbLine
 10
188.3657710547
 20
85.5779344875
 30
0.0
 11
188.3657710547
 21
85.3279344875
 31
0.0
  0
LINE
  5
19B
330
1F
100
AcDbEntity
  8
0
  6
Continuous
 62
     7
370
    25
100
AcDbLine
 10
188.3657710547
 20
85.5779344875
 30
0.0
 11
190.8657710547
 21
85.5779344875
 31
0.0
  0
LINE
  5
19C
330
1F
100
AcDbEntity
  8
0
  6
Continuous
 62
     7
370
    25
100
AcDbLine
 10
188.1157710547
 20
85.3279344875
 30
0.0
 11
188.3657710547
 21
85.3279344875
 31
0.0
  0
ARC
  5
19D
330
1F
100
AcDbEntity
  8
0
  6
Continuous
 62
     7
370
    25
100
AcDbCircle
 10
188.3657710547
 20
85.3279344875
 30
0.0
 40
0.25
100
AcDbArc
 50
90.0
 51
180.0
  0
LINE
  5
19E
330
1F
100
AcDbEntity
  8
0
  6
Continuous
 62
     7
370
    25
100
AcDbLine
 10
188.1157710547
 20
84.7279344875
 30
0.0
 11
188.1157710547
 21
85.3279344875
 31
0.0
  0
LINE
  5
19F
330
1F
100
AcDbEntity
  8
0
  6
Continuous
 62
     7
370
    25
100
AcDbLine
 10
188.3657710547
 20
84.7279344875
 30
0.0
 11
188.1157710547
 21
84.7279344875
 31
0.0
  0
SPLINE
  5
1A0
330
1F
100
AcDbEntity
  8
0
  6
Continuous
 62
     7
370
    25
100
AcDbSpline
210
0.0
220
0.0
230
1.0
 70
     8
 71
     3
 72
    15
 73
    11
 74
     0
 42
0.00000001
 43
0.00000001
 40
0.0
 40
0.0
 40
0.0
 40
0.0
 40
0.0090459071881971
 40
0.1032433785236876
 40
0.1542564497735193
 40
0.3133169026715103
 40
0.524372039941443
 40
0.6678060008509185
 40
0.9918332554187027
 40
0.9999999999999999
 40
0.9999999999999999
 40
0.9999999999999999
 40
0.9999999999999999
 10
187.9418580111984
 20
85.32793448751303
 30
0.0
 10
187.9418756569228
 20
85.32961558609746
 30
0.0
 10
187.9420770523354
 20
85.34880241765298
 30
0.0
 10
187.9482666730016
 20
85.37749669717296
 30
0.0
 10
187.9724686048457
 20
85.42817273714489
 30
0.0
 10
188.0254875968474
 20
85.48604903672177
 30
0.0
 10
188.106858484044
 20
85.53091455145648
 30
0.0
 10
188.2214375560665
 20
85.56827693471104
 30
0.0
 10
188.3058627337856
 20
85.57782294698038
 30
0.0
 10
188.3643335917376
 20
85.57793181116726
 30
0.0
 10
188.3657710546766
 20
85.57793448751303
 30
0.0
  0
LINE
  5
1A1
330
1F
100
AcDbEntity
  8
0
  6
Continuous
 62
     7
370
    25
100
AcDbLine
 10
187.9418580112
 20
85.3279344875
 30
0.0
 11
188.1157710547
 21
85.3279344875
 31
0.0
  0
LINE
  5
1A2
330
1F
100
AcDbEntity
  8
0
  6
Continuous
 62
     7
370
    25
100
AcDbLine
 10
191.1157710547
 20
85.3279344875
 30
0.0
 11
191.2896840982
 21
85.3279344875
 31
0.0
  0
SPLINE
  5
1A3
330
1F
100
AcDbEntity
  8
0
  6
Continuous
 62
     7
370
    25
100
AcDbSpline
210
0.0
220
0.0
230
1.0
 70
     8
 71
     3
 72
    15
 73
    11
 74
     0
 42
0.00000001
 43
0.00000001
 40
0.0
 40
0.0
 40
0.0
 40
0.0
 40
0.0081667445812695
 40
0.3321939991490083
 40
0.4756279600585602
 40
0.6866830973284899
 40
0.8457435502264811
 40
0.8967566214763185
 40
0.9909540928118029
 40
1.0
 40
1.0
 40
1.0
 40
1.0
 10
190.8657710546766
 20
85.57793448751303
 30
0.0
 10
190.8672085176157
 20
85.57793181116728
 30
0.0
 10
190.9256793755673
 20
85.57782294698035
 30
0.0
 10
191.0101045532869
 20
85.56827693471104
 30
0.0
 10
191.1246836253093
 20
85.53091455145648
 30
0.0
 10
191.2060545125059
 20
85.4860490367218
 30
0.0
 10
191.2590735045075
 20
85.42817273714488
 30
0.0
 10
191.2832754363517
 20
85.37749669717296
 30
0.0
 10
191.2894650570179
 20
85.34880241765296
 30
0.0
 10
191.2896664524304
 20
85.32961558609745
 30
0.0
 10
191.2896840981549
 20
85.32793448751303
 30
0.0
  0
LINE
  5
1A4
330
1F
100
AcDbEntity
  8
0
  6
Continuous
 62
     7
370
    25
100
AcDbLine
 10
191.2896840982
 20
85.3279344875
 30
0.0
 11
191.2896840982
 21
84.7279344875
 31
0.0
  0
LINE
  5
1A5
330
1F
100
AcDbEntity
  8
0
  6
Continuous
 62
     7
370
    25
100
AcDbLine
 10
191.2896840982
 20
84.7279344875
 30
0.0
 11
191.1157710547
 21
84.7279344875
 31
0.0
  0
LINE
  5
1A6
330
1F
100
AcDbEntity
  8
0
  6
Continuous
 62
     7
370
    25
100
AcDbLine
 10
187.9418580112
 20
84.7279344875
 30
0.0
 11
187.9418580112
 21
85.3279344875
 31
0.0
  0
LINE
  5
1A7
330
1F
100
AcDbEntity
  8
0
  6
Continuous
 62
     7
370
    25
100
AcDbLine
 10
188.1157710547
 20
84.7279344875
 30
0.0
 11
187.9418580112
 21
84.7279344875
 31
0.0
  0
LINE
  5
1A8
330
1F
100
AcDbEntity
  8
0
  6
Continuous
 62
     7
370
    25
100
AcDbLine
 10
190.8657710547
 20
85.5779344875
 30
0.0
 11
194.8657710547
 21
85.5779344875
 31
0.0
  0
LINE
  5
1A9
330
1F
100
AcDbEntity
  8
0
  6
Continuous
 62
     7
370
    25
100
AcDbLine
 10
184.3657710547
 20
85.5779344875
 30
0.0
 11
188.3657710547
 21
85.5779344875
 31
0.0
  0
LINE
  5
1AA
330
1F
100
AcDbEntity
  8
0
  6
Continuous
 62
     7
370
    25
100
AcDbLine
 10
191.2896840982
 20
84.7279344875
 30
0.0
 11
195.1157710547
 21
84.7279344875
 31
0.0
  0
LINE
  5
1AB
330
1F
100
AcDbEntity
  8
0
  6
Continuous
 62
     7
370
    25
100
AcDbLine
 10
184.1157710547
 20
84.7279344875
 30
0.0
 11
187.9418580112
 21
84.7279344875
 31
0.0
  0
LINE
  5
1AC
330
1F
100
AcDbEntity
  8
0
  6
Continuous
 62
     7
370
    25
100
AcDbLine
 10
189.0157710547
 20
85.5779344875
 30
0.0
 11
189.0157710547
 21
85.5879344875
 31
0.0
  0
LINE
  5
1AD
330
1F
100
AcDbEntity
  8
0
  6
Continuous
 62
     7
370
    25
100
AcDbLine
 10
189.0157710547
 20
85.5879344875
 30
0.0
 11
190.2157710547
 21
85.5879344875
 31
0.0
  0
LINE
  5
1AE
330
1F
100
AcDbEntity
  8
0
  6
Continuous
 62
     7
370
    25
100
AcDbLine
 10
190.2157710547
 20
85.5779344875
 30
0.0
 11
190.2157710547
 21
85.5879344875
 31
0.0
  0
LINE
  5
1AF
330
1F
100
AcDbEntity
  8
0
  6
Continuous
 62
     7
370
    25
100
AcDbLine
 10
182.1657710547
 20
76.7279344875
 30
0.0
 11
197.0657710547
 21
76.7279344875
 31
0.0
  0
LINE
  5
1B0
330
1F
100
AcDbEntity
  8
0
  6
Continuous
 62
     7
370
    25
100
AcDbLine
 10
182.6157710547
 20
68.7279344875
 30
0.0
 11
196.6157710547
 21
68.7279344875
 31
0.0
  0
LINE
  5
1B1
330
1F
100
AcDbEntity
  8
0
  6
Continuous
 62
     7
370
    25
100
AcDbLine
 10
192.8874703187
 20
86.7279344875
 30
0.0
 11
192.8874703187
 21
85.5779344875
 31
0.0
  0
LINE
  5
1B2
330
1F
100
AcDbEntity
  8
0
  6
Continuous
 62
     7
370
    25
100
AcDbLine
 10
192.8874703187
 20
86.7279344875
 30
0.0
 11
193.1157710547
 21
86.7279344875
 31
0.0
  0
LINE
  5
1B3
330
1F
100
AcDbEntity
  8
0
  6
Continuous
 62
     7
370
    25
100
AcDbLine
 10
193.1157710547
 20
85.5779344875
 30
0.0
 11
193.1157710547
 21
86.7279344875
 31
0.0
  0
LINE
  5
1B4
330
1F
100
AcDbEntity
  8
0
  6
Continuous
 62
     7
370
    25
100
AcDbLine
 10
186.1157710547
 20
86.7279344875
 30
0.0
 11
186.1157710547
 21
85.5779344875
 31
0.0
  0
LINE
  5
1B5
330
1F
100
AcDbEntity
  8
0
  6
Continuous
 62
     7
370
    25
100
AcDbLine
 10
186.1157710547
 20
86.7279344875
 30
0.0
 11
186.3440717906
 21
86.7279344875
 31
0.0
  0
LINE
  5
1B6
330
1F
100
AcDbEntity
  8
0
  6
Continuous
 62
     7
370
    25
100
AcDbLine
 10
186.3440717906
 20
86.7279344875
 30
0.0
 11
186.3440717906
 21
85.5779344875
 31
0.0
  0
LINE
  5
1B7
330
1F
100
AcDbEntity
  8
0
  6
Continuous
 62
     7
370
    25
100
AcDbLine
 10
186.3440717906
 20
86.7279344875
 30
0.0
 11
192.8874703187
 21
86.7279344875
 31
0.0
  0
LINE
  5
1B8
330
1F
100
AcDbEntity
  8
0
  6
Continuous
 62
     7
370
    25
100
AcDbLine
 10
195.1157710547
 20
85.3279344875
 30
0.0
 11
191.2896840982
 21
85.3279344875
 31
0.0
  0
LINE
  5
1B9
330
1F
100
AcDbEntity
  8
0
  6
Continuous
 62
     7
370
    25
100
AcDbLine
 10
187.9418580112
 20
85.3279344875
 30
0.0
 11
184.1157710547
 21
85.3279344875
 31
0.0
  0
INSERT
  5
1C5
330
1F
100
AcDbEntity
  8
FORMAT
100
AcDbBlockReference
  2
SW_CENTERMARKSYMBOL_0
 10
189.6157710547
 20
58.2279344875
 30
0.0
  0
LINE
  5
1C6
330
1F
100
AcDbEntity
  8
0
  6
Continuous
 62
     7
370
    25
100
AcDbLine
 10
103.7695479499
 20
126.4958828401
 30
0.0
 11
98.6345524538
 21
125.0234465757
 31
0.0
  0
LINE
  5
1C7
330
1F
100
AcDbEntity
  8
0
  6
Continuous
 62
     7
370
    25
100
AcDbLine
 10
98.6345524538
 20
108.9683191046
 30
0.0
 11
103.7695479499
 21
107.4958828401
 31
0.0
  0
LINE
  5
1C8
330
1F
100
AcDbEntity
  8
0
  6
Continuous
 62
     7
370
    25
100
AcDbLine
 10
118.3940887169
 20
107.4958828401
 30
0.0
 11
118.5384262842
 21
107.7458828401
 31
0.0
  0
LINE
  5
1C9
330
1F
100
AcDbEntity
  8
0
  6
Continuous
 62
     7
370
    25
100
AcDbLine
 10
118.5384262842
 20
126.2458828401
 30
0.0
 11
118.3940887169
 21
126.4958828401
 31
0.0
  0
LINE
  5
1CA
330
1F
100
AcDbEntity
  8
0
  6
Continuous
 62
     7
370
    25
100
AcDbLine
 10
98.6345524538
 20
125.0234465757
 30
0.0
 11
98.5384262842
 21
124.8500303752
 31
0.0
  0
LINE
  5
1CB
330
1F
100
AcDbEntity
  8
0
  6
Continuous
 62
     7
370
    25
100
AcDbLine
 10
98.5384262842
 20
109.141735305
 30
0.0
 11
98.6345524538
 21
108.9683191046
 31
0.0
  0
LINE
  5
1CC
330
1F
100
AcDbEntity
  8
0
  6
Continuous
 62
     7
370
    25
100
AcDbLine
 10
124.3940887169
 20
107.4958828401
 30
0.0
 11
124.5384262842
 21
107.7458828401
 31
0.0
  0
LINE
  5
1CD
330
1F
100
AcDbEntity
  8
0
  6
Continuous
 62
     7
370
    25
100
AcDbLine
 10
124.5384262842
 20
126.2458828401
 30
0.0
 11
124.3940887169
 21
126.4958828401
 31
0.0
  0
LINE
  5
1CE
330
1F
100
AcDbEntity
  8
0
  6
Continuous
 62
     7
370
    25
100
AcDbLine
 10
118.6827638515
 20
126.4958828401
 30
0.0
 11
118.5384262842
 21
126.2458828401
 31
0.0
  0
LINE
  5
1CF
330
1F
100
AcDbEntity
  8
0
  6
Continuous
 62
     7
370
    25
100
AcDbLine
 10
118.5384262842
 20
107.7458828401
 30
0.0
 11
118.6827638515
 21
107.4958828401
 31
0.0
  0
ARC
  5
1D0
330
1F
100
AcDbEntity
  8
0
  6
Continuous
 62
     7
370
    25
100
AcDbCircle
 10
125.5384262842
 20
107.9958828401
 30
0.0
 40
1.500000000000014
100
AcDbArc
 50
318.1896851042
 51
0.0
  0
ARC
  5
1D1
330
1F
100
AcDbEntity
  8
0
  6
Continuous
 62
     7
370
    25
100
AcDbCircle
 10
125.5384262842
 20
125.9958828401
 30
0.0
 40
1.500000000000004
100
AcDbArc
 50
0.0
 51
41.8103148958
  0
ARC
  5
1D2
330
1F
100
AcDbEntity
  8
0
  6
Continuous
 62
     7
370
    25
100
AcDbCircle
 10
143.5384262842
 20
125.9958828401
 30
0.0
 40
1.5
100
AcDbArc
 50
138.1896851042
 51
180.0
  0
ARC
  5
1D3
330
1F
100
AcDbEntity
  8
0
  6
Continuous
 62
     7
370
    25
100
AcDbCircle
 10
143.5384262842
 20
107.9958828401
 30
0.0
 40
1.500000000000003
100
AcDbArc
 50
180.0
 51
221.8103148958
  0
LINE
  5
1D4
330
1F
100
AcDbEntity
  8
0
  6
Continuous
 62
     7
370
    25
100
AcDbLine
 10
124.7884262842
 20
106.9958828401
 30
0.0
 11
126.6564602729
 21
106.9958828401
 31
0.0
  0
LINE
  5
1D5
330
1F
100
AcDbEntity
  8
0
  6
Continuous
 62
     7
370
    25
100
AcDbLine
 10
126.6564602729
 20
126.9958828401
 30
0.0
 11
124.7884262842
 21
126.9958828401
 31
0.0
  0
LINE
  5
1D6
330
1F
100
AcDbEntity
  8
0
  6
Continuous
 62
     7
370
    25
100
AcDbLine
 10
124.7884262842
 20
126.9958828401
 30
0.0
 11
124.5384262842
 21
126.7458828401
 31
0.0
  0
LINE
  5
1D7
330
1F
100
AcDbEntity
  8
0
  6
Continuous
 62
     7
370
    25
100
AcDbLine
 10
124.5384262842
 20
107.2458828401
 30
0.0
 11
124.7884262842
 21
106.9958828401
 31
0.0
  0
LINE
  5
1D8
330
1F
100
AcDbEntity
  8
0
  6
Continuous
 62
     7
370
    25
100
AcDbLine
 10
144.0384262842
 20
106.9958828401
 30
0.0
 11
144.5384262842
 21
107.4958828401
 31
0.0
  0
LINE
  5
1D9
330
1F
100
AcDbEntity
  8
0
  6
Continuous
 62
     7
370
    25
100
AcDbLine
 10
144.5384262842
 20
126.4958828401
 30
0.0
 11
144.0384262842
 21
126.9958828401
 31
0.0
  0
LINE
  5
1DA
330
1F
100
AcDbEntity
  8
0
  6
Continuous
 62
     7
370
    25
100
AcDbLine
 10
144.0384262842
 20
126.9958828401
 30
0.0
 11
142.4203922954
 21
126.9958828401
 31
0.0
  0
LINE
  5
1DB
330
1F
100
AcDbEntity
  8
0
  6
Continuous
 62
     7
370
    25
100
AcDbLine
 10
142.4203922954
 20
106.9958828401
 30
0.0
 11
144.0384262842
 21
106.9958828401
 31
0.0
  0
LINE
  5
1DC
330
1F
100
AcDbEntity
  8
0
  6
Continuous
 62
     7
370
    25
100
AcDbLine
 10
144.5384262842
 20
108.5508203401
 30
0.0
 11
152.4645168505
 21
108.7985106703
 31
0.0
  0
LINE
  5
1DD
330
1F
100
AcDbEntity
  8
0
  6
Continuous
 62
     7
370
    25
100
AcDbLine
 10
152.4645168505
 20
125.1932550099
 30
0.0
 11
144.5384262842
 21
125.4409453401
 31
0.0
  0
LINE
  5
1DE
330
1F
100
AcDbEntity
  8
0
  6
Continuous
 62
     7
370
    25
100
AcDbLine
 10
152.4645168505
 20
108.7985106703
 30
0.0
 11
154.5384262842
 21
109.9958828401
 31
0.0
  0
LINE
  5
1DF
330
1F
100
AcDbEntity
  8
0
  6
Continuous
 62
     7
370
    25
100
AcDbLine
 10
154.5384262842
 20
123.9958828401
 30
0.0
 11
152.4645168505
 21
125.1932550099
 31
0.0
  0
SPLINE
  5
1E0
330
1F
100
AcDbEntity
  8
0
  6
Continuous
 62
     7
370
    25
100
AcDbSpline
210
0.0
220
0.0
230
1.0
 70
    24
 71
     3
 72
    14
 73
    10
 74
     0
 42
0.00000001
 43
0.00000001
 40
0.0
 40
0.0
 40
0.0
 40
0.0
 40
0.2251274061536467
 40
0.4521087331364482
 40
0.5714036579591286
 40
0.6920651863465991
 40
0.7896686376460963
 40
0.8896421072670374
 40
1.0
 40
1.0
 40
1.0
 40
1.0
 10
107.2569623937866
 20
126.4958828401427
 30
0.0
 10
106.8949807390258
 20
126.4958828401427
 30
0.0
 10
106.1680365159806
 20
126.4958828401427
 30
0.0
 10
105.3218189120443
 20
126.4958828401427
 30
0.0
 10
104.7038878392022
 20
126.4958828401427
 30
0.0
 10
104.312343225558
 20
126.4958828401427
 30
0.0
 10
104.0191426985376
 20
126.4958828401427
 30
0.0
 10
103.812444197678
 20
126.4958828401427
 30
0.0
 10
103.7868911536181
 20
126.4958828401427
 30
0.0
 10
103.7734838325995
 20
126.4958828401427
 30
0.0
  0
LINE
  5
1E1
330
1F
100
AcDbEntity
  8
0
  6
Continuous
 62
     7
370
    25
100
AcDbLine
 10
107.2569623938
 20
126.4958828401
 30
0.0
 11
107.2569623938
 21
125.6188661864
 31
0.0
  0
SPLINE
  5
1E2
330
1F
100
AcDbEntity
  8
0
  6
Continuous
 62
     7
370
    25
100
AcDbSpline
210
0.0
220
0.0
230
1.0
 70
     8
 71
     3
 72
    17
 73
    13
 74
     0
 42
0.00000001
 43
0.00000001
 40
0.0
 40
0.0
 40
0.0
 40
0.0
 40
0.0807852605643112
 40
0.1647798906494395
 40
0.2394314030639639
 40
0.3141389246859596
 40
0.3983167995245646
 40
0.4826742538336676
 40
0.5858108241973534
 40
0.6893596673877705
 40
0.7928223816615952
 40
1.0
 40
1.0
 40
1.0
 40
1.0
 10
104.1520655834229
 20
120.4958828401427
 30
0.0
 10
104.0667188179161
 20
120.6519913235906
 30
0.0
 10
103.8926347017139
 20
120.970410038246
 30
0.0
 10
103.7664811862416
 20
121.4749439718471
 30
0.0
 10
103.7653976819163
 20
121.9756876414153
 30
0.0
 10
103.8767339152141
 20
122.4676917694652
 30
0.0
 10
104.104975126974
 20
122.9506937228372
 30
0.0
 10
104.4524953774819
 20
123.4478764921754
 30
0.0
 10
104.9013935979324
 20
123.9341693333113
 30
0.0
 10
105.4404275434011
 20
124.4041480481405
 30
0.0
 10
106.212297225786
 20
124.9833722168061
 30
0.0
 10
106.8389945711761
 20
125.3646066983643
 30
0.0
 10
107.2569623937866
 20
125.6188661863501
 30
0.0
  0
SPLINE
  5
1E3
330
1F
100
AcDbEntity
  8
0
  6
Continuous
 62
     7
370
    25
100
AcDbSpline
210
0.0
220
0.0
230
1.0
 70
     8
 71
     3
 72
    18
 73
    14
 74
     0
 42
0.00000001
 43
0.00000001
 40
0.0
 40
0.0
 40
0.0
 40
0.0
 40
0.1411269591729473
 40
0.2823281011233399
 40
0.4230144282440382
 40
0.5060097567136773
 40
0.5889055213032535
 40
0.6730786862231605
 40
0.757051045492834
 40
0.831682764379432
 40
0.9063704776229008
 40
0.9905260330594925
 40
0.9999999999999999
 40
0.9999999999999999
 40
0.9999999999999999
 40
0.9999999999999999
 10
107.2569623937866
 20
108.3728994939353
 30
0.0
 10
106.9707300814437
 20
108.5440504983453
 30
0.0
 10
106.3981149999775
 20
108.8864424719525
 30
0.0
 10
105.5900910567625
 20
109.4585040552004
 30
0.0
 10
104.9510141712557
 20
110.0088467523325
 30
0.0
 10
104.476803798454
 20
110.5192947787282
 30
0.0
 10
104.1466274206117
 20
110.971678897383
 30
0.0
 10
103.8986226684315
 20
111.4652155494617
 30
0.0
 10
103.7658065185096
 20
111.9743224800706
 30
0.0
 10
103.7645698753356
 20
112.4763438947318
 30
0.0
 10
103.8809339187267
 20
112.9655211554085
 30
0.0
 10
104.0233839680879
 20
113.3076497810571
 30
0.0
 10
104.1429151258763
 20
113.4785864926505
 30
0.0
 10
104.1550099674231
 20
113.4958828401426
 30
0.0
  0
LINE
  5
1E4
330
1F
100
AcDbEntity
  8
0
  6
Continuous
 62
     7
370
    25
100
AcDbLine
 10
107.2569623938
 20
108.3728994939
 30
0.0
 11
107.2569623938
 21
107.4958828401
 31
0.0
  0
SPLINE
  5
1E5
330
1F
100
AcDbEntity
  8
0
  6
Continuous
 62
     7
370
    25
100
AcDbSpline
210
0.0
220
0.0
230
1.0
 70
    24
 71
     3
 72
    16
 73
    12
 74
     0
 42
0.00000001
 43
0.00000001
 40
0.0
 40
0.0
 40
0.0
 40
0.0
 40
0.0829425854878132
 40
0.174788793993743
 40
0.291010409144598
 40
0.4104532561381883
 40
0.5523210528439334
 40
0.6943438909112909
 40
0.8400919531766442
 40
0.9858796848602034
 40
1.0
 40
1.0
 40
1.0
 40
1.0
 10
103.7725566988675
 20
107.4958828401427
 30
0.0
 10
103.779854328079
 20
107.4958828401427
 30
0.0
 10
103.795232963811
 20
107.4958828401427
 30
0.0
 10
103.9561921276829
 20
107.4958828401427
 30
0.0
 10
104.2373216803435
 20
107.4958828401427
 30
0.0
 10
104.6637979830537
 20
107.4958828401427
 30
0.0
 10
105.1947755450671
 20
107.4958828401427
 30
0.0
 10
105.8182469292823
 20
107.4958828401427
 30
0.0
 10
106.4846902403341
 20
107.4958828401427
 30
0.0
 10
106.9740086405566
 20
107.4958828401427
 30
0.0
 10
107.2340040890567
 20
107.4958828401427
 30
0.0
 10
107.2569623937866
 20
107.4958828401427
 30
0.0
  0
LINE
  5
1E6
330
1F
100
AcDbEntity
  8
0
  6
Continuous
 62
     7
370
    25
100
AcDbLine
 10
98.6345524538
 20
125.0234465757
 30
0.0
 11
98.6345524538
 21
120.4958828401
 31
0.0
  0
LINE
  5
1E7
330
1F
100
AcDbEntity
  8
0
  6
Continuous
 62
     7
370
    25
100
AcDbLine
 10
98.6345524538
 20
113.4958828401
 30
0.0
 11
98.6345524538
 21
108.9683191046
 31
0.0
  0
LINE
  5
1E8
330
1F
100
AcDbEntity
  8
0
  6
Continuous
 62
     7
370
    25
100
AcDbLine
 10
117.8167384477
 20
108.3728994939
 30
0.0
 11
107.2569623938
 21
108.3728994939
 31
0.0
  0
SPLINE
  5
1E9
330
1F
100
AcDbEntity
  8
0
  6
Continuous
 62
     7
370
    25
100
AcDbSpline
210
0.0
220
0.0
230
1.0
 70
     8
 71
     3
 72
    11
 73
     7
 74
     0
 42
0.00000001
 43
0.00000001
 40
0.0
 40
0.0
 40
0.0
 40
0.0
 40
0.1506303936468832
 40
0.407758595342216
 40
0.7027468318949815
 40
1.0
 40
1.0
 40
1.0
 40
1.0
 10
118.342261578992
 20
113.1969489713447
 30
0.0
 10
118.3625844926942
 20
112.9531532395153
 30
0.0
 10
118.4175989060795
 20
112.2931947626476
 30
0.0
 10
118.3649251592366
 20
111.1518679638327
 30
0.0
 10
118.1835402046897
 20
109.7812103063285
 30
0.0
 10
117.9393170307165
 20
108.8435317647542
 30
0.0
 10
117.8167384476973
 20
108.3728994939353
 30
0.0
  0
LINE
  5
1EA
330
1F
100
AcDbEntity
  8
0
  6
Continuous
 62
     7
370
    25
100
AcDbLine
 10
107.2569623938
 20
125.6188661864
 30
0.0
 11
117.8167384477
 21
125.6188661864
 31
0.0
  0
SPLINE
  5
1EB
330
1F
100
AcDbEntity
  8
0
  6
Continuous
 62
     7
370
    25
100
AcDbSpline
210
0.0
220
0.0
230
1.0
 70
     8
 71
     3
 72
    11
 73
     7
 74
     0
 42
0.00000001
 43
0.00000001
 40
0.0
 40
0.0
 40
0.0
 40
0.0
 40
0.2512929405657804
 40
0.5025190775942188
 40
0.7598545875453055
 40
1.0
 40
1.0
 40
1.0
 40
1.0
 10
117.8167384476973
 20
125.6188661863501
 30
0.0
 10
117.9214189562526
 20
125.2216354032892
 30
0.0
 10
118.1307521451709
 20
124.4272794367174
 30
0.0
 10
118.3256400374561
 20
123.2061250113396
 30
0.0
 10
118.4171375535498
 20
121.9930836622728
 30
0.0
 10
118.3744625575968
 20
121.1871418610028
 30
0.0
 10
118.3538623616032
 20
120.7980953316515
 30
0.0
  0
LINE
  5
1EC
330
1F
100
AcDbEntity
  8
0
  6
Continuous
 62
     7
370
    25
100
AcDbLine
 10
118.5384262842
 20
126.2458828401
 30
0.0
 11
118.5384262842
 21
120.7899018216
 31
0.0
  0
LINE
  5
1ED
330
1F
100
AcDbEntity
  8
0
  6
Continuous
 62
     7
370
    25
100
AcDbLine
 10
118.5384262842
 20
113.2018638587
 30
0.0
 11
118.5384262842
 21
107.7458828401
 31
0.0
  0
SPLINE
  5
1EE
330
1F
100
AcDbEntity
  8
0
  6
Continuous
 62
     7
370
    25
100
AcDbSpline
210
0.0
220
0.0
230
1.0
 70
    24
 71
     3
 72
    11
 73
     7
 74
     0
 42
0.00000001
 43
0.00000001
 40
0.0
 40
0.0
 40
0.0
 40
0.0
 40
0.2797550292743921
 40
0.5605306138018747
 40
0.8614847543347248
 40
1.0
 40
1.0
 40
1.0
 40
1.0
 10
117.8167384476973
 20
107.4958828401427
 30
0.0
 10
117.9115066837356
 20
107.4958828401427
 30
0.0
 10
118.1013888733543
 20
107.4958828401427
 30
0.0
 10
118.2913083088868
 20
107.4958828401427
 30
0.0
 10
118.3922761681361
 20
107.4958828401427
 30
0.0
 10
118.3828678565358
 20
107.4958828401427
 30
0.0
 10
118.3799024745694
 20
107.4958828401427
 30
0.0
  0
LINE
  5
1EF
330
1F
100
AcDbEntity
  8
0
  6
Continuous
 62
     7
370
    25
100
AcDbLine
 10
117.8167384477
 20
107.4958828401
 30
0.0
 11
117.8167384477
 21
108.3728994939
 31
0.0
  0
LINE
  5
1F0
330
1F
100
AcDbEntity
  8
0
  6
Continuous
 62
     7
370
    25
100
AcDbLine
 10
117.8167384477
 20
125.6188661864
 30
0.0
 11
117.8167384477
 21
126.4958828401
 31
0.0
  0
SPLINE
  5
1F1
330
1F
100
AcDbEntity
  8
0
  6
Continuous
 62
     7
370
    25
100
AcDbSpline
210
0.0
220
0.0
230
1.0
 70
    24
 71
     3
 72
    11
 73
     7
 74
     0
 42
0.00000001
 43
0.00000001
 40
0.0
 40
0.0
 40
0.0
 40
0.0
 40
0.1307315392775144
 40
0.4394619458159251
 40
0.7191659981866161
 40
1.0
 40
1.0
 40
1.0
 40
1.0
 10
118.379383008454
 20
126.4958828401427
 30
0.0
 10
118.382741488107
 20
126.4958828401427
 30
0.0
 10
118.3940312198077
 20
126.4958828401427
 30
0.0
 10
118.2929053163135
 20
126.4958828401427
 30
0.0
 10
118.10175552237
 20
126.4958828401427
 30
0.0
 10
117.9118717304049
 20
126.4958828401427
 30
0.0
 10
117.8167384476973
 20
126.4958828401427
 30
0.0
  0
LINE
  5
1F2
330
1F
100
AcDbEntity
  8
0
  6
Continuous
 62
     7
370
    25
100
AcDbLine
 10
98.5384262842
 20
109.141735305
 30
0.0
 11
98.5384262842
 21
113.4958828401
 31
0.0
  0
LINE
  5
1F3
330
1F
100
AcDbEntity
  8
0
  6
Continuous
 62
     7
370
    25
100
AcDbLine
 10
98.5384262842
 20
120.4958828401
 30
0.0
 11
98.5384262842
 21
124.8500303752
 31
0.0
  0
LINE
  5
1F4
330
1F
100
AcDbEntity
  8
0
  6
Continuous
 62
     7
370
    25
100
AcDbLine
 10
117.8167384477
 20
126.4958828401
 30
0.0
 11
107.2569623938
 21
126.4958828401
 31
0.0
  0
LINE
  5
1F5
330
1F
100
AcDbEntity
  8
0
  6
Continuous
 62
     7
370
    25
100
AcDbLine
 10
107.2569623938
 20
107.4958828401
 30
0.0
 11
117.8167384477
 21
107.4958828401
 31
0.0
  0
SPLINE
  5
1F6
330
1F
100
AcDbEntity
  8
0
  6
Continuous
 62
     7
370
    25
100
AcDbSpline
210
0.0
220
0.0
230
1.0
 70
    24
 71
     3
 72
    11
 73
     7
 74
     0
 42
0.00000001
 43
0.00000001
 40
0.0
 40
0.0
 40
0.0
 40
0.0
 40
0.2756213602209204
 40
0.5522148162453974
 40
0.8527228045072875
 40
1.0
 40
1.0
 40
1.0
 40
1.0
 10
123.8167384476973
 20
107.4958828401428
 30
0.0
 10
123.9101794772905
 20
107.4958828401428
 30
0.0
 10
124.0973910959591
 20
107.4958828401428
 30
0.0
 10
124.2875331430402
 20
107.4958828401428
 30
0.0
 10
124.3908120591017
 20
107.4958828401427
 30
0.0
 10
124.3825828630738
 20
107.4958828401427
 30
0.0
 10
124.3798762685813
 20
107.4958828401427
 30
0.0
  0
LINE
  5
1F7
330
1F
100
AcDbEntity
  8
0
  6
Continuous
 62
     7
370
    25
100
AcDbLine
 10
123.8167384477
 20
107.4958828401
 30
0.0
 11
123.8167384477
 21
108.3728994939
 31
0.0
  0
SPLINE
  5
1F8
330
1F
100
AcDbEntity
  8
0
  6
Continuous
 62
     7
370
    25
100
AcDbSpline
210
0.0
220
0.0
230
1.0
 70
     8
 71
     3
 72
    10
 73
     6
 74
     0
 42
0.00000001
 43
0.00000001
 40
0.0
 40
0.0
 40
0.0
 40
0.0
 40
0.2829212242161415
 40
0.640089436155199
 40
1.0
 40
1.0
 40
1.0
 40
1.0
 10
124.3878670916607
 20
112.3511371021616
 30
0.0
 10
124.3828683090901
 20
111.9719977509229
 30
0.0
 10
124.3715589139539
 20
111.1142215475612
 30
0.0
 10
124.1803248412328
 20
109.7811512914524
 30
0.0
 10
123.9382425137903
 20
108.8435120430388
 30
0.0
 10
123.8167384476973
 20
108.3728994939354
 30
0.0
  0
SPLINE
  5
1F9
330
1F
100
AcDbEntity
  8
0
  6
Continuous
 62
     7
370
    25
100
AcDbSpline
210
0.0
220
0.0
230
1.0
 70
     8
 71
     3
 72
    11
 73
     7
 74
     0
 42
0.00000001
 43
0.00000001
 40
0.0
 40
0.0
 40
0.0
 40
0.0
 40
0.3033115225028872
 40
0.6065424128854522
 40
0.9171473393174755
 40
1.0
 40
1.0
 40
1.0
 40
1.0
 10
123.8167384476973
 20
125.6188661863501
 30
0.0
 10
123.9217682124252
 20
125.2216351751093
 30
0.0
 10
124.1317998208426
 20
124.4272787522382
 30
0.0
 10
124.321408186081
 20
123.2061277761408
 30
0.0
 10
124.4074212188609
 20
122.2709409527909
 30
0.0
 10
124.3854131699314
 20
121.7428365916892
 30
0.0
 10
124.38077880661
 20
121.6316305738915
 30
0.0
  0
LINE
  5
1FA
330
1F
100
AcDbEntity
  8
0
  6
Continuous
 62
     7
370
    25
100
AcDbLine
 10
123.8167384477
 20
125.6188661864
 30
0.0
 11
123.8167384477
 21
126.4958828401
 31
0.0
  0
SPLINE
  5
1FB
330
1F
100
AcDbEntity
  8
0
  6
Continuous
 62
     7
370
    25
100
AcDbSpline
210
0.0
220
0.0
230
1.0
 70
    24
 71
     3
 72
    11
 73
     7
 74
     0
 42
0.00000001
 43
0.00000001
 40
0.0
 40
0.0
 40
0.0
 40
0.0
 40
0.1395080913719206
 40
0.4477773912092012
 40
0.7233511212270441
 40
1.0
 40
1.0
 40
1.0
 40
1.0
 10
124.379229720713
 20
126.4958828401427
 30
0.0
 10
124.3823957784751
 20
126.4958828401427
 30
0.0
 10
124.3925578348204
 20
126.4958828401427
 30
0.0
 10
124.2891547643495
 20
126.4958828401427
 30
0.0
 10
124.0977408239467
 20
126.4958828401427
 30
0.0
 10
123.910527404717
 20
126.4958828401427
 30
0.0
 10
123.8167384476973
 20
126.4958828401427
 30
0.0
  0
SPLINE
  5
1FC
330
1F
100
AcDbEntity
  8
0
  6
Continuous
 62
     7
370
    25
100
AcDbSpline
210
0.0
220
0.0
230
1.0
 70
    24
 71
     3
 72
    11
 73
     7
 74
     0
 42
0.00000001
 43
0.00000001
 40
0.0
 40
0.0
 40
0.0
 40
0.0
 40
0.2754631920626699
 40
0.5518966585730684
 40
0.8523877454571083
 40
1.0
 40
1.0
 40
1.0
 40
1.0
 10
119.2601141206714
 20
126.4958828401427
 30
0.0
 10
119.1667239176208
 20
126.4958828401427
 30
0.0
 10
118.9796145596658
 20
126.4958828401427
 30
0.0
 10
118.7894652166969
 20
126.4958828401427
 30
0.0
 10
118.6860969897006
 20
126.4958828401427
 30
0.0
 10
118.6942797799968
 20
126.4958828401427
 30
0.0
 10
118.6969753192003
 20
126.4958828401427
 30
0.0
  0
LINE
  5
1FD
330
1F
100
AcDbEntity
  8
0
  6
Continuous
 62
     7
370
    25
100
AcDbLine
 10
119.2601141207
 20
126.4958828401
 30
0.0
 11
119.2601141207
 21
125.6188661864
 31
0.0
  0
SPLINE
  5
1FE
330
1F
100
AcDbEntity
  8
0
  6
Continuous
 62
     7
370
    25
100
AcDbSpline
210
0.0
220
0.0
230
1.0
 70
     8
 71
     3
 72
    11
 73
     7
 74
     0
 42
0.00000001
 43
0.00000001
 40
0.0
 40
0.0
 40
0.0
 40
0.0
 40
0.1438937604759028
 40
0.4030613315573992
 40
0.7003892180394145
 40
1.0
 40
1.0
 40
1.0
 40
1.0
 10
118.7320160590761
 20
120.8330405803699
 30
0.0
 10
118.7128727413886
 20
121.064103580622
 30
0.0
 10
118.6592503251555
 20
121.7113349841745
 30
0.0
 10
118.7121536563239
 20
122.839903743567
 30
0.0
 10
118.8932520732703
 20
124.2105537678501
 30
0.0
 10
119.1375153896766
 20
125.1482333787991
 30
0.0
 10
119.2601141206714
 20
125.6188661863501
 30
0.0
  0
SPLINE
  5
1FF
330
1F
100
AcDbEntity
  8
0
  6
Continuous
 62
     7
370
    25
100
AcDbSpline
210
0.0
220
0.0
230
1.0
 70
     8
 71
     3
 72
    11
 73
     7
 74
     0
 42
0.00000001
 43
0.00000001
 40
0.0
 40
0.0
 40
0.0
 40
0.0
 40
0.252784232691345
 40
0.5055012654013055
 40
0.7643639269657811
 40
1.0
 40
1.0
 40
1.0
 40
1.0
 10
119.2601141206714
 20
108.3728994939354
 30
0.0
 10
119.1554259527125
 20
108.7701302820004
 30
0.0
 10
118.9460774470232
 20
109.5644862585791
 30
0.0
 10
118.7513053380273
 20
110.7856406083121
 30
0.0
 10
118.6600920538012
 20
111.989124035962
 30
0.0
 10
118.702064034547
 20
112.7855085608146
 30
0.0
 10
118.722064313675
 20
113.1649977463911
 30
0.0
  0
LINE
  5
200
330
1F
100
AcDbEntity
  8
0
  6
Continuous
 62
     7
370
    25
100
AcDbLine
 10
119.2601141207
 20
108.3728994939
 30
0.0
 11
119.2601141207
 21
107.4958828401
 31
0.0
  0
SPLINE
  5
201
330
1F
100
AcDbEntity
  8
0
  6
Continuous
 62
     7
370
    25
100
AcDbSpline
210
0.0
220
0.0
230
1.0
 70
    24
 71
     3
 72
    11
 73
     7
 74
     0
 42
0.00000001
 43
0.00000001
 40
0.0
 40
0.0
 40
0.0
 40
0.0
 40
0.1398438779634454
 40
0.4480956368236278
 40
0.7235112734182115
 40
1.0
 40
1.0
 40
1.0
 40
1.0
 10
118.6976267185582
 20
107.4958828401427
 30
0.0
 10
118.6944691629248
 20
107.4958828401427
 30
0.0
 10
118.6843515451715
 20
107.4958828401427
 30
0.0
 10
118.7878426701007
 20
107.4958828401427
 30
0.0
 10
118.9792654683456
 20
107.4958828401428
 30
0.0
 10
119.1663766339591
 20
107.4958828401428
 30
0.0
 10
119.2601141206714
 20
107.4958828401428
 30
0.0
  0
LINE
  5
202
330
1F
100
AcDbEntity
  8
0
  6
Continuous
 62
     7
370
    25
100
AcDbLine
 10
119.2601141207
 20
125.6188661864
 30
0.0
 11
123.8167384477
 21
125.6188661864
 31
0.0
  0
LINE
  5
203
330
1F
100
AcDbEntity
  8
0
  6
Continuous
 62
     7
370
    25
100
AcDbLine
 10
123.8167384477
 20
108.3728994939
 30
0.0
 11
119.2601141207
 21
108.3728994939
 31
0.0
  0
LINE
  5
204
330
1F
100
AcDbEntity
  8
0
  6
Continuous
 62
     7
370
    25
100
AcDbLine
 10
119.2601141207
 20
107.4958828401
 30
0.0
 11
123.8167384477
 21
107.4958828401
 31
0.0
  0
LINE
  5
205
330
1F
100
AcDbEntity
  8
0
  6
Continuous
 62
     7
370
    25
100
AcDbLine
 10
123.8167384477
 20
126.4958828401
 30
0.0
 11
119.2601141207
 21
126.4958828401
 31
0.0
  0
LINE
  5
206
330
1F
100
AcDbEntity
  8
0
  6
Continuous
 62
     7
370
    25
100
AcDbLine
 10
126.6564602729
 20
126.9958828401
 30
0.0
 11
126.6564602729
 21
122.0869190333
 31
0.0
  0
LINE
  5
207
330
1F
100
AcDbEntity
  8
0
  6
Continuous
 62
     7
370
    25
100
AcDbLine
 10
126.6564602729
 20
111.9048466469
 30
0.0
 11
126.6564602729
 21
106.9958828401
 31
0.0
  0
SPLINE
  5
208
330
1F
100
AcDbEntity
  8
0
  6
Continuous
 62
     7
370
    25
100
AcDbSpline
210
0.0
220
0.0
230
1.0
 70
     8
 71
     3
 72
    12
 73
     8
 74
     0
 42
0.00000001
 43
0.00000001
 40
0.0
 40
0.0
 40
0.0
 40
0.0
 40
0.2500000000000001
 40
0.2500000000000001
 40
0.5000000000000001
 40
0.5000000000000001
 40
1.0
 40
1.0
 40
1.0
 40
1.0
 10
126.8093402170823
 20
125.7583440198925
 30
0.0
 10
126.890456819187
 20
125.7928491577526
 30
0.0
 10
126.9374867423553
 20
125.8256942290531
 30
0.0
 10
127.0003503438871
 20
125.8840467572998
 30
0.0
 10
127.0158000148043
 20
125.9097011209284
 30
0.0
 10
127.0429836791836
 20
125.9728003736681
 30
0.0
 10
127.0384262841844
 20
125.9958828401427
 30
0.0
 10
127.0384262841844
 20
125.9958828401427
 30
0.0
  0
SPLINE
  5
209
330
1F
100
AcDbEntity
  8
0
  6
Continuous
 62
     7
370
    25
100
AcDbSpline
210
0.0
220
0.0
230
1.0
 70
     8
 71
     3
 72
    14
 73
    10
 74
     0
 42
0.00000001
 43
0.00000001
 40
0.0
 40
0.0
 40
0.0
 40
0.0
 40
0.25
 40
0.25
 40
0.5
 40
0.5
 40
0.75
 40
0.75
 40
1.0
 40
1.0
 40
1.0
 40
1.0
 10
126.8093402170823
 20
125.7583440198925
 30
0.0
 10
126.7818192293372
 20
125.746637224347
 30
0.0
 10
126.7618993075008
 20
125.7145952712654
 30
0.0
 10
126.7462322656828
 20
125.6152715206004
 30
0.0
 10
126.7507240974951
 20
125.5474480778197
 30
0.0
 10
126.7819804427787
 20
125.3850064604068
 30
0.0
 10
126.8083530261604
 20
125.2905610636711
 30
0.0
 10
126.8711895773047
 20
125.0823319560745
 30
0.0
 10
126.9072291561648
 20
124.9697335631914
 30
0.0
 10
126.9412251595304
 20
124.8499771695913
 30
0.0
  0
SPLINE
  5
20A
330
1F
100
AcDbEntity
  8
0
  6
Continuous
 62
     7
370
    25
100
AcDbSpline
210
0.0
220
0.0
230
1.0
 70
     8
 71
     3
 72
     8
 73
     4
 74
     0
 42
0.00000001
 43
0.00000001
 40
0.0
 40
0.0
 40
0.0
 40
0.0
 40
1.0
 40
1.0
 40
1.0
 40
1.0
 10
127.0384262841844
 20
124.1197862645302
 30
0.0
 10
127.0384262841844
 20
124.3672157213253
 30
0.0
 10
127.0090615771065
 20
124.6110124702326
 30
0.0
 10
126.9412251595304
 20
124.8499771695913
 30
0.0
  0
LINE
  5
20B
330
1F
100
AcDbEntity
  8
0
  6
Continuous
 62
     7
370
    25
100
AcDbLine
 10
127.0384262842
 20
124.1197862645
 30
0.0
 11
127.0384262842
 21
122.1742313067
 31
0.0
  0
LINE
  5
20C
330
1F
100
AcDbEntity
  8
0
  6
Continuous
 62
     7
370
    25
100
AcDbLine
 10
127.0384262842
 20
111.8175343736
 30
0.0
 11
127.0384262842
 21
109.8719794158
 31
0.0
  0
SPLINE
  5
20D
330
1F
100
AcDbEntity
  8
0
  6
Continuous
 62
     7
370
    25
100
AcDbSpline
210
0.0
220
0.0
230
1.0
 70
     8
 71
     3
 72
     8
 73
     4
 74
     0
 42
0.00000001
 43
0.00000001
 40
0.0
 40
0.0
 40
0.0
 40
0.0
 40
1.0
 40
1.0
 40
1.0
 40
1.0
 10
126.9412251595304
 20
109.1417885106942
 30
0.0
 10
127.0090615771065
 20
109.3807532100529
 30
0.0
 10
127.0384262841844
 20
109.6245499589602
 30
0.0
 10
127.0384262841844
 20
109.8719794157552
 30
0.0
  0
SPLINE
  5
20E
330
1F
100
AcDbEntity
  8
0
  6
Continuous
 62
     7
370
    25
100
AcDbSpline
210
0.0
220
0.0
230
1.0
 70
     8
 71
     3
 72
    12
 73
     8
 74
     0
 42
0.00000001
 43
0.00000001
 40
0.0
 40
0.0
 40
0.0
 40
0.0
 40
0.4999999999999992
 40
0.4999999999999992
 40
0.7499999999999996
 40
0.7499999999999996
 40
1.0
 40
1.0
 40
1.0
 40
1.0
 10
126.9412251595304
 20
109.1417885106942
 30
0.0
 10
126.8733553995206
 20
108.9027063572461
 30
0.0
 10
126.7973208482669
 20
108.6869362500692
 30
0.0
 10
126.7506762498899
 20
108.4438416573653
 30
0.0
 10
126.7462372533673
 20
108.3761763818892
 30
0.0
 10
126.7619678671601
 20
108.2770232657326
 30
0.0
 10
126.7818482971025
 20
108.2451160911794
 30
0.0
 10
126.8093402170823
 20
108.2334216603929
 30
0.0
  0
SPLINE
  5
20F
330
1F
100
AcDbEntity
  8
0
  6
Continuous
 62
     7
370
    25
100
AcDbSpline
210
0.0
220
0.0
230
1.0
 70
     8
 71
     3
 72
    12
 73
     8
 74
     0
 42
0.00000001
 43
0.00000001
 40
0.0
 40
0.0
 40
0.0
 40
0.0
 40
0.4999999999999998
 40
0.4999999999999998
 40
0.7499999999999999
 40
0.7499999999999999
 40
1.0
 40
1.0
 40
1.0
 40
1.0
 10
127.0384262841844
 20
107.9958828401427
 30
0.0
 10
127.0384262841844
 20
107.9958828401427
 30
0.0
 10
127.0429836791836
 20
108.0189653066173
 30
0.0
 10
127.0158000148043
 20
108.0820645593571
 30
0.0
 10
127.0003503438871
 20
108.1077189229857
 30
0.0
 10
126.9374867423553
 20
108.1660714512324
 30
0.0
 10
126.890456819187
 20
108.1989165225328
 30
0.0
 10
126.8093402170823
 20
108.2334216603929
 30
0.0
  0
LINE
  5
210
330
1F
100
AcDbEntity
  8
0
  6
Continuous
 62
     7
370
    25
100
AcDbLine
 10
142.4203922954
 20
106.9958828401
 30
0.0
 11
142.4203922954
 21
126.9958828401
 31
0.0
  0
SPLINE
  5
211
330
1F
100
AcDbEntity
  8
0
  6
Continuous
 62
     7
370
    25
100
AcDbSpline
210
0.0
220
0.0
230
1.0
 70
     8
 71
     3
 72
    12
 73
     8
 74
     0
 42
0.00000001
 43
0.00000001
 40
0.0
 40
0.0
 40
0.0
 40
0.0
 40
0.25
 40
0.25
 40
0.5
 40
0.5
 40
1.0
 40
1.0
 40
1.0
 40
1.0
 10
142.2675123512864
 20
108.2334216603929
 30
0.0
 10
142.1863957491817
 20
108.1989165225328
 30
0.0
 10
142.1393658260134
 20
108.1660714512324
 30
0.0
 10
142.0765022244816
 20
108.1077189229857
 30
0.0
 10
142.0610525535644
 20
108.0820645593571
 30
0.0
 10
142.0338688891851
 20
108.0189653066173
 30
0.0
 10
142.0384262841843
 20
107.9958828401427
 30
0.0
 10
142.0384262841843
 20
107.9958828401427
 30
0.0
  0
SPLINE
  5
212
330
1F
100
AcDbEntity
  8
0
  6
Continuous
 62
     7
370
    25
100
AcDbSpline
210
0.0
220
0.0
230
1.0
 70
     8
 71
     3
 72
    14
 73
    10
 74
     0
 42
0.00000001
 43
0.00000001
 40
0.0
 40
0.0
 40
0.0
 40
0.0
 40
0.25
 40
0.25
 40
0.5
 40
0.5
 40
0.75
 40
0.75
 40
1.0
 40
1.0
 40
1.0
 40
1.0
 10
142.2675123512864
 20
108.2334216603929
 30
0.0
 10
142.2950333390314
 20
108.2451284559385
 30
0.0
 10
142.3149532608679
 20
108.27717040902
 30
0.0
 10
142.3306203026859
 20
108.3764941596851
 30
0.0
 10
142.3261284708736
 20
108.4443176024658
 30
0.0
 10
142.29487212559
 20
108.6067592198786
 30
0.0
 10
142.2684995422083
 20
108.7012046166144
 30
0.0
 10
142.205662991064
 20
108.9094337242109
 30
0.0
 10
142.1696234122039
 20
109.0220321170941
 30
0.0
 10
142.1356274088383
 20
109.1417885106942
 30
0.0
  0
SPLINE
  5
213
330
1F
100
AcDbEntity
  8
0
  6
Continuous
 62
     7
370
    25
100
AcDbSpline
210
0.0
220
0.0
230
1.0
 70
     8
 71
     3
 72
     8
 73
     4
 74
     0
 42
0.00000001
 43
0.00000001
 40
0.0
 40
0.0
 40
0.0
 40
0.0
 40
1.0
 40
1.0
 40
1.0
 40
1.0
 10
142.0384262841843
 20
109.8719794157552
 30
0.0
 10
142.0384262841843
 20
109.6245499589602
 30
0.0
 10
142.0677909912622
 20
109.3807532100529
 30
0.0
 10
142.1356274088383
 20
109.1417885106942
 30
0.0
  0
LINE
  5
214
330
1F
100
AcDbEntity
  8
0
  6
Continuous
 62
     7
370
    25
100
AcDbLine
 10
142.0384262842
 20
109.8719794158
 30
0.0
 11
142.0384262842
 21
124.1197862645
 31
0.0
  0
SPLINE
  5
215
330
1F
100
AcDbEntity
  8
0
  6
Continuous
 62
     7
370
    25
100
AcDbSpline
210
0.0
220
0.0
230
1.0
 70
     8
 71
     3
 72
     8
 73
     4
 74
     0
 42
0.00000001
 43
0.00000001
 40
0.0
 40
0.0
 40
0.0
 40
0.0
 40
1.0
 40
1.0
 40
1.0
 40
1.0
 10
142.1356274088383
 20
124.8499771695913
 30
0.0
 10
142.0677909912622
 20
124.6110124702326
 30
0.0
 10
142.0384262841843
 20
124.3672157213253
 30
0.0
 10
142.0384262841843
 20
124.1197862645302
 30
0.0
  0
SPLINE
  5
216
330
1F
100
AcDbEntity
  8
0
  6
Continuous
 62
     7
370
    25
100
AcDbSpline
210
0.0
220
0.0
230
1.0
 70
     8
 71
     3
 72
    12
 73
     8
 74
     0
 42
0.00000001
 43
0.00000001
 40
0.0
 40
0.0
 40
0.0
 40
0.0
 40
0.4999999999999992
 40
0.4999999999999992
 40
0.7499999999999996
 40
0.7499999999999996
 40
1.0
 40
1.0
 40
1.0
 40
1.0
 10
142.1356274088383
 20
124.8499771695913
 30
0.0
 10
142.2034971688481
 20
125.0890593230394
 30
0.0
 10
142.2795317201018
 20
125.3048294302163
 30
0.0
 10
142.3261763184788
 20
125.5479240229201
 30
0.0
 10
142.3306153150015
 20
125.6155892983963
 30
0.0
 10
142.3148847012086
 20
125.7147424145529
 30
0.0
 10
142.2950042712663
 20
125.7466495891061
 30
0.0
 10
142.2675123512864
 20
125.7583440198925
 30
0.0
  0
SPLINE
  5
217
330
1F
100
AcDbEntity
  8
0
  6
Continuous
 62
     7
370
    25
100
AcDbSpline
210
0.0
220
0.0
230
1.0
 70
     8
 71
     3
 72
    12
 73
     8
 74
     0
 42
0.00000001
 43
0.00000001
 40
0.0
 40
0.0
 40
0.0
 40
0.0
 40
0.5000000000000002
 40
0.5000000000000002
 40
0.7500000000000001
 40
0.7500000000000001
 40
1.0
 40
1.0
 40
1.0
 40
1.0
 10
142.0384262841843
 20
125.9958828401427
 30
0.0
 10
142.0384262841843
 20
125.9958828401427
 30
0.0
 10
142.0338688891851
 20
125.9728003736681
 30
0.0
 10
142.0610525535644
 20
125.9097011209284
 30
0.0
 10
142.0765022244816
 20
125.8840467572998
 30
0.0
 10
142.1393658260134
 20
125.8256942290531
 30
0.0
 10
142.1863957491817
 20
125.7928491577526
 30
0.0
 10
142.2675123512864
 20
125.7583440198925
 30
0.0
  0
LINE
  5
218
330
1F
100
AcDbEntity
  8
0
  6
Continuous
 62
     7
370
    25
100
AcDbLine
 10
124.7884262842
 20
126.9958828401
 30
0.0
 11
124.7884262842
 21
121.6945621736
 31
0.0
  0
LINE
  5
219
330
1F
100
AcDbEntity
  8
0
  6
Continuous
 62
     7
370
    25
100
AcDbLine
 10
124.7884262842
 20
112.2972035067
 30
0.0
 11
124.7884262842
 21
106.9958828401
 31
0.0
  0
LINE
  5
21A
330
1F
100
AcDbEntity
  8
0
  6
Continuous
 62
     7
370
    25
100
AcDbLine
 10
124.5384262842
 20
107.2458828401
 30
0.0
 11
124.5384262842
 21
112.3453835213
 31
0.0
  0
LINE
  5
21B
330
1F
100
AcDbEntity
  8
0
  6
Continuous
 62
     7
370
    25
100
AcDbLine
 10
124.5384262842
 20
121.646382159
 30
0.0
 11
124.5384262842
 21
126.7458828401
 31
0.0
  0
LINE
  5
21C
330
1F
100
AcDbEntity
  8
0
  6
Continuous
 62
     7
370
    25
100
AcDbLine
 10
144.0384262842
 20
106.9958828401
 30
0.0
 11
144.0384262842
 21
126.9958828401
 31
0.0
  0
LINE
  5
21D
330
1F
100
AcDbEntity
  8
0
  6
Continuous
 62
     7
370
    25
100
AcDbLine
 10
144.5384262842
 20
126.4958828401
 30
0.0
 11
144.5384262842
 21
107.4958828401
 31
0.0
  0
ARC
  5
21E
330
1F
100
AcDbEntity
  8
0
  6
Continuous
 62
     7
370
    25
100
AcDbCircle
 10
127.4917441854
 20
124.1787622028
 30
0.0
 40
0.4571381420089069
100
AcDbArc
 50
187.4124568466
 51
275.861155744
  0
ARC
  5
21F
330
1F
100
AcDbEntity
  8
0
  6
Continuous
 62
     7
370
    25
100
AcDbCircle
 10
127.4917441854
 20
109.8130034774
 30
0.0
 40
0.4571381420089023
100
AcDbArc
 50
84.138844256
 51
172.5875431534
  0
ARC
  5
220
330
1F
100
AcDbEntity
  8
0
  6
Continuous
 62
     7
370
    25
100
AcDbCircle
 10
141.5851083829
 20
124.1787622028
 30
0.0
 40
0.4571381420089009
100
AcDbArc
 50
264.138844256
 51
352.5875431534
  0
ARC
  5
221
330
1F
100
AcDbEntity
  8
0
  6
Continuous
 62
     7
370
    25
100
AcDbCircle
 10
141.5851083829
 20
109.8130034774
 30
0.0
 40
0.4571381420088614
100
AcDbArc
 50
7.4124568466
 51
95.861155744
  0
LINE
  5
222
330
1F
100
AcDbEntity
  8
0
  6
Continuous
 62
     7
370
    25
100
AcDbLine
 10
152.4645168505
 20
125.1932550099
 30
0.0
 11
152.4645168505
 21
108.7985106703
 31
0.0
  0
LINE
  5
223
330
1F
100
AcDbEntity
  8
0
  6
Continuous
 62
     7
370
    25
100
AcDbLine
 10
154.5384262842
 20
123.9958828401
 30
0.0
 11
154.5384262842
 21
109.9958828401
 31
0.0
  0
LINE
  5
224
330
1F
100
AcDbEntity
  8
0
  6
Continuous
 62
     7
370
    25
100
AcDbLine
 10
126.9412251595
 20
124.8499771696
 30
0.0
 11
127.4088247846
 21
124.9958828401
 31
0.0
  0
SPLINE
  5
225
330
1F
100
AcDbEntity
  8
0
  6
Continuous
 62
     7
370
    25
100
AcDbSpline
210
0.0
220
0.0
230
1.0
 70
     8
 71
     3
 72
     8
 73
     4
 74
     0
 42
0.00000001
 43
0.00000001
 40
0.0
 40
0.0
 40
0.0
 40
0.0
 40
1.0
 40
1.0
 40
1.0
 40
1.0
 10
127.4088247846458
 20
124.9958828401427
 30
0.0
 10
127.4978334800342
 20
124.7106270825129
 30
0.0
 10
127.5384262841844
 20
124.418209132631
 30
0.0
 10
127.5384262841844
 20
124.1197862645302
 30
0.0
  0
LINE
  5
226
330
1F
100
AcDbEntity
  8
0
  6
Continuous
 62
     7
370
    25
100
AcDbLine
 10
127.0384262842
 20
124.1197862645
 30
0.0
 11
127.5384262842
 21
124.1197862645
 31
0.0
  0
SPLINE
  5
227
330
1F
100
AcDbEntity
  8
0
  6
Continuous
 62
     7
370
    25
100
AcDbSpline
210
0.0
220
0.0
230
1.0
 70
     8
 71
     3
 72
     8
 73
     4
 74
     0
 42
0.00000001
 43
0.00000001
 40
0.0
 40
0.0
 40
0.0
 40
0.0
 40
1.0
 40
1.0
 40
1.0
 40
1.0
 10
141.5384262841843
 20
124.1197862645302
 30
0.0
 10
141.5384262841843
 20
124.418209132631
 30
0.0
 10
141.5790190883345
 20
124.7106270825129
 30
0.0
 10
141.6680277837229
 20
124.9958828401427
 30
0.0
  0
LINE
  5
228
330
1F
100
AcDbEntity
  8
0
  6
Continuous
 62
     7
370
    25
100
AcDbLine
 10
141.6680277837
 20
124.9958828401
 30
0.0
 11
142.1356274088
 21
124.8499771696
 31
0.0
  0
LINE
  5
229
330
1F
100
AcDbEntity
  8
0
  6
Continuous
 62
     7
370
    25
100
AcDbLine
 10
141.5384262842
 20
124.1197862645
 30
0.0
 11
142.0384262842
 21
124.1197862645
 31
0.0
  0
SPLINE
  5
22A
330
1F
100
AcDbEntity
  8
0
  6
Continuous
 62
     7
370
    25
100
AcDbSpline
210
0.0
220
0.0
230
1.0
 70
     8
 71
     3
 72
     8
 73
     4
 74
     0
 42
0.00000001
 43
0.00000001
 40
0.0
 40
0.0
 40
0.0
 40
0.0
 40
1.0
 40
1.0
 40
1.0
 40
1.0
 10
127.5384262841844
 20
109.8719794157552
 30
0.0
 10
127.5384262841844
 20
109.5735565476545
 30
0.0
 10
127.4978334800342
 20
109.2811385977725
 30
0.0
 10
127.4088247846458
 20
108.9958828401427
 30
0.0
  0
LINE
  5
22B
330
1F
100
AcDbEntity
  8
0
  6
Continuous
 62
     7
370
    25
100
AcDbLine
 10
127.4088247846
 20
108.9958828401
 30
0.0
 11
126.9412251595
 21
109.1417885107
 31
0.0
  0
LINE
  5
22C
330
1F
100
AcDbEntity
  8
0
  6
Continuous
 62
     7
370
    25
100
AcDbLine
 10
127.0384262842
 20
109.8719794158
 30
0.0
 11
127.5384262842
 21
109.8719794158
 31
0.0
  0
LINE
  5
22D
330
1F
100
AcDbEntity
  8
0
  6
Continuous
 62
     7
370
    25
100
AcDbLine
 10
142.1356274088
 20
109.1417885107
 30
0.0
 11
141.6680277837
 21
108.9958828401
 31
0.0
  0
SPLINE
  5
22E
330
1F
100
AcDbEntity
  8
0
  6
Continuous
 62
     7
370
    25
100
AcDbSpline
210
0.0
220
0.0
230
1.0
 70
     8
 71
     3
 72
     8
 73
     4
 74
     0
 42
0.00000001
 43
0.00000001
 40
0.0
 40
0.0
 40
0.0
 40
0.0
 40
1.0
 40
1.0
 40
1.0
 40
1.0
 10
141.6680277837229
 20
108.9958828401427
 30
0.0
 10
141.5790190883345
 20
109.2811385977725
 30
0.0
 10
141.5384262841843
 20
109.5735565476545
 30
0.0
 10
141.5384262841843
 20
109.8719794157552
 30
0.0
  0
LINE
  5
22F
330
1F
100
AcDbEntity
  8
0
  6
Continuous
 62
     7
370
    25
100
AcDbLine
 10
142.0384262842
 20
109.8719794158
 30
0.0
 11
141.5384262842
 21
109.8719794158
 31
0.0
  0
LINE
  5
230
330
1F
100
AcDbEntity
  8
0
  6
Continuous
 62
     7
370
    25
100
AcDbLine
 10
141.5384262842
 20
123.7240138521
 30
0.0
 11
141.5384262842
 21
124.1197862645
 31
0.0
  0
LINE
  5
231
330
1F
100
AcDbEntity
  8
0
  6
Continuous
 62
     7
370
    25
100
AcDbLine
 10
127.5384262842
 20
123.7240138521
 30
0.0
 11
127.5384262842
 21
124.1197862645
 31
0.0
  0
LINE
  5
232
330
1F
100
AcDbEntity
  8
0
  6
Continuous
 62
     7
370
    25
100
AcDbLine
 10
127.5384262842
 20
109.8719794158
 30
0.0
 11
127.5384262842
 21
110.2677518282
 31
0.0
  0
LINE
  5
233
330
1F
100
AcDbEntity
  8
0
  6
Continuous
 62
     7
370
    25
100
AcDbLine
 10
141.5384262842
 20
109.8719794158
 30
0.0
 11
141.5384262842
 21
110.2677518282
 31
0.0
  0
ARC
  5
234
330
1F
100
AcDbEntity
  8
0
  6
Continuous
 62
     7
370
    25
100
AcDbCircle
 10
127.2368080077
 20
125.9751916577
 30
0.0
 40
0.4793241179194415
100
AcDbArc
 50
206.8979585986
 51
269.5422002632
  0
SPLINE
  5
235
330
1F
100
AcDbEntity
  8
0
  6
Continuous
 62
     7
370
    25
100
AcDbSpline
210
0.0
220
0.0
230
1.0
 70
     8
 71
     3
 72
    14
 73
    10
 74
     0
 42
0.00000001
 43
0.00000001
 40
0.0
 40
0.0
 40
0.0
 40
0.0
 40
0.25
 40
0.25
 40
0.5
 40
0.5
 40
0.75
 40
0.75
 40
1.0
 40
1.0
 40
1.0
 40
1.0
 10
127.4088247846458
 20
124.9958828401427
 30
0.0
 10
127.3703493010242
 20
125.0575361043702
 30
0.0
 10
127.3292603795542
 20
125.1157200496431
 30
0.0
 10
127.2499775321136
 20
125.2293853711101
 30
0.0
 10
127.2126946310032
 20
125.2830619698099
 30
0.0
 10
127.1598888716914
 20
125.3830520022565
 30
0.0
 10
127.1479196115977
 20
125.4274565024794
 30
0.0
 10
127.1679213999699
 20
125.4835163579733
 30
0.0
 10
127.1973778555222
 20
125.4958828401427
 30
0.0
 10
127.232978194715
 20
125.4958828401427
 30
0.0
  0
ARC
  5
236
330
1F
100
AcDbEntity
  8
0
  6
Continuous
 62
     7
370
    25
100
AcDbCircle
 10
141.8400445607
 20
108.0165740226
 30
0.0
 40
0.4793241179194705
100
AcDbArc
 50
26.8979585986
 51
89.5422002632
  0
SPLINE
  5
237
330
1F
100
AcDbEntity
  8
0
  6
Continuous
 62
     7
370
    25
100
AcDbSpline
210
0.0
220
0.0
230
1.0
 70
     8
 71
     3
 72
    14
 73
    10
 74
     0
 42
0.00000001
 43
0.00000001
 40
0.0
 40
0.0
 40
0.0
 40
0.0
 40
0.25
 40
0.25
 40
0.5
 40
0.5
 40
0.75
 40
0.75
 40
1.0
 40
1.0
 40
1.0
 40
1.0
 10
141.6680277837229
 20
108.9958828401427
 30
0.0
 10
141.7065032673445
 20
108.9342295759153
 30
0.0
 10
141.7475921888145
 20
108.8760456306423
 30
0.0
 10
141.8268750362551
 20
108.7623803091754
 30
0.0
 10
141.8641579373655
 20
108.7087037104756
 30
0.0
 10
141.9169636966773
 20
108.608713678029
 30
0.0
 10
141.928932956771
 20
108.564309177806
 30
0.0
 10
141.9089311683988
 20
108.5082493223122
 30
0.0
 10
141.8794747128465
 20
108.4958828401427
 30
0.0
 10
141.8438743736537
 20
108.4958828401427
 30
0.0
  0
SPLINE
  5
238
330
1F
100
AcDbEntity
  8
0
  6
Continuous
 62
     7
370
    25
100
AcDbSpline
210
0.0
220
0.0
230
1.0
 70
     8
 71
     3
 72
    16
 73
    12
 74
     0
 42
0.00000001
 43
0.00000001
 40
0.0
 40
0.0
 40
0.0
 40
0.0
 40
0.2500000000000011
 40
0.2500000000000011
 40
0.3749999999999992
 40
0.3749999999999992
 40
0.4999999999999974
 40
0.4999999999999974
 40
0.7499999999999987
 40
0.7499999999999987
 40
1.0
 40
1.0
 40
1.0
 40
1.0
 10
141.8438743736537
 20
125.4958828401427
 30
0.0
 10
141.8794283031024
 20
125.4958828401427
 30
0.0
 10
141.9087004443311
 20
125.4837510897269
 30
0.0
 10
141.923912994552
 20
125.4417293834475
 30
0.0
 10
141.9239736627255
 20
125.423515013941
 30
0.0
 10
141.9137630782482
 20
125.3815780014144
 30
0.0
 10
141.9039797487229
 20
125.3585504379201
 30
0.0
 10
141.864815200191
 20
125.2841417591481
 30
0.0
 10
141.8269421269177
 20
125.2294838829656
 30
0.0
 10
141.7478691539262
 20
125.1161148097869
 30
0.0
 10
141.7064820213353
 20
125.0575020596827
 30
0.0
 10
141.6680277837229
 20
124.9958828401427
 30
0.0
  0
ARC
  5
239
330
1F
100
AcDbEntity
  8
0
  6
Continuous
 62
     7
370
    25
100
AcDbCircle
 10
141.8400445607
 20
125.9751916577
 30
0.0
 40
0.479324117919513
100
AcDbArc
 50
270.4577997368
 51
333.1020414014
  0
SPLINE
  5
23A
330
1F
100
AcDbEntity
  8
0
  6
Continuous
 62
     7
370
    25
100
AcDbSpline
210
0.0
220
0.0
230
1.0
 70
     8
 71
     3
 72
    16
 73
    12
 74
     0
 42
0.00000001
 43
0.00000001
 40
0.0
 40
0.0
 40
0.0
 40
0.0
 40
0.2500000000000049
 40
0.2500000000000049
 40
0.3750000000000051
 40
0.3750000000000051
 40
0.5000000000000052
 40
0.5000000000000052
 40
0.7500000000000026
 40
0.7500000000000026
 40
1.0
 40
1.0
 40
1.0
 40
1.0
 10
127.232978194715
 20
108.4958828401427
 30
0.0
 10
127.1974242652663
 20
108.4958828401427
 30
0.0
 10
127.1681521240376
 20
108.5080145905585
 30
0.0
 10
127.1529395738167
 20
108.550036296838
 30
0.0
 10
127.1528789056432
 20
108.5682506663445
 30
0.0
 10
127.1630894901205
 20
108.6101876788711
 30
0.0
 10
127.1728728196458
 20
108.6332152423653
 30
0.0
 10
127.2120373681777
 20
108.7076239211374
 30
0.0
 10
127.249910441451
 20
108.7622817973199
 30
0.0
 10
127.3289834144426
 20
108.8756508704986
 30
0.0
 10
127.3703705470334
 20
108.9342636206028
 30
0.0
 10
127.4088247846458
 20
108.9958828401427
 30
0.0
  0
ARC
  5
23B
330
1F
100
AcDbEntity
  8
0
  6
Continuous
 62
     7
370
    25
100
AcDbCircle
 10
127.2368080077
 20
108.0165740226
 30
0.0
 40
0.4793241179195051
100
AcDbArc
 50
90.4577997368
 51
153.1020414014
  0
LINE
  5
23C
330
1F
100
AcDbEntity
  8
0
  6
Continuous
 62
     7
370
    25
100
AcDbLine
 10
141.6680277837
 20
124.9958828401
 30
0.0
 11
127.4088247846
 21
124.9958828401
 31
0.0
  0
LINE
  5
23D
330
1F
100
AcDbEntity
  8
0
  6
Continuous
 62
     7
370
    25
100
AcDbLine
 10
127.2329781947
 20
125.4958828401
 30
0.0
 11
141.8438743737
 21
125.4958828401
 31
0.0
  0
LINE
  5
23E
330
1F
100
AcDbEntity
  8
0
  6
Continuous
 62
     7
370
    25
100
AcDbLine
 10
127.4088247846
 20
108.9958828401
 30
0.0
 11
141.6680277837
 21
108.9958828401
 31
0.0
  0
LINE
  5
23F
330
1F
100
AcDbEntity
  8
0
  6
Continuous
 62
     7
370
    25
100
AcDbLine
 10
141.8438743737
 20
108.4958828401
 30
0.0
 11
127.2329781947
 21
108.4958828401
 31
0.0
  0
ARC
  5
240
330
1F
100
AcDbEntity
  8
0
  6
Continuous
 62
     7
370
    25
100
AcDbCircle
 10
141.5384262842
 20
125.9958828401
 30
0.0
 40
0.5
100
AcDbArc
 50
270.0
 51
0.0
  0
ARC
  5
241
330
1F
100
AcDbEntity
  8
0
  6
Continuous
 62
     7
370
    25
100
AcDbCircle
 10
127.5384262842
 20
125.9958828401
 30
0.0
 40
0.5
100
AcDbArc
 50
180.0
 51
270.0
  0
ARC
  5
242
330
1F
100
AcDbEntity
  8
0
  6
Continuous
 62
     7
370
    25
100
AcDbCircle
 10
141.5384262842
 20
107.9958828401
 30
0.0
 40
0.5
100
AcDbArc
 50
0.0
 51
90.0
  0
ARC
  5
243
330
1F
100
AcDbEntity
  8
0
  6
Continuous
 62
     7
370
    25
100
AcDbCircle
 10
127.5384262842
 20
107.9958828401
 30
0.0
 40
0.5
100
AcDbArc
 50
90.0
 51
180.0
  0
SPLINE
  5
244
330
1F
100
AcDbEntity
  8
0
  6
Continuous
 62
     7
370
    25
100
AcDbSpline
210
0.0
220
0.0
230
1.0
 70
     8
 71
     3
 72
    15
 73
    11
 74
     0
 42
0.00000001
 43
0.00000001
 40
0.0
 40
0.0
 40
0.0
 40
0.0
 40
0.0081667445812695
 40
0.3321939991490083
 40
0.4756279600585602
 40
0.6866830973284899
 40
0.8457435502264811
 40
0.8967566214763185
 40
0.9909540928118029
 40
1.0
 40
1.0
 40
1.0
 40
1.0
 10
139.6374457977772
 20
118.2458828401427
 30
0.0
 10
139.63793333192
 20
118.2473203030818
 30
0.0
 10
139.6577644794521
 20
118.3057911610335
 30
0.0
 10
139.6860452594614
 20
118.3902163387529
 30
0.0
 10
139.7238745579502
 20
118.5047954107754
 30
0.0
 10
139.7504584545177
 20
118.586166297972
 30
0.0
 10
139.7676282782727
 20
118.6391852899736
 30
0.0
 10
139.7754452744891
 20
118.6633872218178
 30
0.0
 10
139.777440960925
 20
118.669576842484
 30
0.0
 10
139.7775059248758
 20
118.6697782378965
 30
0.0
 10
139.7775116168424
 20
118.669795883621
 30
0.0
  0
ARC
  5
245
330
1F
100
AcDbEntity
  8
0
  6
Continuous
 62
     7
370
    25
100
AcDbCircle
 10
134.5384262842
 20
116.9958828401
 30
0.0
 40
5.250000000000009
100
AcDbArc
 50
13.774146998
 51
166.225853002
  0
SPLINE
  5
246
330
1F
100
AcDbEntity
  8
0
  6
Continuous
 62
     7
370
    25
100
AcDbSpline
210
0.0
220
0.0
230
1.0
 70
     8
 71
     3
 72
    15
 73
    11
 74
     0
 42
0.00000001
 43
0.00000001
 40
0.0
 40
0.0
 40
0.0
 40
0.0
 40
0.0090459071881971
 40
0.1032433785236875
 40
0.1542564497735192
 40
0.3133169026715104
 40
0.5243720399414421
 40
0.66780600085099
 40
0.9918332554187291
 40
1.0
 40
1.0
 40
1.0
 40
1.0
 10
129.2993409515262
 20
118.669795883621
 30
0.0
 10
129.2993466434929
 20
118.6697782378965
 30
0.0
 10
129.2994116074437
 20
118.669576842484
 30
0.0
 10
129.3014072938796
 20
118.6633872218178
 30
0.0
 10
129.3092242900961
 20
118.6391852899736
 30
0.0
 10
129.326394113851
 20
118.586166297972
 30
0.0
 10
129.3529780104185
 20
118.5047954107754
 30
0.0
 10
129.3908073089073
 20
118.3902163387529
 30
0.0
 10
129.4190880889166
 20
118.3057911610335
 30
0.0
 10
129.4389192364487
 20
118.2473203030818
 30
0.0
 10
129.4394067705916
 20
118.2458828401427
 30
0.0
  0
ARC
  5
247
330
1F
100
AcDbEntity
  8
0
  6
Continuous
 62
     7
370
    25
100
AcDbCircle
 10
134.5384262842
 20
116.9958828401
 30
0.0
 40
5.500000000000025
100
AcDbArc
 50
17.7189318734
 51
162.2810681266
  0
SPLINE
  5
248
330
1F
100
AcDbEntity
  8
0
  6
Continuous
 62
     7
370
    25
100
AcDbSpline
210
0.0
220
0.0
230
1.0
 70
     8
 71
     3
 72
    15
 73
    11
 74
     0
 42
0.00000001
 43
0.00000001
 40
0.0
 40
0.0
 40
0.0
 40
0.0
 40
0.0089557228015919
 40
0.099900335960821
 40
0.1531632460581752
 40
0.3125636920784863
 40
0.5249666935695052
 40
0.6689893599351772
 40
0.991915253381045
 40
1.0
 40
1.0
 40
1.0
 40
1.0
 10
129.0612007091327
 20
115.4958828401427
 30
0.0
 10
129.0612164647113
 20
115.4958936245059
 30
0.0
 10
129.0613922168679
 20
115.4960139231714
 30
0.0
 10
129.0668212328874
 20
115.4997323740895
 30
0.0
 10
129.0883567165947
 20
115.5144434151558
 30
0.0
 10
129.1360621448595
 20
115.5468922766143
 30
0.0
 10
129.2084530898514
 20
115.5954763169578
 30
0.0
 10
129.3103722018691
 20
115.6628467892261
 30
0.0
 10
129.3857272933242
 20
115.71166035396
 30
0.0
 10
129.4381269390474
 20
115.7450669041544
 30
0.0
 10
129.4394067705916
 20
115.7458828401427
 30
0.0
  0
SPLINE
  5
249
330
1F
100
AcDbEntity
  8
0
  6
Continuous
 62
     7
370
    25
100
AcDbSpline
210
0.0
220
0.0
230
1.0
 70
     8
 71
     3
 72
    15
 73
    11
 74
     0
 42
0.00000001
 43
0.00000001
 40
0.0
 40
0.0
 40
0.0
 40
0.0
 40
0.0081667445812973
 40
0.3321939991490806
 40
0.4756279600585563
 40
0.6866830973284899
 40
0.8457435502264806
 40
0.8967566214763123
 40
0.9909540928118028
 40
1.0
 40
1.0
 40
1.0
 40
1.0
 10
129.4394067705916
 20
115.7458828401427
 30
0.0
 10
129.4389192364487
 20
115.7444453772037
 30
0.0
 10
129.4190880889174
 20
115.6859745192517
 30
0.0
 10
129.3908073089072
 20
115.6015493415325
 30
0.0
 10
129.3529780104186
 20
115.4869702695101
 30
0.0
 10
129.326394113851
 20
115.4055993823135
 30
0.0
 10
129.3092242900961
 20
115.3525803903118
 30
0.0
 10
129.3014072938796
 20
115.3283784584677
 30
0.0
 10
129.2994116074437
 20
115.3221888378015
 30
0.0
 10
129.2993466434929
 20
115.3219874423889
 30
0.0
 10
129.2993409515262
 20
115.3219697966645
 30
0.0
  0
ARC
  5
24A
330
1F
100
AcDbEntity
  8
0
  6
Continuous
 62
     7
370
    25
100
AcDbCircle
 10
129.0612007091
 20
115.2458828401
 30
0.0
 40
0.25
100
AcDbArc
 50
17.7189318734
 51
90.0
  0
ARC
  5
24B
330
1F
100
AcDbEntity
  8
0
  6
Continuous
 62
     7
370
    25
100
AcDbCircle
 10
140.0156518592
 20
118.7458828401
 30
0.0
 40
0.2500000000000169
100
AcDbArc
 50
197.7189318734
 51
270.0
  0
SPLINE
  5
24C
330
1F
100
AcDbEntity
  8
0
  6
Continuous
 62
     7
370
    25
100
AcDbSpline
210
0.0
220
0.0
230
1.0
 70
     8
 71
     3
 72
    15
 73
    11
 74
     0
 42
0.00000001
 43
0.00000001
 40
0.0
 40
0.0
 40
0.0
 40
0.0
 40
0.0089557228015919
 40
0.0999003359608148
 40
0.153163246058169
 40
0.3125636920784848
 40
0.5249666935694999
 40
0.6689893599352451
 40
0.9919152533810159
 40
1.0
 40
1.0
 40
1.0
 40
1.0
 10
140.015651859236
 20
118.4958828401427
 30
0.0
 10
140.0156361036574
 20
118.4958720557796
 30
0.0
 10
140.0154603515008
 20
118.4957517571141
 30
0.0
 10
140.0100313354813
 20
118.4920333061959
 30
0.0
 10
139.988495851774
 20
118.4773222651297
 30
0.0
 10
139.9407904235092
 20
118.4448734036711
 30
0.0
 10
139.8683994785173
 20
118.3962893633277
 30
0.0
 10
139.7664803664995
 20
118.3289188910595
 30
0.0
 10
139.691125275045
 20
118.2801053263247
 30
0.0
 10
139.6387256293213
 20
118.246698776131
 30
0.0
 10
139.6374457977772
 20
118.2458828401427
 30
0.0
  0
ARC
  5
24D
330
1F
100
AcDbEntity
  8
0
  6
Continuous
 62
     7
370
    25
100
AcDbCircle
 10
129.0612007091
 20
118.7458828401
 30
0.0
 40
0.25
100
AcDbArc
 50
270.0
 51
342.2810681266
  0
SPLINE
  5
24E
330
1F
100
AcDbEntity
  8
0
  6
Continuous
 62
     7
370
    25
100
AcDbSpline
210
0.0
220
0.0
230
1.0
 70
     8
 71
     3
 72
    15
 73
    11
 74
     0
 42
0.00000001
 43
0.00000001
 40
0.0
 40
0.0
 40
0.0
 40
0.0
 40
0.0080847466189818
 40
0.3310106400647572
 40
0.4750333064304998
 40
0.6874363079215141
 40
0.8468367539418309
 40
0.9000996640391852
 40
0.991044277198408
 40
1.0
 40
1.0
 40
1.0
 40
1.0
 10
129.4394067705916
 20
118.2458828401427
 30
0.0
 10
129.4381269390474
 20
118.246698776131
 30
0.0
 10
129.3857272933236
 20
118.2801053263246
 30
0.0
 10
129.3103722018692
 20
118.3289188910595
 30
0.0
 10
129.2084530898514
 20
118.3962893633277
 30
0.0
 10
129.1360621448596
 20
118.4448734036711
 30
0.0
 10
129.0883567165947
 20
118.4773222651297
 30
0.0
 10
129.0668212328874
 20
118.4920333061959
 30
0.0
 10
129.0613922168679
 20
118.4957517571141
 30
0.0
 10
129.0612164647113
 20
118.4958720557796
 30
0.0
 10
129.0612007091327
 20
118.4958828401427
 30
0.0
  0
SPLINE
  5
24F
330
1F
100
AcDbEntity
  8
0
  6
Continuous
 62
     7
370
    25
100
AcDbSpline
210
0.0
220
0.0
230
1.0
 70
     8
 71
     3
 72
    15
 73
    11
 74
     0
 42
0.00000001
 43
0.00000001
 40
0.0
 40
0.0
 40
0.0
 40
0.0
 40
0.0090459071881971
 40
0.1032433785236876
 40
0.1542564497735193
 40
0.3133169026715103
 40
0.524372039941443
 40
0.6678060008509185
 40
0.9918332554187027
 40
0.9999999999999999
 40
0.9999999999999999
 40
0.9999999999999999
 40
0.9999999999999999
 10
139.7775116168424
 20
115.3219697966645
 30
0.0
 10
139.7775059248758
 20
115.3219874423889
 30
0.0
 10
139.777440960925
 20
115.3221888378015
 30
0.0
 10
139.7754452744891
 20
115.3283784584677
 30
0.0
 10
139.7676282782727
 20
115.3525803903118
 30
0.0
 10
139.7504584545177
 20
115.4055993823135
 30
0.0
 10
139.7238745579502
 20
115.4869702695101
 30
0.0
 10
139.6860452594615
 20
115.6015493415325
 30
0.0
 10
139.6577644794513
 20
115.6859745192517
 30
0.0
 10
139.63793333192
 20
115.7444453772037
 30
0.0
 10
139.6374457977772
 20
115.7458828401427
 30
0.0
  0
ARC
  5
250
330
1F
100
AcDbEntity
  8
0
  6
Continuous
 62
     7
370
    25
100
AcDbCircle
 10
134.5384262842
 20
116.9958828401
 30
0.0
 40
5.500000000000025
100
AcDbArc
 50
197.7189318734
 51
342.2810681266
  0
ARC
  5
251
330
1F
100
AcDbEntity
  8
0
  6
Continuous
 62
     7
370
    25
100
AcDbCircle
 10
134.5384262842
 20
116.9958828401
 30
0.0
 40
5.250000000000009
100
AcDbArc
 50
193.774146998
 51
346.225853002
  0
SPLINE
  5
252
330
1F
100
AcDbEntity
  8
0
  6
Continuous
 62
     7
370
    25
100
AcDbSpline
210
0.0
220
0.0
230
1.0
 70
     8
 71
     3
 72
    15
 73
    11
 74
     0
 42
0.00000001
 43
0.00000001
 40
0.0
 40
0.0
 40
0.0
 40
0.0
 40
0.0080847466189581
 40
0.3310106400648243
 40
0.4750333064304945
 40
0.6874363079215134
 40
0.8468367539418247
 40
0.9000996640391788
 40
0.991044277198408
 40
1.0
 40
1.0
 40
1.0
 40
1.0
 10
139.6374457977772
 20
115.7458828401427
 30
0.0
 10
139.6387256293212
 20
115.7450669041544
 30
0.0
 10
139.6911252750445
 20
115.7116603539599
 30
0.0
 10
139.7664803664996
 20
115.6628467892261
 30
0.0
 10
139.8683994785173
 20
115.5954763169578
 30
0.0
 10
139.9407904235092
 20
115.5468922766143
 30
0.0
 10
139.988495851774
 20
115.5144434151558
 30
0.0
 10
140.0100313354813
 20
115.4997323740895
 30
0.0
 10
140.0154603515008
 20
115.4960139231714
 30
0.0
 10
140.0156361036574
 20
115.4958936245059
 30
0.0
 10
140.015651859236
 20
115.4958828401427
 30
0.0
  0
ARC
  5
253
330
1F
100
AcDbEntity
  8
0
  6
Continuous
 62
     7
370
    25
100
AcDbCircle
 10
140.0156518592
 20
115.2458828401
 30
0.0
 40
0.2500000000000169
100
AcDbArc
 50
90.0
 51
162.2810681266
  0
LINE
  5
254
330
1F
100
AcDbEntity
  8
0
  6
Continuous
 62
     7
370
    25
100
AcDbLine
 10
129.5384262842
 20
116.3958828401
 30
0.0
 11
139.5384262842
 21
116.3958828401
 31
0.0
  0
LINE
  5
255
330
1F
100
AcDbEntity
  8
0
  6
Continuous
 62
     7
370
    25
100
AcDbLine
 10
139.5384262842
 20
116.3958828401
 30
0.0
 11
139.5384262842
 21
117.5958828401
 31
0.0
  0
LINE
  5
256
330
1F
100
AcDbEntity
  8
0
  6
Continuous
 62
     7
370
    25
100
AcDbLine
 10
129.5384262842
 20
117.5958828401
 30
0.0
 11
129.5384262842
 21
116.3958828401
 31
0.0
  0
LINE
  5
257
330
1F
100
AcDbEntity
  8
0
  6
Continuous
 62
     7
370
    25
100
AcDbLine
 10
139.5384262842
 20
117.5958828401
 30
0.0
 11
129.5384262842
 21
117.5958828401
 31
0.0
  0
LINE
  5
258
330
1F
100
AcDbEntity
  8
0
  6
Continuous
 62
     7
370
    25
100
AcDbLine
 10
140.2884262842
 20
118.2458828401
 30
0.0
 11
139.6374457978
 21
118.2458828401
 31
0.0
  0
LINE
  5
259
330
1F
100
AcDbEntity
  8
0
  6
Continuous
 62
     7
370
    25
100
AcDbLine
 10
140.2884262842
 20
115.7458828401
 30
0.0
 11
140.2884262842
 21
118.2458828401
 31
0.0
  0
LINE
  5
25A
330
1F
100
AcDbEntity
  8
0
  6
Continuous
 62
     7
370
    25
100
AcDbLine
 10
139.6374457978
 20
115.7458828401
 30
0.0
 11
140.2884262842
 21
115.7458828401
 31
0.0
  0
LINE
  5
25B
330
1F
100
AcDbEntity
  8
0
  6
Continuous
 62
     7
370
    25
100
AcDbLine
 10
128.7884262842
 20
115.7458828401
 30
0.0
 11
129.4394067706
 21
115.7458828401
 31
0.0
  0
LINE
  5
25C
330
1F
100
AcDbEntity
  8
0
  6
Continuous
 62
     7
370
    25
100
AcDbLine
 10
128.7884262842
 20
118.2458828401
 30
0.0
 11
128.7884262842
 21
115.7458828401
 31
0.0
  0
LINE
  5
25D
330
1F
100
AcDbEntity
  8
0
  6
Continuous
 62
     7
370
    25
100
AcDbLine
 10
129.4394067706
 20
118.2458828401
 30
0.0
 11
128.7884262842
 21
118.2458828401
 31
0.0
  0
LINE
  5
25E
330
1F
100
AcDbEntity
  8
0
  6
Continuous
 62
     7
370
    25
100
AcDbLine
 10
140.2884262842
 20
118.2458828401
 30
0.0
 11
140.2884262842
 21
118.4958828401
 31
0.0
  0
LINE
  5
25F
330
1F
100
AcDbEntity
  8
0
  6
Continuous
 62
     7
370
    25
100
AcDbLine
 10
140.0156518592
 20
118.4958828401
 30
0.0
 11
140.2884262842
 21
118.4958828401
 31
0.0
  0
ARC
  5
260
330
1F
100
AcDbEntity
  8
0
  6
Continuous
 62
     7
370
    25
100
AcDbCircle
 10
140.2884262842
 20
118.2458828401
 30
0.0
 40
0.25
100
AcDbArc
 50
0.0
 51
90.0
  0
LINE
  5
261
330
1F
100
AcDbEntity
  8
0
  6
Continuous
 62
     7
370
    25
100
AcDbLine
 10
140.5384262842
 20
118.2458828401
 30
0.0
 11
140.2884262842
 21
118.2458828401
 31
0.0
  0
LINE
  5
262
330
1F
100
AcDbEntity
  8
0
  6
Continuous
 62
     7
370
    25
100
AcDbLine
 10
128.7884262842
 20
118.4958828401
 30
0.0
 11
128.7884262842
 21
118.2458828401
 31
0.0
  0
LINE
  5
263
330
1F
100
AcDbEntity
  8
0
  6
Continuous
 62
     7
370
    25
100
AcDbLine
 10
128.7884262842
 20
118.4958828401
 30
0.0
 11
129.0612007091
 21
118.4958828401
 31
0.0
  0
LINE
  5
264
330
1F
100
AcDbEntity
  8
0
  6
Continuous
 62
     7
370
    25
100
AcDbLine
 10
128.7884262842
 20
118.2458828401
 30
0.0
 11
128.5384262842
 21
118.2458828401
 31
0.0
  0
ARC
  5
265
330
1F
100
AcDbEntity
  8
0
  6
Continuous
 62
     7
370
    25
100
AcDbCircle
 10
128.7884262842
 20
118.2458828401
 30
0.0
 40
0.25
100
AcDbArc
 50
90.0
 51
180.0
  0
LINE
  5
266
330
1F
100
AcDbEntity
  8
0
  6
Continuous
 62
     7
370
    25
100
AcDbLine
 10
140.5384262842
 20
118.2458828401
 30
0.0
 11
140.5384262842
 21
115.7458828401
 31
0.0
  0
LINE
  5
267
330
1F
100
AcDbEntity
  8
0
  6
Continuous
 62
     7
370
    25
100
AcDbLine
 10
140.2884262842
 20
115.7458828401
 30
0.0
 11
140.5384262842
 21
115.7458828401
 31
0.0
  0
LINE
  5
268
330
1F
100
AcDbEntity
  8
0
  6
Continuous
 62
     7
370
    25
100
AcDbLine
 10
128.5384262842
 20
115.7458828401
 30
0.0
 11
128.7884262842
 21
115.7458828401
 31
0.0
  0
LINE
  5
269
330
1F
100
AcDbEntity
  8
0
  6
Continuous
 62
     7
370
    25
100
AcDbLine
 10
128.5384262842
 20
115.7458828401
 30
0.0
 11
128.5384262842
 21
118.2458828401
 31
0.0
  0
LINE
  5
26A
330
1F
100
AcDbEntity
  8
0
  6
Continuous
 62
     7
370
    25
100
AcDbLine
 10
128.7884262842
 20
115.7458828401
 30
0.0
 11
128.7884262842
 21
115.4958828401
 31
0.0
  0
ARC
  5
26B
330
1F
100
AcDbEntity
  8
0
  6
Continuous
 62
     7
370
    25
100
AcDbCircle
 10
128.7884262842
 20
115.7458828401
 30
0.0
 40
0.25
100
AcDbArc
 50
180.0
 51
270.0
  0
ARC
  5
26C
330
1F
100
AcDbEntity
  8
0
  6
Continuous
 62
     7
370
    25
100
AcDbCircle
 10
140.2884262842
 20
115.7458828401
 30
0.0
 40
0.25
100
AcDbArc
 50
270.0
 51
0.0
  0
LINE
  5
26D
330
1F
100
AcDbEntity
  8
0
  6
Continuous
 62
     7
370
    25
100
AcDbLine
 10
140.2884262842
 20
115.4958828401
 30
0.0
 11
140.2884262842
 21
115.7458828401
 31
0.0
  0
LINE
  5
26E
330
1F
100
AcDbEntity
  8
0
  6
Continuous
 62
     7
370
    25
100
AcDbLine
 10
140.2884262842
 20
115.4958828401
 30
0.0
 11
140.0156518592
 21
115.4958828401
 31
0.0
  0
LINE
  5
26F
330
1F
100
AcDbEntity
  8
0
  6
Continuous
 62
     7
370
    25
100
AcDbLine
 10
129.0612007091
 20
115.4958828401
 30
0.0
 11
128.7884262842
 21
115.4958828401
 31
0.0
  0
LINE
  5
270
330
1F
100
AcDbEntity
  8
0
  6
Continuous
 62
     7
370
    25
100
AcDbLine
 10
114.5384262842
 20
113.7241835761
 30
0.0
 11
114.5384262842
 21
120.2675821042
 31
0.0
  0
LINE
  5
271
330
1F
100
AcDbEntity
  8
0
  6
Continuous
 62
     7
370
    25
100
AcDbLine
 10
112.3629894226
 20
113.4958828401
 30
0.0
 11
114.5384262842
 21
113.7241835761
 31
0.0
  0
LINE
  5
272
330
1F
100
AcDbEntity
  8
0
  6
Continuous
 62
     7
370
    25
100
AcDbLine
 10
94.5384262842
 20
113.4958828401
 30
0.0
 11
112.3629894226
 21
113.4958828401
 31
0.0
  0
LINE
  5
273
330
1F
100
AcDbEntity
  8
0
  6
Continuous
 62
     7
370
    25
100
AcDbLine
 10
94.5384262842
 20
120.4958828401
 30
0.0
 11
94.5384262842
 21
113.4958828401
 31
0.0
  0
LINE
  5
274
330
1F
100
AcDbEntity
  8
0
  6
Continuous
 62
     7
370
    25
100
AcDbLine
 10
112.3629894226
 20
120.4958828401
 30
0.0
 11
94.5384262842
 21
120.4958828401
 31
0.0
  0
LINE
  5
275
330
1F
100
AcDbEntity
  8
0
  6
Continuous
 62
     7
370
    25
100
AcDbLine
 10
114.5384262842
 20
120.2675821042
 30
0.0
 11
112.3629894226
 21
120.4958828401
 31
0.0
  0
LINE
  5
276
330
1F
100
AcDbEntity
  8
0
  6
Continuous
 62
     7
370
    25
100
AcDbLine
 10
129.3146241098
 20
118.716897321
 30
0.0
 11
129.1862150712
 21
118.5327556875
 31
0.0
  0
LINE
  5
277
330
1F
100
AcDbEntity
  8
0
  6
Continuous
 62
     7
370
    25
100
AcDbLine
 10
129.1957824119
 20
115.4506651728
 30
0.0
 11
129.3146241098
 21
115.2748683593
 31
0.0
  0
LINE
  5
278
330
1F
100
AcDbEntity
  8
0
  6
Continuous
 62
     7
370
    25
100
AcDbLine
 10
121.1218566306
 20
119.5766854757
 30
0.0
 11
121.1218566306
 21
114.4150802046
 31
0.0
  0
LINE
  5
279
330
1F
100
AcDbEntity
  8
0
  6
Continuous
 62
     7
370
    25
100
AcDbLine
 10
129.3146241098
 20
115.2748683593
 30
0.0
 11
121.1218566306
 21
114.4150802046
 31
0.0
  0
LINE
  5
27A
330
1F
100
AcDbEntity
  8
0
  6
Continuous
 62
     7
370
    25
100
AcDbLine
 10
121.1218566306
 20
119.5766854757
 30
0.0
 11
129.3146241098
 21
118.716897321
 31
0.0
  0
LINE
  5
27B
330
1F
100
AcDbEntity
  8
0
  6
Continuous
 62
     7
370
    25
100
AcDbLine
 10
121.1218566306
 20
114.4150802046
 30
0.0
 11
114.5384262842
 21
113.7241835761
 31
0.0
  0
LINE
  5
27C
330
1F
100
AcDbEntity
  8
0
  6
Continuous
 62
     7
370
    25
100
AcDbLine
 10
114.5384262842
 20
120.2675821042
 30
0.0
 11
121.1218566306
 21
119.5766854757
 31
0.0
  0
ARC
  5
27D
330
1F
100
AcDbEntity
  8
0
  6
Continuous
 62
     7
370
    25
100
AcDbCircle
 10
134.5384262842
 20
116.9958828401
 30
0.0
 40
7.450000000000662
100
AcDbArc
 50
233.0863788866
 51
126.9136211134
  0
ARC
  5
27E
330
1F
100
AcDbEntity
  8
0
  6
Continuous
 62
     7
370
    25
100
AcDbCircle
 10
134.5384262842
 20
116.9958828401
 30
0.0
 40
7.207531252870793
100
AcDbArc
 50
195.3041237151
 51
238.9797515565
  0
ARC
  5
27F
330
1F
100
AcDbEntity
  8
0
  6
Continuous
 62
     7
370
    25
100
AcDbCircle
 10
134.5384262842
 20
116.9958828401
 30
0.0
 40
7.207531252872458
100
AcDbArc
 50
121.0202484435
 51
164.6958762849
  0
ARC
  5
280
330
1F
100
AcDbEntity
  8
0
  6
Continuous
 62
     7
370
    25
100
AcDbCircle
 10
112.3629894226
 20
185.4958828401
 30
0.0
 40
64.99999999999999
100
AcDbArc
 50
270.0
 51
286.5000949923
  0
ARC
  5
281
330
1F
100
AcDbEntity
  8
0
  6
Continuous
 62
     7
370
    25
100
AcDbCircle
 10
112.3629894226
 20
48.4958828401
 30
0.0
 40
65.0
100
AcDbArc
 50
73.4999050077
 51
90.0
  0
LINE
  5
282
330
1F
100
AcDbEntity
  8
0
  6
Continuous
 62
     7
370
    25
100
AcDbLine
 10
127.5384262842
 20
123.7240138521
 30
0.0
 11
127.5384262842
 21
122.2921953207
 31
0.0
  0
LINE
  5
283
330
1F
100
AcDbEntity
  8
0
  6
Continuous
 62
     7
370
    25
100
AcDbLine
 10
127.5384262842
 20
111.6995703596
 30
0.0
 11
127.5384262842
 21
110.2677518282
 31
0.0
  0
LINE
  5
284
330
1F
100
AcDbEntity
  8
0
  6
Continuous
 62
     7
370
    25
100
AcDbLine
 10
141.5384262842
 20
110.2677518282
 30
0.0
 11
141.5384262842
 21
114.4458828401
 31
0.0
  0
LINE
  5
285
330
1F
100
AcDbEntity
  8
0
  6
Continuous
 62
     7
370
    25
100
AcDbLine
 10
141.5384262842
 20
119.5458828402
 30
0.0
 11
141.5384262842
 21
123.7240138521
 31
0.0
  0
LINE
  5
286
330
1F
100
AcDbEntity
  8
0
  6
Continuous
 62
     7
370
    25
100
AcDbLine
 10
141.5384262842
 20
123.7240138521
 30
0.0
 11
137.7376063489
 21
123.7240138521
 31
0.0
  0
LINE
  5
287
330
1F
100
AcDbEntity
  8
0
  6
Continuous
 62
     7
370
    25
100
AcDbLine
 10
131.3392462195
 20
123.7240138521
 30
0.0
 11
127.5384262842
 21
123.7240138521
 31
0.0
  0
LINE
  5
288
330
1F
100
AcDbEntity
  8
0
  6
Continuous
 62
     7
370
    25
100
AcDbLine
 10
127.5384262842
 20
110.2677518282
 30
0.0
 11
131.3392462195
 21
110.2677518282
 31
0.0
  0
LINE
  5
289
330
1F
100
AcDbEntity
  8
0
  6
Continuous
 62
     7
370
    25
100
AcDbLine
 10
137.7376063489
 20
110.2677518282
 30
0.0
 11
141.5384262842
 21
110.2677518282
 31
0.0
  0
LINE
  5
28A
330
1F
100
AcDbEntity
  8
0
  6
Continuous
 62
     7
370
    25
100
AcDbLine
 10
127.5384262842
 20
124.1197862645
 30
0.0
 11
132.3584033485
 21
124.1197862645
 31
0.0
  0
LINE
  5
28B
330
1F
100
AcDbEntity
  8
0
  6
Continuous
 62
     7
370
    25
100
AcDbLine
 10
136.7184492199
 20
124.1197862645
 30
0.0
 11
141.5384262842
 21
124.1197862645
 31
0.0
  0
LINE
  5
28C
330
1F
100
AcDbEntity
  8
0
  6
Continuous
 62
     7
370
    25
100
AcDbLine
 10
141.5384262842
 20
109.8719794158
 30
0.0
 11
136.7184492199
 21
109.8719794158
 31
0.0
  0
LINE
  5
28D
330
1F
100
AcDbEntity
  8
0
  6
Continuous
 62
     7
370
    25
100
AcDbLine
 10
132.3584033485
 20
109.8719794158
 30
0.0
 11
127.5384262842
 21
109.8719794158
 31
0.0
  0
INSERT
  5
299
330
1F
100
AcDbEntity
  8
FORMAT
100
AcDbBlockReference
  2
SW_CENTERMARKSYMBOL_1
 10
134.5384262842
 20
116.9958828401
 30
0.0
  0
LINE
  5
29A
330
1F
100
AcDbEntity
  8
FORMAT
100
AcDbLine
 10
153.7872998824
 20
109.5622198099
 30
0.0
 11
145.0384262842
 21
109.2888175099
 31
0.0
  0
LINE
  5
29B
330
1F
100
AcDbEntity
  8
FORMAT
100
AcDbLine
 10
153.7872998824
 20
124.4295458704
 30
0.0
 11
145.0384262842
 21
124.7029481703
 31
0.0
  0
LINE
  5
29C
330
1F
100
AcDbEntity
  8
FORMAT
100
AcDbLine
 10
145.0384262842
 20
125.4253203401
 30
0.0
 11
145.0384262842
 21
108.5664453401
 31
0.0
  0
ENDSEC
  0
SECTION
  2
OBJECTS
  0
DICTIONARY
  5
C
330
0
100
AcDbDictionary
281
     1
  3
ACAD_GROUP
350
D
  3
ACAD_LAYOUT
350
1A
  3
ACAD_MLINESTYLE
350
17
  3
ACAD_PLOTSETTINGS
350
19
  3
ACAD_PLOTSTYLENAME
350
E
  3
ACAD_SCALELIST
350
47
  3
DWGPROPS
350
29D
  0
DICTIONARY
  5
D
102
{ACAD_REACTORS
330
C
102
}
330
C
100
AcDbDictionary
281
     1
  0
DICTIONARY
  5
1A
102
{ACAD_REACTORS
330
C
102
}
330
C
100
AcDbDictionary
281
     1
  3
Layout1
350
1E
  3
Layout2
350
26
  3
Model
350
22
  0
DICTIONARY
  5
17
102
{ACAD_REACTORS
330
C
102
}
330
C
100
AcDbDictionary
281
     1
  3
Standard
350
18
  0
DICTIONARY
  5
19
102
{ACAD_REACTORS
330
C
102
}
330
C
100
AcDbDictionary
281
     1
  0
ACDBDICTIONARYWDFLT
  5
E
102
{ACAD_REACTORS
330
C
102
}
330
C
100
AcDbDictionary
281
     1
  3
Normal
350
F
100
AcDbDictionaryWithDefault
340
F
  0
DICTIONARY
  5
47
102
{ACAD_REACTORS
330
C
102
}
330
C
100
AcDbDictionary
281
     1
  3
A0
350
48
  3
A1
350
49
  3
A2
350
4A
  3
A3
350
4B
  3
A4
350
4C
  3
A5
350
4D
  3
A6
350
4E
  3
A7
350
4F
  3
A8
350
50
  3
A9
350
51
  3
B0
350
52
  3
B1
350
53
  3
B2
350
54
  3
B3
350
55
  3
B4
350
56
  3
B5
350
57
  3
B6
350
58
  0
XRECORD
  5
29D
102
{ACAD_REACTORS
330
C
102
}
330
C
100
AcDbXrecord
280
     1
  1
DWGPROPS COOKIE
  2

  3

  4

  6

  7

  8
user28
  9

300
=
301
=
302
=
303
=
304
=
305
=
306
=
307
=
308
=
309
=
 40
0.0
 41
2460406.338977384
 42
2460406.338978114
  1

 90
        0
  0
LAYOUT
  5
1E
102
{ACAD_REACTORS
330
1A
102
}
330
1A
100
AcDbPlotSettings
  1

  2
none_device
  4

  6

 40
0.0
 41
0.0
 42
0.0
 43
0.0
 44
0.0
 45
0.0
 46
0.0
 47
0.0
 48
0.0
 49
0.0
140
0.0
141
0.0
142
1.0
143
1.0
 70
   688
 72
     1
 73
     0
 74
     5
  7

 75
    16
147
1.0
148
0.0
149
0.0
100
AcDbLayout
  1
Layout1
 70
     1
 71
     1
 10
0.0
 20
0.0
 11
420.0
 21
297.0
 12
0.0
 22
0.0
 32
0.0
 14
1.0000000000E+20
 24
1.0000000000E+20
 34
1.0000000000E+20
 15
-1.0000000000E+20
 25
-1.0000000000E+20
 35
-1.0000000000E+20
146
0.0
 13
0.0
 23
0.0
 33
0.0
 16
1.0
 26
0.0
 36
0.0
 17
0.0
 27
1.0
 37
0.0
 76
     0
330
1B
  0
LAYOUT
  5
26
102
{ACAD_REACTORS
330
1A
102
}
330
1A
100
AcDbPlotSettings
  1

  2
none_device
  4

  6

 40
0.0
 41
0.0
 42
0.0
 43
0.0
 44
0.0
 45
0.0
 46
0.0
 47
0.0
 48
0.0
 49
0.0
140
0.0
141
0.0
142
1.0
143
1.0
 70
   688
 72
     1
 73
     0
 74
     5
  7

 75
    16
147
1.0
148
0.0
149
0.0
100
AcDbLayout
  1
Layout2
 70
     1
 71
     2
 10
0.0
 20
0.0
 11
0.0
 21
0.0
 12
0.0
 22
0.0
 32
0.0
 14
0.0
 24
0.0
 34
0.0
 15
0.0
 25
0.0
 35
0.0
146
0.0
 13
0.0
 23
0.0
 33
0.0
 16
1.0
 26
0.0
 36
0.0
 17
0.0
 27
1.0
 37
0.0
 76
     0
330
23
  0
LAYOUT
  5
22
102
{ACAD_REACTORS
330
1A
102
}
330
1A
100
AcDbPlotSettings
  1

  2
none_device
  4
Letter_(8.50_x_11.00_Inches)
  6

 40
6.35
 41
6.35
 42
6.35000508
 43
6.35000508
 44
215.9
 45
279.4
 46
0.0
 47
0.0
 48
0.0
 49
0.0
140
0.0
141
0.0
142
1.0
143
1.0
 70
  1712
 72
     1
 73
     0
 74
     0
  7

 75
     0
147
1.0
148
0.0
149
0.0
100
AcDbLayout
  1
Model
 70
     1
 71
     0
 10
0.0
 20
0.0
 11
297.0
 21
210.0
 12
0.0
 22
0.0
 32
0.0
 14
0.0
 24
0.0
 34
0.0
 15
297.0
 25
210.0
 35
0.0
146
0.0
 13
0.0
 23
0.0
 33
0.0
 16
1.0
 26
0.0
 36
0.0
 17
0.0
 27
1.0
 37
0.0
 76
     0
330
1F
331
29
  0
MLINESTYLE
  5
18
102
{ACAD_REACTORS
330
17
102
}
330
17
100
AcDbMlineStyle
  2
Standard
 70
     0
  3

 62
   256
 51
90.0
 52
90.0
 71
     2
 49
0.5
 62
   256
  6
BYLAYER
 49
-0.5
 62
   256
  6
BYLAYER
  0
ACDBPLACEHOLDER
  5
F
102
{ACAD_REACTORS
330
E
102
}
330
E
  0
SCALE
  5
48
102
{ACAD_REACTORS
330
47
102
}
330
47
100
AcDbScale
 70
     0
300
1:1
140
1.0
141
1.0
290
     1
  0
SCALE
  5
49
102
{ACAD_REACTORS
330
47
102
}
330
47
100
AcDbScale
 70
     0
300
1:2
140
1.0
141
2.0
290
     0
  0
SCALE
  5
4A
102
{ACAD_REACTORS
330
47
102
}
330
47
100
AcDbScale
 70
     0
300
1:4
140
1.0
141
4.0
290
     0
  0
SCALE
  5
4B
102
{ACAD_REACTORS
330
47
102
}
330
47
100
AcDbScale
 70
     0
300
1:5
140
1.0
141
5.0
290
     0
  0
SCALE
  5
4C
102
{ACAD_REACTORS
330
47
102
}
330
47
100
AcDbScale
 70
     0
300
1:8
140
1.0
141
8.0
290
     0
  0
SCALE
  5
4D
102
{ACAD_REACTORS
330
47
102
}
330
47
100
AcDbScale
 70
     0
300
1:10
140
1.0
141
10.0
290
     0
  0
SCALE
  5
4E
102
{ACAD_REACTORS
330
47
102
}
330
47
100
AcDbScale
 70
     0
300
1:16
140
1.0
141
16.0
290
     0
  0
SCALE
  5
4F
102
{ACAD_REACTORS
330
47
102
}
330
47
100
AcDbScale
 70
     0
300
1:20
140
1.0
141
20.0
290
     0
  0
SCALE
  5
50
102
{ACAD_REACTORS
330
47
102
}
330
47
100
AcDbScale
 70
     0
300
1:30
140
1.0
141
30.0
290
     0
  0
SCALE
  5
51
102
{ACAD_REACTORS
330
47
102
}
330
47
100
AcDbScale
 70
     0
300
1:40
140
1.0
141
40.0
290
     0
  0
SCALE
  5
52
102
{ACAD_REACTORS
330
47
102
}
330
47
100
AcDbScale
 70
     0
300
1:50
140
1.0
141
50.0
290
     0
  0
SCALE
  5
53
102
{ACAD_REACTORS
330
47
102
}
330
47
100
AcDbScale
 70
     0
300
1:100
140
1.0
141
100.0
290
     0
  0
SCALE
  5
54
102
{ACAD_REACTORS
330
47
102
}
330
47
100
AcDbScale
 70
     0
300
2:1
140
2.0
141
1.0
290
     0
  0
SCALE
  5
55
102
{ACAD_REACTORS
330
47
102
}
330
47
100
AcDbScale
 70
     0
300
4:1
140
4.0
141
1.0
290
     0
  0
SCALE
  5
56
102
{ACAD_REACTORS
330
47
102
}
330
47
100
AcDbScale
 70
     0
300
8:1
140
8.0
141
1.0
290
     0
  0
SCALE
  5
57
102
{ACAD_REACTORS
330
47
102
}
330
47
100
AcDbScale
 70
     0
300
10:1
140
10.0
141
1.0
290
     0
  0
SCALE
  5
58
102
{ACAD_REACTORS
330
47
102
}
330
47
100
AcDbScale
 70
     0
300
100:1
140
100.0
141
1.0
290
     0
  0
ENDSEC
  0
EOF
