  0
SECTION
  2
HEADER
  9
$ACADVER
  1
AC1015
  9
$ACADMAINTVER
 70
     6
  9
$DWGCODEPAGE
  3
DOS932
  9
$INSBASE
 10
0.0
 20
0.0
 30
0.0
  9
$EXTMIN
 10
0.0
 20
0.0
 30
0.0
  9
$EXTMAX
 10
297.0
 20
210.0
 30
0.0
  9
$LIMMIN
 10
0.0
 20
0.0
  9
$LIMMAX
 10
297.0
 20
210.0
  9
$ORTHOMODE
 70
     0
  9
$REGENMODE
 70
     1
  9
$FILLMODE
 70
     1
  9
$QTEXTMODE
 70
     0
  9
$MIRRTEXT
 70
     1
  9
$LTSCALE
 40
1.0
  9
$ATTMODE
 70
     1
  9
$TEXTSIZE
 40
3.5277777778
  9
$TRACEWID
 40
1.0
  9
$TEXTSTYLE
  7
Standard
  9
$CLAYER
  8
0
  9
$CELTYPE
  6
ByLayer
  9
$CECOLOR
 62
   256
  9
$CELTSCALE
 40
1.0
  9
$DISPSILH
 70
     0
  9
$DIMSCALE
 40
1.0
  9
$DIMASZ
 40
2.728515625
  9
$DIMEXO
 40
1.0
  9
$DIMDLI
 40
3.75
  9
$DIMRND
 40
0.0
  9
$DIMDLE
 40
0.0
  9
$DIMEXE
 40
1.0
  9
$DIMTP
 40
0.0
  9
$DIMTM
 40
0.0
  9
$DIMTXT
 40
3.5277777778
  9
$DIMCEN
 40
2.5
  9
$DIMTSZ
 40
0.0
  9
$DIMTOL
 70
     0
  9
$DIMLIM
 70
     0
  9
$DIMTIH
 70
     1
  9
$DIMTOH
 70
     1
  9
$DIMSE1
 70
     0
  9
$DIMSE2
 70
     0
  9
$DIMTAD
 70
     1
  9
$DIMZIN
 70
     0
  9
$DIMBLK
  1

  9
$DIMASO
 70
     1
  9
$DIMSHO
 70
     1
  9
$DIMPOST
  1

  9
$DIMAPOST
  1

  9
$DIMALT
 70
     0
  9
$DIMALTD
 70
     3
  9
$DIMALTF
 40
0.0393700787
  9
$DIMLFAC
 40
1.0
  9
$DIMTOFL
 70
     1
  9
$DIMTVP
 40
0.0
  9
$DIMTIX
 70
     0
  9
$DIMSOXD
 70
     0
  9
$DIMSAH
 70
     0
  9
$DIMBLK1
  1

  9
$DIMBLK2
  1

  9
$DIMSTYLE
  2
ISO-25
  9
$DIMCLRD
 70
     0
  9
$DIMCLRE
 70
     0
  9
$DIMCLRT
 70
     0
  9
$DIMTFAC
 40
1.0
  9
$DIMGAP
 40
1.524
  9
$DIMJUST
 70
     0
  9
$DIMSD1
 70
     0
  9
$DIMSD2
 70
     0
  9
$DIMTOLJ
 70
     0
  9
$DIMTZIN
 70
     0
  9
$DIMALTZ
 70
     0
  9
$DIMALTTZ
 70
     0
  9
$DIMUPT
 70
     0
  9
$DIMDEC
 70
     2
  9
$DIMTDEC
 70
     2
  9
$DIMALTU
 70
     2
  9
$DIMALTTD
 70
     3
  9
$DIMTXSTY
  7
Standard
  9
$DIMAUNIT
 70
     0
  9
$DIMADEC
 70
     2
  9
$DIMALTRND
 40
0.0
  9
$DIMAZIN
 70
     0
  9
$DIMDSEP
 70
    44
  9
$DIMATFIT
 70
     3
  9
$DIMFRAC
 70
     0
  9
$DIMLDRBLK
  1

  9
$DIMLUNIT
 70
     2
  9
$DIMLWD
 70
    -2
  9
$DIMLWE
 70
    -2
  9
$DIMTMOVE
 70
     0
  9
$LUNITS
 70
     2
  9
$LUPREC
 70
     2
  9
$SKETCHINC
 40
1.0
  9
$FILLETRAD
 40
0.0
  9
$AUNITS
 70
     0
  9
$AUPREC
 70
     2
  9
$MENU
  1
.
  9
$ELEVATION
 40
0.0
  9
$PELEVATION
 40
0.0
  9
$THICKNESS
 40
0.0
  9
$LIMCHECK
 70
     0
  9
$CHAMFERA
 40
0.0
  9
$CHAMFERB
 40
0.0
  9
$CHAMFERC
 40
0.0
  9
$CHAMFERD
 40
0.0
  9
$SKPOLY
 70
     0
  9
$TDCREATE
 40
2460406.712460949
  9
$TDUCREATE
 40
2460406.337460949
  9
$TDUPDATE
 40
2460406.712461655
  9
$TDUUPDATE
 40
2460406.337461655
  9
$TDINDWG
 40
0.0000000116
  9
$TDUSRTIMER
 40
0.0000000116
  9
$USRTIMER
 70
     1
  9
$ANGBASE
 50
0.0
  9
$ANGDIR
 70
     0
  9
$PDMODE
 70
     0
  9
$PDSIZE
 40
-1.0
  9
$PLINEWID
 40
0.0
  9
$SPLFRAME
 70
     0
  9
$SPLINETYPE
 70
     6
  9
$SPLINESEGS
 70
     8
  9
$HANDSEED
  5
28F
  9
$SURFTAB1
 70
     6
  9
$SURFTAB2
 70
     6
  9
$SURFTYPE
 70
     6
  9
$SURFU
 70
     6
  9
$SURFV
 70
     6
  9
$UCSBASE
  2

  9
$UCSNAME
  2

  9
$UCSORG
 10
0.0
 20
0.0
 30
0.0
  9
$UCSXDIR
 10
1.0
 20
0.0
 30
0.0
  9
$UCSYDIR
 10
0.0
 20
1.0
 30
0.0
  9
$UCSORTHOREF
  2

  9
$UCSORTHOVIEW
 70
     0
  9
$UCSORGTOP
 10
0.0
 20
0.0
 30
0.0
  9
$UCSORGBOTTOM
 10
0.0
 20
0.0
 30
0.0
  9
$UCSORGLEFT
 10
0.0
 20
0.0
 30
0.0
  9
$UCSORGRIGHT
 10
0.0
 20
0.0
 30
0.0
  9
$UCSORGFRONT
 10
0.0
 20
0.0
 30
0.0
  9
$UCSORGBACK
 10
0.0
 20
0.0
 30
0.0
  9
$PUCSBASE
  2

  9
$PUCSNAME
  2

  9
$PUCSORG
 10
0.0
 20
0.0
 30
0.0
  9
$PUCSXDIR
 10
1.0
 20
0.0
 30
0.0
  9
$PUCSYDIR
 10
0.0
 20
1.0
 30
0.0
  9
$PUCSORTHOREF
  2

  9
$PUCSORTHOVIEW
 70
     0
  9
$PUCSORGTOP
 10
0.0
 20
0.0
 30
0.0
  9
$PUCSORGBOTTOM
 10
0.0
 20
0.0
 30
0.0
  9
$PUCSORGLEFT
 10
0.0
 20
0.0
 30
0.0
  9
$PUCSORGRIGHT
 10
0.0
 20
0.0
 30
0.0
  9
$PUCSORGFRONT
 10
0.0
 20
0.0
 30
0.0
  9
$PUCSORGBACK
 10
0.0
 20
0.0
 30
0.0
  9
$USERI1
 70
     0
  9
$USERI2
 70
     0
  9
$USERI3
 70
     0
  9
$USERI4
 70
     0
  9
$USERI5
 70
     0
  9
$USERR1
 40
0.0
  9
$USERR2
 40
0.0
  9
$USERR3
 40
0.0
  9
$USERR4
 40
0.0
  9
$USERR5
 40
0.0
  9
$WORLDVIEW
 70
     1
  9
$SHADEDGE
 70
     3
  9
$SHADEDIF
 70
    70
  9
$TILEMODE
 70
     1
  9
$MAXACTVP
 70
    64
  9
$PINSBASE
 10
0.0
 20
0.0
 30
0.0
  9
$PLIMCHECK
 70
     0
  9
$PEXTMIN
 10
1.0000000000E+20
 20
1.0000000000E+20
 30
1.0000000000E+20
  9
$PEXTMAX
 10
-1.0000000000E+20
 20
-1.0000000000E+20
 30
-1.0000000000E+20
  9
$PLIMMIN
 10
0.0
 20
0.0
  9
$PLIMMAX
 10
420.0
 20
297.0
  9
$UNITMODE
 70
     0
  9
$VISRETAIN
 70
     1
  9
$PLINEGEN
 70
     0
  9
$PSLTSCALE
 70
     1
  9
$TREEDEPTH
 70
  3020
  9
$CMLSTYLE
  2
Standard
  9
$CMLJUST
 70
     0
  9
$CMLSCALE
 40
20.0
  9
$PROXYGRAPHICS
 70
     1
  9
$MEASUREMENT
 70
     1
  9
$CELWEIGHT
370
    -1
  9
$ENDCAPS
280
     0
  9
$JOINSTYLE
280
     0
  9
$LWDISPLAY
290
     1
  9
$INSUNITS
 70
     4
  9
$HYPERLINKBASE
  1

  9
$STYLESHEET
  1

  9
$XEDIT
290
     1
  9
$CEPSNTYPE
380
     0
  9
$PSTYLEMODE
290
     1
  9
$FINGERPRINTGUID
  2
{bdfc7848-ed0c-4699-a36d-2debe600e1ec}
  9
$VERSIONGUID
  2
{FAEB1C32-E019-11D5-929B-00C0DF256EC4}
  9
$EXTNAMES
290
     1
  9
$PSVPSCALE
 40
0.0
  9
$OLESTARTUP
290
     0
  0
ENDSEC
  0
SECTION
  2
CLASSES
  0
CLASS
  1
ACDBDICTIONARYWDFLT
  2
AcDbDictionaryWithDefault
  3
ObjectDBX Classes
 90
        0
280
     0
281
     0
  0
CLASS
  1
VISUALSTYLE
  2
AcDbVisualStyle
  3
ObjectDBX Classes
 90
     4095
280
     0
281
     0
  0
CLASS
  1
MATERIAL
  2
AcDbMaterial
  3
ObjectDBX Classes
 90
     1153
280
     0
281
     0
  0
CLASS
  1
SCALE
  2
AcDbScale
  3
ObjectDBX Classes
 90
     1153
280
     0
281
     0
  0
CLASS
  1
TABLESTYLE
  2
AcDbTableStyle
  3
ObjectDBX Classes
 90
     4095
280
     0
281
     0
  0
CLASS
  1
MLEADERSTYLE
  2
AcDbMLeaderStyle
  3
ACDB_MLEADERSTYLE_CLASS
 90
     4095
280
     0
281
     0
  0
CLASS
  1
SUN
  2
AcDbSun
  3
SCENEOE
 90
     1153
280
     0
281
     0
  0
CLASS
  1
ACDBPLACEHOLDER
  2
AcDbPlaceHolder
  3
ObjectDBX Classes
 90
        0
280
     0
281
     0
  0
CLASS
  1
LAYOUT
  2
AcDbLayout
  3
ObjectDBX Classes
 90
        0
280
     0
281
     0
  0
ENDSEC
  0
SECTION
  2
TABLES
  0
TABLE
  2
VPORT
  5
8
330
0
100
AcDbSymbolTable
 70
     1
  0
VPORT
  5
29
330
8
100
AcDbSymbolTableRecord
100
AcDbViewportTableRecord
  2
*Active
 70
     0
 10
0.0
 20
0.0
 11
1.0
 21
1.0
 12
148.5
 22
105.0
 13
0.0
 23
0.0
 14
10.0
 24
10.0
 15
10.0
 25
10.0
 16
0.0
 26
0.0
 36
1.0
 17
0.0
 27
0.0
 37
0.0
 40
210.0
 41
1.4142857143
 42
50.0
 43
0.0
 44
0.0
 50
0.0
 51
0.0
 71
     0
 72
  2000
 73
     1
 74
     3
 75
     0
 76
     0
 77
     0
 78
     0
281
     0
 65
     1
110
0.0
120
0.0
130
0.0
111
1.0
121
0.0
131
0.0
112
0.0
122
1.0
132
0.0
 79
     0
146
0.0
  0
ENDTAB
  0
TABLE
  2
LTYPE
  5
5
330
0
100
AcDbSymbolTable
 70
     6
  0
LTYPE
  5
14
330
5
100
AcDbSymbolTableRecord
100
AcDbLinetypeTableRecord
  2
ByBlock
 70
     0
  3

 72
    65
 73
     0
 40
0.0
  0
LTYPE
  5
15
330
5
100
AcDbSymbolTableRecord
100
AcDbLinetypeTableRecord
  2
ByLayer
 70
     0
  3

 72
    65
 73
     0
 40
0.0
  0
LTYPE
  5
16
330
5
100
AcDbSymbolTableRecord
100
AcDbLinetypeTableRecord
  2
Continuous
 70
     0
  3
Solid line
 72
    65
 73
     0
 40
0.0
  0
LTYPE
  5
5E
330
5
100
AcDbSymbolTableRecord
100
AcDbLinetypeTableRecord
  2
HIDDEN
 70
     0
  3
Hidden __ __ __ __ __ __ __ __ __ __ __ __ __ __
 72
    65
 73
     2
 40
1.905
 49
1.27
 74
     0
 49
-0.635
 74
     0
  0
LTYPE
  5
5F
330
5
100
AcDbSymbolTableRecord
100
AcDbLinetypeTableRecord
  2
PHANTOM
 70
     0
  3
Phantom ______  __  __  ______  __  __  ______
 72
    65
 73
     6
 40
12.7
 49
6.35
 74
     0
 49
-1.27
 74
     0
 49
1.27
 74
     0
 49
-1.27
 74
     0
 49
1.27
 74
     0
 49
-1.27
 74
     0
  0
LTYPE
  5
60
330
5
100
AcDbSymbolTableRecord
100
AcDbLinetypeTableRecord
  2
CENTER
 70
     0
  3
Center ____ _ ____ _ ____ _ ____ _ ____ _ ____
 72
    65
 73
     4
 40
10.16
 49
6.35
 74
     0
 49
-1.27
 74
     0
 49
1.27
 74
     0
 49
-1.27
 74
     0
  0
LTYPE
  5
61
330
5
100
AcDbSymbolTableRecord
100
AcDbLinetypeTableRecord
  2
CENTERX2
 70
     0
  3
Center (2x) ________  __  ________  __  _____
 72
    65
 73
     4
 40
20.32
 49
12.7
 74
     0
 49
-2.54
 74
     0
 49
2.54
 74
     0
 49
-2.54
 74
     0
  0
LTYPE
  5
62
330
5
100
AcDbSymbolTableRecord
100
AcDbLinetypeTableRecord
  2
DOT2
 70
     0
  3
Dot (.5x) ........................................
 72
    65
 73
     2
 40
0.635
 49
0.0
 74
     0
 49
-0.635
 74
     0
  0
ENDTAB
  0
TABLE
  2
LAYER
  5
2
330
0
100
AcDbSymbolTable
 70
     2
  0
LAYER
  5
10
330
2
100
AcDbSymbolTableRecord
100
AcDbLayerTableRecord
  2
0
 70
     0
 62
     7
  6
Continuous
370
    -3
390
F
  0
LAYER
  5
63
330
2
100
AcDbSymbolTableRecord
100
AcDbLayerTableRecord
  2
FORMAT
 70
     0
 62
     7
  6
Continuous
370
    -3
390
F
  0
ENDTAB
  0
TABLE
  2
STYLE
  5
3
330
0
100
AcDbSymbolTable
 70
     2
  0
STYLE
  5
11
330
3
100
AcDbSymbolTableRecord
100
AcDbTextStyleTableRecord
  2
Standard
 70
     0
 40
0.0
 41
1.0
 50
0.0
 71
     0
 42
3.5277777778
  3
txt
  4
bigfont
  0
STYLE
  5
64
330
3
100
AcDbSymbolTableRecord
100
AcDbTextStyleTableRecord
  2
SLDTEXTSTYLE0
 70
     0
 40
0.0
 41
0.7
 50
0.0
 71
     0
 42
3.5277777778
  3
TXT
  4
bigfont
  0
ENDTAB
  0
TABLE
  2
VIEW
  5
6
330
0
100
AcDbSymbolTable
 70
     0
  0
ENDTAB
  0
TABLE
  2
UCS
  5
7
330
0
100
AcDbSymbolTable
 70
     0
  0
ENDTAB
  0
TABLE
  2
APPID
  5
9
330
0
100
AcDbSymbolTable
 70
     1
  0
APPID
  5
12
330
9
100
AcDbSymbolTableRecord
100
AcDbRegAppTableRecord
  2
ACAD
 70
     0
  0
ENDTAB
  0
TABLE
  2
DIMSTYLE
  5
A
330
0
100
AcDbSymbolTable
 70
     1
100
AcDbDimStyleTable
  0
DIMSTYLE
105
27
330
A
100
AcDbSymbolTableRecord
100
AcDbDimStyleTableRecord
  2
ISO-25
 70
     0
 41
2.5
 42
0.625
 43
3.75
 44
1.25
 73
     0
 74
     0
 77
     1
 78
     8
140
2.5
141
2.5
143
0.0393700787
147
0.625
171
     3
172
     1
178
     0
271
     2
272
     2
274
     3
278
    44
283
     0
284
     8
340
11
  0
ENDTAB
  0
TABLE
  2
BLOCK_RECORD
  5
1
330
0
100
AcDbSymbolTable
 70
     3
  0
BLOCK_RECORD
  5
1F
330
1
100
AcDbSymbolTableRecord
100
AcDbBlockTableRecord
  2
*Model_Space
340
22
  0
BLOCK_RECORD
  5
1B
330
1
100
AcDbSymbolTableRecord
100
AcDbBlockTableRecord
  2
*Paper_Space
340
1E
  0
BLOCK_RECORD
  5
23
330
1
100
AcDbSymbolTableRecord
100
AcDbBlockTableRecord
  2
*Paper_Space0
340
26
  0
BLOCK_RECORD
  5
1AB
330
1
100
AcDbSymbolTableRecord
100
AcDbBlockTableRecord
  2
SW_CENTERMARKSYMBOL_0
340
0
102
{BLKREFS
331
1B6
102
}
  0
BLOCK_RECORD
  5
27F
330
1
100
AcDbSymbolTableRecord
100
AcDbBlockTableRecord
  2
SW_CENTERMARKSYMBOL_1
340
0
102
{BLKREFS
331
28A
102
}
  0
ENDTAB
  0
ENDSEC
  0
SECTION
  2
BLOCKS
  0
BLOCK
  5
20
330
1F
100
AcDbEntity
  8
0
100
AcDbBlockBegin
  2
*Model_Space
 70
     0
 10
0.0
 20
0.0
 30
0.0
  3
*Model_Space
  1

  0
ENDBLK
  5
21
330
1F
100
AcDbEntity
  8
0
100
AcDbBlockEnd
  0
BLOCK
  5
1C
330
1B
100
AcDbEntity
 67
     1
  8
0
100
AcDbBlockBegin
  2
*Paper_Space
 70
     0
 10
0.0
 20
0.0
 30
0.0
  3
*Paper_Space
  1

  0
ENDBLK
  5
1D
330
1B
100
AcDbEntity
 67
     1
  8
0
100
AcDbBlockEnd
  0
BLOCK
  5
24
330
23
100
AcDbEntity
  8
0
100
AcDbBlockBegin
  2
*Paper_Space0
 70
     0
 10
0.0
 20
0.0
 30
0.0
  3
*Paper_Space0
  1

  0
ENDBLK
  5
25
330
23
100
AcDbEntity
  8
0
100
AcDbBlockEnd
  0
BLOCK
  5
1AC
330
1AB
100
AcDbEntity
  8
0
100
AcDbBlockBegin
  2
SW_CENTERMARKSYMBOL_0
 70
     0
 10
0.0
 20
0.0
 30
0.0
  3
SW_CENTERMARKSYMBOL_0
  1

  0
LINE
  5
1AE
330
1AB
100
AcDbEntity
  8
FORMAT
 62
     0
100
AcDbLine
 10
0.0
 20
0.0
 30
0.0
 11
0.0
 21
2.5
 31
0.0
  0
LINE
  5
1AF
330
1AB
100
AcDbEntity
  8
FORMAT
 62
     0
100
AcDbLine
 10
0.0
 20
0.0
 30
0.0
 11
-2.5
 21
0.0
 31
0.0
  0
LINE
  5
1B0
330
1AB
100
AcDbEntity
  8
FORMAT
 62
     0
100
AcDbLine
 10
0.0
 20
0.0
 30
0.0
 11
0.0
 21
-2.5
 31
0.0
  0
LINE
  5
1B1
330
1AB
100
AcDbEntity
  8
FORMAT
 62
     0
100
AcDbLine
 10
0.0
 20
0.0
 30
0.0
 11
2.5
 21
0.0
 31
0.0
  0
LINE
  5
1B2
330
1AB
100
AcDbEntity
  8
FORMAT
 62
     0
100
AcDbLine
 10
0.0
 20
5.0
 30
0.0
 11
0.0
 21
29.9627590707
 31
0.0
  0
LINE
  5
1B3
330
1AB
100
AcDbEntity
  8
FORMAT
 62
     0
100
AcDbLine
 10
-5.0
 20
0.0
 30
0.0
 11
-12.5
 21
0.0
 31
0.0
  0
LINE
  5
1B4
330
1AB
100
AcDbEntity
  8
FORMAT
 62
     0
100
AcDbLine
 10
0.0
 20
-5.0
 30
0.0
 11
0.0
 21
-12.5
 31
0.0
  0
LINE
  5
1B5
330
1AB
100
AcDbEntity
  8
FORMAT
 62
     0
100
AcDbLine
 10
5.0
 20
0.0
 30
0.0
 11
12.5
 21
0.0
 31
0.0
  0
ENDBLK
  5
1AD
330
1AB
100
AcDbEntity
  8
0
100
AcDbBlockEnd
  0
BLOCK
  5
280
330
27F
100
AcDbEntity
  8
0
100
AcDbBlockBegin
  2
SW_CENTERMARKSYMBOL_1
 70
     0
 10
0.0
 20
0.0
 30
0.0
  3
SW_CENTERMARKSYMBOL_1
  1

  0
LINE
  5
282
330
27F
100
AcDbEntity
  8
FORMAT
 62
     0
100
AcDbLine
 10
0.0
 20
0.0
 30
0.0
 11
0.0
 21
2.5
 31
0.0
  0
LINE
  5
283
330
27F
100
AcDbEntity
  8
FORMAT
 62
     0
100
AcDbLine
 10
0.0
 20
0.0
 30
0.0
 11
-2.5
 21
0.0
 31
0.0
  0
LINE
  5
284
330
27F
100
AcDbEntity
  8
FORMAT
 62
     0
100
AcDbLine
 10
0.0
 20
0.0
 30
0.0
 11
0.0
 21
-2.5
 31
0.0
  0
LINE
  5
285
330
27F
100
AcDbEntity
  8
FORMAT
 62
     0
100
AcDbLine
 10
0.0
 20
0.0
 30
0.0
 11
2.5
 21
0.0
 31
0.0
  0
LINE
  5
286
330
27F
100
AcDbEntity
  8
FORMAT
 62
     0
100
AcDbLine
 10
0.0
 20
5.0
 30
0.0
 11
0.0
 21
9.95
 31
0.0
  0
LINE
  5
287
330
27F
100
AcDbEntity
  8
FORMAT
 62
     0
100
AcDbLine
 10
-5.0
 20
0.0
 30
0.0
 11
-41.7726007579
 21
0.0
 31
0.0
  0
LINE
  5
288
330
27F
100
AcDbEntity
  8
FORMAT
 62
     0
100
AcDbLine
 10
0.0
 20
-5.0
 30
0.0
 11
0.0
 21
-9.95
 31
0.0
  0
LINE
  5
289
330
27F
100
AcDbEntity
  8
FORMAT
 62
     0
100
AcDbLine
 10
5.0
 20
0.0
 30
0.0
 11
21.6289616807
 21
0.0
 31
0.0
  0
ENDBLK
  5
281
330
27F
100
AcDbEntity
  8
0
100
AcDbBlockEnd
  0
ENDSEC
  0
SECTION
  2
ENTITIES
  0
MTEXT
  5
65
330
1F
100
AcDbEntity
  8
FORMAT
100
AcDbMText
 10
148.4569911572
 20
101.4047175025
 30
0.0
 40
3.7041666667
 41
0.0
 71
     1
 72
     1
  1
エースボール　BU-1365R
  7
SLDTEXTSTYLE0
 73
     1
 44
1.0
  0
LINE
  5
66
330
1F
100
AcDbEntity
  8
0
  6
Continuous
 62
     7
370
    25
100
AcDbLine
 10
113.934878243
 20
51.6025096122
 30
0.0
 11
114.5122285122
 21
52.6025096122
 31
0.0
  0
LINE
  5
67
330
1F
100
AcDbEntity
  8
0
  6
Continuous
 62
     7
370
    25
100
AcDbLine
 10
114.5122285122
 20
68.1025096122
 30
0.0
 11
113.934878243
 21
69.1025096122
 31
0.0
  0
LINE
  5
68
330
1F
100
AcDbEntity
  8
0
  6
Continuous
 62
     7
370
    25
100
AcDbLine
 10
103.9370164709
 20
69.1025096122
 30
0.0
 11
97.1603590375
 21
66.9006401375
 31
0.0
  0
LINE
  5
69
330
1F
100
AcDbEntity
  8
0
  6
Continuous
 62
     7
370
    25
100
AcDbLine
 10
97.1603590375
 20
53.8043790869
 30
0.0
 11
103.9370164709
 21
51.6025096122
 31
0.0
  0
LINE
  5
6A
330
1F
100
AcDbEntity
  8
0
  6
Continuous
 62
     7
370
    25
100
AcDbLine
 10
97.1603590375
 20
66.9006401375
 30
0.0
 11
97.0122285122
 21
66.7525096122
 31
0.0
  0
LINE
  5
6B
330
1F
100
AcDbEntity
  8
0
  6
Continuous
 62
     7
370
    25
100
AcDbLine
 10
97.0122285122
 20
53.9525096122
 30
0.0
 11
97.1603590375
 21
53.8043790869
 31
0.0
  0
LINE
  5
6C
330
1F
100
AcDbEntity
  8
0
  6
Continuous
 62
     7
370
    25
100
AcDbLine
 10
113.934878243
 20
69.1025096122
 30
0.0
 11
103.9370164709
 21
69.1025096122
 31
0.0
  0
LINE
  5
6D
330
1F
100
AcDbEntity
  8
0
  6
Continuous
 62
     7
370
    25
100
AcDbLine
 10
103.9370164709
 20
51.6025096122
 30
0.0
 11
113.934878243
 21
51.6025096122
 31
0.0
  0
LINE
  5
6E
330
1F
100
AcDbEntity
  8
0
  6
Continuous
 62
     7
370
    25
100
AcDbLine
 10
119.7905406757
 20
50.8525096122
 30
0.0
 11
120.5122285122
 21
52.1025096122
 31
0.0
  0
LINE
  5
6F
330
1F
100
AcDbEntity
  8
0
  6
Continuous
 62
     7
370
    25
100
AcDbLine
 10
120.5122285122
 20
68.6025096122
 30
0.0
 11
119.7905406757
 21
69.8525096122
 31
0.0
  0
LINE
  5
70
330
1F
100
AcDbEntity
  8
0
  6
Continuous
 62
     7
370
    25
100
AcDbLine
 10
115.2339163487
 20
69.8525096122
 30
0.0
 11
114.5122285122
 21
68.6025096122
 31
0.0
  0
LINE
  5
71
330
1F
100
AcDbEntity
  8
0
  6
Continuous
 62
     7
370
    25
100
AcDbLine
 10
114.5122285122
 20
52.1025096122
 30
0.0
 11
115.2339163487
 21
50.8525096122
 31
0.0
  0
LINE
  5
72
330
1F
100
AcDbEntity
  8
0
  6
Continuous
 62
     7
370
    25
100
AcDbLine
 10
115.2339163487
 20
50.8525096122
 30
0.0
 11
119.7905406757
 21
50.8525096122
 31
0.0
  0
LINE
  5
73
330
1F
100
AcDbEntity
  8
0
  6
Continuous
 62
     7
370
    25
100
AcDbLine
 10
119.7905406757
 20
69.8525096122
 30
0.0
 11
115.2339163487
 21
69.8525096122
 31
0.0
  0
LINE
  5
74
330
1F
100
AcDbEntity
  8
0
  6
Continuous
 62
     7
370
    25
100
AcDbLine
 10
140.0122285122
 20
70.3525096122
 30
0.0
 11
138.3941945235
 21
70.3525096122
 31
0.0
  0
LINE
  5
75
330
1F
100
AcDbEntity
  8
0
  6
Continuous
 62
     7
370
    25
100
AcDbLine
 10
138.3941945235
 20
50.3525096122
 30
0.0
 11
140.0122285122
 21
50.3525096122
 31
0.0
  0
ARC
  5
76
330
1F
100
AcDbEntity
  8
0
  6
Continuous
 62
     7
370
    25
100
AcDbCircle
 10
139.5122285122
 20
69.3525096122
 30
0.0
 40
1.5
100
AcDbArc
 50
138.1896851042
 51
180.0
  0
ARC
  5
77
330
1F
100
AcDbEntity
  8
0
  6
Continuous
 62
     7
370
    25
100
AcDbCircle
 10
139.5122285122
 20
51.3525096122
 30
0.0
 40
1.5
100
AcDbArc
 50
180.0
 51
221.8103148958
  0
LINE
  5
78
330
1F
100
AcDbEntity
  8
0
  6
Continuous
 62
     7
370
    25
100
AcDbLine
 10
140.0122285122
 20
50.3525096122
 30
0.0
 11
140.5122285122
 21
50.8525096122
 31
0.0
  0
LINE
  5
79
330
1F
100
AcDbEntity
  8
0
  6
Continuous
 62
     7
370
    25
100
AcDbLine
 10
140.5122285122
 20
69.8525096122
 30
0.0
 11
140.0122285122
 21
70.3525096122
 31
0.0
  0
LINE
  5
7A
330
1F
100
AcDbEntity
  8
0
  6
Continuous
 62
     7
370
    25
100
AcDbLine
 10
120.7622285122
 20
50.3525096122
 30
0.0
 11
122.630262501
 21
50.3525096122
 31
0.0
  0
LINE
  5
7B
330
1F
100
AcDbEntity
  8
0
  6
Continuous
 62
     7
370
    25
100
AcDbLine
 10
122.630262501
 20
70.3525096122
 30
0.0
 11
120.7622285122
 21
70.3525096122
 31
0.0
  0
ARC
  5
7C
330
1F
100
AcDbEntity
  8
0
  6
Continuous
 62
     7
370
    25
100
AcDbCircle
 10
121.5122285122
 20
51.3525096122
 30
0.0
 40
1.5
100
AcDbArc
 50
318.1896851042
 51
0.0
  0
ARC
  5
7D
330
1F
100
AcDbEntity
  8
0
  6
Continuous
 62
     7
370
    25
100
AcDbCircle
 10
121.5122285122
 20
69.3525096122
 30
0.0
 40
1.5
100
AcDbArc
 50
0.0
 51
41.8103148958
  0
LINE
  5
7E
330
1F
100
AcDbEntity
  8
0
  6
Continuous
 62
     7
370
    25
100
AcDbLine
 10
120.7622285122
 20
70.3525096122
 30
0.0
 11
120.5122285122
 21
70.1025096122
 31
0.0
  0
LINE
  5
7F
330
1F
100
AcDbEntity
  8
0
  6
Continuous
 62
     7
370
    25
100
AcDbLine
 10
120.5122285122
 20
50.6025096122
 30
0.0
 11
120.7622285122
 21
50.3525096122
 31
0.0
  0
LINE
  5
80
330
1F
100
AcDbEntity
  8
0
  6
Continuous
 62
     7
370
    25
100
AcDbLine
 10
140.5122285122
 20
51.9074471122
 30
0.0
 11
148.4383190786
 21
52.1551374424
 31
0.0
  0
LINE
  5
81
330
1F
100
AcDbEntity
  8
0
  6
Continuous
 62
     7
370
    25
100
AcDbLine
 10
148.4383190786
 20
68.549881782
 30
0.0
 11
140.5122285122
 21
68.7975721122
 31
0.0
  0
LINE
  5
82
330
1F
100
AcDbEntity
  8
0
  6
Continuous
 62
     7
370
    25
100
AcDbLine
 10
148.4383190786
 20
52.1551374424
 30
0.0
 11
150.5122285122
 21
53.3525096122
 31
0.0
  0
LINE
  5
83
330
1F
100
AcDbEntity
  8
0
  6
Continuous
 62
     7
370
    25
100
AcDbLine
 10
150.5122285122
 20
67.3525096122
 30
0.0
 11
148.4383190786
 21
68.549881782
 31
0.0
  0
ARC
  5
84
330
1F
100
AcDbEntity
  8
0
  6
Continuous
 62
     7
370
    25
100
AcDbCircle
 10
137.5122285122
 20
69.3525096122
 30
0.0
 40
0.5
100
AcDbArc
 50
270.0
 51
0.0
  0
ARC
  5
85
330
1F
100
AcDbEntity
  8
0
  6
Continuous
 62
     7
370
    25
100
AcDbCircle
 10
123.5122285122
 20
51.3525096122
 30
0.0
 40
0.5
100
AcDbArc
 50
90.0
 51
180.0
  0
ARC
  5
86
330
1F
100
AcDbEntity
  8
0
  6
Continuous
 62
     7
370
    25
100
AcDbCircle
 10
123.5122285122
 20
69.3525096122
 30
0.0
 40
0.5
100
AcDbArc
 50
180.0
 51
270.0
  0
ARC
  5
87
330
1F
100
AcDbEntity
  8
0
  6
Continuous
 62
     7
370
    25
100
AcDbCircle
 10
137.5122285122
 20
51.3525096122
 30
0.0
 40
0.5
100
AcDbArc
 50
0.0
 51
90.0
  0
LINE
  5
88
330
1F
100
AcDbEntity
  8
0
  6
Continuous
 62
     7
370
    25
100
AcDbLine
 10
124.1299076373
 20
68.8525096122
 30
0.0
 11
123.5122285122
 21
68.8525096122
 31
0.0
  0
LINE
  5
89
330
1F
100
AcDbEntity
  8
0
  6
Continuous
 62
     7
370
    25
100
AcDbLine
 10
137.5122285122
 20
68.8525096122
 30
0.0
 11
136.9122285122
 21
68.8525096122
 31
0.0
  0
LINE
  5
8A
330
1F
100
AcDbEntity
  8
0
  6
Continuous
 62
     7
370
    25
100
AcDbLine
 10
123.5122285122
 20
51.8525096122
 30
0.0
 11
137.5122285122
 21
51.8525096122
 31
0.0
  0
SPLINE
  5
8B
330
1F
100
AcDbEntity
  8
0
  6
Continuous
 62
     7
370
    25
100
AcDbSpline
210
0.0
220
0.0
230
1.0
 70
     8
 71
     3
 72
    13
 73
     9
 74
     0
 42
0.00000001
 43
0.00000001
 40
0.0
 40
0.0
 40
0.0
 40
0.0
 40
0.1657648999013929
 40
0.3288516425910938
 40
0.5079757807440833
 40
0.6908230418584143
 40
0.8659232900064849
 40
1.0
 40
1.0
 40
1.0
 40
1.0
 10
136.9125364594012
 20
68.85584298380134
 30
0.0
 10
136.8688422931019
 20
68.85772540091023
 30
0.0
 10
136.782159899135
 20
68.86145982212169
 30
0.0
 10
136.6579760744398
 20
68.9156179119817
 30
0.0
 10
136.5476086128257
 20
69.000053346103
 30
0.0
 10
136.4647961423414
 20
69.1158482031192
 30
0.0
 10
136.4183630734133
 20
69.2386106574121
 30
0.0
 10
136.4150763952686
 20
69.3198451852116
 30
0.0
 10
136.4136511047325
 20
69.35507309576064
 30
0.0
  0
SPLINE
  5
8C
330
1F
100
AcDbEntity
  8
0
  6
Continuous
 62
     7
370
    25
100
AcDbSpline
210
0.0
220
0.0
230
1.0
 70
     8
 71
     3
 72
    13
 73
     9
 74
     0
 42
0.00000001
 43
0.00000001
 40
0.0
 40
0.0
 40
0.0
 40
0.0
 40
0.1607063118245939
 40
0.3468543103550863
 40
0.5363367921067442
 40
0.7155426209750598
 40
0.8707860443061729
 40
0.9999999999999999
 40
0.9999999999999999
 40
0.9999999999999999
 40
0.9999999999999999
 10
124.6111284356157
 20
69.34339779652998
 30
0.0
 10
124.6079042069845
 20
69.3026915349007
 30
0.0
 10
124.6009453166609
 20
69.21483473485188
 30
0.0
 10
124.5444595858824
 20
69.08864563355968
 30
0.0
 10
124.4546509558531
 20
68.97881364404216
 30
0.0
 10
124.3438186039101
 20
68.90364731671167
 30
0.0
 10
124.2326713931394
 20
68.86188279258921
 30
0.0
 10
124.160779167213
 20
68.85598734169176
 30
0.0
 10
124.1281223279795
 20
68.85330934988268
 30
0.0
  0
LINE
  5
8D
330
1F
100
AcDbEntity
  8
0
  6
Continuous
 62
     7
370
    25
100
AcDbLine
 10
136.4122285122
 20
69.3525096122
 30
0.0
 11
136.4122285122
 21
70.8525096122
 31
0.0
  0
LINE
  5
8E
330
1F
100
AcDbEntity
  8
0
  6
Continuous
 62
     7
370
    25
100
AcDbLine
 10
124.6122285122
 20
70.8525096122
 30
0.0
 11
124.6122285122
 21
69.3412388723
 31
0.0
  0
LINE
  5
8F
330
1F
100
AcDbEntity
  8
0
  6
Continuous
 62
     7
370
    25
100
AcDbLine
 10
137.5122285122
 20
70.8525096122
 30
0.0
 11
137.9622285122
 21
78.8525096122
 31
0.0
  0
LINE
  5
90
330
1F
100
AcDbEntity
  8
0
  6
Continuous
 62
     7
370
    25
100
AcDbLine
 10
137.9622285122
 20
78.8525096122
 30
0.0
 11
136.0122285122
 21
86.8525096122
 31
0.0
  0
LINE
  5
91
330
1F
100
AcDbEntity
  8
0
  6
Continuous
 62
     7
370
    25
100
AcDbLine
 10
123.4415718865
 20
72.1086274035
 30
0.0
 11
123.5122285122
 21
70.8525096122
 31
0.0
  0
LINE
  5
92
330
1F
100
AcDbEntity
  8
0
  6
Continuous
 62
     7
370
    25
100
AcDbLine
 10
125.0122285122
 20
86.8525096122
 30
0.0
 11
124.7582516719
 21
85.8105533443
 31
0.0
  0
LINE
  5
93
330
1F
100
AcDbEntity
  8
0
  6
Continuous
 62
     7
370
    25
100
AcDbLine
 10
113.934878243
 20
56.8081478925
 30
0.0
 11
103.9370164709
 21
56.8081478925
 31
0.0
  0
SPLINE
  5
94
330
1F
100
AcDbEntity
  8
0
  6
Continuous
 62
     7
370
    25
100
AcDbSpline
210
0.0
220
0.0
230
1.0
 70
     8
 71
     3
 72
    21
 73
    17
 74
     0
 42
0.00000001
 43
0.00000001
 40
0.0
 40
0.0
 40
0.0
 40
0.0
 40
0.1026314353760766
 40
0.2051536271313487
 40
0.2714537892224375
 40
0.3376739344363226
 40
0.4049098244621334
 40
0.4719894983518813
 40
0.5316983844354848
 40
0.5914558444154815
 40
0.6604398118326982
 40
0.7295754946862759
 40
0.8160656878680139
 40
0.9029007960743887
 40
0.9896696912087789
 40
1.0
 40
1.0
 40
1.0
 40
1.0
 10
103.9370164708633
 20
56.80814789253287
 30
0.0
 10
103.7071026309005
 20
56.99923022336745
 30
0.0
 10
103.2475196773616
 20
57.38119149193766
 30
0.0
 10
102.69674571691
 20
57.951044589647
 30
0.0
 10
102.2736370442923
 20
58.49003077659289
 30
0.0
 10
101.9680265584356
 20
58.98696574310871
 30
0.0
 10
101.7408184341575
 20
59.52773636103034
 30
0.0
 10
101.6218525036016
 20
60.08460117298235
 30
0.0
 10
101.6279673891224
 20
60.63147293384188
 30
0.0
 10
101.7384338589832
 20
61.17213187386937
 30
0.0
 10
101.9617481760803
 20
61.70691308202067
 30
0.0
 10
102.3048492626964
 20
62.26571829101238
 30
0.0
 10
102.7499219924459
 20
62.81615375308974
 30
0.0
 10
103.2864530842183
 20
63.35192703258293
 30
0.0
 10
103.6934599644173
 20
63.70061829339483
 30
0.0
 10
103.9135963337327
 20
63.87799984643424
 30
0.0
 10
103.9370164708633
 20
63.89687133191177
 30
0.0
  0
LINE
  5
95
330
1F
100
AcDbEntity
  8
0
  6
Continuous
 62
     7
370
    25
100
AcDbLine
 10
103.9370164709
 20
63.8968713319
 30
0.0
 11
113.934878243
 21
63.8968713319
 31
0.0
  0
SPLINE
  5
96
330
1F
100
AcDbEntity
  8
0
  6
Continuous
 62
     7
370
    25
100
AcDbSpline
210
0.0
220
0.0
230
1.0
 70
     8
 71
     3
 72
    14
 73
    10
 74
     0
 42
0.00000001
 43
0.00000001
 40
0.0
 40
0.0
 40
0.0
 40
0.0
 40
0.1256601379075847
 40
0.2516558464791769
 40
0.4109471086771707
 40
0.5702234655241284
 40
0.7336736946401573
 40
0.8971597489228158
 40
0.9999999999999999
 40
0.9999999999999999
 40
0.9999999999999999
 40
0.9999999999999999
 10
113.9348782430292
 20
63.89687133191177
 30
0.0
 10
113.9992672812608
 20
63.60406592912074
 30
0.0
 10
114.1282173062246
 20
63.01767319774201
 30
0.0
 10
114.276387923012
 20
62.0479888851792
 30
0.0
 10
114.3682635427162
 20
60.99056611149599
 30
0.0
 10
114.3748690180863
 20
59.83939832585789
 30
0.0
 10
114.2824210633474
 20
58.68214399020032
 30
0.0
 10
114.1259124778327
 20
57.66785815892653
 30
0.0
 10
113.9880954381652
 20
57.04764092923382
 30
0.0
 10
113.9348782430294
 20
56.80814789253279
 30
0.0
  0
LINE
  5
97
330
1F
100
AcDbEntity
  8
0
  6
Continuous
 62
     7
370
    25
100
AcDbLine
 10
113.934878243
 20
55.1964872418
 30
0.0
 11
113.934878243
 21
56.8081478925
 31
0.0
  0
LINE
  5
98
330
1F
100
AcDbEntity
  8
0
  6
Continuous
 62
     7
370
    25
100
AcDbLine
 10
113.934878243
 20
63.8968713319
 30
0.0
 11
113.934878243
 21
65.5085319827
 31
0.0
  0
SPLINE
  5
99
330
1F
100
AcDbEntity
  8
0
  6
Continuous
 62
     7
370
    25
100
AcDbSpline
210
0.0
220
0.0
230
1.0
 70
     8
 71
     3
 72
    13
 73
     9
 74
     0
 42
0.00000001
 43
0.00000001
 40
0.0
 40
0.0
 40
0.0
 40
0.0
 40
0.1643206824199773
 40
0.3285993354056134
 40
0.4969323449809471
 40
0.6652646969914853
 40
0.8321643671150455
 40
1.0
 40
1.0
 40
1.0
 40
1.0
 10
113.9348782430292
 20
69.05289370234254
 30
0.0
 10
114.0174449797048
 20
68.86124894533212
 30
0.0
 10
114.1825573343921
 20
68.47800844961263
 30
0.0
 10
114.3305742172455
 20
67.88919818639779
 30
0.0
 10
114.3850911011633
 20
67.29170581825052
 30
0.0
 10
114.3340176291617
 20
66.69101486870693
 30
0.0
 10
114.1872630354908
 20
66.09470330740507
 30
0.0
 10
114.0191631834189
 20
65.70428630954004
 30
0.0
 10
113.9348782430292
 20
65.50853198265311
 30
0.0
  0
LINE
  5
9A
330
1F
100
AcDbEntity
  8
0
  6
Continuous
 62
     7
370
    25
100
AcDbLine
 10
113.934878243
 20
69.0528937023
 30
0.0
 11
113.934878243
 21
69.1025096122
 31
0.0
  0
LINE
  5
9B
330
1F
100
AcDbEntity
  8
0
  6
Continuous
 62
     7
370
    25
100
AcDbLine
 10
113.934878243
 20
51.6025096122
 30
0.0
 11
113.934878243
 21
51.6521255221
 31
0.0
  0
SPLINE
  5
9C
330
1F
100
AcDbEntity
  8
0
  6
Continuous
 62
     7
370
    25
100
AcDbSpline
210
0.0
220
0.0
230
1.0
 70
     8
 71
     3
 72
    13
 73
     9
 74
     0
 42
0.00000001
 43
0.00000001
 40
0.0
 40
0.0
 40
0.0
 40
0.0
 40
0.1643206824199781
 40
0.3285993354056149
 40
0.4969323449809497
 40
0.6652646969914886
 40
0.8321643671150473
 40
1.0
 40
1.0
 40
1.0
 40
1.0
 10
113.9348782430292
 20
55.19648724179157
 30
0.0
 10
114.0174449797048
 20
55.00484248478114
 30
0.0
 10
114.1825573343921
 20
54.62160198906166
 30
0.0
 10
114.3305742172454
 20
54.03279172584683
 30
0.0
 10
114.3850911011633
 20
53.43529935769954
 30
0.0
 10
114.3340176291617
 20
52.83460840815594
 30
0.0
 10
114.1872630354909
 20
52.23829684685413
 30
0.0
 10
114.0191631834189
 20
51.84787984898909
 30
0.0
 10
113.9348782430292
 20
51.65212552210217
 30
0.0
  0
LINE
  5
9D
330
1F
100
AcDbEntity
  8
0
  6
Continuous
 62
     7
370
    25
100
AcDbLine
 10
103.9370164709
 20
56.8081478925
 30
0.0
 11
103.9370164709
 21
55.1964872418
 31
0.0
  0
SPLINE
  5
9E
330
1F
100
AcDbEntity
  8
0
  6
Continuous
 62
     7
370
    25
100
AcDbSpline
210
0.0
220
0.0
230
1.0
 70
     8
 71
     3
 72
    20
 73
    16
 74
     0
 42
0.00000001
 43
0.00000001
 40
0.0
 40
0.0
 40
0.0
 40
0.0
 40
0.1188966968645917
 40
0.2375634126013242
 40
0.3060808789618322
 40
0.3744793202719439
 40
0.4287309583942546
 40
0.4829210320810352
 40
0.5373512983533264
 40
0.5918209520241775
 40
0.6609321545076219
 40
0.7301958280296453
 40
0.8199012595053332
 40
0.9099846956429744
 40
1.0
 40
1.0
 40
1.0
 40
1.0
 10
103.9370164708633
 20
51.65212552210217
 30
0.0
 10
103.6710934381292
 20
51.76311713991588
 30
0.0
 10
103.1397617458992
 20
51.98488568515978
 30
0.0
 10
102.5345623259224
 20
52.31469639846948
 30
0.0
 10
102.1060007219471
 20
52.61969926410777
 30
0.0
 10
101.8496968178888
 20
52.86819430771061
 30
0.0
 10
101.6900192401545
 20
53.11396778508394
 30
0.0
 10
101.6179362968183
 20
53.34963305992442
 30
0.0
 10
101.6361882822491
 20
53.5882656984633
 30
0.0
 10
101.7455179140679
 20
53.84282896508088
 30
0.0
 10
101.9635725633738
 20
54.10335697889818
 30
0.0
 10
102.3126076292693
 20
54.38692370677943
 30
0.0
 10
102.7720502728064
 20
54.66871832867452
 30
0.0
 10
103.3303645850485
 20
54.94598129216151
 30
0.0
 10
103.7348501815451
 20
55.11300632056966
 30
0.0
 10
103.9370164708633
 20
55.19648724179157
 30
0.0
  0
LINE
  5
9F
330
1F
100
AcDbEntity
  8
0
  6
Continuous
 62
     7
370
    25
100
AcDbLine
 10
103.9370164709
 20
51.6521255221
 30
0.0
 11
103.9370164709
 21
51.6025096122
 31
0.0
  0
LINE
  5
A0
330
1F
100
AcDbEntity
  8
0
  6
Continuous
 62
     7
370
    25
100
AcDbLine
 10
103.9370164709
 20
69.1025096122
 30
0.0
 11
103.9370164709
 21
69.0528937023
 31
0.0
  0
SPLINE
  5
A1
330
1F
100
AcDbEntity
  8
0
  6
Continuous
 62
     7
370
    25
100
AcDbSpline
210
0.0
220
0.0
230
1.0
 70
     8
 71
     3
 72
    20
 73
    16
 74
     0
 42
0.00000001
 43
0.00000001
 40
0.0
 40
0.0
 40
0.0
 40
0.0
 40
0.1188966968645922
 40
0.2375634126013251
 40
0.3060808789618342
 40
0.3744793202719464
 40
0.4287309583942573
 40
0.4829210320810379
 40
0.5373512983533292
 40
0.5918209520241804
 40
0.6609321545076242
 40
0.7301958280296474
 40
0.8199012595053347
 40
0.9099846956429749
 40
1.0
 40
1.0
 40
1.0
 40
1.0
 10
103.9370164708633
 20
65.50853198265311
 30
0.0
 10
103.6710934381292
 20
65.61952360046682
 30
0.0
 10
103.1397617458992
 20
65.84129214571072
 30
0.0
 10
102.5345623259224
 20
66.17110285902042
 30
0.0
 10
102.1060007219471
 20
66.47610572465872
 30
0.0
 10
101.8496968178888
 20
66.72460076826158
 30
0.0
 10
101.6900192401545
 20
66.97037424563493
 30
0.0
 10
101.6179362968183
 20
67.20603952047541
 30
0.0
 10
101.6361882822491
 20
67.44467215901429
 30
0.0
 10
101.7455179140679
 20
67.69923542563188
 30
0.0
 10
101.9635725633738
 20
67.95976343944916
 30
0.0
 10
102.3126076292693
 20
68.2433301673304
 30
0.0
 10
102.7720502728064
 20
68.52512478922552
 30
0.0
 10
103.3303645850485
 20
68.80238775271249
 30
0.0
 10
103.7348501815451
 20
68.96941278112064
 30
0.0
 10
103.9370164708633
 20
69.05289370234254
 30
0.0
  0
LINE
  5
A2
330
1F
100
AcDbEntity
  8
0
  6
Continuous
 62
     7
370
    25
100
AcDbLine
 10
103.9370164709
 20
65.5085319827
 30
0.0
 11
103.9370164709
 21
63.8968713319
 31
0.0
  0
LINE
  5
A3
330
1F
100
AcDbEntity
  8
0
  6
Continuous
 62
     7
370
    25
100
AcDbLine
 10
97.1603590375
 20
66.9006401375
 30
0.0
 11
97.1603590375
 21
53.8043790869
 31
0.0
  0
LINE
  5
A4
330
1F
100
AcDbEntity
  8
0
  6
Continuous
 62
     7
370
    25
100
AcDbLine
 10
113.934878243
 20
65.5085319827
 30
0.0
 11
103.9370164709
 21
65.5085319827
 31
0.0
  0
LINE
  5
A5
330
1F
100
AcDbEntity
  8
0
  6
Continuous
 62
     7
370
    25
100
AcDbLine
 10
103.9370164709
 20
55.1964872418
 30
0.0
 11
113.934878243
 21
55.1964872418
 31
0.0
  0
LINE
  5
A6
330
1F
100
AcDbEntity
  8
0
  6
Continuous
 62
     7
370
    25
100
AcDbLine
 10
103.9370164709
 20
69.0528937023
 30
0.0
 11
113.934878243
 21
69.0528937023
 31
0.0
  0
LINE
  5
A7
330
1F
100
AcDbEntity
  8
0
  6
Continuous
 62
     7
370
    25
100
AcDbLine
 10
113.934878243
 20
51.6521255221
 30
0.0
 11
103.9370164709
 21
51.6521255221
 31
0.0
  0
LINE
  5
A8
330
1F
100
AcDbEntity
  8
0
  6
Continuous
 62
     7
370
    25
100
AcDbLine
 10
97.0122285122
 20
53.9525096122
 30
0.0
 11
97.0122285122
 21
66.7525096122
 31
0.0
  0
LINE
  5
A9
330
1F
100
AcDbEntity
  8
0
  6
Continuous
 62
     7
370
    25
100
AcDbLine
 10
119.7905406757
 20
56.1098689251
 30
0.0
 11
115.2339163487
 21
56.1098689251
 31
0.0
  0
SPLINE
  5
AA
330
1F
100
AcDbEntity
  8
0
  6
Continuous
 62
     7
370
    25
100
AcDbSpline
210
0.0
220
0.0
230
1.0
 70
     8
 71
     3
 72
    14
 73
    10
 74
     0
 42
0.00000001
 43
0.00000001
 40
0.0
 40
0.0
 40
0.0
 40
0.0
 40
0.1192229419312328
 40
0.2616850747268373
 40
0.4041152230187641
 40
0.5501365448464931
 40
0.6961676515364528
 40
0.847683912725662
 40
1.0
 40
1.0
 40
1.0
 40
1.0
 10
115.233916348706
 20
56.10986892510317
 30
0.0
 10
115.1530618025
 20
56.44138602411545
 30
0.0
 10
114.97559236899
 20
57.16904024420916
 30
0.0
 10
114.7820368796995
 20
58.31036238448148
 30
0.0
 10
114.6613550878489
 20
59.53867051679956
 30
0.0
 10
114.645668443395
 20
60.78355591734878
 30
0.0
 10
114.7368442232984
 20
62.05080605570802
 30
0.0
 10
114.9290567206649
 20
63.32548013971404
 30
0.0
 10
115.1321182889669
 20
64.17118481860817
 30
0.0
 10
115.233916348706
 20
64.59515029934175
 30
0.0
  0
LINE
  5
AB
330
1F
100
AcDbEntity
  8
0
  6
Continuous
 62
     7
370
    25
100
AcDbLine
 10
115.2339163487
 20
64.5951502993
 30
0.0
 11
119.7905406757
 21
64.5951502993
 31
0.0
  0
SPLINE
  5
AC
330
1F
100
AcDbEntity
  8
0
  6
Continuous
 62
     7
370
    25
100
AcDbSpline
210
0.0
220
0.0
230
1.0
 70
     8
 71
     3
 72
    14
 73
    10
 74
     0
 42
0.00000001
 43
0.00000001
 40
0.0
 40
0.0
 40
0.0
 40
0.0
 40
0.1534448797333578
 40
0.3076296752908595
 40
0.4501946411985858
 40
0.5927507509938784
 40
0.7390826097178613
 40
0.885450073448215
 40
1.0
 40
1.0
 40
1.0
 40
1.0
 10
119.790540675732
 20
64.59515029934175
 30
0.0
 10
119.8930389147613
 20
64.16802877522369
 30
0.0
 10
120.0985296424106
 20
63.31172613415481
 30
0.0
 10
120.2892676093529
 20
62.03579339633163
 30
0.0
 10
120.3780945441289
 20
60.78068550092441
 30
0.0
 10
120.3634869337126
 20
59.54455066971215
 30
0.0
 10
120.2423093154712
 20
58.3037120575374
 30
0.0
 10
120.0456500243975
 20
57.15377081087446
 30
0.0
 10
119.868371037636
 20
56.42834906699862
 30
0.0
 10
119.790540675732
 20
56.10986892510317
 30
0.0
  0
LINE
  5
AD
330
1F
100
AcDbEntity
  8
0
  6
Continuous
 62
     7
370
    25
100
AcDbLine
 10
119.7905406757
 20
50.8525096122
 30
0.0
 11
119.7905406757
 21
50.8699733365
 31
0.0
  0
SPLINE
  5
AE
330
1F
100
AcDbEntity
  8
0
  6
Continuous
 62
     7
370
    25
100
AcDbSpline
210
0.0
220
0.0
230
1.0
 70
     8
 71
     3
 72
    13
 73
     9
 74
     0
 42
0.00000001
 43
0.00000001
 40
0.0
 40
0.0
 40
0.0
 40
0.0
 40
0.1486836725407958
 40
0.2973266681306995
 40
0.449519031478865
 40
0.6016998281953444
 40
0.7998469953576066
 40
1.0
 40
1.0
 40
1.0
 40
1.0
 10
119.790540675732
 20
55.11261402361434
 30
0.0
 10
119.8899994351821
 20
54.90571898770734
 30
0.0
 10
120.088889744107
 20
54.4919855183371
 30
0.0
 10
120.2844370069785
 20
53.85553527816613
 30
0.0
 10
120.3804352704023
 20
53.20842688616589
 30
0.0
 10
120.3583633037589
 20
52.48878148291175
 30
0.0
 10
120.1819849916976
 20
51.70405420030077
 30
0.0
 10
119.9214594494543
 20
51.14893215495525
 30
0.0
 10
119.790540675732
 20
50.869973336495
 30
0.0
  0
LINE
  5
AF
330
1F
100
AcDbEntity
  8
0
  6
Continuous
 62
     7
370
    25
100
AcDbLine
 10
119.7905406757
 20
55.1126140236
 30
0.0
 11
119.7905406757
 21
56.1098689251
 31
0.0
  0
LINE
  5
B0
330
1F
100
AcDbEntity
  8
0
  6
Continuous
 62
     7
370
    25
100
AcDbLine
 10
119.7905406757
 20
64.5951502993
 30
0.0
 11
119.7905406757
 21
65.5924052008
 31
0.0
  0
SPLINE
  5
B1
330
1F
100
AcDbEntity
  8
0
  6
Continuous
 62
     7
370
    25
100
AcDbSpline
210
0.0
220
0.0
230
1.0
 70
     8
 71
     3
 72
    13
 73
     9
 74
     0
 42
0.00000001
 43
0.00000001
 40
0.0
 40
0.0
 40
0.0
 40
0.0
 40
0.1486836725407981
 40
0.2973266681307042
 40
0.4495190314788722
 40
0.601699828195354
 40
0.7998469953576114
 40
1.0
 40
1.0
 40
1.0
 40
1.0
 10
119.790540675732
 20
69.83504588794975
 30
0.0
 10
119.8899994351821
 20
69.62815085204274
 30
0.0
 10
120.088889744107
 20
69.21441738267252
 30
0.0
 10
120.2844370069785
 20
68.57796714250156
 30
0.0
 10
120.3804352704023
 20
67.93085875050133
 30
0.0
 10
120.3583633037589
 20
67.21121334724722
 30
0.0
 10
120.1819849916975
 20
66.42648606463628
 30
0.0
 10
119.9214594494543
 20
65.87136401929078
 30
0.0
 10
119.790540675732
 20
65.59240520083056
 30
0.0
  0
LINE
  5
B2
330
1F
100
AcDbEntity
  8
0
  6
Continuous
 62
     7
370
    25
100
AcDbLine
 10
119.7905406757
 20
69.8350458879
 30
0.0
 11
119.7905406757
 21
69.8525096122
 31
0.0
  0
LINE
  5
B3
330
1F
100
AcDbEntity
  8
0
  6
Continuous
 62
     7
370
    25
100
AcDbLine
 10
114.5122285122
 20
60.3525096122
 30
0.0
 11
114.5122285122
 21
68.6025096122
 31
0.0
  0
LINE
  5
B4
330
1F
100
AcDbEntity
  8
0
  6
Continuous
 62
     7
370
    25
100
AcDbLine
 10
114.5122285122
 20
52.1025096122
 30
0.0
 11
114.5122285122
 21
60.3525096122
 31
0.0
  0
LINE
  5
B5
330
1F
100
AcDbEntity
  8
0
  6
Continuous
 62
     7
370
    25
100
AcDbLine
 10
115.2339163487
 20
69.8525096122
 30
0.0
 11
115.2339163487
 21
69.8350458879
 31
0.0
  0
SPLINE
  5
B6
330
1F
100
AcDbEntity
  8
0
  6
Continuous
 62
     7
370
    25
100
AcDbSpline
210
0.0
220
0.0
230
1.0
 70
     8
 71
     3
 72
    13
 73
     9
 74
     0
 42
0.00000001
 43
0.00000001
 40
0.0
 40
0.0
 40
0.0
 40
0.0
 40
0.1486836725407981
 40
0.2973266681307041
 40
0.4495190314788719
 40
0.6016998281953535
 40
0.7998469953576114
 40
1.0
 40
1.0
 40
1.0
 40
1.0
 10
115.233916348706
 20
65.59240520083057
 30
0.0
 10
115.1344575892559
 20
65.79930023673757
 30
0.0
 10
114.9355672803309
 20
66.2130337061078
 30
0.0
 10
114.7400200174595
 20
66.84948394627874
 30
0.0
 10
114.6440217540356
 20
67.49659233827899
 30
0.0
 10
114.6660937206791
 20
68.21623774153308
 30
0.0
 10
114.8424720327404
 20
69.00096502414402
 30
0.0
 10
115.1029975749837
 20
69.55608706948951
 30
0.0
 10
115.233916348706
 20
69.83504588794975
 30
0.0
  0
LINE
  5
B7
330
1F
100
AcDbEntity
  8
0
  6
Continuous
 62
     7
370
    25
100
AcDbLine
 10
115.2339163487
 20
65.5924052008
 30
0.0
 11
115.2339163487
 21
64.5951502993
 31
0.0
  0
LINE
  5
B8
330
1F
100
AcDbEntity
  8
0
  6
Continuous
 62
     7
370
    25
100
AcDbLine
 10
115.2339163487
 20
56.1098689251
 30
0.0
 11
115.2339163487
 21
55.1126140236
 31
0.0
  0
SPLINE
  5
B9
330
1F
100
AcDbEntity
  8
0
  6
Continuous
 62
     7
370
    25
100
AcDbSpline
210
0.0
220
0.0
230
1.0
 70
     8
 71
     3
 72
    13
 73
     9
 74
     0
 42
0.00000001
 43
0.00000001
 40
0.0
 40
0.0
 40
0.0
 40
0.0
 40
0.1486836725407957
 40
0.2973266681306994
 40
0.4495190314788648
 40
0.6016998281953441
 40
0.7998469953576065
 40
1.0
 40
1.0
 40
1.0
 40
1.0
 10
115.233916348706
 20
50.869973336495
 30
0.0
 10
115.1344575892559
 20
51.076868372402
 30
0.0
 10
114.9355672803309
 20
51.49060184177223
 30
0.0
 10
114.7400200174594
 20
52.12705208194321
 30
0.0
 10
114.6440217540356
 20
52.77416047394345
 30
0.0
 10
114.6660937206791
 20
53.49380587719758
 30
0.0
 10
114.8424720327404
 20
54.27853315980857
 30
0.0
 10
115.1029975749837
 20
54.83365520515409
 30
0.0
 10
115.233916348706
 20
55.11261402361434
 30
0.0
  0
LINE
  5
BA
330
1F
100
AcDbEntity
  8
0
  6
Continuous
 62
     7
370
    25
100
AcDbLine
 10
115.2339163487
 20
50.8699733365
 30
0.0
 11
115.2339163487
 21
50.8525096122
 31
0.0
  0
LINE
  5
BB
330
1F
100
AcDbEntity
  8
0
  6
Continuous
 62
     7
370
    25
100
AcDbLine
 10
115.2339163487
 20
55.1126140236
 30
0.0
 11
119.7905406757
 21
55.1126140236
 31
0.0
  0
LINE
  5
BC
330
1F
100
AcDbEntity
  8
0
  6
Continuous
 62
     7
370
    25
100
AcDbLine
 10
119.7905406757
 20
65.5924052008
 30
0.0
 11
115.2339163487
 21
65.5924052008
 31
0.0
  0
LINE
  5
BD
330
1F
100
AcDbEntity
  8
0
  6
Continuous
 62
     7
370
    25
100
AcDbLine
 10
119.7905406757
 20
50.8699733365
 30
0.0
 11
115.2339163487
 21
50.8699733365
 31
0.0
  0
LINE
  5
BE
330
1F
100
AcDbEntity
  8
0
  6
Continuous
 62
     7
370
    25
100
AcDbLine
 10
115.2339163487
 20
69.8350458879
 30
0.0
 11
119.7905406757
 21
69.8350458879
 31
0.0
  0
LINE
  5
BF
330
1F
100
AcDbEntity
  8
0
  6
Continuous
 62
     7
370
    25
100
AcDbLine
 10
138.3941945235
 20
50.3525096122
 30
0.0
 11
138.3941945235
 21
70.3525096122
 31
0.0
  0
LINE
  5
C0
330
1F
100
AcDbEntity
  8
0
  6
Continuous
 62
     7
370
    25
100
AcDbLine
 10
140.0122285122
 20
50.3525096122
 30
0.0
 11
140.0122285122
 21
70.3525096122
 31
0.0
  0
SPLINE
  5
C1
330
1F
100
AcDbEntity
  8
0
  6
Continuous
 62
     7
370
    25
100
AcDbSpline
210
0.0
220
0.0
230
1.0
 70
     8
 71
     3
 72
     8
 73
     4
 74
     0
 42
0.00000001
 43
0.00000001
 40
0.0
 40
0.0
 40
0.0
 40
0.0
 40
1.0
 40
1.0
 40
1.0
 40
1.0
 10
138.1094296368729
 20
54.95281976072647
 30
0.0
 10
138.0415932192969
 20
54.92145681971569
 30
0.0
 10
138.012228512219
 20
54.88798865906613
 30
0.0
 10
138.012228512219
 20
54.85250961222236
 30
0.0
  0
SPLINE
  5
C2
330
1F
100
AcDbEntity
  8
0
  6
Continuous
 62
     7
370
    25
100
AcDbSpline
210
0.0
220
0.0
230
1.0
 70
     8
 71
     3
 72
    12
 73
     8
 74
     0
 42
0.00000001
 43
0.00000001
 40
0.0
 40
0.0
 40
0.0
 40
0.0
 40
0.5000000000000001
 40
0.5000000000000001
 40
0.75
 40
0.75
 40
1.0
 40
1.0
 40
1.0
 40
1.0
 10
138.1094296368729
 20
54.95281976072647
 30
0.0
 10
138.1772993968827
 20
54.98419811700857
 30
0.0
 10
138.2533339481365
 20
55.11790663750712
 30
0.0
 10
138.2999785465135
 20
55.3959327471729
 30
0.0
 10
138.3044175430361
 20
55.50277893117686
 30
0.0
 10
138.2886869292433
 20
55.7296604052326
 30
0.0
 10
138.2688064993009
 20
55.84982937753722
 30
0.0
 10
138.241314579321
 20
55.97127902234745
 30
0.0
  0
SPLINE
  5
C3
330
1F
100
AcDbEntity
  8
0
  6
Continuous
 62
     7
370
    25
100
AcDbSpline
210
0.0
220
0.0
230
1.0
 70
     8
 71
     3
 72
    12
 73
     8
 74
     0
 42
0.00000001
 43
0.00000001
 40
0.0
 40
0.0
 40
0.0
 40
0.0
 40
0.5
 40
0.5
 40
0.75
 40
0.75
 40
1.0
 40
1.0
 40
1.0
 40
1.0
 10
138.012228512219
 20
60.35250961222237
 30
0.0
 10
138.012228512219
 20
59.61855259006516
 30
0.0
 10
138.0076711172198
 20
58.88557414570235
 30
0.0
 10
138.0348547815991
 20
57.78875003275594
 30
0.0
 10
138.0503044525162
 20
57.42360244418551
 30
0.0
 10
138.1131680540481
 20
56.69481443032146
 30
0.0
 10
138.1601979772164
 20
56.32962367492313
 30
0.0
 10
138.241314579321
 20
55.97127902234745
 30
0.0
  0
SPLINE
  5
C4
330
1F
100
AcDbEntity
  8
0
  6
Continuous
 62
     7
370
    25
100
AcDbSpline
210
0.0
220
0.0
230
1.0
 70
     8
 71
     3
 72
    12
 73
     8
 74
     0
 42
0.00000001
 43
0.00000001
 40
0.0
 40
0.0
 40
0.0
 40
0.0
 40
0.25
 40
0.25
 40
0.5
 40
0.5
 40
1.0
 40
1.0
 40
1.0
 40
1.0
 10
138.241314579321
 20
64.73374020209727
 30
0.0
 10
138.1601979772164
 20
64.3753955495216
 30
0.0
 10
138.1131680540481
 20
64.01020479412327
 30
0.0
 10
138.0503044525162
 20
63.28141678025923
 30
0.0
 10
138.0348547815991
 20
62.9162691916888
 30
0.0
 10
138.0076711172198
 20
61.81944507874239
 30
0.0
 10
138.012228512219
 20
61.08646663437958
 30
0.0
 10
138.012228512219
 20
60.35250961222236
 30
0.0
  0
SPLINE
  5
C5
330
1F
100
AcDbEntity
  8
0
  6
Continuous
 62
     7
370
    25
100
AcDbSpline
210
0.0
220
0.0
230
1.0
 70
     8
 71
     3
 72
    14
 73
    10
 74
     0
 42
0.00000001
 43
0.00000001
 40
0.0
 40
0.0
 40
0.0
 40
0.0
 40
0.25
 40
0.25
 40
0.5
 40
0.5
 40
0.75
 40
0.75
 40
1.0
 40
1.0
 40
1.0
 40
1.0
 10
138.241314579321
 20
64.73374020209727
 30
0.0
 10
138.2688355670661
 20
64.85531825808297
 30
0.0
 10
138.2887554889025
 20
64.97584299510811
 30
0.0
 10
138.3044225307206
 20
65.20281925421621
 30
0.0
 10
138.2999306989082
 20
65.30978923178239
 30
0.0
 10
138.2686743536247
 20
65.49525478356212
 30
0.0
 10
138.2423017702429
 20
65.57414004468096
 30
0.0
 10
138.1794652190986
 20
65.69477783585405
 30
0.0
 10
138.1434256402385
 20
65.73648202629666
 30
0.0
 10
138.1094296368729
 20
65.75219946371827
 30
0.0
  0
SPLINE
  5
C6
330
1F
100
AcDbEntity
  8
0
  6
Continuous
 62
     7
370
    25
100
AcDbSpline
210
0.0
220
0.0
230
1.0
 70
     8
 71
     3
 72
     8
 73
     4
 74
     0
 42
0.00000001
 43
0.00000001
 40
0.0
 40
0.0
 40
0.0
 40
0.0
 40
1.0
 40
1.0
 40
1.0
 40
1.0
 10
138.012228512219
 20
65.85250961222236
 30
0.0
 10
138.012228512219
 20
65.81703056537859
 30
0.0
 10
138.0415932192969
 20
65.78356240472904
 30
0.0
 10
138.1094296368729
 20
65.75219946371826
 30
0.0
  0
LINE
  5
C7
330
1F
100
AcDbEntity
  8
0
  6
Continuous
 62
     7
370
    25
100
AcDbLine
 10
138.0122285122
 20
65.8525096122
 30
0.0
 11
138.0122285122
 21
69.3525096122
 31
0.0
  0
LINE
  5
C8
330
1F
100
AcDbEntity
  8
0
  6
Continuous
 62
     7
370
    25
100
AcDbLine
 10
138.0122285122
 20
51.3525096122
 30
0.0
 11
138.0122285122
 21
54.8525096122
 31
0.0
  0
LINE
  5
C9
330
1F
100
AcDbEntity
  8
0
  6
Continuous
 62
     7
370
    25
100
AcDbLine
 10
140.5122285122
 20
69.8525096122
 30
0.0
 11
140.5122285122
 21
50.8525096122
 31
0.0
  0
LINE
  5
CA
330
1F
100
AcDbEntity
  8
0
  6
Continuous
 62
     7
370
    25
100
AcDbLine
 10
122.630262501
 20
60.3525096122
 30
0.0
 11
122.630262501
 21
50.3525096122
 31
0.0
  0
LINE
  5
CB
330
1F
100
AcDbEntity
  8
0
  6
Continuous
 62
     7
370
    25
100
AcDbLine
 10
122.630262501
 20
70.3525096122
 30
0.0
 11
122.630262501
 21
60.3525096122
 31
0.0
  0
LINE
  5
CC
330
1F
100
AcDbEntity
  8
0
  6
Continuous
 62
     7
370
    25
100
AcDbLine
 10
120.7622285122
 20
60.3525096122
 30
0.0
 11
120.7622285122
 21
50.3525096122
 31
0.0
  0
LINE
  5
CD
330
1F
100
AcDbEntity
  8
0
  6
Continuous
 62
     7
370
    25
100
AcDbLine
 10
120.7622285122
 20
70.3525096122
 30
0.0
 11
120.7622285122
 21
60.3525096122
 31
0.0
  0
LINE
  5
CE
330
1F
100
AcDbEntity
  8
0
  6
Continuous
 62
     7
370
    25
100
AcDbLine
 10
123.0122285122
 20
69.3525096122
 30
0.0
 11
123.0122285122
 21
65.8525096122
 31
0.0
  0
SPLINE
  5
CF
330
1F
100
AcDbEntity
  8
0
  6
Continuous
 62
     7
370
    25
100
AcDbSpline
210
0.0
220
0.0
230
1.0
 70
     8
 71
     3
 72
     8
 73
     4
 74
     0
 42
0.00000001
 43
0.00000001
 40
0.0
 40
0.0
 40
0.0
 40
0.0
 40
1.0
 40
1.0
 40
1.0
 40
1.0
 10
122.9150273875651
 20
65.75219946371826
 30
0.0
 10
122.9828638051411
 20
65.78356240472904
 30
0.0
 10
123.012228512219
 20
65.81703056537859
 30
0.0
 10
123.012228512219
 20
65.85250961222236
 30
0.0
  0
SPLINE
  5
D0
330
1F
100
AcDbEntity
  8
0
  6
Continuous
 62
     7
370
    25
100
AcDbSpline
210
0.0
220
0.0
230
1.0
 70
     8
 71
     3
 72
    12
 73
     8
 74
     0
 42
0.00000001
 43
0.00000001
 40
0.0
 40
0.0
 40
0.0
 40
0.0
 40
0.4999999999999992
 40
0.4999999999999992
 40
0.7499999999999996
 40
0.7499999999999996
 40
1.0
 40
1.0
 40
1.0
 40
1.0
 10
122.9150273875651
 20
65.75219946371826
 30
0.0
 10
122.8471576275553
 20
65.72082110743617
 30
0.0
 10
122.7711230763015
 20
65.58711258693761
 30
0.0
 10
122.7244784779245
 20
65.30908647727183
 30
0.0
 10
122.7200394814019
 20
65.20224029326788
 30
0.0
 10
122.7357700951947
 20
64.97535881921212
 30
0.0
 10
122.7556505251371
 20
64.8551898469075
 30
0.0
 10
122.783142445117
 20
64.73374020209727
 30
0.0
  0
SPLINE
  5
D1
330
1F
100
AcDbEntity
  8
0
  6
Continuous
 62
     7
370
    25
100
AcDbSpline
210
0.0
220
0.0
230
1.0
 70
     8
 71
     3
 72
    12
 73
     8
 74
     0
 42
0.00000001
 43
0.00000001
 40
0.0
 40
0.0
 40
0.0
 40
0.0
 40
0.4999999999999998
 40
0.4999999999999998
 40
0.7499999999999999
 40
0.7499999999999999
 40
1.0
 40
1.0
 40
1.0
 40
1.0
 10
123.012228512219
 20
60.35250961222235
 30
0.0
 10
123.012228512219
 20
61.08646663437957
 30
0.0
 10
123.0167859072182
 20
61.81944507874238
 30
0.0
 10
122.9896022428389
 20
62.9162691916888
 30
0.0
 10
122.9741525719217
 20
63.28141678025923
 30
0.0
 10
122.9112889703899
 20
64.01020479412327
 30
0.0
 10
122.8642590472216
 20
64.3753955495216
 30
0.0
 10
122.783142445117
 20
64.73374020209727
 30
0.0
  0
SPLINE
  5
D2
330
1F
100
AcDbEntity
  8
0
  6
Continuous
 62
     7
370
    25
100
AcDbSpline
210
0.0
220
0.0
230
1.0
 70
     8
 71
     3
 72
    12
 73
     8
 74
     0
 42
0.00000001
 43
0.00000001
 40
0.0
 40
0.0
 40
0.0
 40
0.0
 40
0.2500000000000001
 40
0.2500000000000001
 40
0.5000000000000002
 40
0.5000000000000002
 40
1.0
 40
1.0
 40
1.0
 40
1.0
 10
122.783142445117
 20
55.97127902234745
 30
0.0
 10
122.8642590472216
 20
56.32962367492313
 30
0.0
 10
122.9112889703899
 20
56.69481443032146
 30
0.0
 10
122.9741525719217
 20
57.42360244418551
 30
0.0
 10
122.9896022428389
 20
57.78875003275594
 30
0.0
 10
123.0167859072182
 20
58.88557414570235
 30
0.0
 10
123.012228512219
 20
59.61855259006515
 30
0.0
 10
123.012228512219
 20
60.35250961222237
 30
0.0
  0
SPLINE
  5
D3
330
1F
100
AcDbEntity
  8
0
  6
Continuous
 62
     7
370
    25
100
AcDbSpline
210
0.0
220
0.0
230
1.0
 70
     8
 71
     3
 72
    14
 73
    10
 74
     0
 42
0.00000001
 43
0.00000001
 40
0.0
 40
0.0
 40
0.0
 40
0.0
 40
0.25
 40
0.25
 40
0.5
 40
0.5
 40
0.75
 40
0.75
 40
1.0
 40
1.0
 40
1.0
 40
1.0
 10
122.783142445117
 20
55.97127902234745
 30
0.0
 10
122.7556214573719
 20
55.84970096636174
 30
0.0
 10
122.7357015355355
 20
55.72917622933662
 30
0.0
 10
122.7200344937174
 20
55.50219997022851
 30
0.0
 10
122.7245263255297
 20
55.39522999266234
 30
0.0
 10
122.7557826708133
 20
55.20976444088261
 30
0.0
 10
122.7821552541951
 20
55.13087917976377
 30
0.0
 10
122.8449918053394
 20
55.01024138859068
 30
0.0
 10
122.8810313841995
 20
54.96853719814807
 30
0.0
 10
122.9150273875651
 20
54.95281976072647
 30
0.0
  0
SPLINE
  5
D4
330
1F
100
AcDbEntity
  8
0
  6
Continuous
 62
     7
370
    25
100
AcDbSpline
210
0.0
220
0.0
230
1.0
 70
     8
 71
     3
 72
     8
 73
     4
 74
     0
 42
0.00000001
 43
0.00000001
 40
0.0
 40
0.0
 40
0.0
 40
0.0
 40
1.0
 40
1.0
 40
1.0
 40
1.0
 10
123.012228512219
 20
54.85250961222236
 30
0.0
 10
123.012228512219
 20
54.88798865906613
 30
0.0
 10
122.9828638051411
 20
54.92145681971569
 30
0.0
 10
122.9150273875651
 20
54.95281976072647
 30
0.0
  0
LINE
  5
D5
330
1F
100
AcDbEntity
  8
0
  6
Continuous
 62
     7
370
    25
100
AcDbLine
 10
123.0122285122
 20
54.8525096122
 30
0.0
 11
123.0122285122
 21
51.3525096122
 31
0.0
  0
LINE
  5
D6
330
1F
100
AcDbEntity
  8
0
  6
Continuous
 62
     7
370
    25
100
AcDbLine
 10
120.5122285122
 20
60.3525096122
 30
0.0
 11
120.5122285122
 21
70.1025096122
 31
0.0
  0
LINE
  5
D7
330
1F
100
AcDbEntity
  8
0
  6
Continuous
 62
     7
370
    25
100
AcDbLine
 10
120.5122285122
 20
50.6025096122
 30
0.0
 11
120.5122285122
 21
60.3525096122
 31
0.0
  0
LINE
  5
D8
330
1F
100
AcDbEntity
  8
0
  6
Continuous
 62
     7
370
    25
100
AcDbLine
 10
138.0122285122
 20
60.3525096122
 30
0.0
 11
137.5122285122
 21
60.3525096122
 31
0.0
  0
SPLINE
  5
D9
330
1F
100
AcDbEntity
  8
0
  6
Continuous
 62
     7
370
    25
100
AcDbSpline
210
0.0
220
0.0
230
1.0
 70
     8
 71
     3
 72
    14
 73
    10
 74
     0
 42
0.00000001
 43
0.00000001
 40
0.0
 40
0.0
 40
0.0
 40
0.0
 40
0.2499999999999999
 40
0.2499999999999999
 40
0.4999999999999999
 40
0.4999999999999999
 40
0.7499999999999999
 40
0.7499999999999999
 40
1.0
 40
1.0
 40
1.0
 40
1.0
 10
137.512228512219
 20
60.35250961222236
 30
0.0
 10
137.512228512219
 20
60.72902632430934
 30
0.0
 10
137.5118192504993
 20
61.10556238193829
 30
0.0
 10
137.5151305986052
 20
61.85843928078688
 30
0.0
 10
137.5188940840699
 20
62.23477809530223
 30
0.0
 10
137.5446673398496
 20
62.98659323401737
 30
0.0
 10
137.5665854345281
 20
63.36207389166637
 30
0.0
 10
137.6518030977134
 20
64.11107913093505
 30
0.0
 10
137.7151160838643
 20
64.48668704637652
 30
0.0
 10
137.8176766016884
 20
64.85250961222236
 30
0.0
  0
LINE
  5
DA
330
1F
100
AcDbEntity
  8
0
  6
Continuous
 62
     7
370
    25
100
AcDbLine
 10
138.2413145793
 20
64.7337402021
 30
0.0
 11
137.8176766017
 21
64.8525096122
 31
0.0
  0
SPLINE
  5
DB
330
1F
100
AcDbEntity
  8
0
  6
Continuous
 62
     7
370
    25
100
AcDbSpline
210
0.0
220
0.0
230
1.0
 70
     8
 71
     3
 72
    14
 73
    10
 74
     0
 42
0.00000001
 43
0.00000001
 40
0.0
 40
0.0
 40
0.0
 40
0.0
 40
0.2500000000000001
 40
0.2500000000000001
 40
0.5000000000000001
 40
0.5000000000000001
 40
0.7500000000000001
 40
0.7500000000000001
 40
1.0
 40
1.0
 40
1.0
 40
1.0
 10
123.512228512219
 20
60.35250961222237
 30
0.0
 10
123.512228512219
 20
59.9759929001354
 30
0.0
 10
123.5126377739386
 20
59.59945684250642
 30
0.0
 10
123.5093264258328
 20
58.84657994365784
 30
0.0
 10
123.5055629403681
 20
58.47024112914249
 30
0.0
 10
123.4797896845884
 20
57.71842599042736
 30
0.0
 10
123.4578715899099
 20
57.34294533277836
 30
0.0
 10
123.3726539267246
 20
56.59394009350967
 30
0.0
 10
123.3093409405737
 20
56.21833217806822
 30
0.0
 10
123.2067804227496
 20
55.85250961222236
 30
0.0
  0
LINE
  5
DC
330
1F
100
AcDbEntity
  8
0
  6
Continuous
 62
     7
370
    25
100
AcDbLine
 10
123.2067804227
 20
55.8525096122
 30
0.0
 11
122.7831424451
 21
55.9712790223
 31
0.0
  0
LINE
  5
DD
330
1F
100
AcDbEntity
  8
0
  6
Continuous
 62
     7
370
    25
100
AcDbLine
 10
123.5122285122
 20
60.3525096122
 30
0.0
 11
123.0122285122
 21
60.3525096122
 31
0.0
  0
LINE
  5
DE
330
1F
100
AcDbEntity
  8
0
  6
Continuous
 62
     7
370
    25
100
AcDbLine
 10
138.2413145793
 20
55.9712790223
 30
0.0
 11
137.8176766017
 21
55.8525096122
 31
0.0
  0
SPLINE
  5
DF
330
1F
100
AcDbEntity
  8
0
  6
Continuous
 62
     7
370
    25
100
AcDbSpline
210
0.0
220
0.0
230
1.0
 70
     8
 71
     3
 72
    14
 73
    10
 74
     0
 42
0.00000001
 43
0.00000001
 40
0.0
 40
0.0
 40
0.0
 40
0.0
 40
0.2500000000000002
 40
0.2500000000000002
 40
0.5000000000000003
 40
0.5000000000000003
 40
0.7500000000000002
 40
0.7500000000000002
 40
1.0
 40
1.0
 40
1.0
 40
1.0
 10
137.8176766016884
 20
55.85250961222236
 30
0.0
 10
137.7151160838643
 20
56.21833217806822
 30
0.0
 10
137.6518030977134
 20
56.59394009350967
 30
0.0
 10
137.5665854345281
 20
57.34294533277836
 30
0.0
 10
137.5446673398496
 20
57.71842599042736
 30
0.0
 10
137.5188940840699
 20
58.4702411291425
 30
0.0
 10
137.5151305986052
 20
58.84657994365785
 30
0.0
 10
137.5118192504993
 20
59.59945684250643
 30
0.0
 10
137.512228512219
 20
59.9759929001354
 30
0.0
 10
137.512228512219
 20
60.35250961222237
 30
0.0
  0
SPLINE
  5
E0
330
1F
100
AcDbEntity
  8
0
  6
Continuous
 62
     7
370
    25
100
AcDbSpline
210
0.0
220
0.0
230
1.0
 70
     8
 71
     3
 72
    14
 73
    10
 74
     0
 42
0.00000001
 43
0.00000001
 40
0.0
 40
0.0
 40
0.0
 40
0.0
 40
0.2500000000000001
 40
0.2500000000000001
 40
0.5000000000000001
 40
0.5000000000000001
 40
0.75
 40
0.75
 40
1.0
 40
1.0
 40
1.0
 40
1.0
 10
123.2067804227496
 20
64.85250961222236
 30
0.0
 10
123.3093409405737
 20
64.48668704637652
 30
0.0
 10
123.3726539267246
 20
64.11107913093505
 30
0.0
 10
123.4578715899099
 20
63.36207389166637
 30
0.0
 10
123.4797896845884
 20
62.98659323401737
 30
0.0
 10
123.5055629403681
 20
62.23477809530222
 30
0.0
 10
123.5093264258328
 20
61.85843928078687
 30
0.0
 10
123.5126377739386
 20
61.10556238193828
 30
0.0
 10
123.512228512219
 20
60.72902632430932
 30
0.0
 10
123.512228512219
 20
60.35250961222236
 30
0.0
  0
LINE
  5
E1
330
1F
100
AcDbEntity
  8
0
  6
Continuous
 62
     7
370
    25
100
AcDbLine
 10
123.2067804227
 20
64.8525096122
 30
0.0
 11
122.7831424451
 21
64.7337402021
 31
0.0
  0
SPLINE
  5
E2
330
1F
100
AcDbEntity
  8
0
  6
Continuous
 62
     7
370
    25
100
AcDbSpline
210
0.0
220
0.0
230
1.0
 70
     8
 71
     3
 72
    14
 73
    10
 74
     0
 42
0.00000001
 43
0.00000001
 40
0.0
 40
0.0
 40
0.0
 40
0.0
 40
0.25
 40
0.25
 40
0.5
 40
0.5
 40
0.75
 40
0.75
 40
1.0
 40
1.0
 40
1.0
 40
1.0
 10
123.3826270126804
 20
55.35250961222236
 30
0.0
 10
123.3441515290588
 20
55.35250961222236
 30
0.0
 10
123.3030626075888
 20
55.36329618320558
 30
0.0
 10
123.2237797601483
 20
55.40622797027074
 30
0.0
 10
123.1864968590378
 20
55.43764547857562
 30
0.0
 10
123.133691099726
 20
55.52896032415183
 30
0.0
 10
123.1217218396324
 20
55.59019080691608
 30
0.0
 10
123.1417236280045
 20
55.72105416757181
 30
0.0
 10
123.1711800835568
 20
55.7890182819094
 30
0.0
 10
123.2067804227496
 20
55.85250961222236
 30
0.0
  0
ARC
  5
E3
330
1F
100
AcDbEntity
  8
0
  6
Continuous
 62
     7
370
    25
100
AcDbCircle
 10
123.3911755962
 20
54.8691398015
 30
0.0
 40
0.4834453973191669
100
AcDbArc
 50
91.0131925738
 51
170.032425387
  0
SPLINE
  5
E4
330
1F
100
AcDbEntity
  8
0
  6
Continuous
 62
     7
370
    25
100
AcDbSpline
210
0.0
220
0.0
230
1.0
 70
     8
 71
     3
 72
    14
 73
    10
 74
     0
 42
0.00000001
 43
0.00000001
 40
0.0
 40
0.0
 40
0.0
 40
0.0
 40
0.25
 40
0.25
 40
0.5
 40
0.5
 40
0.75
 40
0.75
 40
1.0
 40
1.0
 40
1.0
 40
1.0
 10
137.6418300117575
 20
65.35250961222236
 30
0.0
 10
137.6803054953791
 20
65.35250961222236
 30
0.0
 10
137.7213944168492
 20
65.34172304123913
 30
0.0
 10
137.8006772642897
 20
65.29879125417399
 30
0.0
 10
137.8379601654002
 20
65.26737374586912
 30
0.0
 10
137.890765924712
 20
65.1760589002929
 30
0.0
 10
137.9027351848056
 20
65.11482841752864
 30
0.0
 10
137.8827333964334
 20
64.98396505687292
 30
0.0
 10
137.8532769408811
 20
64.91600094253533
 30
0.0
 10
137.8176766016884
 20
64.85250961222236
 30
0.0
  0
ARC
  5
E5
330
1F
100
AcDbEntity
  8
0
  6
Continuous
 62
     7
370
    25
100
AcDbCircle
 10
137.6332814282
 20
65.8358794229
 30
0.0
 40
0.4834453973192577
100
AcDbArc
 50
271.0131925738
 51
350.032425387
  0
ARC
  5
E6
330
1F
100
AcDbEntity
  8
0
  6
Continuous
 62
     7
370
    25
100
AcDbCircle
 10
137.6332814282
 20
54.8691398015
 30
0.0
 40
0.4834453973192501
100
AcDbArc
 50
9.967574613
 51
88.9868074262
  0
SPLINE
  5
E7
330
1F
100
AcDbEntity
  8
0
  6
Continuous
 62
     7
370
    25
100
AcDbSpline
210
0.0
220
0.0
230
1.0
 70
     8
 71
     3
 72
    16
 73
    12
 74
     0
 42
0.00000001
 43
0.00000001
 40
0.0
 40
0.0
 40
0.0
 40
0.0
 40
0.2499999999999999
 40
0.2499999999999999
 40
0.3750000000000003
 40
0.3750000000000003
 40
0.5000000000000007
 40
0.5000000000000007
 40
0.7500000000000003
 40
0.7500000000000003
 40
1.0
 40
1.0
 40
1.0
 40
1.0
 10
137.8176766016884
 20
55.85250961222236
 30
0.0
 10
137.853230531137
 20
55.78910105124417
 30
0.0
 10
137.8825026723657
 20
55.72183375092335
 30
0.0
 10
137.8977152225866
 20
55.62339443978101
 30
0.0
 10
137.8977758907601
 20
55.59091903342572
 30
0.0
 10
137.8875653062828
 20
55.53229382629952
 30
0.0
 10
137.8777819767576
 20
55.50667101474654
 30
0.0
 10
137.8386174282256
 20
55.43846217105109
 30
0.0
 10
137.8007443549524
 20
55.40629941588531
 30
0.0
 10
137.7216713819608
 20
55.36341119676942
 30
0.0
 10
137.6802842493699
 20
55.35250961222236
 30
0.0
 10
137.6418300117575
 20
55.35250961222236
 30
0.0
  0
SPLINE
  5
E8
330
1F
100
AcDbEntity
  8
0
  6
Continuous
 62
     7
370
    25
100
AcDbSpline
210
0.0
220
0.0
230
1.0
 70
     8
 71
     3
 72
    16
 73
    12
 74
     0
 42
0.00000001
 43
0.00000001
 40
0.0
 40
0.0
 40
0.0
 40
0.0
 40
0.2500000000000049
 40
0.2500000000000049
 40
0.3750000000000051
 40
0.3750000000000051
 40
0.5000000000000052
 40
0.5000000000000052
 40
0.7500000000000026
 40
0.7500000000000026
 40
1.0
 40
1.0
 40
1.0
 40
1.0
 10
123.2067804227496
 20
64.85250961222236
 30
0.0
 10
123.1712264933009
 20
64.91591817320055
 30
0.0
 10
123.1419543520723
 20
64.98318547352137
 30
0.0
 10
123.1267418018514
 20
65.08162478466372
 30
0.0
 10
123.1266811336778
 20
65.114100191019
 30
0.0
 10
123.1368917181552
 20
65.1727253981452
 30
0.0
 10
123.1466750476804
 20
65.1983482096982
 30
0.0
 10
123.1858395962123
 20
65.26655705339364
 30
0.0
 10
123.2237126694856
 20
65.29871980855943
 30
0.0
 10
123.3027856424772
 20
65.3416080276753
 30
0.0
 10
123.344172775068
 20
65.35250961222236
 30
0.0
 10
123.3826270126804
 20
65.35250961222236
 30
0.0
  0
ARC
  5
E9
330
1F
100
AcDbEntity
  8
0
  6
Continuous
 62
     7
370
    25
100
AcDbCircle
 10
123.3911755962
 20
65.8358794229
 30
0.0
 40
0.4834453973191669
100
AcDbArc
 50
189.967574613
 51
268.9868074262
  0
LINE
  5
EA
330
1F
100
AcDbEntity
  8
0
  6
Continuous
 62
     7
370
    25
100
AcDbLine
 10
127.2182850312
 20
59.7973699884
 30
0.0
 11
127.7041637182
 21
59.7973699884
 31
0.0
  0
ELLIPSE
  5
EB
330
1F
100
AcDbEntity
  8
0
  6
Continuous
 62
     7
370
    25
100
AcDbEllipse
 10
127.2182850312
 20
59.862043362
 30
0.0
 11
0.06784129479237322
 21
0.0
 31
0.0
210
0.0
220
0.0
230
1.0
 40
0.9533039403
 41
2.798568711307185
 42
4.712388980384703
  0
LINE
  5
EC
330
1F
100
AcDbEntity
  8
0
  6
Continuous
 62
     7
370
    25
100
AcDbLine
 10
127.3973353856
 20
60.5322614653
 30
0.0
 11
127.1543960406
 21
59.8837953716
 31
0.0
  0
ELLIPSE
  5
ED
330
1F
100
AcDbEntity
  8
0
  6
Continuous
 62
     7
370
    25
100
AcDbEllipse
 10
127.4612243762
 20
60.5105094557
 30
0.0
 11
0.06784129479270007
 21
0.0
 31
0.0
210
0.0
220
0.0
230
1.0
 40
0.9533039403
 41
0.3430239385580938
 42
2.79856871130908
  0
LINE
  5
EE
330
1F
100
AcDbEntity
  8
0
  6
Continuous
 62
     7
370
    25
100
AcDbLine
 10
127.7680527089
 20
59.8837953714
 30
0.0
 11
127.5251133668
 21
60.532261465
 31
0.0
  0
ELLIPSE
  5
EF
330
1F
100
AcDbEntity
  8
0
  6
Continuous
 62
     7
370
    25
100
AcDbEllipse
 10
127.7041637182
 20
59.862043362
 30
0.0
 11
-0.0678412947923448
 21
0.0
 31
0.0
210
0.0
220
0.0
230
1.0
 40
0.9533039403
 41
1.570796326794897
 42
3.484616592149556
  0
ARC
  5
F0
330
1F
100
AcDbEntity
  8
0
  6
Continuous
 62
     7
370
    25
100
AcDbCircle
 10
131.701878921
 20
59.5474634717
 30
0.0
 40
1.239109388553857
100
AcDbArc
 50
45.0
 51
315.0
  0
ARC
  5
F1
330
1F
100
AcDbEntity
  8
0
  6
Continuous
 62
     7
370
    25
100
AcDbCircle
 10
134.3755945981
 20
59.5474634717
 30
0.0
 40
0.7112000000000971
100
AcDbArc
 50
200.9248324276
 51
315.0
  0
LINE
  5
F2
330
1F
100
AcDbEntity
  8
0
  6
Continuous
 62
     7
370
    25
100
AcDbLine
 10
133.7112983991
 20
59.2934634717
 30
0.0
 11
135.2517772494
 21
59.2934634717
 31
0.0
  0
LINE
  5
F3
330
1F
100
AcDbEntity
  8
0
  6
Continuous
 62
     7
370
    25
100
AcDbLine
 10
135.2517772494
 20
59.2934634717
 30
0.0
 11
135.2517772494
 21
59.8014634717
 31
0.0
  0
LINE
  5
F4
330
1F
100
AcDbEntity
  8
0
  6
Continuous
 62
     7
370
    25
100
AcDbLine
 10
135.2517772494
 20
59.8014634717
 30
0.0
 11
133.7112983991
 21
59.8014634717
 31
0.0
  0
LINE
  5
F5
330
1F
100
AcDbEntity
  8
0
  6
Continuous
 62
     7
370
    25
100
AcDbLine
 10
134.8784889409
 20
60.0503578145
 30
0.0
 11
135.2517772494
 21
60.423646123
 31
0.0
  0
ARC
  5
F6
330
1F
100
AcDbEntity
  8
0
  6
Continuous
 62
     7
370
    25
100
AcDbCircle
 10
134.3755945981
 20
59.5474634717
 30
0.0
 40
1.239109388553857
100
AcDbArc
 50
45.0
 51
315.0
  0
ELLIPSE
  5
F7
330
1F
100
AcDbEntity
  8
0
  6
Continuous
 62
     7
370
    25
100
AcDbEllipse
 10
127.4612243745
 20
56.7059827282
 30
0.0
 11
2.293035763987604
 21
-1.065814103640150E-12
 31
0.0
210
0.0
220
0.0
230
1.0
 40
0.9533039403
 41
0.8210019969645934
 42
2.320590656625121
  0
ELLIPSE
  5
F8
330
1F
100
AcDbEntity
  8
0
  6
Continuous
 62
     7
370
    25
100
AcDbEllipse
 10
129.0701343711
 20
58.3530616247
 30
0.0
 11
0.06784129479237322
 21
0.0
 31
0.0
210
0.0
220
0.0
230
1.0
 40
0.9533039403
 41
3.96259465055548
 42
5.819537698174656
  0
LINE
  5
F9
330
1F
100
AcDbEntity
  8
0
  6
Continuous
 62
     7
370
    25
100
AcDbLine
 10
129.1308134699
 20
58.3241388127
 30
0.0
 11
129.7678283975
 21
59.5386764938
 31
0.0
  0
LINE
  5
FA
330
1F
100
AcDbEntity
  8
0
  6
Continuous
 62
     7
370
    25
100
AcDbLine
 10
129.7678283975
 20
59.5386764938
 30
0.0
 11
129.7345081421
 21
59.51963255
 31
0.0
  0
ELLIPSE
  5
FB
330
1F
100
AcDbEntity
  8
0
  6
Continuous
 62
     7
370
    25
100
AcDbEllipse
 10
129.4554335984
 20
59.9633785269
 30
0.0
 11
0.5427303583402932
 21
3.623767952376511E-13
 31
0.0
210
0.0
220
0.0
230
1.0
 40
0.9533039404
 41
3.470145824142404
 42
5.252469180527903
  0
LINE
  5
FC
330
1F
100
AcDbEntity
  8
0
  6
Continuous
 62
     7
370
    25
100
AcDbLine
 10
128.9417337848
 20
59.7964312349
 30
0.0
 11
127.9340100754
 21
62.6143877183
 31
0.0
  0
ELLIPSE
  5
FD
330
1F
100
AcDbEntity
  8
0
  6
Continuous
 62
     7
370
    25
100
AcDbEllipse
 10
127.4612243745
 20
62.4045153634
 30
0.0
 11
0.5215299537176605
 21
0.0
 31
0.0
210
0.0
220
0.0
230
1.0
 40
0.9533039403
 41
0.4357918987553258
 42
2.705800754834459
  0
LINE
  5
FE
330
1F
100
AcDbEntity
  8
0
  6
Continuous
 62
     7
370
    25
100
AcDbLine
 10
126.9884386737
 20
62.6143877183
 30
0.0
 11
125.9809498008
 21
59.797087922
 31
0.0
  0
ELLIPSE
  5
FF
330
1F
100
AcDbEntity
  8
0
  6
Continuous
 62
     7
370
    25
100
AcDbEllipse
 10
125.4672499872
 20
59.964035214
 30
0.0
 11
-0.5427303583406626
 21
3.552713678800501E-13
 31
0.0
210
0.0
220
0.0
230
1.0
 40
0.9533039403
 41
1.047197551196542
 42
2.813039483039278
  0
LINE
  5
100
330
1F
100
AcDbEntity
  8
0
  6
Continuous
 62
     7
370
    25
100
AcDbLine
 10
125.195884808
 20
59.5159649378
 30
0.0
 11
125.1546203516
 21
59.5386764938
 31
0.0
  0
LINE
  5
101
330
1F
100
AcDbEntity
  8
0
  6
Continuous
 62
     7
370
    25
100
AcDbLine
 10
125.1546203516
 20
59.5386764938
 30
0.0
 11
125.7916352792
 21
58.3241388127
 31
0.0
  0
ELLIPSE
  5
102
330
1F
100
AcDbEntity
  8
0
  6
Continuous
 62
     7
370
    25
100
AcDbEllipse
 10
125.852314378
 20
58.3530616247
 30
0.0
 11
0.06784129479237322
 21
0.0
 31
0.0
210
0.0
220
0.0
230
1.0
 40
0.9533039403
 41
3.605240262580764
 42
5.462183310226767
  0
LINE
  5
103
330
1F
100
AcDbEntity
  8
0
  6
Continuous
 62
     7
370
    25
100
AcDbLine
 10
137.8176766017
 20
64.8525096122
 30
0.0
 11
123.2067804227
 21
64.8525096122
 31
0.0
  0
LINE
  5
104
330
1F
100
AcDbEntity
  8
0
  6
Continuous
 62
     7
370
    25
100
AcDbLine
 10
123.2067804227
 20
55.8525096122
 30
0.0
 11
137.8176766017
 21
55.8525096122
 31
0.0
  0
ARC
  5
105
330
1F
100
AcDbEntity
  8
0
  6
Continuous
 62
     7
370
    25
100
AcDbCircle
 10
131.701878921
 20
59.5474634717
 30
0.0
 40
0.7111999999997874
100
AcDbArc
 50
45.0
 51
315.0
  0
LINE
  5
106
330
1F
100
AcDbEntity
  8
0
  6
Continuous
 62
     7
370
    25
100
AcDbLine
 10
132.5780615723
 20
58.6712808204
 30
0.0
 11
132.2047732638
 21
59.0445691289
 31
0.0
  0
LINE
  5
107
330
1F
100
AcDbEntity
  8
0
  6
Continuous
 62
     7
370
    25
100
AcDbLine
 10
135.2517772494
 20
58.6712808204
 30
0.0
 11
134.8784889409
 21
59.0445691289
 31
0.0
  0
LINE
  5
108
330
1F
100
AcDbEntity
  8
0
  6
Continuous
 62
     7
370
    25
100
AcDbLine
 10
132.2047732638
 20
60.0503578145
 30
0.0
 11
132.5780615723
 21
60.423646123
 31
0.0
  0
ARC
  5
109
330
1F
100
AcDbEntity
  8
0
  6
Continuous
 62
     7
370
    25
100
AcDbCircle
 10
134.3755945981
 20
59.5474634717
 30
0.0
 40
0.7112000000000538
100
AcDbArc
 50
45.0
 51
159.0751675723
  0
LINE
  5
10A
330
1F
100
AcDbEntity
  8
0
  6
Continuous
 62
     7
370
    25
100
AcDbLine
 10
137.6418300118
 20
55.3525096122
 30
0.0
 11
123.3826270127
 21
55.3525096122
 31
0.0
  0
LINE
  5
10B
330
1F
100
AcDbEntity
  8
0
  6
Continuous
 62
     7
370
    25
100
AcDbLine
 10
123.3826270127
 20
65.3525096122
 30
0.0
 11
137.6418300118
 21
65.3525096122
 31
0.0
  0
LINE
  5
10C
330
1F
100
AcDbEntity
  8
0
  6
Continuous
 62
     7
370
    25
100
AcDbLine
 10
148.4383190786
 20
60.3525096122
 30
0.0
 11
148.4383190786
 21
52.1551374424
 31
0.0
  0
LINE
  5
10D
330
1F
100
AcDbEntity
  8
0
  6
Continuous
 62
     7
370
    25
100
AcDbLine
 10
148.4383190786
 20
68.549881782
 30
0.0
 11
148.4383190786
 21
60.3525096122
 31
0.0
  0
LINE
  5
10E
330
1F
100
AcDbEntity
  8
0
  6
Continuous
 62
     7
370
    25
100
AcDbLine
 10
150.5122285122
 20
67.3525096122
 30
0.0
 11
150.5122285122
 21
53.3525096122
 31
0.0
  0
ARC
  5
10F
330
1F
100
AcDbEntity
  8
0
  6
Continuous
 62
     7
370
    25
100
AcDbCircle
 10
137.5122285122
 20
54.8525096122
 30
0.0
 40
0.5
100
AcDbArc
 50
0.0
 51
90.0
  0
ARC
  5
110
330
1F
100
AcDbEntity
  8
0
  6
Continuous
 62
     7
370
    25
100
AcDbCircle
 10
123.5122285122
 20
54.8525096122
 30
0.0
 40
0.5
100
AcDbArc
 50
90.0
 51
180.0
  0
ARC
  5
111
330
1F
100
AcDbEntity
  8
0
  6
Continuous
 62
     7
370
    25
100
AcDbCircle
 10
123.5122285122
 20
65.8525096122
 30
0.0
 40
0.5
100
AcDbArc
 50
180.0
 51
270.0
  0
ARC
  5
112
330
1F
100
AcDbEntity
  8
0
  6
Continuous
 62
     7
370
    25
100
AcDbCircle
 10
137.5122285122
 20
65.8525096122
 30
0.0
 40
0.5
100
AcDbArc
 50
270.0
 51
0.0
  0
LWPOLYLINE
  5
113
330
1F
100
AcDbEntity
  8
0
  6
Continuous
 62
     7
370
    25
100
AcDbPolyline
 90
        9
 70
   128
 43
0.0
 10
137.5122285122
 20
65.5469540567
 10
137.6097736732
 20
65.552825221
 10
137.7035702284
 20
65.5702130884
 10
137.7900136287
 20
65.5984494529
 10
137.8657819028
 20
65.6364492069
 10
137.9279633184
 20
65.682752041
 10
137.9741682785
 20
65.7355785634
 10
138.0026211524
 20
65.7928986805
 10
138.0122285122
 20
65.8525096122
  0
LINE
  5
114
330
1F
100
AcDbEntity
  8
0
  6
Continuous
 62
     7
370
    25
100
AcDbLine
 10
137.5122285122
 20
65.3525096122
 30
0.0
 11
137.5122285122
 21
65.5469540567
 31
0.0
  0
LWPOLYLINE
  5
115
330
1F
100
AcDbEntity
  8
0
  6
Continuous
 62
     7
370
    25
100
AcDbPolyline
 90
        9
 70
   128
 43
0.0
 10
123.0122285122
 20
65.8525096122
 10
123.021835872
 20
65.7928986805
 10
123.050288746
 20
65.7355785634
 10
123.0964937061
 20
65.682752041
 10
123.1586751216
 20
65.6364492069
 10
123.2344433957
 20
65.5984494529
 10
123.320886796
 20
65.5702130884
 10
123.4146833512
 20
65.552825221
 10
123.5122285122
 20
65.5469540567
  0
LINE
  5
116
330
1F
100
AcDbEntity
  8
0
  6
Continuous
 62
     7
370
    25
100
AcDbLine
 10
123.5122285122
 20
65.3525096122
 30
0.0
 11
123.5122285122
 21
65.5469540567
 31
0.0
  0
LINE
  5
117
330
1F
100
AcDbEntity
  8
0
  6
Continuous
 62
     7
370
    25
100
AcDbLine
 10
137.5122285122
 20
55.1580651678
 30
0.0
 11
123.5122285122
 21
55.1580651678
 31
0.0
  0
LINE
  5
118
330
1F
100
AcDbEntity
  8
0
  6
Continuous
 62
     7
370
    25
100
AcDbLine
 10
123.5122285122
 20
55.1580651678
 30
0.0
 11
123.5122285122
 21
55.3525096122
 31
0.0
  0
LINE
  5
119
330
1F
100
AcDbEntity
  8
0
  6
Continuous
 62
     7
370
    25
100
AcDbLine
 10
137.5122285122
 20
55.1580651678
 30
0.0
 11
137.5122285122
 21
55.3525096122
 31
0.0
  0
LWPOLYLINE
  5
11A
330
1F
100
AcDbEntity
  8
0
  6
Continuous
 62
     7
370
    25
100
AcDbPolyline
 90
        9
 70
   128
 43
0.0
 10
123.5122285122
 20
55.1580651678
 10
123.4146833512
 20
55.1521940035
 10
123.320886796
 20
55.134806136
 10
123.2344433957
 20
55.1065697715
 10
123.1586751216
 20
55.0685700176
 10
123.0964937061
 20
55.0222671834
 10
123.050288746
 20
54.969440661
 10
123.021835872
 20
54.9121205439
 10
123.0122285122
 20
54.8525096122
  0
LWPOLYLINE
  5
11B
330
1F
100
AcDbEntity
  8
0
  6
Continuous
 62
     7
370
    25
100
AcDbPolyline
 90
        9
 70
   128
 43
0.0
 10
138.0122285122
 20
54.8525096122
 10
138.0026211524
 20
54.9121205439
 10
137.9741682785
 20
54.969440661
 10
137.9279633184
 20
55.0222671834
 10
137.8657819028
 20
55.0685700176
 10
137.7900136287
 20
55.1065697715
 10
137.7035702284
 20
55.134806136
 10
137.6097736732
 20
55.1521940035
 10
137.5122285122
 20
55.1580651678
  0
LINE
  5
11C
330
1F
100
AcDbEntity
  8
0
  6
Continuous
 62
     7
370
    25
100
AcDbLine
 10
123.5122285122
 20
65.5469540567
 30
0.0
 11
137.5122285122
 21
65.5469540567
 31
0.0
  0
SPLINE
  5
11D
330
1F
100
AcDbEntity
  8
0
  6
Continuous
 62
     7
370
    25
100
AcDbSpline
210
0.0
220
0.0
230
1.0
 70
    11
 71
     3
 72
    26
 73
    22
 74
     0
 42
0.00000001
 43
0.00000001
 40
0.0
 40
0.0
 40
0.0
 40
0.0
 40
0.125
 40
0.125
 40
0.1875
 40
0.1875
 40
0.25
 40
0.25
 40
0.3125
 40
0.3125
 40
0.375
 40
0.375
 40
0.5
 40
0.5
 40
0.625
 40
0.625
 40
0.75
 40
0.75
 40
0.875
 40
0.875
 40
1.0
 40
1.0
 40
1.0
 40
1.0
 10
131.0255474810674
 20
68.35250961222236
 30
0.0
 10
131.0255474810674
 20
68.49162864345118
 30
0.0
 10
130.9727515099184
 20
68.62735634642667
 30
0.0
 10
130.8312959200411
 20
68.78037508292243
 30
0.0
 10
130.7747419836692
 20
68.82187798394298
 30
0.0
 10
130.6491978322258
 20
68.87907787773666
 30
0.0
 10
130.5800462191178
 20
68.89436186648099
 30
0.0
 10
130.4428878443743
 20
68.89414099271734
 30
0.0
 10
130.3737732615682
 20
68.8785809314297
 30
0.0
 10
130.2490134929371
 20
68.82137509693568
 30
0.0
 10
130.1923824046026
 20
68.77962366966872
 30
0.0
 10
130.0522687780797
 20
68.62778280138528
 30
0.0
 10
129.9989482441331
 20
68.49173047411742
 30
0.0
 10
129.998870885557
 20
68.21359778041405
 30
0.0
 10
130.0525592675787
 20
68.07679577039407
 30
0.0
 10
130.2392540818864
 20
67.87472696672901
 30
0.0
 10
130.3751352912499
 20
67.81055720704346
 30
0.0
 10
130.6507664252884
 20
67.81097825984448
 30
0.0
 10
130.7857414637021
 20
67.87524694226778
 30
0.0
 10
130.9715889407681
 20
68.07652449349192
 30
0.0
 10
131.0255474810674
 20
68.21339058099355
 30
0.0
 10
131.0255474810674
 20
68.35250961222236
 30
0.0
  0
SPLINE
  5
11E
330
1F
100
AcDbEntity
  8
0
  6
Continuous
 62
     7
370
    25
100
AcDbSpline
210
0.0
220
0.0
230
1.0
 70
    11
 71
     3
 72
    38
 73
    34
 74
     0
 42
0.00000001
 43
0.00000001
 40
0.0
 40
0.0
 40
0.0
 40
0.0
 40
0.0625
 40
0.0625
 40
0.125
 40
0.125
 40
0.1874999999999999
 40
0.1874999999999999
 40
0.2499999999999999
 40
0.2499999999999999
 40
0.3125
 40
0.3125
 40
0.375
 40
0.375
 40
0.4375000000000001
 40
0.4375000000000001
 40
0.5000000000000001
 40
0.5000000000000001
 40
0.5625000000000001
 40
0.5625000000000001
 40
0.6250000000000001
 40
0.6250000000000001
 40
0.6875000000000001
 40
0.6875000000000001
 40
0.75
 40
0.75
 40
0.8125
 40
0.8125
 40
0.875
 40
0.875
 40
0.9375
 40
0.9375
 40
1.0
 40
1.0
 40
1.0
 40
1.0
 10
129.512228512219
 20
68.35250961222235
 30
0.0
 10
129.512228512219
 20
68.22012369731206
 30
0.0
 10
129.5383770633618
 20
68.09023637083337
 30
0.0
 10
129.6388427328196
 20
67.84815737624749
 30
0.0
 10
129.7131275992162
 20
67.73737602219146
 30
0.0
 10
129.8972767789509
 20
67.55326874208569
 30
0.0
 10
130.0086524015452
 20
67.4788000707897
 30
0.0
 10
130.2492009060791
 20
67.378972894661
 30
0.0
 10
130.3809588020665
 20
67.3525849745877
 30
0.0
 10
130.6423474942303
 20
67.35243458090088
 30
0.0
 10
130.773519564822
 20
67.37837440131092
 30
0.0
 10
131.0159572508217
 20
67.47874203373618
 30
0.0
 10
131.1260114189713
 20
67.55213093688143
 30
0.0
 10
131.3122647363822
 20
67.73828040371096
 30
0.0
 10
131.3856910642754
 20
67.84831892111097
 30
0.0
 10
131.4860558119043
 20
68.09020163819963
 30
0.0
 10
131.5121770762004
 20
68.22147615671095
 30
0.0
 10
131.5122797936857
 20
68.48275680608349
 30
0.0
 10
131.486036165592
 20
68.61457220959639
 30
0.0
 10
131.3863678087938
 20
68.85536012767787
 30
0.0
 10
131.3120870168253
 20
68.96669232907587
 30
0.0
 10
131.1279002763917
 20
69.15122252427088
 30
0.0
 10
131.0174767023291
 20
69.22540885354464
 30
0.0
 10
130.7750919870892
 20
69.3262301125148
 30
0.0
 10
130.6451678075227
 20
69.35240434181985
 30
0.0
 10
130.3808776980059
 20
69.35261425180676
 30
0.0
 10
130.2506439393438
 20
69.32652652944357
 30
0.0
 10
130.0087512681731
 20
69.22637808546497
 30
0.0
 10
129.8977353427665
 20
69.1520917902998
 30
0.0
 10
129.7135676067865
 20
68.96819969086303
 30
0.0
 10
129.6389689352844
 20
68.856869540309
 30
0.0
 10
129.5389181217393
 20
68.61638100050038
 30
0.0
 10
129.512228512219
 20
68.48489552713266
 30
0.0
 10
129.512228512219
 20
68.35250961222236
 30
0.0
  0
SPLINE
  5
11F
330
1F
100
AcDbEntity
  8
0
  6
Continuous
 62
     7
370
    25
100
AcDbSpline
210
0.0
220
0.0
230
1.0
 70
     8
 71
     3
 72
    15
 73
    11
 74
     0
 42
0.00000001
 43
0.00000001
 40
0.0
 40
0.0
 40
0.0
 40
0.0
 40
0.0090459071881971
 40
0.1032433785236876
 40
0.1542564497735193
 40
0.3133169026715103
 40
0.524372039941443
 40
0.6678060008509185
 40
0.9918332554187027
 40
0.9999999999999999
 40
0.9999999999999999
 40
0.9999999999999999
 40
0.9999999999999999
 10
135.7513138448771
 20
87.45250961222236
 30
0.0
 10
135.7513081529104
 20
87.45419071080677
 30
0.0
 10
135.7512431889596
 20
87.4733775423623
 30
0.0
 10
135.7492475025238
 20
87.50207182188227
 30
0.0
 10
135.7414305063073
 20
87.55274786185423
 30
0.0
 10
135.7242606825523
 20
87.6106241614311
 30
0.0
 10
135.6976767859848
 20
87.6554896761658
 30
0.0
 10
135.6598474874962
 20
87.69285205942035
 30
0.0
 10
135.6315667074859
 20
87.70239807168971
 30
0.0
 10
135.6117355599546
 20
87.70250693587658
 30
0.0
 10
135.6112480258118
 20
87.70250961222236
 30
0.0
  0
LINE
  5
120
330
1F
100
AcDbEntity
  8
0
  6
Continuous
 62
     7
370
    25
100
AcDbLine
 10
135.7513138449
 20
87.4525096122
 30
0.0
 11
125.2731431796
 21
87.4525096122
 31
0.0
  0
SPLINE
  5
121
330
1F
100
AcDbEntity
  8
0
  6
Continuous
 62
     7
370
    25
100
AcDbSpline
210
0.0
220
0.0
230
1.0
 70
     8
 71
     3
 72
    15
 73
    11
 74
     0
 42
0.00000001
 43
0.00000001
 40
0.0
 40
0.0
 40
0.0
 40
0.0
 40
0.0081667445812973
 40
0.3321939991490806
 40
0.4756279600585563
 40
0.6866830973284899
 40
0.8457435502264806
 40
0.8967566214763123
 40
0.9909540928118028
 40
1.0
 40
1.0
 40
1.0
 40
1.0
 10
125.4132089986262
 20
87.70250961222236
 30
0.0
 10
125.4127214644833
 20
87.70250693587657
 30
0.0
 10
125.392890316952
 20
87.70239807168984
 30
0.0
 10
125.3646095369418
 20
87.69285205942033
 30
0.0
 10
125.3267802384532
 20
87.65548967616579
 30
0.0
 10
125.3001963418856
 20
87.61062416143112
 30
0.0
 10
125.2830265181307
 20
87.5527478618542
 30
0.0
 10
125.2752095219142
 20
87.50207182188228
 30
0.0
 10
125.2732138354783
 20
87.47337754236227
 30
0.0
 10
125.2731488715275
 20
87.45419071080677
 30
0.0
 10
125.2731431795609
 20
87.45250961222236
 30
0.0
  0
LINE
  5
122
330
1F
100
AcDbEntity
  8
0
  6
Continuous
 62
     7
370
    25
100
AcDbLine
 10
125.4132089986
 20
87.7025096122
 30
0.0
 11
135.6112480258
 21
87.7025096122
 31
0.0
  0
LINE
  5
123
330
1F
100
AcDbEntity
  8
0
  6
Continuous
 62
     7
370
    25
100
AcDbLine
 10
135.7513138449
 20
86.8525096122
 30
0.0
 11
135.7513138449
 21
87.4525096122
 31
0.0
  0
LINE
  5
124
330
1F
100
AcDbEntity
  8
0
  6
Continuous
 62
     7
370
    25
100
AcDbLine
 10
125.2731431796
 20
86.8525096122
 30
0.0
 11
135.7513138449
 21
86.8525096122
 31
0.0
  0
LINE
  5
125
330
1F
100
AcDbEntity
  8
0
  6
Continuous
 62
     7
370
    25
100
AcDbLine
 10
125.2731431796
 20
87.4525096122
 30
0.0
 11
125.2731431796
 21
86.8525096122
 31
0.0
  0
SPLINE
  5
126
330
1F
100
AcDbEntity
  8
0
  6
Continuous
 62
     7
370
    25
100
AcDbSpline
210
0.0
220
0.0
230
1.0
 70
     8
 71
     3
 72
    15
 73
    11
 74
     0
 42
0.00000001
 43
0.00000001
 40
0.0
 40
0.0
 40
0.0
 40
0.0
 40
0.0089557228015919
 40
0.099900335960821
 40
0.1531632460581752
 40
0.3125636920784863
 40
0.5249666935695052
 40
0.6689893599351772
 40
0.991915253381045
 40
1.0
 40
1.0
 40
1.0
 40
1.0
 10
125.0350029371673
 20
87.45250961222236
 30
0.0
 10
125.0350186927459
 20
87.45419073779526
 30
0.0
 10
125.0351944449025
 20
87.4729435524197
 30
0.0
 10
125.040623460922
 20
87.5017057815272
 30
0.0
 10
125.0621589446294
 20
87.5525928549955
 30
0.0
 10
125.1098643728942
 20
87.6107285051282
 30
0.0
 10
125.1822553178861
 20
87.65543637831156
 30
0.0
 10
125.2841744299037
 20
87.69271820177332
 30
0.0
 10
125.3595295213588
 20
87.70239735661093
 30
0.0
 10
125.4119291670821
 20
87.70250693581268
 30
0.0
 10
125.4132089986262
 20
87.70250961222236
 30
0.0
  0
LINE
  5
127
330
1F
100
AcDbEntity
  8
0
  6
Continuous
 62
     7
370
    25
100
AcDbLine
 10
125.0350029372
 20
87.4525096122
 30
0.0
 11
125.2731431796
 21
87.4525096122
 31
0.0
  0
SPLINE
  5
128
330
1F
100
AcDbEntity
  8
0
  6
Continuous
 62
     7
370
    25
100
AcDbSpline
210
0.0
220
0.0
230
1.0
 70
     8
 71
     3
 72
    15
 73
    11
 74
     0
 42
0.00000001
 43
0.00000001
 40
0.0
 40
0.0
 40
0.0
 40
0.0
 40
0.0080847466189581
 40
0.3310106400648243
 40
0.4750333064304945
 40
0.6874363079215134
 40
0.8468367539418247
 40
0.9000996640391788
 40
0.991044277198408
 40
1.0
 40
1.0
 40
1.0
 40
1.0
 10
135.6112480258118
 20
87.70250961222236
 30
0.0
 10
135.6125278573559
 20
87.70250693581268
 30
0.0
 10
135.6649275030791
 20
87.70239735661087
 30
0.0
 10
135.7402825945342
 20
87.69271820177333
 30
0.0
 10
135.8422017065519
 20
87.65543637831156
 30
0.0
 10
135.9145926515438
 20
87.61072850512817
 30
0.0
 10
135.9622980798086
 20
87.55259285499552
 30
0.0
 10
135.983833563516
 20
87.50170578152719
 30
0.0
 10
135.9892625795355
 20
87.47294355241971
 30
0.0
 10
135.989438331692
 20
87.45419073779526
 30
0.0
 10
135.9894540872706
 20
87.45250961222236
 30
0.0
  0
LINE
  5
129
330
1F
100
AcDbEntity
  8
0
  6
Continuous
 62
     7
370
    25
100
AcDbLine
 10
135.7513138449
 20
87.4525096122
 30
0.0
 11
135.9894540873
 21
87.4525096122
 31
0.0
  0
LINE
  5
12A
330
1F
100
AcDbEntity
  8
0
  6
Continuous
 62
     7
370
    25
100
AcDbLine
 10
125.0350029372
 20
86.8525096122
 30
0.0
 11
125.0350029372
 21
87.4525096122
 31
0.0
  0
LINE
  5
12B
330
1F
100
AcDbEntity
  8
0
  6
Continuous
 62
     7
370
    25
100
AcDbLine
 10
125.2731431796
 20
86.8525096122
 30
0.0
 11
125.0350029372
 21
86.8525096122
 31
0.0
  0
LINE
  5
12C
330
1F
100
AcDbEntity
  8
0
  6
Continuous
 62
     7
370
    25
100
AcDbLine
 10
135.9894540873
 20
87.4525096122
 30
0.0
 11
135.9894540873
 21
86.8525096122
 31
0.0
  0
LINE
  5
12D
330
1F
100
AcDbEntity
  8
0
  6
Continuous
 62
     7
370
    25
100
AcDbLine
 10
135.9894540873
 20
86.8525096122
 30
0.0
 11
135.7513138449
 21
86.8525096122
 31
0.0
  0
LINE
  5
12E
330
1F
100
AcDbEntity
  8
0
  6
Continuous
 62
     7
370
    25
100
AcDbLine
 10
124.5122285122
 20
86.8525096122
 30
0.0
 11
124.5122285122
 21
87.4525096122
 31
0.0
  0
LINE
  5
12F
330
1F
100
AcDbEntity
  8
0
  6
Continuous
 62
     7
370
    25
100
AcDbLine
 10
124.5122285122
 20
87.4525096122
 30
0.0
 11
124.7622285122
 21
87.4525096122
 31
0.0
  0
LINE
  5
130
330
1F
100
AcDbEntity
  8
0
  6
Continuous
 62
     7
370
    25
100
AcDbLine
 10
124.7622285122
 20
87.4525096122
 30
0.0
 11
124.7622285122
 21
86.8525096122
 31
0.0
  0
LINE
  5
131
330
1F
100
AcDbEntity
  8
0
  6
Continuous
 62
     7
370
    25
100
AcDbLine
 10
124.7622285122
 20
86.8525096122
 30
0.0
 11
124.5122285122
 21
86.8525096122
 31
0.0
  0
ARC
  5
132
330
1F
100
AcDbEntity
  8
0
  6
Continuous
 62
     7
370
    25
100
AcDbCircle
 10
124.7622285122
 20
87.4525096122
 30
0.0
 40
0.25
100
AcDbArc
 50
90.0
 51
180.0
  0
LINE
  5
133
330
1F
100
AcDbEntity
  8
0
  6
Continuous
 62
     7
370
    25
100
AcDbLine
 10
124.7622285122
 20
87.7025096122
 30
0.0
 11
124.7622285122
 21
87.4525096122
 31
0.0
  0
LINE
  5
134
330
1F
100
AcDbEntity
  8
0
  6
Continuous
 62
     7
370
    25
100
AcDbLine
 10
125.0350029372
 20
87.4525096122
 30
0.0
 11
124.7622285122
 21
87.4525096122
 31
0.0
  0
LINE
  5
135
330
1F
100
AcDbEntity
  8
0
  6
Continuous
 62
     7
370
    25
100
AcDbLine
 10
124.7622285122
 20
87.7025096122
 30
0.0
 11
125.4132089986
 21
87.7025096122
 31
0.0
  0
LINE
  5
136
330
1F
100
AcDbEntity
  8
0
  6
Continuous
 62
     7
370
    25
100
AcDbLine
 10
124.7622285122
 20
86.8525096122
 30
0.0
 11
125.0350029372
 21
86.8525096122
 31
0.0
  0
LINE
  5
137
330
1F
100
AcDbEntity
  8
0
  6
Continuous
 62
     7
370
    25
100
AcDbLine
 10
136.2622285122
 20
86.8525096122
 30
0.0
 11
136.2622285122
 21
87.4525096122
 31
0.0
  0
LINE
  5
138
330
1F
100
AcDbEntity
  8
0
  6
Continuous
 62
     7
370
    25
100
AcDbLine
 10
136.2622285122
 20
87.4525096122
 30
0.0
 11
136.5122285122
 21
87.4525096122
 31
0.0
  0
LINE
  5
139
330
1F
100
AcDbEntity
  8
0
  6
Continuous
 62
     7
370
    25
100
AcDbLine
 10
136.5122285122
 20
87.4525096122
 30
0.0
 11
136.5122285122
 21
86.8525096122
 31
0.0
  0
LINE
  5
13A
330
1F
100
AcDbEntity
  8
0
  6
Continuous
 62
     7
370
    25
100
AcDbLine
 10
136.5122285122
 20
86.8525096122
 30
0.0
 11
136.2622285122
 21
86.8525096122
 31
0.0
  0
LINE
  5
13B
330
1F
100
AcDbEntity
  8
0
  6
Continuous
 62
     7
370
    25
100
AcDbLine
 10
136.2622285122
 20
87.4525096122
 30
0.0
 11
135.9894540873
 21
87.4525096122
 31
0.0
  0
LINE
  5
13C
330
1F
100
AcDbEntity
  8
0
  6
Continuous
 62
     7
370
    25
100
AcDbLine
 10
135.9894540873
 20
86.8525096122
 30
0.0
 11
136.2622285122
 21
86.8525096122
 31
0.0
  0
LINE
  5
13D
330
1F
100
AcDbEntity
  8
0
  6
Continuous
 62
     7
370
    25
100
AcDbLine
 10
136.2622285122
 20
87.4525096122
 30
0.0
 11
136.2622285122
 21
87.7025096122
 31
0.0
  0
LINE
  5
13E
330
1F
100
AcDbEntity
  8
0
  6
Continuous
 62
     7
370
    25
100
AcDbLine
 10
135.6112480258
 20
87.7025096122
 30
0.0
 11
136.2622285122
 21
87.7025096122
 31
0.0
  0
ARC
  5
13F
330
1F
100
AcDbEntity
  8
0
  6
Continuous
 62
     7
370
    25
100
AcDbCircle
 10
136.2622285122
 20
87.4525096122
 30
0.0
 40
0.2500000000000284
100
AcDbArc
 50
0.0
 51
90.0
  0
LINE
  5
140
330
1F
100
AcDbEntity
  8
0
  6
Continuous
 62
     7
370
    25
100
AcDbLine
 10
125.5122285122
 20
87.7025096122
 30
0.0
 11
125.5122285122
 21
87.7125096122
 31
0.0
  0
LINE
  5
141
330
1F
100
AcDbEntity
  8
0
  6
Continuous
 62
     7
370
    25
100
AcDbLine
 10
125.5122285122
 20
87.7125096122
 30
0.0
 11
135.5122285122
 21
87.7125096122
 31
0.0
  0
LINE
  5
142
330
1F
100
AcDbEntity
  8
0
  6
Continuous
 62
     7
370
    25
100
AcDbLine
 10
135.5122285122
 20
87.7025096122
 30
0.0
 11
135.5122285122
 21
87.7125096122
 31
0.0
  0
LINE
  5
143
330
1F
100
AcDbEntity
  8
0
  6
Continuous
 62
     7
370
    25
100
AcDbLine
 10
128.5122285122
 20
70.8525096122
 30
0.0
 11
137.5122285122
 21
70.8525096122
 31
0.0
  0
LINE
  5
144
330
1F
100
AcDbEntity
  8
0
  6
Continuous
 62
     7
370
    25
100
AcDbLine
 10
128.5122285122
 20
70.890326536
 30
0.0
 11
128.5122285122
 21
70.8525096122
 31
0.0
  0
SPLINE
  5
145
330
1F
100
AcDbEntity
  8
0
  6
Continuous
 62
     7
370
    25
100
AcDbSpline
210
0.0
220
0.0
230
1.0
 70
     8
 71
     3
 72
     9
 73
     5
 74
     0
 42
0.00000001
 43
0.00000001
 40
0.0
 40
0.0
 40
0.0
 40
0.0
 40
0.4875141023677128
 40
0.9999999999999999
 40
0.9999999999999999
 40
0.9999999999999999
 40
0.9999999999999999
 10
128.3562832617918
 20
70.85250961222242
 30
0.0
 10
128.3825898357144
 20
70.85423695819412
 30
0.0
 10
128.4365504776626
 20
70.8577801294856
 30
0.0
 10
128.4865860083574
 20
70.87929861543492
 30
0.0
 10
128.512228512219
 20
70.89032653602234
 30
0.0
  0
SPLINE
  5
146
330
1F
100
AcDbEntity
  8
0
  6
Continuous
 62
     7
370
    25
100
AcDbSpline
210
0.0
220
0.0
230
1.0
 70
     8
 71
     3
 72
    17
 73
    13
 74
     0
 42
0.00000001
 43
0.00000001
 40
0.0
 40
0.0
 40
0.0
 40
0.0
 40
0.3241697628029873
 40
0.5422758463620719
 40
0.689509052693928
 40
0.7894036290694505
 40
0.8577090008137825
 40
0.9049823971474137
 40
0.9551712229700868
 40
0.9753097783197817
 40
0.9919572060138848
 40
1.0
 40
1.0
 40
1.0
 40
1.0
 10
126.0376816281368
 20
78.85250961222
 30
0.0
 10
126.180396988154
 20
77.93989610961431
 30
0.0
 10
126.419133297096
 20
76.41326310335297
 30
0.0
 10
126.7987204915476
 20
74.486490201072
 30
0.0
 10
127.1078546998947
 20
73.19885473013923
 30
0.0
 10
127.3639682280948
 20
72.33970276341749
 30
0.0
 10
127.5782792309898
 20
71.7662348750401
 30
0.0
 10
127.7815134520177
 20
71.34470272101012
 30
0.0
 10
127.9660587165603
 20
71.0642101782147
 30
0.0
 10
128.1521298029284
 20
70.90866150963403
 30
0.0
 10
128.2673404021844
 20
70.85805091043653
 30
0.0
 10
128.3344292076573
 20
70.8538711586319
 30
0.0
 10
128.3562832617918
 20
70.85250961222242
 30
0.0
  0
LINE
  5
147
330
1F
100
AcDbEntity
  8
0
  6
Continuous
 62
     7
370
    25
100
AcDbLine
 10
126.0376816281
 20
78.8525096122
 30
0.0
 11
137.9622285122
 21
78.8525096122
 31
0.0
  0
SPLINE
  5
148
330
1F
100
AcDbEntity
  8
0
  6
Continuous
 62
     7
370
    25
100
AcDbSpline
210
0.0
220
0.0
230
1.0
 70
     8
 71
     3
 72
     9
 73
     5
 74
     0
 42
0.00000001
 43
0.00000001
 40
0.0
 40
0.0
 40
0.0
 40
0.0
 40
0.4978401817595094
 40
1.0
 40
1.0
 40
1.0
 40
1.0
 10
126.7978923838986
 20
79.84725319018929
 30
0.0
 10
126.661570475528
 20
79.6907420074967
 30
0.0
 10
126.387743827207
 20
79.37636163317768
 30
0.0
 10
126.1547045761104
 20
79.0276290851514
 30
0.0
 10
126.0376816281368
 20
78.85250961222
 30
0.0
  0
LINE
  5
149
330
1F
100
AcDbEntity
  8
0
  6
Continuous
 62
     7
370
    25
100
AcDbLine
 10
125.2884263379
 20
86.8525096122
 30
0.0
 11
123.5602876739
 21
79.8472531902
 31
0.0
  0
LINE
  5
14A
330
1F
100
AcDbEntity
  8
0
  6
Continuous
 62
     7
370
    25
100
AcDbLine
 10
135.7513138449
 20
86.8525096122
 30
0.0
 11
125.2884263379
 21
86.8525096122
 31
0.0
  0
SPLINE
  5
14B
330
1F
100
AcDbEntity
  8
0
  6
Continuous
 62
     7
370
    25
100
AcDbSpline
210
0.0
220
0.0
230
1.0
 70
     8
 71
     3
 72
    14
 73
    10
 74
     0
 42
0.00000001
 43
0.00000001
 40
0.0
 40
0.0
 40
0.0
 40
0.0
 40
0.1576095309202822
 40
0.3152382602707094
 40
0.4726926441579498
 40
0.6301650083177254
 40
0.7907313191165901
 40
0.9513050385928076
 40
1.0
 40
1.0
 40
1.0
 40
1.0
 10
124.012228512219
 20
70.85250961222236
 30
0.0
 10
123.945657497437
 20
71.06601140069976
 30
0.0
 10
123.812507358852
 20
71.49304098432526
 30
0.0
 10
123.4839403971013
 20
72.07828806318159
 30
0.0
 10
123.0705507563693
 20
72.600442604004
 30
0.0
 10
122.5748758374247
 20
73.04942073142387
 30
0.0
 10
122.0085861321402
 20
73.40870246323026
 30
0.0
 10
121.5323354757471
 20
73.61326864233145
 30
0.0
 10
121.2521409075544
 20
73.69406319068274
 30
0.0
 10
121.1869421227813
 20
73.71286336372953
 30
0.0
  0
LINE
  5
14C
330
1F
100
AcDbEntity
  8
0
  6
Continuous
 62
     7
370
    25
100
AcDbLine
 10
121.1869421228
 20
73.7128633637
 30
0.0
 11
115.4071852729
 21
75.2814848042
 31
0.0
  0
SPLINE
  5
14D
330
1F
100
AcDbEntity
  8
0
  6
Continuous
 62
     7
370
    25
100
AcDbSpline
210
0.0
220
0.0
230
1.0
 70
     8
 71
     3
 72
    11
 73
     7
 74
     0
 42
0.00000001
 43
0.00000001
 40
0.0
 40
0.0
 40
0.0
 40
0.0
 40
0.2488466353289361
 40
0.4976946020535204
 40
0.7488461225871278
 40
1.0
 40
1.0
 40
1.0
 40
1.0
 10
108.3367916506823
 20
76.6046853051979
 30
0.0
 10
108.9312276998186
 20
76.53516092870427
 30
0.0
 10
110.120102978482
 20
76.3961118037431
 30
0.0
 10
111.894827649191
 20
76.09578306561782
 30
0.0
 10
113.6614082909334
 20
75.73387344736267
 30
0.0
 10
114.8252577919531
 20
75.43228149029811
 30
0.0
 10
115.4071852729261
 20
75.28148480421238
 30
0.0
  0
LINE
  5
14E
330
1F
100
AcDbEntity
  8
0
  6
Continuous
 62
     7
370
    25
100
AcDbLine
 10
108.3367916507
 20
76.6046853052
 30
0.0
 11
108.3367916507
 21
79.8472531902
 31
0.0
  0
LINE
  5
14F
330
1F
100
AcDbEntity
  8
0
  6
Continuous
 62
     7
370
    25
100
AcDbLine
 10
108.3367916507
 20
79.8472531902
 30
0.0
 11
126.7978923839
 21
79.8472531902
 31
0.0
  0
LINE
  5
150
330
1F
100
AcDbEntity
  8
0
  6
Continuous
 62
     7
370
    25
100
AcDbLine
 10
128.3562832618
 20
70.8525096122
 30
0.0
 11
124.0122285122
 21
70.8525096122
 31
0.0
  0
LINE
  5
151
330
1F
100
AcDbEntity
  8
0
  6
Continuous
 62
     7
370
    25
100
AcDbLine
 10
128.5122285122
 20
70.890326536
 30
0.0
 11
128.5054291543
 21
70.8525096122
 31
0.0
  0
LINE
  5
152
330
1F
100
AcDbEntity
  8
0
  6
Continuous
 62
     7
370
    25
100
AcDbLine
 10
128.5122285122
 20
70.8525096122
 30
0.0
 11
128.5054291543
 21
70.8525096122
 31
0.0
  0
LINE
  5
153
330
1F
100
AcDbEntity
  8
0
  6
Continuous
 62
     7
370
    25
100
AcDbLine
 10
128.5054291543
 20
70.8525096122
 30
0.0
 11
128.3562832618
 21
70.8525096122
 31
0.0
  0
LINE
  5
154
330
1F
100
AcDbEntity
  8
0
  6
Continuous
 62
     7
370
    25
100
AcDbLine
 10
90.5122285122
 20
88.8525096122
 30
0.0
 11
108.3367916507
 21
88.8525096122
 31
0.0
  0
LINE
  5
155
330
1F
100
AcDbEntity
  8
0
  6
Continuous
 62
     7
370
    25
100
AcDbLine
 10
108.3367916507
 20
88.8525096122
 30
0.0
 11
108.3367916507
 21
79.8472531902
 31
0.0
  0
LINE
  5
156
330
1F
100
AcDbEntity
  8
0
  6
Continuous
 62
     7
370
    25
100
AcDbLine
 10
103.6205606545
 20
76.8525096122
 30
0.0
 11
95.5122285122
 21
76.8525096122
 31
0.0
  0
ARC
  5
157
330
1F
100
AcDbEntity
  8
0
  6
Continuous
 62
     7
370
    25
100
AcDbCircle
 10
95.5122285122
 20
81.8525096122
 30
0.0
 40
5.0
100
AcDbArc
 50
180.0
 51
270.0
  0
LINE
  5
158
330
1F
100
AcDbEntity
  8
0
  6
Continuous
 62
     7
370
    25
100
AcDbLine
 10
90.5122285122
 20
81.8525096122
 30
0.0
 11
90.5122285122
 21
88.8525096122
 31
0.0
  0
ARC
  5
159
330
1F
100
AcDbEntity
  8
0
  6
Continuous
 62
     7
370
    25
100
AcDbCircle
 10
103.6205606545
 20
31.852380358
 30
0.0
 40
45.00012925418373
100
AcDbArc
 50
83.9840777705
 51
90.0
  0
LINE
  5
15A
330
1F
100
AcDbEntity
  8
0
  6
Continuous
 62
     7
370
    25
100
AcDbLine
 10
108.3367916507
 20
88.8525096122
 30
0.0
 11
110.5122285122
 21
88.8525096122
 31
0.0
  0
LINE
  5
15B
330
1F
100
AcDbEntity
  8
0
  6
Continuous
 62
     7
370
    25
100
AcDbLine
 10
110.5122285122
 20
88.8525096122
 30
0.0
 11
110.5122285122
 21
86.8714651356
 31
0.0
  0
ARC
  5
15C
330
1F
100
AcDbEntity
  8
0
  6
Continuous
 62
     7
370
    25
100
AcDbCircle
 10
116.5122285122
 20
86.8714651356
 30
0.0
 40
6.0
100
AcDbArc
 50
180.0
 51
275.5801667845
  0
ARC
  5
15D
330
1F
100
AcDbEntity
  8
0
  6
Continuous
 62
     7
370
    25
100
AcDbCircle
 10
116.123274948
 20
90.8525096122
 30
0.0
 40
10.00000000000845
100
AcDbArc
 50
275.5801667845
 51
336.4218215217
  0
LINE
  5
15E
330
1F
100
AcDbEntity
  8
0
  6
Continuous
 62
     7
370
    25
100
AcDbLine
 10
124.0122285122
 20
70.8525096122
 30
0.0
 11
123.5122285122
 21
70.8525096122
 31
0.0
  0
LINE
  5
15F
330
1F
100
AcDbEntity
  8
0
  6
Continuous
 62
     7
370
    25
100
AcDbLine
 10
125.2731431796
 20
86.8525096122
 30
0.0
 11
125.2884263379
 21
86.8525096122
 31
0.0
  0
LINE
  5
160
330
1F
100
AcDbEntity
  8
0
  6
Continuous
 62
     7
370
    25
100
AcDbLine
 10
137.5122285122
 20
65.5469540567
 30
0.0
 11
137.5122285122
 21
68.8525096122
 31
0.0
  0
LINE
  5
161
330
1F
100
AcDbEntity
  8
0
  6
Continuous
 62
     7
370
    25
100
AcDbLine
 10
123.5122285122
 20
55.1580651678
 30
0.0
 11
123.5122285122
 21
51.8525096122
 31
0.0
  0
LINE
  5
162
330
1F
100
AcDbEntity
  8
0
  6
Continuous
 62
     7
370
    25
100
AcDbLine
 10
123.5122285122
 20
68.8525096122
 30
0.0
 11
123.5122285122
 21
65.5469540567
 31
0.0
  0
LINE
  5
163
330
1F
100
AcDbEntity
  8
0
  6
Continuous
 62
     7
370
    25
100
AcDbLine
 10
137.5122285122
 20
51.8525096122
 30
0.0
 11
137.5122285122
 21
55.1580651678
 31
0.0
  0
SPLINE
  5
164
330
1F
100
AcDbEntity
  8
0
  6
Continuous
 62
     7
370
    25
100
AcDbSpline
210
0.0
220
0.0
230
1.0
 70
     8
 71
     3
 72
    32
 73
    28
 74
     0
 42
0.00000001
 43
0.00000001
 40
0.0
 40
0.0
 40
0.0
 40
0.0
 40
0.0401450235848357
 40
0.0814946510747366
 40
0.1230108374273918
 40
0.1655335881087852
 40
0.213102689944118
 40
0.2616869956899938
 40
0.3186512837064658
 40
0.3479268696243464
 40
0.3771976325562726
 40
0.4187548087056146
 40
0.4612652019558922
 40
0.5031787598671369
 40
0.5464778200637773
 40
0.5837150053189375
 40
0.6216789039917089
 40
0.649608003238977
 40
0.6775412817538382
 40
0.7348752066615024
 40
0.7907587055724206
 40
0.8195305177303107
 40
0.848297267517085
 40
0.8930422512982819
 40
0.939068727387773
 40
0.9835429316127413
 40
1.0
 40
1.0
 40
1.0
 40
1.0
 10
136.912228512219
 20
68.85250961222236
 30
0.0
 10
136.9009097018506
 20
68.84489093024011
 30
0.0
 10
136.8779324454143
 20
68.82942495776457
 30
0.0
 10
136.6932560129179
 20
68.70620568152766
 30
0.0
 10
136.4026762404715
 20
68.51618174846926
 30
0.0
 10
135.9917359516078
 20
68.25564700775027
 30
0.0
 10
135.4591040172333
 20
67.93384271344902
 30
0.0
 10
134.7706592933467
 20
67.54798307849173
 30
0.0
 10
134.0787033406378
 20
67.2038145621554
 30
0.0
 10
133.4327847316657
 20
66.92977267433388
 30
0.0
 10
132.8425987058016
 20
66.7126862461862
 30
0.0
 10
132.1347059581153
 20
66.50713709869824
 30
0.0
 10
131.3046089548771
 20
66.35769941266541
 30
0.0
 10
130.4378140968315
 20
66.31011652800301
 30
0.0
 10
129.6087362842409
 20
66.37358476899082
 30
0.0
 10
128.8329940249947
 20
66.52381027323993
 30
0.0
 10
128.1896771582517
 20
66.71121938631266
 30
0.0
 10
127.6348257407436
 20
66.913154107839
 30
0.0
 10
126.9980963153703
 20
67.17958557097232
 30
0.0
 10
126.2679955226969
 20
67.53901212830024
 30
0.0
 10
125.6291168461577
 20
67.89797858000273
 30
0.0
 10
125.1855079100688
 20
68.16312146784986
 30
0.0
 10
124.8305773843415
 20
68.38286977976357
 30
0.0
 10
124.4872554020247
 20
68.60342023690971
 30
0.0
 10
124.2305976915351
 20
68.77303642840495
 30
0.0
 10
124.1075195186479
 20
68.85566636483408
 30
0.0
 10
124.1251466772367
 20
68.84384116065958
 30
0.0
 10
124.1299076372812
 20
68.84064726390594
 30
0.0
  0
SPLINE
  5
165
330
1F
100
AcDbEntity
  8
0
  6
Continuous
 62
     7
370
    25
100
AcDbSpline
210
0.0
220
0.0
230
1.0
 70
     8
 71
     3
 72
    32
 73
    28
 74
     0
 42
0.00000001
 43
0.00000001
 40
0.0
 40
0.0
 40
0.0
 40
0.0
 40
0.0148226906036678
 40
0.0619098642308405
 40
0.1074419255042467
 40
0.1543358594329046
 40
0.182598153298089
 40
0.2108647534549355
 40
0.2690259379277178
 40
0.3246070981579414
 40
0.3531531900241039
 40
0.3816927019323051
 40
0.4179901534316578
 40
0.4550296659437936
 40
0.4953226362402814
 40
0.5372317715994345
 40
0.5776049808321276
 40
0.6191596213353762
 40
0.6475096399520571
 40
0.6758659597953307
 40
0.7341701314178916
 40
0.7822939425002001
 40
0.8313627427680195
 40
0.8736469360376942
 40
0.9168681617688612
 40
0.9578489936169664
 40
1.0
 40
1.0
 40
1.0
 40
1.0
 10
124.6267342144279
 20
69.34133058437736
 30
0.0
 10
124.622790218752
 20
69.34436982401996
 30
0.0
 10
124.6063173500033
 20
69.35706380237178
 30
0.0
 10
124.7170912363681
 20
69.27161115074662
 30
0.0
 10
124.9545239432552
 20
69.09137154592946
 30
0.0
 10
125.2673419684417
 20
68.86037562060575
 30
0.0
 10
125.592464311633
 20
68.62907743634058
 30
0.0
 10
125.9985531513312
 20
68.34982155126399
 30
0.0
 10
126.5807787365755
 20
67.97312575290444
 30
0.0
 10
127.2565699135804
 20
67.59001596584109
 30
0.0
 10
127.8431427631714
 20
67.30620072411546
 30
0.0
 10
128.3584041137423
 20
67.09006523056252
 30
0.0
 10
128.9559035636821
 20
66.88919783406176
 30
0.0
 10
129.6619925327133
 20
66.73071128914096
 30
0.0
 10
130.4333661738636
 20
66.66061463121999
 30
0.0
 10
131.2302153101361
 20
66.70891546094963
 30
0.0
 10
132.0061552734984
 20
66.86861756000948
 30
0.0
 10
132.6550509088699
 20
67.08471940957902
 30
0.0
 10
133.1960986299394
 20
67.31298634204497
 30
0.0
 10
133.7938009841177
 20
67.60320240949083
 30
0.0
 10
134.4311474071521
 20
67.9671033705969
 30
0.0
 10
135.0705442182468
 20
68.3783706280352
 30
0.0
 10
135.5585876800894
 20
68.71695810977151
 30
0.0
 10
135.9404088038514
 20
68.99484180571824
 30
0.0
 10
136.206728058583
 20
69.19485086470878
 30
0.0
 10
136.3795046951207
 20
69.32720601313555
 30
0.0
 10
136.4012186901828
 20
69.34399629844899
 30
0.0
 10
136.412228512219
 20
69.35250961222236
 30
0.0
  0
LINE
  5
166
330
1F
100
AcDbEntity
  8
FORMAT
100
AcDbLine
 10
149.7611021105
 20
52.918846582
 30
0.0
 11
141.0122285122
 21
52.645444282
 31
0.0
  0
LINE
  5
167
330
1F
100
AcDbEntity
  8
FORMAT
100
AcDbLine
 10
149.7611021105
 20
67.7861726425
 30
0.0
 11
141.0122285122
 21
68.0595749424
 31
0.0
  0
LINE
  5
168
330
1F
100
AcDbEntity
  8
FORMAT
100
AcDbLine
 10
141.0122285122
 20
68.7819471122
 30
0.0
 11
141.0122285122
 21
51.9230721122
 31
0.0
  0
LINE
  5
169
330
1F
100
AcDbEntity
  8
FORMAT
  6
CENTERX2
370
    18
100
AcDbLine
 10
95.3692462126
 20
60.3525096122
 30
0.0
 11
152.0478152851
 21
60.3525096122
 31
0.0
  0
LINE
  5
16A
330
1F
100
AcDbEntity
  8
FORMAT
  6
CENTERX2
370
    18
100
AcDbLine
 10
130.5122285122
 20
50.0706833942
 30
0.0
 11
130.5122285122
 21
89.1947697886
 31
0.0
  0
LINE
  5
16B
330
1F
100
AcDbEntity
  8
0
  6
Continuous
 62
     7
370
    25
100
AcDbLine
 10
188.8173151641
 20
68.426542062
 30
0.0
 11
188.8173151641
 21
70.8525096122
 31
0.0
  0
LINE
  5
16C
330
1F
100
AcDbEntity
  8
0
  6
Continuous
 62
     7
370
    25
100
AcDbLine
 10
177.0173151641
 20
70.8525096122
 30
0.0
 11
177.0173151641
 21
69.3506032825
 31
0.0
  0
ARC
  5
16D
330
1F
100
AcDbEntity
  8
0
  6
Continuous
 62
     7
370
    25
100
AcDbCircle
 10
177.2173151641
 20
68.8942520426
 30
0.0
 40
0.4999999999999851
100
AcDbArc
 50
113.6449780875
 51
180.007858636
  0
ARC
  5
16E
330
1F
100
AcDbEntity
  8
0
  6
Continuous
 62
     7
370
    25
100
AcDbCircle
 10
188.1673151641
 20
87.4525096122
 30
0.0
 40
0.25
100
AcDbArc
 50
0.0
 51
90.0
  0
ARC
  5
16F
330
1F
100
AcDbEntity
  8
0
  6
Continuous
 62
     7
370
    25
100
AcDbCircle
 10
177.6673151641
 20
87.4525096122
 30
0.0
 40
0.25
100
AcDbArc
 50
90.0
 51
180.0
  0
LINE
  5
170
330
1F
100
AcDbEntity
  8
0
  6
Continuous
 62
     7
370
    25
100
AcDbLine
 10
188.4173151641
 20
86.8525096122
 30
0.0
 11
188.4173151641
 21
87.4525096122
 31
0.0
  0
LINE
  5
171
330
1F
100
AcDbEntity
  8
0
  6
Continuous
 62
     7
370
    25
100
AcDbLine
 10
177.4173151641
 20
87.4525096122
 30
0.0
 11
177.4173151641
 21
86.8525096122
 31
0.0
  0
LINE
  5
172
330
1F
100
AcDbEntity
  8
0
  6
Continuous
 62
     7
370
    25
100
AcDbLine
 10
190.3673151641
 20
78.8525096122
 30
0.0
 11
188.4173151641
 21
86.8525096122
 31
0.0
  0
LINE
  5
173
330
1F
100
AcDbEntity
  8
0
  6
Continuous
 62
     7
370
    25
100
AcDbLine
 10
177.4173151641
 20
86.8525096122
 30
0.0
 11
175.4673151641
 21
78.8525096122
 31
0.0
  0
LINE
  5
174
330
1F
100
AcDbEntity
  8
0
  6
Continuous
 62
     7
370
    25
100
AcDbLine
 10
175.4673151641
 20
78.8525096122
 30
0.0
 11
175.9173151641
 21
70.8525096122
 31
0.0
  0
LINE
  5
175
330
1F
100
AcDbEntity
  8
0
  6
Continuous
 62
     7
370
    25
100
AcDbLine
 10
189.9173151641
 20
70.8525096122
 30
0.0
 11
190.3673151641
 21
78.8525096122
 31
0.0
  0
CIRCLE
  5
176
330
1F
100
AcDbEntity
  8
0
  6
Continuous
 62
     7
370
    25
100
AcDbCircle
 10
182.9173151641
 20
60.3525096122
 30
0.0
 40
2.899999999999977
  0
CIRCLE
  5
177
330
1F
100
AcDbEntity
  8
0
  6
Continuous
 62
     7
370
    25
100
AcDbCircle
 10
182.9173151641
 20
60.3525096122
 30
0.0
 40
8.197372169802065
  0
CIRCLE
  5
178
330
1F
100
AcDbEntity
  8
0
  6
Continuous
 62
     7
370
    25
100
AcDbCircle
 10
182.9173151641
 20
60.3525096122
 30
0.0
 40
7.0
  0
CIRCLE
  5
179
330
1F
100
AcDbEntity
  8
0
  6
Continuous
 62
     7
370
    25
100
AcDbCircle
 10
182.9173151641
 20
60.3525096122
 30
0.0
 40
5.0
  0
CIRCLE
  5
17A
330
1F
100
AcDbEntity
  8
0
  6
Continuous
 62
     7
370
    25
100
AcDbCircle
 10
182.9173151641
 20
60.3525096122
 30
0.0
 40
4.5
  0
CIRCLE
  5
17B
330
1F
100
AcDbEntity
  8
0
  6
Continuous
 62
     7
370
    25
100
AcDbCircle
 10
182.9173151641
 20
60.3525096122
 30
0.0
 40
8.445062500000006
  0
CIRCLE
  5
17C
330
1F
100
AcDbEntity
  8
0
  6
Continuous
 62
     7
370
    25
100
AcDbCircle
 10
182.9173151641
 20
60.3525096122
 30
0.0
 40
9.999999999999972
  0
CIRCLE
  5
17D
330
1F
100
AcDbEntity
  8
0
  6
Continuous
 62
     7
370
    25
100
AcDbCircle
 10
182.9173151641
 20
60.3525096122
 30
0.0
 40
9.499999999999972
  0
CIRCLE
  5
17E
330
1F
100
AcDbEntity
  8
0
  6
Continuous
 62
     7
370
    25
100
AcDbCircle
 10
182.9173151641
 20
60.3525096122
 30
0.0
 40
2.999999999999972
  0
SPLINE
  5
17F
330
1F
100
AcDbEntity
  8
0
  6
Continuous
 62
     7
370
    25
100
AcDbSpline
210
0.0
220
0.0
230
1.0
 70
     8
 71
     3
 72
    13
 73
     9
 74
     0
 42
0.00000001
 43
0.00000001
 40
0.0
 40
0.0
 40
0.0
 40
0.0
 40
0.0709002556126979
 40
0.2985326187209611
 40
0.5283503324641392
 40
0.7606230766495086
 40
0.9918193887712565
 40
0.9999999999999999
 40
0.9999999999999999
 40
0.9999999999999999
 40
0.9999999999999999
 10
177.0995834345036
 20
68.46350320880985
 30
0.0
 10
177.0994988824936
 20
68.49803219654702
 30
0.0
 10
177.0991428677976
 20
68.64341995350048
 30
0.0
 10
177.0800421508501
 20
68.88309414572167
 30
0.0
 10
177.0507149956162
 20
69.14256650703075
 30
0.0
 10
177.0260010419074
 20
69.30170512654718
 30
0.0
 10
177.0144630065201
 20
69.36975997881767
 30
0.0
 10
177.0175258146168
 20
69.35123632118469
 30
0.0
 10
177.0176304848664
 20
69.35060328254626
 30
0.0
  0
SPLINE
  5
180
330
1F
100
AcDbEntity
  8
0
  6
Continuous
 62
     7
370
    25
100
AcDbSpline
210
0.0
220
0.0
230
1.0
 70
    24
 71
     3
 72
    14
 73
    10
 74
     0
 42
0.00000001
 43
0.00000001
 40
0.0
 40
0.0
 40
0.0
 40
0.0
 40
0.0686782875714484
 40
0.293216909137959
 40
0.2935197863693179
 40
0.5073359099559678
 40
0.7069537562193142
 40
0.9001971037285486
 40
1.0
 40
1.0
 40
1.0
 40
1.0
 10
176.7173151641161
 20
68.3525096122232
 30
0.0
 10
176.7173151641161
 20
68.37136171345082
 30
0.0
 10
176.7173151641161
 20
68.45184937626514
 30
0.0
 10
176.7173151641161
 20
68.53153838260818
 30
0.0
 10
176.7173151641162
 20
68.64075010538448
 30
0.0
 10
176.7173151641161
 20
68.73744618589474
 30
0.0
 10
176.7173151641161
 20
68.83902872818489
 30
0.0
 10
176.7173151641161
 20
68.89258079763921
 30
0.0
 10
176.7173151641161
 20
68.88837399637434
 30
0.0
 10
176.7173151641161
 20
68.8869412841005
 30
0.0
  0
SPLINE
  5
181
330
1F
100
AcDbEntity
  8
0
  6
Continuous
 62
     7
370
    25
100
AcDbSpline
210
0.0
220
0.0
230
1.0
 70
    24
 71
     3
 72
     9
 73
     5
 74
     0
 42
0.00000001
 43
0.00000001
 40
0.0
 40
0.0
 40
0.0
 40
0.0
 40
0.3143288738672229
 40
1.0
 40
1.0
 40
1.0
 40
1.0
 10
176.7173151641161
 20
68.167087209213
 30
0.0
 10
176.7173151641161
 20
68.18527048103006
 30
0.0
 10
176.7173151641161
 20
68.24311840188236
 30
0.0
 10
176.7173151641161
 20
68.30801315427207
 30
0.0
 10
176.7173151641161
 20
68.3525096122232
 30
0.0
  0
LINE
  5
182
330
1F
100
AcDbEntity
  8
0
  6
Continuous
 62
     7
370
    25
100
AcDbLine
 10
184.1673151641
 20
87.4525096122
 30
0.0
 11
184.4173151641
 21
87.4525096122
 31
0.0
  0
LINE
  5
183
330
1F
100
AcDbEntity
  8
0
  6
Continuous
 62
     7
370
    25
100
AcDbLine
 10
184.1673151641
 20
87.4525096122
 30
0.0
 11
184.1673151641
 21
87.7025096122
 31
0.0
  0
ARC
  5
184
330
1F
100
AcDbEntity
  8
0
  6
Continuous
 62
     7
370
    25
100
AcDbCircle
 10
184.1673151641
 20
87.4525096122
 30
0.0
 40
0.25
100
AcDbArc
 50
0.0
 51
90.0
  0
LINE
  5
185
330
1F
100
AcDbEntity
  8
0
  6
Continuous
 62
     7
370
    25
100
AcDbLine
 10
184.1673151641
 20
86.8525096122
 30
0.0
 11
184.1673151641
 21
87.4525096122
 31
0.0
  0
LINE
  5
186
330
1F
100
AcDbEntity
  8
0
  6
Continuous
 62
     7
370
    25
100
AcDbLine
 10
184.4173151641
 20
87.4525096122
 30
0.0
 11
184.4173151641
 21
86.8525096122
 31
0.0
  0
LINE
  5
187
330
1F
100
AcDbEntity
  8
0
  6
Continuous
 62
     7
370
    25
100
AcDbLine
 10
184.4173151641
 20
86.8525096122
 30
0.0
 11
184.1673151641
 21
86.8525096122
 31
0.0
  0
LINE
  5
188
330
1F
100
AcDbEntity
  8
0
  6
Continuous
 62
     7
370
    25
100
AcDbLine
 10
181.6673151641
 20
87.4525096122
 30
0.0
 11
181.6673151641
 21
86.8525096122
 31
0.0
  0
LINE
  5
189
330
1F
100
AcDbEntity
  8
0
  6
Continuous
 62
     7
370
    25
100
AcDbLine
 10
184.1673151641
 20
87.4525096122
 30
0.0
 11
181.6673151641
 21
87.4525096122
 31
0.0
  0
LINE
  5
18A
330
1F
100
AcDbEntity
  8
0
  6
Continuous
 62
     7
370
    25
100
AcDbLine
 10
181.6673151641
 20
86.8525096122
 30
0.0
 11
184.1673151641
 21
86.8525096122
 31
0.0
  0
LINE
  5
18B
330
1F
100
AcDbEntity
  8
0
  6
Continuous
 62
     7
370
    25
100
AcDbLine
 10
181.6673151641
 20
87.7025096122
 30
0.0
 11
181.6673151641
 21
87.4525096122
 31
0.0
  0
LINE
  5
18C
330
1F
100
AcDbEntity
  8
0
  6
Continuous
 62
     7
370
    25
100
AcDbLine
 10
181.6673151641
 20
87.7025096122
 30
0.0
 11
184.1673151641
 21
87.7025096122
 31
0.0
  0
LINE
  5
18D
330
1F
100
AcDbEntity
  8
0
  6
Continuous
 62
     7
370
    25
100
AcDbLine
 10
181.4173151641
 20
87.4525096122
 30
0.0
 11
181.6673151641
 21
87.4525096122
 31
0.0
  0
ARC
  5
18E
330
1F
100
AcDbEntity
  8
0
  6
Continuous
 62
     7
370
    25
100
AcDbCircle
 10
181.6673151641
 20
87.4525096122
 30
0.0
 40
0.25
100
AcDbArc
 50
90.0
 51
180.0
  0
LINE
  5
18F
330
1F
100
AcDbEntity
  8
0
  6
Continuous
 62
     7
370
    25
100
AcDbLine
 10
181.4173151641
 20
86.8525096122
 30
0.0
 11
181.4173151641
 21
87.4525096122
 31
0.0
  0
LINE
  5
190
330
1F
100
AcDbEntity
  8
0
  6
Continuous
 62
     7
370
    25
100
AcDbLine
 10
181.6673151641
 20
86.8525096122
 30
0.0
 11
181.4173151641
 21
86.8525096122
 31
0.0
  0
SPLINE
  5
191
330
1F
100
AcDbEntity
  8
0
  6
Continuous
 62
     7
370
    25
100
AcDbSpline
210
0.0
220
0.0
230
1.0
 70
     8
 71
     3
 72
    15
 73
    11
 74
     0
 42
0.00000001
 43
0.00000001
 40
0.0
 40
0.0
 40
0.0
 40
0.0
 40
0.0090459071881971
 40
0.1032433785236876
 40
0.1542564497735193
 40
0.3133169026715103
 40
0.524372039941443
 40
0.6678060008509185
 40
0.9918332554187027
 40
0.9999999999999999
 40
0.9999999999999999
 40
0.9999999999999999
 40
0.9999999999999999
 10
181.2434021206379
 20
87.45250961222236
 30
0.0
 10
181.2434197663624
 20
87.45419071080677
 30
0.0
 10
181.2436211617749
 20
87.4733775423623
 30
0.0
 10
181.2498107824411
 20
87.50207182188227
 30
0.0
 10
181.2740127142852
 20
87.55274786185423
 30
0.0
 10
181.3270317062869
 20
87.6106241614311
 30
0.0
 10
181.4084025934835
 20
87.6554896761658
 30
0.0
 10
181.522981665506
 20
87.69285205942035
 30
0.0
 10
181.6074068432251
 20
87.70239807168971
 30
0.0
 10
181.6658777011771
 20
87.70250693587658
 30
0.0
 10
181.6673151641162
 20
87.70250961222236
 30
0.0
  0
LINE
  5
192
330
1F
100
AcDbEntity
  8
0
  6
Continuous
 62
     7
370
    25
100
AcDbLine
 10
181.2434021206
 20
87.4525096122
 30
0.0
 11
181.4173151641
 21
87.4525096122
 31
0.0
  0
LINE
  5
193
330
1F
100
AcDbEntity
  8
0
  6
Continuous
 62
     7
370
    25
100
AcDbLine
 10
184.4173151641
 20
87.4525096122
 30
0.0
 11
184.5912282076
 21
87.4525096122
 31
0.0
  0
SPLINE
  5
194
330
1F
100
AcDbEntity
  8
0
  6
Continuous
 62
     7
370
    25
100
AcDbSpline
210
0.0
220
0.0
230
1.0
 70
     8
 71
     3
 72
    15
 73
    11
 74
     0
 42
0.00000001
 43
0.00000001
 40
0.0
 40
0.0
 40
0.0
 40
0.0
 40
0.0081667445812695
 40
0.3321939991490083
 40
0.4756279600585602
 40
0.6866830973284899
 40
0.8457435502264811
 40
0.8967566214763185
 40
0.9909540928118029
 40
1.0
 40
1.0
 40
1.0
 40
1.0
 10
184.1673151641162
 20
87.70250961222236
 30
0.0
 10
184.1687526270552
 20
87.70250693587658
 30
0.0
 10
184.2272234850069
 20
87.7023980716897
 30
0.0
 10
184.3116486627264
 20
87.69285205942035
 30
0.0
 10
184.4262277347488
 20
87.6554896761658
 30
0.0
 10
184.5075986219454
 20
87.61062416143112
 30
0.0
 10
184.5606176139471
 20
87.55274786185421
 30
0.0
 10
184.5848195457912
 20
87.50207182188227
 30
0.0
 10
184.5910091664574
 20
87.4733775423623
 30
0.0
 10
184.59121056187
 20
87.45419071080676
 30
0.0
 10
184.5912282075944
 20
87.45250961222236
 30
0.0
  0
LINE
  5
195
330
1F
100
AcDbEntity
  8
0
  6
Continuous
 62
     7
370
    25
100
AcDbLine
 10
184.5912282076
 20
87.4525096122
 30
0.0
 11
184.5912282076
 21
86.8525096122
 31
0.0
  0
LINE
  5
196
330
1F
100
AcDbEntity
  8
0
  6
Continuous
 62
     7
370
    25
100
AcDbLine
 10
184.5912282076
 20
86.8525096122
 30
0.0
 11
184.4173151641
 21
86.8525096122
 31
0.0
  0
LINE
  5
197
330
1F
100
AcDbEntity
  8
0
  6
Continuous
 62
     7
370
    25
100
AcDbLine
 10
181.2434021206
 20
86.8525096122
 30
0.0
 11
181.2434021206
 21
87.4525096122
 31
0.0
  0
LINE
  5
198
330
1F
100
AcDbEntity
  8
0
  6
Continuous
 62
     7
370
    25
100
AcDbLine
 10
181.4173151641
 20
86.8525096122
 30
0.0
 11
181.2434021206
 21
86.8525096122
 31
0.0
  0
LINE
  5
199
330
1F
100
AcDbEntity
  8
0
  6
Continuous
 62
     7
370
    25
100
AcDbLine
 10
184.1673151641
 20
87.7025096122
 30
0.0
 11
188.1673151641
 21
87.7025096122
 31
0.0
  0
LINE
  5
19A
330
1F
100
AcDbEntity
  8
0
  6
Continuous
 62
     7
370
    25
100
AcDbLine
 10
177.6673151641
 20
87.7025096122
 30
0.0
 11
181.6673151641
 21
87.7025096122
 31
0.0
  0
LINE
  5
19B
330
1F
100
AcDbEntity
  8
0
  6
Continuous
 62
     7
370
    25
100
AcDbLine
 10
184.5912282076
 20
86.8525096122
 30
0.0
 11
188.4173151641
 21
86.8525096122
 31
0.0
  0
LINE
  5
19C
330
1F
100
AcDbEntity
  8
0
  6
Continuous
 62
     7
370
    25
100
AcDbLine
 10
177.4173151641
 20
86.8525096122
 30
0.0
 11
181.2434021206
 21
86.8525096122
 31
0.0
  0
LINE
  5
19D
330
1F
100
AcDbEntity
  8
0
  6
Continuous
 62
     7
370
    25
100
AcDbLine
 10
182.3173151641
 20
87.7025096122
 30
0.0
 11
182.3173151641
 21
87.7125096122
 31
0.0
  0
LINE
  5
19E
330
1F
100
AcDbEntity
  8
0
  6
Continuous
 62
     7
370
    25
100
AcDbLine
 10
182.3173151641
 20
87.7125096122
 30
0.0
 11
183.5173151641
 21
87.7125096122
 31
0.0
  0
LINE
  5
19F
330
1F
100
AcDbEntity
  8
0
  6
Continuous
 62
     7
370
    25
100
AcDbLine
 10
183.5173151641
 20
87.7025096122
 30
0.0
 11
183.5173151641
 21
87.7125096122
 31
0.0
  0
LINE
  5
1A0
330
1F
100
AcDbEntity
  8
0
  6
Continuous
 62
     7
370
    25
100
AcDbLine
 10
175.4673151641
 20
78.8525096122
 30
0.0
 11
190.3673151641
 21
78.8525096122
 31
0.0
  0
LINE
  5
1A1
330
1F
100
AcDbEntity
  8
0
  6
Continuous
 62
     7
370
    25
100
AcDbLine
 10
175.9173151641
 20
70.8525096122
 30
0.0
 11
189.9173151641
 21
70.8525096122
 31
0.0
  0
LINE
  5
1A2
330
1F
100
AcDbEntity
  8
0
  6
Continuous
 62
     7
370
    25
100
AcDbLine
 10
186.1890144282
 20
88.8525096122
 30
0.0
 11
186.1890144282
 21
87.7025096122
 31
0.0
  0
LINE
  5
1A3
330
1F
100
AcDbEntity
  8
0
  6
Continuous
 62
     7
370
    25
100
AcDbLine
 10
186.1890144282
 20
88.8525096122
 30
0.0
 11
186.4173151641
 21
88.8525096122
 31
0.0
  0
LINE
  5
1A4
330
1F
100
AcDbEntity
  8
0
  6
Continuous
 62
     7
370
    25
100
AcDbLine
 10
186.4173151641
 20
87.7025096122
 30
0.0
 11
186.4173151641
 21
88.8525096122
 31
0.0
  0
LINE
  5
1A5
330
1F
100
AcDbEntity
  8
0
  6
Continuous
 62
     7
370
    25
100
AcDbLine
 10
179.4173151641
 20
88.8525096122
 30
0.0
 11
179.4173151641
 21
87.7025096122
 31
0.0
  0
LINE
  5
1A6
330
1F
100
AcDbEntity
  8
0
  6
Continuous
 62
     7
370
    25
100
AcDbLine
 10
179.4173151641
 20
88.8525096122
 30
0.0
 11
179.6456159001
 21
88.8525096122
 31
0.0
  0
LINE
  5
1A7
330
1F
100
AcDbEntity
  8
0
  6
Continuous
 62
     7
370
    25
100
AcDbLine
 10
179.6456159001
 20
88.8525096122
 30
0.0
 11
179.6456159001
 21
87.7025096122
 31
0.0
  0
LINE
  5
1A8
330
1F
100
AcDbEntity
  8
0
  6
Continuous
 62
     7
370
    25
100
AcDbLine
 10
179.6456159001
 20
88.8525096122
 30
0.0
 11
186.1890144282
 21
88.8525096122
 31
0.0
  0
LINE
  5
1A9
330
1F
100
AcDbEntity
  8
0
  6
Continuous
 62
     7
370
    25
100
AcDbLine
 10
188.4173151641
 20
87.4525096122
 30
0.0
 11
184.5912282076
 21
87.4525096122
 31
0.0
  0
LINE
  5
1AA
330
1F
100
AcDbEntity
  8
0
  6
Continuous
 62
     7
370
    25
100
AcDbLine
 10
181.2434021206
 20
87.4525096122
 30
0.0
 11
177.4173151641
 21
87.4525096122
 31
0.0
  0
INSERT
  5
1B6
330
1F
100
AcDbEntity
  8
FORMAT
100
AcDbBlockReference
  2
SW_CENTERMARKSYMBOL_0
 10
182.9173151641
 20
60.3525096122
 30
0.0
  0
LINE
  5
1B7
330
1F
100
AcDbEntity
  8
0
  6
Continuous
 62
     7
370
    25
100
AcDbLine
 10
101.628753818
 20
123.9740475525
 30
0.0
 11
97.1603590375
 21
122.5221780778
 31
0.0
  0
LINE
  5
1B8
330
1F
100
AcDbEntity
  8
0
  6
Continuous
 62
     7
370
    25
100
AcDbLine
 10
97.1603590375
 20
109.4259170273
 30
0.0
 11
101.628753818
 21
107.9740475525
 31
0.0
  0
LINE
  5
1B9
330
1F
100
AcDbEntity
  8
0
  6
Continuous
 62
     7
370
    25
100
AcDbLine
 10
114.3678909449
 20
107.9740475525
 30
0.0
 11
114.5122285122
 21
108.2240475525
 31
0.0
  0
LINE
  5
1BA
330
1F
100
AcDbEntity
  8
0
  6
Continuous
 62
     7
370
    25
100
AcDbLine
 10
114.5122285122
 20
123.7240475525
 30
0.0
 11
114.3678909449
 21
123.9740475525
 31
0.0
  0
LINE
  5
1BB
330
1F
100
AcDbEntity
  8
0
  6
Continuous
 62
     7
370
    25
100
AcDbLine
 10
97.1603590375
 20
122.5221780778
 30
0.0
 11
97.0122285122
 21
122.3740475525
 31
0.0
  0
LINE
  5
1BC
330
1F
100
AcDbEntity
  8
0
  6
Continuous
 62
     7
370
    25
100
AcDbLine
 10
97.0122285122
 20
109.5740475525
 30
0.0
 11
97.1603590375
 21
109.4259170273
 31
0.0
  0
LINE
  5
1BD
330
1F
100
AcDbEntity
  8
0
  6
Continuous
 62
     7
370
    25
100
AcDbLine
 10
120.3678909449
 20
107.4740475525
 30
0.0
 11
120.5122285122
 21
107.7240475525
 31
0.0
  0
LINE
  5
1BE
330
1F
100
AcDbEntity
  8
0
  6
Continuous
 62
     7
370
    25
100
AcDbLine
 10
120.5122285122
 20
124.2240475525
 30
0.0
 11
120.3678909449
 21
124.4740475525
 31
0.0
  0
LINE
  5
1BF
330
1F
100
AcDbEntity
  8
0
  6
Continuous
 62
     7
370
    25
100
AcDbLine
 10
114.6565660795
 20
124.4740475525
 30
0.0
 11
114.5122285122
 21
124.2240475525
 31
0.0
  0
LINE
  5
1C0
330
1F
100
AcDbEntity
  8
0
  6
Continuous
 62
     7
370
    25
100
AcDbLine
 10
114.5122285122
 20
107.7240475525
 30
0.0
 11
114.6565660795
 21
107.4740475525
 31
0.0
  0
LINE
  5
1C1
330
1F
100
AcDbEntity
  8
0
  6
Continuous
 62
     7
370
    25
100
AcDbLine
 10
120.7622285122
 20
105.9740475525
 30
0.0
 11
122.630262501
 21
105.9740475525
 31
0.0
  0
LINE
  5
1C2
330
1F
100
AcDbEntity
  8
0
  6
Continuous
 62
     7
370
    25
100
AcDbLine
 10
122.630262501
 20
125.9740475525
 30
0.0
 11
120.7622285122
 21
125.9740475525
 31
0.0
  0
ARC
  5
1C3
330
1F
100
AcDbEntity
  8
0
  6
Continuous
 62
     7
370
    25
100
AcDbCircle
 10
139.5122285122
 20
124.9740475525
 30
0.0
 40
1.5
100
AcDbArc
 50
138.1896851042
 51
180.0
  0
ARC
  5
1C4
330
1F
100
AcDbEntity
  8
0
  6
Continuous
 62
     7
370
    25
100
AcDbCircle
 10
139.5122285122
 20
106.9740475525
 30
0.0
 40
1.5
100
AcDbArc
 50
180.0
 51
221.8103148958
  0
ARC
  5
1C5
330
1F
100
AcDbEntity
  8
0
  6
Continuous
 62
     7
370
    25
100
AcDbCircle
 10
121.5122285122
 20
106.9740475525
 30
0.0
 40
1.500000000000014
100
AcDbArc
 50
318.1896851042
 51
0.0
  0
ARC
  5
1C6
330
1F
100
AcDbEntity
  8
0
  6
Continuous
 62
     7
370
    25
100
AcDbCircle
 10
121.5122285122
 20
124.9740475525
 30
0.0
 40
1.500000000000014
100
AcDbArc
 50
0.0
 51
41.8103148958
  0
LINE
  5
1C7
330
1F
100
AcDbEntity
  8
0
  6
Continuous
 62
     7
370
    25
100
AcDbLine
 10
140.0122285122
 20
105.9740475525
 30
0.0
 11
140.5122285122
 21
106.4740475525
 31
0.0
  0
LINE
  5
1C8
330
1F
100
AcDbEntity
  8
0
  6
Continuous
 62
     7
370
    25
100
AcDbLine
 10
140.5122285122
 20
125.4740475525
 30
0.0
 11
140.0122285122
 21
125.9740475525
 31
0.0
  0
LINE
  5
1C9
330
1F
100
AcDbEntity
  8
0
  6
Continuous
 62
     7
370
    25
100
AcDbLine
 10
140.0122285122
 20
125.9740475525
 30
0.0
 11
138.3941945235
 21
125.9740475525
 31
0.0
  0
LINE
  5
1CA
330
1F
100
AcDbEntity
  8
0
  6
Continuous
 62
     7
370
    25
100
AcDbLine
 10
138.3941945235
 20
105.9740475525
 30
0.0
 11
140.0122285122
 21
105.9740475525
 31
0.0
  0
LINE
  5
1CB
330
1F
100
AcDbEntity
  8
0
  6
Continuous
 62
     7
370
    25
100
AcDbLine
 10
120.7622285122
 20
125.9740475525
 30
0.0
 11
120.5122285122
 21
125.7240475525
 31
0.0
  0
LINE
  5
1CC
330
1F
100
AcDbEntity
  8
0
  6
Continuous
 62
     7
370
    25
100
AcDbLine
 10
120.5122285122
 20
106.2240475525
 30
0.0
 11
120.7622285122
 21
105.9740475525
 31
0.0
  0
LINE
  5
1CD
330
1F
100
AcDbEntity
  8
0
  6
Continuous
 62
     7
370
    25
100
AcDbLine
 10
140.5122285122
 20
107.5289850525
 30
0.0
 11
148.4383190786
 21
107.7766753827
 31
0.0
  0
LINE
  5
1CE
330
1F
100
AcDbEntity
  8
0
  6
Continuous
 62
     7
370
    25
100
AcDbLine
 10
148.4383190786
 20
124.1714197224
 30
0.0
 11
140.5122285122
 21
124.4191100525
 31
0.0
  0
LINE
  5
1CF
330
1F
100
AcDbEntity
  8
0
  6
Continuous
 62
     7
370
    25
100
AcDbLine
 10
148.4383190786
 20
107.7766753827
 30
0.0
 11
150.5122285122
 21
108.9740475525
 31
0.0
  0
LINE
  5
1D0
330
1F
100
AcDbEntity
  8
0
  6
Continuous
 62
     7
370
    25
100
AcDbLine
 10
150.5122285122
 20
122.9740475525
 30
0.0
 11
148.4383190786
 21
124.1714197224
 31
0.0
  0
SPLINE
  5
1D1
330
1F
100
AcDbEntity
  8
0
  6
Continuous
 62
     7
370
    25
100
AcDbSpline
210
0.0
220
0.0
230
1.0
 70
    24
 71
     3
 72
    15
 73
    11
 74
     0
 42
0.00000001
 43
0.00000001
 40
0.0
 40
0.0
 40
0.0
 40
0.0
 40
0.0206596214305649
 40
0.2785281562775099
 40
0.409692068365003
 40
0.540769697738802
 40
0.6773125484361164
 40
0.8170001972328492
 40
0.9342620865565013
 40
1.0
 40
1.0
 40
1.0
 40
1.0
 10
103.9370164708633
 20
123.9740475525489
 30
0.0
 10
103.9135953909629
 20
123.9740475525489
 30
0.0
 10
103.5978379011839
 20
123.974047552549
 30
0.0
 10
103.1501091600793
 20
123.974047552549
 30
0.0
 10
102.632875740607
 20
123.974047552549
 30
0.0
 10
102.2745398113021
 20
123.974047552549
 30
0.0
 10
101.9615301337044
 20
123.974047552549
 30
0.0
 10
101.7445912995262
 20
123.974047552549
 30
0.0
 10
101.634003904977
 20
123.974047552549
 30
0.0
 10
101.6400693209266
 20
123.974047552549
 30
0.0
 10
101.6422481636503
 20
123.974047552549
 30
0.0
  0
LINE
  5
1D2
330
1F
100
AcDbEntity
  8
0
  6
Continuous
 62
     7
370
    25
100
AcDbLine
 10
103.9370164709
 20
123.9740475525
 30
0.0
 11
103.9370164709
 21
123.043554842
 31
0.0
  0
SPLINE
  5
1D3
330
1F
100
AcDbEntity
  8
0
  6
Continuous
 62
     7
370
    25
100
AcDbSpline
210
0.0
220
0.0
230
1.0
 70
     8
 71
     3
 72
    15
 73
    11
 74
     0
 42
0.00000001
 43
0.00000001
 40
0.0
 40
0.0
 40
0.0
 40
0.0
 40
0.0874542671838036
 40
0.1835133032392293
 40
0.279641850538996
 40
0.4016099382565959
 40
0.5238471082696792
 40
0.6821600813016832
 40
0.8411401604483262
 40
1.0
 40
1.0
 40
1.0
 40
1.0
 10
101.6965199357954
 20
119.474047552549
 30
0.0
 10
101.6700057880512
 20
119.5972231293798
 30
0.0
 10
101.6143687220533
 20
119.8556937301924
 30
0.0
 10
101.6373180935702
 20
120.2582446159704
 30
0.0
 10
101.7451235221482
 20
120.698876206548
 30
0.0
 10
101.9636878951844
 20
121.1502192464776
 30
0.0
 10
102.3125664082566
 20
121.641341961917
 30
0.0
 10
102.7720624923035
 20
122.1294345540307
 30
0.0
 10
103.3303615275235
 20
122.6096652380971
 30
0.0
 10
103.7348491626272
 20
122.8989614545147
 30
0.0
 10
103.9370164708633
 20
123.0435548420011
 30
0.0
  0
SPLINE
  5
1D4
330
1F
100
AcDbEntity
  8
0
  6
Continuous
 62
     7
370
    25
100
AcDbSpline
210
0.0
220
0.0
230
1.0
 70
     8
 71
     3
 72
    15
 73
    11
 74
     0
 42
0.00000001
 43
0.00000001
 40
0.0
 40
0.0
 40
0.0
 40
0.0
 40
0.2097791930366152
 40
0.4191526115085179
 40
0.5400435965490072
 40
0.6607245759317967
 40
0.7564451902662235
 40
0.8520571814181235
 40
0.9480929640469156
 40
1.0
 40
1.0
 40
1.0
 40
1.0
 10
103.9370164708633
 20
108.9045402630969
 30
0.0
 10
103.6710903028583
 20
109.0967839774603
 30
0.0
 10
103.1397523461512
 20
109.4808995503879
 30
0.0
 10
102.5345932356508
 20
110.0521408374201
 30
0.0
 10
102.1059378413452
 20
110.5804390393767
 30
0.0
 10
101.8499146046618
 20
111.0107919867773
 30
0.0
 10
101.6893906772814
 20
111.4366442398025
 30
0.0
 10
101.6203019519896
 20
111.8442620563658
 30
0.0
 10
101.6262318285019
 20
112.1959008996979
 30
0.0
 10
101.6833283318866
 20
112.4018044761486
 30
0.0
 10
101.7033611410652
 20
112.4740475525489
 30
0.0
  0
LINE
  5
1D5
330
1F
100
AcDbEntity
  8
0
  6
Continuous
 62
     7
370
    25
100
AcDbLine
 10
103.9370164709
 20
108.9045402631
 30
0.0
 11
103.9370164709
 21
107.9740475525
 31
0.0
  0
SPLINE
  5
1D6
330
1F
100
AcDbEntity
  8
0
  6
Continuous
 62
     7
370
    25
100
AcDbSpline
210
0.0
220
0.0
230
1.0
 70
    24
 71
     3
 72
    15
 73
    11
 74
     0
 42
0.00000001
 43
0.00000001
 40
0.0
 40
0.0
 40
0.0
 40
0.0
 40
0.0611801621028028
 40
0.1829884326497989
 40
0.3192190903520836
 40
0.4592267643931802
 40
0.5878355380453879
 40
0.7165250885764821
 40
0.9793400797552642
 40
1.0
 40
1.0
 40
1.0
 40
1.0
 10
101.6413168647932
 20
107.9740475525491
 30
0.0
 10
101.6391479707603
 20
107.9740475525491
 30
0.0
 10
101.6326608594809
 20
107.9740475525491
 30
0.0
 10
101.7409659654578
 20
107.9740475525491
 30
0.0
 10
101.9590625526572
 20
107.9740475525491
 30
0.0
 10
102.2695440421244
 20
107.9740475525491
 30
0.0
 10
102.6260534655333
 20
107.9740475525491
 30
0.0
 10
103.1420399803662
 20
107.9740475525491
 30
0.0
 10
103.5922358702991
 20
107.9740475525491
 30
0.0
 10
103.9135954780408
 20
107.9740475525491
 30
0.0
 10
103.9370164708633
 20
107.9740475525491
 30
0.0
  0
LINE
  5
1D7
330
1F
100
AcDbEntity
  8
0
  6
Continuous
 62
     7
370
    25
100
AcDbLine
 10
97.1603590375
 20
122.5221780778
 30
0.0
 11
97.1603590375
 21
119.4740475525
 31
0.0
  0
LINE
  5
1D8
330
1F
100
AcDbEntity
  8
0
  6
Continuous
 62
     7
370
    25
100
AcDbLine
 10
97.1603590375
 20
112.4740475525
 30
0.0
 11
97.1603590375
 21
109.4259170273
 31
0.0
  0
LINE
  5
1D9
330
1F
100
AcDbEntity
  8
0
  6
Continuous
 62
     7
370
    25
100
AcDbLine
 10
113.934878243
 20
108.9045402631
 30
0.0
 11
103.9370164709
 21
108.9045402631
 31
0.0
  0
SPLINE
  5
1DA
330
1F
100
AcDbEntity
  8
0
  6
Continuous
 62
     7
370
    25
100
AcDbSpline
210
0.0
220
0.0
230
1.0
 70
     8
 71
     3
 72
    11
 73
     7
 74
     0
 42
0.00000001
 43
0.00000001
 40
0.0
 40
0.0
 40
0.0
 40
0.0
 40
0.0543023767256381
 40
0.3707439201807028
 40
0.6844922198107956
 40
0.9999999999999999
 40
0.9999999999999999
 40
0.9999999999999999
 40
0.9999999999999999
 10
114.3582371904084
 20
112.1718974115457
 30
0.0
 10
114.3616783025423
 20
112.1122926588764
 30
0.0
 10
114.3851721434981
 20
111.7053473095469
 30
0.0
 10
114.3282381367824
 20
110.952509038669
 30
0.0
 10
114.1887121852959
 20
109.9198568072727
 30
0.0
 10
114.0196471329617
 20
109.2436094025953
 30
0.0
 10
113.9348782430293
 20
108.9045402630969
 30
0.0
  0
LINE
  5
1DB
330
1F
100
AcDbEntity
  8
0
  6
Continuous
 62
     7
370
    25
100
AcDbLine
 10
103.9370164709
 20
123.043554842
 30
0.0
 11
113.934878243
 21
123.043554842
 31
0.0
  0
SPLINE
  5
1DC
330
1F
100
AcDbEntity
  8
0
  6
Continuous
 62
     7
370
    25
100
AcDbSpline
210
0.0
220
0.0
230
1.0
 70
     8
 71
     3
 72
    11
 73
     7
 74
     0
 42
0.00000001
 43
0.00000001
 40
0.0
 40
0.0
 40
0.0
 40
0.0
 40
0.3091453350587608
 40
0.6182115978828497
 40
0.9349055397544633
 40
1.0
 40
1.0
 40
1.0
 40
1.0
 10
113.9348782430293
 20
123.0435548420011
 30
0.0
 10
114.0178869922401
 20
122.7116057009212
 30
0.0
 10
114.1838832589413
 20
122.0477923236828
 30
0.0
 10
114.3252175801858
 20
121.0281045718275
 30
0.0
 10
114.3842385525214
 20
120.2690313235448
 30
0.0
 10
114.361137156203
 20
119.8502378783822
 30
0.0
 10
114.3571983961047
 20
119.7788341031076
 30
0.0
  0
SPLINE
  5
1DD
330
1F
100
AcDbEntity
  8
0
  6
Continuous
 62
     7
370
    25
100
AcDbSpline
210
0.0
220
0.0
230
1.0
 70
    24
 71
     3
 72
    11
 73
     7
 74
     0
 42
0.00000001
 43
0.00000001
 40
0.0
 40
0.0
 40
0.0
 40
0.0
 40
0.2513143413296903
 40
0.5032998081395758
 40
0.8218748097706021
 40
1.0
 40
1.0
 40
1.0
 40
1.0
 10
113.9348782430293
 20
107.9740475525491
 30
0.0
 10
113.9994280577118
 20
107.9740475525491
 30
0.0
 10
114.128700064925
 20
107.9740475525491
 30
0.0
 10
114.2742375284217
 20
107.9740475525491
 30
0.0
 10
114.362235614015
 20
107.9740475525491
 30
0.0
 10
114.3577868048457
 20
107.9740475525491
 30
0.0
 10
114.3561913857326
 20
107.9740475525491
 30
0.0
  0
LINE
  5
1DE
330
1F
100
AcDbEntity
  8
0
  6
Continuous
 62
     7
370
    25
100
AcDbLine
 10
113.934878243
 20
107.9740475525
 30
0.0
 11
113.934878243
 21
108.9045402631
 31
0.0
  0
LINE
  5
1DF
330
1F
100
AcDbEntity
  8
0
  6
Continuous
 62
     7
370
    25
100
AcDbLine
 10
113.934878243
 20
123.043554842
 30
0.0
 11
113.934878243
 21
123.9740475525
 31
0.0
  0
SPLINE
  5
1E0
330
1F
100
AcDbEntity
  8
0
  6
Continuous
 62
     7
370
    25
100
AcDbSpline
210
0.0
220
0.0
230
1.0
 70
    24
 71
     3
 72
    11
 73
     7
 74
     0
 42
0.00000001
 43
0.00000001
 40
0.0
 40
0.0
 40
0.0
 40
0.0
 40
0.1699014571529352
 40
0.4966925879501173
 40
0.7479810017328705
 40
1.0
 40
1.0
 40
1.0
 40
1.0
 10
114.3554022982069
 20
123.974047552549
 30
0.0
 10
114.3575146217957
 20
123.974047552549
 30
0.0
 10
114.3636898217468
 20
123.974047552549
 30
0.0
 10
114.2756082349423
 20
123.974047552549
 30
0.0
 10
114.1288887239148
 20
123.974047552549
 30
0.0
 10
113.9996109551101
 20
123.974047552549
 30
0.0
 10
113.9348782430293
 20
123.9740475525489
 30
0.0
  0
LINE
  5
1E1
330
1F
100
AcDbEntity
  8
0
  6
Continuous
 62
     7
370
    25
100
AcDbLine
 10
97.0122285122
 20
109.5740475525
 30
0.0
 11
97.0122285122
 21
112.4740475525
 31
0.0
  0
LINE
  5
1E2
330
1F
100
AcDbEntity
  8
0
  6
Continuous
 62
     7
370
    25
100
AcDbLine
 10
97.0122285122
 20
119.4740475525
 30
0.0
 11
97.0122285122
 21
122.3740475525
 31
0.0
  0
LINE
  5
1E3
330
1F
100
AcDbEntity
  8
0
  6
Continuous
 62
     7
370
    25
100
AcDbLine
 10
113.934878243
 20
123.9740475525
 30
0.0
 11
103.9370164709
 21
123.9740475525
 31
0.0
  0
LINE
  5
1E4
330
1F
100
AcDbEntity
  8
0
  6
Continuous
 62
     7
370
    25
100
AcDbLine
 10
103.9370164709
 20
107.9740475525
 30
0.0
 11
113.934878243
 21
107.9740475525
 31
0.0
  0
SPLINE
  5
1E5
330
1F
100
AcDbEntity
  8
0
  6
Continuous
 62
     7
370
    25
100
AcDbSpline
210
0.0
220
0.0
230
1.0
 70
    24
 71
     3
 72
    11
 73
     7
 74
     0
 42
0.00000001
 43
0.00000001
 40
0.0
 40
0.0
 40
0.0
 40
0.0
 40
0.3069006645077679
 40
0.6152812132482595
 40
0.9004212768896063
 40
1.0
 40
1.0
 40
1.0
 40
1.0
 10
119.790540675732
 20
107.4740475525491
 30
0.0
 10
119.8934371364533
 20
107.4740475525491
 30
0.0
 10
120.0997262277236
 20
107.4740475525491
 30
0.0
 10
120.2846055449574
 20
107.4740475525491
 30
0.0
 10
120.3709859907897
 20
107.4740475525491
 30
0.0
 10
120.3591450595499
 20
107.474047552549
 30
0.0
 10
120.3560802110062
 20
107.474047552549
 30
0.0
  0
LINE
  5
1E6
330
1F
100
AcDbEntity
  8
0
  6
Continuous
 62
     7
370
    25
100
AcDbLine
 10
119.7905406757
 20
107.4740475525
 30
0.0
 11
119.7905406757
 21
108.0498129384
 31
0.0
  0
SPLINE
  5
1E7
330
1F
100
AcDbEntity
  8
0
  6
Continuous
 62
     7
370
    25
100
AcDbSpline
210
0.0
220
0.0
230
1.0
 70
     8
 71
     3
 72
    10
 73
     6
 74
     0
 42
0.00000001
 43
0.00000001
 40
0.0
 40
0.0
 40
0.0
 40
0.0
 40
0.1092991982330667
 40
0.5524068169408793
 40
1.0
 40
1.0
 40
1.0
 40
1.0
 10
120.3481634593464
 20
111.3317410843708
 30
0.0
 10
120.3472932891237
 20
111.2106072747757
 30
0.0
 10
120.3428953798006
 20
110.5983873933487
 30
0.0
 10
120.1754875358072
 20
109.4945624415462
 30
0.0
 10
119.9192863716428
 20
108.5330102299857
 30
0.0
 10
119.790540675732
 20
108.0498129383743
 30
0.0
  0
SPLINE
  5
1E8
330
1F
100
AcDbEntity
  8
0
  6
Continuous
 62
     7
370
    25
100
AcDbSpline
210
0.0
220
0.0
230
1.0
 70
     8
 71
     3
 72
    10
 73
     6
 74
     0
 42
0.00000001
 43
0.00000001
 40
0.0
 40
0.0
 40
0.0
 40
0.0
 40
0.3318368326242598
 40
0.6635828811676981
 40
1.0
 40
1.0
 40
1.0
 40
1.0
 10
119.790540675732
 20
123.8982821667238
 30
0.0
 10
119.8895727861414
 20
123.539918454721
 30
0.0
 10
120.0876099137078
 20
122.8232890720326
 30
0.0
 10
120.2889511475291
 20
121.7246622516849
 30
0.0
 10
120.3362502905011
 20
120.9835645847768
 30
0.0
 10
120.3600651940738
 20
120.6104252768233
 30
0.0
  0
LINE
  5
1E9
330
1F
100
AcDbEntity
  8
0
  6
Continuous
 62
     7
370
    25
100
AcDbLine
 10
119.7905406757
 20
123.8982821667
 30
0.0
 11
119.7905406757
 21
124.4740475525
 31
0.0
  0
SPLINE
  5
1EA
330
1F
100
AcDbEntity
  8
0
  6
Continuous
 62
     7
370
    25
100
AcDbSpline
210
0.0
220
0.0
230
1.0
 70
    24
 71
     3
 72
    11
 73
     7
 74
     0
 42
0.00000001
 43
0.00000001
 40
0.0
 40
0.0
 40
0.0
 40
0.0
 40
0.0921969458703319
 40
0.3847109544559704
 40
0.6915213050714433
 40
0.9999999999999999
 40
0.9999999999999999
 40
0.9999999999999999
 40
0.9999999999999999
 10
120.3560449753082
 20
124.474047552549
 30
0.0
 10
120.3592438068289
 20
124.474047552549
 30
0.0
 10
120.3725915974293
 20
124.474047552549
 30
0.0
 10
120.285990105102
 20
124.474047552549
 30
0.0
 10
120.1002421144302
 20
124.4740475525491
 30
0.0
 10
119.8939609311073
 20
124.4740475525491
 30
0.0
 10
119.790540675732
 20
124.4740475525491
 30
0.0
  0
LINE
  5
1EB
330
1F
100
AcDbEntity
  8
0
  6
Continuous
 62
     7
370
    25
100
AcDbLine
 10
114.5122285122
 20
107.7240475525
 30
0.0
 11
114.5122285122
 21
112.1800285711
 31
0.0
  0
LINE
  5
1EC
330
1F
100
AcDbEntity
  8
0
  6
Continuous
 62
     7
370
    25
100
AcDbLine
 10
114.5122285122
 20
119.768066534
 30
0.0
 11
114.5122285122
 21
124.2240475525
 31
0.0
  0
SPLINE
  5
1ED
330
1F
100
AcDbEntity
  8
0
  6
Continuous
 62
     7
370
    25
100
AcDbSpline
210
0.0
220
0.0
230
1.0
 70
    24
 71
     3
 72
    11
 73
     7
 74
     0
 42
0.00000001
 43
0.00000001
 40
0.0
 40
0.0
 40
0.0
 40
0.0
 40
0.3031305053797863
 40
0.6076814122186762
 40
0.8923931906423693
 40
1.0
 40
1.0
 40
1.0
 40
1.0
 10
115.2339163487061
 20
124.4740475525491
 30
0.0
 10
115.132218414743
 20
124.4740475525491
 30
0.0
 10
114.9283460131418
 20
124.4740475525491
 30
0.0
 10
114.7429771513628
 20
124.474047552549
 30
0.0
 10
114.6546755209137
 20
124.474047552549
 30
0.0
 10
114.6657021157709
 20
124.474047552549
 30
0.0
 10
114.6687265370642
 20
124.474047552549
 30
0.0
  0
LINE
  5
1EE
330
1F
100
AcDbEntity
  8
0
  6
Continuous
 62
     7
370
    25
100
AcDbLine
 10
115.2339163487
 20
124.4740475525
 30
0.0
 11
115.2339163487
 21
123.8982821667
 31
0.0
  0
SPLINE
  5
1EF
330
1F
100
AcDbEntity
  8
0
  6
Continuous
 62
     7
370
    25
100
AcDbSpline
210
0.0
220
0.0
230
1.0
 70
     8
 71
     3
 72
    11
 73
     7
 74
     0
 42
0.00000001
 43
0.00000001
 40
0.0
 40
0.0
 40
0.0
 40
0.0
 40
0.009900208579826
 40
0.2836138947984932
 40
0.6400030891513983
 40
1.0
 40
1.0
 40
1.0
 40
1.0
 10
114.6669042844161
 20
119.8076563397434
 30
0.0
 10
114.6657440124801
 20
119.8212596006834
 30
0.0
 10
114.6325053953202
 20
120.2109558162781
 30
0.0
 10
114.6767396112777
 20
121.0949304988971
 30
0.0
 10
114.839491279495
 20
122.45346997651
 30
0.0
 10
115.1020006603684
 20
123.4150639093956
 30
0.0
 10
115.2339163487061
 20
123.8982821667238
 30
0.0
  0
SPLINE
  5
1F0
330
1F
100
AcDbEntity
  8
0
  6
Continuous
 62
     7
370
    25
100
AcDbSpline
210
0.0
220
0.0
230
1.0
 70
     8
 71
     3
 72
    11
 73
     7
 74
     0
 42
0.00000001
 43
0.00000001
 40
0.0
 40
0.0
 40
0.0
 40
0.0
 40
0.2670789499265425
 40
0.5340848322650654
 40
0.8074664073584168
 40
1.0
 40
1.0
 40
1.0
 40
1.0
 10
115.2339163487061
 20
108.0498129383743
 30
0.0
 10
115.1342541105423
 20
108.4081688377436
 30
0.0
 10
114.934956899858
 20
109.1247825973024
 30
0.0
 10
114.7424850432655
 20
110.2270986060156
 30
0.0
 10
114.6452540155544
 20
111.2367635947089
 30
0.0
 10
114.667557714315
 20
111.8795611838597
 30
0.0
 10
114.6767744377637
 20
112.1451892160661
 30
0.0
  0
LINE
  5
1F1
330
1F
100
AcDbEntity
  8
0
  6
Continuous
 62
     7
370
    25
100
AcDbLine
 10
115.2339163487
 20
108.0498129384
 30
0.0
 11
115.2339163487
 21
107.4740475525
 31
0.0
  0
SPLINE
  5
1F2
330
1F
100
AcDbEntity
  8
0
  6
Continuous
 62
     7
370
    25
100
AcDbSpline
210
0.0
220
0.0
230
1.0
 70
    24
 71
     3
 72
    11
 73
     7
 74
     0
 42
0.00000001
 43
0.00000001
 40
0.0
 40
0.0
 40
0.0
 40
0.0
 40
0.1002367743294462
 40
0.3923107761146402
 40
0.69535552968909
 40
0.9999999999999999
 40
0.9999999999999999
 40
0.9999999999999999
 40
0.9999999999999999
 10
114.6688737883525
 20
107.474047552549
 30
0.0
 10
114.6656596079088
 20
107.474047552549
 30
0.0
 10
114.6530798173789
 20
107.474047552549
 30
0.0
 10
114.7415669428774
 20
107.4740475525491
 30
0.0
 10
114.9278505827993
 20
107.4740475525491
 30
0.0
 10
115.1317155380508
 20
107.4740475525491
 30
0.0
 10
115.2339163487061
 20
107.4740475525491
 30
0.0
  0
LINE
  5
1F3
330
1F
100
AcDbEntity
  8
0
  6
Continuous
 62
     7
370
    25
100
AcDbLine
 10
115.2339163487
 20
123.8982821667
 30
0.0
 11
119.7905406757
 21
123.8982821667
 31
0.0
  0
LINE
  5
1F4
330
1F
100
AcDbEntity
  8
0
  6
Continuous
 62
     7
370
    25
100
AcDbLine
 10
119.7905406757
 20
108.0498129384
 30
0.0
 11
115.2339163487
 21
108.0498129384
 31
0.0
  0
LINE
  5
1F5
330
1F
100
AcDbEntity
  8
0
  6
Continuous
 62
     7
370
    25
100
AcDbLine
 10
115.2339163487
 20
107.4740475525
 30
0.0
 11
119.7905406757
 21
107.4740475525
 31
0.0
  0
LINE
  5
1F6
330
1F
100
AcDbEntity
  8
0
  6
Continuous
 62
     7
370
    25
100
AcDbLine
 10
119.7905406757
 20
124.4740475525
 30
0.0
 11
115.2339163487
 21
124.4740475525
 31
0.0
  0
LINE
  5
1F7
330
1F
100
AcDbEntity
  8
0
  6
Continuous
 62
     7
370
    25
100
AcDbLine
 10
122.630262501
 20
125.9740475525
 30
0.0
 11
122.630262501
 21
121.0650837457
 31
0.0
  0
LINE
  5
1F8
330
1F
100
AcDbEntity
  8
0
  6
Continuous
 62
     7
370
    25
100
AcDbLine
 10
122.630262501
 20
110.8830113593
 30
0.0
 11
122.630262501
 21
105.9740475525
 31
0.0
  0
LINE
  5
1F9
330
1F
100
AcDbEntity
  8
0
  6
Continuous
 62
     7
370
    25
100
AcDbLine
 10
120.7622285122
 20
125.9740475525
 30
0.0
 11
120.7622285122
 21
120.672726886
 31
0.0
  0
LINE
  5
1FA
330
1F
100
AcDbEntity
  8
0
  6
Continuous
 62
     7
370
    25
100
AcDbLine
 10
120.7622285122
 20
111.2753682191
 30
0.0
 11
120.7622285122
 21
105.9740475525
 31
0.0
  0
LINE
  5
1FB
330
1F
100
AcDbEntity
  8
0
  6
Continuous
 62
     7
370
    25
100
AcDbLine
 10
138.3941945235
 20
105.9740475525
 30
0.0
 11
138.3941945235
 21
125.9740475525
 31
0.0
  0
SPLINE
  5
1FC
330
1F
100
AcDbEntity
  8
0
  6
Continuous
 62
     7
370
    25
100
AcDbSpline
210
0.0
220
0.0
230
1.0
 70
     8
 71
     3
 72
    12
 73
     8
 74
     0
 42
0.00000001
 43
0.00000001
 40
0.0
 40
0.0
 40
0.0
 40
0.0
 40
0.25
 40
0.25
 40
0.5
 40
0.5
 40
1.0
 40
1.0
 40
1.0
 40
1.0
 10
138.241314579321
 20
107.2115863727992
 30
0.0
 10
138.1601979772164
 20
107.1770812349392
 30
0.0
 10
138.1131680540481
 20
107.1442361636387
 30
0.0
 10
138.0503044525163
 20
107.085883635392
 30
0.0
 10
138.0348547815991
 20
107.0602292717634
 30
0.0
 10
138.0076711172198
 20
106.9971300190237
 30
0.0
 10
138.012228512219
 20
106.974047552549
 30
0.0
 10
138.012228512219
 20
106.974047552549
 30
0.0
  0
SPLINE
  5
1FD
330
1F
100
AcDbEntity
  8
0
  6
Continuous
 62
     7
370
    25
100
AcDbSpline
210
0.0
220
0.0
230
1.0
 70
     8
 71
     3
 72
    14
 73
    10
 74
     0
 42
0.00000001
 43
0.00000001
 40
0.0
 40
0.0
 40
0.0
 40
0.0
 40
0.25
 40
0.25
 40
0.5
 40
0.5
 40
0.75
 40
0.75
 40
1.0
 40
1.0
 40
1.0
 40
1.0
 10
138.241314579321
 20
107.2115863727992
 30
0.0
 10
138.2688355670661
 20
107.2232931683448
 30
0.0
 10
138.2887554889026
 20
107.2553351214264
 30
0.0
 10
138.3044225307206
 20
107.3546588720914
 30
0.0
 10
138.2999306989083
 20
107.4224823148721
 30
0.0
 10
138.2686743536247
 20
107.5849239322849
 30
0.0
 10
138.2423017702429
 20
107.6793693290207
 30
0.0
 10
138.1794652190986
 20
107.8875984366172
 30
0.0
 10
138.1434256402385
 20
108.0001968295004
 30
0.0
 10
138.109429636873
 20
108.1199532231005
 30
0.0
  0
SPLINE
  5
1FE
330
1F
100
AcDbEntity
  8
0
  6
Continuous
 62
     7
370
    25
100
AcDbSpline
210
0.0
220
0.0
230
1.0
 70
     8
 71
     3
 72
     8
 73
     4
 74
     0
 42
0.00000001
 43
0.00000001
 40
0.0
 40
0.0
 40
0.0
 40
0.0
 40
1.0
 40
1.0
 40
1.0
 40
1.0
 10
138.012228512219
 20
108.8501441281615
 30
0.0
 10
138.012228512219
 20
108.6027146713665
 30
0.0
 10
138.0415932192969
 20
108.3589179224592
 30
0.0
 10
138.109429636873
 20
108.1199532231005
 30
0.0
  0
LINE
  5
1FF
330
1F
100
AcDbEntity
  8
0
  6
Continuous
 62
     7
370
    25
100
AcDbLine
 10
138.0122285122
 20
108.8501441282
 30
0.0
 11
138.0122285122
 21
123.0979509769
 31
0.0
  0
SPLINE
  5
200
330
1F
100
AcDbEntity
  8
0
  6
Continuous
 62
     7
370
    25
100
AcDbSpline
210
0.0
220
0.0
230
1.0
 70
     8
 71
     3
 72
     8
 73
     4
 74
     0
 42
0.00000001
 43
0.00000001
 40
0.0
 40
0.0
 40
0.0
 40
0.0
 40
1.0
 40
1.0
 40
1.0
 40
1.0
 10
138.109429636873
 20
123.8281418819976
 30
0.0
 10
138.0415932192969
 20
123.5891771826389
 30
0.0
 10
138.012228512219
 20
123.3453804337315
 30
0.0
 10
138.012228512219
 20
123.0979509769365
 30
0.0
  0
SPLINE
  5
201
330
1F
100
AcDbEntity
  8
0
  6
Continuous
 62
     7
370
    25
100
AcDbSpline
210
0.0
220
0.0
230
1.0
 70
     8
 71
     3
 72
    12
 73
     8
 74
     0
 42
0.00000001
 43
0.00000001
 40
0.0
 40
0.0
 40
0.0
 40
0.0
 40
0.4999999999999992
 40
0.4999999999999992
 40
0.7499999999999996
 40
0.7499999999999996
 40
1.0
 40
1.0
 40
1.0
 40
1.0
 10
138.109429636873
 20
123.8281418819976
 30
0.0
 10
138.1772993968827
 20
124.0672240354457
 30
0.0
 10
138.2533339481365
 20
124.2829941426225
 30
0.0
 10
138.2999785465135
 20
124.5260887353264
 30
0.0
 10
138.3044175430361
 20
124.5937540108026
 30
0.0
 10
138.2886869292433
 20
124.6929071269592
 30
0.0
 10
138.2688064993009
 20
124.7248143015124
 30
0.0
 10
138.241314579321
 20
124.7365087322988
 30
0.0
  0
SPLINE
  5
202
330
1F
100
AcDbEntity
  8
0
  6
Continuous
 62
     7
370
    25
100
AcDbSpline
210
0.0
220
0.0
230
1.0
 70
     8
 71
     3
 72
    12
 73
     8
 74
     0
 42
0.00000001
 43
0.00000001
 40
0.0
 40
0.0
 40
0.0
 40
0.0
 40
0.5000000000000002
 40
0.5000000000000002
 40
0.7500000000000001
 40
0.7500000000000001
 40
1.0
 40
1.0
 40
1.0
 40
1.0
 10
138.012228512219
 20
124.974047552549
 30
0.0
 10
138.012228512219
 20
124.974047552549
 30
0.0
 10
138.0076711172198
 20
124.9509650860744
 30
0.0
 10
138.0348547815991
 20
124.8878658333347
 30
0.0
 10
138.0503044525163
 20
124.8622114697061
 30
0.0
 10
138.1131680540481
 20
124.8038589414594
 30
0.0
 10
138.1601979772164
 20
124.7710138701589
 30
0.0
 10
138.2413145793211
 20
124.7365087322988
 30
0.0
  0
SPLINE
  5
203
330
1F
100
AcDbEntity
  8
0
  6
Continuous
 62
     7
370
    25
100
AcDbSpline
210
0.0
220
0.0
230
1.0
 70
     8
 71
     3
 72
    12
 73
     8
 74
     0
 42
0.00000001
 43
0.00000001
 40
0.0
 40
0.0
 40
0.0
 40
0.0
 40
0.2500000000000001
 40
0.2500000000000001
 40
0.5000000000000001
 40
0.5000000000000001
 40
1.0
 40
1.0
 40
1.0
 40
1.0
 10
122.783142445117
 20
124.7365087322988
 30
0.0
 10
122.8642590472216
 20
124.7710138701589
 30
0.0
 10
122.9112889703899
 20
124.8038589414594
 30
0.0
 10
122.9741525719218
 20
124.8622114697061
 30
0.0
 10
122.989602242839
 20
124.8878658333347
 30
0.0
 10
123.0167859072182
 20
124.9509650860744
 30
0.0
 10
123.012228512219
 20
124.974047552549
 30
0.0
 10
123.012228512219
 20
124.974047552549
 30
0.0
  0
SPLINE
  5
204
330
1F
100
AcDbEntity
  8
0
  6
Continuous
 62
     7
370
    25
100
AcDbSpline
210
0.0
220
0.0
230
1.0
 70
     8
 71
     3
 72
    14
 73
    10
 74
     0
 42
0.00000001
 43
0.00000001
 40
0.0
 40
0.0
 40
0.0
 40
0.0
 40
0.25
 40
0.25
 40
0.5
 40
0.5
 40
0.75
 40
0.75
 40
1.0
 40
1.0
 40
1.0
 40
1.0
 10
122.783142445117
 20
124.7365087322988
 30
0.0
 10
122.7556214573719
 20
124.7248019367533
 30
0.0
 10
122.7357015355355
 20
124.6927599836717
 30
0.0
 10
122.7200344937174
 20
124.5934362330067
 30
0.0
 10
122.7245263255298
 20
124.525612790226
 30
0.0
 10
122.7557826708133
 20
124.3631711728131
 30
0.0
 10
122.7821552541951
 20
124.2687257760774
 30
0.0
 10
122.8449918053394
 20
124.0604966684809
 30
0.0
 10
122.8810313841995
 20
123.9478982755977
 30
0.0
 10
122.9150273875651
 20
123.8281418819976
 30
0.0
  0
SPLINE
  5
205
330
1F
100
AcDbEntity
  8
0
  6
Continuous
 62
     7
370
    25
100
AcDbSpline
210
0.0
220
0.0
230
1.0
 70
     8
 71
     3
 72
     8
 73
     4
 74
     0
 42
0.00000001
 43
0.00000001
 40
0.0
 40
0.0
 40
0.0
 40
0.0
 40
1.0
 40
1.0
 40
1.0
 40
1.0
 10
123.012228512219
 20
123.0979509769365
 30
0.0
 10
123.012228512219
 20
123.3453804337315
 30
0.0
 10
122.9828638051412
 20
123.5891771826389
 30
0.0
 10
122.9150273875651
 20
123.8281418819976
 30
0.0
  0
LINE
  5
206
330
1F
100
AcDbEntity
  8
0
  6
Continuous
 62
     7
370
    25
100
AcDbLine
 10
123.0122285122
 20
123.0979509769
 30
0.0
 11
123.0122285122
 21
121.1523960191
 31
0.0
  0
LINE
  5
207
330
1F
100
AcDbEntity
  8
0
  6
Continuous
 62
     7
370
    25
100
AcDbLine
 10
123.0122285122
 20
110.795699086
 30
0.0
 11
123.0122285122
 21
108.8501441282
 31
0.0
  0
SPLINE
  5
208
330
1F
100
AcDbEntity
  8
0
  6
Continuous
 62
     7
370
    25
100
AcDbSpline
210
0.0
220
0.0
230
1.0
 70
     8
 71
     3
 72
     8
 73
     4
 74
     0
 42
0.00000001
 43
0.00000001
 40
0.0
 40
0.0
 40
0.0
 40
0.0
 40
1.0
 40
1.0
 40
1.0
 40
1.0
 10
122.9150273875651
 20
108.1199532231005
 30
0.0
 10
122.9828638051412
 20
108.3589179224592
 30
0.0
 10
123.012228512219
 20
108.6027146713665
 30
0.0
 10
123.012228512219
 20
108.8501441281615
 30
0.0
  0
SPLINE
  5
209
330
1F
100
AcDbEntity
  8
0
  6
Continuous
 62
     7
370
    25
100
AcDbSpline
210
0.0
220
0.0
230
1.0
 70
     8
 71
     3
 72
    12
 73
     8
 74
     0
 42
0.00000001
 43
0.00000001
 40
0.0
 40
0.0
 40
0.0
 40
0.0
 40
0.4999999999999992
 40
0.4999999999999992
 40
0.7499999999999996
 40
0.7499999999999996
 40
1.0
 40
1.0
 40
1.0
 40
1.0
 10
122.9150273875651
 20
108.1199532231005
 30
0.0
 10
122.8471576275553
 20
107.8808710696524
 30
0.0
 10
122.7711230763016
 20
107.6651009624755
 30
0.0
 10
122.7244784779246
 20
107.4220063697716
 30
0.0
 10
122.7200394814019
 20
107.3543410942955
 30
0.0
 10
122.7357700951948
 20
107.2551879781389
 30
0.0
 10
122.7556505251371
 20
107.2232808035857
 30
0.0
 10
122.783142445117
 20
107.2115863727992
 30
0.0
  0
SPLINE
  5
20A
330
1F
100
AcDbEntity
  8
0
  6
Continuous
 62
     7
370
    25
100
AcDbSpline
210
0.0
220
0.0
230
1.0
 70
     8
 71
     3
 72
    12
 73
     8
 74
     0
 42
0.00000001
 43
0.00000001
 40
0.0
 40
0.0
 40
0.0
 40
0.0
 40
0.4999999999999998
 40
0.4999999999999998
 40
0.7499999999999999
 40
0.7499999999999999
 40
1.0
 40
1.0
 40
1.0
 40
1.0
 10
123.012228512219
 20
106.974047552549
 30
0.0
 10
123.012228512219
 20
106.974047552549
 30
0.0
 10
123.0167859072182
 20
106.9971300190237
 30
0.0
 10
122.989602242839
 20
107.0602292717634
 30
0.0
 10
122.9741525719218
 20
107.085883635392
 30
0.0
 10
122.9112889703899
 20
107.1442361636387
 30
0.0
 10
122.8642590472216
 20
107.1770812349392
 30
0.0
 10
122.783142445117
 20
107.2115863727992
 30
0.0
  0
LINE
  5
20B
330
1F
100
AcDbEntity
  8
0
  6
Continuous
 62
     7
370
    25
100
AcDbLine
 10
140.0122285122
 20
105.9740475525
 30
0.0
 11
140.0122285122
 21
125.9740475525
 31
0.0
  0
LINE
  5
20C
330
1F
100
AcDbEntity
  8
0
  6
Continuous
 62
     7
370
    25
100
AcDbLine
 10
140.5122285122
 20
125.4740475525
 30
0.0
 11
140.5122285122
 21
106.4740475525
 31
0.0
  0
LINE
  5
20D
330
1F
100
AcDbEntity
  8
0
  6
Continuous
 62
     7
370
    25
100
AcDbLine
 10
120.5122285122
 20
106.2240475525
 30
0.0
 11
120.5122285122
 21
111.3235482337
 31
0.0
  0
LINE
  5
20E
330
1F
100
AcDbEntity
  8
0
  6
Continuous
 62
     7
370
    25
100
AcDbLine
 10
120.5122285122
 20
120.6245468714
 30
0.0
 11
120.5122285122
 21
125.7240475525
 31
0.0
  0
ARC
  5
20F
330
1F
100
AcDbEntity
  8
0
  6
Continuous
 62
     7
370
    25
100
AcDbCircle
 10
137.558910611
 20
123.1569269152
 30
0.0
 40
0.4571381420088873
100
AcDbArc
 50
264.138844256
 51
352.5875431534
  0
ARC
  5
210
330
1F
100
AcDbEntity
  8
0
  6
Continuous
 62
     7
370
    25
100
AcDbCircle
 10
137.558910611
 20
108.7911681899
 30
0.0
 40
0.4571381420088643
100
AcDbArc
 50
7.4124568466
 51
95.861155744
  0
ARC
  5
211
330
1F
100
AcDbEntity
  8
0
  6
Continuous
 62
     7
370
    25
100
AcDbCircle
 10
123.4655464135
 20
123.1569269152
 30
0.0
 40
0.4571381420089263
100
AcDbArc
 50
187.4124568466
 51
275.861155744
  0
ARC
  5
212
330
1F
100
AcDbEntity
  8
0
  6
Continuous
 62
     7
370
    25
100
AcDbCircle
 10
123.4655464135
 20
108.7911681899
 30
0.0
 40
0.4571381420089165
100
AcDbArc
 50
84.138844256
 51
172.5875431534
  0
LINE
  5
213
330
1F
100
AcDbEntity
  8
0
  6
Continuous
 62
     7
370
    25
100
AcDbLine
 10
148.4383190786
 20
124.1714197224
 30
0.0
 11
148.4383190786
 21
107.7766753827
 31
0.0
  0
LINE
  5
214
330
1F
100
AcDbEntity
  8
0
  6
Continuous
 62
     7
370
    25
100
AcDbLine
 10
150.5122285122
 20
122.9740475525
 30
0.0
 11
150.5122285122
 21
108.9740475525
 31
0.0
  0
LINE
  5
215
330
1F
100
AcDbEntity
  8
0
  6
Continuous
 62
     7
370
    25
100
AcDbLine
 10
122.9150273876
 20
123.828141882
 30
0.0
 11
123.3826270127
 21
123.9740475525
 31
0.0
  0
SPLINE
  5
216
330
1F
100
AcDbEntity
  8
0
  6
Continuous
 62
     7
370
    25
100
AcDbSpline
210
0.0
220
0.0
230
1.0
 70
     8
 71
     3
 72
     8
 73
     4
 74
     0
 42
0.00000001
 43
0.00000001
 40
0.0
 40
0.0
 40
0.0
 40
0.0
 40
1.0
 40
1.0
 40
1.0
 40
1.0
 10
123.3826270126804
 20
123.974047552549
 30
0.0
 10
123.4716357080689
 20
123.6887917949192
 30
0.0
 10
123.512228512219
 20
123.3963738450373
 30
0.0
 10
123.512228512219
 20
123.0979509769365
 30
0.0
  0
LINE
  5
217
330
1F
100
AcDbEntity
  8
0
  6
Continuous
 62
     7
370
    25
100
AcDbLine
 10
123.0122285122
 20
123.0979509769
 30
0.0
 11
123.5122285122
 21
123.0979509769
 31
0.0
  0
SPLINE
  5
218
330
1F
100
AcDbEntity
  8
0
  6
Continuous
 62
     7
370
    25
100
AcDbSpline
210
0.0
220
0.0
230
1.0
 70
     8
 71
     3
 72
     8
 73
     4
 74
     0
 42
0.00000001
 43
0.00000001
 40
0.0
 40
0.0
 40
0.0
 40
0.0
 40
1.0
 40
1.0
 40
1.0
 40
1.0
 10
137.512228512219
 20
123.0979509769365
 30
0.0
 10
137.512228512219
 20
123.3963738450373
 30
0.0
 10
137.5528213163692
 20
123.6887917949192
 30
0.0
 10
137.6418300117576
 20
123.974047552549
 30
0.0
  0
LINE
  5
219
330
1F
100
AcDbEntity
  8
0
  6
Continuous
 62
     7
370
    25
100
AcDbLine
 10
137.6418300118
 20
123.9740475525
 30
0.0
 11
138.1094296369
 21
123.828141882
 31
0.0
  0
LINE
  5
21A
330
1F
100
AcDbEntity
  8
0
  6
Continuous
 62
     7
370
    25
100
AcDbLine
 10
137.5122285122
 20
123.0979509769
 30
0.0
 11
138.0122285122
 21
123.0979509769
 31
0.0
  0
SPLINE
  5
21B
330
1F
100
AcDbEntity
  8
0
  6
Continuous
 62
     7
370
    25
100
AcDbSpline
210
0.0
220
0.0
230
1.0
 70
     8
 71
     3
 72
     8
 73
     4
 74
     0
 42
0.00000001
 43
0.00000001
 40
0.0
 40
0.0
 40
0.0
 40
0.0
 40
1.0
 40
1.0
 40
1.0
 40
1.0
 10
123.512228512219
 20
108.8501441281615
 30
0.0
 10
123.512228512219
 20
108.5517212600608
 30
0.0
 10
123.4716357080689
 20
108.2593033101788
 30
0.0
 10
123.3826270126805
 20
107.974047552549
 30
0.0
  0
LINE
  5
21C
330
1F
100
AcDbEntity
  8
0
  6
Continuous
 62
     7
370
    25
100
AcDbLine
 10
123.3826270127
 20
107.9740475525
 30
0.0
 11
122.9150273876
 21
108.1199532231
 31
0.0
  0
LINE
  5
21D
330
1F
100
AcDbEntity
  8
0
  6
Continuous
 62
     7
370
    25
100
AcDbLine
 10
123.0122285122
 20
108.8501441282
 30
0.0
 11
123.5122285122
 21
108.8501441282
 31
0.0
  0
LINE
  5
21E
330
1F
100
AcDbEntity
  8
0
  6
Continuous
 62
     7
370
    25
100
AcDbLine
 10
138.1094296369
 20
108.1199532231
 30
0.0
 11
137.6418300118
 21
107.9740475525
 31
0.0
  0
SPLINE
  5
21F
330
1F
100
AcDbEntity
  8
0
  6
Continuous
 62
     7
370
    25
100
AcDbSpline
210
0.0
220
0.0
230
1.0
 70
     8
 71
     3
 72
     8
 73
     4
 74
     0
 42
0.00000001
 43
0.00000001
 40
0.0
 40
0.0
 40
0.0
 40
0.0
 40
1.0
 40
1.0
 40
1.0
 40
1.0
 10
137.6418300117576
 20
107.974047552549
 30
0.0
 10
137.5528213163692
 20
108.2593033101788
 30
0.0
 10
137.512228512219
 20
108.5517212600608
 30
0.0
 10
137.512228512219
 20
108.8501441281615
 30
0.0
  0
LINE
  5
220
330
1F
100
AcDbEntity
  8
0
  6
Continuous
 62
     7
370
    25
100
AcDbLine
 10
138.0122285122
 20
108.8501441282
 30
0.0
 11
137.5122285122
 21
108.8501441282
 31
0.0
  0
LINE
  5
221
330
1F
100
AcDbEntity
  8
0
  6
Continuous
 62
     7
370
    25
100
AcDbLine
 10
137.5122285122
 20
122.7021785645
 30
0.0
 11
137.5122285122
 21
123.0979509769
 31
0.0
  0
LINE
  5
222
330
1F
100
AcDbEntity
  8
0
  6
Continuous
 62
     7
370
    25
100
AcDbLine
 10
123.5122285122
 20
122.7021785645
 30
0.0
 11
123.5122285122
 21
123.0979509769
 31
0.0
  0
LINE
  5
223
330
1F
100
AcDbEntity
  8
0
  6
Continuous
 62
     7
370
    25
100
AcDbLine
 10
123.5122285122
 20
108.8501441282
 30
0.0
 11
123.5122285122
 21
109.2459165406
 31
0.0
  0
LINE
  5
224
330
1F
100
AcDbEntity
  8
0
  6
Continuous
 62
     7
370
    25
100
AcDbLine
 10
137.5122285122
 20
108.8501441282
 30
0.0
 11
137.5122285122
 21
109.2459165406
 31
0.0
  0
ARC
  5
225
330
1F
100
AcDbEntity
  8
0
  6
Continuous
 62
     7
370
    25
100
AcDbCircle
 10
123.2106102357
 20
124.9533563701
 30
0.0
 40
0.479324117919499
100
AcDbArc
 50
206.8979585986
 51
269.5422002632
  0
SPLINE
  5
226
330
1F
100
AcDbEntity
  8
0
  6
Continuous
 62
     7
370
    25
100
AcDbSpline
210
0.0
220
0.0
230
1.0
 70
     8
 71
     3
 72
    14
 73
    10
 74
     0
 42
0.00000001
 43
0.00000001
 40
0.0
 40
0.0
 40
0.0
 40
0.0
 40
0.25
 40
0.25
 40
0.5
 40
0.5
 40
0.75
 40
0.75
 40
1.0
 40
1.0
 40
1.0
 40
1.0
 10
123.3826270126804
 20
123.974047552549
 30
0.0
 10
123.3441515290589
 20
124.0357008167765
 30
0.0
 10
123.3030626075888
 20
124.0938847620494
 30
0.0
 10
123.2237797601483
 20
124.2075500835164
 30
0.0
 10
123.1864968590378
 20
124.2612266822161
 30
0.0
 10
123.1336910997261
 20
124.3612167146628
 30
0.0
 10
123.1217218396324
 20
124.4056212148857
 30
0.0
 10
123.1417236280046
 20
124.4616810703795
 30
0.0
 10
123.1711800835569
 20
124.474047552549
 30
0.0
 10
123.2067804227496
 20
124.474047552549
 30
0.0
  0
ARC
  5
227
330
1F
100
AcDbEntity
  8
0
  6
Continuous
 62
     7
370
    25
100
AcDbCircle
 10
137.8138467887
 20
106.994738735
 30
0.0
 40
0.4793241179193456
100
AcDbArc
 50
26.8979585986
 51
89.5422002632
  0
SPLINE
  5
228
330
1F
100
AcDbEntity
  8
0
  6
Continuous
 62
     7
370
    25
100
AcDbSpline
210
0.0
220
0.0
230
1.0
 70
     8
 71
     3
 72
    14
 73
    10
 74
     0
 42
0.00000001
 43
0.00000001
 40
0.0
 40
0.0
 40
0.0
 40
0.0
 40
0.25
 40
0.25
 40
0.5
 40
0.5
 40
0.75
 40
0.75
 40
1.0
 40
1.0
 40
1.0
 40
1.0
 10
137.6418300117576
 20
107.974047552549
 30
0.0
 10
137.6803054953792
 20
107.9123942883216
 30
0.0
 10
137.7213944168492
 20
107.8542103430486
 30
0.0
 10
137.8006772642898
 20
107.7405450215817
 30
0.0
 10
137.8379601654002
 20
107.6868684228819
 30
0.0
 10
137.890765924712
 20
107.5868783904353
 30
0.0
 10
137.9027351848056
 20
107.5424738902123
 30
0.0
 10
137.8827333964335
 20
107.4864140347185
 30
0.0
 10
137.8532769408812
 20
107.474047552549
 30
0.0
 10
137.8176766016884
 20
107.474047552549
 30
0.0
  0
SPLINE
  5
229
330
1F
100
AcDbEntity
  8
0
  6
Continuous
 62
     7
370
    25
100
AcDbSpline
210
0.0
220
0.0
230
1.0
 70
     8
 71
     3
 72
    16
 73
    12
 74
     0
 42
0.00000001
 43
0.00000001
 40
0.0
 40
0.0
 40
0.0
 40
0.0
 40
0.2500000000000011
 40
0.2500000000000011
 40
0.3749999999999992
 40
0.3749999999999992
 40
0.4999999999999974
 40
0.4999999999999974
 40
0.7499999999999987
 40
0.7499999999999987
 40
1.0
 40
1.0
 40
1.0
 40
1.0
 10
137.8176766016884
 20
124.474047552549
 30
0.0
 10
137.8532305311371
 20
124.474047552549
 30
0.0
 10
137.8825026723658
 20
124.4619158021332
 30
0.0
 10
137.8977152225866
 20
124.4198940958538
 30
0.0
 10
137.8977758907602
 20
124.4016797263473
 30
0.0
 10
137.8875653062829
 20
124.3597427138207
 30
0.0
 10
137.8777819767576
 20
124.3367151503264
 30
0.0
 10
137.8386174282257
 20
124.2623064715544
 30
0.0
 10
137.8007443549524
 20
124.2076485953719
 30
0.0
 10
137.7216713819608
 20
124.0942795221932
 30
0.0
 10
137.68028424937
 20
124.035666772089
 30
0.0
 10
137.6418300117576
 20
123.974047552549
 30
0.0
  0
ARC
  5
22A
330
1F
100
AcDbEntity
  8
0
  6
Continuous
 62
     7
370
    25
100
AcDbCircle
 10
137.8138467887
 20
124.9533563701
 30
0.0
 40
0.4793241179194224
100
AcDbArc
 50
270.4577997368
 51
333.1020414014
  0
SPLINE
  5
22B
330
1F
100
AcDbEntity
  8
0
  6
Continuous
 62
     7
370
    25
100
AcDbSpline
210
0.0
220
0.0
230
1.0
 70
     8
 71
     3
 72
    16
 73
    12
 74
     0
 42
0.00000001
 43
0.00000001
 40
0.0
 40
0.0
 40
0.0
 40
0.0
 40
0.2500000000000049
 40
0.2500000000000049
 40
0.3750000000000051
 40
0.3750000000000051
 40
0.5000000000000052
 40
0.5000000000000052
 40
0.7500000000000026
 40
0.7500000000000026
 40
1.0
 40
1.0
 40
1.0
 40
1.0
 10
123.2067804227496
 20
107.474047552549
 30
0.0
 10
123.171226493301
 20
107.474047552549
 30
0.0
 10
123.1419543520723
 20
107.4861793029648
 30
0.0
 10
123.1267418018514
 20
107.5282010092443
 30
0.0
 10
123.1266811336779
 20
107.5464153787508
 30
0.0
 10
123.1368917181552
 20
107.5883523912774
 30
0.0
 10
123.1466750476804
 20
107.6113799547716
 30
0.0
 10
123.1858395962124
 20
107.6857886335437
 30
0.0
 10
123.2237126694856
 20
107.7404465097262
 30
0.0
 10
123.3027856424772
 20
107.8538155829049
 30
0.0
 10
123.344172775068
 20
107.9124283330091
 30
0.0
 10
123.3826270126804
 20
107.974047552549
 30
0.0
  0
ARC
  5
22C
330
1F
100
AcDbEntity
  8
0
  6
Continuous
 62
     7
370
    25
100
AcDbCircle
 10
123.2106102357
 20
106.994738735
 30
0.0
 40
0.4793241179194989
100
AcDbArc
 50
90.4577997368
 51
153.1020414014
  0
LINE
  5
22D
330
1F
100
AcDbEntity
  8
0
  6
Continuous
 62
     7
370
    25
100
AcDbLine
 10
137.6418300118
 20
123.9740475525
 30
0.0
 11
123.3826270127
 21
123.9740475525
 31
0.0
  0
LINE
  5
22E
330
1F
100
AcDbEntity
  8
0
  6
Continuous
 62
     7
370
    25
100
AcDbLine
 10
123.2067804227
 20
124.4740475525
 30
0.0
 11
137.8176766017
 21
124.4740475525
 31
0.0
  0
LINE
  5
22F
330
1F
100
AcDbEntity
  8
0
  6
Continuous
 62
     7
370
    25
100
AcDbLine
 10
123.3826270127
 20
107.9740475525
 30
0.0
 11
137.6418300118
 21
107.9740475525
 31
0.0
  0
LINE
  5
230
330
1F
100
AcDbEntity
  8
0
  6
Continuous
 62
     7
370
    25
100
AcDbLine
 10
137.8176766017
 20
107.4740475525
 30
0.0
 11
123.2067804227
 21
107.4740475525
 31
0.0
  0
ARC
  5
231
330
1F
100
AcDbEntity
  8
0
  6
Continuous
 62
     7
370
    25
100
AcDbCircle
 10
137.5122285122
 20
124.9740475525
 30
0.0
 40
0.5
100
AcDbArc
 50
270.0
 51
0.0
  0
ARC
  5
232
330
1F
100
AcDbEntity
  8
0
  6
Continuous
 62
     7
370
    25
100
AcDbCircle
 10
123.5122285122
 20
124.9740475525
 30
0.0
 40
0.5
100
AcDbArc
 50
180.0
 51
270.0
  0
ARC
  5
233
330
1F
100
AcDbEntity
  8
0
  6
Continuous
 62
     7
370
    25
100
AcDbCircle
 10
137.5122285122
 20
106.9740475525
 30
0.0
 40
0.5
100
AcDbArc
 50
0.0
 51
90.0
  0
ARC
  5
234
330
1F
100
AcDbEntity
  8
0
  6
Continuous
 62
     7
370
    25
100
AcDbCircle
 10
123.5122285122
 20
106.9740475525
 30
0.0
 40
0.5
100
AcDbArc
 50
90.0
 51
180.0
  0
SPLINE
  5
235
330
1F
100
AcDbEntity
  8
0
  6
Continuous
 62
     7
370
    25
100
AcDbSpline
210
0.0
220
0.0
230
1.0
 70
     8
 71
     3
 72
    15
 73
    11
 74
     0
 42
0.00000001
 43
0.00000001
 40
0.0
 40
0.0
 40
0.0
 40
0.0
 40
0.0081667445812695
 40
0.3321939991490083
 40
0.4756279600585602
 40
0.6866830973284899
 40
0.8457435502264811
 40
0.8967566214763185
 40
0.9909540928118029
 40
1.0
 40
1.0
 40
1.0
 40
1.0
 10
135.6112480258118
 20
117.224047552549
 30
0.0
 10
135.6117355599547
 20
117.225485015488
 30
0.0
 10
135.6315667074868
 20
117.2839558734398
 30
0.0
 10
135.6598474874961
 20
117.3683810511592
 30
0.0
 10
135.6976767859848
 20
117.4829601231817
 30
0.0
 10
135.7242606825524
 20
117.5643310103783
 30
0.0
 10
135.7414305063073
 20
117.6173500023799
 30
0.0
 10
135.7492475025238
 20
117.6415519342241
 30
0.0
 10
135.7512431889597
 20
117.6477415548903
 30
0.0
 10
135.7513081529104
 20
117.6479429503028
 30
0.0
 10
135.7513138448771
 20
117.6479605960273
 30
0.0
  0
ARC
  5
236
330
1F
100
AcDbEntity
  8
0
  6
Continuous
 62
     7
370
    25
100
AcDbCircle
 10
130.5122285122
 20
115.9740475525
 30
0.0
 40
5.250000000000012
100
AcDbArc
 50
13.774146998
 51
166.225853002
  0
SPLINE
  5
237
330
1F
100
AcDbEntity
  8
0
  6
Continuous
 62
     7
370
    25
100
AcDbSpline
210
0.0
220
0.0
230
1.0
 70
     8
 71
     3
 72
    15
 73
    11
 74
     0
 42
0.00000001
 43
0.00000001
 40
0.0
 40
0.0
 40
0.0
 40
0.0
 40
0.0090459071881971
 40
0.1032433785236875
 40
0.1542564497735192
 40
0.3133169026715104
 40
0.5243720399414421
 40
0.66780600085099
 40
0.9918332554187291
 40
1.0
 40
1.0
 40
1.0
 40
1.0
 10
125.2731431795609
 20
117.6479605960273
 30
0.0
 10
125.2731488715276
 20
117.6479429503028
 30
0.0
 10
125.2732138354784
 20
117.6477415548903
 30
0.0
 10
125.2752095219143
 20
117.6415519342241
 30
0.0
 10
125.2830265181307
 20
117.6173500023799
 30
0.0
 10
125.3001963418857
 20
117.5643310103783
 30
0.0
 10
125.3267802384532
 20
117.4829601231817
 30
0.0
 10
125.364609536942
 20
117.3683810511592
 30
0.0
 10
125.3928903169513
 20
117.2839558734398
 30
0.0
 10
125.4127214644833
 20
117.225485015488
 30
0.0
 10
125.4132089986262
 20
117.224047552549
 30
0.0
  0
ARC
  5
238
330
1F
100
AcDbEntity
  8
0
  6
Continuous
 62
     7
370
    25
100
AcDbCircle
 10
130.5122285122
 20
115.9740475525
 30
0.0
 40
5.500000000000011
100
AcDbArc
 50
17.7189318734
 51
162.2810681266
  0
SPLINE
  5
239
330
1F
100
AcDbEntity
  8
0
  6
Continuous
 62
     7
370
    25
100
AcDbSpline
210
0.0
220
0.0
230
1.0
 70
     8
 71
     3
 72
    15
 73
    11
 74
     0
 42
0.00000001
 43
0.00000001
 40
0.0
 40
0.0
 40
0.0
 40
0.0
 40
0.0089557228015919
 40
0.099900335960821
 40
0.1531632460581752
 40
0.3125636920784863
 40
0.5249666935695052
 40
0.6689893599351772
 40
0.991915253381045
 40
1.0
 40
1.0
 40
1.0
 40
1.0
 10
125.0350029371673
 20
114.474047552549
 30
0.0
 10
125.035018692746
 20
114.4740583369122
 30
0.0
 10
125.0351944449025
 20
114.4741786355777
 30
0.0
 10
125.040623460922
 20
114.4778970864958
 30
0.0
 10
125.0621589446294
 20
114.4926081275621
 30
0.0
 10
125.1098643728942
 20
114.5250569890206
 30
0.0
 10
125.1822553178861
 20
114.5736410293641
 30
0.0
 10
125.2841744299038
 20
114.6410115016324
 30
0.0
 10
125.3595295213588
 20
114.6898250663663
 30
0.0
 10
125.4119291670821
 20
114.7232316165607
 30
0.0
 10
125.4132089986262
 20
114.724047552549
 30
0.0
  0
SPLINE
  5
23A
330
1F
100
AcDbEntity
  8
0
  6
Continuous
 62
     7
370
    25
100
AcDbSpline
210
0.0
220
0.0
230
1.0
 70
     8
 71
     3
 72
    15
 73
    11
 74
     0
 42
0.00000001
 43
0.00000001
 40
0.0
 40
0.0
 40
0.0
 40
0.0
 40
0.0081667445812973
 40
0.3321939991490806
 40
0.4756279600585563
 40
0.6866830973284899
 40
0.8457435502264806
 40
0.8967566214763123
 40
0.9909540928118028
 40
1.0
 40
1.0
 40
1.0
 40
1.0
 10
125.4132089986262
 20
114.724047552549
 30
0.0
 10
125.4127214644834
 20
114.72261008961
 30
0.0
 10
125.3928903169521
 20
114.664139231658
 30
0.0
 10
125.3646095369418
 20
114.5797140539389
 30
0.0
 10
125.3267802384532
 20
114.4651349819163
 30
0.0
 10
125.3001963418857
 20
114.3837640947198
 30
0.0
 10
125.2830265181307
 20
114.3307451027181
 30
0.0
 10
125.2752095219143
 20
114.306543170874
 30
0.0
 10
125.2732138354784
 20
114.3003535502078
 30
0.0
 10
125.2731488715276
 20
114.3001521547952
 30
0.0
 10
125.2731431795609
 20
114.3001345090708
 30
0.0
  0
ARC
  5
23B
330
1F
100
AcDbEntity
  8
0
  6
Continuous
 62
     7
370
    25
100
AcDbCircle
 10
125.0350029372
 20
114.2240475525
 30
0.0
 40
0.2500000000000077
100
AcDbArc
 50
17.7189318734
 51
90.0
  0
ARC
  5
23C
330
1F
100
AcDbEntity
  8
0
  6
Continuous
 62
     7
370
    25
100
AcDbCircle
 10
135.9894540873
 20
117.7240475525
 30
0.0
 40
0.25
100
AcDbArc
 50
197.7189318734
 51
270.0
  0
SPLINE
  5
23D
330
1F
100
AcDbEntity
  8
0
  6
Continuous
 62
     7
370
    25
100
AcDbSpline
210
0.0
220
0.0
230
1.0
 70
     8
 71
     3
 72
    15
 73
    11
 74
     0
 42
0.00000001
 43
0.00000001
 40
0.0
 40
0.0
 40
0.0
 40
0.0
 40
0.0089557228015919
 40
0.0999003359608148
 40
0.153163246058169
 40
0.3125636920784848
 40
0.5249666935694999
 40
0.6689893599352451
 40
0.9919152533810159
 40
1.0
 40
1.0
 40
1.0
 40
1.0
 10
135.9894540872707
 20
117.474047552549
 30
0.0
 10
135.9894383316921
 20
117.4740367681859
 30
0.0
 10
135.9892625795355
 20
117.4739164695204
 30
0.0
 10
135.983833563516
 20
117.4701980186023
 30
0.0
 10
135.9622980798087
 20
117.455486977536
 30
0.0
 10
135.9145926515438
 20
117.4230381160774
 30
0.0
 10
135.8422017065519
 20
117.374454075734
 30
0.0
 10
135.7402825945342
 20
117.3070836034658
 30
0.0
 10
135.6649275030797
 20
117.258270038731
 30
0.0
 10
135.612527857356
 20
117.2248634885373
 30
0.0
 10
135.6112480258118
 20
117.224047552549
 30
0.0
  0
ARC
  5
23E
330
1F
100
AcDbEntity
  8
0
  6
Continuous
 62
     7
370
    25
100
AcDbCircle
 10
125.0350029372
 20
117.7240475525
 30
0.0
 40
0.2500000000000077
100
AcDbArc
 50
270.0
 51
342.2810681266
  0
SPLINE
  5
23F
330
1F
100
AcDbEntity
  8
0
  6
Continuous
 62
     7
370
    25
100
AcDbSpline
210
0.0
220
0.0
230
1.0
 70
     8
 71
     3
 72
    15
 73
    11
 74
     0
 42
0.00000001
 43
0.00000001
 40
0.0
 40
0.0
 40
0.0
 40
0.0
 40
0.0080847466189818
 40
0.3310106400647572
 40
0.4750333064304998
 40
0.6874363079215141
 40
0.8468367539418309
 40
0.9000996640391852
 40
0.991044277198408
 40
1.0
 40
1.0
 40
1.0
 40
1.0
 10
125.4132089986262
 20
117.224047552549
 30
0.0
 10
125.4119291670821
 20
117.2248634885373
 30
0.0
 10
125.3595295213583
 20
117.2582700387309
 30
0.0
 10
125.2841744299039
 20
117.3070836034658
 30
0.0
 10
125.1822553178861
 20
117.374454075734
 30
0.0
 10
125.1098643728942
 20
117.4230381160774
 30
0.0
 10
125.0621589446294
 20
117.455486977536
 30
0.0
 10
125.040623460922
 20
117.4701980186023
 30
0.0
 10
125.0351944449025
 20
117.4739164695204
 30
0.0
 10
125.035018692746
 20
117.4740367681859
 30
0.0
 10
125.0350029371673
 20
117.474047552549
 30
0.0
  0
SPLINE
  5
240
330
1F
100
AcDbEntity
  8
0
  6
Continuous
 62
     7
370
    25
100
AcDbSpline
210
0.0
220
0.0
230
1.0
 70
     8
 71
     3
 72
    15
 73
    11
 74
     0
 42
0.00000001
 43
0.00000001
 40
0.0
 40
0.0
 40
0.0
 40
0.0
 40
0.0090459071881971
 40
0.1032433785236876
 40
0.1542564497735193
 40
0.3133169026715103
 40
0.524372039941443
 40
0.6678060008509185
 40
0.9918332554187027
 40
0.9999999999999999
 40
0.9999999999999999
 40
0.9999999999999999
 40
0.9999999999999999
 10
135.7513138448771
 20
114.3001345090708
 30
0.0
 10
135.7513081529104
 20
114.3001521547952
 30
0.0
 10
135.7512431889597
 20
114.3003535502078
 30
0.0
 10
135.7492475025238
 20
114.306543170874
 30
0.0
 10
135.7414305063073
 20
114.3307451027181
 30
0.0
 10
135.7242606825524
 20
114.3837640947198
 30
0.0
 10
135.6976767859848
 20
114.4651349819163
 30
0.0
 10
135.6598474874962
 20
114.5797140539389
 30
0.0
 10
135.6315667074859
 20
114.664139231658
 30
0.0
 10
135.6117355599547
 20
114.72261008961
 30
0.0
 10
135.6112480258118
 20
114.724047552549
 30
0.0
  0
ARC
  5
241
330
1F
100
AcDbEntity
  8
0
  6
Continuous
 62
     7
370
    25
100
AcDbCircle
 10
130.5122285122
 20
115.9740475525
 30
0.0
 40
5.500000000000007
100
AcDbArc
 50
197.7189318734
 51
342.2810681266
  0
ARC
  5
242
330
1F
100
AcDbEntity
  8
0
  6
Continuous
 62
     7
370
    25
100
AcDbCircle
 10
130.5122285122
 20
115.9740475525
 30
0.0
 40
5.250000000000009
100
AcDbArc
 50
193.774146998
 51
346.225853002
  0
SPLINE
  5
243
330
1F
100
AcDbEntity
  8
0
  6
Continuous
 62
     7
370
    25
100
AcDbSpline
210
0.0
220
0.0
230
1.0
 70
     8
 71
     3
 72
    15
 73
    11
 74
     0
 42
0.00000001
 43
0.00000001
 40
0.0
 40
0.0
 40
0.0
 40
0.0
 40
0.0080847466189581
 40
0.3310106400648243
 40
0.4750333064304945
 40
0.6874363079215134
 40
0.8468367539418247
 40
0.9000996640391788
 40
0.991044277198408
 40
1.0
 40
1.0
 40
1.0
 40
1.0
 10
135.6112480258118
 20
114.724047552549
 30
0.0
 10
135.6125278573559
 20
114.7232316165607
 30
0.0
 10
135.6649275030791
 20
114.6898250663662
 30
0.0
 10
135.7402825945343
 20
114.6410115016324
 30
0.0
 10
135.8422017065519
 20
114.5736410293641
 30
0.0
 10
135.9145926515438
 20
114.5250569890206
 30
0.0
 10
135.9622980798087
 20
114.4926081275621
 30
0.0
 10
135.983833563516
 20
114.4778970864958
 30
0.0
 10
135.9892625795355
 20
114.4741786355777
 30
0.0
 10
135.9894383316921
 20
114.4740583369122
 30
0.0
 10
135.9894540872707
 20
114.474047552549
 30
0.0
  0
ARC
  5
244
330
1F
100
AcDbEntity
  8
0
  6
Continuous
 62
     7
370
    25
100
AcDbCircle
 10
135.9894540873
 20
114.2240475525
 30
0.0
 40
0.25
100
AcDbArc
 50
90.0
 51
162.2810681266
  0
LINE
  5
245
330
1F
100
AcDbEntity
  8
0
  6
Continuous
 62
     7
370
    25
100
AcDbLine
 10
125.5122285122
 20
115.3740475525
 30
0.0
 11
135.5122285122
 21
115.3740475525
 31
0.0
  0
LINE
  5
246
330
1F
100
AcDbEntity
  8
0
  6
Continuous
 62
     7
370
    25
100
AcDbLine
 10
135.5122285122
 20
115.3740475525
 30
0.0
 11
135.5122285122
 21
116.5740475525
 31
0.0
  0
LINE
  5
247
330
1F
100
AcDbEntity
  8
0
  6
Continuous
 62
     7
370
    25
100
AcDbLine
 10
125.5122285122
 20
116.5740475525
 30
0.0
 11
125.5122285122
 21
115.3740475525
 31
0.0
  0
LINE
  5
248
330
1F
100
AcDbEntity
  8
0
  6
Continuous
 62
     7
370
    25
100
AcDbLine
 10
135.5122285122
 20
116.5740475525
 30
0.0
 11
125.5122285122
 21
116.5740475525
 31
0.0
  0
LINE
  5
249
330
1F
100
AcDbEntity
  8
0
  6
Continuous
 62
     7
370
    25
100
AcDbLine
 10
136.2622285122
 20
117.2240475525
 30
0.0
 11
135.6112480258
 21
117.2240475525
 31
0.0
  0
LINE
  5
24A
330
1F
100
AcDbEntity
  8
0
  6
Continuous
 62
     7
370
    25
100
AcDbLine
 10
136.2622285122
 20
114.7240475525
 30
0.0
 11
136.2622285122
 21
117.2240475525
 31
0.0
  0
LINE
  5
24B
330
1F
100
AcDbEntity
  8
0
  6
Continuous
 62
     7
370
    25
100
AcDbLine
 10
135.6112480258
 20
114.7240475525
 30
0.0
 11
136.2622285122
 21
114.7240475525
 31
0.0
  0
LINE
  5
24C
330
1F
100
AcDbEntity
  8
0
  6
Continuous
 62
     7
370
    25
100
AcDbLine
 10
124.7622285122
 20
114.7240475525
 30
0.0
 11
125.4132089986
 21
114.7240475525
 31
0.0
  0
LINE
  5
24D
330
1F
100
AcDbEntity
  8
0
  6
Continuous
 62
     7
370
    25
100
AcDbLine
 10
124.7622285122
 20
117.2240475525
 30
0.0
 11
124.7622285122
 21
114.7240475525
 31
0.0
  0
LINE
  5
24E
330
1F
100
AcDbEntity
  8
0
  6
Continuous
 62
     7
370
    25
100
AcDbLine
 10
125.4132089986
 20
117.2240475525
 30
0.0
 11
124.7622285122
 21
117.2240475525
 31
0.0
  0
LINE
  5
24F
330
1F
100
AcDbEntity
  8
0
  6
Continuous
 62
     7
370
    25
100
AcDbLine
 10
136.2622285122
 20
117.2240475525
 30
0.0
 11
136.2622285122
 21
117.4740475525
 31
0.0
  0
LINE
  5
250
330
1F
100
AcDbEntity
  8
0
  6
Continuous
 62
     7
370
    25
100
AcDbLine
 10
135.9894540873
 20
117.4740475525
 30
0.0
 11
136.2622285122
 21
117.4740475525
 31
0.0
  0
ARC
  5
251
330
1F
100
AcDbEntity
  8
0
  6
Continuous
 62
     7
370
    25
100
AcDbCircle
 10
136.2622285122
 20
117.2240475525
 30
0.0
 40
0.25
100
AcDbArc
 50
0.0
 51
90.0
  0
LINE
  5
252
330
1F
100
AcDbEntity
  8
0
  6
Continuous
 62
     7
370
    25
100
AcDbLine
 10
136.5122285122
 20
117.2240475525
 30
0.0
 11
136.2622285122
 21
117.2240475525
 31
0.0
  0
LINE
  5
253
330
1F
100
AcDbEntity
  8
0
  6
Continuous
 62
     7
370
    25
100
AcDbLine
 10
124.7622285122
 20
117.4740475525
 30
0.0
 11
124.7622285122
 21
117.2240475525
 31
0.0
  0
LINE
  5
254
330
1F
100
AcDbEntity
  8
0
  6
Continuous
 62
     7
370
    25
100
AcDbLine
 10
124.7622285122
 20
117.4740475525
 30
0.0
 11
125.0350029372
 21
117.4740475525
 31
0.0
  0
LINE
  5
255
330
1F
100
AcDbEntity
  8
0
  6
Continuous
 62
     7
370
    25
100
AcDbLine
 10
124.7622285122
 20
117.2240475525
 30
0.0
 11
124.5122285122
 21
117.2240475525
 31
0.0
  0
ARC
  5
256
330
1F
100
AcDbEntity
  8
0
  6
Continuous
 62
     7
370
    25
100
AcDbCircle
 10
124.7622285122
 20
117.2240475525
 30
0.0
 40
0.25
100
AcDbArc
 50
90.0
 51
180.0
  0
LINE
  5
257
330
1F
100
AcDbEntity
  8
0
  6
Continuous
 62
     7
370
    25
100
AcDbLine
 10
136.5122285122
 20
117.2240475525
 30
0.0
 11
136.5122285122
 21
114.7240475525
 31
0.0
  0
LINE
  5
258
330
1F
100
AcDbEntity
  8
0
  6
Continuous
 62
     7
370
    25
100
AcDbLine
 10
136.2622285122
 20
114.7240475525
 30
0.0
 11
136.5122285122
 21
114.7240475525
 31
0.0
  0
LINE
  5
259
330
1F
100
AcDbEntity
  8
0
  6
Continuous
 62
     7
370
    25
100
AcDbLine
 10
124.5122285122
 20
114.7240475525
 30
0.0
 11
124.7622285122
 21
114.7240475525
 31
0.0
  0
LINE
  5
25A
330
1F
100
AcDbEntity
  8
0
  6
Continuous
 62
     7
370
    25
100
AcDbLine
 10
124.5122285122
 20
114.7240475525
 30
0.0
 11
124.5122285122
 21
117.2240475525
 31
0.0
  0
LINE
  5
25B
330
1F
100
AcDbEntity
  8
0
  6
Continuous
 62
     7
370
    25
100
AcDbLine
 10
124.7622285122
 20
114.7240475525
 30
0.0
 11
124.7622285122
 21
114.4740475525
 31
0.0
  0
ARC
  5
25C
330
1F
100
AcDbEntity
  8
0
  6
Continuous
 62
     7
370
    25
100
AcDbCircle
 10
124.7622285122
 20
114.7240475525
 30
0.0
 40
0.25
100
AcDbArc
 50
180.0
 51
270.0
  0
ARC
  5
25D
330
1F
100
AcDbEntity
  8
0
  6
Continuous
 62
     7
370
    25
100
AcDbCircle
 10
136.2622285122
 20
114.7240475525
 30
0.0
 40
0.25
100
AcDbArc
 50
270.0
 51
0.0
  0
LINE
  5
25E
330
1F
100
AcDbEntity
  8
0
  6
Continuous
 62
     7
370
    25
100
AcDbLine
 10
136.2622285122
 20
114.4740475525
 30
0.0
 11
136.2622285122
 21
114.7240475525
 31
0.0
  0
LINE
  5
25F
330
1F
100
AcDbEntity
  8
0
  6
Continuous
 62
     7
370
    25
100
AcDbLine
 10
136.2622285122
 20
114.4740475525
 30
0.0
 11
135.9894540873
 21
114.4740475525
 31
0.0
  0
LINE
  5
260
330
1F
100
AcDbEntity
  8
0
  6
Continuous
 62
     7
370
    25
100
AcDbLine
 10
125.0350029372
 20
114.4740475525
 30
0.0
 11
124.7622285122
 21
114.4740475525
 31
0.0
  0
LINE
  5
261
330
1F
100
AcDbEntity
  8
0
  6
Continuous
 62
     7
370
    25
100
AcDbLine
 10
110.5122285122
 20
112.7023482885
 30
0.0
 11
110.5122285122
 21
119.2457468166
 31
0.0
  0
LINE
  5
262
330
1F
100
AcDbEntity
  8
0
  6
Continuous
 62
     7
370
    25
100
AcDbLine
 10
108.3367916507
 20
112.4740475525
 30
0.0
 11
110.5122285122
 21
112.7023482885
 31
0.0
  0
LINE
  5
263
330
1F
100
AcDbEntity
  8
0
  6
Continuous
 62
     7
370
    25
100
AcDbLine
 10
90.5122285122
 20
112.4740475525
 30
0.0
 11
108.3367916507
 21
112.4740475525
 31
0.0
  0
LINE
  5
264
330
1F
100
AcDbEntity
  8
0
  6
Continuous
 62
     7
370
    25
100
AcDbLine
 10
90.5122285122
 20
119.4740475525
 30
0.0
 11
90.5122285122
 21
112.4740475525
 31
0.0
  0
LINE
  5
265
330
1F
100
AcDbEntity
  8
0
  6
Continuous
 62
     7
370
    25
100
AcDbLine
 10
108.3367916507
 20
119.4740475525
 30
0.0
 11
90.5122285122
 21
119.4740475525
 31
0.0
  0
LINE
  5
266
330
1F
100
AcDbEntity
  8
0
  6
Continuous
 62
     7
370
    25
100
AcDbLine
 10
110.5122285122
 20
119.2457468166
 30
0.0
 11
108.3367916507
 21
119.4740475525
 31
0.0
  0
LINE
  5
267
330
1F
100
AcDbEntity
  8
0
  6
Continuous
 62
     7
370
    25
100
AcDbLine
 10
125.2884263379
 20
117.6950620334
 30
0.0
 11
125.1600172992
 21
117.5109203999
 31
0.0
  0
LINE
  5
268
330
1F
100
AcDbEntity
  8
0
  6
Continuous
 62
     7
370
    25
100
AcDbLine
 10
125.1695846399
 20
114.4288298852
 30
0.0
 11
125.2884263379
 21
114.2530330717
 31
0.0
  0
LINE
  5
269
330
1F
100
AcDbEntity
  8
0
  6
Continuous
 62
     7
370
    25
100
AcDbLine
 10
117.0956588586
 20
118.5548501881
 30
0.0
 11
117.0956588586
 21
113.393244917
 31
0.0
  0
LINE
  5
26A
330
1F
100
AcDbEntity
  8
0
  6
Continuous
 62
     7
370
    25
100
AcDbLine
 10
125.2884263379
 20
114.2530330717
 30
0.0
 11
117.0956588586
 21
113.393244917
 31
0.0
  0
LINE
  5
26B
330
1F
100
AcDbEntity
  8
0
  6
Continuous
 62
     7
370
    25
100
AcDbLine
 10
117.0956588586
 20
118.5548501881
 30
0.0
 11
125.2884263379
 21
117.6950620334
 31
0.0
  0
LINE
  5
26C
330
1F
100
AcDbEntity
  8
0
  6
Continuous
 62
     7
370
    25
100
AcDbLine
 10
117.0956588586
 20
113.393244917
 30
0.0
 11
110.5122285122
 21
112.7023482885
 31
0.0
  0
LINE
  5
26D
330
1F
100
AcDbEntity
  8
0
  6
Continuous
 62
     7
370
    25
100
AcDbLine
 10
110.5122285122
 20
119.2457468166
 30
0.0
 11
117.0956588586
 21
118.5548501881
 31
0.0
  0
ARC
  5
26E
330
1F
100
AcDbEntity
  8
0
  6
Continuous
 62
     7
370
    25
100
AcDbCircle
 10
130.5122285122
 20
115.9740475525
 30
0.0
 40
7.450000000000653
100
AcDbArc
 50
233.0863788866
 51
126.9136211134
  0
ARC
  5
26F
330
1F
100
AcDbEntity
  8
0
  6
Continuous
 62
     7
370
    25
100
AcDbCircle
 10
130.5122285122
 20
115.9740475525
 30
0.0
 40
7.207531252870786
100
AcDbArc
 50
195.3041237151
 51
238.9797515565
  0
ARC
  5
270
330
1F
100
AcDbEntity
  8
0
  6
Continuous
 62
     7
370
    25
100
AcDbCircle
 10
130.5122285122
 20
115.9740475525
 30
0.0
 40
7.207531252872447
100
AcDbArc
 50
121.0202484435
 51
164.6958762849
  0
ARC
  5
271
330
1F
100
AcDbEntity
  8
0
  6
Continuous
 62
     7
370
    25
100
AcDbCircle
 10
108.3367916507
 20
184.4740475525
 30
0.0
 40
64.99999999999996
100
AcDbArc
 50
270.0
 51
286.5000949923
  0
ARC
  5
272
330
1F
100
AcDbEntity
  8
0
  6
Continuous
 62
     7
370
    25
100
AcDbCircle
 10
108.3367916507
 20
47.4740475525
 30
0.0
 40
65.0
100
AcDbArc
 50
73.4999050077
 51
90.0
  0
LINE
  5
273
330
1F
100
AcDbEntity
  8
0
  6
Continuous
 62
     7
370
    25
100
AcDbLine
 10
137.5122285122
 20
109.2459165406
 30
0.0
 11
137.5122285122
 21
113.4240475525
 31
0.0
  0
LINE
  5
274
330
1F
100
AcDbEntity
  8
0
  6
Continuous
 62
     7
370
    25
100
AcDbLine
 10
137.5122285122
 20
118.5240475526
 30
0.0
 11
137.5122285122
 21
122.7021785645
 31
0.0
  0
LINE
  5
275
330
1F
100
AcDbEntity
  8
0
  6
Continuous
 62
     7
370
    25
100
AcDbLine
 10
123.5122285122
 20
122.7021785645
 30
0.0
 11
123.5122285122
 21
121.2703600331
 31
0.0
  0
LINE
  5
276
330
1F
100
AcDbEntity
  8
0
  6
Continuous
 62
     7
370
    25
100
AcDbLine
 10
123.5122285122
 20
110.677735072
 30
0.0
 11
123.5122285122
 21
109.2459165406
 31
0.0
  0
LINE
  5
277
330
1F
100
AcDbEntity
  8
0
  6
Continuous
 62
     7
370
    25
100
AcDbLine
 10
137.5122285122
 20
122.7021785645
 30
0.0
 11
133.7114085769
 21
122.7021785645
 31
0.0
  0
LINE
  5
278
330
1F
100
AcDbEntity
  8
0
  6
Continuous
 62
     7
370
    25
100
AcDbLine
 10
127.3130484475
 20
122.7021785645
 30
0.0
 11
123.5122285122
 21
122.7021785645
 31
0.0
  0
LINE
  5
279
330
1F
100
AcDbEntity
  8
0
  6
Continuous
 62
     7
370
    25
100
AcDbLine
 10
123.5122285122
 20
109.2459165406
 30
0.0
 11
127.3130484475
 21
109.2459165406
 31
0.0
  0
LINE
  5
27A
330
1F
100
AcDbEntity
  8
0
  6
Continuous
 62
     7
370
    25
100
AcDbLine
 10
133.7114085769
 20
109.2459165406
 30
0.0
 11
137.5122285122
 21
109.2459165406
 31
0.0
  0
LINE
  5
27B
330
1F
100
AcDbEntity
  8
0
  6
Continuous
 62
     7
370
    25
100
AcDbLine
 10
123.5122285122
 20
123.0979509769
 30
0.0
 11
128.3322055765
 21
123.0979509769
 31
0.0
  0
LINE
  5
27C
330
1F
100
AcDbEntity
  8
0
  6
Continuous
 62
     7
370
    25
100
AcDbLine
 10
132.6922514479
 20
123.0979509769
 30
0.0
 11
137.5122285122
 21
123.0979509769
 31
0.0
  0
LINE
  5
27D
330
1F
100
AcDbEntity
  8
0
  6
Continuous
 62
     7
370
    25
100
AcDbLine
 10
137.5122285122
 20
108.8501441282
 30
0.0
 11
132.6922514479
 21
108.8501441282
 31
0.0
  0
LINE
  5
27E
330
1F
100
AcDbEntity
  8
0
  6
Continuous
 62
     7
370
    25
100
AcDbLine
 10
128.3322055765
 20
108.8501441282
 30
0.0
 11
123.5122285122
 21
108.8501441282
 31
0.0
  0
INSERT
  5
28A
330
1F
100
AcDbEntity
  8
FORMAT
100
AcDbBlockReference
  2
SW_CENTERMARKSYMBOL_1
 10
130.5122285122
 20
115.9740475525
 30
0.0
  0
LINE
  5
28B
330
1F
100
AcDbEntity
  8
FORMAT
100
AcDbLine
 10
149.7611021105
 20
108.5403845223
 30
0.0
 11
141.0122285122
 21
108.2669822224
 31
0.0
  0
LINE
  5
28C
330
1F
100
AcDbEntity
  8
FORMAT
100
AcDbLine
 10
149.7611021105
 20
123.4077105828
 30
0.0
 11
141.0122285122
 21
123.6811128827
 31
0.0
  0
LINE
  5
28D
330
1F
100
AcDbEntity
  8
FORMAT
100
AcDbLine
 10
141.0122285122
 20
124.4034850525
 30
0.0
 11
141.0122285122
 21
107.5446100525
 31
0.0
  0
ENDSEC
  0
SECTION
  2
OBJECTS
  0
DICTIONARY
  5
C
330
0
100
AcDbDictionary
281
     1
  3
ACAD_GROUP
350
D
  3
ACAD_LAYOUT
350
1A
  3
ACAD_MLINESTYLE
350
17
  3
ACAD_PLOTSETTINGS
350
19
  3
ACAD_PLOTSTYLENAME
350
E
  3
ACAD_SCALELIST
350
47
  3
DWGPROPS
350
28E
  0
DICTIONARY
  5
D
102
{ACAD_REACTORS
330
C
102
}
330
C
100
AcDbDictionary
281
     1
  0
DICTIONARY
  5
1A
102
{ACAD_REACTORS
330
C
102
}
330
C
100
AcDbDictionary
281
     1
  3
Layout1
350
1E
  3
Layout2
350
26
  3
Model
350
22
  0
DICTIONARY
  5
17
102
{ACAD_REACTORS
330
C
102
}
330
C
100
AcDbDictionary
281
     1
  3
Standard
350
18
  0
DICTIONARY
  5
19
102
{ACAD_REACTORS
330
C
102
}
330
C
100
AcDbDictionary
281
     1
  0
ACDBDICTIONARYWDFLT
  5
E
102
{ACAD_REACTORS
330
C
102
}
330
C
100
AcDbDictionary
281
     1
  3
Normal
350
F
100
AcDbDictionaryWithDefault
340
F
  0
DICTIONARY
  5
47
102
{ACAD_REACTORS
330
C
102
}
330
C
100
AcDbDictionary
281
     1
  3
A0
350
48
  3
A1
350
49
  3
A2
350
4A
  3
A3
350
4B
  3
A4
350
4C
  3
A5
350
4D
  3
A6
350
4E
  3
A7
350
4F
  3
A8
350
50
  3
A9
350
51
  3
B0
350
52
  3
B1
350
53
  3
B2
350
54
  3
B3
350
55
  3
B4
350
56
  3
B5
350
57
  3
B6
350
58
  0
XRECORD
  5
28E
102
{ACAD_REACTORS
330
C
102
}
330
C
100
AcDbXrecord
280
     1
  1
DWGPROPS COOKIE
  2

  3

  4

  6

  7

  8
user28
  9

300
=
301
=
302
=
303
=
304
=
305
=
306
=
307
=
308
=
309
=
 40
0.0
 41
2460406.337460949
 42
2460406.337461655
  1

 90
        0
  0
LAYOUT
  5
1E
102
{ACAD_REACTORS
330
1A
102
}
330
1A
100
AcDbPlotSettings
  1

  2
none_device
  4

  6

 40
0.0
 41
0.0
 42
0.0
 43
0.0
 44
0.0
 45
0.0
 46
0.0
 47
0.0
 48
0.0
 49
0.0
140
0.0
141
0.0
142
1.0
143
1.0
 70
   688
 72
     1
 73
     0
 74
     5
  7

 75
    16
147
1.0
148
0.0
149
0.0
100
AcDbLayout
  1
Layout1
 70
     1
 71
     1
 10
0.0
 20
0.0
 11
420.0
 21
297.0
 12
0.0
 22
0.0
 32
0.0
 14
1.0000000000E+20
 24
1.0000000000E+20
 34
1.0000000000E+20
 15
-1.0000000000E+20
 25
-1.0000000000E+20
 35
-1.0000000000E+20
146
0.0
 13
0.0
 23
0.0
 33
0.0
 16
1.0
 26
0.0
 36
0.0
 17
0.0
 27
1.0
 37
0.0
 76
     0
330
1B
  0
LAYOUT
  5
26
102
{ACAD_REACTORS
330
1A
102
}
330
1A
100
AcDbPlotSettings
  1

  2
none_device
  4

  6

 40
0.0
 41
0.0
 42
0.0
 43
0.0
 44
0.0
 45
0.0
 46
0.0
 47
0.0
 48
0.0
 49
0.0
140
0.0
141
0.0
142
1.0
143
1.0
 70
   688
 72
     1
 73
     0
 74
     5
  7

 75
    16
147
1.0
148
0.0
149
0.0
100
AcDbLayout
  1
Layout2
 70
     1
 71
     2
 10
0.0
 20
0.0
 11
0.0
 21
0.0
 12
0.0
 22
0.0
 32
0.0
 14
0.0
 24
0.0
 34
0.0
 15
0.0
 25
0.0
 35
0.0
146
0.0
 13
0.0
 23
0.0
 33
0.0
 16
1.0
 26
0.0
 36
0.0
 17
0.0
 27
1.0
 37
0.0
 76
     0
330
23
  0
LAYOUT
  5
22
102
{ACAD_REACTORS
330
1A
102
}
330
1A
100
AcDbPlotSettings
  1

  2
none_device
  4
Letter_(8.50_x_11.00_Inches)
  6

 40
6.35
 41
6.35
 42
6.35000508
 43
6.35000508
 44
215.9
 45
279.4
 46
0.0
 47
0.0
 48
0.0
 49
0.0
140
0.0
141
0.0
142
1.0
143
1.0
 70
  1712
 72
     1
 73
     0
 74
     0
  7

 75
     0
147
1.0
148
0.0
149
0.0
100
AcDbLayout
  1
Model
 70
     1
 71
     0
 10
0.0
 20
0.0
 11
297.0
 21
210.0
 12
0.0
 22
0.0
 32
0.0
 14
0.0
 24
0.0
 34
0.0
 15
297.0
 25
210.0
 35
0.0
146
0.0
 13
0.0
 23
0.0
 33
0.0
 16
1.0
 26
0.0
 36
0.0
 17
0.0
 27
1.0
 37
0.0
 76
     0
330
1F
331
29
  0
MLINESTYLE
  5
18
102
{ACAD_REACTORS
330
17
102
}
330
17
100
AcDbMlineStyle
  2
Standard
 70
     0
  3

 62
   256
 51
90.0
 52
90.0
 71
     2
 49
0.5
 62
   256
  6
BYLAYER
 49
-0.5
 62
   256
  6
BYLAYER
  0
ACDBPLACEHOLDER
  5
F
102
{ACAD_REACTORS
330
E
102
}
330
E
  0
SCALE
  5
48
102
{ACAD_REACTORS
330
47
102
}
330
47
100
AcDbScale
 70
     0
300
1:1
140
1.0
141
1.0
290
     1
  0
SCALE
  5
49
102
{ACAD_REACTORS
330
47
102
}
330
47
100
AcDbScale
 70
     0
300
1:2
140
1.0
141
2.0
290
     0
  0
SCALE
  5
4A
102
{ACAD_REACTORS
330
47
102
}
330
47
100
AcDbScale
 70
     0
300
1:4
140
1.0
141
4.0
290
     0
  0
SCALE
  5
4B
102
{ACAD_REACTORS
330
47
102
}
330
47
100
AcDbScale
 70
     0
300
1:5
140
1.0
141
5.0
290
     0
  0
SCALE
  5
4C
102
{ACAD_REACTORS
330
47
102
}
330
47
100
AcDbScale
 70
     0
300
1:8
140
1.0
141
8.0
290
     0
  0
SCALE
  5
4D
102
{ACAD_REACTORS
330
47
102
}
330
47
100
AcDbScale
 70
     0
300
1:10
140
1.0
141
10.0
290
     0
  0
SCALE
  5
4E
102
{ACAD_REACTORS
330
47
102
}
330
47
100
AcDbScale
 70
     0
300
1:16
140
1.0
141
16.0
290
     0
  0
SCALE
  5
4F
102
{ACAD_REACTORS
330
47
102
}
330
47
100
AcDbScale
 70
     0
300
1:20
140
1.0
141
20.0
290
     0
  0
SCALE
  5
50
102
{ACAD_REACTORS
330
47
102
}
330
47
100
AcDbScale
 70
     0
300
1:30
140
1.0
141
30.0
290
     0
  0
SCALE
  5
51
102
{ACAD_REACTORS
330
47
102
}
330
47
100
AcDbScale
 70
     0
300
1:40
140
1.0
141
40.0
290
     0
  0
SCALE
  5
52
102
{ACAD_REACTORS
330
47
102
}
330
47
100
AcDbScale
 70
     0
300
1:50
140
1.0
141
50.0
290
     0
  0
SCALE
  5
53
102
{ACAD_REACTORS
330
47
102
}
330
47
100
AcDbScale
 70
     0
300
1:100
140
1.0
141
100.0
290
     0
  0
SCALE
  5
54
102
{ACAD_REACTORS
330
47
102
}
330
47
100
AcDbScale
 70
     0
300
2:1
140
2.0
141
1.0
290
     0
  0
SCALE
  5
55
102
{ACAD_REACTORS
330
47
102
}
330
47
100
AcDbScale
 70
     0
300
4:1
140
4.0
141
1.0
290
     0
  0
SCALE
  5
56
102
{ACAD_REACTORS
330
47
102
}
330
47
100
AcDbScale
 70
     0
300
8:1
140
8.0
141
1.0
290
     0
  0
SCALE
  5
57
102
{ACAD_REACTORS
330
47
102
}
330
47
100
AcDbScale
 70
     0
300
10:1
140
10.0
141
1.0
290
     0
  0
SCALE
  5
58
102
{ACAD_REACTORS
330
47
102
}
330
47
100
AcDbScale
 70
     0
300
100:1
140
100.0
141
1.0
290
     0
  0
ENDSEC
  0
EOF
