  0
SECTION
  2
HEADER
  9
$ACADVER
  1
AC1015
  9
$ACADMAINTVER
 70
     6
  9
$DWGCODEPAGE
  3
DOS932
  9
$INSBASE
 10
0.0
 20
0.0
 30
0.0
  9
$EXTMIN
 10
0.0
 20
0.0
 30
0.0
  9
$EXTMAX
 10
297.0
 20
210.0
 30
0.0
  9
$LIMMIN
 10
0.0
 20
0.0
  9
$LIMMAX
 10
297.0
 20
210.0
  9
$ORTHOMODE
 70
     0
  9
$REGENMODE
 70
     1
  9
$FILLMODE
 70
     1
  9
$QTEXTMODE
 70
     0
  9
$MIRRTEXT
 70
     1
  9
$LTSCALE
 40
1.0
  9
$ATTMODE
 70
     1
  9
$TEXTSIZE
 40
3.5277777778
  9
$TRACEWID
 40
1.0
  9
$TEXTSTYLE
  7
Standard
  9
$CLAYER
  8
0
  9
$CELTYPE
  6
ByLayer
  9
$CECOLOR
 62
   256
  9
$CELTSCALE
 40
1.0
  9
$DISPSILH
 70
     0
  9
$DIMSCALE
 40
1.0
  9
$DIMASZ
 40
2.728515625
  9
$DIMEXO
 40
1.0
  9
$DIMDLI
 40
3.75
  9
$DIMRND
 40
0.0
  9
$DIMDLE
 40
0.0
  9
$DIMEXE
 40
1.0
  9
$DIMTP
 40
0.0
  9
$DIMTM
 40
0.0
  9
$DIMTXT
 40
3.5277777778
  9
$DIMCEN
 40
2.5
  9
$DIMTSZ
 40
0.0
  9
$DIMTOL
 70
     0
  9
$DIMLIM
 70
     0
  9
$DIMTIH
 70
     1
  9
$DIMTOH
 70
     1
  9
$DIMSE1
 70
     0
  9
$DIMSE2
 70
     0
  9
$DIMTAD
 70
     1
  9
$DIMZIN
 70
     0
  9
$DIMBLK
  1

  9
$DIMASO
 70
     1
  9
$DIMSHO
 70
     1
  9
$DIMPOST
  1

  9
$DIMAPOST
  1

  9
$DIMALT
 70
     0
  9
$DIMALTD
 70
     3
  9
$DIMALTF
 40
0.0393700787
  9
$DIMLFAC
 40
1.0
  9
$DIMTOFL
 70
     1
  9
$DIMTVP
 40
0.0
  9
$DIMTIX
 70
     0
  9
$DIMSOXD
 70
     0
  9
$DIMSAH
 70
     0
  9
$DIMBLK1
  1

  9
$DIMBLK2
  1

  9
$DIMSTYLE
  2
ISO-25
  9
$DIMCLRD
 70
     0
  9
$DIMCLRE
 70
     0
  9
$DIMCLRT
 70
     0
  9
$DIMTFAC
 40
1.0
  9
$DIMGAP
 40
1.524
  9
$DIMJUST
 70
     0
  9
$DIMSD1
 70
     0
  9
$DIMSD2
 70
     0
  9
$DIMTOLJ
 70
     0
  9
$DIMTZIN
 70
     0
  9
$DIMALTZ
 70
     0
  9
$DIMALTTZ
 70
     0
  9
$DIMUPT
 70
     0
  9
$DIMDEC
 70
     2
  9
$DIMTDEC
 70
     2
  9
$DIMALTU
 70
     2
  9
$DIMALTTD
 70
     3
  9
$DIMTXSTY
  7
Standard
  9
$DIMAUNIT
 70
     0
  9
$DIMADEC
 70
     2
  9
$DIMALTRND
 40
0.0
  9
$DIMAZIN
 70
     0
  9
$DIMDSEP
 70
    44
  9
$DIMATFIT
 70
     3
  9
$DIMFRAC
 70
     0
  9
$DIMLDRBLK
  1

  9
$DIMLUNIT
 70
     2
  9
$DIMLWD
 70
    -2
  9
$DIMLWE
 70
    -2
  9
$DIMTMOVE
 70
     0
  9
$LUNITS
 70
     2
  9
$LUPREC
 70
     2
  9
$SKETCHINC
 40
1.0
  9
$FILLETRAD
 40
0.0
  9
$AUNITS
 70
     0
  9
$AUPREC
 70
     2
  9
$MENU
  1
.
  9
$ELEVATION
 40
0.0
  9
$PELEVATION
 40
0.0
  9
$THICKNESS
 40
0.0
  9
$LIMCHECK
 70
     0
  9
$CHAMFERA
 40
0.0
  9
$CHAMFERB
 40
0.0
  9
$CHAMFERC
 40
0.0
  9
$CHAMFERD
 40
0.0
  9
$SKPOLY
 70
     0
  9
$TDCREATE
 40
2460406.710951551
  9
$TDUCREATE
 40
2460406.335951551
  9
$TDUPDATE
 40
2460406.710952257
  9
$TDUUPDATE
 40
2460406.335952257
  9
$TDINDWG
 40
0.0000000116
  9
$TDUSRTIMER
 40
0.0000000116
  9
$USRTIMER
 70
     1
  9
$ANGBASE
 50
0.0
  9
$ANGDIR
 70
     0
  9
$PDMODE
 70
     0
  9
$PDSIZE
 40
-1.0
  9
$PLINEWID
 40
0.0
  9
$SPLFRAME
 70
     0
  9
$SPLINETYPE
 70
     6
  9
$SPLINESEGS
 70
     8
  9
$HANDSEED
  5
29E
  9
$SURFTAB1
 70
     6
  9
$SURFTAB2
 70
     6
  9
$SURFTYPE
 70
     6
  9
$SURFU
 70
     6
  9
$SURFV
 70
     6
  9
$UCSBASE
  2

  9
$UCSNAME
  2

  9
$UCSORG
 10
0.0
 20
0.0
 30
0.0
  9
$UCSXDIR
 10
1.0
 20
0.0
 30
0.0
  9
$UCSYDIR
 10
0.0
 20
1.0
 30
0.0
  9
$UCSORTHOREF
  2

  9
$UCSORTHOVIEW
 70
     0
  9
$UCSORGTOP
 10
0.0
 20
0.0
 30
0.0
  9
$UCSORGBOTTOM
 10
0.0
 20
0.0
 30
0.0
  9
$UCSORGLEFT
 10
0.0
 20
0.0
 30
0.0
  9
$UCSORGRIGHT
 10
0.0
 20
0.0
 30
0.0
  9
$UCSORGFRONT
 10
0.0
 20
0.0
 30
0.0
  9
$UCSORGBACK
 10
0.0
 20
0.0
 30
0.0
  9
$PUCSBASE
  2

  9
$PUCSNAME
  2

  9
$PUCSORG
 10
0.0
 20
0.0
 30
0.0
  9
$PUCSXDIR
 10
1.0
 20
0.0
 30
0.0
  9
$PUCSYDIR
 10
0.0
 20
1.0
 30
0.0
  9
$PUCSORTHOREF
  2

  9
$PUCSORTHOVIEW
 70
     0
  9
$PUCSORGTOP
 10
0.0
 20
0.0
 30
0.0
  9
$PUCSORGBOTTOM
 10
0.0
 20
0.0
 30
0.0
  9
$PUCSORGLEFT
 10
0.0
 20
0.0
 30
0.0
  9
$PUCSORGRIGHT
 10
0.0
 20
0.0
 30
0.0
  9
$PUCSORGFRONT
 10
0.0
 20
0.0
 30
0.0
  9
$PUCSORGBACK
 10
0.0
 20
0.0
 30
0.0
  9
$USERI1
 70
     0
  9
$USERI2
 70
     0
  9
$USERI3
 70
     0
  9
$USERI4
 70
     0
  9
$USERI5
 70
     0
  9
$USERR1
 40
0.0
  9
$USERR2
 40
0.0
  9
$USERR3
 40
0.0
  9
$USERR4
 40
0.0
  9
$USERR5
 40
0.0
  9
$WORLDVIEW
 70
     1
  9
$SHADEDGE
 70
     3
  9
$SHADEDIF
 70
    70
  9
$TILEMODE
 70
     1
  9
$MAXACTVP
 70
    64
  9
$PINSBASE
 10
0.0
 20
0.0
 30
0.0
  9
$PLIMCHECK
 70
     0
  9
$PEXTMIN
 10
1.0000000000E+20
 20
1.0000000000E+20
 30
1.0000000000E+20
  9
$PEXTMAX
 10
-1.0000000000E+20
 20
-1.0000000000E+20
 30
-1.0000000000E+20
  9
$PLIMMIN
 10
0.0
 20
0.0
  9
$PLIMMAX
 10
420.0
 20
297.0
  9
$UNITMODE
 70
     0
  9
$VISRETAIN
 70
     1
  9
$PLINEGEN
 70
     0
  9
$PSLTSCALE
 70
     1
  9
$TREEDEPTH
 70
  3020
  9
$CMLSTYLE
  2
Standard
  9
$CMLJUST
 70
     0
  9
$CMLSCALE
 40
20.0
  9
$PROXYGRAPHICS
 70
     1
  9
$MEASUREMENT
 70
     1
  9
$CELWEIGHT
370
    -1
  9
$ENDCAPS
280
     0
  9
$JOINSTYLE
280
     0
  9
$LWDISPLAY
290
     1
  9
$INSUNITS
 70
     4
  9
$HYPERLINKBASE
  1

  9
$STYLESHEET
  1

  9
$XEDIT
290
     1
  9
$CEPSNTYPE
380
     0
  9
$PSTYLEMODE
290
     1
  9
$FINGERPRINTGUID
  2
{174fa25e-c835-48af-8b0d-e3f9ba7cee38}
  9
$VERSIONGUID
  2
{FAEB1C32-E019-11D5-929B-00C0DF256EC4}
  9
$EXTNAMES
290
     1
  9
$PSVPSCALE
 40
0.0
  9
$OLESTARTUP
290
     0
  0
ENDSEC
  0
SECTION
  2
CLASSES
  0
CLASS
  1
ACDBDICTIONARYWDFLT
  2
AcDbDictionaryWithDefault
  3
ObjectDBX Classes
 90
        0
280
     0
281
     0
  0
CLASS
  1
VISUALSTYLE
  2
AcDbVisualStyle
  3
ObjectDBX Classes
 90
     4095
280
     0
281
     0
  0
CLASS
  1
MATERIAL
  2
AcDbMaterial
  3
ObjectDBX Classes
 90
     1153
280
     0
281
     0
  0
CLASS
  1
SCALE
  2
AcDbScale
  3
ObjectDBX Classes
 90
     1153
280
     0
281
     0
  0
CLASS
  1
TABLESTYLE
  2
AcDbTableStyle
  3
ObjectDBX Classes
 90
     4095
280
     0
281
     0
  0
CLASS
  1
MLEADERSTYLE
  2
AcDbMLeaderStyle
  3
ACDB_MLEADERSTYLE_CLASS
 90
     4095
280
     0
281
     0
  0
CLASS
  1
SUN
  2
AcDbSun
  3
SCENEOE
 90
     1153
280
     0
281
     0
  0
CLASS
  1
ACDBPLACEHOLDER
  2
AcDbPlaceHolder
  3
ObjectDBX Classes
 90
        0
280
     0
281
     0
  0
CLASS
  1
LAYOUT
  2
AcDbLayout
  3
ObjectDBX Classes
 90
        0
280
     0
281
     0
  0
ENDSEC
  0
SECTION
  2
TABLES
  0
TABLE
  2
VPORT
  5
8
330
0
100
AcDbSymbolTable
 70
     1
  0
VPORT
  5
29
330
8
100
AcDbSymbolTableRecord
100
AcDbViewportTableRecord
  2
*Active
 70
     0
 10
0.0
 20
0.0
 11
1.0
 21
1.0
 12
148.5
 22
105.0
 13
0.0
 23
0.0
 14
10.0
 24
10.0
 15
10.0
 25
10.0
 16
0.0
 26
0.0
 36
1.0
 17
0.0
 27
0.0
 37
0.0
 40
210.0
 41
1.4142857143
 42
50.0
 43
0.0
 44
0.0
 50
0.0
 51
0.0
 71
     0
 72
  2000
 73
     1
 74
     3
 75
     0
 76
     0
 77
     0
 78
     0
281
     0
 65
     1
110
0.0
120
0.0
130
0.0
111
1.0
121
0.0
131
0.0
112
0.0
122
1.0
132
0.0
 79
     0
146
0.0
  0
ENDTAB
  0
TABLE
  2
LTYPE
  5
5
330
0
100
AcDbSymbolTable
 70
     6
  0
LTYPE
  5
14
330
5
100
AcDbSymbolTableRecord
100
AcDbLinetypeTableRecord
  2
ByBlock
 70
     0
  3

 72
    65
 73
     0
 40
0.0
  0
LTYPE
  5
15
330
5
100
AcDbSymbolTableRecord
100
AcDbLinetypeTableRecord
  2
ByLayer
 70
     0
  3

 72
    65
 73
     0
 40
0.0
  0
LTYPE
  5
16
330
5
100
AcDbSymbolTableRecord
100
AcDbLinetypeTableRecord
  2
Continuous
 70
     0
  3
Solid line
 72
    65
 73
     0
 40
0.0
  0
LTYPE
  5
5E
330
5
100
AcDbSymbolTableRecord
100
AcDbLinetypeTableRecord
  2
HIDDEN
 70
     0
  3
Hidden __ __ __ __ __ __ __ __ __ __ __ __ __ __
 72
    65
 73
     2
 40
1.905
 49
1.27
 74
     0
 49
-0.635
 74
     0
  0
LTYPE
  5
5F
330
5
100
AcDbSymbolTableRecord
100
AcDbLinetypeTableRecord
  2
PHANTOM
 70
     0
  3
Phantom ______  __  __  ______  __  __  ______
 72
    65
 73
     6
 40
12.7
 49
6.35
 74
     0
 49
-1.27
 74
     0
 49
1.27
 74
     0
 49
-1.27
 74
     0
 49
1.27
 74
     0
 49
-1.27
 74
     0
  0
LTYPE
  5
60
330
5
100
AcDbSymbolTableRecord
100
AcDbLinetypeTableRecord
  2
CENTER
 70
     0
  3
Center ____ _ ____ _ ____ _ ____ _ ____ _ ____
 72
    65
 73
     4
 40
10.16
 49
6.35
 74
     0
 49
-1.27
 74
     0
 49
1.27
 74
     0
 49
-1.27
 74
     0
  0
LTYPE
  5
61
330
5
100
AcDbSymbolTableRecord
100
AcDbLinetypeTableRecord
  2
CENTERX2
 70
     0
  3
Center (2x) ________  __  ________  __  _____
 72
    65
 73
     4
 40
20.32
 49
12.7
 74
     0
 49
-2.54
 74
     0
 49
2.54
 74
     0
 49
-2.54
 74
     0
  0
LTYPE
  5
62
330
5
100
AcDbSymbolTableRecord
100
AcDbLinetypeTableRecord
  2
DOT2
 70
     0
  3
Dot (.5x) ........................................
 72
    65
 73
     2
 40
0.635
 49
0.0
 74
     0
 49
-0.635
 74
     0
  0
ENDTAB
  0
TABLE
  2
LAYER
  5
2
330
0
100
AcDbSymbolTable
 70
     2
  0
LAYER
  5
10
330
2
100
AcDbSymbolTableRecord
100
AcDbLayerTableRecord
  2
0
 70
     0
 62
     7
  6
Continuous
370
    -3
390
F
  0
LAYER
  5
63
330
2
100
AcDbSymbolTableRecord
100
AcDbLayerTableRecord
  2
FORMAT
 70
     0
 62
     7
  6
Continuous
370
    -3
390
F
  0
ENDTAB
  0
TABLE
  2
STYLE
  5
3
330
0
100
AcDbSymbolTable
 70
     2
  0
STYLE
  5
11
330
3
100
AcDbSymbolTableRecord
100
AcDbTextStyleTableRecord
  2
Standard
 70
     0
 40
0.0
 41
1.0
 50
0.0
 71
     0
 42
3.5277777778
  3
txt
  4
bigfont
  0
STYLE
  5
64
330
3
100
AcDbSymbolTableRecord
100
AcDbTextStyleTableRecord
  2
SLDTEXTSTYLE0
 70
     0
 40
0.0
 41
0.7
 50
0.0
 71
     0
 42
3.5277777778
  3
TXT
  4
bigfont
  0
ENDTAB
  0
TABLE
  2
VIEW
  5
6
330
0
100
AcDbSymbolTable
 70
     0
  0
ENDTAB
  0
TABLE
  2
UCS
  5
7
330
0
100
AcDbSymbolTable
 70
     0
  0
ENDTAB
  0
TABLE
  2
APPID
  5
9
330
0
100
AcDbSymbolTable
 70
     1
  0
APPID
  5
12
330
9
100
AcDbSymbolTableRecord
100
AcDbRegAppTableRecord
  2
ACAD
 70
     0
  0
ENDTAB
  0
TABLE
  2
DIMSTYLE
  5
A
330
0
100
AcDbSymbolTable
 70
     1
100
AcDbDimStyleTable
  0
DIMSTYLE
105
27
330
A
100
AcDbSymbolTableRecord
100
AcDbDimStyleTableRecord
  2
ISO-25
 70
     0
 41
2.5
 42
0.625
 43
3.75
 44
1.25
 73
     0
 74
     0
 77
     1
 78
     8
140
2.5
141
2.5
143
0.0393700787
147
0.625
171
     3
172
     1
178
     0
271
     2
272
     2
274
     3
278
    44
283
     0
284
     8
340
11
  0
ENDTAB
  0
TABLE
  2
BLOCK_RECORD
  5
1
330
0
100
AcDbSymbolTable
 70
     3
  0
BLOCK_RECORD
  5
1F
330
1
100
AcDbSymbolTableRecord
100
AcDbBlockTableRecord
  2
*Model_Space
340
22
  0
BLOCK_RECORD
  5
1B
330
1
100
AcDbSymbolTableRecord
100
AcDbBlockTableRecord
  2
*Paper_Space
340
1E
  0
BLOCK_RECORD
  5
23
330
1
100
AcDbSymbolTableRecord
100
AcDbBlockTableRecord
  2
*Paper_Space0
340
26
  0
BLOCK_RECORD
  5
1BA
330
1
100
AcDbSymbolTableRecord
100
AcDbBlockTableRecord
  2
SW_CENTERMARKSYMBOL_0
340
0
102
{BLKREFS
331
1C5
102
}
  0
BLOCK_RECORD
  5
28E
330
1
100
AcDbSymbolTableRecord
100
AcDbBlockTableRecord
  2
SW_CENTERMARKSYMBOL_1
340
0
102
{BLKREFS
331
299
102
}
  0
ENDTAB
  0
ENDSEC
  0
SECTION
  2
BLOCKS
  0
BLOCK
  5
20
330
1F
100
AcDbEntity
  8
0
100
AcDbBlockBegin
  2
*Model_Space
 70
     0
 10
0.0
 20
0.0
 30
0.0
  3
*Model_Space
  1

  0
ENDBLK
  5
21
330
1F
100
AcDbEntity
  8
0
100
AcDbBlockEnd
  0
BLOCK
  5
1C
330
1B
100
AcDbEntity
 67
     1
  8
0
100
AcDbBlockBegin
  2
*Paper_Space
 70
     0
 10
0.0
 20
0.0
 30
0.0
  3
*Paper_Space
  1

  0
ENDBLK
  5
1D
330
1B
100
AcDbEntity
 67
     1
  8
0
100
AcDbBlockEnd
  0
BLOCK
  5
24
330
23
100
AcDbEntity
  8
0
100
AcDbBlockBegin
  2
*Paper_Space0
 70
     0
 10
0.0
 20
0.0
 30
0.0
  3
*Paper_Space0
  1

  0
ENDBLK
  5
25
330
23
100
AcDbEntity
  8
0
100
AcDbBlockEnd
  0
BLOCK
  5
1BB
330
1BA
100
AcDbEntity
  8
0
100
AcDbBlockBegin
  2
SW_CENTERMARKSYMBOL_0
 70
     0
 10
0.0
 20
0.0
 30
0.0
  3
SW_CENTERMARKSYMBOL_0
  1

  0
LINE
  5
1BD
330
1BA
100
AcDbEntity
  8
FORMAT
 62
     0
100
AcDbLine
 10
0.0
 20
0.0
 30
0.0
 11
0.0
 21
2.5
 31
0.0
  0
LINE
  5
1BE
330
1BA
100
AcDbEntity
  8
FORMAT
 62
     0
100
AcDbLine
 10
0.0
 20
0.0
 30
0.0
 11
-2.5
 21
0.0
 31
0.0
  0
LINE
  5
1BF
330
1BA
100
AcDbEntity
  8
FORMAT
 62
     0
100
AcDbLine
 10
0.0
 20
0.0
 30
0.0
 11
0.0
 21
-2.5
 31
0.0
  0
LINE
  5
1C0
330
1BA
100
AcDbEntity
  8
FORMAT
 62
     0
100
AcDbLine
 10
0.0
 20
0.0
 30
0.0
 11
2.5
 21
0.0
 31
0.0
  0
LINE
  5
1C1
330
1BA
100
AcDbEntity
  8
FORMAT
 62
     0
100
AcDbLine
 10
0.0
 20
5.0
 30
0.0
 11
0.0
 21
30.0870096797
 31
0.0
  0
LINE
  5
1C2
330
1BA
100
AcDbEntity
  8
FORMAT
 62
     0
100
AcDbLine
 10
-5.0
 20
0.0
 30
0.0
 11
-12.5
 21
0.0
 31
0.0
  0
LINE
  5
1C3
330
1BA
100
AcDbEntity
  8
FORMAT
 62
     0
100
AcDbLine
 10
0.0
 20
-5.0
 30
0.0
 11
0.0
 21
-12.5
 31
0.0
  0
LINE
  5
1C4
330
1BA
100
AcDbEntity
  8
FORMAT
 62
     0
100
AcDbLine
 10
5.0
 20
0.0
 30
0.0
 11
12.5
 21
0.0
 31
0.0
  0
ENDBLK
  5
1BC
330
1BA
100
AcDbEntity
  8
0
100
AcDbBlockEnd
  0
BLOCK
  5
28F
330
28E
100
AcDbEntity
  8
0
100
AcDbBlockBegin
  2
SW_CENTERMARKSYMBOL_1
 70
     0
 10
0.0
 20
0.0
 30
0.0
  3
SW_CENTERMARKSYMBOL_1
  1

  0
LINE
  5
291
330
28E
100
AcDbEntity
  8
FORMAT
 62
     0
100
AcDbLine
 10
0.0
 20
0.0
 30
0.0
 11
0.0
 21
2.5
 31
0.0
  0
LINE
  5
292
330
28E
100
AcDbEntity
  8
FORMAT
 62
     0
100
AcDbLine
 10
0.0
 20
0.0
 30
0.0
 11
-2.5
 21
0.0
 31
0.0
  0
LINE
  5
293
330
28E
100
AcDbEntity
  8
FORMAT
 62
     0
100
AcDbLine
 10
0.0
 20
0.0
 30
0.0
 11
0.0
 21
-2.5
 31
0.0
  0
LINE
  5
294
330
28E
100
AcDbEntity
  8
FORMAT
 62
     0
100
AcDbLine
 10
0.0
 20
0.0
 30
0.0
 11
2.5
 21
0.0
 31
0.0
  0
LINE
  5
295
330
28E
100
AcDbEntity
  8
FORMAT
 62
     0
100
AcDbLine
 10
0.0
 20
5.0
 30
0.0
 11
0.0
 21
9.95
 31
0.0
  0
LINE
  5
296
330
28E
100
AcDbEntity
  8
FORMAT
 62
     0
100
AcDbLine
 10
-5.0
 20
0.0
 30
0.0
 11
-41.5278791433
 21
0.0
 31
0.0
  0
LINE
  5
297
330
28E
100
AcDbEntity
  8
FORMAT
 62
     0
100
AcDbLine
 10
0.0
 20
-5.0
 30
0.0
 11
0.0
 21
-9.95
 31
0.0
  0
LINE
  5
298
330
28E
100
AcDbEntity
  8
FORMAT
 62
     0
100
AcDbLine
 10
5.0
 20
0.0
 30
0.0
 11
20.9993459101
 21
0.0
 31
0.0
  0
ENDBLK
  5
290
330
28E
100
AcDbEntity
  8
0
100
AcDbBlockEnd
  0
ENDSEC
  0
SECTION
  2
ENTITIES
  0
MTEXT
  5
65
330
1F
100
AcDbEntity
  8
FORMAT
100
AcDbMText
 10
145.8753617047
 20
100.4366064577
 30
0.0
 40
3.7041666667
 41
0.0
 71
     1
 72
     1
  1
エースボール　BU-1285R
  7
SLDTEXTSTYLE0
 73
     1
 44
1.0
  0
LINE
  5
66
330
1F
100
AcDbEntity
  8
0
  6
Continuous
 62
     7
370
    25
100
AcDbLine
 10
119.0749845861
 20
48.6450652443
 30
0.0
 11
119.7966724226
 21
49.8950652443
 31
0.0
  0
LINE
  5
67
330
1F
100
AcDbEntity
  8
0
  6
Continuous
 62
     7
370
    25
100
AcDbLine
 10
119.7966724226
 20
68.3950652443
 30
0.0
 11
119.0749845861
 21
69.6450652443
 31
0.0
  0
LINE
  5
68
330
1F
100
AcDbEntity
  8
0
  6
Continuous
 62
     7
370
    25
100
AcDbLine
 10
108.5152085322
 20
69.6450652443
 30
0.0
 11
99.8927985922
 21
67.1726289799
 31
0.0
  0
LINE
  5
69
330
1F
100
AcDbEntity
  8
0
  6
Continuous
 62
     7
370
    25
100
AcDbLine
 10
99.8927985922
 20
51.1175015087
 30
0.0
 11
108.5152085322
 21
48.6450652443
 31
0.0
  0
LINE
  5
6A
330
1F
100
AcDbEntity
  8
0
  6
Continuous
 62
     7
370
    25
100
AcDbLine
 10
99.8927985922
 20
67.1726289799
 30
0.0
 11
99.7966724226
 21
66.9992127794
 31
0.0
  0
LINE
  5
6B
330
1F
100
AcDbEntity
  8
0
  6
Continuous
 62
     7
370
    25
100
AcDbLine
 10
99.7966724226
 20
51.2909177092
 30
0.0
 11
99.8927985922
 21
51.1175015087
 31
0.0
  0
LINE
  5
6C
330
1F
100
AcDbEntity
  8
0
  6
Continuous
 62
     7
370
    25
100
AcDbLine
 10
119.0749845861
 20
69.6450652443
 30
0.0
 11
108.5152085322
 21
69.6450652443
 31
0.0
  0
LINE
  5
6D
330
1F
100
AcDbEntity
  8
0
  6
Continuous
 62
     7
370
    25
100
AcDbLine
 10
108.5152085322
 20
48.6450652443
 30
0.0
 11
119.0749845861
 21
48.6450652443
 31
0.0
  0
LINE
  5
6E
330
1F
100
AcDbEntity
  8
0
  6
Continuous
 62
     7
370
    25
100
AcDbLine
 10
125.0749845861
 20
48.6450652443
 30
0.0
 11
125.7966724226
 21
49.8950652443
 31
0.0
  0
LINE
  5
6F
330
1F
100
AcDbEntity
  8
0
  6
Continuous
 62
     7
370
    25
100
AcDbLine
 10
125.7966724226
 20
68.3950652443
 30
0.0
 11
125.0749845861
 21
69.6450652443
 31
0.0
  0
LINE
  5
70
330
1F
100
AcDbEntity
  8
0
  6
Continuous
 62
     7
370
    25
100
AcDbLine
 10
120.5183602591
 20
69.6450652443
 30
0.0
 11
119.7966724226
 21
68.3950652443
 31
0.0
  0
LINE
  5
71
330
1F
100
AcDbEntity
  8
0
  6
Continuous
 62
     7
370
    25
100
AcDbLine
 10
119.7966724226
 20
49.8950652443
 30
0.0
 11
120.5183602591
 21
48.6450652443
 31
0.0
  0
LINE
  5
72
330
1F
100
AcDbEntity
  8
0
  6
Continuous
 62
     7
370
    25
100
AcDbLine
 10
120.5183602591
 20
48.6450652443
 30
0.0
 11
125.0749845861
 21
48.6450652443
 31
0.0
  0
LINE
  5
73
330
1F
100
AcDbEntity
  8
0
  6
Continuous
 62
     7
370
    25
100
AcDbLine
 10
125.0749845861
 20
69.6450652443
 30
0.0
 11
120.5183602591
 21
69.6450652443
 31
0.0
  0
LINE
  5
74
330
1F
100
AcDbEntity
  8
0
  6
Continuous
 62
     7
370
    25
100
AcDbLine
 10
145.2966724226
 20
69.1450652443
 30
0.0
 11
143.6786384339
 21
69.1450652443
 31
0.0
  0
LINE
  5
75
330
1F
100
AcDbEntity
  8
0
  6
Continuous
 62
     7
370
    25
100
AcDbLine
 10
143.6786384339
 20
49.1450652443
 30
0.0
 11
145.2966724226
 21
49.1450652443
 31
0.0
  0
ARC
  5
76
330
1F
100
AcDbEntity
  8
0
  6
Continuous
 62
     7
370
    25
100
AcDbCircle
 10
144.7966724226
 20
68.1450652443
 30
0.0
 40
1.500000000000014
100
AcDbArc
 50
138.1896851042
 51
180.0
  0
ARC
  5
77
330
1F
100
AcDbEntity
  8
0
  6
Continuous
 62
     7
370
    25
100
AcDbCircle
 10
144.7966724226
 20
50.1450652443
 30
0.0
 40
1.50000000000001
100
AcDbArc
 50
180.0
 51
221.8103148958
  0
LINE
  5
78
330
1F
100
AcDbEntity
  8
0
  6
Continuous
 62
     7
370
    25
100
AcDbLine
 10
145.2966724226
 20
49.1450652443
 30
0.0
 11
145.7966724226
 21
49.6450652443
 31
0.0
  0
LINE
  5
79
330
1F
100
AcDbEntity
  8
0
  6
Continuous
 62
     7
370
    25
100
AcDbLine
 10
145.7966724226
 20
68.6450652443
 30
0.0
 11
145.2966724226
 21
69.1450652443
 31
0.0
  0
LINE
  5
7A
330
1F
100
AcDbEntity
  8
0
  6
Continuous
 62
     7
370
    25
100
AcDbLine
 10
126.0466724226
 20
49.1450652443
 30
0.0
 11
127.9147064114
 21
49.1450652443
 31
0.0
  0
LINE
  5
7B
330
1F
100
AcDbEntity
  8
0
  6
Continuous
 62
     7
370
    25
100
AcDbLine
 10
127.9147064114
 20
69.1450652443
 30
0.0
 11
126.0466724226
 21
69.1450652443
 31
0.0
  0
ARC
  5
7C
330
1F
100
AcDbEntity
  8
0
  6
Continuous
 62
     7
370
    25
100
AcDbCircle
 10
126.7966724226
 20
50.1450652443
 30
0.0
 40
1.50000000000001
100
AcDbArc
 50
318.1896851042
 51
0.0
  0
ARC
  5
7D
330
1F
100
AcDbEntity
  8
0
  6
Continuous
 62
     7
370
    25
100
AcDbCircle
 10
126.7966724226
 20
68.1450652443
 30
0.0
 40
1.500000000000014
100
AcDbArc
 50
0.0
 51
41.8103148958
  0
LINE
  5
7E
330
1F
100
AcDbEntity
  8
0
  6
Continuous
 62
     7
370
    25
100
AcDbLine
 10
126.0466724226
 20
69.1450652443
 30
0.0
 11
125.7966724226
 21
68.8950652443
 31
0.0
  0
LINE
  5
7F
330
1F
100
AcDbEntity
  8
0
  6
Continuous
 62
     7
370
    25
100
AcDbLine
 10
125.7966724226
 20
49.3950652443
 30
0.0
 11
126.0466724226
 21
49.1450652443
 31
0.0
  0
ARC
  5
80
330
1F
100
AcDbEntity
  8
0
  6
Continuous
 62
     7
370
    25
100
AcDbCircle
 10
142.7966724226
 20
68.1450652443
 30
0.0
 40
0.5
100
AcDbArc
 50
270.0
 51
0.0
  0
ARC
  5
81
330
1F
100
AcDbEntity
  8
0
  6
Continuous
 62
     7
370
    25
100
AcDbCircle
 10
128.7966724226
 20
50.1450652443
 30
0.0
 40
0.5
100
AcDbArc
 50
90.0
 51
180.0
  0
ARC
  5
82
330
1F
100
AcDbEntity
  8
0
  6
Continuous
 62
     7
370
    25
100
AcDbCircle
 10
128.7966724226
 20
68.1450652443
 30
0.0
 40
0.5
100
AcDbArc
 50
180.0
 51
270.0
  0
ARC
  5
83
330
1F
100
AcDbEntity
  8
0
  6
Continuous
 62
     7
370
    25
100
AcDbCircle
 10
142.7966724226
 20
50.1450652443
 30
0.0
 40
0.5
100
AcDbArc
 50
0.0
 51
90.0
  0
LINE
  5
84
330
1F
100
AcDbEntity
  8
0
  6
Continuous
 62
     7
370
    25
100
AcDbLine
 10
145.7966724226
 20
52.3781277443
 30
0.0
 11
153.591147965
 21
52.621705105
 31
0.0
  0
LINE
  5
85
330
1F
100
AcDbEntity
  8
0
  6
Continuous
 62
     7
370
    25
100
AcDbLine
 10
153.591147965
 20
65.6684253836
 30
0.0
 11
145.7966724226
 21
65.9120027443
 31
0.0
  0
LINE
  5
86
330
1F
100
AcDbEntity
  8
0
  6
Continuous
 62
     7
370
    25
100
AcDbLine
 10
129.4143515477
 20
67.6450652443
 30
0.0
 11
128.7966724226
 21
67.6450652443
 31
0.0
  0
LINE
  5
87
330
1F
100
AcDbEntity
  8
0
  6
Continuous
 62
     7
370
    25
100
AcDbLine
 10
142.7966724226
 20
67.6450652443
 30
0.0
 11
142.1966724226
 21
67.6450652443
 31
0.0
  0
LINE
  5
88
330
1F
100
AcDbEntity
  8
0
  6
Continuous
 62
     7
370
    25
100
AcDbLine
 10
128.7966724226
 20
50.6450652443
 30
0.0
 11
142.7966724226
 21
50.6450652443
 31
0.0
  0
LINE
  5
89
330
1F
100
AcDbEntity
  8
0
  6
Continuous
 62
     7
370
    25
100
AcDbLine
 10
153.591147965
 20
52.621705105
 30
0.0
 11
155.7966724226
 21
53.8950652443
 31
0.0
  0
LINE
  5
8A
330
1F
100
AcDbEntity
  8
0
  6
Continuous
 62
     7
370
    25
100
AcDbLine
 10
155.7966724226
 20
64.3950652443
 30
0.0
 11
153.591147965
 21
65.6684253836
 31
0.0
  0
SPLINE
  5
8B
330
1F
100
AcDbEntity
  8
0
  6
Continuous
 62
     7
370
    25
100
AcDbSpline
210
0.0
220
0.0
230
1.0
 70
     8
 71
     3
 72
    13
 73
     9
 74
     0
 42
0.00000001
 43
0.00000001
 40
0.0
 40
0.0
 40
0.0
 40
0.0
 40
0.1653483772704199
 40
0.3289780008660353
 40
0.5087155491987039
 40
0.6921965826657347
 40
0.8676459392758011
 40
1.0
 40
1.0
 40
1.0
 40
1.0
 10
142.1969720802354
 20
67.64831123965526
 30
0.0
 10
142.1533963735807
 20
67.65021506986731
 30
0.0
 10
142.0666979184871
 20
67.65400294046813
 30
0.0
 10
141.9423184105972
 20
67.70818297542644
 30
0.0
 10
141.8316232394658
 20
67.79298193040572
 30
0.0
 10
141.7487694638521
 20
67.90925493399702
 30
0.0
 10
141.702627285963
 20
68.03192819373722
 30
0.0
 10
141.6995551231888
 20
68.1128002359265
 30
0.0
 10
141.6982341072564
 20
68.14757484393934
 30
0.0
  0
SPLINE
  5
8C
330
1F
100
AcDbEntity
  8
0
  6
Continuous
 62
     7
370
    25
100
AcDbSpline
210
0.0
220
0.0
230
1.0
 70
     8
 71
     3
 72
    14
 73
    10
 74
     0
 42
0.00000001
 43
0.00000001
 40
0.0
 40
0.0
 40
0.0
 40
0.0
 40
0.0257257692796887
 40
0.2045790861422324
 40
0.3938576180206719
 40
0.5970327684438136
 40
0.7687243788229875
 40
0.9188671766720544
 40
1.0
 40
1.0
 40
1.0
 40
1.0
 10
129.8943141515633
 20
68.13267519363758
 30
0.0
 10
129.894873922248
 20
68.12622429387294
 30
0.0
 10
129.8993253877751
 20
68.074924790861
 30
0.0
 10
129.872040340215
 20
67.97639362965968
 30
0.0
 10
129.8081978033345
 20
67.84726174546638
 30
0.0
 10
129.7065644685933
 20
67.74387281142405
 30
0.0
 10
129.590421344338
 20
67.67942594322732
 30
0.0
 10
129.4920070151518
 20
67.64957634372071
 30
0.0
 10
129.4337563669449
 20
67.64817051882359
 30
0.0
 10
129.4133217032062
 20
67.64767734733225
 30
0.0
  0
LINE
  5
8D
330
1F
100
AcDbEntity
  8
0
  6
Continuous
 62
     7
370
    25
100
AcDbLine
 10
141.6966724226
 20
68.1450652443
 30
0.0
 11
141.6966724226
 21
69.6450652443
 31
0.0
  0
LINE
  5
8E
330
1F
100
AcDbEntity
  8
0
  6
Continuous
 62
     7
370
    25
100
AcDbLine
 10
129.8966724226
 20
69.6450652443
 30
0.0
 11
129.8966724226
 21
68.1337945044
 31
0.0
  0
LINE
  5
8F
330
1F
100
AcDbEntity
  8
0
  6
Continuous
 62
     7
370
    25
100
AcDbLine
 10
143.2466724226
 20
77.6450652443
 30
0.0
 11
141.2966724226
 21
85.6450652443
 31
0.0
  0
LINE
  5
90
330
1F
100
AcDbEntity
  8
0
  6
Continuous
 62
     7
370
    25
100
AcDbLine
 10
142.7966724226
 20
69.6450652443
 30
0.0
 11
143.2466724226
 21
77.6450652443
 31
0.0
  0
LINE
  5
91
330
1F
100
AcDbEntity
  8
0
  6
Continuous
 62
     7
370
    25
100
AcDbLine
 10
128.7260157968
 20
70.9011830356
 30
0.0
 11
128.7966724226
 21
69.6450652443
 31
0.0
  0
LINE
  5
92
330
1F
100
AcDbEntity
  8
0
  6
Continuous
 62
     7
370
    25
100
AcDbLine
 10
130.2966724226
 20
85.6450652443
 30
0.0
 11
130.0426955823
 21
84.6031089764
 31
0.0
  0
LINE
  5
93
330
1F
100
AcDbEntity
  8
0
  6
Continuous
 62
     7
370
    25
100
AcDbLine
 10
119.0749845861
 20
54.6729292893
 30
0.0
 11
108.5152085322
 21
54.6729292893
 31
0.0
  0
SPLINE
  5
94
330
1F
100
AcDbEntity
  8
0
  6
Continuous
 62
     7
370
    25
100
AcDbSpline
210
0.0
220
0.0
230
1.0
 70
     8
 71
     3
 72
    22
 73
    18
 74
     0
 42
0.00000001
 43
0.00000001
 40
0.0
 40
0.0
 40
0.0
 40
0.0
 40
0.1030943261231017
 40
0.2060863399348692
 40
0.2692483176586212
 40
0.3323305108308089
 40
0.383998797618624
 40
0.4355610823842002
 40
0.497004693216938
 40
0.5421190929646695
 40
0.5872850973795216
 40
0.6461441508226765
 40
0.7051476750038707
 40
0.8007462423303093
 40
0.8968696567745014
 40
0.9929379302588247
 40
1.0
 40
1.0
 40
1.0
 40
1.0
 10
108.5152085322031
 20
54.67292928932631
 30
0.0
 10
108.1830765767132
 20
54.90387418294451
 30
0.0
 10
107.5191422783252
 20
55.36553477710358
 30
0.0
 10
106.7144891566428
 20
56.05341313952605
 30
0.0
 10
106.0888084682138
 20
56.70056123701539
 30
0.0
 10
105.6597667959448
 20
57.25347650000204
 30
0.0
 10
105.3313359080195
 20
57.81951552638478
 30
0.0
 10
105.097417940285
 20
58.4249837035386
 30
0.0
 10
105.0043214341842
 20
59.04596789701598
 30
0.0
 10
105.0576366945438
 20
59.64231059245689
 30
0.0
 10
105.2141703657047
 20
60.2089472823771
 30
0.0
 10
105.4978005859759
 20
60.78643993560608
 30
0.0
 10
105.9798503533434
 20
61.47355012191935
 30
0.0
 10
106.6540854784469
 20
62.19478477131299
 30
0.0
 10
107.5197624191991
 20
62.92182204710109
 30
0.0
 10
108.1570108512797
 20
63.37530630217798
 30
0.0
 10
108.4922521694581
 20
63.60169851100331
 30
0.0
 10
108.5152085322031
 20
63.61720119932547
 30
0.0
  0
LINE
  5
95
330
1F
100
AcDbEntity
  8
0
  6
Continuous
 62
     7
370
    25
100
AcDbLine
 10
108.5152085322
 20
63.6172011993
 30
0.0
 11
119.0749845861
 21
63.6172011993
 31
0.0
  0
SPLINE
  5
96
330
1F
100
AcDbEntity
  8
0
  6
Continuous
 62
     7
370
    25
100
AcDbSpline
210
0.0
220
0.0
230
1.0
 70
     8
 71
     3
 72
    14
 73
    10
 74
     0
 42
0.00000001
 43
0.00000001
 40
0.0
 40
0.0
 40
0.0
 40
0.0
 40
0.1398770721431952
 40
0.2802644202987035
 40
0.4307410145400788
 40
0.5812056740670991
 40
0.7356355360611129
 40
0.8901010649031568
 40
1.0
 40
1.0
 40
1.0
 40
1.0
 10
119.0749845861138
 20
63.61720119932547
 30
0.0
 10
119.1694591360336
 20
63.20636600056659
 30
0.0
 10
119.358752882039
 20
62.38319686316437
 30
0.0
 10
119.5532041377661
 20
61.09869242021418
 30
0.0
 10
119.6585035503477
 20
59.77194824932814
 30
0.0
 10
119.6550886521486
 20
58.3982130226551
 30
0.0
 10
119.5333071364739
 20
57.01816942937939
 30
0.0
 10
119.3311194080338
 20
55.77126306957636
 30
0.0
 10
119.1501961730412
 20
54.99544469730176
 30
0.0
 10
119.0749845861141
 20
54.67292928932599
 30
0.0
  0
LINE
  5
97
330
1F
100
AcDbEntity
  8
0
  6
Continuous
 62
     7
370
    25
100
AcDbLine
 10
119.7966724226
 20
68.3950652443
 30
0.0
 11
119.7966724226
 21
49.8950652443
 31
0.0
  0
LINE
  5
98
330
1F
100
AcDbEntity
  8
0
  6
Continuous
 62
     7
370
    25
100
AcDbLine
 10
119.0749845861
 20
53.1538918859
 30
0.0
 11
119.0749845861
 21
54.6729292893
 31
0.0
  0
LINE
  5
99
330
1F
100
AcDbEntity
  8
0
  6
Continuous
 62
     7
370
    25
100
AcDbLine
 10
119.0749845861
 20
63.6172011993
 30
0.0
 11
119.0749845861
 21
65.1362386028
 31
0.0
  0
SPLINE
  5
9A
330
1F
100
AcDbEntity
  8
0
  6
Continuous
 62
     7
370
    25
100
AcDbSpline
210
0.0
220
0.0
230
1.0
 70
     8
 71
     3
 72
    13
 73
     9
 74
     0
 42
0.00000001
 43
0.00000001
 40
0.0
 40
0.0
 40
0.0
 40
0.0
 40
0.1560946016369933
 40
0.3121477071956414
 40
0.4719957467881129
 40
0.6318375672398525
 40
0.8152147947534314
 40
0.9999999999999999
 40
0.9999999999999999
 40
0.9999999999999999
 40
0.9999999999999999
 10
119.0749845861138
 20
69.60837455777788
 30
0.0
 10
119.1795304359642
 20
69.37903685542734
 30
0.0
 10
119.3885943432703
 20
68.92042241769865
 30
0.0
 10
119.58551780237
 20
68.2153342047521
 30
0.0
 10
119.6711982759072
 20
67.49912547102821
 30
0.0
 10
119.6270963364676
 20
66.74079052360831
 30
0.0
 10
119.4407403977736
 20
65.94929692350573
 30
0.0
 10
119.1972136329207
 20
65.40794814333198
 30
0.0
 10
119.0749845861138
 20
65.13623860277829
 30
0.0
  0
LINE
  5
9B
330
1F
100
AcDbEntity
  8
0
  6
Continuous
 62
     7
370
    25
100
AcDbLine
 10
119.0749845861
 20
69.6083745578
 30
0.0
 11
119.0749845861
 21
69.6450652443
 31
0.0
  0
LINE
  5
9C
330
1F
100
AcDbEntity
  8
0
  6
Continuous
 62
     7
370
    25
100
AcDbLine
 10
119.0749845861
 20
48.6450652443
 30
0.0
 11
119.0749845861
 21
48.6817559309
 31
0.0
  0
SPLINE
  5
9D
330
1F
100
AcDbEntity
  8
0
  6
Continuous
 62
     7
370
    25
100
AcDbSpline
210
0.0
220
0.0
230
1.0
 70
     8
 71
     3
 72
    13
 73
     9
 74
     0
 42
0.00000001
 43
0.00000001
 40
0.0
 40
0.0
 40
0.0
 40
0.0
 40
0.1560946016369933
 40
0.3121477071956412
 40
0.4719957467881127
 40
0.6318375672398522
 40
0.8152147947534314
 40
0.9999999999999999
 40
0.9999999999999999
 40
0.9999999999999999
 40
0.9999999999999999
 10
119.0749845861138
 20
53.15389188587349
 30
0.0
 10
119.1795304359642
 20
52.92455418352296
 30
0.0
 10
119.3885943432703
 20
52.46593974579427
 30
0.0
 10
119.58551780237
 20
51.76085153284773
 30
0.0
 10
119.6711982759072
 20
51.04464279912386
 30
0.0
 10
119.6270963364676
 20
50.28630785170396
 30
0.0
 10
119.4407403977736
 20
49.49481425160138
 30
0.0
 10
119.1972136329207
 20
48.95346547142764
 30
0.0
 10
119.0749845861138
 20
48.68175593087397
 30
0.0
  0
LINE
  5
9E
330
1F
100
AcDbEntity
  8
0
  6
Continuous
 62
     7
370
    25
100
AcDbLine
 10
108.5152085322
 20
54.6729292893
 30
0.0
 11
108.5152085322
 21
53.1538918859
 31
0.0
  0
SPLINE
  5
9F
330
1F
100
AcDbEntity
  8
0
  6
Continuous
 62
     7
370
    25
100
AcDbSpline
210
0.0
220
0.0
230
1.0
 70
     8
 71
     3
 72
    22
 73
    18
 74
     0
 42
0.00000001
 43
0.00000001
 40
0.0
 40
0.0
 40
0.0
 40
0.0
 40
0.0886448200637557
 40
0.177336235894876
 40
0.2657042856716869
 40
0.3178354022311217
 40
0.3699039806172352
 40
0.4227749210969924
 40
0.4755197313119366
 40
0.5223974882658291
 40
0.5693104164564463
 40
0.6221702960482695
 40
0.675142943385844
 40
0.7399080221121809
 40
0.8049319894362854
 40
0.8699018717152494
 40
1.0
 40
1.0
 40
1.0
 40
1.0
 10
108.5152085322031
 20
48.68175593087397
 30
0.0
 10
108.2289761362173
 20
48.78057003344453
 30
0.0
 10
107.6563608874211
 20
48.9782501797925
 30
0.0
 10
106.8483381981599
 20
49.30852972753682
 30
0.0
 10
106.2092572121865
 20
49.62627141345506
 30
0.0
 10
105.7350563722589
 20
49.92097597192753
 30
0.0
 10
105.4048489951106
 20
50.18216899730939
 30
0.0
 10
105.1569620809118
 20
50.46707856027965
 30
0.0
 10
105.023721935381
 20
50.7611337614588
 30
0.0
 10
105.0238988777955
 20
51.05056862429238
 30
0.0
 10
105.1349020186894
 20
51.33454003461009
 30
0.0
 10
105.3632431218834
 20
51.61342752453381
 30
0.0
 10
105.710734187363
 20
51.90046848068214
 30
0.0
 10
106.1596418690881
 20
52.18123226327199
 30
0.0
 10
106.6986731250627
 20
52.45257389585998
 30
0.0
 10
107.4705436738376
 20
52.78698935264607
 30
0.0
 10
108.0972408334768
 20
53.00709513451168
 30
0.0
 10
108.5152085322031
 20
53.15389188587349
 30
0.0
  0
LINE
  5
A0
330
1F
100
AcDbEntity
  8
0
  6
Continuous
 62
     7
370
    25
100
AcDbLine
 10
108.5152085322
 20
48.6817559309
 30
0.0
 11
108.5152085322
 21
48.6450652443
 31
0.0
  0
LINE
  5
A1
330
1F
100
AcDbEntity
  8
0
  6
Continuous
 62
     7
370
    25
100
AcDbLine
 10
108.5152085322
 20
69.6450652443
 30
0.0
 11
108.5152085322
 21
69.6083745578
 31
0.0
  0
SPLINE
  5
A2
330
1F
100
AcDbEntity
  8
0
  6
Continuous
 62
     7
370
    25
100
AcDbSpline
210
0.0
220
0.0
230
1.0
 70
     8
 71
     3
 72
    22
 73
    18
 74
     0
 42
0.00000001
 43
0.00000001
 40
0.0
 40
0.0
 40
0.0
 40
0.0
 40
0.0886448200637559
 40
0.1773362358948762
 40
0.2657042856716874
 40
0.3178354022311219
 40
0.3699039806172354
 40
0.4227749210969925
 40
0.4755197313119366
 40
0.5223974882658289
 40
0.5693104164564464
 40
0.6221702960482693
 40
0.6751429433858442
 40
0.739908022112181
 40
0.8049319894362859
 40
0.8699018717152501
 40
1.0
 40
1.0
 40
1.0
 40
1.0
 10
108.5152085322031
 20
65.13623860277829
 30
0.0
 10
108.2289761362173
 20
65.23505270534885
 30
0.0
 10
107.6563608874211
 20
65.43273285169683
 30
0.0
 10
106.8483381981599
 20
65.76301239944115
 30
0.0
 10
106.2092572121866
 20
66.0807540853594
 30
0.0
 10
105.7350563722589
 20
66.37545864383188
 30
0.0
 10
105.4048489951106
 20
66.63665166921373
 30
0.0
 10
105.1569620809118
 20
66.921561232184
 30
0.0
 10
105.023721935381
 20
67.21561643336315
 30
0.0
 10
105.0238988777955
 20
67.50505129619674
 30
0.0
 10
105.1349020186894
 20
67.78902270651444
 30
0.0
 10
105.3632431218834
 20
68.06791019643818
 30
0.0
 10
105.710734187363
 20
68.35495115258651
 30
0.0
 10
106.1596418690881
 20
68.63571493517637
 30
0.0
 10
106.6986731250628
 20
68.90705656776436
 30
0.0
 10
107.4705436738376
 20
69.24147202455046
 30
0.0
 10
108.0972408334768
 20
69.46157780641607
 30
0.0
 10
108.5152085322031
 20
69.60837455777788
 30
0.0
  0
LINE
  5
A3
330
1F
100
AcDbEntity
  8
0
  6
Continuous
 62
     7
370
    25
100
AcDbLine
 10
108.5152085322
 20
65.1362386028
 30
0.0
 11
108.5152085322
 21
63.6172011993
 31
0.0
  0
LINE
  5
A4
330
1F
100
AcDbEntity
  8
0
  6
Continuous
 62
     7
370
    25
100
AcDbLine
 10
99.8927985922
 20
67.1726289799
 30
0.0
 11
99.8927985922
 21
51.1175015087
 31
0.0
  0
LINE
  5
A5
330
1F
100
AcDbEntity
  8
0
  6
Continuous
 62
     7
370
    25
100
AcDbLine
 10
119.0749845861
 20
65.1362386028
 30
0.0
 11
108.5152085322
 21
65.1362386028
 31
0.0
  0
LINE
  5
A6
330
1F
100
AcDbEntity
  8
0
  6
Continuous
 62
     7
370
    25
100
AcDbLine
 10
108.5152085322
 20
53.1538918859
 30
0.0
 11
119.0749845861
 21
53.1538918859
 31
0.0
  0
LINE
  5
A7
330
1F
100
AcDbEntity
  8
0
  6
Continuous
 62
     7
370
    25
100
AcDbLine
 10
108.5152085322
 20
69.6083745578
 30
0.0
 11
119.0749845861
 21
69.6083745578
 31
0.0
  0
LINE
  5
A8
330
1F
100
AcDbEntity
  8
0
  6
Continuous
 62
     7
370
    25
100
AcDbLine
 10
119.0749845861
 20
48.6817559309
 30
0.0
 11
108.5152085322
 21
48.6817559309
 31
0.0
  0
LINE
  5
A9
330
1F
100
AcDbEntity
  8
0
  6
Continuous
 62
     7
370
    25
100
AcDbLine
 10
99.7966724226
 20
51.2909177092
 30
0.0
 11
99.7966724226
 21
66.9992127794
 31
0.0
  0
LINE
  5
AA
330
1F
100
AcDbEntity
  8
0
  6
Continuous
 62
     7
370
    25
100
AcDbLine
 10
125.0749845861
 20
48.6450652443
 30
0.0
 11
125.0749845861
 21
48.6817559309
 31
0.0
  0
SPLINE
  5
AB
330
1F
100
AcDbEntity
  8
0
  6
Continuous
 62
     7
370
    25
100
AcDbSpline
210
0.0
220
0.0
230
1.0
 70
     8
 71
     3
 72
    13
 73
     9
 74
     0
 42
0.00000001
 43
0.00000001
 40
0.0
 40
0.0
 40
0.0
 40
0.0
 40
0.1560946016369929
 40
0.3121477071956406
 40
0.4719957467881116
 40
0.6318375672398506
 40
0.8152147947534306
 40
1.0
 40
1.0
 40
1.0
 40
1.0
 10
125.0749845861138
 20
53.15389188587363
 30
0.0
 10
125.1795304359642
 20
52.9245541835231
 30
0.0
 10
125.3885943432703
 20
52.46593974579439
 30
0.0
 10
125.58551780237
 20
51.76085153284783
 30
0.0
 10
125.6711982759072
 20
51.04464279912393
 30
0.0
 10
125.6270963364676
 20
50.28630785170402
 30
0.0
 10
125.4407403977735
 20
49.4948142516014
 30
0.0
 10
125.1972136329207
 20
48.95346547142766
 30
0.0
 10
125.0749845861138
 20
48.68175593087397
 30
0.0
  0
LINE
  5
AC
330
1F
100
AcDbEntity
  8
0
  6
Continuous
 62
     7
370
    25
100
AcDbLine
 10
125.0749845861
 20
53.1538918859
 30
0.0
 11
125.0749845861
 21
54.6729292893
 31
0.0
  0
SPLINE
  5
AD
330
1F
100
AcDbEntity
  8
0
  6
Continuous
 62
     7
370
    25
100
AcDbSpline
210
0.0
220
0.0
230
1.0
 70
     8
 71
     3
 72
    14
 73
    10
 74
     0
 42
0.00000001
 43
0.00000001
 40
0.0
 40
0.0
 40
0.0
 40
0.0
 40
0.1378112084178204
 40
0.2761084666007194
 40
0.4263630367413825
 40
0.5766050274707357
 40
0.730800079132035
 40
0.885030206770378
 40
1.0
 40
1.0
 40
1.0
 40
1.0
 10
125.0749845861138
 20
63.61720119932562
 30
0.0
 10
125.1681528574292
 20
63.21245722186056
 30
0.0
 10
125.3548179975442
 20
62.40154176536925
 30
0.0
 10
125.5491882980882
 20
61.13042925548375
 30
0.0
 10
125.6568795268271
 20
59.81155052089245
 30
0.0
 10
125.6568914677709
 20
58.43986344372441
 30
0.0
 10
125.5387179240024
 20
57.06160365716151
 30
0.0
 10
125.3373249274613
 20
55.80049262816986
 30
0.0
 10
125.1534947176877
 20
55.0103731823846
 30
0.0
 10
125.0749845861138
 20
54.67292928932643
 30
0.0
  0
LINE
  5
AE
330
1F
100
AcDbEntity
  8
0
  6
Continuous
 62
     7
370
    25
100
AcDbLine
 10
125.0749845861
 20
63.6172011993
 30
0.0
 11
125.0749845861
 21
65.1362386028
 31
0.0
  0
SPLINE
  5
AF
330
1F
100
AcDbEntity
  8
0
  6
Continuous
 62
     7
370
    25
100
AcDbSpline
210
0.0
220
0.0
230
1.0
 70
     8
 71
     3
 72
    13
 73
     9
 74
     0
 42
0.00000001
 43
0.00000001
 40
0.0
 40
0.0
 40
0.0
 40
0.0
 40
0.1560946016369959
 40
0.3121477071956467
 40
0.4719957467881207
 40
0.631837567239863
 40
0.8152147947534367
 40
1.0
 40
1.0
 40
1.0
 40
1.0
 10
125.0749845861138
 20
69.60837455777788
 30
0.0
 10
125.1795304359642
 20
69.37903685542736
 30
0.0
 10
125.3885943432702
 20
68.92042241769866
 30
0.0
 10
125.5855178023699
 20
68.21533420475212
 30
0.0
 10
125.6711982759072
 20
67.49912547102824
 30
0.0
 10
125.6270963364676
 20
66.74079052360835
 30
0.0
 10
125.4407403977735
 20
65.9492969235058
 30
0.0
 10
125.1972136329207
 20
65.40794814333209
 30
0.0
 10
125.0749845861138
 20
65.13623860277842
 30
0.0
  0
LINE
  5
B0
330
1F
100
AcDbEntity
  8
0
  6
Continuous
 62
     7
370
    25
100
AcDbLine
 10
125.0749845861
 20
69.6083745578
 30
0.0
 11
125.0749845861
 21
69.6450652443
 31
0.0
  0
LINE
  5
B1
330
1F
100
AcDbEntity
  8
0
  6
Continuous
 62
     7
370
    25
100
AcDbLine
 10
119.7966724226
 20
59.1450652443
 30
0.0
 11
119.7966724226
 21
68.3950652443
 31
0.0
  0
LINE
  5
B2
330
1F
100
AcDbEntity
  8
0
  6
Continuous
 62
     7
370
    25
100
AcDbLine
 10
119.7966724226
 20
49.8950652443
 30
0.0
 11
119.7966724226
 21
59.1450652443
 31
0.0
  0
LINE
  5
B3
330
1F
100
AcDbEntity
  8
0
  6
Continuous
 62
     7
370
    25
100
AcDbLine
 10
120.5183602591
 20
69.6450652443
 30
0.0
 11
120.5183602591
 21
69.6083745578
 31
0.0
  0
SPLINE
  5
B4
330
1F
100
AcDbEntity
  8
0
  6
Continuous
 62
     7
370
    25
100
AcDbSpline
210
0.0
220
0.0
230
1.0
 70
     8
 71
     3
 72
    13
 73
     9
 74
     0
 42
0.00000001
 43
0.00000001
 40
0.0
 40
0.0
 40
0.0
 40
0.0
 40
0.1560946016369959
 40
0.3121477071956463
 40
0.4719957467881204
 40
0.6318375672398627
 40
0.8152147947534367
 40
1.0
 40
1.0
 40
1.0
 40
1.0
 10
120.5183602590879
 20
65.13623860277842
 30
0.0
 10
120.4138144092375
 20
65.36557630512895
 30
0.0
 10
120.2047505019314
 20
65.82419074285765
 30
0.0
 10
120.0078270428317
 20
66.5292789558042
 30
0.0
 10
119.9221465692945
 20
67.24548768952806
 30
0.0
 10
119.9662485087341
 20
68.00382263694794
 30
0.0
 10
120.1526044474282
 20
68.79531623705051
 30
0.0
 10
120.396131212281
 20
69.33666501722423
 30
0.0
 10
120.5183602590879
 20
69.60837455777789
 30
0.0
  0
LINE
  5
B5
330
1F
100
AcDbEntity
  8
0
  6
Continuous
 62
     7
370
    25
100
AcDbLine
 10
120.5183602591
 20
65.1362386028
 30
0.0
 11
120.5183602591
 21
63.6172011993
 31
0.0
  0
SPLINE
  5
B6
330
1F
100
AcDbEntity
  8
0
  6
Continuous
 62
     7
370
    25
100
AcDbSpline
210
0.0
220
0.0
230
1.0
 70
     8
 71
     3
 72
    14
 73
    10
 74
     0
 42
0.00000001
 43
0.00000001
 40
0.0
 40
0.0
 40
0.0
 40
0.0
 40
0.1151637259473397
 40
0.2655051613930186
 40
0.4158145907537728
 40
0.5699258496929774
 40
0.7240503276523451
 40
0.8617568937687804
 40
1.0
 40
1.0
 40
1.0
 40
1.0
 10
120.5183602590879
 20
54.67292928932643
 30
0.0
 10
120.4397188201466
 20
55.01094322414017
 30
0.0
 10
120.2584142664208
 20
55.79022023673741
 30
0.0
 10
120.0596158603083
 20
57.02852508757041
 30
0.0
 10
119.9384844759002
 20
58.39461230368928
 30
0.0
 10
119.9342207366035
 20
59.77801091295692
 30
0.0
 10
120.0423954604782
 20
61.11855441756527
 30
0.0
 10
120.2383952621469
 20
62.40072435562769
 30
0.0
 10
120.4249177057292
 20
63.211183648493
 30
0.0
 10
120.5183602590879
 20
63.61720119932562
 30
0.0
  0
LINE
  5
B7
330
1F
100
AcDbEntity
  8
0
  6
Continuous
 62
     7
370
    25
100
AcDbLine
 10
120.5183602591
 20
54.6729292893
 30
0.0
 11
120.5183602591
 21
53.1538918859
 31
0.0
  0
SPLINE
  5
B8
330
1F
100
AcDbEntity
  8
0
  6
Continuous
 62
     7
370
    25
100
AcDbSpline
210
0.0
220
0.0
230
1.0
 70
     8
 71
     3
 72
    13
 73
     9
 74
     0
 42
0.00000001
 43
0.00000001
 40
0.0
 40
0.0
 40
0.0
 40
0.0
 40
0.1560946016369932
 40
0.312147707195641
 40
0.4719957467881122
 40
0.6318375672398514
 40
0.815214794753431
 40
1.0
 40
1.0
 40
1.0
 40
1.0
 10
120.5183602590879
 20
48.68175593087397
 30
0.0
 10
120.4138144092375
 20
48.9110936332245
 30
0.0
 10
120.2047505019314
 20
49.36970807095322
 30
0.0
 10
120.0078270428317
 20
50.07479628389977
 30
0.0
 10
119.9221465692945
 20
50.79100501762367
 30
0.0
 10
119.9662485087341
 20
51.54933996504359
 30
0.0
 10
120.1526044474281
 20
52.34083356514619
 30
0.0
 10
120.396131212281
 20
52.88218234531994
 30
0.0
 10
120.5183602590879
 20
53.15389188587363
 30
0.0
  0
LINE
  5
B9
330
1F
100
AcDbEntity
  8
0
  6
Continuous
 62
     7
370
    25
100
AcDbLine
 10
120.5183602591
 20
48.6817559309
 30
0.0
 11
120.5183602591
 21
48.6450652443
 31
0.0
  0
LINE
  5
BA
330
1F
100
AcDbEntity
  8
0
  6
Continuous
 62
     7
370
    25
100
AcDbLine
 10
125.0749845861
 20
54.6729292893
 30
0.0
 11
120.5183602591
 21
54.6729292893
 31
0.0
  0
LINE
  5
BB
330
1F
100
AcDbEntity
  8
0
  6
Continuous
 62
     7
370
    25
100
AcDbLine
 10
120.5183602591
 20
63.6172011993
 30
0.0
 11
125.0749845861
 21
63.6172011993
 31
0.0
  0
LINE
  5
BC
330
1F
100
AcDbEntity
  8
0
  6
Continuous
 62
     7
370
    25
100
AcDbLine
 10
120.5183602591
 20
53.1538918859
 30
0.0
 11
125.0749845861
 21
53.1538918859
 31
0.0
  0
LINE
  5
BD
330
1F
100
AcDbEntity
  8
0
  6
Continuous
 62
     7
370
    25
100
AcDbLine
 10
125.0749845861
 20
65.1362386028
 30
0.0
 11
120.5183602591
 21
65.1362386028
 31
0.0
  0
LINE
  5
BE
330
1F
100
AcDbEntity
  8
0
  6
Continuous
 62
     7
370
    25
100
AcDbLine
 10
125.0749845861
 20
48.6817559309
 30
0.0
 11
120.5183602591
 21
48.6817559309
 31
0.0
  0
LINE
  5
BF
330
1F
100
AcDbEntity
  8
0
  6
Continuous
 62
     7
370
    25
100
AcDbLine
 10
120.5183602591
 20
69.6083745578
 30
0.0
 11
125.0749845861
 21
69.6083745578
 31
0.0
  0
LINE
  5
C0
330
1F
100
AcDbEntity
  8
0
  6
Continuous
 62
     7
370
    25
100
AcDbLine
 10
143.6786384339
 20
49.1450652443
 30
0.0
 11
143.6786384339
 21
69.1450652443
 31
0.0
  0
LINE
  5
C1
330
1F
100
AcDbEntity
  8
0
  6
Continuous
 62
     7
370
    25
100
AcDbLine
 10
145.2966724226
 20
49.1450652443
 30
0.0
 11
145.2966724226
 21
69.1450652443
 31
0.0
  0
SPLINE
  5
C2
330
1F
100
AcDbEntity
  8
0
  6
Continuous
 62
     7
370
    25
100
AcDbSpline
210
0.0
220
0.0
230
1.0
 70
     8
 71
     3
 72
     8
 73
     4
 74
     0
 42
0.00000001
 43
0.00000001
 40
0.0
 40
0.0
 40
0.0
 40
0.0
 40
1.0
 40
1.0
 40
1.0
 40
1.0
 10
143.3938735472548
 20
53.74537539283003
 30
0.0
 10
143.3260371296787
 20
53.71401245181925
 30
0.0
 10
143.2966724226009
 20
53.6805442911697
 30
0.0
 10
143.2966724226009
 20
53.64506524432593
 30
0.0
  0
SPLINE
  5
C3
330
1F
100
AcDbEntity
  8
0
  6
Continuous
 62
     7
370
    25
100
AcDbSpline
210
0.0
220
0.0
230
1.0
 70
     8
 71
     3
 72
    12
 73
     8
 74
     0
 42
0.00000001
 43
0.00000001
 40
0.0
 40
0.0
 40
0.0
 40
0.0
 40
0.5000000000000001
 40
0.5000000000000001
 40
0.75
 40
0.75
 40
1.0
 40
1.0
 40
1.0
 40
1.0
 10
143.3938735472548
 20
53.74537539283003
 30
0.0
 10
143.4617433072646
 20
53.77675374911213
 30
0.0
 10
143.5377778585183
 20
53.91046226961068
 30
0.0
 10
143.5844224568953
 20
54.18848837927646
 30
0.0
 10
143.588861453418
 20
54.29533456328041
 30
0.0
 10
143.5731308396251
 20
54.52221603733616
 30
0.0
 10
143.5532504096828
 20
54.64238500964078
 30
0.0
 10
143.5257584897029
 20
54.76383465445102
 30
0.0
  0
SPLINE
  5
C4
330
1F
100
AcDbEntity
  8
0
  6
Continuous
 62
     7
370
    25
100
AcDbSpline
210
0.0
220
0.0
230
1.0
 70
     8
 71
     3
 72
    12
 73
     8
 74
     0
 42
0.00000001
 43
0.00000001
 40
0.0
 40
0.0
 40
0.0
 40
0.0
 40
0.5
 40
0.5
 40
0.75
 40
0.75
 40
1.0
 40
1.0
 40
1.0
 40
1.0
 10
143.2966724226009
 20
59.14506524432593
 30
0.0
 10
143.2966724226009
 20
58.41110822216871
 30
0.0
 10
143.2921150276016
 20
57.67812977780591
 30
0.0
 10
143.3192986919809
 20
56.5813056648595
 30
0.0
 10
143.3347483628981
 20
56.21615807628907
 30
0.0
 10
143.3976119644299
 20
55.48737006242501
 30
0.0
 10
143.4446418875983
 20
55.1221793070267
 30
0.0
 10
143.5257584897029
 20
54.76383465445102
 30
0.0
  0
SPLINE
  5
C5
330
1F
100
AcDbEntity
  8
0
  6
Continuous
 62
     7
370
    25
100
AcDbSpline
210
0.0
220
0.0
230
1.0
 70
     8
 71
     3
 72
    12
 73
     8
 74
     0
 42
0.00000001
 43
0.00000001
 40
0.0
 40
0.0
 40
0.0
 40
0.0
 40
0.25
 40
0.25
 40
0.5
 40
0.5
 40
1.0
 40
1.0
 40
1.0
 40
1.0
 10
143.5257584897029
 20
63.52629583420083
 30
0.0
 10
143.4446418875983
 20
63.16795118162516
 30
0.0
 10
143.3976119644299
 20
62.80276042622683
 30
0.0
 10
143.3347483628981
 20
62.07397241236279
 30
0.0
 10
143.3192986919809
 20
61.70882482379236
 30
0.0
 10
143.2921150276016
 20
60.61200071084595
 30
0.0
 10
143.2966724226009
 20
59.87902226648315
 30
0.0
 10
143.2966724226009
 20
59.14506524432593
 30
0.0
  0
SPLINE
  5
C6
330
1F
100
AcDbEntity
  8
0
  6
Continuous
 62
     7
370
    25
100
AcDbSpline
210
0.0
220
0.0
230
1.0
 70
     8
 71
     3
 72
    14
 73
    10
 74
     0
 42
0.00000001
 43
0.00000001
 40
0.0
 40
0.0
 40
0.0
 40
0.0
 40
0.25
 40
0.25
 40
0.5
 40
0.5
 40
0.75
 40
0.75
 40
1.0
 40
1.0
 40
1.0
 40
1.0
 10
143.5257584897029
 20
63.52629583420083
 30
0.0
 10
143.5532794774479
 20
63.64787389018655
 30
0.0
 10
143.5731993992844
 20
63.76839862721167
 30
0.0
 10
143.5888664411024
 20
63.99537488631977
 30
0.0
 10
143.5843746092901
 20
64.10234486388596
 30
0.0
 10
143.5531182640065
 20
64.28781041566569
 30
0.0
 10
143.5267456806248
 20
64.36669567678452
 30
0.0
 10
143.4639091294804
 20
64.48733346795761
 30
0.0
 10
143.4278695506204
 20
64.52903765840023
 30
0.0
 10
143.3938735472548
 20
64.54475509582183
 30
0.0
  0
SPLINE
  5
C7
330
1F
100
AcDbEntity
  8
0
  6
Continuous
 62
     7
370
    25
100
AcDbSpline
210
0.0
220
0.0
230
1.0
 70
     8
 71
     3
 72
     8
 73
     4
 74
     0
 42
0.00000001
 43
0.00000001
 40
0.0
 40
0.0
 40
0.0
 40
0.0
 40
1.0
 40
1.0
 40
1.0
 40
1.0
 10
143.2966724226009
 20
64.64506524432592
 30
0.0
 10
143.2966724226009
 20
64.60958619748216
 30
0.0
 10
143.3260371296787
 20
64.57611803683261
 30
0.0
 10
143.3938735472548
 20
64.54475509582181
 30
0.0
  0
LINE
  5
C8
330
1F
100
AcDbEntity
  8
0
  6
Continuous
 62
     7
370
    25
100
AcDbLine
 10
143.2966724226
 20
64.6450652443
 30
0.0
 11
143.2966724226
 21
68.1450652443
 31
0.0
  0
LINE
  5
C9
330
1F
100
AcDbEntity
  8
0
  6
Continuous
 62
     7
370
    25
100
AcDbLine
 10
143.2966724226
 20
50.1450652443
 30
0.0
 11
143.2966724226
 21
53.6450652443
 31
0.0
  0
LINE
  5
CA
330
1F
100
AcDbEntity
  8
0
  6
Continuous
 62
     7
370
    25
100
AcDbLine
 10
145.7966724226
 20
68.6450652443
 30
0.0
 11
145.7966724226
 21
49.6450652443
 31
0.0
  0
LINE
  5
CB
330
1F
100
AcDbEntity
  8
0
  6
Continuous
 62
     7
370
    25
100
AcDbLine
 10
127.9147064114
 20
59.1450652443
 30
0.0
 11
127.9147064114
 21
49.1450652443
 31
0.0
  0
LINE
  5
CC
330
1F
100
AcDbEntity
  8
0
  6
Continuous
 62
     7
370
    25
100
AcDbLine
 10
127.9147064114
 20
69.1450652443
 30
0.0
 11
127.9147064114
 21
59.1450652443
 31
0.0
  0
LINE
  5
CD
330
1F
100
AcDbEntity
  8
0
  6
Continuous
 62
     7
370
    25
100
AcDbLine
 10
126.0466724226
 20
59.1450652443
 30
0.0
 11
126.0466724226
 21
49.1450652443
 31
0.0
  0
LINE
  5
CE
330
1F
100
AcDbEntity
  8
0
  6
Continuous
 62
     7
370
    25
100
AcDbLine
 10
126.0466724226
 20
69.1450652443
 30
0.0
 11
126.0466724226
 21
59.1450652443
 31
0.0
  0
LINE
  5
CF
330
1F
100
AcDbEntity
  8
0
  6
Continuous
 62
     7
370
    25
100
AcDbLine
 10
128.2966724226
 20
68.1450652443
 30
0.0
 11
128.2966724226
 21
64.6450652443
 31
0.0
  0
SPLINE
  5
D0
330
1F
100
AcDbEntity
  8
0
  6
Continuous
 62
     7
370
    25
100
AcDbSpline
210
0.0
220
0.0
230
1.0
 70
     8
 71
     3
 72
     8
 73
     4
 74
     0
 42
0.00000001
 43
0.00000001
 40
0.0
 40
0.0
 40
0.0
 40
0.0
 40
1.0
 40
1.0
 40
1.0
 40
1.0
 10
128.1994712979469
 20
64.54475509582181
 30
0.0
 10
128.267307715523
 20
64.57611803683261
 30
0.0
 10
128.2966724226008
 20
64.60958619748216
 30
0.0
 10
128.2966724226008
 20
64.64506524432592
 30
0.0
  0
SPLINE
  5
D1
330
1F
100
AcDbEntity
  8
0
  6
Continuous
 62
     7
370
    25
100
AcDbSpline
210
0.0
220
0.0
230
1.0
 70
     8
 71
     3
 72
    12
 73
     8
 74
     0
 42
0.00000001
 43
0.00000001
 40
0.0
 40
0.0
 40
0.0
 40
0.0
 40
0.4999999999999992
 40
0.4999999999999992
 40
0.7499999999999996
 40
0.7499999999999996
 40
1.0
 40
1.0
 40
1.0
 40
1.0
 10
128.1994712979469
 20
64.54475509582181
 30
0.0
 10
128.1316015379371
 20
64.51337673953974
 30
0.0
 10
128.0555669866834
 20
64.37966821904118
 30
0.0
 10
128.0089223883064
 20
64.1016421093754
 30
0.0
 10
128.0044833917837
 20
63.99479592537144
 30
0.0
 10
128.0202140055765
 20
63.76791445131569
 30
0.0
 10
128.0400944355189
 20
63.64774547901107
 30
0.0
 10
128.0675863554988
 20
63.52629583420083
 30
0.0
  0
SPLINE
  5
D2
330
1F
100
AcDbEntity
  8
0
  6
Continuous
 62
     7
370
    25
100
AcDbSpline
210
0.0
220
0.0
230
1.0
 70
     8
 71
     3
 72
    12
 73
     8
 74
     0
 42
0.00000001
 43
0.00000001
 40
0.0
 40
0.0
 40
0.0
 40
0.0
 40
0.4999999999999998
 40
0.4999999999999998
 40
0.7499999999999999
 40
0.7499999999999999
 40
1.0
 40
1.0
 40
1.0
 40
1.0
 10
128.2966724226008
 20
59.14506524432591
 30
0.0
 10
128.2966724226008
 20
59.87902226648313
 30
0.0
 10
128.3012298176001
 20
60.61200071084594
 30
0.0
 10
128.2740461532208
 20
61.70882482379236
 30
0.0
 10
128.2585964823036
 20
62.07397241236279
 30
0.0
 10
128.1957328807718
 20
62.80276042622683
 30
0.0
 10
128.1487029576034
 20
63.16795118162516
 30
0.0
 10
128.0675863554988
 20
63.52629583420083
 30
0.0
  0
SPLINE
  5
D3
330
1F
100
AcDbEntity
  8
0
  6
Continuous
 62
     7
370
    25
100
AcDbSpline
210
0.0
220
0.0
230
1.0
 70
     8
 71
     3
 72
    12
 73
     8
 74
     0
 42
0.00000001
 43
0.00000001
 40
0.0
 40
0.0
 40
0.0
 40
0.0
 40
0.2500000000000001
 40
0.2500000000000001
 40
0.5000000000000002
 40
0.5000000000000002
 40
1.0
 40
1.0
 40
1.0
 40
1.0
 10
128.0675863554988
 20
54.76383465445102
 30
0.0
 10
128.1487029576034
 20
55.1221793070267
 30
0.0
 10
128.1957328807718
 20
55.48737006242501
 30
0.0
 10
128.2585964823036
 20
56.21615807628907
 30
0.0
 10
128.2740461532208
 20
56.5813056648595
 30
0.0
 10
128.3012298176001
 20
57.67812977780591
 30
0.0
 10
128.2966724226008
 20
58.41110822216871
 30
0.0
 10
128.2966724226008
 20
59.14506524432593
 30
0.0
  0
SPLINE
  5
D4
330
1F
100
AcDbEntity
  8
0
  6
Continuous
 62
     7
370
    25
100
AcDbSpline
210
0.0
220
0.0
230
1.0
 70
     8
 71
     3
 72
    14
 73
    10
 74
     0
 42
0.00000001
 43
0.00000001
 40
0.0
 40
0.0
 40
0.0
 40
0.0
 40
0.25
 40
0.25
 40
0.5
 40
0.5
 40
0.75
 40
0.75
 40
1.0
 40
1.0
 40
1.0
 40
1.0
 10
128.0675863554988
 20
54.76383465445102
 30
0.0
 10
128.0400653677537
 20
54.6422565984653
 30
0.0
 10
128.0201454459173
 20
54.52173186144018
 30
0.0
 10
128.0044784040992
 20
54.29475560233207
 30
0.0
 10
128.0089702359116
 20
54.1877856247659
 30
0.0
 10
128.0402265811952
 20
54.00232007298617
 30
0.0
 10
128.0665991645769
 20
53.92343481186734
 30
0.0
 10
128.1294357157212
 20
53.80279702069424
 30
0.0
 10
128.1654752945813
 20
53.76109283025163
 30
0.0
 10
128.1994712979469
 20
53.74537539283003
 30
0.0
  0
SPLINE
  5
D5
330
1F
100
AcDbEntity
  8
0
  6
Continuous
 62
     7
370
    25
100
AcDbSpline
210
0.0
220
0.0
230
1.0
 70
     8
 71
     3
 72
     8
 73
     4
 74
     0
 42
0.00000001
 43
0.00000001
 40
0.0
 40
0.0
 40
0.0
 40
0.0
 40
1.0
 40
1.0
 40
1.0
 40
1.0
 10
128.2966724226008
 20
53.64506524432593
 30
0.0
 10
128.2966724226008
 20
53.6805442911697
 30
0.0
 10
128.267307715523
 20
53.71401245181925
 30
0.0
 10
128.1994712979469
 20
53.74537539283003
 30
0.0
  0
LINE
  5
D6
330
1F
100
AcDbEntity
  8
0
  6
Continuous
 62
     7
370
    25
100
AcDbLine
 10
128.2966724226
 20
53.6450652443
 30
0.0
 11
128.2966724226
 21
50.1450652443
 31
0.0
  0
LINE
  5
D7
330
1F
100
AcDbEntity
  8
0
  6
Continuous
 62
     7
370
    25
100
AcDbLine
 10
125.7966724226
 20
59.1450652443
 30
0.0
 11
125.7966724226
 21
68.8950652443
 31
0.0
  0
LINE
  5
D8
330
1F
100
AcDbEntity
  8
0
  6
Continuous
 62
     7
370
    25
100
AcDbLine
 10
125.7966724226
 20
49.3950652443
 30
0.0
 11
125.7966724226
 21
59.1450652443
 31
0.0
  0
SPLINE
  5
D9
330
1F
100
AcDbEntity
  8
0
  6
Continuous
 62
     7
370
    25
100
AcDbSpline
210
0.0
220
0.0
230
1.0
 70
     8
 71
     3
 72
    14
 73
    10
 74
     0
 42
0.00000001
 43
0.00000001
 40
0.0
 40
0.0
 40
0.0
 40
0.0
 40
0.2500000000000001
 40
0.2500000000000001
 40
0.5000000000000001
 40
0.5000000000000001
 40
0.7500000000000001
 40
0.7500000000000001
 40
1.0
 40
1.0
 40
1.0
 40
1.0
 10
128.7966724226008
 20
59.14506524432593
 30
0.0
 10
128.7966724226008
 20
58.76854853223896
 30
0.0
 10
128.7970816843205
 20
58.39201247460998
 30
0.0
 10
128.7937703362146
 20
57.63913557576141
 30
0.0
 10
128.79000685075
 20
57.26279676124606
 30
0.0
 10
128.7642335949702
 20
56.51098162253092
 30
0.0
 10
128.7423155002917
 20
56.13550096488191
 30
0.0
 10
128.6570978371065
 20
55.38649572561323
 30
0.0
 10
128.5937848509556
 20
55.01088781017179
 30
0.0
 10
128.4912243331314
 20
54.64506524432593
 30
0.0
  0
LINE
  5
DA
330
1F
100
AcDbEntity
  8
0
  6
Continuous
 62
     7
370
    25
100
AcDbLine
 10
128.4912243331
 20
54.6450652443
 30
0.0
 11
128.0675863555
 21
54.7638346545
 31
0.0
  0
LINE
  5
DB
330
1F
100
AcDbEntity
  8
0
  6
Continuous
 62
     7
370
    25
100
AcDbLine
 10
128.7966724226
 20
59.1450652443
 30
0.0
 11
128.2966724226
 21
59.1450652443
 31
0.0
  0
LINE
  5
DC
330
1F
100
AcDbEntity
  8
0
  6
Continuous
 62
     7
370
    25
100
AcDbLine
 10
143.2966724226
 20
59.1450652443
 30
0.0
 11
142.7966724226
 21
59.1450652443
 31
0.0
  0
SPLINE
  5
DD
330
1F
100
AcDbEntity
  8
0
  6
Continuous
 62
     7
370
    25
100
AcDbSpline
210
0.0
220
0.0
230
1.0
 70
     8
 71
     3
 72
    14
 73
    10
 74
     0
 42
0.00000001
 43
0.00000001
 40
0.0
 40
0.0
 40
0.0
 40
0.0
 40
0.2499999999999999
 40
0.2499999999999999
 40
0.4999999999999999
 40
0.4999999999999999
 40
0.7499999999999999
 40
0.7499999999999999
 40
1.0
 40
1.0
 40
1.0
 40
1.0
 10
142.7966724226009
 20
59.14506524432593
 30
0.0
 10
142.7966724226009
 20
59.52158195641289
 30
0.0
 10
142.7962631608812
 20
59.89811801404185
 30
0.0
 10
142.7995745089871
 20
60.65099491289044
 30
0.0
 10
142.8033379944517
 20
61.02733372740578
 30
0.0
 10
142.8291112502314
 20
61.77914886612093
 30
0.0
 10
142.85102934491
 20
62.15462952376993
 30
0.0
 10
142.9362470080952
 20
62.90363476303862
 30
0.0
 10
142.9995599942461
 20
63.27924267848007
 30
0.0
 10
143.1021205120702
 20
63.64506524432592
 30
0.0
  0
LINE
  5
DE
330
1F
100
AcDbEntity
  8
0
  6
Continuous
 62
     7
370
    25
100
AcDbLine
 10
143.5257584897
 20
63.5262958342
 30
0.0
 11
143.1021205121
 21
63.6450652443
 31
0.0
  0
LINE
  5
DF
330
1F
100
AcDbEntity
  8
0
  6
Continuous
 62
     7
370
    25
100
AcDbLine
 10
143.5257584897
 20
54.7638346545
 30
0.0
 11
143.1021205121
 21
54.6450652443
 31
0.0
  0
SPLINE
  5
E0
330
1F
100
AcDbEntity
  8
0
  6
Continuous
 62
     7
370
    25
100
AcDbSpline
210
0.0
220
0.0
230
1.0
 70
     8
 71
     3
 72
    14
 73
    10
 74
     0
 42
0.00000001
 43
0.00000001
 40
0.0
 40
0.0
 40
0.0
 40
0.0
 40
0.2500000000000002
 40
0.2500000000000002
 40
0.5000000000000003
 40
0.5000000000000003
 40
0.7500000000000002
 40
0.7500000000000002
 40
1.0
 40
1.0
 40
1.0
 40
1.0
 10
143.1021205120702
 20
54.64506524432593
 30
0.0
 10
142.9995599942461
 20
55.01088781017179
 30
0.0
 10
142.9362470080952
 20
55.38649572561323
 30
0.0
 10
142.85102934491
 20
56.13550096488191
 30
0.0
 10
142.8291112502314
 20
56.51098162253093
 30
0.0
 10
142.8033379944517
 20
57.26279676124607
 30
0.0
 10
142.7995745089871
 20
57.63913557576141
 30
0.0
 10
142.7962631608812
 20
58.39201247461
 30
0.0
 10
142.7966724226009
 20
58.76854853223897
 30
0.0
 10
142.7966724226009
 20
59.14506524432593
 30
0.0
  0
SPLINE
  5
E1
330
1F
100
AcDbEntity
  8
0
  6
Continuous
 62
     7
370
    25
100
AcDbSpline
210
0.0
220
0.0
230
1.0
 70
     8
 71
     3
 72
    14
 73
    10
 74
     0
 42
0.00000001
 43
0.00000001
 40
0.0
 40
0.0
 40
0.0
 40
0.0
 40
0.2500000000000001
 40
0.2500000000000001
 40
0.5000000000000001
 40
0.5000000000000001
 40
0.75
 40
0.75
 40
1.0
 40
1.0
 40
1.0
 40
1.0
 10
128.4912243331314
 20
63.64506524432592
 30
0.0
 10
128.5937848509556
 20
63.27924267848007
 30
0.0
 10
128.6570978371064
 20
62.90363476303862
 30
0.0
 10
128.7423155002917
 20
62.15462952376993
 30
0.0
 10
128.7642335949702
 20
61.77914886612093
 30
0.0
 10
128.79000685075
 20
61.02733372740578
 30
0.0
 10
128.7937703362146
 20
60.65099491289043
 30
0.0
 10
128.7970816843205
 20
59.89811801404184
 30
0.0
 10
128.7966724226008
 20
59.52158195641288
 30
0.0
 10
128.7966724226008
 20
59.14506524432592
 30
0.0
  0
LINE
  5
E2
330
1F
100
AcDbEntity
  8
0
  6
Continuous
 62
     7
370
    25
100
AcDbLine
 10
128.4912243331
 20
63.6450652443
 30
0.0
 11
128.0675863555
 21
63.5262958342
 31
0.0
  0
SPLINE
  5
E3
330
1F
100
AcDbEntity
  8
0
  6
Continuous
 62
     7
370
    25
100
AcDbSpline
210
0.0
220
0.0
230
1.0
 70
     8
 71
     3
 72
    14
 73
    10
 74
     0
 42
0.00000001
 43
0.00000001
 40
0.0
 40
0.0
 40
0.0
 40
0.0
 40
0.25
 40
0.25
 40
0.5
 40
0.5
 40
0.75
 40
0.75
 40
1.0
 40
1.0
 40
1.0
 40
1.0
 10
128.6670709230623
 20
54.14506524432593
 30
0.0
 10
128.6285954394407
 20
54.14506524432593
 30
0.0
 10
128.5875065179707
 20
54.15585181530914
 30
0.0
 10
128.5082236705301
 20
54.19878360237431
 30
0.0
 10
128.4709407694197
 20
54.23020111067918
 30
0.0
 10
128.4181350101079
 20
54.3215159562554
 30
0.0
 10
128.4061657500142
 20
54.38274643901965
 30
0.0
 10
128.4261675383864
 20
54.51360979967537
 30
0.0
 10
128.4556239939387
 20
54.58157391401296
 30
0.0
 10
128.4912243331314
 20
54.64506524432593
 30
0.0
  0
ARC
  5
E4
330
1F
100
AcDbEntity
  8
0
  6
Continuous
 62
     7
370
    25
100
AcDbCircle
 10
128.6756195066
 20
53.6616954336
 30
0.0
 40
0.4834453973191529
100
AcDbArc
 50
91.0131925738
 51
170.032425387
  0
SPLINE
  5
E5
330
1F
100
AcDbEntity
  8
0
  6
Continuous
 62
     7
370
    25
100
AcDbSpline
210
0.0
220
0.0
230
1.0
 70
     8
 71
     3
 72
    14
 73
    10
 74
     0
 42
0.00000001
 43
0.00000001
 40
0.0
 40
0.0
 40
0.0
 40
0.0
 40
0.25
 40
0.25
 40
0.5
 40
0.5
 40
0.75
 40
0.75
 40
1.0
 40
1.0
 40
1.0
 40
1.0
 10
142.9262739221394
 20
64.14506524432592
 30
0.0
 10
142.964749405761
 20
64.14506524432592
 30
0.0
 10
143.005838327231
 20
64.1342786733427
 30
0.0
 10
143.0851211746716
 20
64.09134688627756
 30
0.0
 10
143.122404075782
 20
64.05992937797268
 30
0.0
 10
143.1752098350938
 20
63.96861453239647
 30
0.0
 10
143.1871790951874
 20
63.9073840496322
 30
0.0
 10
143.1671773068153
 20
63.77652068897648
 30
0.0
 10
143.137720851263
 20
63.70855657463889
 30
0.0
 10
143.1021205120702
 20
63.64506524432592
 30
0.0
  0
ARC
  5
E6
330
1F
100
AcDbEntity
  8
0
  6
Continuous
 62
     7
370
    25
100
AcDbCircle
 10
142.9177253386
 20
64.628435055
 30
0.0
 40
0.4834453973192212
100
AcDbArc
 50
271.0131925738
 51
350.032425387
  0
ARC
  5
E7
330
1F
100
AcDbEntity
  8
0
  6
Continuous
 62
     7
370
    25
100
AcDbCircle
 10
142.9177253386
 20
53.6616954336
 30
0.0
 40
0.4834453973191858
100
AcDbArc
 50
9.967574613
 51
88.9868074262
  0
SPLINE
  5
E8
330
1F
100
AcDbEntity
  8
0
  6
Continuous
 62
     7
370
    25
100
AcDbSpline
210
0.0
220
0.0
230
1.0
 70
     8
 71
     3
 72
    16
 73
    12
 74
     0
 42
0.00000001
 43
0.00000001
 40
0.0
 40
0.0
 40
0.0
 40
0.0
 40
0.2499999999999999
 40
0.2499999999999999
 40
0.3750000000000003
 40
0.3750000000000003
 40
0.5000000000000007
 40
0.5000000000000007
 40
0.7500000000000003
 40
0.7500000000000003
 40
1.0
 40
1.0
 40
1.0
 40
1.0
 10
143.1021205120702
 20
54.64506524432593
 30
0.0
 10
143.1376744415189
 20
54.58165668334773
 30
0.0
 10
143.1669465827476
 20
54.51438938302691
 30
0.0
 10
143.1821591329685
 20
54.41595007188457
 30
0.0
 10
143.182219801142
 20
54.38347466552928
 30
0.0
 10
143.1720092166647
 20
54.32484945840308
 30
0.0
 10
143.1622258871394
 20
54.2992266468501
 30
0.0
 10
143.1230613386075
 20
54.23101780315464
 30
0.0
 10
143.0851882653342
 20
54.19885504798887
 30
0.0
 10
143.0061152923426
 20
54.15596682887298
 30
0.0
 10
142.9647281597518
 20
54.14506524432593
 30
0.0
 10
142.9262739221394
 20
54.14506524432593
 30
0.0
  0
SPLINE
  5
E9
330
1F
100
AcDbEntity
  8
0
  6
Continuous
 62
     7
370
    25
100
AcDbSpline
210
0.0
220
0.0
230
1.0
 70
     8
 71
     3
 72
    16
 73
    12
 74
     0
 42
0.00000001
 43
0.00000001
 40
0.0
 40
0.0
 40
0.0
 40
0.0
 40
0.2500000000000049
 40
0.2500000000000049
 40
0.3750000000000051
 40
0.3750000000000051
 40
0.5000000000000052
 40
0.5000000000000052
 40
0.7500000000000026
 40
0.7500000000000026
 40
1.0
 40
1.0
 40
1.0
 40
1.0
 10
128.4912243331314
 20
63.64506524432592
 30
0.0
 10
128.4556704036828
 20
63.70847380530412
 30
0.0
 10
128.4263982624541
 20
63.77574110562494
 30
0.0
 10
128.4111857122332
 20
63.87418041676727
 30
0.0
 10
128.4111250440597
 20
63.90665582312256
 30
0.0
 10
128.421335628537
 20
63.96528103024876
 30
0.0
 10
128.4311189580623
 20
63.99090384180175
 30
0.0
 10
128.4702835065942
 20
64.0591126854972
 30
0.0
 10
128.5081565798675
 20
64.09127544066298
 30
0.0
 10
128.5872295528591
 20
64.13416365977886
 30
0.0
 10
128.6286166854499
 20
64.14506524432592
 30
0.0
 10
128.6670709230623
 20
64.14506524432592
 30
0.0
  0
ARC
  5
EA
330
1F
100
AcDbEntity
  8
0
  6
Continuous
 62
     7
370
    25
100
AcDbCircle
 10
128.6756195066
 20
64.628435055
 30
0.0
 40
0.4834453973192003
100
AcDbArc
 50
189.967574613
 51
268.9868074262
  0
ELLIPSE
  5
EB
330
1F
100
AcDbEntity
  8
0
  6
Continuous
 62
     7
370
    25
100
AcDbEllipse
 10
132.5027289416
 20
58.6545989942
 30
0.0
 11
0.06784129479237322
 21
0.0
 31
0.0
210
0.0
220
0.0
230
1.0
 40
0.9533039403
 41
2.798568711307253
 42
4.712388980384703
  0
LINE
  5
EC
330
1F
100
AcDbEntity
  8
0
  6
Continuous
 62
     7
370
    25
100
AcDbLine
 10
132.6817792959
 20
59.3248170974
 30
0.0
 11
132.438839951
 21
58.6763510037
 31
0.0
  0
ELLIPSE
  5
ED
330
1F
100
AcDbEntity
  8
0
  6
Continuous
 62
     7
370
    25
100
AcDbEllipse
 10
132.7456682865
 20
59.3030650878
 30
0.0
 11
0.06784129479268586
 21
0.0
 31
0.0
210
0.0
220
0.0
230
1.0
 40
0.9533039403
 41
0.343023938557924
 42
2.79856871130925
  0
LINE
  5
EE
330
1F
100
AcDbEntity
  8
0
  6
Continuous
 62
     7
370
    25
100
AcDbLine
 10
133.0524966193
 20
58.6763510035
 30
0.0
 11
132.8095572772
 21
59.3248170971
 31
0.0
  0
ELLIPSE
  5
EF
330
1F
100
AcDbEntity
  8
0
  6
Continuous
 62
     7
370
    25
100
AcDbEllipse
 10
132.9886076286
 20
58.6545989942
 30
0.0
 11
-0.06784129479231638
 21
0.0
 31
0.0
210
0.0
220
0.0
230
1.0
 40
0.9533039403
 41
1.570796326794897
 42
3.48461659214925
  0
LINE
  5
F0
330
1F
100
AcDbEntity
  8
0
  6
Continuous
 62
     7
370
    25
100
AcDbLine
 10
132.5027289416
 20
58.5899256205
 30
0.0
 11
132.9886076286
 21
58.5899256205
 31
0.0
  0
LINE
  5
F1
330
1F
100
AcDbEntity
  8
0
  6
Continuous
 62
     7
370
    25
100
AcDbLine
 10
143.1021205121
 20
63.6450652443
 30
0.0
 11
128.4912243331
 21
63.6450652443
 31
0.0
  0
LINE
  5
F2
330
1F
100
AcDbEntity
  8
0
  6
Continuous
 62
     7
370
    25
100
AcDbLine
 10
128.6670709231
 20
64.1450652443
 30
0.0
 11
142.9262739221
 21
64.1450652443
 31
0.0
  0
LINE
  5
F3
330
1F
100
AcDbEntity
  8
0
  6
Continuous
 62
     7
370
    25
100
AcDbLine
 10
142.9262739221
 20
54.1450652443
 30
0.0
 11
128.6670709231
 21
54.1450652443
 31
0.0
  0
LINE
  5
F4
330
1F
100
AcDbEntity
  8
0
  6
Continuous
 62
     7
370
    25
100
AcDbLine
 10
128.4912243331
 20
54.6450652443
 30
0.0
 11
143.1021205121
 21
54.6450652443
 31
0.0
  0
ARC
  5
F5
330
1F
100
AcDbEntity
  8
0
  6
Continuous
 62
     7
370
    25
100
AcDbCircle
 10
139.6600385085
 20
58.3400191038
 30
0.0
 40
0.7112000000000971
100
AcDbArc
 50
200.9248324276
 51
315.0
  0
LINE
  5
F6
330
1F
100
AcDbEntity
  8
0
  6
Continuous
 62
     7
370
    25
100
AcDbLine
 10
140.5362211598
 20
58.0860191038
 30
0.0
 11
140.5362211598
 21
58.5940191038
 31
0.0
  0
LINE
  5
F7
330
1F
100
AcDbEntity
  8
0
  6
Continuous
 62
     7
370
    25
100
AcDbLine
 10
138.9957423095
 20
58.0860191038
 30
0.0
 11
140.5362211598
 21
58.0860191038
 31
0.0
  0
LINE
  5
F8
330
1F
100
AcDbEntity
  8
0
  6
Continuous
 62
     7
370
    25
100
AcDbLine
 10
140.5362211598
 20
58.5940191038
 30
0.0
 11
138.9957423095
 21
58.5940191038
 31
0.0
  0
LINE
  5
F9
330
1F
100
AcDbEntity
  8
0
  6
Continuous
 62
     7
370
    25
100
AcDbLine
 10
134.4152573802
 20
57.1166944448
 30
0.0
 11
135.0522723079
 21
58.3312321259
 31
0.0
  0
LINE
  5
FA
330
1F
100
AcDbEntity
  8
0
  6
Continuous
 62
     7
370
    25
100
AcDbLine
 10
130.4803287184
 20
58.3085205699
 30
0.0
 11
130.439064262
 21
58.3312321259
 31
0.0
  0
LINE
  5
FB
330
1F
100
AcDbEntity
  8
0
  6
Continuous
 62
     7
370
    25
100
AcDbLine
 10
130.439064262
 20
58.3312321259
 30
0.0
 11
131.0760791896
 21
57.1166944448
 31
0.0
  0
ELLIPSE
  5
FC
330
1F
100
AcDbEntity
  8
0
  6
Continuous
 62
     7
370
    25
100
AcDbEllipse
 10
132.7456682849
 20
61.1970709955
 30
0.0
 11
0.5215299537176463
 21
0.0
 31
0.0
210
0.0
220
0.0
230
1.0
 40
0.9533039403
 41
0.4357918987553194
 42
2.705800754834464
  0
LINE
  5
FD
330
1F
100
AcDbEntity
  8
0
  6
Continuous
 62
     7
370
    25
100
AcDbLine
 10
140.1629328513
 20
58.8429134466
 30
0.0
 11
140.5362211598
 21
59.2162017551
 31
0.0
  0
LINE
  5
FE
330
1F
100
AcDbEntity
  8
0
  6
Continuous
 62
     7
370
    25
100
AcDbLine
 10
135.0522723079
 20
58.3312321259
 30
0.0
 11
135.0189520524
 21
58.3121881821
 31
0.0
  0
ELLIPSE
  5
FF
330
1F
100
AcDbEntity
  8
0
  6
Continuous
 62
     7
370
    25
100
AcDbEllipse
 10
134.3545782815
 20
57.1456172568
 30
0.0
 11
0.06784129479237322
 21
0.0
 31
0.0
210
0.0
220
0.0
230
1.0
 40
0.9533039403
 41
3.962594650555555
 42
5.819537698174844
  0
ELLIPSE
  5
100
330
1F
100
AcDbEntity
  8
0
  6
Continuous
 62
     7
370
    25
100
AcDbEllipse
 10
132.7456682849
 20
55.4985383603
 30
0.0
 11
2.293035763987604
 21
-1.072919530997751E-12
 31
0.0
210
0.0
220
0.0
230
1.0
 40
0.9533039403
 41
0.8210019969645943
 42
2.320590656625124
  0
ELLIPSE
  5
101
330
1F
100
AcDbEntity
  8
0
  6
Continuous
 62
     7
370
    25
100
AcDbEllipse
 10
131.1367582883
 20
57.1456172568
 30
0.0
 11
0.06784129479237322
 21
0.0
 31
0.0
210
0.0
220
0.0
230
1.0
 40
0.9533039403
 41
3.605240262580861
 42
5.462183310226461
  0
LINE
  5
102
330
1F
100
AcDbEntity
  8
0
  6
Continuous
 62
     7
370
    25
100
AcDbLine
 10
132.2728825841
 20
61.4069433504
 30
0.0
 11
131.2653937112
 21
58.5896435542
 31
0.0
  0
LINE
  5
103
330
1F
100
AcDbEntity
  8
0
  6
Continuous
 62
     7
370
    25
100
AcDbLine
 10
137.4892171742
 20
58.8429134466
 30
0.0
 11
137.8625054827
 21
59.2162017551
 31
0.0
  0
ELLIPSE
  5
104
330
1F
100
AcDbEntity
  8
0
  6
Continuous
 62
     7
370
    25
100
AcDbEllipse
 10
134.7398775088
 20
58.755934159
 30
0.0
 11
0.5427303583402932
 21
3.623767952376511E-13
 31
0.0
210
0.0
220
0.0
230
1.0
 40
0.9533039404
 41
3.4701458241424
 42
5.25246918052791
  0
LINE
  5
105
330
1F
100
AcDbEntity
  8
0
  6
Continuous
 62
     7
370
    25
100
AcDbLine
 10
137.8625054827
 20
57.4638364525
 30
0.0
 11
137.4892171742
 21
57.837124761
 31
0.0
  0
ARC
  5
106
330
1F
100
AcDbEntity
  8
0
  6
Continuous
 62
     7
370
    25
100
AcDbCircle
 10
136.9863228314
 20
58.3400191038
 30
0.0
 40
1.239109388553836
100
AcDbArc
 50
45.0
 51
315.0
  0
ARC
  5
107
330
1F
100
AcDbEntity
  8
0
  6
Continuous
 62
     7
370
    25
100
AcDbCircle
 10
139.6600385085
 20
58.3400191038
 30
0.0
 40
1.239109388553836
100
AcDbArc
 50
45.0
 51
315.0
  0
LINE
  5
108
330
1F
100
AcDbEntity
  8
0
  6
Continuous
 62
     7
370
    25
100
AcDbLine
 10
134.2261776952
 20
58.5889868671
 30
0.0
 11
133.2184539858
 21
61.4069433504
 31
0.0
  0
LINE
  5
109
330
1F
100
AcDbEntity
  8
0
  6
Continuous
 62
     7
370
    25
100
AcDbLine
 10
140.5362211598
 20
57.4638364525
 30
0.0
 11
140.1629328513
 21
57.837124761
 31
0.0
  0
ELLIPSE
  5
10A
330
1F
100
AcDbEntity
  8
0
  6
Continuous
 62
     7
370
    25
100
AcDbEllipse
 10
130.7516938976
 20
58.7565908461
 30
0.0
 11
-0.5427303583406342
 21
3.552713678800501E-13
 31
0.0
210
0.0
220
0.0
230
1.0
 40
0.9533039403
 41
1.047197551196565
 42
2.813039483039311
  0
ARC
  5
10B
330
1F
100
AcDbEntity
  8
0
  6
Continuous
 62
     7
370
    25
100
AcDbCircle
 10
139.6600385085
 20
58.3400191038
 30
0.0
 40
0.7112000000000337
100
AcDbArc
 50
45.0
 51
159.0751675723
  0
ARC
  5
10C
330
1F
100
AcDbEntity
  8
0
  6
Continuous
 62
     7
370
    25
100
AcDbCircle
 10
136.9863228314
 20
58.3400191038
 30
0.0
 40
0.7111999999997926
100
AcDbArc
 50
45.0
 51
315.0
  0
ARC
  5
10D
330
1F
100
AcDbEntity
  8
0
  6
Continuous
 62
     7
370
    25
100
AcDbCircle
 10
142.7966724226
 20
53.6450652443
 30
0.0
 40
0.5
100
AcDbArc
 50
0.0
 51
90.0
  0
ARC
  5
10E
330
1F
100
AcDbEntity
  8
0
  6
Continuous
 62
     7
370
    25
100
AcDbCircle
 10
128.7966724226
 20
53.6450652443
 30
0.0
 40
0.5
100
AcDbArc
 50
90.0
 51
180.0
  0
ARC
  5
10F
330
1F
100
AcDbEntity
  8
0
  6
Continuous
 62
     7
370
    25
100
AcDbCircle
 10
142.7966724226
 20
64.6450652443
 30
0.0
 40
0.5
100
AcDbArc
 50
270.0
 51
0.0
  0
ARC
  5
110
330
1F
100
AcDbEntity
  8
0
  6
Continuous
 62
     7
370
    25
100
AcDbCircle
 10
128.7966724226
 20
64.6450652443
 30
0.0
 40
0.5
100
AcDbArc
 50
180.0
 51
270.0
  0
LWPOLYLINE
  5
111
330
1F
100
AcDbEntity
  8
0
  6
Continuous
 62
     7
370
    25
100
AcDbPolyline
 90
        9
 70
   128
 43
0.0
 10
142.7966724226
 20
64.3395096888
 10
142.8942175836
 20
64.3453808531
 10
142.9880141388
 20
64.3627687205
 10
143.0744575391
 20
64.391005085
 10
143.1502258132
 20
64.429004839
 10
143.2124072288
 20
64.4753076731
 10
143.2586121889
 20
64.5281341955
 10
143.2870650628
 20
64.5854543126
 10
143.2966724226
 20
64.6450652443
  0
LINE
  5
112
330
1F
100
AcDbEntity
  8
0
  6
Continuous
 62
     7
370
    25
100
AcDbLine
 10
142.7966724226
 20
64.1450652443
 30
0.0
 11
142.7966724226
 21
64.3395096888
 31
0.0
  0
LWPOLYLINE
  5
113
330
1F
100
AcDbEntity
  8
0
  6
Continuous
 62
     7
370
    25
100
AcDbPolyline
 90
        9
 70
   128
 43
0.0
 10
128.2966724226
 20
64.6450652443
 10
128.3062797824
 20
64.5854543126
 10
128.3347326563
 20
64.5281341955
 10
128.3809376164
 20
64.4753076731
 10
128.443119032
 20
64.429004839
 10
128.5188873061
 20
64.391005085
 10
128.6053307064
 20
64.3627687205
 10
128.6991272616
 20
64.3453808531
 10
128.7966724226
 20
64.3395096888
  0
LINE
  5
114
330
1F
100
AcDbEntity
  8
0
  6
Continuous
 62
     7
370
    25
100
AcDbLine
 10
128.7966724226
 20
64.1450652443
 30
0.0
 11
128.7966724226
 21
64.3395096888
 31
0.0
  0
LWPOLYLINE
  5
115
330
1F
100
AcDbEntity
  8
0
  6
Continuous
 62
     7
370
    25
100
AcDbPolyline
 90
        9
 70
   128
 43
0.0
 10
128.7966724226
 20
53.9506207999
 10
128.6991272616
 20
53.9447496356
 10
128.6053307064
 20
53.9273617681
 10
128.5188873061
 20
53.8991254036
 10
128.443119032
 20
53.8611256497
 10
128.3809376164
 20
53.8148228155
 10
128.3347326563
 20
53.7619962931
 10
128.3062797824
 20
53.7046761761
 10
128.2966724226
 20
53.6450652443
  0
LINE
  5
116
330
1F
100
AcDbEntity
  8
0
  6
Continuous
 62
     7
370
    25
100
AcDbLine
 10
128.7966724226
 20
53.9506207999
 30
0.0
 11
128.7966724226
 21
54.1450652443
 31
0.0
  0
LINE
  5
117
330
1F
100
AcDbEntity
  8
0
  6
Continuous
 62
     7
370
    25
100
AcDbLine
 10
142.7966724226
 20
53.9506207999
 30
0.0
 11
128.7966724226
 21
53.9506207999
 31
0.0
  0
LINE
  5
118
330
1F
100
AcDbEntity
  8
0
  6
Continuous
 62
     7
370
    25
100
AcDbLine
 10
142.7966724226
 20
53.9506207999
 30
0.0
 11
142.7966724226
 21
54.1450652443
 31
0.0
  0
LWPOLYLINE
  5
119
330
1F
100
AcDbEntity
  8
0
  6
Continuous
 62
     7
370
    25
100
AcDbPolyline
 90
        9
 70
   128
 43
0.0
 10
143.2966724226
 20
53.6450652443
 10
143.2870650628
 20
53.7046761761
 10
143.2586121889
 20
53.7619962931
 10
143.2124072288
 20
53.8148228155
 10
143.1502258132
 20
53.8611256497
 10
143.0744575391
 20
53.8991254036
 10
142.9880141388
 20
53.9273617681
 10
142.8942175836
 20
53.9447496356
 10
142.7966724226
 20
53.9506207999
  0
LINE
  5
11A
330
1F
100
AcDbEntity
  8
0
  6
Continuous
 62
     7
370
    25
100
AcDbLine
 10
128.7966724226
 20
64.3395096888
 30
0.0
 11
142.7966724226
 21
64.3395096888
 31
0.0
  0
LINE
  5
11B
330
1F
100
AcDbEntity
  8
0
  6
Continuous
 62
     7
370
    25
100
AcDbLine
 10
153.591147965
 20
59.1450652443
 30
0.0
 11
153.591147965
 21
52.621705105
 31
0.0
  0
LINE
  5
11C
330
1F
100
AcDbEntity
  8
0
  6
Continuous
 62
     7
370
    25
100
AcDbLine
 10
153.591147965
 20
65.6684253836
 30
0.0
 11
153.591147965
 21
59.1450652443
 31
0.0
  0
LINE
  5
11D
330
1F
100
AcDbEntity
  8
0
  6
Continuous
 62
     7
370
    25
100
AcDbLine
 10
155.7966724226
 20
64.3950652443
 30
0.0
 11
155.7966724226
 21
53.8950652443
 31
0.0
  0
SPLINE
  5
11E
330
1F
100
AcDbEntity
  8
0
  6
Continuous
 62
     7
370
    25
100
AcDbSpline
210
0.0
220
0.0
230
1.0
 70
    11
 71
     3
 72
    26
 73
    22
 74
     0
 42
0.00000001
 43
0.00000001
 40
0.0
 40
0.0
 40
0.0
 40
0.0
 40
0.125
 40
0.125
 40
0.1875
 40
0.1875
 40
0.25
 40
0.25
 40
0.3125
 40
0.3125
 40
0.375
 40
0.375
 40
0.5
 40
0.5
 40
0.625
 40
0.625
 40
0.75
 40
0.75
 40
0.875
 40
0.875
 40
1.0
 40
1.0
 40
1.0
 40
1.0
 10
136.3099913914492
 20
67.14506524432592
 30
0.0
 10
136.3099913914492
 20
67.28418427555474
 30
0.0
 10
136.2571954203003
 20
67.41991197853022
 30
0.0
 10
136.1157398304229
 20
67.572930715026
 30
0.0
 10
136.0591858940511
 20
67.61443361604655
 30
0.0
 10
135.9336417426077
 20
67.67163350984022
 30
0.0
 10
135.8644901294996
 20
67.68691749858455
 30
0.0
 10
135.7273317547562
 20
67.68669662482091
 30
0.0
 10
135.6582171719501
 20
67.67113656353325
 30
0.0
 10
135.5334574033189
 20
67.61393072903925
 30
0.0
 10
135.4768263149845
 20
67.57217930177228
 30
0.0
 10
135.3367126884616
 20
67.42033843348884
 30
0.0
 10
135.283392154515
 20
67.28428610622097
 30
0.0
 10
135.2833147959388
 20
67.00615341251762
 30
0.0
 10
135.3370031779605
 20
66.86935140249764
 30
0.0
 10
135.5236979922682
 20
66.66728259883257
 30
0.0
 10
135.6595792016318
 20
66.60311283914702
 30
0.0
 10
135.9352103356703
 20
66.60353389194803
 30
0.0
 10
136.0701853740839
 20
66.66780257437134
 30
0.0
 10
136.25603285115
 20
66.86908012559547
 30
0.0
 10
136.3099913914492
 20
67.0059462130971
 30
0.0
 10
136.3099913914492
 20
67.14506524432592
 30
0.0
  0
SPLINE
  5
11F
330
1F
100
AcDbEntity
  8
0
  6
Continuous
 62
     7
370
    25
100
AcDbSpline
210
0.0
220
0.0
230
1.0
 70
    11
 71
     3
 72
    38
 73
    34
 74
     0
 42
0.00000001
 43
0.00000001
 40
0.0
 40
0.0
 40
0.0
 40
0.0
 40
0.0625
 40
0.0625
 40
0.125
 40
0.125
 40
0.1874999999999999
 40
0.1874999999999999
 40
0.2499999999999999
 40
0.2499999999999999
 40
0.3125
 40
0.3125
 40
0.375
 40
0.375
 40
0.4375000000000001
 40
0.4375000000000001
 40
0.5000000000000001
 40
0.5000000000000001
 40
0.5625000000000001
 40
0.5625000000000001
 40
0.6250000000000001
 40
0.6250000000000001
 40
0.6875000000000001
 40
0.6875000000000001
 40
0.75
 40
0.75
 40
0.8125
 40
0.8125
 40
0.875
 40
0.875
 40
0.9375
 40
0.9375
 40
1.0
 40
1.0
 40
1.0
 40
1.0
 10
134.7966724226009
 20
67.1450652443259
 30
0.0
 10
134.7966724226009
 20
67.01267932941562
 30
0.0
 10
134.8228209737437
 20
66.88279200293692
 30
0.0
 10
134.9232866432015
 20
66.64071300835104
 30
0.0
 10
134.997571509598
 20
66.52993165429503
 30
0.0
 10
135.1817206893328
 20
66.34582437418926
 30
0.0
 10
135.293096311927
 20
66.27135570289326
 30
0.0
 10
135.5336448164609
 20
66.17152852676458
 30
0.0
 10
135.6654027124483
 20
66.14514060669126
 30
0.0
 10
135.9267914046122
 20
66.14499021300443
 30
0.0
 10
136.0579634752038
 20
66.17093003341448
 30
0.0
 10
136.3004011612036
 20
66.27129766583975
 30
0.0
 10
136.4104553293532
 20
66.34468656898498
 30
0.0
 10
136.596708646764
 20
66.53083603581453
 30
0.0
 10
136.6701349746572
 20
66.64087455321453
 30
0.0
 10
136.7704997222861
 20
66.8827572703032
 30
0.0
 10
136.7966209865823
 20
67.01403178881452
 30
0.0
 10
136.7967237040675
 20
67.27531243818704
 30
0.0
 10
136.7704800759738
 20
67.40712784169996
 30
0.0
 10
136.6708117191757
 20
67.64791575978144
 30
0.0
 10
136.5965309272071
 20
67.75924796117944
 30
0.0
 10
136.4123441867736
 20
67.94377815637444
 30
0.0
 10
136.301920612711
 20
68.0179644856482
 30
0.0
 10
136.059535897471
 20
68.11878574461836
 30
0.0
 10
135.9296117179046
 20
68.1449599739234
 30
0.0
 10
135.6653216083877
 20
68.14516988391031
 30
0.0
 10
135.5350878497257
 20
68.11908216154714
 30
0.0
 10
135.293195178555
 20
68.01893371756853
 30
0.0
 10
135.1821792531484
 20
67.94464742240338
 30
0.0
 10
134.9980115171684
 20
67.76075532296659
 30
0.0
 10
134.9234128456662
 20
67.64942517241256
 30
0.0
 10
134.8233620321211
 20
67.40893663260394
 30
0.0
 10
134.7966724226009
 20
67.27745115923622
 30
0.0
 10
134.7966724226009
 20
67.14506524432592
 30
0.0
  0
SPLINE
  5
120
330
1F
100
AcDbEntity
  8
0
  6
Continuous
 62
     7
370
    25
100
AcDbSpline
210
0.0
220
0.0
230
1.0
 70
     8
 71
     3
 72
    15
 73
    11
 74
     0
 42
0.00000001
 43
0.00000001
 40
0.0
 40
0.0
 40
0.0
 40
0.0
 40
0.0081667445812695
 40
0.3321939991490077
 40
0.4756279600585576
 40
0.68668309732849
 40
0.8457435502264812
 40
0.8967566214763186
 40
0.9909540928118028
 40
1.0
 40
1.0
 40
1.0
 40
1.0
 10
130.6976529090081
 20
86.49506524432593
 30
0.0
 10
130.6971653748652
 20
86.49506256798014
 30
0.0
 10
130.6773342273331
 20
86.49495370379341
 30
0.0
 10
130.6490534473238
 20
86.48540769152389
 30
0.0
 10
130.611224148835
 20
86.44804530826939
 30
0.0
 10
130.5846402522675
 20
86.40317979353468
 30
0.0
 10
130.5674704285125
 20
86.34530349395777
 30
0.0
 10
130.5596534322961
 20
86.29462745398587
 30
0.0
 10
130.5576577458602
 20
86.26593317446583
 30
0.0
 10
130.5575927819094
 20
86.24674634291036
 30
0.0
 10
130.5575870899427
 20
86.24506524432593
 30
0.0
  0
LINE
  5
121
330
1F
100
AcDbEntity
  8
0
  6
Continuous
 62
     7
370
    25
100
AcDbLine
 10
130.697652909
 20
86.4950652443
 30
0.0
 11
140.8956919362
 21
86.4950652443
 31
0.0
  0
SPLINE
  5
122
330
1F
100
AcDbEntity
  8
0
  6
Continuous
 62
     7
370
    25
100
AcDbSpline
210
0.0
220
0.0
230
1.0
 70
     8
 71
     3
 72
    15
 73
    11
 74
     0
 42
0.00000001
 43
0.00000001
 40
0.0
 40
0.0
 40
0.0
 40
0.0
 40
0.0090459071881971
 40
0.1032433785236875
 40
0.1542564497735192
 40
0.3133169026715104
 40
0.5243720399414423
 40
0.6678060008509901
 40
0.9918332554187292
 40
1.0
 40
1.0
 40
1.0
 40
1.0
 10
141.0357577552589
 20
86.24506524432593
 30
0.0
 10
141.0357520632923
 20
86.24674634291036
 30
0.0
 10
141.0356870993415
 20
86.2659331744659
 30
0.0
 10
141.0336914129056
 20
86.29462745398584
 30
0.0
 10
141.0258744166892
 20
86.34530349395779
 30
0.0
 10
141.0087045929342
 20
86.40317979353468
 30
0.0
 10
140.9821206963667
 20
86.44804530826939
 30
0.0
 10
140.9442913978778
 20
86.48540769152387
 30
0.0
 10
140.9160106178686
 20
86.49495370379354
 30
0.0
 10
140.8961794703365
 20
86.49506256798014
 30
0.0
 10
140.8956919361936
 20
86.49506524432593
 30
0.0
  0
LINE
  5
123
330
1F
100
AcDbEntity
  8
0
  6
Continuous
 62
     7
370
    25
100
AcDbLine
 10
141.0357577553
 20
86.2450652443
 30
0.0
 11
130.5575870899
 21
86.2450652443
 31
0.0
  0
LINE
  5
124
330
1F
100
AcDbEntity
  8
0
  6
Continuous
 62
     7
370
    25
100
AcDbLine
 10
130.5575870899
 20
86.2450652443
 30
0.0
 11
130.5575870899
 21
85.6450652443
 31
0.0
  0
LINE
  5
125
330
1F
100
AcDbEntity
  8
0
  6
Continuous
 62
     7
370
    25
100
AcDbLine
 10
141.0357577553
 20
85.6450652443
 30
0.0
 11
141.0357577553
 21
86.2450652443
 31
0.0
  0
LINE
  5
126
330
1F
100
AcDbEntity
  8
0
  6
Continuous
 62
     7
370
    25
100
AcDbLine
 10
130.5575870899
 20
85.6450652443
 30
0.0
 11
141.0357577553
 21
85.6450652443
 31
0.0
  0
LINE
  5
127
330
1F
100
AcDbEntity
  8
0
  6
Continuous
 62
     7
370
    25
100
AcDbLine
 10
130.3194468475
 20
86.2450652443
 30
0.0
 11
130.5575870899
 21
86.2450652443
 31
0.0
  0
SPLINE
  5
128
330
1F
100
AcDbEntity
  8
0
  6
Continuous
 62
     7
370
    25
100
AcDbSpline
210
0.0
220
0.0
230
1.0
 70
     8
 71
     3
 72
    15
 73
    11
 74
     0
 42
0.00000001
 43
0.00000001
 40
0.0
 40
0.0
 40
0.0
 40
0.0
 40
0.0089557228015919
 40
0.0999003359608148
 40
0.153163246058169
 40
0.3125636920784848
 40
0.5249666935694998
 40
0.6689893599352452
 40
0.9919152533810159
 40
1.0
 40
1.0
 40
1.0
 40
1.0
 10
130.3194468475492
 20
86.24506524432593
 30
0.0
 10
130.3194626031278
 20
86.24674636989883
 30
0.0
 10
130.3196383552844
 20
86.26549918452328
 30
0.0
 10
130.3250673713039
 20
86.29426141363075
 30
0.0
 10
130.3466028550112
 20
86.34514848709908
 30
0.0
 10
130.394308283276
 20
86.40328413723172
 30
0.0
 10
130.4666992282679
 20
86.44799201041515
 30
0.0
 10
130.5686183402857
 20
86.48527383387689
 30
0.0
 10
130.6439734317401
 20
86.49495298871454
 30
0.0
 10
130.6963730774639
 20
86.49506256791624
 30
0.0
 10
130.6976529090081
 20
86.49506524432593
 30
0.0
  0
LINE
  5
129
330
1F
100
AcDbEntity
  8
0
  6
Continuous
 62
     7
370
    25
100
AcDbLine
 10
141.0357577553
 20
86.2450652443
 30
0.0
 11
141.2738979977
 21
86.2450652443
 31
0.0
  0
SPLINE
  5
12A
330
1F
100
AcDbEntity
  8
0
  6
Continuous
 62
     7
370
    25
100
AcDbSpline
210
0.0
220
0.0
230
1.0
 70
     8
 71
     3
 72
    15
 73
    11
 74
     0
 42
0.00000001
 43
0.00000001
 40
0.0
 40
0.0
 40
0.0
 40
0.0
 40
0.0080847466189818
 40
0.3310106400647568
 40
0.4750333064304977
 40
0.6874363079215144
 40
0.846836753941831
 40
0.9000996640391853
 40
0.991044277198408
 40
1.0
 40
1.0
 40
1.0
 40
1.0
 10
140.8956919361936
 20
86.49506524432593
 30
0.0
 10
140.8969717677378
 20
86.49506256791624
 30
0.0
 10
140.9493714134616
 20
86.49495298871449
 30
0.0
 10
141.024726504916
 20
86.48527383387689
 30
0.0
 10
141.1266456169338
 20
86.44799201041515
 30
0.0
 10
141.1990365619257
 20
86.40328413723172
 30
0.0
 10
141.2467419901905
 20
86.34514848709908
 30
0.0
 10
141.2682774738978
 20
86.29426141363075
 30
0.0
 10
141.2737064899173
 20
86.2654991845233
 30
0.0
 10
141.2738822420739
 20
86.24674636989883
 30
0.0
 10
141.2738979976525
 20
86.24506524432593
 30
0.0
  0
LINE
  5
12B
330
1F
100
AcDbEntity
  8
0
  6
Continuous
 62
     7
370
    25
100
AcDbLine
 10
130.3194468475
 20
85.6450652443
 30
0.0
 11
130.3194468475
 21
86.2450652443
 31
0.0
  0
LINE
  5
12C
330
1F
100
AcDbEntity
  8
0
  6
Continuous
 62
     7
370
    25
100
AcDbLine
 10
130.5575870899
 20
85.6450652443
 30
0.0
 11
130.3194468475
 21
85.6450652443
 31
0.0
  0
LINE
  5
12D
330
1F
100
AcDbEntity
  8
0
  6
Continuous
 62
     7
370
    25
100
AcDbLine
 10
141.2738979977
 20
86.2450652443
 30
0.0
 11
141.2738979977
 21
85.6450652443
 31
0.0
  0
LINE
  5
12E
330
1F
100
AcDbEntity
  8
0
  6
Continuous
 62
     7
370
    25
100
AcDbLine
 10
141.2738979977
 20
85.6450652443
 30
0.0
 11
141.0357577553
 21
85.6450652443
 31
0.0
  0
LINE
  5
12F
330
1F
100
AcDbEntity
  8
0
  6
Continuous
 62
     7
370
    25
100
AcDbLine
 10
129.7966724226
 20
85.6450652443
 30
0.0
 11
129.7966724226
 21
86.2450652443
 31
0.0
  0
LINE
  5
130
330
1F
100
AcDbEntity
  8
0
  6
Continuous
 62
     7
370
    25
100
AcDbLine
 10
129.7966724226
 20
86.2450652443
 30
0.0
 11
130.0466724226
 21
86.2450652443
 31
0.0
  0
LINE
  5
131
330
1F
100
AcDbEntity
  8
0
  6
Continuous
 62
     7
370
    25
100
AcDbLine
 10
130.0466724226
 20
86.2450652443
 30
0.0
 11
130.0466724226
 21
85.6450652443
 31
0.0
  0
LINE
  5
132
330
1F
100
AcDbEntity
  8
0
  6
Continuous
 62
     7
370
    25
100
AcDbLine
 10
130.0466724226
 20
85.6450652443
 30
0.0
 11
129.7966724226
 21
85.6450652443
 31
0.0
  0
ARC
  5
133
330
1F
100
AcDbEntity
  8
0
  6
Continuous
 62
     7
370
    25
100
AcDbCircle
 10
130.0466724226
 20
86.2450652443
 30
0.0
 40
0.25
100
AcDbArc
 50
90.0
 51
180.0
  0
LINE
  5
134
330
1F
100
AcDbEntity
  8
0
  6
Continuous
 62
     7
370
    25
100
AcDbLine
 10
130.0466724226
 20
86.4950652443
 30
0.0
 11
130.0466724226
 21
86.2450652443
 31
0.0
  0
LINE
  5
135
330
1F
100
AcDbEntity
  8
0
  6
Continuous
 62
     7
370
    25
100
AcDbLine
 10
130.3194468475
 20
86.2450652443
 30
0.0
 11
130.0466724226
 21
86.2450652443
 31
0.0
  0
LINE
  5
136
330
1F
100
AcDbEntity
  8
0
  6
Continuous
 62
     7
370
    25
100
AcDbLine
 10
130.3194468475
 20
85.6450652443
 30
0.0
 11
130.0466724226
 21
85.6450652443
 31
0.0
  0
LINE
  5
137
330
1F
100
AcDbEntity
  8
0
  6
Continuous
 62
     7
370
    25
100
AcDbLine
 10
130.0466724226
 20
86.4950652443
 30
0.0
 11
130.697652909
 21
86.4950652443
 31
0.0
  0
LINE
  5
138
330
1F
100
AcDbEntity
  8
0
  6
Continuous
 62
     7
370
    25
100
AcDbLine
 10
141.5466724226
 20
86.2450652443
 30
0.0
 11
141.5466724226
 21
86.4950652443
 31
0.0
  0
LINE
  5
139
330
1F
100
AcDbEntity
  8
0
  6
Continuous
 62
     7
370
    25
100
AcDbLine
 10
141.5466724226
 20
86.2450652443
 30
0.0
 11
141.2738979977
 21
86.2450652443
 31
0.0
  0
LINE
  5
13A
330
1F
100
AcDbEntity
  8
0
  6
Continuous
 62
     7
370
    25
100
AcDbLine
 10
140.8956919362
 20
86.4950652443
 30
0.0
 11
141.5466724226
 21
86.4950652443
 31
0.0
  0
LINE
  5
13B
330
1F
100
AcDbEntity
  8
0
  6
Continuous
 62
     7
370
    25
100
AcDbLine
 10
141.5466724226
 20
85.6450652443
 30
0.0
 11
141.5466724226
 21
86.2450652443
 31
0.0
  0
LINE
  5
13C
330
1F
100
AcDbEntity
  8
0
  6
Continuous
 62
     7
370
    25
100
AcDbLine
 10
141.5466724226
 20
86.2450652443
 30
0.0
 11
141.7966724226
 21
86.2450652443
 31
0.0
  0
LINE
  5
13D
330
1F
100
AcDbEntity
  8
0
  6
Continuous
 62
     7
370
    25
100
AcDbLine
 10
141.7966724226
 20
86.2450652443
 30
0.0
 11
141.7966724226
 21
85.6450652443
 31
0.0
  0
LINE
  5
13E
330
1F
100
AcDbEntity
  8
0
  6
Continuous
 62
     7
370
    25
100
AcDbLine
 10
141.7966724226
 20
85.6450652443
 30
0.0
 11
141.5466724226
 21
85.6450652443
 31
0.0
  0
LINE
  5
13F
330
1F
100
AcDbEntity
  8
0
  6
Continuous
 62
     7
370
    25
100
AcDbLine
 10
141.5466724226
 20
85.6450652443
 30
0.0
 11
141.2738979977
 21
85.6450652443
 31
0.0
  0
ARC
  5
140
330
1F
100
AcDbEntity
  8
0
  6
Continuous
 62
     7
370
    25
100
AcDbCircle
 10
141.5466724226
 20
86.2450652443
 30
0.0
 40
0.2500000000000284
100
AcDbArc
 50
0.0
 51
90.0
  0
LINE
  5
141
330
1F
100
AcDbEntity
  8
0
  6
Continuous
 62
     7
370
    25
100
AcDbLine
 10
130.7966724226
 20
86.5050652443
 30
0.0
 11
140.7966724226
 21
86.5050652443
 31
0.0
  0
LINE
  5
142
330
1F
100
AcDbEntity
  8
0
  6
Continuous
 62
     7
370
    25
100
AcDbLine
 10
140.7966724226
 20
86.4950652443
 30
0.0
 11
140.7966724226
 21
86.5050652443
 31
0.0
  0
LINE
  5
143
330
1F
100
AcDbEntity
  8
0
  6
Continuous
 62
     7
370
    25
100
AcDbLine
 10
130.7966724226
 20
86.4950652443
 30
0.0
 11
130.7966724226
 21
86.5050652443
 31
0.0
  0
LINE
  5
144
330
1F
100
AcDbEntity
  8
0
  6
Continuous
 62
     7
370
    25
100
AcDbLine
 10
131.3221255385
 20
77.6450652443
 30
0.0
 11
143.2466724226
 21
77.6450652443
 31
0.0
  0
SPLINE
  5
145
330
1F
100
AcDbEntity
  8
0
  6
Continuous
 62
     7
370
    25
100
AcDbSpline
210
0.0
220
0.0
230
1.0
 70
     8
 71
     3
 72
     9
 73
     5
 74
     0
 42
0.00000001
 43
0.00000001
 40
0.0
 40
0.0
 40
0.0
 40
0.0
 40
0.4978401817595094
 40
1.0
 40
1.0
 40
1.0
 40
1.0
 10
132.0823362942805
 20
78.63980882229285
 30
0.0
 10
131.9460143859098
 20
78.48329763960025
 30
0.0
 10
131.6721877375889
 20
78.16891726528125
 30
0.0
 10
131.4391484864923
 20
77.82018471725496
 30
0.0
 10
131.3221255385187
 20
77.64506524432356
 30
0.0
  0
LINE
  5
146
330
1F
100
AcDbEntity
  8
0
  6
Continuous
 62
     7
370
    25
100
AcDbLine
 10
130.5728702482
 20
85.6450652443
 30
0.0
 11
128.8447315843
 21
78.6398088223
 31
0.0
  0
LINE
  5
147
330
1F
100
AcDbEntity
  8
0
  6
Continuous
 62
     7
370
    25
100
AcDbLine
 10
141.0357577553
 20
85.6450652443
 30
0.0
 11
130.5728702482
 21
85.6450652443
 31
0.0
  0
LINE
  5
148
330
1F
100
AcDbEntity
  8
0
  6
Continuous
 62
     7
370
    25
100
AcDbLine
 10
133.7966724226
 20
69.6450652443
 30
0.0
 11
142.7966724226
 21
69.6450652443
 31
0.0
  0
LINE
  5
149
330
1F
100
AcDbEntity
  8
0
  6
Continuous
 62
     7
370
    25
100
AcDbLine
 10
133.7966724226
 20
69.6828821681
 30
0.0
 11
133.7966724226
 21
69.6450652443
 31
0.0
  0
SPLINE
  5
14A
330
1F
100
AcDbEntity
  8
0
  6
Continuous
 62
     7
370
    25
100
AcDbSpline
210
0.0
220
0.0
230
1.0
 70
     8
 71
     3
 72
     9
 73
     5
 74
     0
 42
0.00000001
 43
0.00000001
 40
0.0
 40
0.0
 40
0.0
 40
0.0
 40
0.4875141023677128
 40
0.9999999999999999
 40
0.9999999999999999
 40
0.9999999999999999
 40
0.9999999999999999
 10
133.6407271721737
 20
69.64506524432598
 30
0.0
 10
133.6670337460962
 20
69.64679259029768
 30
0.0
 10
133.7209943880445
 20
69.65033576158916
 30
0.0
 10
133.7710299187392
 20
69.67185424753848
 30
0.0
 10
133.7966724226008
 20
69.6828821681259
 30
0.0
  0
SPLINE
  5
14B
330
1F
100
AcDbEntity
  8
0
  6
Continuous
 62
     7
370
    25
100
AcDbSpline
210
0.0
220
0.0
230
1.0
 70
     8
 71
     3
 72
    17
 73
    13
 74
     0
 42
0.00000001
 43
0.00000001
 40
0.0
 40
0.0
 40
0.0
 40
0.0
 40
0.3241697628029873
 40
0.5422758463620719
 40
0.689509052693928
 40
0.7894036290694505
 40
0.8577090008137825
 40
0.9049823971474137
 40
0.9551712229700868
 40
0.9753097783197817
 40
0.9919572060138848
 40
1.0
 40
1.0
 40
1.0
 40
1.0
 10
131.3221255385187
 20
77.64506524432356
 30
0.0
 10
131.4648408985359
 20
76.73245174171788
 30
0.0
 10
131.7035772074778
 20
75.20581873545653
 30
0.0
 10
132.0831644019295
 20
73.27904583317557
 30
0.0
 10
132.3922986102766
 20
71.9914103622428
 30
0.0
 10
132.6484121384767
 20
71.13225839552105
 30
0.0
 10
132.8627231413717
 20
70.55879050714366
 30
0.0
 10
133.0659573623996
 20
70.13725835311368
 30
0.0
 10
133.2505026269422
 20
69.85676581031827
 30
0.0
 10
133.4365737133103
 20
69.70121714173759
 30
0.0
 10
133.5517843125662
 20
69.6506065425401
 30
0.0
 10
133.6188731180391
 20
69.64642679073546
 30
0.0
 10
133.6407271721737
 20
69.64506524432598
 30
0.0
  0
SPLINE
  5
14C
330
1F
100
AcDbEntity
  8
0
  6
Continuous
 62
     7
370
    25
100
AcDbSpline
210
0.0
220
0.0
230
1.0
 70
     8
 71
     3
 72
    14
 73
    10
 74
     0
 42
0.00000001
 43
0.00000001
 40
0.0
 40
0.0
 40
0.0
 40
0.0
 40
0.1576095309202822
 40
0.3152382602707094
 40
0.4726926441579498
 40
0.6301650083177254
 40
0.7907313191165901
 40
0.9513050385928076
 40
1.0
 40
1.0
 40
1.0
 40
1.0
 10
129.2966724226008
 20
69.64506524432592
 30
0.0
 10
129.2301014078188
 20
69.85856703280332
 30
0.0
 10
129.0969512692339
 20
70.28559661642883
 30
0.0
 10
128.7683843074832
 20
70.87084369528515
 30
0.0
 10
128.3549946667512
 20
71.39299823610756
 30
0.0
 10
127.8593197478065
 20
71.84197636352744
 30
0.0
 10
127.293030042522
 20
72.20125809533381
 30
0.0
 10
126.816779386129
 20
72.405824274435
 30
0.0
 10
126.5365848179362
 20
72.4866188227863
 30
0.0
 10
126.4713860331632
 20
72.50541899583308
 30
0.0
  0
LINE
  5
14D
330
1F
100
AcDbEntity
  8
0
  6
Continuous
 62
     7
370
    25
100
AcDbLine
 10
126.4713860332
 20
72.5054189958
 30
0.0
 11
120.6916291833
 21
74.0740404363
 31
0.0
  0
SPLINE
  5
14E
330
1F
100
AcDbEntity
  8
0
  6
Continuous
 62
     7
370
    25
100
AcDbSpline
210
0.0
220
0.0
230
1.0
 70
     8
 71
     3
 72
    11
 73
     7
 74
     0
 42
0.00000001
 43
0.00000001
 40
0.0
 40
0.0
 40
0.0
 40
0.0
 40
0.2488466353289361
 40
0.4976946020535204
 40
0.7488461225871278
 40
1.0
 40
1.0
 40
1.0
 40
1.0
 10
113.6212355610642
 20
75.39724093730146
 30
0.0
 10
114.2156716102004
 20
75.32771656080783
 30
0.0
 10
115.4045468888638
 20
75.18866743584667
 30
0.0
 10
117.1792715595729
 20
74.88833869772138
 30
0.0
 10
118.9458522013153
 20
74.52642907946623
 30
0.0
 10
120.1097017023349
 20
74.22483712240168
 30
0.0
 10
120.6916291833079
 20
74.07404043631595
 30
0.0
  0
LINE
  5
14F
330
1F
100
AcDbEntity
  8
0
  6
Continuous
 62
     7
370
    25
100
AcDbLine
 10
113.6212355611
 20
75.3972409373
 30
0.0
 11
113.6212355611
 21
78.6398088223
 31
0.0
  0
LINE
  5
150
330
1F
100
AcDbEntity
  8
0
  6
Continuous
 62
     7
370
    25
100
AcDbLine
 10
113.6212355611
 20
78.6398088223
 30
0.0
 11
132.0823362943
 21
78.6398088223
 31
0.0
  0
LINE
  5
151
330
1F
100
AcDbEntity
  8
0
  6
Continuous
 62
     7
370
    25
100
AcDbLine
 10
133.6407271722
 20
69.6450652443
 30
0.0
 11
129.2966724226
 21
69.6450652443
 31
0.0
  0
LINE
  5
152
330
1F
100
AcDbEntity
  8
0
  6
Continuous
 62
     7
370
    25
100
AcDbLine
 10
133.7966724226
 20
69.6828821681
 30
0.0
 11
133.7898730647
 21
69.6450652443
 31
0.0
  0
LINE
  5
153
330
1F
100
AcDbEntity
  8
0
  6
Continuous
 62
     7
370
    25
100
AcDbLine
 10
133.7966724226
 20
69.6450652443
 30
0.0
 11
133.7898730647
 21
69.6450652443
 31
0.0
  0
LINE
  5
154
330
1F
100
AcDbEntity
  8
0
  6
Continuous
 62
     7
370
    25
100
AcDbLine
 10
133.7898730647
 20
69.6450652443
 30
0.0
 11
133.6407271722
 21
69.6450652443
 31
0.0
  0
LINE
  5
155
330
1F
100
AcDbEntity
  8
0
  6
Continuous
 62
     7
370
    25
100
AcDbLine
 10
95.7966724226
 20
87.6450652443
 30
0.0
 11
113.6212355611
 21
87.6450652443
 31
0.0
  0
LINE
  5
156
330
1F
100
AcDbEntity
  8
0
  6
Continuous
 62
     7
370
    25
100
AcDbLine
 10
113.6212355611
 20
87.6450652443
 30
0.0
 11
113.6212355611
 21
78.6398088223
 31
0.0
  0
LINE
  5
157
330
1F
100
AcDbEntity
  8
0
  6
Continuous
 62
     7
370
    25
100
AcDbLine
 10
108.9050045648
 20
75.6450652443
 30
0.0
 11
100.7966724226
 21
75.6450652443
 31
0.0
  0
ARC
  5
158
330
1F
100
AcDbEntity
  8
0
  6
Continuous
 62
     7
370
    25
100
AcDbCircle
 10
100.7966724226
 20
80.6450652443
 30
0.0
 40
5.0
100
AcDbArc
 50
180.0
 51
270.0
  0
LINE
  5
159
330
1F
100
AcDbEntity
  8
0
  6
Continuous
 62
     7
370
    25
100
AcDbLine
 10
95.7966724226
 20
80.6450652443
 30
0.0
 11
95.7966724226
 21
87.6450652443
 31
0.0
  0
ARC
  5
15A
330
1F
100
AcDbEntity
  8
0
  6
Continuous
 62
     7
370
    25
100
AcDbCircle
 10
108.9050045648
 20
30.6449359901
 30
0.0
 40
45.00012925418375
100
AcDbArc
 50
83.9840777705
 51
90.0
  0
LINE
  5
15B
330
1F
100
AcDbEntity
  8
0
  6
Continuous
 62
     7
370
    25
100
AcDbLine
 10
113.6212355611
 20
87.6450652443
 30
0.0
 11
115.7966724226
 21
87.6450652443
 31
0.0
  0
LINE
  5
15C
330
1F
100
AcDbEntity
  8
0
  6
Continuous
 62
     7
370
    25
100
AcDbLine
 10
115.7966724226
 20
87.6450652443
 30
0.0
 11
115.7966724226
 21
85.6640207677
 31
0.0
  0
ARC
  5
15D
330
1F
100
AcDbEntity
  8
0
  6
Continuous
 62
     7
370
    25
100
AcDbCircle
 10
121.7966724226
 20
85.6640207677
 30
0.0
 40
6.000000000000003
100
AcDbArc
 50
180.0
 51
275.5801667845
  0
ARC
  5
15E
330
1F
100
AcDbEntity
  8
0
  6
Continuous
 62
     7
370
    25
100
AcDbCircle
 10
121.4077188583
 20
89.6450652443
 30
0.0
 40
10.00000000000846
100
AcDbArc
 50
275.5801667845
 51
336.4218215217
  0
LINE
  5
15F
330
1F
100
AcDbEntity
  8
0
  6
Continuous
 62
     7
370
    25
100
AcDbLine
 10
129.2966724226
 20
69.6450652443
 30
0.0
 11
128.7966724226
 21
69.6450652443
 31
0.0
  0
LINE
  5
160
330
1F
100
AcDbEntity
  8
0
  6
Continuous
 62
     7
370
    25
100
AcDbLine
 10
130.5575870899
 20
85.6450652443
 30
0.0
 11
130.5728702482
 21
85.6450652443
 31
0.0
  0
LINE
  5
161
330
1F
100
AcDbEntity
  8
0
  6
Continuous
 62
     7
370
    25
100
AcDbLine
 10
142.7966724226
 20
64.3395096888
 30
0.0
 11
142.7966724226
 21
67.6450652443
 31
0.0
  0
LINE
  5
162
330
1F
100
AcDbEntity
  8
0
  6
Continuous
 62
     7
370
    25
100
AcDbLine
 10
128.7966724226
 20
53.9506207999
 30
0.0
 11
128.7966724226
 21
50.6450652443
 31
0.0
  0
LINE
  5
163
330
1F
100
AcDbEntity
  8
0
  6
Continuous
 62
     7
370
    25
100
AcDbLine
 10
128.7966724226
 20
67.6450652443
 30
0.0
 11
128.7966724226
 21
64.3395096888
 31
0.0
  0
LINE
  5
164
330
1F
100
AcDbEntity
  8
0
  6
Continuous
 62
     7
370
    25
100
AcDbLine
 10
142.7966724226
 20
50.6450652443
 30
0.0
 11
142.7966724226
 21
53.9506207999
 31
0.0
  0
SPLINE
  5
165
330
1F
100
AcDbEntity
  8
0
  6
Continuous
 62
     7
370
    25
100
AcDbSpline
210
0.0
220
0.0
230
1.0
 70
     8
 71
     3
 72
    32
 73
    28
 74
     0
 42
0.00000001
 43
0.00000001
 40
0.0
 40
0.0
 40
0.0
 40
0.0
 40
0.0401450235848357
 40
0.0814946510747366
 40
0.1230108374273918
 40
0.1655335881087852
 40
0.213102689944118
 40
0.2616869956899938
 40
0.3186512837064658
 40
0.3479268696243464
 40
0.3771976325562726
 40
0.4187548087056146
 40
0.4612652019558922
 40
0.5031787598671369
 40
0.5464778200637773
 40
0.5837150053189375
 40
0.6216789039917089
 40
0.649608003238977
 40
0.6775412817538382
 40
0.7348752066615024
 40
0.7907587055724206
 40
0.8195305177303107
 40
0.848297267517085
 40
0.8930422512982819
 40
0.939068727387773
 40
0.9835429316127413
 40
1.0
 40
1.0
 40
1.0
 40
1.0
 10
142.1966724226008
 20
67.64506524432592
 30
0.0
 10
142.1853536122325
 20
67.63744656234367
 30
0.0
 10
142.1623763557962
 20
67.62198058986814
 30
0.0
 10
141.9776999232997
 20
67.49876131363122
 30
0.0
 10
141.6871201508534
 20
67.30873738057284
 30
0.0
 10
141.2761798619897
 20
67.04820263985384
 30
0.0
 10
140.7435479276151
 20
66.7263983455526
 30
0.0
 10
140.0551032037285
 20
66.34053871059528
 30
0.0
 10
139.3631472510197
 20
65.99637019425897
 30
0.0
 10
138.7172286420476
 20
65.72232830643745
 30
0.0
 10
138.1270426161835
 20
65.50524187828975
 30
0.0
 10
137.4191498684972
 20
65.2996927308018
 30
0.0
 10
136.589052865259
 20
65.15025504476897
 30
0.0
 10
135.7222580072133
 20
65.10267216010656
 30
0.0
 10
134.8931801946228
 20
65.1661404010944
 30
0.0
 10
134.1174379353765
 20
65.3163659053435
 30
0.0
 10
133.4741210686335
 20
65.50377501841622
 30
0.0
 10
132.9192696511254
 20
65.70570973994256
 30
0.0
 10
132.2825402257522
 20
65.97214120307589
 30
0.0
 10
131.5524394330787
 20
66.3315677604038
 30
0.0
 10
130.9135607565395
 20
66.69053421210629
 30
0.0
 10
130.4699518204507
 20
66.95567709995342
 30
0.0
 10
130.1150212947234
 20
67.17542541186714
 30
0.0
 10
129.7716993124066
 20
67.39597586901327
 30
0.0
 10
129.5150416019169
 20
67.56559206050851
 30
0.0
 10
129.3919634290297
 20
67.64822199693764
 30
0.0
 10
129.4095905876186
 20
67.63639679276315
 30
0.0
 10
129.4143515476631
 20
67.6332028960095
 30
0.0
  0
SPLINE
  5
166
330
1F
100
AcDbEntity
  8
0
  6
Continuous
 62
     7
370
    25
100
AcDbSpline
210
0.0
220
0.0
230
1.0
 70
     8
 71
     3
 72
    32
 73
    28
 74
     0
 42
0.00000001
 43
0.00000001
 40
0.0
 40
0.0
 40
0.0
 40
0.0
 40
0.0148242529817184
 40
0.0619113519340424
 40
0.1074433409988294
 40
0.1543372005590945
 40
0.1825994496035272
 40
0.2108660049327927
 40
0.269027097168617
 40
0.3246081692535049
 40
0.3531542158488447
 40
0.3816936824966581
 40
0.417991076432422
 40
0.4550305302041455
 40
0.4953234366006107
 40
0.5372325054966889
 40
0.5776056507021098
 40
0.6191602253044716
 40
0.6475101989612795
 40
0.6758664738346869
 40
0.7341705529935286
 40
0.7822942877570007
 40
0.8313630102073389
 40
0.8736471364191402
 40
0.9168682936064078
 40
0.9578490604636208
 40
1.0
 40
1.0
 40
1.0
 40
1.0
 10
129.9111788982164
 20
68.13388562081383
 30
0.0
 10
129.9072343602367
 20
68.13692527843341
 30
0.0
 10
129.8907605669614
 20
68.14961996955057
 30
0.0
 10
130.0015348040856
 20
68.0641670471293
 30
0.0
 10
130.2389679486664
 20
67.88392710474186
 30
0.0
 10
130.5517858641685
 20
67.65293126401198
 30
0.0
 10
130.8769082250193
 20
67.42163306612694
 30
0.0
 10
131.2829970599203
 20
67.14237718475019
 30
0.0
 10
131.8652226475552
 20
66.76568138454697
 30
0.0
 10
132.5410138238875
 20
66.38257159800233
 30
0.0
 10
133.1275866735675
 20
66.09875635620807
 30
0.0
 10
133.6428480241192
 20
65.88262086266991
 30
0.0
 10
134.2403474740654
 20
65.68175346616417
 30
0.0
 10
134.9464364430947
 20
65.52326692124487
 30
0.0
 10
135.7178100842455
 20
65.45317026332344
 30
0.0
 10
136.514659220518
 20
65.50147109305321
 30
0.0
 10
137.2905991838803
 20
65.66117319211305
 30
0.0
 10
137.9394948192517
 20
65.87727504168258
 30
0.0
 10
138.4805425403212
 20
66.10554197414854
 30
0.0
 10
139.0782448944995
 20
66.39575804159439
 30
0.0
 10
139.715591317534
 20
66.75965900270046
 30
0.0
 10
140.3549881286286
 20
67.17092626013877
 30
0.0
 10
140.8430315904712
 20
67.50951374187507
 30
0.0
 10
141.2248527142332
 20
67.78739743782181
 30
0.0
 10
141.4911719689648
 20
67.98740649681233
 30
0.0
 10
141.6639486055026
 20
68.11976164523911
 30
0.0
 10
141.6856626005647
 20
68.13655193055254
 30
0.0
 10
141.6966724226008
 20
68.14506524432592
 30
0.0
  0
LINE
  5
167
330
1F
100
AcDbEntity
  8
FORMAT
100
AcDbLine
 10
155.0988566877
 20
53.4921811419
 30
0.0
 11
146.2966724226
 21
53.2171128836
 31
0.0
  0
LINE
  5
168
330
1F
100
AcDbEntity
  8
FORMAT
100
AcDbLine
 10
155.0988566877
 20
64.7979493467
 30
0.0
 11
146.2966724226
 21
65.073017605
 31
0.0
  0
LINE
  5
169
330
1F
100
AcDbEntity
  8
FORMAT
100
AcDbLine
 10
146.2966724226
 20
65.8963777443
 30
0.0
 11
146.2966724226
 21
52.3937527443
 31
0.0
  0
LINE
  5
16A
330
1F
100
AcDbEntity
  8
FORMAT
  6
CENTERX2
370
    18
100
AcDbLine
 10
98.3807461778
 20
59.1450652443
 30
0.0
 11
157.3622846333
 21
59.1450652443
 31
0.0
  0
LINE
  5
16B
330
1F
100
AcDbEntity
  8
FORMAT
  6
CENTERX2
370
    18
100
AcDbLine
 10
135.7966724226
 20
49.1554840946
 30
0.0
 11
135.7966724226
 21
87.9645172103
 31
0.0
  0
LINE
  5
16C
330
1F
100
AcDbEntity
  8
0
  6
Continuous
 62
     7
370
    25
100
AcDbLine
 10
191.8051383021
 20
67.2190976941
 30
0.0
 11
191.8051383021
 21
69.6450652443
 31
0.0
  0
LINE
  5
16D
330
1F
100
AcDbEntity
  8
0
  6
Continuous
 62
     7
370
    25
100
AcDbLine
 10
180.0051383021
 20
69.6450652443
 30
0.0
 11
180.0051383021
 21
68.1431589146
 31
0.0
  0
ARC
  5
16E
330
1F
100
AcDbEntity
  8
0
  6
Continuous
 62
     7
370
    25
100
AcDbCircle
 10
180.2051383021
 20
67.6868076747
 30
0.0
 40
0.4999999999999851
100
AcDbArc
 50
113.6449780875
 51
180.007858636
  0
ARC
  5
16F
330
1F
100
AcDbEntity
  8
0
  6
Continuous
 62
     7
370
    25
100
AcDbCircle
 10
191.1551383021
 20
86.2450652443
 30
0.0
 40
0.25
100
AcDbArc
 50
0.0
 51
90.0
  0
ARC
  5
170
330
1F
100
AcDbEntity
  8
0
  6
Continuous
 62
     7
370
    25
100
AcDbCircle
 10
180.6551383021
 20
86.2450652443
 30
0.0
 40
0.25
100
AcDbArc
 50
90.0
 51
180.0
  0
LINE
  5
171
330
1F
100
AcDbEntity
  8
0
  6
Continuous
 62
     7
370
    25
100
AcDbLine
 10
191.4051383021
 20
85.6450652443
 30
0.0
 11
191.4051383021
 21
86.2450652443
 31
0.0
  0
LINE
  5
172
330
1F
100
AcDbEntity
  8
0
  6
Continuous
 62
     7
370
    25
100
AcDbLine
 10
180.4051383021
 20
86.2450652443
 30
0.0
 11
180.4051383021
 21
85.6450652443
 31
0.0
  0
LINE
  5
173
330
1F
100
AcDbEntity
  8
0
  6
Continuous
 62
     7
370
    25
100
AcDbLine
 10
193.3551383021
 20
77.6450652443
 30
0.0
 11
191.4051383021
 21
85.6450652443
 31
0.0
  0
LINE
  5
174
330
1F
100
AcDbEntity
  8
0
  6
Continuous
 62
     7
370
    25
100
AcDbLine
 10
180.4051383021
 20
85.6450652443
 30
0.0
 11
178.4551383021
 21
77.6450652443
 31
0.0
  0
LINE
  5
175
330
1F
100
AcDbEntity
  8
0
  6
Continuous
 62
     7
370
    25
100
AcDbLine
 10
178.4551383021
 20
77.6450652443
 30
0.0
 11
178.9051383021
 21
69.6450652443
 31
0.0
  0
LINE
  5
176
330
1F
100
AcDbEntity
  8
0
  6
Continuous
 62
     7
370
    25
100
AcDbLine
 10
192.9051383021
 20
69.6450652443
 30
0.0
 11
193.3551383021
 21
77.6450652443
 31
0.0
  0
ARC
  5
177
330
1F
100
AcDbEntity
  8
0
  6
Continuous
 62
     7
370
    25
100
AcDbCircle
 10
185.9051383021
 20
59.1450652443
 30
0.0
 40
10.50000000000002
100
AcDbArc
 50
265.2087652968
 51
274.7912347032
  0
SPLINE
  5
178
330
1F
100
AcDbEntity
  8
0
  6
Continuous
 62
     7
370
    25
100
AcDbSpline
210
0.0
220
0.0
230
1.0
 70
    24
 71
     3
 72
     9
 73
     5
 74
     0
 42
0.00000001
 43
0.00000001
 40
0.0
 40
0.0
 40
0.0
 40
0.0
 40
0.9933576114764272
 40
1.0
 40
1.0
 40
1.0
 40
1.0
 10
177.2821549558539
 20
53.15389188587363
 30
0.0
 10
177.6780282269315
 20
52.92533434625193
 30
0.0
 10
178.0765486253299
 20
52.69524848695902
 30
0.0
 10
178.482550810917
 20
52.46084301581886
 30
0.0
 10
178.485247635175
 20
52.4592860036075
 30
0.0
  0
LINE
  5
179
330
1F
100
AcDbEntity
  8
0
  6
Continuous
 62
     7
370
    25
100
AcDbLine
 10
183.7879367655
 20
49.3977770068
 30
0.0
 11
185.0281216483
 21
48.6817559309
 31
0.0
  0
ARC
  5
17A
330
1F
100
AcDbEntity
  8
0
  6
Continuous
 62
     7
370
    25
100
AcDbCircle
 10
185.9051383021
 20
59.1450652443
 30
0.0
 40
10.50000000000002
100
AcDbArc
 50
205.2087652968
 51
214.7912347032
  0
SPLINE
  5
17B
330
1F
100
AcDbEntity
  8
0
  6
Continuous
 62
     7
370
    25
100
AcDbSpline
210
0.0
220
0.0
230
1.0
 70
    24
 71
     3
 72
     9
 73
     5
 74
     0
 42
0.00000001
 43
0.00000001
 40
0.0
 40
0.0
 40
0.0
 40
0.0
 40
0.8748433813780241
 40
1.0
 40
1.0
 40
1.0
 40
1.0
 10
176.4051383020615
 20
63.61720119932562
 30
0.0
 10
176.4051383020615
 20
63.21345760598174
 30
0.0
 10
176.4051383020614
 20
62.75195375061975
 30
0.0
 10
176.4051383020614
 20
62.28254309287494
 30
0.0
 10
176.4051383020614
 20
62.22379324220649
 30
0.0
  0
SPLINE
  5
17C
330
1F
100
AcDbEntity
  8
0
  6
Continuous
 62
     7
370
    25
100
AcDbSpline
210
0.0
220
0.0
230
1.0
 70
    24
 71
     3
 72
     9
 73
     5
 74
     0
 42
0.00000001
 43
0.00000001
 40
0.0
 40
0.0
 40
0.0
 40
0.0
 40
0.273419796712905
 40
1.0
 40
1.0
 40
1.0
 40
1.0
 10
176.4051383020614
 20
56.07348637654114
 30
0.0
 10
176.4051383020614
 20
55.94459240527869
 30
0.0
 10
176.4051383020614
 20
55.47317821796663
 30
0.0
 10
176.4051383020613
 20
55.00969037817983
 30
0.0
 10
176.4051383020613
 20
54.67292928932643
 30
0.0
  0
ARC
  5
17D
330
1F
100
AcDbEntity
  8
0
  6
Continuous
 62
     7
370
    25
100
AcDbCircle
 10
185.9051383021
 20
59.1450652443
 30
0.0
 40
10.50000000000001
100
AcDbArc
 50
145.2087652968
 51
154.7912347032
  0
LINE
  5
17E
330
1F
100
AcDbEntity
  8
0
  6
Continuous
 62
     7
370
    25
100
AcDbLine
 10
178.4752609706
 20
65.8250786816
 30
0.0
 11
177.2821549559
 21
65.1362386028
 31
0.0
  0
SPLINE
  5
17F
330
1F
100
AcDbEntity
  8
0
  6
Continuous
 62
     7
370
    25
100
AcDbSpline
210
0.0
220
0.0
230
1.0
 70
    24
 71
     3
 72
     9
 73
     5
 74
     0
 42
0.00000001
 43
0.00000001
 40
0.0
 40
0.0
 40
0.0
 40
0.0
 40
0.9897185491745578
 40
1.0
 40
1.0
 40
1.0
 40
1.0
 10
194.5281216482688
 20
65.13623860277829
 30
0.0
 10
194.1322393619114
 20
65.36480134737417
 30
0.0
 10
193.7322445485499
 20
65.59573846054286
 30
0.0
 10
193.3247404384722
 20
65.83101106819211
 30
0.0
 10
193.3205507050033
 20
65.83343001193823
 30
0.0
  0
ARC
  5
180
330
1F
100
AcDbEntity
  8
0
  6
Continuous
 62
     7
370
    25
100
AcDbCircle
 10
185.9051383021
 20
59.1450652443
 30
0.0
 40
10.5
100
AcDbArc
 50
25.2087652968
 51
34.7912347032
  0
SPLINE
  5
181
330
1F
100
AcDbEntity
  8
0
  6
Continuous
 62
     7
370
    25
100
AcDbSpline
210
0.0
220
0.0
230
1.0
 70
    24
 71
     3
 72
     9
 73
     5
 74
     0
 42
0.00000001
 43
0.00000001
 40
0.0
 40
0.0
 40
0.0
 40
0.0
 40
0.728353077567765
 40
1.0
 40
1.0
 40
1.0
 40
1.0
 10
195.4051383020614
 20
54.6729292893263
 30
0.0
 10
195.4051383020614
 20
55.00970604822468
 30
0.0
 10
195.4051383020614
 20
55.47208723294212
 30
0.0
 10
195.4051383020614
 20
55.9422676102736
 30
0.0
 10
195.4051383020614
 20
56.06999066276372
 30
0.0
  0
SPLINE
  5
182
330
1F
100
AcDbEntity
  8
0
  6
Continuous
 62
     7
370
    25
100
AcDbSpline
210
0.0
220
0.0
230
1.0
 70
    24
 71
     3
 72
     9
 73
     5
 74
     0
 42
0.00000001
 43
0.00000001
 40
0.0
 40
0.0
 40
0.0
 40
0.0
 40
0.1284127556283115
 40
1.0
 40
1.0
 40
1.0
 40
1.0
 10
195.4051383020614
 20
62.2133095223498
 30
0.0
 10
195.4051383020614
 20
62.27403994287559
 30
0.0
 10
195.4051383020614
 20
62.74697131350646
 30
0.0
 10
195.4051383020614
 20
63.21194022608908
 30
0.0
 10
195.4051383020614
 20
63.61720119932549
 30
0.0
  0
ARC
  5
183
330
1F
100
AcDbEntity
  8
0
  6
Continuous
 62
     7
370
    25
100
AcDbCircle
 10
185.9051383021
 20
59.1450652443
 30
0.0
 40
10.50000000000002
100
AcDbArc
 50
325.2087652968
 51
334.7912347032
  0
SPLINE
  5
184
330
1F
100
AcDbEntity
  8
0
  6
Continuous
 62
     7
370
    25
100
AcDbSpline
210
0.0
220
0.0
230
1.0
 70
    24
 71
     3
 72
     9
 73
     5
 74
     0
 42
0.00000001
 43
0.00000001
 40
0.0
 40
0.0
 40
0.0
 40
0.0
 40
0.9639920334327775
 40
1.0
 40
1.0
 40
1.0
 40
1.0
 10
186.7821549558539
 20
48.68175593087396
 30
0.0
 10
187.1781009761403
 20
48.9103554722709
 30
0.0
 10
187.5888367566804
 20
49.14749388573152
 30
0.0
 10
188.0072822381241
 20
49.38908349708421
 30
0.0
 10
188.0223496090301
 20
49.39778264773278
 30
0.0
  0
LINE
  5
185
330
1F
100
AcDbEntity
  8
0
  6
Continuous
 62
     7
370
    25
100
AcDbLine
 10
193.3298470783
 20
52.4620677403
 30
0.0
 11
194.5281216483
 21
53.1538918859
 31
0.0
  0
CIRCLE
  5
186
330
1F
100
AcDbEntity
  8
0
  6
Continuous
 62
     7
370
    25
100
AcDbCircle
 10
185.9051383021
 20
59.1450652443
 30
0.0
 40
6.523360139300024
  0
CIRCLE
  5
187
330
1F
100
AcDbEntity
  8
0
  6
Continuous
 62
     7
370
    25
100
AcDbCircle
 10
185.9051383021
 20
59.1450652443
 30
0.0
 40
5.25
  0
CIRCLE
  5
188
330
1F
100
AcDbEntity
  8
0
  6
Continuous
 62
     7
370
    25
100
AcDbCircle
 10
185.9051383021
 20
59.1450652443
 30
0.0
 40
4.0
  0
CIRCLE
  5
189
330
1F
100
AcDbEntity
  8
0
  6
Continuous
 62
     7
370
    25
100
AcDbCircle
 10
185.9051383021
 20
59.1450652443
 30
0.0
 40
4.5
  0
CIRCLE
  5
18A
330
1F
100
AcDbEntity
  8
0
  6
Continuous
 62
     7
370
    25
100
AcDbCircle
 10
185.9051383021
 20
59.1450652443
 30
0.0
 40
6.766937500000012
  0
CIRCLE
  5
18B
330
1F
100
AcDbEntity
  8
0
  6
Continuous
 62
     7
370
    25
100
AcDbCircle
 10
185.9051383021
 20
59.1450652443
 30
0.0
 40
9.999999999999972
  0
CIRCLE
  5
18C
330
1F
100
AcDbEntity
  8
0
  6
Continuous
 62
     7
370
    25
100
AcDbCircle
 10
185.9051383021
 20
59.1450652443
 30
0.0
 40
9.5
  0
CIRCLE
  5
18D
330
1F
100
AcDbEntity
  8
0
  6
Continuous
 62
     7
370
    25
100
AcDbCircle
 10
185.9051383021
 20
59.1450652443
 30
0.0
 40
2.999999999999972
  0
SPLINE
  5
18E
330
1F
100
AcDbEntity
  8
0
  6
Continuous
 62
     7
370
    25
100
AcDbSpline
210
0.0
220
0.0
230
1.0
 70
     8
 71
     3
 72
    13
 73
     9
 74
     0
 42
0.00000001
 43
0.00000001
 40
0.0
 40
0.0
 40
0.0
 40
0.0
 40
0.0742931466200761
 40
0.3010942407473241
 40
0.530072705035311
 40
0.7614972344732689
 40
0.9918492627674992
 40
1.0
 40
1.0
 40
1.0
 40
1.0
 10
180.0874501159211
 20
67.250732968415
 30
0.0
 10
180.0873689347
 20
67.287054324679
 30
0.0
 10
180.0870399245656
 20
67.43425701678132
 30
0.0
 10
180.067887444438
 20
67.67567093305999
 30
0.0
 10
180.0385320747891
 20
67.93511635393759
 30
0.0
 10
180.0138259017397
 20
68.09426240278835
 30
0.0
 10
180.002286133988
 20
68.16231560091688
 30
0.0
 10
180.0053489522159
 20
68.14379195295767
 30
0.0
 10
180.0054536228117
 20
68.14315891464982
 30
0.0
  0
SPLINE
  5
18F
330
1F
100
AcDbEntity
  8
0
  6
Continuous
 62
     7
370
    25
100
AcDbSpline
210
0.0
220
0.0
230
1.0
 70
    24
 71
     3
 72
    14
 73
    10
 74
     0
 42
0.00000001
 43
0.00000001
 40
0.0
 40
0.0
 40
0.0
 40
0.0
 40
0.0686782875714484
 40
0.293216909137959
 40
0.2935197863693179
 40
0.5073359099559678
 40
0.7069537562193142
 40
0.9001971037285486
 40
1.0
 40
1.0
 40
1.0
 40
1.0
 10
179.7051383020614
 20
67.14506524432677
 30
0.0
 10
179.7051383020614
 20
67.16391734555438
 30
0.0
 10
179.7051383020614
 20
67.2444050083687
 30
0.0
 10
179.7051383020613
 20
67.32409401471173
 30
0.0
 10
179.7051383020614
 20
67.43330573748804
 30
0.0
 10
179.7051383020614
 20
67.5300018179983
 30
0.0
 10
179.7051383020614
 20
67.63158436028844
 30
0.0
 10
179.7051383020614
 20
67.68513642974277
 30
0.0
 10
179.7051383020614
 20
67.68092962847791
 30
0.0
 10
179.7051383020614
 20
67.67949691620406
 30
0.0
  0
SPLINE
  5
190
330
1F
100
AcDbEntity
  8
0
  6
Continuous
 62
     7
370
    25
100
AcDbSpline
210
0.0
220
0.0
230
1.0
 70
    24
 71
     3
 72
     9
 73
     5
 74
     0
 42
0.00000001
 43
0.00000001
 40
0.0
 40
0.0
 40
0.0
 40
0.0
 40
0.3032708280230745
 40
1.0
 40
1.0
 40
1.0
 40
1.0
 10
179.7051383020614
 20
66.96243237386692
 30
0.0
 10
179.7051383020614
 20
66.97970527233377
 30
0.0
 10
179.7051383020614
 20
67.03666062995737
 30
0.0
 10
179.7051383020614
 20
67.10055097625411
 30
0.0
 10
179.7051383020614
 20
67.14506524432677
 30
0.0
  0
LINE
  5
191
330
1F
100
AcDbEntity
  8
0
  6
Continuous
 62
     7
370
    25
100
AcDbLine
 10
187.1551383021
 20
85.6450652443
 30
0.0
 11
187.1551383021
 21
86.2450652443
 31
0.0
  0
LINE
  5
192
330
1F
100
AcDbEntity
  8
0
  6
Continuous
 62
     7
370
    25
100
AcDbLine
 10
187.1551383021
 20
86.2450652443
 30
0.0
 11
187.4051383021
 21
86.2450652443
 31
0.0
  0
LINE
  5
193
330
1F
100
AcDbEntity
  8
0
  6
Continuous
 62
     7
370
    25
100
AcDbLine
 10
187.4051383021
 20
86.2450652443
 30
0.0
 11
187.4051383021
 21
85.6450652443
 31
0.0
  0
LINE
  5
194
330
1F
100
AcDbEntity
  8
0
  6
Continuous
 62
     7
370
    25
100
AcDbLine
 10
187.4051383021
 20
85.6450652443
 30
0.0
 11
187.1551383021
 21
85.6450652443
 31
0.0
  0
LINE
  5
195
330
1F
100
AcDbEntity
  8
0
  6
Continuous
 62
     7
370
    25
100
AcDbLine
 10
187.1551383021
 20
86.2450652443
 30
0.0
 11
187.1551383021
 21
86.4950652443
 31
0.0
  0
ARC
  5
196
330
1F
100
AcDbEntity
  8
0
  6
Continuous
 62
     7
370
    25
100
AcDbCircle
 10
187.1551383021
 20
86.2450652443
 30
0.0
 40
0.25
100
AcDbArc
 50
0.0
 51
90.0
  0
LINE
  5
197
330
1F
100
AcDbEntity
  8
0
  6
Continuous
 62
     7
370
    25
100
AcDbLine
 10
184.6551383021
 20
86.2450652443
 30
0.0
 11
184.6551383021
 21
85.6450652443
 31
0.0
  0
LINE
  5
198
330
1F
100
AcDbEntity
  8
0
  6
Continuous
 62
     7
370
    25
100
AcDbLine
 10
187.1551383021
 20
86.2450652443
 30
0.0
 11
184.6551383021
 21
86.2450652443
 31
0.0
  0
LINE
  5
199
330
1F
100
AcDbEntity
  8
0
  6
Continuous
 62
     7
370
    25
100
AcDbLine
 10
187.1551383021
 20
85.6450652443
 30
0.0
 11
184.6551383021
 21
85.6450652443
 31
0.0
  0
LINE
  5
19A
330
1F
100
AcDbEntity
  8
0
  6
Continuous
 62
     7
370
    25
100
AcDbLine
 10
184.6551383021
 20
86.4950652443
 30
0.0
 11
184.6551383021
 21
86.2450652443
 31
0.0
  0
LINE
  5
19B
330
1F
100
AcDbEntity
  8
0
  6
Continuous
 62
     7
370
    25
100
AcDbLine
 10
184.6551383021
 20
86.4950652443
 30
0.0
 11
187.1551383021
 21
86.4950652443
 31
0.0
  0
ARC
  5
19C
330
1F
100
AcDbEntity
  8
0
  6
Continuous
 62
     7
370
    25
100
AcDbCircle
 10
184.6551383021
 20
86.2450652443
 30
0.0
 40
0.25
100
AcDbArc
 50
90.0
 51
180.0
  0
LINE
  5
19D
330
1F
100
AcDbEntity
  8
0
  6
Continuous
 62
     7
370
    25
100
AcDbLine
 10
184.4051383021
 20
86.2450652443
 30
0.0
 11
184.6551383021
 21
86.2450652443
 31
0.0
  0
LINE
  5
19E
330
1F
100
AcDbEntity
  8
0
  6
Continuous
 62
     7
370
    25
100
AcDbLine
 10
184.4051383021
 20
85.6450652443
 30
0.0
 11
184.4051383021
 21
86.2450652443
 31
0.0
  0
LINE
  5
19F
330
1F
100
AcDbEntity
  8
0
  6
Continuous
 62
     7
370
    25
100
AcDbLine
 10
184.6551383021
 20
85.6450652443
 30
0.0
 11
184.4051383021
 21
85.6450652443
 31
0.0
  0
SPLINE
  5
1A0
330
1F
100
AcDbEntity
  8
0
  6
Continuous
 62
     7
370
    25
100
AcDbSpline
210
0.0
220
0.0
230
1.0
 70
     8
 71
     3
 72
    15
 73
    11
 74
     0
 42
0.00000001
 43
0.00000001
 40
0.0
 40
0.0
 40
0.0
 40
0.0
 40
0.0081667445812973
 40
0.3321939991490809
 40
0.4756279600585568
 40
0.6866830973284903
 40
0.8457435502264812
 40
0.8967566214763185
 40
0.9909540928118028
 40
1.0
 40
1.0
 40
1.0
 40
1.0
 10
187.1551383020614
 20
86.49506524432593
 30
0.0
 10
187.1565757650004
 20
86.49506256798014
 30
0.0
 10
187.2150466229524
 20
86.49495370379346
 30
0.0
 10
187.2994718006716
 20
86.48540769152389
 30
0.0
 10
187.4140508726941
 20
86.44804530826936
 30
0.0
 10
187.4954217598906
 20
86.40317979353468
 30
0.0
 10
187.5484407518923
 20
86.34530349395777
 30
0.0
 10
187.5726426837364
 20
86.29462745398585
 30
0.0
 10
187.5788323044027
 20
86.26593317446584
 30
0.0
 10
187.5790336998152
 20
86.24674634291036
 30
0.0
 10
187.5790513455397
 20
86.24506524432593
 30
0.0
  0
LINE
  5
1A1
330
1F
100
AcDbEntity
  8
0
  6
Continuous
 62
     7
370
    25
100
AcDbLine
 10
187.4051383021
 20
86.2450652443
 30
0.0
 11
187.5790513455
 21
86.2450652443
 31
0.0
  0
LINE
  5
1A2
330
1F
100
AcDbEntity
  8
0
  6
Continuous
 62
     7
370
    25
100
AcDbLine
 10
184.2312252586
 20
86.2450652443
 30
0.0
 11
184.4051383021
 21
86.2450652443
 31
0.0
  0
SPLINE
  5
1A3
330
1F
100
AcDbEntity
  8
0
  6
Continuous
 62
     7
370
    25
100
AcDbSpline
210
0.0
220
0.0
230
1.0
 70
     8
 71
     3
 72
    15
 73
    11
 74
     0
 42
0.00000001
 43
0.00000001
 40
0.0
 40
0.0
 40
0.0
 40
0.0
 40
0.0090459071881971
 40
0.1032433785236875
 40
0.1542564497735192
 40
0.3133169026715104
 40
0.5243720399414423
 40
0.6678060008509901
 40
0.9918332554187292
 40
1.0
 40
1.0
 40
1.0
 40
1.0
 10
184.2312252585831
 20
86.24506524432593
 30
0.0
 10
184.2312429043076
 20
86.24674634291036
 30
0.0
 10
184.2314442997201
 20
86.2659331744659
 30
0.0
 10
184.2376339203863
 20
86.29462745398584
 30
0.0
 10
184.2618358522305
 20
86.34530349395779
 30
0.0
 10
184.3148548442321
 20
86.40317979353468
 30
0.0
 10
184.3962257314288
 20
86.44804530826939
 30
0.0
 10
184.5108048034512
 20
86.48540769152387
 30
0.0
 10
184.5952299811706
 20
86.49495370379354
 30
0.0
 10
184.6537008391224
 20
86.49506256798014
 30
0.0
 10
184.6551383020614
 20
86.49506524432593
 30
0.0
  0
LINE
  5
1A4
330
1F
100
AcDbEntity
  8
0
  6
Continuous
 62
     7
370
    25
100
AcDbLine
 10
187.5790513455
 20
86.2450652443
 30
0.0
 11
187.5790513455
 21
85.6450652443
 31
0.0
  0
LINE
  5
1A5
330
1F
100
AcDbEntity
  8
0
  6
Continuous
 62
     7
370
    25
100
AcDbLine
 10
187.5790513455
 20
85.6450652443
 30
0.0
 11
187.4051383021
 21
85.6450652443
 31
0.0
  0
LINE
  5
1A6
330
1F
100
AcDbEntity
  8
0
  6
Continuous
 62
     7
370
    25
100
AcDbLine
 10
184.2312252586
 20
85.6450652443
 30
0.0
 11
184.2312252586
 21
86.2450652443
 31
0.0
  0
LINE
  5
1A7
330
1F
100
AcDbEntity
  8
0
  6
Continuous
 62
     7
370
    25
100
AcDbLine
 10
184.4051383021
 20
85.6450652443
 30
0.0
 11
184.2312252586
 21
85.6450652443
 31
0.0
  0
LINE
  5
1A8
330
1F
100
AcDbEntity
  8
0
  6
Continuous
 62
     7
370
    25
100
AcDbLine
 10
187.1551383021
 20
86.4950652443
 30
0.0
 11
191.1551383021
 21
86.4950652443
 31
0.0
  0
LINE
  5
1A9
330
1F
100
AcDbEntity
  8
0
  6
Continuous
 62
     7
370
    25
100
AcDbLine
 10
180.6551383021
 20
86.4950652443
 30
0.0
 11
184.6551383021
 21
86.4950652443
 31
0.0
  0
LINE
  5
1AA
330
1F
100
AcDbEntity
  8
0
  6
Continuous
 62
     7
370
    25
100
AcDbLine
 10
187.5790513455
 20
85.6450652443
 30
0.0
 11
191.4051383021
 21
85.6450652443
 31
0.0
  0
LINE
  5
1AB
330
1F
100
AcDbEntity
  8
0
  6
Continuous
 62
     7
370
    25
100
AcDbLine
 10
180.4051383021
 20
85.6450652443
 30
0.0
 11
184.2312252586
 21
85.6450652443
 31
0.0
  0
LINE
  5
1AC
330
1F
100
AcDbEntity
  8
0
  6
Continuous
 62
     7
370
    25
100
AcDbLine
 10
185.3051383021
 20
86.4950652443
 30
0.0
 11
185.3051383021
 21
86.5050652443
 31
0.0
  0
LINE
  5
1AD
330
1F
100
AcDbEntity
  8
0
  6
Continuous
 62
     7
370
    25
100
AcDbLine
 10
185.3051383021
 20
86.5050652443
 30
0.0
 11
186.5051383021
 21
86.5050652443
 31
0.0
  0
LINE
  5
1AE
330
1F
100
AcDbEntity
  8
0
  6
Continuous
 62
     7
370
    25
100
AcDbLine
 10
186.5051383021
 20
86.4950652443
 30
0.0
 11
186.5051383021
 21
86.5050652443
 31
0.0
  0
LINE
  5
1AF
330
1F
100
AcDbEntity
  8
0
  6
Continuous
 62
     7
370
    25
100
AcDbLine
 10
178.4551383021
 20
77.6450652443
 30
0.0
 11
193.3551383021
 21
77.6450652443
 31
0.0
  0
LINE
  5
1B0
330
1F
100
AcDbEntity
  8
0
  6
Continuous
 62
     7
370
    25
100
AcDbLine
 10
178.9051383021
 20
69.6450652443
 30
0.0
 11
192.9051383021
 21
69.6450652443
 31
0.0
  0
LINE
  5
1B1
330
1F
100
AcDbEntity
  8
0
  6
Continuous
 62
     7
370
    25
100
AcDbLine
 10
189.1768375661
 20
87.6450652443
 30
0.0
 11
189.1768375661
 21
86.4950652443
 31
0.0
  0
LINE
  5
1B2
330
1F
100
AcDbEntity
  8
0
  6
Continuous
 62
     7
370
    25
100
AcDbLine
 10
189.1768375661
 20
87.6450652443
 30
0.0
 11
189.4051383021
 21
87.6450652443
 31
0.0
  0
LINE
  5
1B3
330
1F
100
AcDbEntity
  8
0
  6
Continuous
 62
     7
370
    25
100
AcDbLine
 10
189.4051383021
 20
86.4950652443
 30
0.0
 11
189.4051383021
 21
87.6450652443
 31
0.0
  0
LINE
  5
1B4
330
1F
100
AcDbEntity
  8
0
  6
Continuous
 62
     7
370
    25
100
AcDbLine
 10
182.4051383021
 20
87.6450652443
 30
0.0
 11
182.4051383021
 21
86.4950652443
 31
0.0
  0
LINE
  5
1B5
330
1F
100
AcDbEntity
  8
0
  6
Continuous
 62
     7
370
    25
100
AcDbLine
 10
182.4051383021
 20
87.6450652443
 30
0.0
 11
182.633439038
 21
87.6450652443
 31
0.0
  0
LINE
  5
1B6
330
1F
100
AcDbEntity
  8
0
  6
Continuous
 62
     7
370
    25
100
AcDbLine
 10
182.633439038
 20
87.6450652443
 30
0.0
 11
182.633439038
 21
86.4950652443
 31
0.0
  0
LINE
  5
1B7
330
1F
100
AcDbEntity
  8
0
  6
Continuous
 62
     7
370
    25
100
AcDbLine
 10
182.633439038
 20
87.6450652443
 30
0.0
 11
189.1768375661
 21
87.6450652443
 31
0.0
  0
LINE
  5
1B8
330
1F
100
AcDbEntity
  8
0
  6
Continuous
 62
     7
370
    25
100
AcDbLine
 10
191.4051383021
 20
86.2450652443
 30
0.0
 11
187.5790513455
 21
86.2450652443
 31
0.0
  0
LINE
  5
1B9
330
1F
100
AcDbEntity
  8
0
  6
Continuous
 62
     7
370
    25
100
AcDbLine
 10
184.2312252586
 20
86.2450652443
 30
0.0
 11
180.4051383021
 21
86.2450652443
 31
0.0
  0
INSERT
  5
1C5
330
1F
100
AcDbEntity
  8
FORMAT
100
AcDbBlockReference
  2
SW_CENTERMARKSYMBOL_0
 10
185.9051383021
 20
59.1450652443
 30
0.0
  0
LINE
  5
1C6
330
1F
100
AcDbEntity
  8
0
  6
Continuous
 62
     7
370
    25
100
AcDbLine
 10
105.0277940884
 20
127.3574387412
 30
0.0
 11
99.8927985922
 21
125.8850024768
 31
0.0
  0
LINE
  5
1C7
330
1F
100
AcDbEntity
  8
0
  6
Continuous
 62
     7
370
    25
100
AcDbLine
 10
99.8927985922
 20
109.8298750056
 30
0.0
 11
105.0277940884
 21
108.3574387412
 31
0.0
  0
LINE
  5
1C8
330
1F
100
AcDbEntity
  8
0
  6
Continuous
 62
     7
370
    25
100
AcDbLine
 10
119.6523348553
 20
108.3574387412
 30
0.0
 11
119.7966724226
 21
108.6074387412
 31
0.0
  0
LINE
  5
1C9
330
1F
100
AcDbEntity
  8
0
  6
Continuous
 62
     7
370
    25
100
AcDbLine
 10
119.7966724226
 20
127.1074387412
 30
0.0
 11
119.6523348553
 21
127.3574387412
 31
0.0
  0
LINE
  5
1CA
330
1F
100
AcDbEntity
  8
0
  6
Continuous
 62
     7
370
    25
100
AcDbLine
 10
99.8927985922
 20
125.8850024768
 30
0.0
 11
99.7966724226
 21
125.7115862763
 31
0.0
  0
LINE
  5
1CB
330
1F
100
AcDbEntity
  8
0
  6
Continuous
 62
     7
370
    25
100
AcDbLine
 10
99.7966724226
 20
110.0032912061
 30
0.0
 11
99.8927985922
 21
109.8298750056
 31
0.0
  0
LINE
  5
1CC
330
1F
100
AcDbEntity
  8
0
  6
Continuous
 62
     7
370
    25
100
AcDbLine
 10
125.6523348553
 20
108.3574387412
 30
0.0
 11
125.7966724226
 21
108.6074387412
 31
0.0
  0
LINE
  5
1CD
330
1F
100
AcDbEntity
  8
0
  6
Continuous
 62
     7
370
    25
100
AcDbLine
 10
125.7966724226
 20
127.1074387412
 30
0.0
 11
125.6523348553
 21
127.3574387412
 31
0.0
  0
LINE
  5
1CE
330
1F
100
AcDbEntity
  8
0
  6
Continuous
 62
     7
370
    25
100
AcDbLine
 10
119.9410099899
 20
127.3574387412
 30
0.0
 11
119.7966724226
 21
127.1074387412
 31
0.0
  0
LINE
  5
1CF
330
1F
100
AcDbEntity
  8
0
  6
Continuous
 62
     7
370
    25
100
AcDbLine
 10
119.7966724226
 20
108.6074387412
 30
0.0
 11
119.9410099899
 21
108.3574387412
 31
0.0
  0
ARC
  5
1D0
330
1F
100
AcDbEntity
  8
0
  6
Continuous
 62
     7
370
    25
100
AcDbCircle
 10
126.7966724226
 20
108.8574387412
 30
0.0
 40
1.500000000000014
100
AcDbArc
 50
318.1896851042
 51
0.0
  0
ARC
  5
1D1
330
1F
100
AcDbEntity
  8
0
  6
Continuous
 62
     7
370
    25
100
AcDbCircle
 10
126.7966724226
 20
126.8574387412
 30
0.0
 40
1.500000000000014
100
AcDbArc
 50
0.0
 51
41.8103148958
  0
ARC
  5
1D2
330
1F
100
AcDbEntity
  8
0
  6
Continuous
 62
     7
370
    25
100
AcDbCircle
 10
144.7966724226
 20
126.8574387412
 30
0.0
 40
1.500000000000014
100
AcDbArc
 50
138.1896851042
 51
180.0
  0
ARC
  5
1D3
330
1F
100
AcDbEntity
  8
0
  6
Continuous
 62
     7
370
    25
100
AcDbCircle
 10
144.7966724226
 20
108.8574387412
 30
0.0
 40
1.500000000000014
100
AcDbArc
 50
180.0
 51
221.8103148958
  0
LINE
  5
1D4
330
1F
100
AcDbEntity
  8
0
  6
Continuous
 62
     7
370
    25
100
AcDbLine
 10
145.2966724226
 20
107.8574387412
 30
0.0
 11
145.7966724226
 21
108.3574387412
 31
0.0
  0
LINE
  5
1D5
330
1F
100
AcDbEntity
  8
0
  6
Continuous
 62
     7
370
    25
100
AcDbLine
 10
145.7966724226
 20
127.3574387412
 30
0.0
 11
145.2966724226
 21
127.8574387412
 31
0.0
  0
LINE
  5
1D6
330
1F
100
AcDbEntity
  8
0
  6
Continuous
 62
     7
370
    25
100
AcDbLine
 10
126.0466724226
 20
107.8574387412
 30
0.0
 11
127.9147064114
 21
107.8574387412
 31
0.0
  0
LINE
  5
1D7
330
1F
100
AcDbEntity
  8
0
  6
Continuous
 62
     7
370
    25
100
AcDbLine
 10
127.9147064114
 20
127.8574387412
 30
0.0
 11
126.0466724226
 21
127.8574387412
 31
0.0
  0
LINE
  5
1D8
330
1F
100
AcDbEntity
  8
0
  6
Continuous
 62
     7
370
    25
100
AcDbLine
 10
126.0466724226
 20
127.8574387412
 30
0.0
 11
125.7966724226
 21
127.6074387412
 31
0.0
  0
LINE
  5
1D9
330
1F
100
AcDbEntity
  8
0
  6
Continuous
 62
     7
370
    25
100
AcDbLine
 10
125.7966724226
 20
108.1074387412
 30
0.0
 11
126.0466724226
 21
107.8574387412
 31
0.0
  0
LINE
  5
1DA
330
1F
100
AcDbEntity
  8
0
  6
Continuous
 62
     7
370
    25
100
AcDbLine
 10
145.2966724226
 20
127.8574387412
 30
0.0
 11
143.6786384339
 21
127.8574387412
 31
0.0
  0
LINE
  5
1DB
330
1F
100
AcDbEntity
  8
0
  6
Continuous
 62
     7
370
    25
100
AcDbLine
 10
143.6786384339
 20
107.8574387412
 30
0.0
 11
145.2966724226
 21
107.8574387412
 31
0.0
  0
LINE
  5
1DC
330
1F
100
AcDbEntity
  8
0
  6
Continuous
 62
     7
370
    25
100
AcDbLine
 10
145.7966724226
 20
111.0905012412
 30
0.0
 11
153.591147965
 21
111.3340786019
 31
0.0
  0
LINE
  5
1DD
330
1F
100
AcDbEntity
  8
0
  6
Continuous
 62
     7
370
    25
100
AcDbLine
 10
153.591147965
 20
124.3807988805
 30
0.0
 11
145.7966724226
 21
124.6243762412
 31
0.0
  0
LINE
  5
1DE
330
1F
100
AcDbEntity
  8
0
  6
Continuous
 62
     7
370
    25
100
AcDbLine
 10
153.591147965
 20
111.3340786019
 30
0.0
 11
155.7966724226
 21
112.6074387412
 31
0.0
  0
LINE
  5
1DF
330
1F
100
AcDbEntity
  8
0
  6
Continuous
 62
     7
370
    25
100
AcDbLine
 10
155.7966724226
 20
123.1074387412
 30
0.0
 11
153.591147965
 21
124.3807988805
 31
0.0
  0
SPLINE
  5
1E0
330
1F
100
AcDbEntity
  8
0
  6
Continuous
 62
     7
370
    25
100
AcDbSpline
210
0.0
220
0.0
230
1.0
 70
    24
 71
     3
 72
    14
 73
    10
 74
     0
 42
0.00000001
 43
0.00000001
 40
0.0
 40
0.0
 40
0.0
 40
0.0
 40
0.2251274061536467
 40
0.4521087331364482
 40
0.5714036579591286
 40
0.6920651863465991
 40
0.7896686376460963
 40
0.8896421072670374
 40
1.0
 40
1.0
 40
1.0
 40
1.0
 10
108.5152085322031
 20
127.3574387412064
 30
0.0
 10
108.1532268774423
 20
127.3574387412064
 30
0.0
 10
107.4262826543971
 20
127.3574387412064
 30
0.0
 10
106.5800650504608
 20
127.3574387412065
 30
0.0
 10
105.9621339776187
 20
127.3574387412065
 30
0.0
 10
105.5705893639745
 20
127.3574387412065
 30
0.0
 10
105.2773888369541
 20
127.3574387412065
 30
0.0
 10
105.0706903360945
 20
127.3574387412065
 30
0.0
 10
105.0451372920346
 20
127.3574387412065
 30
0.0
 10
105.031729971016
 20
127.3574387412065
 30
0.0
  0
LINE
  5
1E1
330
1F
100
AcDbEntity
  8
0
  6
Continuous
 62
     7
370
    25
100
AcDbLine
 10
108.5152085322
 20
127.3574387412
 30
0.0
 11
108.5152085322
 21
126.4804220874
 31
0.0
  0
SPLINE
  5
1E2
330
1F
100
AcDbEntity
  8
0
  6
Continuous
 62
     7
370
    25
100
AcDbSpline
210
0.0
220
0.0
230
1.0
 70
     8
 71
     3
 72
    17
 73
    13
 74
     0
 42
0.00000001
 43
0.00000001
 40
0.0
 40
0.0
 40
0.0
 40
0.0
 40
0.0807852605643112
 40
0.1647798906494395
 40
0.2394314030639639
 40
0.3141389246859596
 40
0.3983167995245646
 40
0.4826742538336676
 40
0.5858108241973534
 40
0.6893596673877705
 40
0.7928223816615952
 40
1.0
 40
1.0
 40
1.0
 40
1.0
 10
105.4103117218394
 20
121.3574387412064
 30
0.0
 10
105.3249649563326
 20
121.5135472246543
 30
0.0
 10
105.1508808401304
 20
121.8319659393098
 30
0.0
 10
105.0247273246581
 20
122.3364998729108
 30
0.0
 10
105.0236438203328
 20
122.8372435424791
 30
0.0
 10
105.1349800536306
 20
123.3292476705289
 30
0.0
 10
105.3632212653905
 20
123.812249623901
 30
0.0
 10
105.7107415158984
 20
124.3094323932391
 30
0.0
 10
106.1596397363489
 20
124.795725234375
 30
0.0
 10
106.6986736818176
 20
125.2657039492042
 30
0.0
 10
107.4705433642025
 20
125.8449281178699
 30
0.0
 10
108.0972407095926
 20
126.2261625994281
 30
0.0
 10
108.5152085322031
 20
126.4804220874138
 30
0.0
  0
SPLINE
  5
1E3
330
1F
100
AcDbEntity
  8
0
  6
Continuous
 62
     7
370
    25
100
AcDbSpline
210
0.0
220
0.0
230
1.0
 70
     8
 71
     3
 72
    18
 73
    14
 74
     0
 42
0.00000001
 43
0.00000001
 40
0.0
 40
0.0
 40
0.0
 40
0.0
 40
0.1411269591729473
 40
0.2823281011233399
 40
0.4230144282440382
 40
0.5060097567136773
 40
0.5889055213032535
 40
0.6730786862231605
 40
0.757051045492834
 40
0.831682764379432
 40
0.9063704776229008
 40
0.9905260330594925
 40
0.9999999999999999
 40
0.9999999999999999
 40
0.9999999999999999
 40
0.9999999999999999
 10
108.5152085322031
 20
109.234455394999
 30
0.0
 10
108.2289762198602
 20
109.405606399409
 30
0.0
 10
107.656361138394
 20
109.7479983730163
 30
0.0
 10
106.848337195179
 20
110.3200599562641
 30
0.0
 10
106.2092603096722
 20
110.8704026533963
 30
0.0
 10
105.7350499368705
 20
111.3808506797919
 30
0.0
 10
105.4048735590282
 20
111.8332347984467
 30
0.0
 10
105.156868806848
 20
112.3267714505255
 30
0.0
 10
105.024052656926
 20
112.8358783811343
 30
0.0
 10
105.0228160137521
 20
113.3378997957955
 30
0.0
 10
105.1391800571432
 20
113.8270770564722
 30
0.0
 10
105.2816301065044
 20
114.1692056821208
 30
0.0
 10
105.4011612642928
 20
114.3401423937143
 30
0.0
 10
105.4132561058395
 20
114.3574387412064
 30
0.0
  0
LINE
  5
1E4
330
1F
100
AcDbEntity
  8
0
  6
Continuous
 62
     7
370
    25
100
AcDbLine
 10
108.5152085322
 20
109.234455395
 30
0.0
 11
108.5152085322
 21
108.3574387412
 31
0.0
  0
SPLINE
  5
1E5
330
1F
100
AcDbEntity
  8
0
  6
Continuous
 62
     7
370
    25
100
AcDbSpline
210
0.0
220
0.0
230
1.0
 70
    24
 71
     3
 72
    16
 73
    12
 74
     0
 42
0.00000001
 43
0.00000001
 40
0.0
 40
0.0
 40
0.0
 40
0.0
 40
0.0829425854878132
 40
0.174788793993743
 40
0.291010409144598
 40
0.4104532561381883
 40
0.5523210528439334
 40
0.6943438909112909
 40
0.8400919531766442
 40
0.9858796848602034
 40
1.0
 40
1.0
 40
1.0
 40
1.0
 10
105.030802837284
 20
108.3574387412065
 30
0.0
 10
105.0381004664955
 20
108.3574387412065
 30
0.0
 10
105.0534791022275
 20
108.3574387412065
 30
0.0
 10
105.2144382660994
 20
108.3574387412065
 30
0.0
 10
105.49556781876
 20
108.3574387412065
 30
0.0
 10
105.9220441214702
 20
108.3574387412065
 30
0.0
 10
106.4530216834836
 20
108.3574387412065
 30
0.0
 10
107.0764930676988
 20
108.3574387412065
 30
0.0
 10
107.7429363787506
 20
108.3574387412065
 30
0.0
 10
108.2322547789731
 20
108.3574387412064
 30
0.0
 10
108.4922502274732
 20
108.3574387412065
 30
0.0
 10
108.5152085322031
 20
108.3574387412065
 30
0.0
  0
LINE
  5
1E6
330
1F
100
AcDbEntity
  8
0
  6
Continuous
 62
     7
370
    25
100
AcDbLine
 10
99.8927985922
 20
125.8850024768
 30
0.0
 11
99.8927985922
 21
121.3574387412
 31
0.0
  0
LINE
  5
1E7
330
1F
100
AcDbEntity
  8
0
  6
Continuous
 62
     7
370
    25
100
AcDbLine
 10
99.8927985922
 20
114.3574387412
 30
0.0
 11
99.8927985922
 21
109.8298750056
 31
0.0
  0
LINE
  5
1E8
330
1F
100
AcDbEntity
  8
0
  6
Continuous
 62
     7
370
    25
100
AcDbLine
 10
119.0749845861
 20
109.234455395
 30
0.0
 11
108.5152085322
 21
109.234455395
 31
0.0
  0
SPLINE
  5
1E9
330
1F
100
AcDbEntity
  8
0
  6
Continuous
 62
     7
370
    25
100
AcDbSpline
210
0.0
220
0.0
230
1.0
 70
     8
 71
     3
 72
    11
 73
     7
 74
     0
 42
0.00000001
 43
0.00000001
 40
0.0
 40
0.0
 40
0.0
 40
0.0
 40
0.1506303936468832
 40
0.407758595342216
 40
0.7027468318949815
 40
1.0
 40
1.0
 40
1.0
 40
1.0
 10
119.6005077174085
 20
114.0585048724084
 30
0.0
 10
119.6208306311107
 20
113.814709140579
 30
0.0
 10
119.675845044496
 20
113.1547506637113
 30
0.0
 10
119.6231712976531
 20
112.0134238648964
 30
0.0
 10
119.4417863431062
 20
110.6427662073922
 30
0.0
 10
119.197563169133
 20
109.7050876658179
 30
0.0
 10
119.0749845861138
 20
109.2344553949991
 30
0.0
  0
LINE
  5
1EA
330
1F
100
AcDbEntity
  8
0
  6
Continuous
 62
     7
370
    25
100
AcDbLine
 10
108.5152085322
 20
126.4804220874
 30
0.0
 11
119.0749845861
 21
126.4804220874
 31
0.0
  0
SPLINE
  5
1EB
330
1F
100
AcDbEntity
  8
0
  6
Continuous
 62
     7
370
    25
100
AcDbSpline
210
0.0
220
0.0
230
1.0
 70
     8
 71
     3
 72
    11
 73
     7
 74
     0
 42
0.00000001
 43
0.00000001
 40
0.0
 40
0.0
 40
0.0
 40
0.0
 40
0.2512929405657804
 40
0.5025190775942188
 40
0.7598545875453055
 40
1.0
 40
1.0
 40
1.0
 40
1.0
 10
119.0749845861138
 20
126.4804220874138
 30
0.0
 10
119.1796650946691
 20
126.0831913043529
 30
0.0
 10
119.3889982835874
 20
125.2888353377812
 30
0.0
 10
119.5838861758726
 20
124.0676809124033
 30
0.0
 10
119.6753836919663
 20
122.8546395633366
 30
0.0
 10
119.6327086960133
 20
122.0486977620666
 30
0.0
 10
119.6121085000197
 20
121.6596512327152
 30
0.0
  0
LINE
  5
1EC
330
1F
100
AcDbEntity
  8
0
  6
Continuous
 62
     7
370
    25
100
AcDbLine
 10
119.7966724226
 20
127.1074387412
 30
0.0
 11
119.7966724226
 21
121.6514577227
 31
0.0
  0
LINE
  5
1ED
330
1F
100
AcDbEntity
  8
0
  6
Continuous
 62
     7
370
    25
100
AcDbLine
 10
119.7966724226
 20
114.0634197597
 30
0.0
 11
119.7966724226
 21
108.6074387412
 31
0.0
  0
SPLINE
  5
1EE
330
1F
100
AcDbEntity
  8
0
  6
Continuous
 62
     7
370
    25
100
AcDbSpline
210
0.0
220
0.0
230
1.0
 70
    24
 71
     3
 72
    11
 73
     7
 74
     0
 42
0.00000001
 43
0.00000001
 40
0.0
 40
0.0
 40
0.0
 40
0.0
 40
0.2797550292743921
 40
0.5605306138018747
 40
0.8614847543347248
 40
1.0
 40
1.0
 40
1.0
 40
1.0
 10
119.0749845861138
 20
108.3574387412065
 30
0.0
 10
119.1697528221521
 20
108.3574387412065
 30
0.0
 10
119.3596350117708
 20
108.3574387412065
 30
0.0
 10
119.5495544473033
 20
108.3574387412065
 30
0.0
 10
119.6505223065526
 20
108.3574387412065
 30
0.0
 10
119.6411139949523
 20
108.3574387412065
 30
0.0
 10
119.6381486129859
 20
108.3574387412065
 30
0.0
  0
LINE
  5
1EF
330
1F
100
AcDbEntity
  8
0
  6
Continuous
 62
     7
370
    25
100
AcDbLine
 10
119.0749845861
 20
108.3574387412
 30
0.0
 11
119.0749845861
 21
109.234455395
 31
0.0
  0
LINE
  5
1F0
330
1F
100
AcDbEntity
  8
0
  6
Continuous
 62
     7
370
    25
100
AcDbLine
 10
119.0749845861
 20
126.4804220874
 30
0.0
 11
119.0749845861
 21
127.3574387412
 31
0.0
  0
SPLINE
  5
1F1
330
1F
100
AcDbEntity
  8
0
  6
Continuous
 62
     7
370
    25
100
AcDbSpline
210
0.0
220
0.0
230
1.0
 70
    24
 71
     3
 72
    11
 73
     7
 74
     0
 42
0.00000001
 43
0.00000001
 40
0.0
 40
0.0
 40
0.0
 40
0.0
 40
0.1307315392775144
 40
0.4394619458159251
 40
0.7191659981866161
 40
1.0
 40
1.0
 40
1.0
 40
1.0
 10
119.6376291468705
 20
127.3574387412065
 30
0.0
 10
119.6409876265235
 20
127.3574387412065
 30
0.0
 10
119.6522773582242
 20
127.3574387412065
 30
0.0
 10
119.55115145473
 20
127.3574387412065
 30
0.0
 10
119.3600016607865
 20
127.3574387412065
 30
0.0
 10
119.1701178688214
 20
127.3574387412064
 30
0.0
 10
119.0749845861138
 20
127.3574387412064
 30
0.0
  0
LINE
  5
1F2
330
1F
100
AcDbEntity
  8
0
  6
Continuous
 62
     7
370
    25
100
AcDbLine
 10
99.7966724226
 20
110.0032912061
 30
0.0
 11
99.7966724226
 21
114.3574387412
 31
0.0
  0
LINE
  5
1F3
330
1F
100
AcDbEntity
  8
0
  6
Continuous
 62
     7
370
    25
100
AcDbLine
 10
99.7966724226
 20
121.3574387412
 30
0.0
 11
99.7966724226
 21
125.7115862763
 31
0.0
  0
LINE
  5
1F4
330
1F
100
AcDbEntity
  8
0
  6
Continuous
 62
     7
370
    25
100
AcDbLine
 10
119.0749845861
 20
127.3574387412
 30
0.0
 11
108.5152085322
 21
127.3574387412
 31
0.0
  0
LINE
  5
1F5
330
1F
100
AcDbEntity
  8
0
  6
Continuous
 62
     7
370
    25
100
AcDbLine
 10
108.5152085322
 20
108.3574387412
 30
0.0
 11
119.0749845861
 21
108.3574387412
 31
0.0
  0
SPLINE
  5
1F6
330
1F
100
AcDbEntity
  8
0
  6
Continuous
 62
     7
370
    25
100
AcDbSpline
210
0.0
220
0.0
230
1.0
 70
    24
 71
     3
 72
    11
 73
     7
 74
     0
 42
0.00000001
 43
0.00000001
 40
0.0
 40
0.0
 40
0.0
 40
0.0
 40
0.2756213602209204
 40
0.5522148162453974
 40
0.8527228045072875
 40
1.0
 40
1.0
 40
1.0
 40
1.0
 10
125.0749845861138
 20
108.3574387412065
 30
0.0
 10
125.168425615707
 20
108.3574387412065
 30
0.0
 10
125.3556372343756
 20
108.3574387412065
 30
0.0
 10
125.5457792814566
 20
108.3574387412065
 30
0.0
 10
125.6490581975182
 20
108.3574387412065
 30
0.0
 10
125.6408290014903
 20
108.3574387412065
 30
0.0
 10
125.6381224069978
 20
108.3574387412065
 30
0.0
  0
LINE
  5
1F7
330
1F
100
AcDbEntity
  8
0
  6
Continuous
 62
     7
370
    25
100
AcDbLine
 10
125.0749845861
 20
108.3574387412
 30
0.0
 11
125.0749845861
 21
109.234455395
 31
0.0
  0
SPLINE
  5
1F8
330
1F
100
AcDbEntity
  8
0
  6
Continuous
 62
     7
370
    25
100
AcDbSpline
210
0.0
220
0.0
230
1.0
 70
     8
 71
     3
 72
    10
 73
     6
 74
     0
 42
0.00000001
 43
0.00000001
 40
0.0
 40
0.0
 40
0.0
 40
0.0
 40
0.2829212242161419
 40
0.6400894361551991
 40
1.0
 40
1.0
 40
1.0
 40
1.0
 10
125.6461132300772
 20
113.2126930032253
 30
0.0
 10
125.6411144475066
 20
112.8335536519867
 30
0.0
 10
125.6298050523704
 20
111.9757774486249
 30
0.0
 10
125.4385709796493
 20
110.6427071925161
 30
0.0
 10
125.1964886522068
 20
109.7050679441025
 30
0.0
 10
125.0749845861138
 20
109.2344553949991
 30
0.0
  0
SPLINE
  5
1F9
330
1F
100
AcDbEntity
  8
0
  6
Continuous
 62
     7
370
    25
100
AcDbSpline
210
0.0
220
0.0
230
1.0
 70
     8
 71
     3
 72
    11
 73
     7
 74
     0
 42
0.00000001
 43
0.00000001
 40
0.0
 40
0.0
 40
0.0
 40
0.0
 40
0.3033115225028871
 40
0.606542412885452
 40
0.9171473393174752
 40
1.0
 40
1.0
 40
1.0
 40
1.0
 10
125.0749845861138
 20
126.4804220874139
 30
0.0
 10
125.1800143508417
 20
126.083191076173
 30
0.0
 10
125.3900459592591
 20
125.288834653302
 30
0.0
 10
125.5796543244975
 20
124.0676836772045
 30
0.0
 10
125.6656673572774
 20
123.1324968538547
 30
0.0
 10
125.6436593083478
 20
122.604392492753
 30
0.0
 10
125.6390249450265
 20
122.4931864749552
 30
0.0
  0
LINE
  5
1FA
330
1F
100
AcDbEntity
  8
0
  6
Continuous
 62
     7
370
    25
100
AcDbLine
 10
125.0749845861
 20
126.4804220874
 30
0.0
 11
125.0749845861
 21
127.3574387412
 31
0.0
  0
SPLINE
  5
1FB
330
1F
100
AcDbEntity
  8
0
  6
Continuous
 62
     7
370
    25
100
AcDbSpline
210
0.0
220
0.0
230
1.0
 70
    24
 71
     3
 72
    11
 73
     7
 74
     0
 42
0.00000001
 43
0.00000001
 40
0.0
 40
0.0
 40
0.0
 40
0.0
 40
0.1395080913719206
 40
0.4477773912092012
 40
0.7233511212270441
 40
1.0
 40
1.0
 40
1.0
 40
1.0
 10
125.6374758591295
 20
127.3574387412065
 30
0.0
 10
125.6406419168916
 20
127.3574387412065
 30
0.0
 10
125.6508039732369
 20
127.3574387412065
 30
0.0
 10
125.547400902766
 20
127.3574387412065
 30
0.0
 10
125.3559869623631
 20
127.3574387412065
 30
0.0
 10
125.1687735431334
 20
127.3574387412065
 30
0.0
 10
125.0749845861138
 20
127.3574387412065
 30
0.0
  0
SPLINE
  5
1FC
330
1F
100
AcDbEntity
  8
0
  6
Continuous
 62
     7
370
    25
100
AcDbSpline
210
0.0
220
0.0
230
1.0
 70
    24
 71
     3
 72
    11
 73
     7
 74
     0
 42
0.00000001
 43
0.00000001
 40
0.0
 40
0.0
 40
0.0
 40
0.0
 40
0.2754631920626699
 40
0.5518966585730684
 40
0.8523877454571083
 40
1.0
 40
1.0
 40
1.0
 40
1.0
 10
120.5183602590879
 20
127.3574387412065
 30
0.0
 10
120.4249700560373
 20
127.3574387412065
 30
0.0
 10
120.2378606980823
 20
127.3574387412065
 30
0.0
 10
120.0477113551133
 20
127.3574387412065
 30
0.0
 10
119.9443431281171
 20
127.3574387412065
 30
0.0
 10
119.9525259184133
 20
127.3574387412065
 30
0.0
 10
119.9552214576168
 20
127.3574387412065
 30
0.0
  0
LINE
  5
1FD
330
1F
100
AcDbEntity
  8
0
  6
Continuous
 62
     7
370
    25
100
AcDbLine
 10
120.5183602591
 20
127.3574387412
 30
0.0
 11
120.5183602591
 21
126.4804220874
 31
0.0
  0
SPLINE
  5
1FE
330
1F
100
AcDbEntity
  8
0
  6
Continuous
 62
     7
370
    25
100
AcDbSpline
210
0.0
220
0.0
230
1.0
 70
     8
 71
     3
 72
    11
 73
     7
 74
     0
 42
0.00000001
 43
0.00000001
 40
0.0
 40
0.0
 40
0.0
 40
0.0
 40
0.143893760475903
 40
0.4030613315573994
 40
0.7003892180394146
 40
1.0
 40
1.0
 40
1.0
 40
1.0
 10
119.9902621974926
 20
121.6945964814336
 30
0.0
 10
119.971118879805
 20
121.9256594816857
 30
0.0
 10
119.9174964635719
 20
122.5728908852382
 30
0.0
 10
119.9703997947404
 20
123.7014596446307
 30
0.0
 10
120.1514982116867
 20
125.0721096689138
 30
0.0
 10
120.3957615280931
 20
126.0097892798628
 30
0.0
 10
120.5183602590879
 20
126.4804220874139
 30
0.0
  0
SPLINE
  5
1FF
330
1F
100
AcDbEntity
  8
0
  6
Continuous
 62
     7
370
    25
100
AcDbSpline
210
0.0
220
0.0
230
1.0
 70
     8
 71
     3
 72
    11
 73
     7
 74
     0
 42
0.00000001
 43
0.00000001
 40
0.0
 40
0.0
 40
0.0
 40
0.0
 40
0.252784232691345
 40
0.5055012654013054
 40
0.764363926965781
 40
1.0
 40
1.0
 40
1.0
 40
1.0
 10
120.5183602590879
 20
109.2344553949991
 30
0.0
 10
120.413672091129
 20
109.6316861830641
 30
0.0
 10
120.2043235854396
 20
110.4260421596428
 30
0.0
 10
120.0095514764438
 20
111.6471965093758
 30
0.0
 10
119.9183381922177
 20
112.8506799370257
 30
0.0
 10
119.9603101729635
 20
113.6470644618783
 30
0.0
 10
119.9803104520915
 20
114.0265536474549
 30
0.0
  0
LINE
  5
200
330
1F
100
AcDbEntity
  8
0
  6
Continuous
 62
     7
370
    25
100
AcDbLine
 10
120.5183602591
 20
109.234455395
 30
0.0
 11
120.5183602591
 21
108.3574387412
 31
0.0
  0
SPLINE
  5
201
330
1F
100
AcDbEntity
  8
0
  6
Continuous
 62
     7
370
    25
100
AcDbSpline
210
0.0
220
0.0
230
1.0
 70
    24
 71
     3
 72
    11
 73
     7
 74
     0
 42
0.00000001
 43
0.00000001
 40
0.0
 40
0.0
 40
0.0
 40
0.0
 40
0.1398438779634454
 40
0.4480956368236278
 40
0.7235112734182115
 40
1.0
 40
1.0
 40
1.0
 40
1.0
 10
119.9558728569747
 20
108.3574387412065
 30
0.0
 10
119.9527153013413
 20
108.3574387412065
 30
0.0
 10
119.9425976835879
 20
108.3574387412065
 30
0.0
 10
120.0460888085172
 20
108.3574387412065
 30
0.0
 10
120.2375116067621
 20
108.3574387412065
 30
0.0
 10
120.4246227723756
 20
108.3574387412065
 30
0.0
 10
120.5183602590879
 20
108.3574387412065
 30
0.0
  0
LINE
  5
202
330
1F
100
AcDbEntity
  8
0
  6
Continuous
 62
     7
370
    25
100
AcDbLine
 10
120.5183602591
 20
126.4804220874
 30
0.0
 11
125.0749845861
 21
126.4804220874
 31
0.0
  0
LINE
  5
203
330
1F
100
AcDbEntity
  8
0
  6
Continuous
 62
     7
370
    25
100
AcDbLine
 10
125.0749845861
 20
109.234455395
 30
0.0
 11
120.5183602591
 21
109.234455395
 31
0.0
  0
LINE
  5
204
330
1F
100
AcDbEntity
  8
0
  6
Continuous
 62
     7
370
    25
100
AcDbLine
 10
120.5183602591
 20
108.3574387412
 30
0.0
 11
125.0749845861
 21
108.3574387412
 31
0.0
  0
LINE
  5
205
330
1F
100
AcDbEntity
  8
0
  6
Continuous
 62
     7
370
    25
100
AcDbLine
 10
125.0749845861
 20
127.3574387412
 30
0.0
 11
120.5183602591
 21
127.3574387412
 31
0.0
  0
LINE
  5
206
330
1F
100
AcDbEntity
  8
0
  6
Continuous
 62
     7
370
    25
100
AcDbLine
 10
127.9147064114
 20
127.8574387412
 30
0.0
 11
127.9147064114
 21
122.9484749344
 31
0.0
  0
LINE
  5
207
330
1F
100
AcDbEntity
  8
0
  6
Continuous
 62
     7
370
    25
100
AcDbLine
 10
127.9147064114
 20
112.766402548
 30
0.0
 11
127.9147064114
 21
107.8574387412
 31
0.0
  0
SPLINE
  5
208
330
1F
100
AcDbEntity
  8
0
  6
Continuous
 62
     7
370
    25
100
AcDbSpline
210
0.0
220
0.0
230
1.0
 70
     8
 71
     3
 72
    12
 73
     8
 74
     0
 42
0.00000001
 43
0.00000001
 40
0.0
 40
0.0
 40
0.0
 40
0.0
 40
0.2500000000000001
 40
0.2500000000000001
 40
0.5000000000000001
 40
0.5000000000000001
 40
1.0
 40
1.0
 40
1.0
 40
1.0
 10
128.0675863554988
 20
126.6198999209563
 30
0.0
 10
128.1487029576034
 20
126.6544050588164
 30
0.0
 10
128.1957328807718
 20
126.6872501301168
 30
0.0
 10
128.2585964823036
 20
126.7456026583635
 30
0.0
 10
128.2740461532208
 20
126.7712570219921
 30
0.0
 10
128.3012298176001
 20
126.8343562747319
 30
0.0
 10
128.2966724226008
 20
126.8574387412065
 30
0.0
 10
128.2966724226008
 20
126.8574387412065
 30
0.0
  0
SPLINE
  5
209
330
1F
100
AcDbEntity
  8
0
  6
Continuous
 62
     7
370
    25
100
AcDbSpline
210
0.0
220
0.0
230
1.0
 70
     8
 71
     3
 72
    14
 73
    10
 74
     0
 42
0.00000001
 43
0.00000001
 40
0.0
 40
0.0
 40
0.0
 40
0.0
 40
0.25
 40
0.25
 40
0.5
 40
0.5
 40
0.75
 40
0.75
 40
1.0
 40
1.0
 40
1.0
 40
1.0
 10
128.0675863554988
 20
126.6198999209563
 30
0.0
 10
128.0400653677537
 20
126.6081931254107
 30
0.0
 10
128.0201454459173
 20
126.5761511723291
 30
0.0
 10
128.0044784040992
 20
126.4768274216642
 30
0.0
 10
128.0089702359116
 20
126.4090039788834
 30
0.0
 10
128.0402265811952
 20
126.2465623614706
 30
0.0
 10
128.0665991645769
 20
126.1521169647348
 30
0.0
 10
128.1294357157212
 20
125.9438878571383
 30
0.0
 10
128.1654752945813
 20
125.8312894642551
 30
0.0
 10
128.1994712979469
 20
125.7115330706551
 30
0.0
  0
SPLINE
  5
20A
330
1F
100
AcDbEntity
  8
0
  6
Continuous
 62
     7
370
    25
100
AcDbSpline
210
0.0
220
0.0
230
1.0
 70
     8
 71
     3
 72
     8
 73
     4
 74
     0
 42
0.00000001
 43
0.00000001
 40
0.0
 40
0.0
 40
0.0
 40
0.0
 40
1.0
 40
1.0
 40
1.0
 40
1.0
 10
128.2966724226008
 20
124.981342165594
 30
0.0
 10
128.2966724226008
 20
125.228771622389
 30
0.0
 10
128.267307715523
 20
125.4725683712963
 30
0.0
 10
128.1994712979469
 20
125.7115330706551
 30
0.0
  0
LINE
  5
20B
330
1F
100
AcDbEntity
  8
0
  6
Continuous
 62
     7
370
    25
100
AcDbLine
 10
128.2966724226
 20
124.9813421656
 30
0.0
 11
128.2966724226
 21
123.0357872078
 31
0.0
  0
LINE
  5
20C
330
1F
100
AcDbEntity
  8
0
  6
Continuous
 62
     7
370
    25
100
AcDbLine
 10
128.2966724226
 20
112.6790902747
 30
0.0
 11
128.2966724226
 21
110.7335353168
 31
0.0
  0
SPLINE
  5
20D
330
1F
100
AcDbEntity
  8
0
  6
Continuous
 62
     7
370
    25
100
AcDbSpline
210
0.0
220
0.0
230
1.0
 70
     8
 71
     3
 72
     8
 73
     4
 74
     0
 42
0.00000001
 43
0.00000001
 40
0.0
 40
0.0
 40
0.0
 40
0.0
 40
1.0
 40
1.0
 40
1.0
 40
1.0
 10
128.1994712979469
 20
110.0033444117579
 30
0.0
 10
128.267307715523
 20
110.2423091111166
 30
0.0
 10
128.2966724226008
 20
110.486105860024
 30
0.0
 10
128.2966724226008
 20
110.733535316819
 30
0.0
  0
SPLINE
  5
20E
330
1F
100
AcDbEntity
  8
0
  6
Continuous
 62
     7
370
    25
100
AcDbSpline
210
0.0
220
0.0
230
1.0
 70
     8
 71
     3
 72
    12
 73
     8
 74
     0
 42
0.00000001
 43
0.00000001
 40
0.0
 40
0.0
 40
0.0
 40
0.0
 40
0.4999999999999992
 40
0.4999999999999992
 40
0.7499999999999996
 40
0.7499999999999996
 40
1.0
 40
1.0
 40
1.0
 40
1.0
 10
128.1994712979469
 20
110.0033444117579
 30
0.0
 10
128.1316015379371
 20
109.7642622583098
 30
0.0
 10
128.0555669866834
 20
109.548492151133
 30
0.0
 10
128.0089223883064
 20
109.3053975584291
 30
0.0
 10
128.0044833917837
 20
109.2377322829529
 30
0.0
 10
128.0202140055765
 20
109.1385791667963
 30
0.0
 10
128.0400944355189
 20
109.1066719922431
 30
0.0
 10
128.0675863554988
 20
109.0949775614567
 30
0.0
  0
SPLINE
  5
20F
330
1F
100
AcDbEntity
  8
0
  6
Continuous
 62
     7
370
    25
100
AcDbSpline
210
0.0
220
0.0
230
1.0
 70
     8
 71
     3
 72
    12
 73
     8
 74
     0
 42
0.00000001
 43
0.00000001
 40
0.0
 40
0.0
 40
0.0
 40
0.0
 40
0.4999999999999998
 40
0.4999999999999998
 40
0.7499999999999999
 40
0.7499999999999999
 40
1.0
 40
1.0
 40
1.0
 40
1.0
 10
128.2966724226008
 20
108.8574387412065
 30
0.0
 10
128.2966724226008
 20
108.8574387412065
 30
0.0
 10
128.3012298176001
 20
108.8805212076811
 30
0.0
 10
128.2740461532208
 20
108.9436204604208
 30
0.0
 10
128.2585964823036
 20
108.9692748240495
 30
0.0
 10
128.1957328807718
 20
109.0276273522961
 30
0.0
 10
128.1487029576034
 20
109.0604724235966
 30
0.0
 10
128.0675863554988
 20
109.0949775614567
 30
0.0
  0
LINE
  5
210
330
1F
100
AcDbEntity
  8
0
  6
Continuous
 62
     7
370
    25
100
AcDbLine
 10
143.6786384339
 20
107.8574387412
 30
0.0
 11
143.6786384339
 21
127.8574387412
 31
0.0
  0
SPLINE
  5
211
330
1F
100
AcDbEntity
  8
0
  6
Continuous
 62
     7
370
    25
100
AcDbSpline
210
0.0
220
0.0
230
1.0
 70
     8
 71
     3
 72
    12
 73
     8
 74
     0
 42
0.00000001
 43
0.00000001
 40
0.0
 40
0.0
 40
0.0
 40
0.0
 40
0.25
 40
0.25
 40
0.5
 40
0.5
 40
1.0
 40
1.0
 40
1.0
 40
1.0
 10
143.5257584897029
 20
109.0949775614567
 30
0.0
 10
143.4446418875983
 20
109.0604724235966
 30
0.0
 10
143.3976119644299
 20
109.0276273522961
 30
0.0
 10
143.3347483628981
 20
108.9692748240495
 30
0.0
 10
143.3192986919809
 20
108.9436204604208
 30
0.0
 10
143.2921150276016
 20
108.8805212076811
 30
0.0
 10
143.2966724226009
 20
108.8574387412065
 30
0.0
 10
143.2966724226009
 20
108.8574387412065
 30
0.0
  0
SPLINE
  5
212
330
1F
100
AcDbEntity
  8
0
  6
Continuous
 62
     7
370
    25
100
AcDbSpline
210
0.0
220
0.0
230
1.0
 70
     8
 71
     3
 72
    14
 73
    10
 74
     0
 42
0.00000001
 43
0.00000001
 40
0.0
 40
0.0
 40
0.0
 40
0.0
 40
0.25
 40
0.25
 40
0.5
 40
0.5
 40
0.75
 40
0.75
 40
1.0
 40
1.0
 40
1.0
 40
1.0
 10
143.5257584897029
 20
109.0949775614567
 30
0.0
 10
143.5532794774479
 20
109.1066843570022
 30
0.0
 10
143.5731993992844
 20
109.1387263100838
 30
0.0
 10
143.5888664411024
 20
109.2380500607488
 30
0.0
 10
143.5843746092901
 20
109.3058735035296
 30
0.0
 10
143.5531182640065
 20
109.4683151209424
 30
0.0
 10
143.5267456806248
 20
109.5627605176781
 30
0.0
 10
143.4639091294804
 20
109.7709896252747
 30
0.0
 10
143.4278695506204
 20
109.8835880181578
 30
0.0
 10
143.3938735472548
 20
110.0033444117579
 30
0.0
  0
SPLINE
  5
213
330
1F
100
AcDbEntity
  8
0
  6
Continuous
 62
     7
370
    25
100
AcDbSpline
210
0.0
220
0.0
230
1.0
 70
     8
 71
     3
 72
     8
 73
     4
 74
     0
 42
0.00000001
 43
0.00000001
 40
0.0
 40
0.0
 40
0.0
 40
0.0
 40
1.0
 40
1.0
 40
1.0
 40
1.0
 10
143.2966724226009
 20
110.733535316819
 30
0.0
 10
143.2966724226009
 20
110.486105860024
 30
0.0
 10
143.3260371296787
 20
110.2423091111166
 30
0.0
 10
143.3938735472548
 20
110.0033444117579
 30
0.0
  0
LINE
  5
214
330
1F
100
AcDbEntity
  8
0
  6
Continuous
 62
     7
370
    25
100
AcDbLine
 10
143.2966724226
 20
110.7335353168
 30
0.0
 11
143.2966724226
 21
124.9813421656
 31
0.0
  0
SPLINE
  5
215
330
1F
100
AcDbEntity
  8
0
  6
Continuous
 62
     7
370
    25
100
AcDbSpline
210
0.0
220
0.0
230
1.0
 70
     8
 71
     3
 72
     8
 73
     4
 74
     0
 42
0.00000001
 43
0.00000001
 40
0.0
 40
0.0
 40
0.0
 40
0.0
 40
1.0
 40
1.0
 40
1.0
 40
1.0
 10
143.3938735472548
 20
125.7115330706551
 30
0.0
 10
143.3260371296787
 20
125.4725683712963
 30
0.0
 10
143.2966724226009
 20
125.228771622389
 30
0.0
 10
143.2966724226009
 20
124.981342165594
 30
0.0
  0
SPLINE
  5
216
330
1F
100
AcDbEntity
  8
0
  6
Continuous
 62
     7
370
    25
100
AcDbSpline
210
0.0
220
0.0
230
1.0
 70
     8
 71
     3
 72
    12
 73
     8
 74
     0
 42
0.00000001
 43
0.00000001
 40
0.0
 40
0.0
 40
0.0
 40
0.0
 40
0.4999999999999992
 40
0.4999999999999992
 40
0.7499999999999996
 40
0.7499999999999996
 40
1.0
 40
1.0
 40
1.0
 40
1.0
 10
143.3938735472548
 20
125.7115330706551
 30
0.0
 10
143.4617433072646
 20
125.9506152241031
 30
0.0
 10
143.5377778585183
 20
126.16638533128
 30
0.0
 10
143.5844224568953
 20
126.4094799239839
 30
0.0
 10
143.588861453418
 20
126.47714519946
 30
0.0
 10
143.5731308396251
 20
126.5762983156166
 30
0.0
 10
143.5532504096828
 20
126.6082054901699
 30
0.0
 10
143.5257584897029
 20
126.6198999209563
 30
0.0
  0
SPLINE
  5
217
330
1F
100
AcDbEntity
  8
0
  6
Continuous
 62
     7
370
    25
100
AcDbSpline
210
0.0
220
0.0
230
1.0
 70
     8
 71
     3
 72
    12
 73
     8
 74
     0
 42
0.00000001
 43
0.00000001
 40
0.0
 40
0.0
 40
0.0
 40
0.0
 40
0.5000000000000002
 40
0.5000000000000002
 40
0.7500000000000001
 40
0.7500000000000001
 40
1.0
 40
1.0
 40
1.0
 40
1.0
 10
143.2966724226009
 20
126.8574387412065
 30
0.0
 10
143.2966724226009
 20
126.8574387412065
 30
0.0
 10
143.2921150276016
 20
126.8343562747319
 30
0.0
 10
143.3192986919809
 20
126.7712570219921
 30
0.0
 10
143.3347483628981
 20
126.7456026583635
 30
0.0
 10
143.3976119644299
 20
126.6872501301168
 30
0.0
 10
143.4446418875983
 20
126.6544050588164
 30
0.0
 10
143.5257584897029
 20
126.6198999209563
 30
0.0
  0
LINE
  5
218
330
1F
100
AcDbEntity
  8
0
  6
Continuous
 62
     7
370
    25
100
AcDbLine
 10
145.2966724226
 20
107.8574387412
 30
0.0
 11
145.2966724226
 21
127.8574387412
 31
0.0
  0
LINE
  5
219
330
1F
100
AcDbEntity
  8
0
  6
Continuous
 62
     7
370
    25
100
AcDbLine
 10
145.7966724226
 20
127.3574387412
 30
0.0
 11
145.7966724226
 21
108.3574387412
 31
0.0
  0
LINE
  5
21A
330
1F
100
AcDbEntity
  8
0
  6
Continuous
 62
     7
370
    25
100
AcDbLine
 10
126.0466724226
 20
127.8574387412
 30
0.0
 11
126.0466724226
 21
122.5561180746
 31
0.0
  0
LINE
  5
21B
330
1F
100
AcDbEntity
  8
0
  6
Continuous
 62
     7
370
    25
100
AcDbLine
 10
126.0466724226
 20
113.1587594078
 30
0.0
 11
126.0466724226
 21
107.8574387412
 31
0.0
  0
LINE
  5
21C
330
1F
100
AcDbEntity
  8
0
  6
Continuous
 62
     7
370
    25
100
AcDbLine
 10
125.7966724226
 20
108.1074387412
 30
0.0
 11
125.7966724226
 21
113.2069394223
 31
0.0
  0
LINE
  5
21D
330
1F
100
AcDbEntity
  8
0
  6
Continuous
 62
     7
370
    25
100
AcDbLine
 10
125.7966724226
 20
122.5079380601
 30
0.0
 11
125.7966724226
 21
127.6074387412
 31
0.0
  0
ARC
  5
21E
330
1F
100
AcDbEntity
  8
0
  6
Continuous
 62
     7
370
    25
100
AcDbCircle
 10
142.8433545214
 20
125.0403181039
 30
0.0
 40
0.4571381420089565
100
AcDbArc
 50
264.138844256
 51
352.5875431534
  0
ARC
  5
21F
330
1F
100
AcDbEntity
  8
0
  6
Continuous
 62
     7
370
    25
100
AcDbCircle
 10
142.8433545214
 20
110.6745593785
 30
0.0
 40
0.4571381420089228
100
AcDbArc
 50
7.4124568466
 51
95.861155744
  0
ARC
  5
220
330
1F
100
AcDbEntity
  8
0
  6
Continuous
 62
     7
370
    25
100
AcDbCircle
 10
128.7499903238
 20
125.0403181039
 30
0.0
 40
0.4571381420089263
100
AcDbArc
 50
187.4124568466
 51
275.861155744
  0
ARC
  5
221
330
1F
100
AcDbEntity
  8
0
  6
Continuous
 62
     7
370
    25
100
AcDbCircle
 10
128.7499903238
 20
110.6745593785
 30
0.0
 40
0.4571381420089151
100
AcDbArc
 50
84.138844256
 51
172.5875431534
  0
LINE
  5
222
330
1F
100
AcDbEntity
  8
0
  6
Continuous
 62
     7
370
    25
100
AcDbLine
 10
153.591147965
 20
124.3807988805
 30
0.0
 11
153.591147965
 21
111.3340786019
 31
0.0
  0
LINE
  5
223
330
1F
100
AcDbEntity
  8
0
  6
Continuous
 62
     7
370
    25
100
AcDbLine
 10
155.7966724226
 20
123.1074387412
 30
0.0
 11
155.7966724226
 21
112.6074387412
 31
0.0
  0
LINE
  5
224
330
1F
100
AcDbEntity
  8
0
  6
Continuous
 62
     7
370
    25
100
AcDbLine
 10
128.1994712979
 20
125.7115330707
 30
0.0
 11
128.6670709231
 21
125.8574387412
 31
0.0
  0
SPLINE
  5
225
330
1F
100
AcDbEntity
  8
0
  6
Continuous
 62
     7
370
    25
100
AcDbSpline
210
0.0
220
0.0
230
1.0
 70
     8
 71
     3
 72
     8
 73
     4
 74
     0
 42
0.00000001
 43
0.00000001
 40
0.0
 40
0.0
 40
0.0
 40
0.0
 40
1.0
 40
1.0
 40
1.0
 40
1.0
 10
128.6670709230623
 20
125.8574387412065
 30
0.0
 10
128.7560796184507
 20
125.5721829835767
 30
0.0
 10
128.7966724226008
 20
125.2797650336947
 30
0.0
 10
128.7966724226008
 20
124.981342165594
 30
0.0
  0
LINE
  5
226
330
1F
100
AcDbEntity
  8
0
  6
Continuous
 62
     7
370
    25
100
AcDbLine
 10
128.2966724226
 20
124.9813421656
 30
0.0
 11
128.7966724226
 21
124.9813421656
 31
0.0
  0
SPLINE
  5
227
330
1F
100
AcDbEntity
  8
0
  6
Continuous
 62
     7
370
    25
100
AcDbSpline
210
0.0
220
0.0
230
1.0
 70
     8
 71
     3
 72
     8
 73
     4
 74
     0
 42
0.00000001
 43
0.00000001
 40
0.0
 40
0.0
 40
0.0
 40
0.0
 40
1.0
 40
1.0
 40
1.0
 40
1.0
 10
142.7966724226009
 20
124.981342165594
 30
0.0
 10
142.7966724226009
 20
125.2797650336947
 30
0.0
 10
142.837265226751
 20
125.5721829835767
 30
0.0
 10
142.9262739221394
 20
125.8574387412065
 30
0.0
  0
LINE
  5
228
330
1F
100
AcDbEntity
  8
0
  6
Continuous
 62
     7
370
    25
100
AcDbLine
 10
142.9262739221
 20
125.8574387412
 30
0.0
 11
143.3938735473
 21
125.7115330707
 31
0.0
  0
LINE
  5
229
330
1F
100
AcDbEntity
  8
0
  6
Continuous
 62
     7
370
    25
100
AcDbLine
 10
142.7966724226
 20
124.9813421656
 30
0.0
 11
143.2966724226
 21
124.9813421656
 31
0.0
  0
SPLINE
  5
22A
330
1F
100
AcDbEntity
  8
0
  6
Continuous
 62
     7
370
    25
100
AcDbSpline
210
0.0
220
0.0
230
1.0
 70
     8
 71
     3
 72
     8
 73
     4
 74
     0
 42
0.00000001
 43
0.00000001
 40
0.0
 40
0.0
 40
0.0
 40
0.0
 40
1.0
 40
1.0
 40
1.0
 40
1.0
 10
128.7966724226008
 20
110.733535316819
 30
0.0
 10
128.7966724226008
 20
110.4351124487182
 30
0.0
 10
128.7560796184507
 20
110.1426944988363
 30
0.0
 10
128.6670709230623
 20
109.8574387412065
 30
0.0
  0
LINE
  5
22B
330
1F
100
AcDbEntity
  8
0
  6
Continuous
 62
     7
370
    25
100
AcDbLine
 10
128.6670709231
 20
109.8574387412
 30
0.0
 11
128.1994712979
 21
110.0033444118
 31
0.0
  0
LINE
  5
22C
330
1F
100
AcDbEntity
  8
0
  6
Continuous
 62
     7
370
    25
100
AcDbLine
 10
128.2966724226
 20
110.7335353168
 30
0.0
 11
128.7966724226
 21
110.7335353168
 31
0.0
  0
LINE
  5
22D
330
1F
100
AcDbEntity
  8
0
  6
Continuous
 62
     7
370
    25
100
AcDbLine
 10
143.3938735473
 20
110.0033444118
 30
0.0
 11
142.9262739221
 21
109.8574387412
 31
0.0
  0
SPLINE
  5
22E
330
1F
100
AcDbEntity
  8
0
  6
Continuous
 62
     7
370
    25
100
AcDbSpline
210
0.0
220
0.0
230
1.0
 70
     8
 71
     3
 72
     8
 73
     4
 74
     0
 42
0.00000001
 43
0.00000001
 40
0.0
 40
0.0
 40
0.0
 40
0.0
 40
1.0
 40
1.0
 40
1.0
 40
1.0
 10
142.9262739221394
 20
109.8574387412065
 30
0.0
 10
142.837265226751
 20
110.1426944988363
 30
0.0
 10
142.7966724226009
 20
110.4351124487182
 30
0.0
 10
142.7966724226009
 20
110.733535316819
 30
0.0
  0
LINE
  5
22F
330
1F
100
AcDbEntity
  8
0
  6
Continuous
 62
     7
370
    25
100
AcDbLine
 10
143.2966724226
 20
110.7335353168
 30
0.0
 11
142.7966724226
 21
110.7335353168
 31
0.0
  0
LINE
  5
230
330
1F
100
AcDbEntity
  8
0
  6
Continuous
 62
     7
370
    25
100
AcDbLine
 10
142.7966724226
 20
124.5855697531
 30
0.0
 11
142.7966724226
 21
124.9813421656
 31
0.0
  0
LINE
  5
231
330
1F
100
AcDbEntity
  8
0
  6
Continuous
 62
     7
370
    25
100
AcDbLine
 10
128.7966724226
 20
124.5855697531
 30
0.0
 11
128.7966724226
 21
124.9813421656
 31
0.0
  0
LINE
  5
232
330
1F
100
AcDbEntity
  8
0
  6
Continuous
 62
     7
370
    25
100
AcDbLine
 10
128.7966724226
 20
110.7335353168
 30
0.0
 11
128.7966724226
 21
111.1293077293
 31
0.0
  0
LINE
  5
233
330
1F
100
AcDbEntity
  8
0
  6
Continuous
 62
     7
370
    25
100
AcDbLine
 10
142.7966724226
 20
110.7335353168
 30
0.0
 11
142.7966724226
 21
111.1293077293
 31
0.0
  0
ARC
  5
234
330
1F
100
AcDbEntity
  8
0
  6
Continuous
 62
     7
370
    25
100
AcDbCircle
 10
128.4950541461
 20
126.8367475587
 30
0.0
 40
0.4793241179195418
100
AcDbArc
 50
206.8979585986
 51
269.5422002632
  0
SPLINE
  5
235
330
1F
100
AcDbEntity
  8
0
  6
Continuous
 62
     7
370
    25
100
AcDbSpline
210
0.0
220
0.0
230
1.0
 70
     8
 71
     3
 72
    14
 73
    10
 74
     0
 42
0.00000001
 43
0.00000001
 40
0.0
 40
0.0
 40
0.0
 40
0.0
 40
0.25
 40
0.25
 40
0.5
 40
0.5
 40
0.75
 40
0.75
 40
1.0
 40
1.0
 40
1.0
 40
1.0
 10
128.6670709230623
 20
125.8574387412065
 30
0.0
 10
128.6285954394407
 20
125.9190920054339
 30
0.0
 10
128.5875065179707
 20
125.9772759507069
 30
0.0
 10
128.5082236705301
 20
126.0909412721738
 30
0.0
 10
128.4709407694197
 20
126.1446178708736
 30
0.0
 10
128.4181350101079
 20
126.2446079033202
 30
0.0
 10
128.4061657500142
 20
126.2890124035432
 30
0.0
 10
128.4261675383864
 20
126.345072259037
 30
0.0
 10
128.4556239939387
 20
126.3574387412065
 30
0.0
 10
128.4912243331314
 20
126.3574387412065
 30
0.0
  0
ARC
  5
236
330
1F
100
AcDbEntity
  8
0
  6
Continuous
 62
     7
370
    25
100
AcDbCircle
 10
143.0982906991
 20
108.8781299237
 30
0.0
 40
0.4793241179196273
100
AcDbArc
 50
26.8979585986
 51
89.5422002632
  0
SPLINE
  5
237
330
1F
100
AcDbEntity
  8
0
  6
Continuous
 62
     7
370
    25
100
AcDbSpline
210
0.0
220
0.0
230
1.0
 70
     8
 71
     3
 72
    14
 73
    10
 74
     0
 42
0.00000001
 43
0.00000001
 40
0.0
 40
0.0
 40
0.0
 40
0.0
 40
0.25
 40
0.25
 40
0.5
 40
0.5
 40
0.75
 40
0.75
 40
1.0
 40
1.0
 40
1.0
 40
1.0
 10
142.9262739221394
 20
109.8574387412065
 30
0.0
 10
142.964749405761
 20
109.795785476979
 30
0.0
 10
143.005838327231
 20
109.7376015317061
 30
0.0
 10
143.0851211746716
 20
109.6239362102391
 30
0.0
 10
143.122404075782
 20
109.5702596115394
 30
0.0
 10
143.1752098350938
 20
109.4702695790927
 30
0.0
 10
143.1871790951874
 20
109.4258650788698
 30
0.0
 10
143.1671773068153
 20
109.369805223376
 30
0.0
 10
143.137720851263
 20
109.3574387412065
 30
0.0
 10
143.1021205120702
 20
109.3574387412065
 30
0.0
  0
SPLINE
  5
238
330
1F
100
AcDbEntity
  8
0
  6
Continuous
 62
     7
370
    25
100
AcDbSpline
210
0.0
220
0.0
230
1.0
 70
     8
 71
     3
 72
    16
 73
    12
 74
     0
 42
0.00000001
 43
0.00000001
 40
0.0
 40
0.0
 40
0.0
 40
0.0
 40
0.2500000000000011
 40
0.2500000000000011
 40
0.3749999999999992
 40
0.3749999999999992
 40
0.4999999999999974
 40
0.4999999999999974
 40
0.7499999999999987
 40
0.7499999999999987
 40
1.0
 40
1.0
 40
1.0
 40
1.0
 10
143.1021205120702
 20
126.3574387412065
 30
0.0
 10
143.1376744415189
 20
126.3574387412065
 30
0.0
 10
143.1669465827476
 20
126.3453069907907
 30
0.0
 10
143.1821591329685
 20
126.3032852845112
 30
0.0
 10
143.182219801142
 20
126.2850709150047
 30
0.0
 10
143.1720092166647
 20
126.2431339024781
 30
0.0
 10
143.1622258871394
 20
126.2201063389839
 30
0.0
 10
143.1230613386075
 20
126.1456976602118
 30
0.0
 10
143.0851882653342
 20
126.0910397840294
 30
0.0
 10
143.0061152923426
 20
125.9776707108506
 30
0.0
 10
142.9647281597518
 20
125.9190579607464
 30
0.0
 10
142.9262739221394
 20
125.8574387412065
 30
0.0
  0
ARC
  5
239
330
1F
100
AcDbEntity
  8
0
  6
Continuous
 62
     7
370
    25
100
AcDbCircle
 10
143.0982906991
 20
126.8367475587
 30
0.0
 40
0.4793241179195702
100
AcDbArc
 50
270.4577997368
 51
333.1020414014
  0
SPLINE
  5
23A
330
1F
100
AcDbEntity
  8
0
  6
Continuous
 62
     7
370
    25
100
AcDbSpline
210
0.0
220
0.0
230
1.0
 70
     8
 71
     3
 72
    16
 73
    12
 74
     0
 42
0.00000001
 43
0.00000001
 40
0.0
 40
0.0
 40
0.0
 40
0.0
 40
0.2500000000000049
 40
0.2500000000000049
 40
0.3750000000000051
 40
0.3750000000000051
 40
0.5000000000000052
 40
0.5000000000000052
 40
0.7500000000000026
 40
0.7500000000000026
 40
1.0
 40
1.0
 40
1.0
 40
1.0
 10
128.4912243331314
 20
109.3574387412065
 30
0.0
 10
128.4556704036828
 20
109.3574387412065
 30
0.0
 10
128.4263982624541
 20
109.3695704916223
 30
0.0
 10
128.4111857122332
 20
109.4115921979017
 30
0.0
 10
128.4111250440597
 20
109.4298065674082
 30
0.0
 10
128.421335628537
 20
109.4717435799348
 30
0.0
 10
128.4311189580623
 20
109.4947711434291
 30
0.0
 10
128.4702835065942
 20
109.5691798222011
 30
0.0
 10
128.5081565798675
 20
109.6238376983836
 30
0.0
 10
128.5872295528591
 20
109.7372067715623
 30
0.0
 10
128.6286166854499
 20
109.7958195216665
 30
0.0
 10
128.6670709230623
 20
109.8574387412065
 30
0.0
  0
ARC
  5
23B
330
1F
100
AcDbEntity
  8
0
  6
Continuous
 62
     7
370
    25
100
AcDbCircle
 10
128.4950541461
 20
108.8781299237
 30
0.0
 40
0.4793241179196134
100
AcDbArc
 50
90.4577997369
 51
153.1020414014
  0
LINE
  5
23C
330
1F
100
AcDbEntity
  8
0
  6
Continuous
 62
     7
370
    25
100
AcDbLine
 10
142.9262739221
 20
125.8574387412
 30
0.0
 11
128.6670709231
 21
125.8574387412
 31
0.0
  0
LINE
  5
23D
330
1F
100
AcDbEntity
  8
0
  6
Continuous
 62
     7
370
    25
100
AcDbLine
 10
128.4912243331
 20
126.3574387412
 30
0.0
 11
143.1021205121
 21
126.3574387412
 31
0.0
  0
LINE
  5
23E
330
1F
100
AcDbEntity
  8
0
  6
Continuous
 62
     7
370
    25
100
AcDbLine
 10
128.6670709231
 20
109.8574387412
 30
0.0
 11
142.9262739221
 21
109.8574387412
 31
0.0
  0
LINE
  5
23F
330
1F
100
AcDbEntity
  8
0
  6
Continuous
 62
     7
370
    25
100
AcDbLine
 10
143.1021205121
 20
109.3574387412
 30
0.0
 11
128.4912243331
 21
109.3574387412
 31
0.0
  0
ARC
  5
240
330
1F
100
AcDbEntity
  8
0
  6
Continuous
 62
     7
370
    25
100
AcDbCircle
 10
142.7966724226
 20
126.8574387412
 30
0.0
 40
0.5
100
AcDbArc
 50
270.0
 51
0.0
  0
ARC
  5
241
330
1F
100
AcDbEntity
  8
0
  6
Continuous
 62
     7
370
    25
100
AcDbCircle
 10
128.7966724226
 20
126.8574387412
 30
0.0
 40
0.5
100
AcDbArc
 50
180.0
 51
270.0
  0
ARC
  5
242
330
1F
100
AcDbEntity
  8
0
  6
Continuous
 62
     7
370
    25
100
AcDbCircle
 10
142.7966724226
 20
108.8574387412
 30
0.0
 40
0.5000000000000142
100
AcDbArc
 50
0.0
 51
90.0
  0
ARC
  5
243
330
1F
100
AcDbEntity
  8
0
  6
Continuous
 62
     7
370
    25
100
AcDbCircle
 10
128.7966724226
 20
108.8574387412
 30
0.0
 40
0.5000000000000142
100
AcDbArc
 50
90.0
 51
180.0
  0
SPLINE
  5
244
330
1F
100
AcDbEntity
  8
0
  6
Continuous
 62
     7
370
    25
100
AcDbSpline
210
0.0
220
0.0
230
1.0
 70
     8
 71
     3
 72
    15
 73
    11
 74
     0
 42
0.00000001
 43
0.00000001
 40
0.0
 40
0.0
 40
0.0
 40
0.0
 40
0.0090459071881971
 40
0.1032433785236877
 40
0.1542564497735194
 40
0.3133169026715102
 40
0.5243720399414429
 40
0.6678060008509186
 40
0.9918332554187028
 40
1.0
 40
1.0
 40
1.0
 40
1.0
 10
130.5575870899427
 20
119.5313517846847
 30
0.0
 10
130.5575927819094
 20
119.5313341389603
 30
0.0
 10
130.5576577458602
 20
119.5311327435477
 30
0.0
 10
130.5596534322961
 20
119.5249431228815
 30
0.0
 10
130.5674704285125
 20
119.5007411910374
 30
0.0
 10
130.5846402522675
 20
119.4477221990357
 30
0.0
 10
130.611224148835
 20
119.3663513118392
 30
0.0
 10
130.6490534473237
 20
119.2517722398166
 30
0.0
 10
130.6773342273339
 20
119.1673470620975
 30
0.0
 10
130.6971653748652
 20
119.1088762041455
 30
0.0
 10
130.6976529090081
 20
119.1074387412065
 30
0.0
  0
ARC
  5
245
330
1F
100
AcDbEntity
  8
0
  6
Continuous
 62
     7
370
    25
100
AcDbCircle
 10
135.7966724226
 20
117.8574387412
 30
0.0
 40
5.500000000000025
100
AcDbArc
 50
17.7189318734
 51
162.2810681266
  0
SPLINE
  5
246
330
1F
100
AcDbEntity
  8
0
  6
Continuous
 62
     7
370
    25
100
AcDbSpline
210
0.0
220
0.0
230
1.0
 70
     8
 71
     3
 72
    15
 73
    11
 74
     0
 42
0.00000001
 43
0.00000001
 40
0.0
 40
0.0
 40
0.0
 40
0.0
 40
0.0081667445812973
 40
0.3321939991490809
 40
0.4756279600585568
 40
0.6866830973284903
 40
0.8457435502264812
 40
0.8967566214763185
 40
0.9909540928118028
 40
1.0
 40
1.0
 40
1.0
 40
1.0
 10
140.8956919361936
 20
119.1074387412065
 30
0.0
 10
140.8961794703365
 20
119.1088762041455
 30
0.0
 10
140.9160106178678
 20
119.1673470620975
 30
0.0
 10
140.944291397878
 20
119.2517722398166
 30
0.0
 10
140.9821206963666
 20
119.3663513118392
 30
0.0
 10
141.0087045929342
 20
119.4477221990357
 30
0.0
 10
141.0258744166892
 20
119.5007411910374
 30
0.0
 10
141.0336914129056
 20
119.5249431228815
 30
0.0
 10
141.0356870993415
 20
119.5311327435477
 30
0.0
 10
141.0357520632923
 20
119.5313341389603
 30
0.0
 10
141.0357577552589
 20
119.5313517846847
 30
0.0
  0
ARC
  5
247
330
1F
100
AcDbEntity
  8
0
  6
Continuous
 62
     7
370
    25
100
AcDbCircle
 10
135.7966724226
 20
117.8574387412
 30
0.0
 40
5.250000000000009
100
AcDbArc
 50
13.774146998
 51
166.225853002
  0
SPLINE
  5
248
330
1F
100
AcDbEntity
  8
0
  6
Continuous
 62
     7
370
    25
100
AcDbSpline
210
0.0
220
0.0
230
1.0
 70
     8
 71
     3
 72
    15
 73
    11
 74
     0
 42
0.00000001
 43
0.00000001
 40
0.0
 40
0.0
 40
0.0
 40
0.0
 40
0.0089557228015919
 40
0.0999003359608152
 40
0.1531632460581694
 40
0.3125636920784852
 40
0.5249666935695046
 40
0.6689893599351767
 40
0.9919152533810449
 40
1.0
 40
1.0
 40
1.0
 40
1.0
 10
141.2738979976525
 20
119.3574387412065
 30
0.0
 10
141.2738822420739
 20
119.3574279568433
 30
0.0
 10
141.2737064899173
 20
119.3573076581778
 30
0.0
 10
141.2682774738978
 20
119.3535892072597
 30
0.0
 10
141.2467419901905
 20
119.3388781661934
 30
0.0
 10
141.1990365619257
 20
119.3064293047349
 30
0.0
 10
141.1266456169338
 20
119.2578452643914
 30
0.0
 10
141.0247265049161
 20
119.1904747921231
 30
0.0
 10
140.949371413461
 20
119.1416612273892
 30
0.0
 10
140.8969717677377
 20
119.1082546771948
 30
0.0
 10
140.8956919361936
 20
119.1074387412065
 30
0.0
  0
ARC
  5
249
330
1F
100
AcDbEntity
  8
0
  6
Continuous
 62
     7
370
    25
100
AcDbCircle
 10
141.2738979977
 20
119.6074387412
 30
0.0
 40
0.2500000000000169
100
AcDbArc
 50
197.7189318734
 51
270.0
  0
SPLINE
  5
24A
330
1F
100
AcDbEntity
  8
0
  6
Continuous
 62
     7
370
    25
100
AcDbSpline
210
0.0
220
0.0
230
1.0
 70
     8
 71
     3
 72
    15
 73
    11
 74
     0
 42
0.00000001
 43
0.00000001
 40
0.0
 40
0.0
 40
0.0
 40
0.0
 40
0.0080847466189582
 40
0.3310106400648248
 40
0.475033306430495
 40
0.6874363079215143
 40
0.8468367539418303
 40
0.9000996640391847
 40
0.991044277198408
 40
1.0
 40
1.0
 40
1.0
 40
1.0
 10
130.6976529090081
 20
119.1074387412065
 30
0.0
 10
130.6963730774639
 20
119.1082546771948
 30
0.0
 10
130.6439734317407
 20
119.1416612273893
 30
0.0
 10
130.5686183402856
 20
119.1904747921231
 30
0.0
 10
130.4666992282679
 20
119.2578452643914
 30
0.0
 10
130.394308283276
 20
119.3064293047349
 30
0.0
 10
130.3466028550112
 20
119.3388781661934
 30
0.0
 10
130.3250673713039
 20
119.3535892072597
 30
0.0
 10
130.3196383552844
 20
119.3573076581778
 30
0.0
 10
130.3194626031278
 20
119.3574279568433
 30
0.0
 10
130.3194468475492
 20
119.3574387412065
 30
0.0
  0
ARC
  5
24B
330
1F
100
AcDbEntity
  8
0
  6
Continuous
 62
     7
370
    25
100
AcDbCircle
 10
130.3194468475
 20
119.6074387412
 30
0.0
 40
0.25
100
AcDbArc
 50
270.0
 51
342.2810681266
  0
SPLINE
  5
24C
330
1F
100
AcDbEntity
  8
0
  6
Continuous
 62
     7
370
    25
100
AcDbSpline
210
0.0
220
0.0
230
1.0
 70
     8
 71
     3
 72
    15
 73
    11
 74
     0
 42
0.00000001
 43
0.00000001
 40
0.0
 40
0.0
 40
0.0
 40
0.0
 40
0.0081667445812695
 40
0.3321939991490077
 40
0.4756279600585576
 40
0.68668309732849
 40
0.8457435502264812
 40
0.8967566214763186
 40
0.9909540928118028
 40
1.0
 40
1.0
 40
1.0
 40
1.0
 10
130.6976529090081
 20
116.6074387412065
 30
0.0
 10
130.6971653748652
 20
116.6060012782675
 30
0.0
 10
130.6773342273331
 20
116.5475304203157
 30
0.0
 10
130.6490534473238
 20
116.4631052425962
 30
0.0
 10
130.611224148835
 20
116.3485261705738
 30
0.0
 10
130.5846402522675
 20
116.2671552833772
 30
0.0
 10
130.5674704285125
 20
116.2141362913756
 30
0.0
 10
130.5596534322961
 20
116.1899343595314
 30
0.0
 10
130.5576577458602
 20
116.1837447388652
 30
0.0
 10
130.5575927819094
 20
116.1835433434527
 30
0.0
 10
130.5575870899427
 20
116.1835256977282
 30
0.0
  0
ARC
  5
24D
330
1F
100
AcDbEntity
  8
0
  6
Continuous
 62
     7
370
    25
100
AcDbCircle
 10
135.7966724226
 20
117.8574387412
 30
0.0
 40
5.250000000000009
100
AcDbArc
 50
193.774146998
 51
346.225853002
  0
SPLINE
  5
24E
330
1F
100
AcDbEntity
  8
0
  6
Continuous
 62
     7
370
    25
100
AcDbSpline
210
0.0
220
0.0
230
1.0
 70
     8
 71
     3
 72
    15
 73
    11
 74
     0
 42
0.00000001
 43
0.00000001
 40
0.0
 40
0.0
 40
0.0
 40
0.0
 40
0.0090459071881971
 40
0.1032433785236875
 40
0.1542564497735192
 40
0.3133169026715104
 40
0.5243720399414423
 40
0.6678060008509901
 40
0.9918332554187292
 40
1.0
 40
1.0
 40
1.0
 40
1.0
 10
141.0357577552589
 20
116.1835256977282
 30
0.0
 10
141.0357520632923
 20
116.1835433434527
 30
0.0
 10
141.0356870993415
 20
116.1837447388652
 30
0.0
 10
141.0336914129056
 20
116.1899343595314
 30
0.0
 10
141.0258744166892
 20
116.2141362913756
 30
0.0
 10
141.0087045929342
 20
116.2671552833772
 30
0.0
 10
140.9821206963667
 20
116.3485261705738
 30
0.0
 10
140.9442913978778
 20
116.4631052425963
 30
0.0
 10
140.9160106178686
 20
116.5475304203157
 30
0.0
 10
140.8961794703365
 20
116.6060012782675
 30
0.0
 10
140.8956919361936
 20
116.6074387412065
 30
0.0
  0
ARC
  5
24F
330
1F
100
AcDbEntity
  8
0
  6
Continuous
 62
     7
370
    25
100
AcDbCircle
 10
135.7966724226
 20
117.8574387412
 30
0.0
 40
5.500000000000025
100
AcDbArc
 50
197.7189318734
 51
342.2810681266
  0
ARC
  5
250
330
1F
100
AcDbEntity
  8
0
  6
Continuous
 62
     7
370
    25
100
AcDbCircle
 10
141.2738979977
 20
116.1074387412
 30
0.0
 40
0.2500000000000169
100
AcDbArc
 50
90.0
 51
162.2810681266
  0
SPLINE
  5
251
330
1F
100
AcDbEntity
  8
0
  6
Continuous
 62
     7
370
    25
100
AcDbSpline
210
0.0
220
0.0
230
1.0
 70
     8
 71
     3
 72
    15
 73
    11
 74
     0
 42
0.00000001
 43
0.00000001
 40
0.0
 40
0.0
 40
0.0
 40
0.0
 40
0.0080847466189818
 40
0.3310106400647568
 40
0.4750333064304977
 40
0.6874363079215144
 40
0.846836753941831
 40
0.9000996640391853
 40
0.991044277198408
 40
1.0
 40
1.0
 40
1.0
 40
1.0
 10
140.8956919361936
 20
116.6074387412065
 30
0.0
 10
140.8969717677378
 20
116.6066228052182
 30
0.0
 10
140.9493714134616
 20
116.5732162550246
 30
0.0
 10
141.024726504916
 20
116.5244026902897
 30
0.0
 10
141.1266456169338
 20
116.4570322180216
 30
0.0
 10
141.1990365619257
 20
116.4084481776781
 30
0.0
 10
141.2467419901905
 20
116.3759993162195
 30
0.0
 10
141.2682774738978
 20
116.3612882751532
 30
0.0
 10
141.2737064899173
 20
116.3575698242351
 30
0.0
 10
141.2738822420739
 20
116.3574495255696
 30
0.0
 10
141.2738979976525
 20
116.3574387412065
 30
0.0
  0
ARC
  5
252
330
1F
100
AcDbEntity
  8
0
  6
Continuous
 62
     7
370
    25
100
AcDbCircle
 10
130.3194468475
 20
116.1074387412
 30
0.0
 40
0.25
100
AcDbArc
 50
17.7189318734
 51
90.0
  0
SPLINE
  5
253
330
1F
100
AcDbEntity
  8
0
  6
Continuous
 62
     7
370
    25
100
AcDbSpline
210
0.0
220
0.0
230
1.0
 70
     8
 71
     3
 72
    15
 73
    11
 74
     0
 42
0.00000001
 43
0.00000001
 40
0.0
 40
0.0
 40
0.0
 40
0.0
 40
0.0089557228015919
 40
0.0999003359608148
 40
0.153163246058169
 40
0.3125636920784848
 40
0.5249666935694998
 40
0.6689893599352452
 40
0.9919152533810159
 40
1.0
 40
1.0
 40
1.0
 40
1.0
 10
130.3194468475492
 20
116.3574387412065
 30
0.0
 10
130.3194626031278
 20
116.3574495255696
 30
0.0
 10
130.3196383552844
 20
116.3575698242351
 30
0.0
 10
130.3250673713039
 20
116.3612882751532
 30
0.0
 10
130.3466028550112
 20
116.3759993162195
 30
0.0
 10
130.394308283276
 20
116.4084481776781
 30
0.0
 10
130.4666992282679
 20
116.4570322180215
 30
0.0
 10
130.5686183402857
 20
116.5244026902897
 30
0.0
 10
130.6439734317401
 20
116.5732162550245
 30
0.0
 10
130.6963730774639
 20
116.6066228052182
 30
0.0
 10
130.6976529090081
 20
116.6074387412065
 30
0.0
  0
LINE
  5
254
330
1F
100
AcDbEntity
  8
0
  6
Continuous
 62
     7
370
    25
100
AcDbLine
 10
130.7966724226
 20
117.2574387412
 30
0.0
 11
140.7966724226
 21
117.2574387412
 31
0.0
  0
LINE
  5
255
330
1F
100
AcDbEntity
  8
0
  6
Continuous
 62
     7
370
    25
100
AcDbLine
 10
130.7966724226
 20
118.4574387412
 30
0.0
 11
130.7966724226
 21
117.2574387412
 31
0.0
  0
LINE
  5
256
330
1F
100
AcDbEntity
  8
0
  6
Continuous
 62
     7
370
    25
100
AcDbLine
 10
140.7966724226
 20
118.4574387412
 30
0.0
 11
130.7966724226
 21
118.4574387412
 31
0.0
  0
LINE
  5
257
330
1F
100
AcDbEntity
  8
0
  6
Continuous
 62
     7
370
    25
100
AcDbLine
 10
140.7966724226
 20
117.2574387412
 30
0.0
 11
140.7966724226
 21
118.4574387412
 31
0.0
  0
LINE
  5
258
330
1F
100
AcDbEntity
  8
0
  6
Continuous
 62
     7
370
    25
100
AcDbLine
 10
130.0466724226
 20
116.6074387412
 30
0.0
 11
130.697652909
 21
116.6074387412
 31
0.0
  0
LINE
  5
259
330
1F
100
AcDbEntity
  8
0
  6
Continuous
 62
     7
370
    25
100
AcDbLine
 10
130.0466724226
 20
119.1074387412
 30
0.0
 11
130.0466724226
 21
116.6074387412
 31
0.0
  0
LINE
  5
25A
330
1F
100
AcDbEntity
  8
0
  6
Continuous
 62
     7
370
    25
100
AcDbLine
 10
130.697652909
 20
119.1074387412
 30
0.0
 11
130.0466724226
 21
119.1074387412
 31
0.0
  0
LINE
  5
25B
330
1F
100
AcDbEntity
  8
0
  6
Continuous
 62
     7
370
    25
100
AcDbLine
 10
141.5466724226
 20
119.1074387412
 30
0.0
 11
140.8956919362
 21
119.1074387412
 31
0.0
  0
LINE
  5
25C
330
1F
100
AcDbEntity
  8
0
  6
Continuous
 62
     7
370
    25
100
AcDbLine
 10
141.5466724226
 20
116.6074387412
 30
0.0
 11
141.5466724226
 21
119.1074387412
 31
0.0
  0
LINE
  5
25D
330
1F
100
AcDbEntity
  8
0
  6
Continuous
 62
     7
370
    25
100
AcDbLine
 10
140.8956919362
 20
116.6074387412
 30
0.0
 11
141.5466724226
 21
116.6074387412
 31
0.0
  0
LINE
  5
25E
330
1F
100
AcDbEntity
  8
0
  6
Continuous
 62
     7
370
    25
100
AcDbLine
 10
141.2738979977
 20
119.3574387412
 30
0.0
 11
141.5466724226
 21
119.3574387412
 31
0.0
  0
LINE
  5
25F
330
1F
100
AcDbEntity
  8
0
  6
Continuous
 62
     7
370
    25
100
AcDbLine
 10
141.5466724226
 20
119.1074387412
 30
0.0
 11
141.5466724226
 21
119.3574387412
 31
0.0
  0
LINE
  5
260
330
1F
100
AcDbEntity
  8
0
  6
Continuous
 62
     7
370
    25
100
AcDbLine
 10
130.0466724226
 20
119.3574387412
 30
0.0
 11
130.0466724226
 21
119.1074387412
 31
0.0
  0
LINE
  5
261
330
1F
100
AcDbEntity
  8
0
  6
Continuous
 62
     7
370
    25
100
AcDbLine
 10
130.0466724226
 20
119.3574387412
 30
0.0
 11
130.3194468475
 21
119.3574387412
 31
0.0
  0
ARC
  5
262
330
1F
100
AcDbEntity
  8
0
  6
Continuous
 62
     7
370
    25
100
AcDbCircle
 10
130.0466724226
 20
119.1074387412
 30
0.0
 40
0.25
100
AcDbArc
 50
90.0
 51
180.0
  0
LINE
  5
263
330
1F
100
AcDbEntity
  8
0
  6
Continuous
 62
     7
370
    25
100
AcDbLine
 10
130.0466724226
 20
119.1074387412
 30
0.0
 11
129.7966724226
 21
119.1074387412
 31
0.0
  0
LINE
  5
264
330
1F
100
AcDbEntity
  8
0
  6
Continuous
 62
     7
370
    25
100
AcDbLine
 10
141.7966724226
 20
119.1074387412
 30
0.0
 11
141.5466724226
 21
119.1074387412
 31
0.0
  0
ARC
  5
265
330
1F
100
AcDbEntity
  8
0
  6
Continuous
 62
     7
370
    25
100
AcDbCircle
 10
141.5466724226
 20
119.1074387412
 30
0.0
 40
0.2500000000000284
100
AcDbArc
 50
0.0
 51
90.0
  0
LINE
  5
266
330
1F
100
AcDbEntity
  8
0
  6
Continuous
 62
     7
370
    25
100
AcDbLine
 10
141.7966724226
 20
119.1074387412
 30
0.0
 11
141.7966724226
 21
116.6074387412
 31
0.0
  0
LINE
  5
267
330
1F
100
AcDbEntity
  8
0
  6
Continuous
 62
     7
370
    25
100
AcDbLine
 10
141.5466724226
 20
116.6074387412
 30
0.0
 11
141.7966724226
 21
116.6074387412
 31
0.0
  0
LINE
  5
268
330
1F
100
AcDbEntity
  8
0
  6
Continuous
 62
     7
370
    25
100
AcDbLine
 10
129.7966724226
 20
116.6074387412
 30
0.0
 11
130.0466724226
 21
116.6074387412
 31
0.0
  0
LINE
  5
269
330
1F
100
AcDbEntity
  8
0
  6
Continuous
 62
     7
370
    25
100
AcDbLine
 10
129.7966724226
 20
116.6074387412
 30
0.0
 11
129.7966724226
 21
119.1074387412
 31
0.0
  0
LINE
  5
26A
330
1F
100
AcDbEntity
  8
0
  6
Continuous
 62
     7
370
    25
100
AcDbLine
 10
130.0466724226
 20
116.6074387412
 30
0.0
 11
130.0466724226
 21
116.3574387412
 31
0.0
  0
LINE
  5
26B
330
1F
100
AcDbEntity
  8
0
  6
Continuous
 62
     7
370
    25
100
AcDbLine
 10
130.3194468475
 20
116.3574387412
 30
0.0
 11
130.0466724226
 21
116.3574387412
 31
0.0
  0
ARC
  5
26C
330
1F
100
AcDbEntity
  8
0
  6
Continuous
 62
     7
370
    25
100
AcDbCircle
 10
130.0466724226
 20
116.6074387412
 30
0.0
 40
0.25
100
AcDbArc
 50
180.0
 51
270.0
  0
LINE
  5
26D
330
1F
100
AcDbEntity
  8
0
  6
Continuous
 62
     7
370
    25
100
AcDbLine
 10
141.5466724226
 20
116.3574387412
 30
0.0
 11
141.5466724226
 21
116.6074387412
 31
0.0
  0
LINE
  5
26E
330
1F
100
AcDbEntity
  8
0
  6
Continuous
 62
     7
370
    25
100
AcDbLine
 10
141.5466724226
 20
116.3574387412
 30
0.0
 11
141.2738979977
 21
116.3574387412
 31
0.0
  0
ARC
  5
26F
330
1F
100
AcDbEntity
  8
0
  6
Continuous
 62
     7
370
    25
100
AcDbCircle
 10
141.5466724226
 20
116.6074387412
 30
0.0
 40
0.2500000000000284
100
AcDbArc
 50
270.0
 51
0.0
  0
LINE
  5
270
330
1F
100
AcDbEntity
  8
0
  6
Continuous
 62
     7
370
    25
100
AcDbLine
 10
115.7966724226
 20
114.5857394772
 30
0.0
 11
115.7966724226
 21
121.1291380053
 31
0.0
  0
LINE
  5
271
330
1F
100
AcDbEntity
  8
0
  6
Continuous
 62
     7
370
    25
100
AcDbLine
 10
113.6212355611
 20
114.3574387412
 30
0.0
 11
115.7966724226
 21
114.5857394772
 31
0.0
  0
LINE
  5
272
330
1F
100
AcDbEntity
  8
0
  6
Continuous
 62
     7
370
    25
100
AcDbLine
 10
95.7966724226
 20
114.3574387412
 30
0.0
 11
113.6212355611
 21
114.3574387412
 31
0.0
  0
LINE
  5
273
330
1F
100
AcDbEntity
  8
0
  6
Continuous
 62
     7
370
    25
100
AcDbLine
 10
95.7966724226
 20
121.3574387412
 30
0.0
 11
95.7966724226
 21
114.3574387412
 31
0.0
  0
LINE
  5
274
330
1F
100
AcDbEntity
  8
0
  6
Continuous
 62
     7
370
    25
100
AcDbLine
 10
113.6212355611
 20
121.3574387412
 30
0.0
 11
95.7966724226
 21
121.3574387412
 31
0.0
  0
LINE
  5
275
330
1F
100
AcDbEntity
  8
0
  6
Continuous
 62
     7
370
    25
100
AcDbLine
 10
115.7966724226
 20
121.1291380053
 30
0.0
 11
113.6212355611
 21
121.3574387412
 31
0.0
  0
LINE
  5
276
330
1F
100
AcDbEntity
  8
0
  6
Continuous
 62
     7
370
    25
100
AcDbLine
 10
130.5728702482
 20
119.578453222
 30
0.0
 11
130.4444612096
 21
119.3943115886
 31
0.0
  0
LINE
  5
277
330
1F
100
AcDbEntity
  8
0
  6
Continuous
 62
     7
370
    25
100
AcDbLine
 10
130.4540285503
 20
116.3122210738
 30
0.0
 11
130.5728702482
 21
116.1364242604
 31
0.0
  0
LINE
  5
278
330
1F
100
AcDbEntity
  8
0
  6
Continuous
 62
     7
370
    25
100
AcDbLine
 10
122.380102769
 20
120.4382413768
 30
0.0
 11
122.380102769
 21
115.2766361056
 31
0.0
  0
LINE
  5
279
330
1F
100
AcDbEntity
  8
0
  6
Continuous
 62
     7
370
    25
100
AcDbLine
 10
130.5728702482
 20
116.1364242604
 30
0.0
 11
122.380102769
 21
115.2766361056
 31
0.0
  0
LINE
  5
27A
330
1F
100
AcDbEntity
  8
0
  6
Continuous
 62
     7
370
    25
100
AcDbLine
 10
122.380102769
 20
120.4382413768
 30
0.0
 11
130.5728702482
 21
119.578453222
 31
0.0
  0
LINE
  5
27B
330
1F
100
AcDbEntity
  8
0
  6
Continuous
 62
     7
370
    25
100
AcDbLine
 10
122.380102769
 20
115.2766361056
 30
0.0
 11
115.7966724226
 21
114.5857394772
 31
0.0
  0
LINE
  5
27C
330
1F
100
AcDbEntity
  8
0
  6
Continuous
 62
     7
370
    25
100
AcDbLine
 10
115.7966724226
 20
121.1291380053
 30
0.0
 11
122.380102769
 21
120.4382413768
 31
0.0
  0
ARC
  5
27D
330
1F
100
AcDbEntity
  8
0
  6
Continuous
 62
     7
370
    25
100
AcDbCircle
 10
135.7966724226
 20
117.8574387412
 30
0.0
 40
7.450000000000662
100
AcDbArc
 50
233.0863788866
 51
126.9136211134
  0
ARC
  5
27E
330
1F
100
AcDbEntity
  8
0
  6
Continuous
 62
     7
370
    25
100
AcDbCircle
 10
135.7966724226
 20
117.8574387412
 30
0.0
 40
7.207531252870793
100
AcDbArc
 50
195.3041237151
 51
238.9797515565
  0
ARC
  5
27F
330
1F
100
AcDbEntity
  8
0
  6
Continuous
 62
     7
370
    25
100
AcDbCircle
 10
135.7966724226
 20
117.8574387412
 30
0.0
 40
7.207531252872458
100
AcDbArc
 50
121.0202484435
 51
164.6958762849
  0
ARC
  5
280
330
1F
100
AcDbEntity
  8
0
  6
Continuous
 62
     7
370
    25
100
AcDbCircle
 10
113.6212355611
 20
186.3574387412
 30
0.0
 40
64.99999999999997
100
AcDbArc
 50
270.0
 51
286.5000949923
  0
ARC
  5
281
330
1F
100
AcDbEntity
  8
0
  6
Continuous
 62
     7
370
    25
100
AcDbCircle
 10
113.6212355611
 20
49.3574387412
 30
0.0
 40
65.0
100
AcDbArc
 50
73.4999050077
 51
90.0
  0
LINE
  5
282
330
1F
100
AcDbEntity
  8
0
  6
Continuous
 62
     7
370
    25
100
AcDbLine
 10
142.7966724226
 20
111.1293077293
 30
0.0
 11
142.7966724226
 21
115.3074387412
 31
0.0
  0
LINE
  5
283
330
1F
100
AcDbEntity
  8
0
  6
Continuous
 62
     7
370
    25
100
AcDbLine
 10
142.7966724226
 20
120.4074387412
 30
0.0
 11
142.7966724226
 21
124.5855697531
 31
0.0
  0
LINE
  5
284
330
1F
100
AcDbEntity
  8
0
  6
Continuous
 62
     7
370
    25
100
AcDbLine
 10
128.7966724226
 20
124.5855697531
 30
0.0
 11
128.7966724226
 21
123.1537512217
 31
0.0
  0
LINE
  5
285
330
1F
100
AcDbEntity
  8
0
  6
Continuous
 62
     7
370
    25
100
AcDbLine
 10
128.7966724226
 20
112.5611262607
 30
0.0
 11
128.7966724226
 21
111.1293077293
 31
0.0
  0
LINE
  5
286
330
1F
100
AcDbEntity
  8
0
  6
Continuous
 62
     7
370
    25
100
AcDbLine
 10
142.7966724226
 20
124.5855697531
 30
0.0
 11
138.9958524873
 21
124.5855697531
 31
0.0
  0
LINE
  5
287
330
1F
100
AcDbEntity
  8
0
  6
Continuous
 62
     7
370
    25
100
AcDbLine
 10
132.5974923579
 20
124.5855697531
 30
0.0
 11
128.7966724226
 21
124.5855697531
 31
0.0
  0
LINE
  5
288
330
1F
100
AcDbEntity
  8
0
  6
Continuous
 62
     7
370
    25
100
AcDbLine
 10
128.7966724226
 20
111.1293077293
 30
0.0
 11
132.5974923579
 21
111.1293077293
 31
0.0
  0
LINE
  5
289
330
1F
100
AcDbEntity
  8
0
  6
Continuous
 62
     7
370
    25
100
AcDbLine
 10
138.9958524873
 20
111.1293077293
 30
0.0
 11
142.7966724226
 21
111.1293077293
 31
0.0
  0
LINE
  5
28A
330
1F
100
AcDbEntity
  8
0
  6
Continuous
 62
     7
370
    25
100
AcDbLine
 10
128.7966724226
 20
124.9813421656
 30
0.0
 11
133.6166494869
 21
124.9813421656
 31
0.0
  0
LINE
  5
28B
330
1F
100
AcDbEntity
  8
0
  6
Continuous
 62
     7
370
    25
100
AcDbLine
 10
137.9766953583
 20
124.9813421656
 30
0.0
 11
142.7966724226
 21
124.9813421656
 31
0.0
  0
LINE
  5
28C
330
1F
100
AcDbEntity
  8
0
  6
Continuous
 62
     7
370
    25
100
AcDbLine
 10
142.7966724226
 20
110.7335353168
 30
0.0
 11
137.9766953583
 21
110.7335353168
 31
0.0
  0
LINE
  5
28D
330
1F
100
AcDbEntity
  8
0
  6
Continuous
 62
     7
370
    25
100
AcDbLine
 10
133.6166494869
 20
110.7335353168
 30
0.0
 11
128.7966724226
 21
110.7335353168
 31
0.0
  0
INSERT
  5
299
330
1F
100
AcDbEntity
  8
FORMAT
100
AcDbBlockReference
  2
SW_CENTERMARKSYMBOL_1
 10
135.7966724226
 20
117.8574387412
 30
0.0
  0
LINE
  5
29A
330
1F
100
AcDbEntity
  8
FORMAT
100
AcDbLine
 10
155.0988566877
 20
112.2045546388
 30
0.0
 11
146.2966724226
 21
111.9294863805
 31
0.0
  0
LINE
  5
29B
330
1F
100
AcDbEntity
  8
FORMAT
100
AcDbLine
 10
155.0988566877
 20
123.5103228436
 30
0.0
 11
146.2966724226
 21
123.7853911019
 31
0.0
  0
LINE
  5
29C
330
1F
100
AcDbEntity
  8
FORMAT
100
AcDbLine
 10
146.2966724226
 20
124.6087512412
 30
0.0
 11
146.2966724226
 21
111.1061262412
 31
0.0
  0
ENDSEC
  0
SECTION
  2
OBJECTS
  0
DICTIONARY
  5
C
330
0
100
AcDbDictionary
281
     1
  3
ACAD_GROUP
350
D
  3
ACAD_LAYOUT
350
1A
  3
ACAD_MLINESTYLE
350
17
  3
ACAD_PLOTSETTINGS
350
19
  3
ACAD_PLOTSTYLENAME
350
E
  3
ACAD_SCALELIST
350
47
  3
DWGPROPS
350
29D
  0
DICTIONARY
  5
D
102
{ACAD_REACTORS
330
C
102
}
330
C
100
AcDbDictionary
281
     1
  0
DICTIONARY
  5
1A
102
{ACAD_REACTORS
330
C
102
}
330
C
100
AcDbDictionary
281
     1
  3
Layout1
350
1E
  3
Layout2
350
26
  3
Model
350
22
  0
DICTIONARY
  5
17
102
{ACAD_REACTORS
330
C
102
}
330
C
100
AcDbDictionary
281
     1
  3
Standard
350
18
  0
DICTIONARY
  5
19
102
{ACAD_REACTORS
330
C
102
}
330
C
100
AcDbDictionary
281
     1
  0
ACDBDICTIONARYWDFLT
  5
E
102
{ACAD_REACTORS
330
C
102
}
330
C
100
AcDbDictionary
281
     1
  3
Normal
350
F
100
AcDbDictionaryWithDefault
340
F
  0
DICTIONARY
  5
47
102
{ACAD_REACTORS
330
C
102
}
330
C
100
AcDbDictionary
281
     1
  3
A0
350
48
  3
A1
350
49
  3
A2
350
4A
  3
A3
350
4B
  3
A4
350
4C
  3
A5
350
4D
  3
A6
350
4E
  3
A7
350
4F
  3
A8
350
50
  3
A9
350
51
  3
B0
350
52
  3
B1
350
53
  3
B2
350
54
  3
B3
350
55
  3
B4
350
56
  3
B5
350
57
  3
B6
350
58
  0
XRECORD
  5
29D
102
{ACAD_REACTORS
330
C
102
}
330
C
100
AcDbXrecord
280
     1
  1
DWGPROPS COOKIE
  2

  3

  4

  6

  7

  8
user28
  9

300
=
301
=
302
=
303
=
304
=
305
=
306
=
307
=
308
=
309
=
 40
0.0
 41
2460406.335951551
 42
2460406.335952257
  1

 90
        0
  0
LAYOUT
  5
1E
102
{ACAD_REACTORS
330
1A
102
}
330
1A
100
AcDbPlotSettings
  1

  2
none_device
  4

  6

 40
0.0
 41
0.0
 42
0.0
 43
0.0
 44
0.0
 45
0.0
 46
0.0
 47
0.0
 48
0.0
 49
0.0
140
0.0
141
0.0
142
1.0
143
1.0
 70
   688
 72
     1
 73
     0
 74
     5
  7

 75
    16
147
1.0
148
0.0
149
0.0
100
AcDbLayout
  1
Layout1
 70
     1
 71
     1
 10
0.0
 20
0.0
 11
420.0
 21
297.0
 12
0.0
 22
0.0
 32
0.0
 14
1.0000000000E+20
 24
1.0000000000E+20
 34
1.0000000000E+20
 15
-1.0000000000E+20
 25
-1.0000000000E+20
 35
-1.0000000000E+20
146
0.0
 13
0.0
 23
0.0
 33
0.0
 16
1.0
 26
0.0
 36
0.0
 17
0.0
 27
1.0
 37
0.0
 76
     0
330
1B
  0
LAYOUT
  5
26
102
{ACAD_REACTORS
330
1A
102
}
330
1A
100
AcDbPlotSettings
  1

  2
none_device
  4

  6

 40
0.0
 41
0.0
 42
0.0
 43
0.0
 44
0.0
 45
0.0
 46
0.0
 47
0.0
 48
0.0
 49
0.0
140
0.0
141
0.0
142
1.0
143
1.0
 70
   688
 72
     1
 73
     0
 74
     5
  7

 75
    16
147
1.0
148
0.0
149
0.0
100
AcDbLayout
  1
Layout2
 70
     1
 71
     2
 10
0.0
 20
0.0
 11
0.0
 21
0.0
 12
0.0
 22
0.0
 32
0.0
 14
0.0
 24
0.0
 34
0.0
 15
0.0
 25
0.0
 35
0.0
146
0.0
 13
0.0
 23
0.0
 33
0.0
 16
1.0
 26
0.0
 36
0.0
 17
0.0
 27
1.0
 37
0.0
 76
     0
330
23
  0
LAYOUT
  5
22
102
{ACAD_REACTORS
330
1A
102
}
330
1A
100
AcDbPlotSettings
  1

  2
none_device
  4
Letter_(8.50_x_11.00_Inches)
  6

 40
6.35
 41
6.35
 42
6.35000508
 43
6.35000508
 44
215.9
 45
279.4
 46
0.0
 47
0.0
 48
0.0
 49
0.0
140
0.0
141
0.0
142
1.0
143
1.0
 70
  1712
 72
     1
 73
     0
 74
     0
  7

 75
     0
147
1.0
148
0.0
149
0.0
100
AcDbLayout
  1
Model
 70
     1
 71
     0
 10
0.0
 20
0.0
 11
297.0
 21
210.0
 12
0.0
 22
0.0
 32
0.0
 14
0.0
 24
0.0
 34
0.0
 15
297.0
 25
210.0
 35
0.0
146
0.0
 13
0.0
 23
0.0
 33
0.0
 16
1.0
 26
0.0
 36
0.0
 17
0.0
 27
1.0
 37
0.0
 76
     0
330
1F
331
29
  0
MLINESTYLE
  5
18
102
{ACAD_REACTORS
330
17
102
}
330
17
100
AcDbMlineStyle
  2
Standard
 70
     0
  3

 62
   256
 51
90.0
 52
90.0
 71
     2
 49
0.5
 62
   256
  6
BYLAYER
 49
-0.5
 62
   256
  6
BYLAYER
  0
ACDBPLACEHOLDER
  5
F
102
{ACAD_REACTORS
330
E
102
}
330
E
  0
SCALE
  5
48
102
{ACAD_REACTORS
330
47
102
}
330
47
100
AcDbScale
 70
     0
300
1:1
140
1.0
141
1.0
290
     1
  0
SCALE
  5
49
102
{ACAD_REACTORS
330
47
102
}
330
47
100
AcDbScale
 70
     0
300
1:2
140
1.0
141
2.0
290
     0
  0
SCALE
  5
4A
102
{ACAD_REACTORS
330
47
102
}
330
47
100
AcDbScale
 70
     0
300
1:4
140
1.0
141
4.0
290
     0
  0
SCALE
  5
4B
102
{ACAD_REACTORS
330
47
102
}
330
47
100
AcDbScale
 70
     0
300
1:5
140
1.0
141
5.0
290
     0
  0
SCALE
  5
4C
102
{ACAD_REACTORS
330
47
102
}
330
47
100
AcDbScale
 70
     0
300
1:8
140
1.0
141
8.0
290
     0
  0
SCALE
  5
4D
102
{ACAD_REACTORS
330
47
102
}
330
47
100
AcDbScale
 70
     0
300
1:10
140
1.0
141
10.0
290
     0
  0
SCALE
  5
4E
102
{ACAD_REACTORS
330
47
102
}
330
47
100
AcDbScale
 70
     0
300
1:16
140
1.0
141
16.0
290
     0
  0
SCALE
  5
4F
102
{ACAD_REACTORS
330
47
102
}
330
47
100
AcDbScale
 70
     0
300
1:20
140
1.0
141
20.0
290
     0
  0
SCALE
  5
50
102
{ACAD_REACTORS
330
47
102
}
330
47
100
AcDbScale
 70
     0
300
1:30
140
1.0
141
30.0
290
     0
  0
SCALE
  5
51
102
{ACAD_REACTORS
330
47
102
}
330
47
100
AcDbScale
 70
     0
300
1:40
140
1.0
141
40.0
290
     0
  0
SCALE
  5
52
102
{ACAD_REACTORS
330
47
102
}
330
47
100
AcDbScale
 70
     0
300
1:50
140
1.0
141
50.0
290
     0
  0
SCALE
  5
53
102
{ACAD_REACTORS
330
47
102
}
330
47
100
AcDbScale
 70
     0
300
1:100
140
1.0
141
100.0
290
     0
  0
SCALE
  5
54
102
{ACAD_REACTORS
330
47
102
}
330
47
100
AcDbScale
 70
     0
300
2:1
140
2.0
141
1.0
290
     0
  0
SCALE
  5
55
102
{ACAD_REACTORS
330
47
102
}
330
47
100
AcDbScale
 70
     0
300
4:1
140
4.0
141
1.0
290
     0
  0
SCALE
  5
56
102
{ACAD_REACTORS
330
47
102
}
330
47
100
AcDbScale
 70
     0
300
8:1
140
8.0
141
1.0
290
     0
  0
SCALE
  5
57
102
{ACAD_REACTORS
330
47
102
}
330
47
100
AcDbScale
 70
     0
300
10:1
140
10.0
141
1.0
290
     0
  0
SCALE
  5
58
102
{ACAD_REACTORS
330
47
102
}
330
47
100
AcDbScale
 70
     0
300
100:1
140
100.0
141
1.0
290
     0
  0
ENDSEC
  0
EOF
