  0
SECTION
  2
HEADER
  9
$ACADVER
  1
AC1015
  9
$ACADMAINTVER
 70
     6
  9
$DWGCODEPAGE
  3
DOS932
  9
$INSBASE
 10
0.0
 20
0.0
 30
0.0
  9
$EXTMIN
 10
0.0
 20
0.0
 30
0.0
  9
$EXTMAX
 10
297.0
 20
210.0
 30
0.0
  9
$LIMMIN
 10
0.0
 20
0.0
  9
$LIMMAX
 10
297.0
 20
210.0
  9
$ORTHOMODE
 70
     0
  9
$REGENMODE
 70
     1
  9
$FILLMODE
 70
     1
  9
$QTEXTMODE
 70
     0
  9
$MIRRTEXT
 70
     1
  9
$LTSCALE
 40
1.0
  9
$ATTMODE
 70
     1
  9
$TEXTSIZE
 40
3.5277777778
  9
$TRACEWID
 40
1.0
  9
$TEXTSTYLE
  7
Standard
  9
$CLAYER
  8
0
  9
$CELTYPE
  6
ByLayer
  9
$CECOLOR
 62
   256
  9
$CELTSCALE
 40
1.0
  9
$DISPSILH
 70
     0
  9
$DIMSCALE
 40
1.0
  9
$DIMASZ
 40
2.728515625
  9
$DIMEXO
 40
1.0
  9
$DIMDLI
 40
3.75
  9
$DIMRND
 40
0.0
  9
$DIMDLE
 40
0.0
  9
$DIMEXE
 40
1.0
  9
$DIMTP
 40
0.0
  9
$DIMTM
 40
0.0
  9
$DIMTXT
 40
3.5277777778
  9
$DIMCEN
 40
2.5
  9
$DIMTSZ
 40
0.0
  9
$DIMTOL
 70
     0
  9
$DIMLIM
 70
     0
  9
$DIMTIH
 70
     1
  9
$DIMTOH
 70
     1
  9
$DIMSE1
 70
     0
  9
$DIMSE2
 70
     0
  9
$DIMTAD
 70
     1
  9
$DIMZIN
 70
     0
  9
$DIMBLK
  1

  9
$DIMASO
 70
     1
  9
$DIMSHO
 70
     1
  9
$DIMPOST
  1

  9
$DIMAPOST
  1

  9
$DIMALT
 70
     0
  9
$DIMALTD
 70
     3
  9
$DIMALTF
 40
0.0393700787
  9
$DIMLFAC
 40
1.0
  9
$DIMTOFL
 70
     1
  9
$DIMTVP
 40
0.0
  9
$DIMTIX
 70
     0
  9
$DIMSOXD
 70
     0
  9
$DIMSAH
 70
     0
  9
$DIMBLK1
  1

  9
$DIMBLK2
  1

  9
$DIMSTYLE
  2
ISO-25
  9
$DIMCLRD
 70
     0
  9
$DIMCLRE
 70
     0
  9
$DIMCLRT
 70
     0
  9
$DIMTFAC
 40
1.0
  9
$DIMGAP
 40
1.524
  9
$DIMJUST
 70
     0
  9
$DIMSD1
 70
     0
  9
$DIMSD2
 70
     0
  9
$DIMTOLJ
 70
     0
  9
$DIMTZIN
 70
     0
  9
$DIMALTZ
 70
     0
  9
$DIMALTTZ
 70
     0
  9
$DIMUPT
 70
     0
  9
$DIMDEC
 70
     2
  9
$DIMTDEC
 70
     2
  9
$DIMALTU
 70
     2
  9
$DIMALTTD
 70
     3
  9
$DIMTXSTY
  7
Standard
  9
$DIMAUNIT
 70
     0
  9
$DIMADEC
 70
     2
  9
$DIMALTRND
 40
0.0
  9
$DIMAZIN
 70
     0
  9
$DIMDSEP
 70
    44
  9
$DIMATFIT
 70
     3
  9
$DIMFRAC
 70
     0
  9
$DIMLDRBLK
  1

  9
$DIMLUNIT
 70
     2
  9
$DIMLWD
 70
    -2
  9
$DIMLWE
 70
    -2
  9
$DIMTMOVE
 70
     0
  9
$LUNITS
 70
     2
  9
$LUPREC
 70
     2
  9
$SKETCHINC
 40
1.0
  9
$FILLETRAD
 40
0.0
  9
$AUNITS
 70
     0
  9
$AUPREC
 70
     2
  9
$MENU
  1
.
  9
$ELEVATION
 40
0.0
  9
$PELEVATION
 40
0.0
  9
$THICKNESS
 40
0.0
  9
$LIMCHECK
 70
     0
  9
$CHAMFERA
 40
0.0
  9
$CHAMFERB
 40
0.0
  9
$CHAMFERC
 40
0.0
  9
$CHAMFERD
 40
0.0
  9
$SKPOLY
 70
     0
  9
$TDCREATE
 40
2460406.709157465
  9
$TDUCREATE
 40
2460406.334157465
  9
$TDUPDATE
 40
2460406.709158206
  9
$TDUUPDATE
 40
2460406.334158206
  9
$TDINDWG
 40
0.0000000116
  9
$TDUSRTIMER
 40
0.0000000116
  9
$USRTIMER
 70
     1
  9
$ANGBASE
 50
0.0
  9
$ANGDIR
 70
     0
  9
$PDMODE
 70
     0
  9
$PDSIZE
 40
-1.0
  9
$PLINEWID
 40
0.0
  9
$SPLFRAME
 70
     0
  9
$SPLINETYPE
 70
     6
  9
$SPLINESEGS
 70
     8
  9
$HANDSEED
  5
28F
  9
$SURFTAB1
 70
     6
  9
$SURFTAB2
 70
     6
  9
$SURFTYPE
 70
     6
  9
$SURFU
 70
     6
  9
$SURFV
 70
     6
  9
$UCSBASE
  2

  9
$UCSNAME
  2

  9
$UCSORG
 10
0.0
 20
0.0
 30
0.0
  9
$UCSXDIR
 10
1.0
 20
0.0
 30
0.0
  9
$UCSYDIR
 10
0.0
 20
1.0
 30
0.0
  9
$UCSORTHOREF
  2

  9
$UCSORTHOVIEW
 70
     0
  9
$UCSORGTOP
 10
0.0
 20
0.0
 30
0.0
  9
$UCSORGBOTTOM
 10
0.0
 20
0.0
 30
0.0
  9
$UCSORGLEFT
 10
0.0
 20
0.0
 30
0.0
  9
$UCSORGRIGHT
 10
0.0
 20
0.0
 30
0.0
  9
$UCSORGFRONT
 10
0.0
 20
0.0
 30
0.0
  9
$UCSORGBACK
 10
0.0
 20
0.0
 30
0.0
  9
$PUCSBASE
  2

  9
$PUCSNAME
  2

  9
$PUCSORG
 10
0.0
 20
0.0
 30
0.0
  9
$PUCSXDIR
 10
1.0
 20
0.0
 30
0.0
  9
$PUCSYDIR
 10
0.0
 20
1.0
 30
0.0
  9
$PUCSORTHOREF
  2

  9
$PUCSORTHOVIEW
 70
     0
  9
$PUCSORGTOP
 10
0.0
 20
0.0
 30
0.0
  9
$PUCSORGBOTTOM
 10
0.0
 20
0.0
 30
0.0
  9
$PUCSORGLEFT
 10
0.0
 20
0.0
 30
0.0
  9
$PUCSORGRIGHT
 10
0.0
 20
0.0
 30
0.0
  9
$PUCSORGFRONT
 10
0.0
 20
0.0
 30
0.0
  9
$PUCSORGBACK
 10
0.0
 20
0.0
 30
0.0
  9
$USERI1
 70
     0
  9
$USERI2
 70
     0
  9
$USERI3
 70
     0
  9
$USERI4
 70
     0
  9
$USERI5
 70
     0
  9
$USERR1
 40
0.0
  9
$USERR2
 40
0.0
  9
$USERR3
 40
0.0
  9
$USERR4
 40
0.0
  9
$USERR5
 40
0.0
  9
$WORLDVIEW
 70
     1
  9
$SHADEDGE
 70
     3
  9
$SHADEDIF
 70
    70
  9
$TILEMODE
 70
     1
  9
$MAXACTVP
 70
    64
  9
$PINSBASE
 10
0.0
 20
0.0
 30
0.0
  9
$PLIMCHECK
 70
     0
  9
$PEXTMIN
 10
1.0000000000E+20
 20
1.0000000000E+20
 30
1.0000000000E+20
  9
$PEXTMAX
 10
-1.0000000000E+20
 20
-1.0000000000E+20
 30
-1.0000000000E+20
  9
$PLIMMIN
 10
0.0
 20
0.0
  9
$PLIMMAX
 10
420.0
 20
297.0
  9
$UNITMODE
 70
     0
  9
$VISRETAIN
 70
     1
  9
$PLINEGEN
 70
     0
  9
$PSLTSCALE
 70
     1
  9
$TREEDEPTH
 70
  3020
  9
$CMLSTYLE
  2
Standard
  9
$CMLJUST
 70
     0
  9
$CMLSCALE
 40
20.0
  9
$PROXYGRAPHICS
 70
     1
  9
$MEASUREMENT
 70
     1
  9
$CELWEIGHT
370
    -1
  9
$ENDCAPS
280
     0
  9
$JOINSTYLE
280
     0
  9
$LWDISPLAY
290
     1
  9
$INSUNITS
 70
     4
  9
$HYPERLINKBASE
  1

  9
$STYLESHEET
  1

  9
$XEDIT
290
     1
  9
$CEPSNTYPE
380
     0
  9
$PSTYLEMODE
290
     1
  9
$FINGERPRINTGUID
  2
{45131fb5-698f-4c98-8d29-9b6c06353ba9}
  9
$VERSIONGUID
  2
{FAEB1C32-E019-11D5-929B-00C0DF256EC4}
  9
$EXTNAMES
290
     1
  9
$PSVPSCALE
 40
0.0
  9
$OLESTARTUP
290
     0
  0
ENDSEC
  0
SECTION
  2
CLASSES
  0
CLASS
  1
ACDBDICTIONARYWDFLT
  2
AcDbDictionaryWithDefault
  3
ObjectDBX Classes
 90
        0
280
     0
281
     0
  0
CLASS
  1
VISUALSTYLE
  2
AcDbVisualStyle
  3
ObjectDBX Classes
 90
     4095
280
     0
281
     0
  0
CLASS
  1
MATERIAL
  2
AcDbMaterial
  3
ObjectDBX Classes
 90
     1153
280
     0
281
     0
  0
CLASS
  1
SCALE
  2
AcDbScale
  3
ObjectDBX Classes
 90
     1153
280
     0
281
     0
  0
CLASS
  1
TABLESTYLE
  2
AcDbTableStyle
  3
ObjectDBX Classes
 90
     4095
280
     0
281
     0
  0
CLASS
  1
MLEADERSTYLE
  2
AcDbMLeaderStyle
  3
ACDB_MLEADERSTYLE_CLASS
 90
     4095
280
     0
281
     0
  0
CLASS
  1
SUN
  2
AcDbSun
  3
SCENEOE
 90
     1153
280
     0
281
     0
  0
CLASS
  1
ACDBPLACEHOLDER
  2
AcDbPlaceHolder
  3
ObjectDBX Classes
 90
        0
280
     0
281
     0
  0
CLASS
  1
LAYOUT
  2
AcDbLayout
  3
ObjectDBX Classes
 90
        0
280
     0
281
     0
  0
ENDSEC
  0
SECTION
  2
TABLES
  0
TABLE
  2
VPORT
  5
8
330
0
100
AcDbSymbolTable
 70
     1
  0
VPORT
  5
29
330
8
100
AcDbSymbolTableRecord
100
AcDbViewportTableRecord
  2
*Active
 70
     0
 10
0.0
 20
0.0
 11
1.0
 21
1.0
 12
148.5
 22
105.0
 13
0.0
 23
0.0
 14
10.0
 24
10.0
 15
10.0
 25
10.0
 16
0.0
 26
0.0
 36
1.0
 17
0.0
 27
0.0
 37
0.0
 40
210.0
 41
1.4142857143
 42
50.0
 43
0.0
 44
0.0
 50
0.0
 51
0.0
 71
     0
 72
  2000
 73
     1
 74
     3
 75
     0
 76
     0
 77
     0
 78
     0
281
     0
 65
     1
110
0.0
120
0.0
130
0.0
111
1.0
121
0.0
131
0.0
112
0.0
122
1.0
132
0.0
 79
     0
146
0.0
  0
ENDTAB
  0
TABLE
  2
LTYPE
  5
5
330
0
100
AcDbSymbolTable
 70
     6
  0
LTYPE
  5
14
330
5
100
AcDbSymbolTableRecord
100
AcDbLinetypeTableRecord
  2
ByBlock
 70
     0
  3

 72
    65
 73
     0
 40
0.0
  0
LTYPE
  5
15
330
5
100
AcDbSymbolTableRecord
100
AcDbLinetypeTableRecord
  2
ByLayer
 70
     0
  3

 72
    65
 73
     0
 40
0.0
  0
LTYPE
  5
16
330
5
100
AcDbSymbolTableRecord
100
AcDbLinetypeTableRecord
  2
Continuous
 70
     0
  3
Solid line
 72
    65
 73
     0
 40
0.0
  0
LTYPE
  5
5E
330
5
100
AcDbSymbolTableRecord
100
AcDbLinetypeTableRecord
  2
HIDDEN
 70
     0
  3
Hidden __ __ __ __ __ __ __ __ __ __ __ __ __ __
 72
    65
 73
     2
 40
1.905
 49
1.27
 74
     0
 49
-0.635
 74
     0
  0
LTYPE
  5
5F
330
5
100
AcDbSymbolTableRecord
100
AcDbLinetypeTableRecord
  2
PHANTOM
 70
     0
  3
Phantom ______  __  __  ______  __  __  ______
 72
    65
 73
     6
 40
12.7
 49
6.35
 74
     0
 49
-1.27
 74
     0
 49
1.27
 74
     0
 49
-1.27
 74
     0
 49
1.27
 74
     0
 49
-1.27
 74
     0
  0
LTYPE
  5
60
330
5
100
AcDbSymbolTableRecord
100
AcDbLinetypeTableRecord
  2
CENTER
 70
     0
  3
Center ____ _ ____ _ ____ _ ____ _ ____ _ ____
 72
    65
 73
     4
 40
10.16
 49
6.35
 74
     0
 49
-1.27
 74
     0
 49
1.27
 74
     0
 49
-1.27
 74
     0
  0
LTYPE
  5
61
330
5
100
AcDbSymbolTableRecord
100
AcDbLinetypeTableRecord
  2
CENTERX2
 70
     0
  3
Center (2x) ________  __  ________  __  _____
 72
    65
 73
     4
 40
20.32
 49
12.7
 74
     0
 49
-2.54
 74
     0
 49
2.54
 74
     0
 49
-2.54
 74
     0
  0
LTYPE
  5
62
330
5
100
AcDbSymbolTableRecord
100
AcDbLinetypeTableRecord
  2
DOT2
 70
     0
  3
Dot (.5x) ........................................
 72
    65
 73
     2
 40
0.635
 49
0.0
 74
     0
 49
-0.635
 74
     0
  0
ENDTAB
  0
TABLE
  2
LAYER
  5
2
330
0
100
AcDbSymbolTable
 70
     2
  0
LAYER
  5
10
330
2
100
AcDbSymbolTableRecord
100
AcDbLayerTableRecord
  2
0
 70
     0
 62
     7
  6
Continuous
370
    -3
390
F
  0
LAYER
  5
63
330
2
100
AcDbSymbolTableRecord
100
AcDbLayerTableRecord
  2
FORMAT
 70
     0
 62
     7
  6
Continuous
370
    -3
390
F
  0
ENDTAB
  0
TABLE
  2
STYLE
  5
3
330
0
100
AcDbSymbolTable
 70
     2
  0
STYLE
  5
11
330
3
100
AcDbSymbolTableRecord
100
AcDbTextStyleTableRecord
  2
Standard
 70
     0
 40
0.0
 41
1.0
 50
0.0
 71
     0
 42
3.5277777778
  3
txt
  4
bigfont
  0
STYLE
  5
64
330
3
100
AcDbSymbolTableRecord
100
AcDbTextStyleTableRecord
  2
SLDTEXTSTYLE0
 70
     0
 40
0.0
 41
0.7
 50
0.0
 71
     0
 42
3.5277777778
  3
TXT
  4
bigfont
  0
ENDTAB
  0
TABLE
  2
VIEW
  5
6
330
0
100
AcDbSymbolTable
 70
     0
  0
ENDTAB
  0
TABLE
  2
UCS
  5
7
330
0
100
AcDbSymbolTable
 70
     0
  0
ENDTAB
  0
TABLE
  2
APPID
  5
9
330
0
100
AcDbSymbolTable
 70
     1
  0
APPID
  5
12
330
9
100
AcDbSymbolTableRecord
100
AcDbRegAppTableRecord
  2
ACAD
 70
     0
  0
ENDTAB
  0
TABLE
  2
DIMSTYLE
  5
A
330
0
100
AcDbSymbolTable
 70
     1
100
AcDbDimStyleTable
  0
DIMSTYLE
105
27
330
A
100
AcDbSymbolTableRecord
100
AcDbDimStyleTableRecord
  2
ISO-25
 70
     0
 41
2.5
 42
0.625
 43
3.75
 44
1.25
 73
     0
 74
     0
 77
     1
 78
     8
140
2.5
141
2.5
143
0.0393700787
147
0.625
171
     3
172
     1
178
     0
271
     2
272
     2
274
     3
278
    44
283
     0
284
     8
340
11
  0
ENDTAB
  0
TABLE
  2
BLOCK_RECORD
  5
1
330
0
100
AcDbSymbolTable
 70
     3
  0
BLOCK_RECORD
  5
1F
330
1
100
AcDbSymbolTableRecord
100
AcDbBlockTableRecord
  2
*Model_Space
340
22
  0
BLOCK_RECORD
  5
1B
330
1
100
AcDbSymbolTableRecord
100
AcDbBlockTableRecord
  2
*Paper_Space
340
1E
  0
BLOCK_RECORD
  5
23
330
1
100
AcDbSymbolTableRecord
100
AcDbBlockTableRecord
  2
*Paper_Space0
340
26
  0
BLOCK_RECORD
  5
1AB
330
1
100
AcDbSymbolTableRecord
100
AcDbBlockTableRecord
  2
SW_CENTERMARKSYMBOL_0
340
0
102
{BLKREFS
331
1B6
102
}
  0
BLOCK_RECORD
  5
27F
330
1
100
AcDbSymbolTableRecord
100
AcDbBlockTableRecord
  2
SW_CENTERMARKSYMBOL_1
340
0
102
{BLKREFS
331
28A
102
}
  0
ENDTAB
  0
ENDSEC
  0
SECTION
  2
BLOCKS
  0
BLOCK
  5
20
330
1F
100
AcDbEntity
  8
0
100
AcDbBlockBegin
  2
*Model_Space
 70
     0
 10
0.0
 20
0.0
 30
0.0
  3
*Model_Space
  1

  0
ENDBLK
  5
21
330
1F
100
AcDbEntity
  8
0
100
AcDbBlockEnd
  0
BLOCK
  5
1C
330
1B
100
AcDbEntity
 67
     1
  8
0
100
AcDbBlockBegin
  2
*Paper_Space
 70
     0
 10
0.0
 20
0.0
 30
0.0
  3
*Paper_Space
  1

  0
ENDBLK
  5
1D
330
1B
100
AcDbEntity
 67
     1
  8
0
100
AcDbBlockEnd
  0
BLOCK
  5
24
330
23
100
AcDbEntity
  8
0
100
AcDbBlockBegin
  2
*Paper_Space0
 70
     0
 10
0.0
 20
0.0
 30
0.0
  3
*Paper_Space0
  1

  0
ENDBLK
  5
25
330
23
100
AcDbEntity
  8
0
100
AcDbBlockEnd
  0
BLOCK
  5
1AC
330
1AB
100
AcDbEntity
  8
0
100
AcDbBlockBegin
  2
SW_CENTERMARKSYMBOL_0
 70
     0
 10
0.0
 20
0.0
 30
0.0
  3
SW_CENTERMARKSYMBOL_0
  1

  0
LINE
  5
1AE
330
1AB
100
AcDbEntity
  8
FORMAT
 62
     0
100
AcDbLine
 10
0.0
 20
0.0
 30
0.0
 11
0.0
 21
2.5
 31
0.0
  0
LINE
  5
1AF
330
1AB
100
AcDbEntity
  8
FORMAT
 62
     0
100
AcDbLine
 10
0.0
 20
0.0
 30
0.0
 11
-2.5
 21
0.0
 31
0.0
  0
LINE
  5
1B0
330
1AB
100
AcDbEntity
  8
FORMAT
 62
     0
100
AcDbLine
 10
0.0
 20
0.0
 30
0.0
 11
0.0
 21
-2.5
 31
0.0
  0
LINE
  5
1B1
330
1AB
100
AcDbEntity
  8
FORMAT
 62
     0
100
AcDbLine
 10
0.0
 20
0.0
 30
0.0
 11
2.5
 21
0.0
 31
0.0
  0
LINE
  5
1B2
330
1AB
100
AcDbEntity
  8
FORMAT
 62
     0
100
AcDbLine
 10
0.0
 20
5.0
 30
0.0
 11
0.0
 21
30.0334704855
 31
0.0
  0
LINE
  5
1B3
330
1AB
100
AcDbEntity
  8
FORMAT
 62
     0
100
AcDbLine
 10
-5.0
 20
0.0
 30
0.0
 11
-12.5
 21
0.0
 31
0.0
  0
LINE
  5
1B4
330
1AB
100
AcDbEntity
  8
FORMAT
 62
     0
100
AcDbLine
 10
0.0
 20
-5.0
 30
0.0
 11
0.0
 21
-12.5
 31
0.0
  0
LINE
  5
1B5
330
1AB
100
AcDbEntity
  8
FORMAT
 62
     0
100
AcDbLine
 10
5.0
 20
0.0
 30
0.0
 11
12.5
 21
0.0
 31
0.0
  0
ENDBLK
  5
1AD
330
1AB
100
AcDbEntity
  8
0
100
AcDbBlockEnd
  0
BLOCK
  5
280
330
27F
100
AcDbEntity
  8
0
100
AcDbBlockBegin
  2
SW_CENTERMARKSYMBOL_1
 70
     0
 10
0.0
 20
0.0
 30
0.0
  3
SW_CENTERMARKSYMBOL_1
  1

  0
LINE
  5
282
330
27F
100
AcDbEntity
  8
FORMAT
 62
     0
100
AcDbLine
 10
0.0
 20
0.0
 30
0.0
 11
0.0
 21
2.5
 31
0.0
  0
LINE
  5
283
330
27F
100
AcDbEntity
  8
FORMAT
 62
     0
100
AcDbLine
 10
0.0
 20
0.0
 30
0.0
 11
-2.5
 21
0.0
 31
0.0
  0
LINE
  5
284
330
27F
100
AcDbEntity
  8
FORMAT
 62
     0
100
AcDbLine
 10
0.0
 20
0.0
 30
0.0
 11
0.0
 21
-2.5
 31
0.0
  0
LINE
  5
285
330
27F
100
AcDbEntity
  8
FORMAT
 62
     0
100
AcDbLine
 10
0.0
 20
0.0
 30
0.0
 11
2.5
 21
0.0
 31
0.0
  0
LINE
  5
286
330
27F
100
AcDbEntity
  8
FORMAT
 62
     0
100
AcDbLine
 10
0.0
 20
5.0
 30
0.0
 11
0.0
 21
9.95
 31
0.0
  0
LINE
  5
287
330
27F
100
AcDbEntity
  8
FORMAT
 62
     0
100
AcDbLine
 10
-5.0
 20
0.0
 30
0.0
 11
-41.6367936078
 21
0.0
 31
0.0
  0
LINE
  5
288
330
27F
100
AcDbEntity
  8
FORMAT
 62
     0
100
AcDbLine
 10
0.0
 20
-5.0
 30
0.0
 11
0.0
 21
-9.95
 31
0.0
  0
LINE
  5
289
330
27F
100
AcDbEntity
  8
FORMAT
 62
     0
100
AcDbLine
 10
5.0
 20
0.0
 30
0.0
 11
21.5049093601
 21
0.0
 31
0.0
  0
ENDBLK
  5
281
330
27F
100
AcDbEntity
  8
0
100
AcDbBlockEnd
  0
ENDSEC
  0
SECTION
  2
ENTITIES
  0
MTEXT
  5
65
330
1F
100
AcDbEntity
  8
FORMAT
100
AcDbMText
 10
145.8753617047
 20
100.4366064577
 30
0.0
 40
3.7041666667
 41
0.0
 71
     1
 72
     1
  1
エースボール　BU-1265R
  7
SLDTEXTSTYLE0
 73
     1
 44
1.0
  0
LINE
  5
66
330
1F
100
AcDbEntity
  8
0
  6
Continuous
 62
     7
370
    25
100
AcDbLine
 10
116.8859119623
 20
47.2606734134
 30
0.0
 11
117.4632622315
 21
48.2606734134
 31
0.0
  0
LINE
  5
67
330
1F
100
AcDbEntity
  8
0
  6
Continuous
 62
     7
370
    25
100
AcDbLine
 10
117.4632622315
 20
63.7606734134
 30
0.0
 11
116.8859119623
 21
64.7606734134
 31
0.0
  0
LINE
  5
68
330
1F
100
AcDbEntity
  8
0
  6
Continuous
 62
     7
370
    25
100
AcDbLine
 10
106.8880501901
 20
64.7606734134
 30
0.0
 11
100.1113927568
 21
62.5588039387
 31
0.0
  0
LINE
  5
69
330
1F
100
AcDbEntity
  8
0
  6
Continuous
 62
     7
370
    25
100
AcDbLine
 10
100.1113927568
 20
49.4625428881
 30
0.0
 11
106.8880501901
 21
47.2606734134
 31
0.0
  0
LINE
  5
6A
330
1F
100
AcDbEntity
  8
0
  6
Continuous
 62
     7
370
    25
100
AcDbLine
 10
100.1113927568
 20
62.5588039387
 30
0.0
 11
99.9632622315
 21
62.4106734134
 31
0.0
  0
LINE
  5
6B
330
1F
100
AcDbEntity
  8
0
  6
Continuous
 62
     7
370
    25
100
AcDbLine
 10
99.9632622315
 20
49.6106734134
 30
0.0
 11
100.1113927568
 21
49.4625428881
 31
0.0
  0
LINE
  5
6C
330
1F
100
AcDbEntity
  8
0
  6
Continuous
 62
     7
370
    25
100
AcDbLine
 10
116.8859119623
 20
64.7606734134
 30
0.0
 11
106.8880501901
 21
64.7606734134
 31
0.0
  0
LINE
  5
6D
330
1F
100
AcDbEntity
  8
0
  6
Continuous
 62
     7
370
    25
100
AcDbLine
 10
106.8880501901
 20
47.2606734134
 30
0.0
 11
116.8859119623
 21
47.2606734134
 31
0.0
  0
LINE
  5
6E
330
1F
100
AcDbEntity
  8
0
  6
Continuous
 62
     7
370
    25
100
AcDbLine
 10
122.741574395
 20
46.5106734134
 30
0.0
 11
123.4632622315
 21
47.7606734134
 31
0.0
  0
LINE
  5
6F
330
1F
100
AcDbEntity
  8
0
  6
Continuous
 62
     7
370
    25
100
AcDbLine
 10
123.4632622315
 20
64.2606734134
 30
0.0
 11
122.741574395
 21
65.5106734134
 31
0.0
  0
LINE
  5
70
330
1F
100
AcDbEntity
  8
0
  6
Continuous
 62
     7
370
    25
100
AcDbLine
 10
118.184950068
 20
65.5106734134
 30
0.0
 11
117.4632622315
 21
64.2606734134
 31
0.0
  0
LINE
  5
71
330
1F
100
AcDbEntity
  8
0
  6
Continuous
 62
     7
370
    25
100
AcDbLine
 10
117.4632622315
 20
47.7606734134
 30
0.0
 11
118.184950068
 21
46.5106734134
 31
0.0
  0
LINE
  5
72
330
1F
100
AcDbEntity
  8
0
  6
Continuous
 62
     7
370
    25
100
AcDbLine
 10
118.184950068
 20
46.5106734134
 30
0.0
 11
122.741574395
 21
46.5106734134
 31
0.0
  0
LINE
  5
73
330
1F
100
AcDbEntity
  8
0
  6
Continuous
 62
     7
370
    25
100
AcDbLine
 10
122.741574395
 20
65.5106734134
 30
0.0
 11
118.184950068
 21
65.5106734134
 31
0.0
  0
LINE
  5
74
330
1F
100
AcDbEntity
  8
0
  6
Continuous
 62
     7
370
    25
100
AcDbLine
 10
142.9632622315
 20
66.0106734134
 30
0.0
 11
141.3452282427
 21
66.0106734134
 31
0.0
  0
LINE
  5
75
330
1F
100
AcDbEntity
  8
0
  6
Continuous
 62
     7
370
    25
100
AcDbLine
 10
141.3452282427
 20
46.0106734134
 30
0.0
 11
142.9632622315
 21
46.0106734134
 31
0.0
  0
ARC
  5
76
330
1F
100
AcDbEntity
  8
0
  6
Continuous
 62
     7
370
    25
100
AcDbCircle
 10
142.4632622315
 20
65.0106734134
 30
0.0
 40
1.500000000000014
100
AcDbArc
 50
138.1896851042
 51
180.0
  0
ARC
  5
77
330
1F
100
AcDbEntity
  8
0
  6
Continuous
 62
     7
370
    25
100
AcDbCircle
 10
142.4632622315
 20
47.0106734134
 30
0.0
 40
1.50000000000001
100
AcDbArc
 50
180.0
 51
221.8103148958
  0
LINE
  5
78
330
1F
100
AcDbEntity
  8
0
  6
Continuous
 62
     7
370
    25
100
AcDbLine
 10
142.9632622315
 20
46.0106734134
 30
0.0
 11
143.4632622315
 21
46.5106734134
 31
0.0
  0
LINE
  5
79
330
1F
100
AcDbEntity
  8
0
  6
Continuous
 62
     7
370
    25
100
AcDbLine
 10
143.4632622315
 20
65.5106734134
 30
0.0
 11
142.9632622315
 21
66.0106734134
 31
0.0
  0
LINE
  5
7A
330
1F
100
AcDbEntity
  8
0
  6
Continuous
 62
     7
370
    25
100
AcDbLine
 10
123.7132622315
 20
46.0106734134
 30
0.0
 11
125.5812962202
 21
46.0106734134
 31
0.0
  0
LINE
  5
7B
330
1F
100
AcDbEntity
  8
0
  6
Continuous
 62
     7
370
    25
100
AcDbLine
 10
125.5812962202
 20
66.0106734134
 30
0.0
 11
123.7132622315
 21
66.0106734134
 31
0.0
  0
ARC
  5
7C
330
1F
100
AcDbEntity
  8
0
  6
Continuous
 62
     7
370
    25
100
AcDbCircle
 10
124.4632622315
 20
47.0106734134
 30
0.0
 40
1.5
100
AcDbArc
 50
318.1896851042
 51
0.0
  0
ARC
  5
7D
330
1F
100
AcDbEntity
  8
0
  6
Continuous
 62
     7
370
    25
100
AcDbCircle
 10
124.4632622315
 20
65.0106734134
 30
0.0
 40
1.500000000000004
100
AcDbArc
 50
0.0
 51
41.8103148958
  0
LINE
  5
7E
330
1F
100
AcDbEntity
  8
0
  6
Continuous
 62
     7
370
    25
100
AcDbLine
 10
123.7132622315
 20
66.0106734134
 30
0.0
 11
123.4632622315
 21
65.7606734134
 31
0.0
  0
LINE
  5
7F
330
1F
100
AcDbEntity
  8
0
  6
Continuous
 62
     7
370
    25
100
AcDbLine
 10
123.4632622315
 20
46.2606734134
 30
0.0
 11
123.7132622315
 21
46.0106734134
 31
0.0
  0
ARC
  5
80
330
1F
100
AcDbEntity
  8
0
  6
Continuous
 62
     7
370
    25
100
AcDbCircle
 10
140.4632622315
 20
65.0106734134
 30
0.0
 40
0.5
100
AcDbArc
 50
270.0
 51
0.0
  0
ARC
  5
81
330
1F
100
AcDbEntity
  8
0
  6
Continuous
 62
     7
370
    25
100
AcDbCircle
 10
126.4632622315
 20
47.0106734134
 30
0.0
 40
0.5
100
AcDbArc
 50
90.0
 51
180.0
  0
ARC
  5
82
330
1F
100
AcDbEntity
  8
0
  6
Continuous
 62
     7
370
    25
100
AcDbCircle
 10
126.4632622315
 20
65.0106734134
 30
0.0
 40
0.5
100
AcDbArc
 50
180.0
 51
270.0
  0
ARC
  5
83
330
1F
100
AcDbEntity
  8
0
  6
Continuous
 62
     7
370
    25
100
AcDbCircle
 10
140.4632622315
 20
47.0106734134
 30
0.0
 40
0.5
100
AcDbArc
 50
0.0
 51
90.0
  0
LINE
  5
84
330
1F
100
AcDbEntity
  8
0
  6
Continuous
 62
     7
370
    25
100
AcDbLine
 10
143.4632622315
 20
49.2437359134
 30
0.0
 11
151.2577377739
 21
49.4873132741
 31
0.0
  0
LINE
  5
85
330
1F
100
AcDbEntity
  8
0
  6
Continuous
 62
     7
370
    25
100
AcDbLine
 10
151.2577377739
 20
62.5340335527
 30
0.0
 11
143.4632622315
 21
62.7776109134
 31
0.0
  0
LINE
  5
86
330
1F
100
AcDbEntity
  8
0
  6
Continuous
 62
     7
370
    25
100
AcDbLine
 10
127.0809413566
 20
64.5106734134
 30
0.0
 11
126.4632622315
 21
64.5106734134
 31
0.0
  0
LINE
  5
87
330
1F
100
AcDbEntity
  8
0
  6
Continuous
 62
     7
370
    25
100
AcDbLine
 10
140.4632622315
 20
64.5106734134
 30
0.0
 11
139.8632622315
 21
64.5106734134
 31
0.0
  0
LINE
  5
88
330
1F
100
AcDbEntity
  8
0
  6
Continuous
 62
     7
370
    25
100
AcDbLine
 10
126.4632622315
 20
47.5106734134
 30
0.0
 11
140.4632622315
 21
47.5106734134
 31
0.0
  0
LINE
  5
89
330
1F
100
AcDbEntity
  8
0
  6
Continuous
 62
     7
370
    25
100
AcDbLine
 10
151.2577377739
 20
49.4873132741
 30
0.0
 11
153.4632622315
 21
50.7606734134
 31
0.0
  0
LINE
  5
8A
330
1F
100
AcDbEntity
  8
0
  6
Continuous
 62
     7
370
    25
100
AcDbLine
 10
153.4632622315
 20
61.2606734134
 30
0.0
 11
151.2577377739
 21
62.5340335527
 31
0.0
  0
SPLINE
  5
8B
330
1F
100
AcDbEntity
  8
0
  6
Continuous
 62
     7
370
    25
100
AcDbSpline
210
0.0
220
0.0
230
1.0
 70
     8
 71
     3
 72
    13
 73
     9
 74
     0
 42
0.00000001
 43
0.00000001
 40
0.0
 40
0.0
 40
0.0
 40
0.0
 40
0.1657648999013929
 40
0.3288516425910938
 40
0.5079757807440833
 40
0.6908230418584143
 40
0.8659232900064849
 40
1.0
 40
1.0
 40
1.0
 40
1.0
 10
139.863570178677
 20
64.51400678499745
 30
0.0
 10
139.8198760123777
 20
64.51588920210635
 30
0.0
 10
139.7331936184108
 20
64.51962362331781
 30
0.0
 10
139.6090097937156
 20
64.57378171317782
 30
0.0
 10
139.4986423321015
 20
64.65821714729913
 30
0.0
 10
139.4158298616172
 20
64.77401200431532
 30
0.0
 10
139.3693967926891
 20
64.8967744586082
 30
0.0
 10
139.3661101145445
 20
64.97800898640773
 30
0.0
 10
139.3646848240083
 20
65.01323689695676
 30
0.0
  0
SPLINE
  5
8C
330
1F
100
AcDbEntity
  8
0
  6
Continuous
 62
     7
370
    25
100
AcDbSpline
210
0.0
220
0.0
230
1.0
 70
     8
 71
     3
 72
    13
 73
     9
 74
     0
 42
0.00000001
 43
0.00000001
 40
0.0
 40
0.0
 40
0.0
 40
0.0
 40
0.1607063118245939
 40
0.3468543103550863
 40
0.5363367921067442
 40
0.7155426209750598
 40
0.8707860443061729
 40
0.9999999999999999
 40
0.9999999999999999
 40
0.9999999999999999
 40
0.9999999999999999
 10
127.5621621548914
 20
65.00156159772611
 30
0.0
 10
127.5589379262602
 20
64.96085533609683
 30
0.0
 10
127.5519790359367
 20
64.872998536048
 30
0.0
 10
127.4954933051582
 20
64.7468094347558
 30
0.0
 10
127.4056846751288
 20
64.63697744523829
 30
0.0
 10
127.2948523231859
 20
64.5618111179078
 30
0.0
 10
127.1837051124152
 20
64.52004659378534
 30
0.0
 10
127.1118128864887
 20
64.51415114288787
 30
0.0
 10
127.0791560472553
 20
64.5114731510788
 30
0.0
  0
LINE
  5
8D
330
1F
100
AcDbEntity
  8
0
  6
Continuous
 62
     7
370
    25
100
AcDbLine
 10
139.3632622315
 20
65.0106734134
 30
0.0
 11
139.3632622315
 21
66.5106734134
 31
0.0
  0
LINE
  5
8E
330
1F
100
AcDbEntity
  8
0
  6
Continuous
 62
     7
370
    25
100
AcDbLine
 10
127.5632622315
 20
66.5106734134
 30
0.0
 11
127.5632622315
 21
64.9994026735
 31
0.0
  0
LINE
  5
8F
330
1F
100
AcDbEntity
  8
0
  6
Continuous
 62
     7
370
    25
100
AcDbLine
 10
140.4632622315
 20
66.5106734134
 30
0.0
 11
140.9132622315
 21
74.5106734134
 31
0.0
  0
LINE
  5
90
330
1F
100
AcDbEntity
  8
0
  6
Continuous
 62
     7
370
    25
100
AcDbLine
 10
140.9132622315
 20
74.5106734134
 30
0.0
 11
138.9632622315
 21
82.5106734134
 31
0.0
  0
LINE
  5
91
330
1F
100
AcDbEntity
  8
0
  6
Continuous
 62
     7
370
    25
100
AcDbLine
 10
126.3926056057
 20
67.7667912047
 30
0.0
 11
126.4632622315
 21
66.5106734134
 31
0.0
  0
LINE
  5
92
330
1F
100
AcDbEntity
  8
0
  6
Continuous
 62
     7
370
    25
100
AcDbLine
 10
127.9632622315
 20
82.5106734134
 30
0.0
 11
127.7092853912
 21
81.4687171455
 31
0.0
  0
LINE
  5
93
330
1F
100
AcDbEntity
  8
0
  6
Continuous
 62
     7
370
    25
100
AcDbLine
 10
116.8859119623
 20
52.4663116937
 30
0.0
 11
106.8880501901
 21
52.4663116937
 31
0.0
  0
SPLINE
  5
94
330
1F
100
AcDbEntity
  8
0
  6
Continuous
 62
     7
370
    25
100
AcDbSpline
210
0.0
220
0.0
230
1.0
 70
     8
 71
     3
 72
    21
 73
    17
 74
     0
 42
0.00000001
 43
0.00000001
 40
0.0
 40
0.0
 40
0.0
 40
0.0
 40
0.1026314353760766
 40
0.2051536271313487
 40
0.2714537892224375
 40
0.3376739344363226
 40
0.4049098244621334
 40
0.4719894983518813
 40
0.5316983844354848
 40
0.5914558444154815
 40
0.6604398118326982
 40
0.7295754946862759
 40
0.8160656878680139
 40
0.9029007960743887
 40
0.9896696912087789
 40
1.0
 40
1.0
 40
1.0
 40
1.0
 10
106.8880501901391
 20
52.46631169372899
 30
0.0
 10
106.6581363501763
 20
52.65739402456357
 30
0.0
 10
106.1985533966374
 20
53.03935529313378
 30
0.0
 10
105.6477794361858
 20
53.60920839084312
 30
0.0
 10
105.224670763568
 20
54.14819457778901
 30
0.0
 10
104.9190602777114
 20
54.64512954430483
 30
0.0
 10
104.6918521534333
 20
55.18590016222647
 30
0.0
 10
104.5728862228774
 20
55.74276497417847
 30
0.0
 10
104.5790011083982
 20
56.289636735038
 30
0.0
 10
104.689467578259
 20
56.83029567506549
 30
0.0
 10
104.9127818953561
 20
57.36507688321679
 30
0.0
 10
105.2558829819722
 20
57.92388209220851
 30
0.0
 10
105.7009557117217
 20
58.47431755428587
 30
0.0
 10
106.2374868034941
 20
59.01009083377905
 30
0.0
 10
106.6444936836931
 20
59.35878209459094
 30
0.0
 10
106.8646300530085
 20
59.53616364763035
 30
0.0
 10
106.8880501901391
 20
59.5550351331079
 30
0.0
  0
LINE
  5
95
330
1F
100
AcDbEntity
  8
0
  6
Continuous
 62
     7
370
    25
100
AcDbLine
 10
106.8880501901
 20
59.5550351331
 30
0.0
 11
116.8859119623
 21
59.5550351331
 31
0.0
  0
SPLINE
  5
96
330
1F
100
AcDbEntity
  8
0
  6
Continuous
 62
     7
370
    25
100
AcDbSpline
210
0.0
220
0.0
230
1.0
 70
     8
 71
     3
 72
    14
 73
    10
 74
     0
 42
0.00000001
 43
0.00000001
 40
0.0
 40
0.0
 40
0.0
 40
0.0
 40
0.1256601379075847
 40
0.2516558464791769
 40
0.4109471086771707
 40
0.5702234655241284
 40
0.7336736946401573
 40
0.8971597489228158
 40
0.9999999999999999
 40
0.9999999999999999
 40
0.9999999999999999
 40
0.9999999999999999
 10
116.885911962305
 20
59.5550351331079
 30
0.0
 10
116.9503010005366
 20
59.26222973031685
 30
0.0
 10
117.0792510255004
 20
58.67583699893814
 30
0.0
 10
117.2274216422877
 20
57.70615268637532
 30
0.0
 10
117.319297261992
 20
56.64872991269211
 30
0.0
 10
117.3259027373621
 20
55.49756212705401
 30
0.0
 10
117.2334547826232
 20
54.34030779139644
 30
0.0
 10
117.0769461971085
 20
53.32602196012265
 30
0.0
 10
116.9391291574409
 20
52.70580473042994
 30
0.0
 10
116.8859119623051
 20
52.46631169372891
 30
0.0
  0
LINE
  5
97
330
1F
100
AcDbEntity
  8
0
  6
Continuous
 62
     7
370
    25
100
AcDbLine
 10
116.8859119623
 20
50.854651043
 30
0.0
 11
116.8859119623
 21
52.4663116937
 31
0.0
  0
LINE
  5
98
330
1F
100
AcDbEntity
  8
0
  6
Continuous
 62
     7
370
    25
100
AcDbLine
 10
116.8859119623
 20
59.5550351331
 30
0.0
 11
116.8859119623
 21
61.1666957838
 31
0.0
  0
SPLINE
  5
99
330
1F
100
AcDbEntity
  8
0
  6
Continuous
 62
     7
370
    25
100
AcDbSpline
210
0.0
220
0.0
230
1.0
 70
     8
 71
     3
 72
    13
 73
     9
 74
     0
 42
0.00000001
 43
0.00000001
 40
0.0
 40
0.0
 40
0.0
 40
0.0
 40
0.1643206824199773
 40
0.3285993354056134
 40
0.4969323449809471
 40
0.6652646969914853
 40
0.8321643671150455
 40
1.0
 40
1.0
 40
1.0
 40
1.0
 10
116.885911962305
 20
64.71105750353867
 30
0.0
 10
116.9684786989806
 20
64.51941274652825
 30
0.0
 10
117.1335910536679
 20
64.13617225080876
 30
0.0
 10
117.2816079365212
 20
63.54736198759392
 30
0.0
 10
117.3361248204391
 20
62.94986961944664
 30
0.0
 10
117.2850513484375
 20
62.34917866990305
 30
0.0
 10
117.1382967547666
 20
61.75286710860118
 30
0.0
 10
116.9701969026947
 20
61.36245011073616
 30
0.0
 10
116.885911962305
 20
61.16669578384924
 30
0.0
  0
LINE
  5
9A
330
1F
100
AcDbEntity
  8
0
  6
Continuous
 62
     7
370
    25
100
AcDbLine
 10
116.8859119623
 20
64.7110575035
 30
0.0
 11
116.8859119623
 21
64.7606734134
 31
0.0
  0
LINE
  5
9B
330
1F
100
AcDbEntity
  8
0
  6
Continuous
 62
     7
370
    25
100
AcDbLine
 10
116.8859119623
 20
47.2606734134
 30
0.0
 11
116.8859119623
 21
47.3102893233
 31
0.0
  0
SPLINE
  5
9C
330
1F
100
AcDbEntity
  8
0
  6
Continuous
 62
     7
370
    25
100
AcDbSpline
210
0.0
220
0.0
230
1.0
 70
     8
 71
     3
 72
    13
 73
     9
 74
     0
 42
0.00000001
 43
0.00000001
 40
0.0
 40
0.0
 40
0.0
 40
0.0
 40
0.1643206824199781
 40
0.3285993354056149
 40
0.4969323449809497
 40
0.6652646969914886
 40
0.8321643671150473
 40
1.0
 40
1.0
 40
1.0
 40
1.0
 10
116.885911962305
 20
50.85465104298769
 30
0.0
 10
116.9684786989806
 20
50.66300628597727
 30
0.0
 10
117.1335910536679
 20
50.27976579025778
 30
0.0
 10
117.2816079365212
 20
49.69095552704296
 30
0.0
 10
117.3361248204391
 20
49.09346315889567
 30
0.0
 10
117.2850513484375
 20
48.49277220935207
 30
0.0
 10
117.1382967547666
 20
47.89646064805025
 30
0.0
 10
116.9701969026947
 20
47.50604365018522
 30
0.0
 10
116.885911962305
 20
47.3102893232983
 30
0.0
  0
LINE
  5
9D
330
1F
100
AcDbEntity
  8
0
  6
Continuous
 62
     7
370
    25
100
AcDbLine
 10
106.8880501901
 20
52.4663116937
 30
0.0
 11
106.8880501901
 21
50.854651043
 31
0.0
  0
SPLINE
  5
9E
330
1F
100
AcDbEntity
  8
0
  6
Continuous
 62
     7
370
    25
100
AcDbSpline
210
0.0
220
0.0
230
1.0
 70
     8
 71
     3
 72
    20
 73
    16
 74
     0
 42
0.00000001
 43
0.00000001
 40
0.0
 40
0.0
 40
0.0
 40
0.0
 40
0.1188966968645917
 40
0.2375634126013242
 40
0.3060808789618322
 40
0.3744793202719439
 40
0.4287309583942546
 40
0.4829210320810352
 40
0.5373512983533264
 40
0.5918209520241775
 40
0.6609321545076219
 40
0.7301958280296453
 40
0.8199012595053332
 40
0.9099846956429744
 40
1.0
 40
1.0
 40
1.0
 40
1.0
 10
106.8880501901391
 20
47.3102893232983
 30
0.0
 10
106.6221271574049
 20
47.421280941112
 30
0.0
 10
106.090795465175
 20
47.64304948635591
 30
0.0
 10
105.4855960451982
 20
47.9728601996656
 30
0.0
 10
105.0570344412229
 20
48.27786306530389
 30
0.0
 10
104.8007305371646
 20
48.52635810890673
 30
0.0
 10
104.6410529594303
 20
48.77213158628006
 30
0.0
 10
104.5689700160941
 20
49.00779686112054
 30
0.0
 10
104.5872220015249
 20
49.24642949965943
 30
0.0
 10
104.6965516333437
 20
49.50099276627701
 30
0.0
 10
104.9146062826496
 20
49.76152078009431
 30
0.0
 10
105.2636413485451
 20
50.04508750797555
 30
0.0
 10
105.7230839920822
 20
50.32688212987065
 30
0.0
 10
106.2813983043243
 20
50.60414509335763
 30
0.0
 10
106.6858839008209
 20
50.77117012176578
 30
0.0
 10
106.8880501901391
 20
50.85465104298769
 30
0.0
  0
LINE
  5
9F
330
1F
100
AcDbEntity
  8
0
  6
Continuous
 62
     7
370
    25
100
AcDbLine
 10
106.8880501901
 20
47.3102893233
 30
0.0
 11
106.8880501901
 21
47.2606734134
 31
0.0
  0
LINE
  5
A0
330
1F
100
AcDbEntity
  8
0
  6
Continuous
 62
     7
370
    25
100
AcDbLine
 10
106.8880501901
 20
64.7606734134
 30
0.0
 11
106.8880501901
 21
64.7110575035
 31
0.0
  0
SPLINE
  5
A1
330
1F
100
AcDbEntity
  8
0
  6
Continuous
 62
     7
370
    25
100
AcDbSpline
210
0.0
220
0.0
230
1.0
 70
     8
 71
     3
 72
    20
 73
    16
 74
     0
 42
0.00000001
 43
0.00000001
 40
0.0
 40
0.0
 40
0.0
 40
0.0
 40
0.1188966968645922
 40
0.2375634126013251
 40
0.3060808789618342
 40
0.3744793202719464
 40
0.4287309583942573
 40
0.4829210320810379
 40
0.5373512983533292
 40
0.5918209520241804
 40
0.6609321545076242
 40
0.7301958280296474
 40
0.8199012595053347
 40
0.9099846956429749
 40
1.0
 40
1.0
 40
1.0
 40
1.0
 10
106.8880501901391
 20
61.16669578384924
 30
0.0
 10
106.6221271574049
 20
61.27768740166294
 30
0.0
 10
106.090795465175
 20
61.49945594690686
 30
0.0
 10
105.4855960451982
 20
61.82926666021655
 30
0.0
 10
105.0570344412229
 20
62.13426952585486
 30
0.0
 10
104.8007305371646
 20
62.38276456945772
 30
0.0
 10
104.6410529594303
 20
62.62853804683105
 30
0.0
 10
104.5689700160941
 20
62.86420332167153
 30
0.0
 10
104.5872220015249
 20
63.10283596021041
 30
0.0
 10
104.6965516333437
 20
63.35739922682801
 30
0.0
 10
104.9146062826496
 20
63.61792724064529
 30
0.0
 10
105.2636413485451
 20
63.90149396852652
 30
0.0
 10
105.7230839920822
 20
64.18328859042164
 30
0.0
 10
106.2813983043243
 20
64.46055155390862
 30
0.0
 10
106.6858839008209
 20
64.62757658231676
 30
0.0
 10
106.8880501901391
 20
64.71105750353867
 30
0.0
  0
LINE
  5
A2
330
1F
100
AcDbEntity
  8
0
  6
Continuous
 62
     7
370
    25
100
AcDbLine
 10
106.8880501901
 20
61.1666957838
 30
0.0
 11
106.8880501901
 21
59.5550351331
 31
0.0
  0
LINE
  5
A3
330
1F
100
AcDbEntity
  8
0
  6
Continuous
 62
     7
370
    25
100
AcDbLine
 10
100.1113927568
 20
62.5588039387
 30
0.0
 11
100.1113927568
 21
49.4625428881
 31
0.0
  0
LINE
  5
A4
330
1F
100
AcDbEntity
  8
0
  6
Continuous
 62
     7
370
    25
100
AcDbLine
 10
116.8859119623
 20
61.1666957838
 30
0.0
 11
106.8880501901
 21
61.1666957838
 31
0.0
  0
LINE
  5
A5
330
1F
100
AcDbEntity
  8
0
  6
Continuous
 62
     7
370
    25
100
AcDbLine
 10
106.8880501901
 20
50.854651043
 30
0.0
 11
116.8859119623
 21
50.854651043
 31
0.0
  0
LINE
  5
A6
330
1F
100
AcDbEntity
  8
0
  6
Continuous
 62
     7
370
    25
100
AcDbLine
 10
106.8880501901
 20
64.7110575035
 30
0.0
 11
116.8859119623
 21
64.7110575035
 31
0.0
  0
LINE
  5
A7
330
1F
100
AcDbEntity
  8
0
  6
Continuous
 62
     7
370
    25
100
AcDbLine
 10
116.8859119623
 20
47.3102893233
 30
0.0
 11
106.8880501901
 21
47.3102893233
 31
0.0
  0
LINE
  5
A8
330
1F
100
AcDbEntity
  8
0
  6
Continuous
 62
     7
370
    25
100
AcDbLine
 10
99.9632622315
 20
49.6106734134
 30
0.0
 11
99.9632622315
 21
62.4106734134
 31
0.0
  0
LINE
  5
A9
330
1F
100
AcDbEntity
  8
0
  6
Continuous
 62
     7
370
    25
100
AcDbLine
 10
122.741574395
 20
51.7680327263
 30
0.0
 11
118.184950068
 21
51.7680327263
 31
0.0
  0
SPLINE
  5
AA
330
1F
100
AcDbEntity
  8
0
  6
Continuous
 62
     7
370
    25
100
AcDbSpline
210
0.0
220
0.0
230
1.0
 70
     8
 71
     3
 72
    14
 73
    10
 74
     0
 42
0.00000001
 43
0.00000001
 40
0.0
 40
0.0
 40
0.0
 40
0.0
 40
0.1192229419312328
 40
0.2616850747268373
 40
0.4041152230187641
 40
0.5501365448464931
 40
0.6961676515364528
 40
0.847683912725662
 40
1.0
 40
1.0
 40
1.0
 40
1.0
 10
118.1849500679818
 20
51.76803272629929
 30
0.0
 10
118.1040955217758
 20
52.09954982531156
 30
0.0
 10
117.9266260882658
 20
52.82720404540529
 30
0.0
 10
117.7330705989753
 20
53.9685261856776
 30
0.0
 10
117.6123888071247
 20
55.19683431799568
 30
0.0
 10
117.5967021626708
 20
56.4417197185449
 30
0.0
 10
117.6878779425742
 20
57.70896985690414
 30
0.0
 10
117.8800904399406
 20
58.98364394091015
 30
0.0
 10
118.0831520082427
 20
59.82934861980429
 30
0.0
 10
118.1849500679818
 20
60.25331410053786
 30
0.0
  0
LINE
  5
AB
330
1F
100
AcDbEntity
  8
0
  6
Continuous
 62
     7
370
    25
100
AcDbLine
 10
118.184950068
 20
60.2533141005
 30
0.0
 11
122.741574395
 21
60.2533141005
 31
0.0
  0
SPLINE
  5
AC
330
1F
100
AcDbEntity
  8
0
  6
Continuous
 62
     7
370
    25
100
AcDbSpline
210
0.0
220
0.0
230
1.0
 70
     8
 71
     3
 72
    14
 73
    10
 74
     0
 42
0.00000001
 43
0.00000001
 40
0.0
 40
0.0
 40
0.0
 40
0.0
 40
0.1534448797333578
 40
0.3076296752908595
 40
0.4501946411985858
 40
0.5927507509938784
 40
0.7390826097178613
 40
0.885450073448215
 40
1.0
 40
1.0
 40
1.0
 40
1.0
 10
122.7415743950077
 20
60.25331410053786
 30
0.0
 10
122.8440726340371
 20
59.82619257641981
 30
0.0
 10
123.0495633616864
 20
58.96988993535093
 30
0.0
 10
123.2403013286287
 20
57.69395719752775
 30
0.0
 10
123.3291282634047
 20
56.43884930212053
 30
0.0
 10
123.3145206529884
 20
55.20271447090827
 30
0.0
 10
123.193343034747
 20
53.96187585873353
 30
0.0
 10
122.9966837436733
 20
52.81193461207059
 30
0.0
 10
122.8194047569118
 20
52.08651286819474
 30
0.0
 10
122.7415743950077
 20
51.76803272629929
 30
0.0
  0
LINE
  5
AD
330
1F
100
AcDbEntity
  8
0
  6
Continuous
 62
     7
370
    25
100
AcDbLine
 10
122.741574395
 20
46.5106734134
 30
0.0
 11
122.741574395
 21
46.5281371377
 31
0.0
  0
SPLINE
  5
AE
330
1F
100
AcDbEntity
  8
0
  6
Continuous
 62
     7
370
    25
100
AcDbSpline
210
0.0
220
0.0
230
1.0
 70
     8
 71
     3
 72
    13
 73
     9
 74
     0
 42
0.00000001
 43
0.00000001
 40
0.0
 40
0.0
 40
0.0
 40
0.0
 40
0.1486836725407958
 40
0.2973266681306995
 40
0.449519031478865
 40
0.6016998281953444
 40
0.7998469953576066
 40
1.0
 40
1.0
 40
1.0
 40
1.0
 10
122.7415743950077
 20
50.77077782481047
 30
0.0
 10
122.8410331544579
 20
50.56388278890346
 30
0.0
 10
123.0399234633828
 20
50.15014931953323
 30
0.0
 10
123.2354707262543
 20
49.51369907936225
 30
0.0
 10
123.3314689896781
 20
48.86659068736201
 30
0.0
 10
123.3093970230347
 20
48.14694528410787
 30
0.0
 10
123.1330187109733
 20
47.36221800149689
 30
0.0
 10
122.8724931687301
 20
46.80709595615136
 30
0.0
 10
122.7415743950077
 20
46.52813713769112
 30
0.0
  0
LINE
  5
AF
330
1F
100
AcDbEntity
  8
0
  6
Continuous
 62
     7
370
    25
100
AcDbLine
 10
122.741574395
 20
50.7707778248
 30
0.0
 11
122.741574395
 21
51.7680327263
 31
0.0
  0
LINE
  5
B0
330
1F
100
AcDbEntity
  8
0
  6
Continuous
 62
     7
370
    25
100
AcDbLine
 10
122.741574395
 20
60.2533141005
 30
0.0
 11
122.741574395
 21
61.250569002
 31
0.0
  0
SPLINE
  5
B1
330
1F
100
AcDbEntity
  8
0
  6
Continuous
 62
     7
370
    25
100
AcDbSpline
210
0.0
220
0.0
230
1.0
 70
     8
 71
     3
 72
    13
 73
     9
 74
     0
 42
0.00000001
 43
0.00000001
 40
0.0
 40
0.0
 40
0.0
 40
0.0
 40
0.1486836725407981
 40
0.2973266681307043
 40
0.4495190314788722
 40
0.601699828195354
 40
0.7998469953576114
 40
1.0
 40
1.0
 40
1.0
 40
1.0
 10
122.7415743950077
 20
65.49320968914586
 30
0.0
 10
122.8410331544579
 20
65.28631465323886
 30
0.0
 10
123.0399234633828
 20
64.87258118386865
 30
0.0
 10
123.2354707262543
 20
64.23613094369767
 30
0.0
 10
123.3314689896781
 20
63.58902255169745
 30
0.0
 10
123.3093970230347
 20
62.86937714844335
 30
0.0
 10
123.1330187109733
 20
62.0846498658324
 30
0.0
 10
122.8724931687301
 20
61.5295278204869
 30
0.0
 10
122.7415743950077
 20
61.25056900202668
 30
0.0
  0
LINE
  5
B2
330
1F
100
AcDbEntity
  8
0
  6
Continuous
 62
     7
370
    25
100
AcDbLine
 10
122.741574395
 20
65.4932096891
 30
0.0
 11
122.741574395
 21
65.5106734134
 31
0.0
  0
LINE
  5
B3
330
1F
100
AcDbEntity
  8
0
  6
Continuous
 62
     7
370
    25
100
AcDbLine
 10
117.4632622315
 20
56.0106734134
 30
0.0
 11
117.4632622315
 21
64.2606734134
 31
0.0
  0
LINE
  5
B4
330
1F
100
AcDbEntity
  8
0
  6
Continuous
 62
     7
370
    25
100
AcDbLine
 10
117.4632622315
 20
47.7606734134
 30
0.0
 11
117.4632622315
 21
56.0106734134
 31
0.0
  0
LINE
  5
B5
330
1F
100
AcDbEntity
  8
0
  6
Continuous
 62
     7
370
    25
100
AcDbLine
 10
118.184950068
 20
65.5106734134
 30
0.0
 11
118.184950068
 21
65.4932096891
 31
0.0
  0
SPLINE
  5
B6
330
1F
100
AcDbEntity
  8
0
  6
Continuous
 62
     7
370
    25
100
AcDbSpline
210
0.0
220
0.0
230
1.0
 70
     8
 71
     3
 72
    13
 73
     9
 74
     0
 42
0.00000001
 43
0.00000001
 40
0.0
 40
0.0
 40
0.0
 40
0.0
 40
0.1486836725407981
 40
0.2973266681307041
 40
0.4495190314788719
 40
0.6016998281953535
 40
0.7998469953576114
 40
1.0
 40
1.0
 40
1.0
 40
1.0
 10
118.1849500679818
 20
61.25056900202668
 30
0.0
 10
118.0854913085316
 20
61.45746403793368
 30
0.0
 10
117.8866009996067
 20
61.87119750730391
 30
0.0
 10
117.6910537367352
 20
62.50764774747486
 30
0.0
 10
117.5950554733114
 20
63.1547561394751
 30
0.0
 10
117.6171274399549
 20
63.8744015427292
 30
0.0
 10
117.7935057520162
 20
64.65912882534013
 30
0.0
 10
118.0540312942595
 20
65.21425087068563
 30
0.0
 10
118.1849500679818
 20
65.49320968914586
 30
0.0
  0
LINE
  5
B7
330
1F
100
AcDbEntity
  8
0
  6
Continuous
 62
     7
370
    25
100
AcDbLine
 10
118.184950068
 20
61.250569002
 30
0.0
 11
118.184950068
 21
60.2533141005
 31
0.0
  0
LINE
  5
B8
330
1F
100
AcDbEntity
  8
0
  6
Continuous
 62
     7
370
    25
100
AcDbLine
 10
118.184950068
 20
51.7680327263
 30
0.0
 11
118.184950068
 21
50.7707778248
 31
0.0
  0
SPLINE
  5
B9
330
1F
100
AcDbEntity
  8
0
  6
Continuous
 62
     7
370
    25
100
AcDbSpline
210
0.0
220
0.0
230
1.0
 70
     8
 71
     3
 72
    13
 73
     9
 74
     0
 42
0.00000001
 43
0.00000001
 40
0.0
 40
0.0
 40
0.0
 40
0.0
 40
0.1486836725407957
 40
0.2973266681306994
 40
0.4495190314788648
 40
0.6016998281953442
 40
0.7998469953576066
 40
1.0
 40
1.0
 40
1.0
 40
1.0
 10
118.1849500679818
 20
46.52813713769112
 30
0.0
 10
118.0854913085316
 20
46.73503217359813
 30
0.0
 10
117.8866009996067
 20
47.14876564296836
 30
0.0
 10
117.6910537367352
 20
47.78521588313933
 30
0.0
 10
117.5950554733114
 20
48.43232427513958
 30
0.0
 10
117.6171274399549
 20
49.15196967839371
 30
0.0
 10
117.7935057520162
 20
49.93669696100469
 30
0.0
 10
118.0540312942594
 20
50.49181900635022
 30
0.0
 10
118.1849500679818
 20
50.77077782481047
 30
0.0
  0
LINE
  5
BA
330
1F
100
AcDbEntity
  8
0
  6
Continuous
 62
     7
370
    25
100
AcDbLine
 10
118.184950068
 20
46.5281371377
 30
0.0
 11
118.184950068
 21
46.5106734134
 31
0.0
  0
LINE
  5
BB
330
1F
100
AcDbEntity
  8
0
  6
Continuous
 62
     7
370
    25
100
AcDbLine
 10
118.184950068
 20
50.7707778248
 30
0.0
 11
122.741574395
 21
50.7707778248
 31
0.0
  0
LINE
  5
BC
330
1F
100
AcDbEntity
  8
0
  6
Continuous
 62
     7
370
    25
100
AcDbLine
 10
122.741574395
 20
61.250569002
 30
0.0
 11
118.184950068
 21
61.250569002
 31
0.0
  0
LINE
  5
BD
330
1F
100
AcDbEntity
  8
0
  6
Continuous
 62
     7
370
    25
100
AcDbLine
 10
122.741574395
 20
46.5281371377
 30
0.0
 11
118.184950068
 21
46.5281371377
 31
0.0
  0
LINE
  5
BE
330
1F
100
AcDbEntity
  8
0
  6
Continuous
 62
     7
370
    25
100
AcDbLine
 10
118.184950068
 20
65.4932096891
 30
0.0
 11
122.741574395
 21
65.4932096891
 31
0.0
  0
LINE
  5
BF
330
1F
100
AcDbEntity
  8
0
  6
Continuous
 62
     7
370
    25
100
AcDbLine
 10
141.3452282427
 20
46.0106734134
 30
0.0
 11
141.3452282427
 21
66.0106734134
 31
0.0
  0
LINE
  5
C0
330
1F
100
AcDbEntity
  8
0
  6
Continuous
 62
     7
370
    25
100
AcDbLine
 10
142.9632622315
 20
46.0106734134
 30
0.0
 11
142.9632622315
 21
66.0106734134
 31
0.0
  0
SPLINE
  5
C1
330
1F
100
AcDbEntity
  8
0
  6
Continuous
 62
     7
370
    25
100
AcDbSpline
210
0.0
220
0.0
230
1.0
 70
     8
 71
     3
 72
     8
 73
     4
 74
     0
 42
0.00000001
 43
0.00000001
 40
0.0
 40
0.0
 40
0.0
 40
0.0
 40
1.0
 40
1.0
 40
1.0
 40
1.0
 10
141.0604633561487
 20
50.61098356192259
 30
0.0
 10
140.9926269385726
 20
50.57962062091181
 30
0.0
 10
140.9632622314948
 20
50.54615246026226
 30
0.0
 10
140.9632622314948
 20
50.51067341341849
 30
0.0
  0
SPLINE
  5
C2
330
1F
100
AcDbEntity
  8
0
  6
Continuous
 62
     7
370
    25
100
AcDbSpline
210
0.0
220
0.0
230
1.0
 70
     8
 71
     3
 72
    12
 73
     8
 74
     0
 42
0.00000001
 43
0.00000001
 40
0.0
 40
0.0
 40
0.0
 40
0.0
 40
0.5000000000000001
 40
0.5000000000000001
 40
0.75
 40
0.75
 40
1.0
 40
1.0
 40
1.0
 40
1.0
 10
141.0604633561487
 20
50.61098356192259
 30
0.0
 10
141.1283331161585
 20
50.64236191820469
 30
0.0
 10
141.2043676674122
 20
50.77607043870324
 30
0.0
 10
141.2510122657892
 20
51.05409654836902
 30
0.0
 10
141.2554512623119
 20
51.16094273237297
 30
0.0
 10
141.2397206485191
 20
51.38782420642872
 30
0.0
 10
141.2198402185767
 20
51.50799317873334
 30
0.0
 10
141.1923482985968
 20
51.62944282354358
 30
0.0
  0
SPLINE
  5
C3
330
1F
100
AcDbEntity
  8
0
  6
Continuous
 62
     7
370
    25
100
AcDbSpline
210
0.0
220
0.0
230
1.0
 70
     8
 71
     3
 72
    12
 73
     8
 74
     0
 42
0.00000001
 43
0.00000001
 40
0.0
 40
0.0
 40
0.0
 40
0.0
 40
0.5
 40
0.5
 40
0.75
 40
0.75
 40
1.0
 40
1.0
 40
1.0
 40
1.0
 10
140.9632622314948
 20
56.01067341341849
 30
0.0
 10
140.9632622314948
 20
55.27671639126127
 30
0.0
 10
140.9587048364955
 20
54.54373794689847
 30
0.0
 10
140.9858885008748
 20
53.44691383395206
 30
0.0
 10
141.001338171792
 20
53.08176624538163
 30
0.0
 10
141.0642017733238
 20
52.35297823151758
 30
0.0
 10
141.1112316964922
 20
51.98778747611926
 30
0.0
 10
141.1923482985968
 20
51.62944282354358
 30
0.0
  0
SPLINE
  5
C4
330
1F
100
AcDbEntity
  8
0
  6
Continuous
 62
     7
370
    25
100
AcDbSpline
210
0.0
220
0.0
230
1.0
 70
     8
 71
     3
 72
    12
 73
     8
 74
     0
 42
0.00000001
 43
0.00000001
 40
0.0
 40
0.0
 40
0.0
 40
0.0
 40
0.25
 40
0.25
 40
0.5
 40
0.5
 40
1.0
 40
1.0
 40
1.0
 40
1.0
 10
141.1923482985968
 20
60.39190400329339
 30
0.0
 10
141.1112316964922
 20
60.03355935071772
 30
0.0
 10
141.0642017733238
 20
59.6683685953194
 30
0.0
 10
141.001338171792
 20
58.93958058145535
 30
0.0
 10
140.9858885008748
 20
58.57443299288492
 30
0.0
 10
140.9587048364955
 20
57.47760887993851
 30
0.0
 10
140.9632622314948
 20
56.74463043557571
 30
0.0
 10
140.9632622314948
 20
56.01067341341848
 30
0.0
  0
SPLINE
  5
C5
330
1F
100
AcDbEntity
  8
0
  6
Continuous
 62
     7
370
    25
100
AcDbSpline
210
0.0
220
0.0
230
1.0
 70
     8
 71
     3
 72
    14
 73
    10
 74
     0
 42
0.00000001
 43
0.00000001
 40
0.0
 40
0.0
 40
0.0
 40
0.0
 40
0.25
 40
0.25
 40
0.5
 40
0.5
 40
0.75
 40
0.75
 40
1.0
 40
1.0
 40
1.0
 40
1.0
 10
141.1923482985968
 20
60.39190400329339
 30
0.0
 10
141.2198692863419
 20
60.51348205927911
 30
0.0
 10
141.2397892081783
 20
60.63400679630423
 30
0.0
 10
141.2554562499964
 20
60.86098305541234
 30
0.0
 10
141.250964418184
 20
60.96795303297851
 30
0.0
 10
141.2197080729005
 20
61.15341858475824
 30
0.0
 10
141.1933354895187
 20
61.23230384587708
 30
0.0
 10
141.1304989383744
 20
61.35294163705017
 30
0.0
 10
141.0944593595143
 20
61.39464582749278
 30
0.0
 10
141.0604633561487
 20
61.41036326491439
 30
0.0
  0
SPLINE
  5
C6
330
1F
100
AcDbEntity
  8
0
  6
Continuous
 62
     7
370
    25
100
AcDbSpline
210
0.0
220
0.0
230
1.0
 70
     8
 71
     3
 72
     8
 73
     4
 74
     0
 42
0.00000001
 43
0.00000001
 40
0.0
 40
0.0
 40
0.0
 40
0.0
 40
1.0
 40
1.0
 40
1.0
 40
1.0
 10
140.9632622314948
 20
61.51067341341849
 30
0.0
 10
140.9632622314948
 20
61.47519436657472
 30
0.0
 10
140.9926269385726
 20
61.44172620592516
 30
0.0
 10
141.0604633561487
 20
61.41036326491439
 30
0.0
  0
LINE
  5
C7
330
1F
100
AcDbEntity
  8
0
  6
Continuous
 62
     7
370
    25
100
AcDbLine
 10
140.9632622315
 20
61.5106734134
 30
0.0
 11
140.9632622315
 21
65.0106734134
 31
0.0
  0
LINE
  5
C8
330
1F
100
AcDbEntity
  8
0
  6
Continuous
 62
     7
370
    25
100
AcDbLine
 10
140.9632622315
 20
47.0106734134
 30
0.0
 11
140.9632622315
 21
50.5106734134
 31
0.0
  0
LINE
  5
C9
330
1F
100
AcDbEntity
  8
0
  6
Continuous
 62
     7
370
    25
100
AcDbLine
 10
143.4632622315
 20
65.5106734134
 30
0.0
 11
143.4632622315
 21
46.5106734134
 31
0.0
  0
LINE
  5
CA
330
1F
100
AcDbEntity
  8
0
  6
Continuous
 62
     7
370
    25
100
AcDbLine
 10
125.5812962202
 20
56.0106734134
 30
0.0
 11
125.5812962202
 21
46.0106734134
 31
0.0
  0
LINE
  5
CB
330
1F
100
AcDbEntity
  8
0
  6
Continuous
 62
     7
370
    25
100
AcDbLine
 10
125.5812962202
 20
66.0106734134
 30
0.0
 11
125.5812962202
 21
56.0106734134
 31
0.0
  0
LINE
  5
CC
330
1F
100
AcDbEntity
  8
0
  6
Continuous
 62
     7
370
    25
100
AcDbLine
 10
123.7132622315
 20
56.0106734134
 30
0.0
 11
123.7132622315
 21
46.0106734134
 31
0.0
  0
LINE
  5
CD
330
1F
100
AcDbEntity
  8
0
  6
Continuous
 62
     7
370
    25
100
AcDbLine
 10
123.7132622315
 20
66.0106734134
 30
0.0
 11
123.7132622315
 21
56.0106734134
 31
0.0
  0
LINE
  5
CE
330
1F
100
AcDbEntity
  8
0
  6
Continuous
 62
     7
370
    25
100
AcDbLine
 10
125.9632622315
 20
65.0106734134
 30
0.0
 11
125.9632622315
 21
61.5106734134
 31
0.0
  0
SPLINE
  5
CF
330
1F
100
AcDbEntity
  8
0
  6
Continuous
 62
     7
370
    25
100
AcDbSpline
210
0.0
220
0.0
230
1.0
 70
     8
 71
     3
 72
     8
 73
     4
 74
     0
 42
0.00000001
 43
0.00000001
 40
0.0
 40
0.0
 40
0.0
 40
0.0
 40
1.0
 40
1.0
 40
1.0
 40
1.0
 10
125.8660611068408
 20
61.41036326491439
 30
0.0
 10
125.9338975244169
 20
61.44172620592516
 30
0.0
 10
125.9632622314948
 20
61.47519436657472
 30
0.0
 10
125.9632622314948
 20
61.51067341341849
 30
0.0
  0
SPLINE
  5
D0
330
1F
100
AcDbEntity
  8
0
  6
Continuous
 62
     7
370
    25
100
AcDbSpline
210
0.0
220
0.0
230
1.0
 70
     8
 71
     3
 72
    12
 73
     8
 74
     0
 42
0.00000001
 43
0.00000001
 40
0.0
 40
0.0
 40
0.0
 40
0.0
 40
0.4999999999999992
 40
0.4999999999999992
 40
0.7499999999999996
 40
0.7499999999999996
 40
1.0
 40
1.0
 40
1.0
 40
1.0
 10
125.8660611068408
 20
61.41036326491439
 30
0.0
 10
125.7981913468311
 20
61.37898490863228
 30
0.0
 10
125.7221567955773
 20
61.24527638813373
 30
0.0
 10
125.6755121972003
 20
60.96725027846795
 30
0.0
 10
125.6710732006777
 20
60.860404094464
 30
0.0
 10
125.6868038144705
 20
60.63352262040825
 30
0.0
 10
125.7066842444129
 20
60.51335364810363
 30
0.0
 10
125.7341761643927
 20
60.39190400329339
 30
0.0
  0
SPLINE
  5
D1
330
1F
100
AcDbEntity
  8
0
  6
Continuous
 62
     7
370
    25
100
AcDbSpline
210
0.0
220
0.0
230
1.0
 70
     8
 71
     3
 72
    12
 73
     8
 74
     0
 42
0.00000001
 43
0.00000001
 40
0.0
 40
0.0
 40
0.0
 40
0.0
 40
0.4999999999999998
 40
0.4999999999999998
 40
0.7499999999999999
 40
0.7499999999999999
 40
1.0
 40
1.0
 40
1.0
 40
1.0
 10
125.9632622314948
 20
56.01067341341847
 30
0.0
 10
125.9632622314948
 20
56.74463043557569
 30
0.0
 10
125.967819626494
 20
57.4776088799385
 30
0.0
 10
125.9406359621147
 20
58.57443299288492
 30
0.0
 10
125.9251862911975
 20
58.93958058145535
 30
0.0
 10
125.8623226896657
 20
59.6683685953194
 30
0.0
 10
125.8152927664974
 20
60.03355935071772
 30
0.0
 10
125.7341761643927
 20
60.39190400329339
 30
0.0
  0
SPLINE
  5
D2
330
1F
100
AcDbEntity
  8
0
  6
Continuous
 62
     7
370
    25
100
AcDbSpline
210
0.0
220
0.0
230
1.0
 70
     8
 71
     3
 72
    12
 73
     8
 74
     0
 42
0.00000001
 43
0.00000001
 40
0.0
 40
0.0
 40
0.0
 40
0.0
 40
0.2500000000000001
 40
0.2500000000000001
 40
0.5000000000000002
 40
0.5000000000000002
 40
1.0
 40
1.0
 40
1.0
 40
1.0
 10
125.7341761643927
 20
51.62944282354358
 30
0.0
 10
125.8152927664974
 20
51.98778747611926
 30
0.0
 10
125.8623226896657
 20
52.35297823151758
 30
0.0
 10
125.9251862911975
 20
53.08176624538163
 30
0.0
 10
125.9406359621147
 20
53.44691383395206
 30
0.0
 10
125.967819626494
 20
54.54373794689847
 30
0.0
 10
125.9632622314948
 20
55.27671639126127
 30
0.0
 10
125.9632622314948
 20
56.01067341341849
 30
0.0
  0
SPLINE
  5
D3
330
1F
100
AcDbEntity
  8
0
  6
Continuous
 62
     7
370
    25
100
AcDbSpline
210
0.0
220
0.0
230
1.0
 70
     8
 71
     3
 72
    14
 73
    10
 74
     0
 42
0.00000001
 43
0.00000001
 40
0.0
 40
0.0
 40
0.0
 40
0.0
 40
0.25
 40
0.25
 40
0.5
 40
0.5
 40
0.75
 40
0.75
 40
1.0
 40
1.0
 40
1.0
 40
1.0
 10
125.7341761643927
 20
51.62944282354358
 30
0.0
 10
125.7066551766477
 20
51.50786476755786
 30
0.0
 10
125.6867352548113
 20
51.38734003053274
 30
0.0
 10
125.6710682129932
 20
51.16036377142463
 30
0.0
 10
125.6755600448055
 20
51.05339379385846
 30
0.0
 10
125.7068163900891
 20
50.86792824207873
 30
0.0
 10
125.7331889734709
 20
50.7890429809599
 30
0.0
 10
125.7960255246152
 20
50.6684051897868
 30
0.0
 10
125.8320651034752
 20
50.62670099934419
 30
0.0
 10
125.8660611068408
 20
50.61098356192259
 30
0.0
  0
SPLINE
  5
D4
330
1F
100
AcDbEntity
  8
0
  6
Continuous
 62
     7
370
    25
100
AcDbSpline
210
0.0
220
0.0
230
1.0
 70
     8
 71
     3
 72
     8
 73
     4
 74
     0
 42
0.00000001
 43
0.00000001
 40
0.0
 40
0.0
 40
0.0
 40
0.0
 40
1.0
 40
1.0
 40
1.0
 40
1.0
 10
125.9632622314948
 20
50.51067341341849
 30
0.0
 10
125.9632622314948
 20
50.54615246026226
 30
0.0
 10
125.9338975244169
 20
50.57962062091181
 30
0.0
 10
125.8660611068408
 20
50.61098356192259
 30
0.0
  0
LINE
  5
D5
330
1F
100
AcDbEntity
  8
0
  6
Continuous
 62
     7
370
    25
100
AcDbLine
 10
125.9632622315
 20
50.5106734134
 30
0.0
 11
125.9632622315
 21
47.0106734134
 31
0.0
  0
LINE
  5
D6
330
1F
100
AcDbEntity
  8
0
  6
Continuous
 62
     7
370
    25
100
AcDbLine
 10
123.4632622315
 20
56.0106734134
 30
0.0
 11
123.4632622315
 21
65.7606734134
 31
0.0
  0
LINE
  5
D7
330
1F
100
AcDbEntity
  8
0
  6
Continuous
 62
     7
370
    25
100
AcDbLine
 10
123.4632622315
 20
46.2606734134
 30
0.0
 11
123.4632622315
 21
56.0106734134
 31
0.0
  0
LINE
  5
D8
330
1F
100
AcDbEntity
  8
0
  6
Continuous
 62
     7
370
    25
100
AcDbLine
 10
140.9632622315
 20
56.0106734134
 30
0.0
 11
140.4632622315
 21
56.0106734134
 31
0.0
  0
SPLINE
  5
D9
330
1F
100
AcDbEntity
  8
0
  6
Continuous
 62
     7
370
    25
100
AcDbSpline
210
0.0
220
0.0
230
1.0
 70
     8
 71
     3
 72
    14
 73
    10
 74
     0
 42
0.00000001
 43
0.00000001
 40
0.0
 40
0.0
 40
0.0
 40
0.0
 40
0.2499999999999999
 40
0.2499999999999999
 40
0.4999999999999999
 40
0.4999999999999999
 40
0.7499999999999999
 40
0.7499999999999999
 40
1.0
 40
1.0
 40
1.0
 40
1.0
 10
140.4632622314948
 20
56.01067341341848
 30
0.0
 10
140.4632622314948
 20
56.38719012550546
 30
0.0
 10
140.4628529697751
 20
56.76372618313441
 30
0.0
 10
140.466164317881
 20
57.51660308198299
 30
0.0
 10
140.4699278033457
 20
57.89294189649834
 30
0.0
 10
140.4957010591254
 20
58.64475703521349
 30
0.0
 10
140.5176191538039
 20
59.02023769286249
 30
0.0
 10
140.6028368169891
 20
59.76924293213118
 30
0.0
 10
140.6661498031401
 20
60.14485084757263
 30
0.0
 10
140.7687103209642
 20
60.51067341341849
 30
0.0
  0
LINE
  5
DA
330
1F
100
AcDbEntity
  8
0
  6
Continuous
 62
     7
370
    25
100
AcDbLine
 10
141.1923482986
 20
60.3919040033
 30
0.0
 11
140.768710321
 21
60.5106734134
 31
0.0
  0
SPLINE
  5
DB
330
1F
100
AcDbEntity
  8
0
  6
Continuous
 62
     7
370
    25
100
AcDbSpline
210
0.0
220
0.0
230
1.0
 70
     8
 71
     3
 72
    14
 73
    10
 74
     0
 42
0.00000001
 43
0.00000001
 40
0.0
 40
0.0
 40
0.0
 40
0.0
 40
0.2500000000000001
 40
0.2500000000000001
 40
0.5000000000000001
 40
0.5000000000000001
 40
0.7500000000000001
 40
0.7500000000000001
 40
1.0
 40
1.0
 40
1.0
 40
1.0
 10
126.4632622314948
 20
56.01067341341849
 30
0.0
 10
126.4632622314948
 20
55.63415670133152
 30
0.0
 10
126.4636714932144
 20
55.25762064370254
 30
0.0
 10
126.4603601451085
 20
54.50474374485396
 30
0.0
 10
126.4565966596439
 20
54.12840493033862
 30
0.0
 10
126.4308234038642
 20
53.37658979162348
 30
0.0
 10
126.4089053091856
 20
53.00110913397447
 30
0.0
 10
126.3236876460004
 20
52.25210389470579
 30
0.0
 10
126.2603746598495
 20
51.87649597926435
 30
0.0
 10
126.1578141420254
 20
51.51067341341849
 30
0.0
  0
LINE
  5
DC
330
1F
100
AcDbEntity
  8
0
  6
Continuous
 62
     7
370
    25
100
AcDbLine
 10
126.157814142
 20
51.5106734134
 30
0.0
 11
125.7341761644
 21
51.6294428235
 31
0.0
  0
LINE
  5
DD
330
1F
100
AcDbEntity
  8
0
  6
Continuous
 62
     7
370
    25
100
AcDbLine
 10
126.4632622315
 20
56.0106734134
 30
0.0
 11
125.9632622315
 21
56.0106734134
 31
0.0
  0
LINE
  5
DE
330
1F
100
AcDbEntity
  8
0
  6
Continuous
 62
     7
370
    25
100
AcDbLine
 10
141.1923482986
 20
51.6294428235
 30
0.0
 11
140.768710321
 21
51.5106734134
 31
0.0
  0
SPLINE
  5
DF
330
1F
100
AcDbEntity
  8
0
  6
Continuous
 62
     7
370
    25
100
AcDbSpline
210
0.0
220
0.0
230
1.0
 70
     8
 71
     3
 72
    14
 73
    10
 74
     0
 42
0.00000001
 43
0.00000001
 40
0.0
 40
0.0
 40
0.0
 40
0.0
 40
0.2500000000000002
 40
0.2500000000000002
 40
0.5000000000000003
 40
0.5000000000000003
 40
0.7500000000000002
 40
0.7500000000000002
 40
1.0
 40
1.0
 40
1.0
 40
1.0
 10
140.7687103209642
 20
51.51067341341849
 30
0.0
 10
140.6661498031401
 20
51.87649597926435
 30
0.0
 10
140.6028368169891
 20
52.25210389470579
 30
0.0
 10
140.5176191538039
 20
53.00110913397447
 30
0.0
 10
140.4957010591254
 20
53.37658979162348
 30
0.0
 10
140.4699278033457
 20
54.12840493033863
 30
0.0
 10
140.466164317881
 20
54.50474374485397
 30
0.0
 10
140.4628529697751
 20
55.25762064370256
 30
0.0
 10
140.4632622314948
 20
55.63415670133153
 30
0.0
 10
140.4632622314948
 20
56.01067341341849
 30
0.0
  0
SPLINE
  5
E0
330
1F
100
AcDbEntity
  8
0
  6
Continuous
 62
     7
370
    25
100
AcDbSpline
210
0.0
220
0.0
230
1.0
 70
     8
 71
     3
 72
    14
 73
    10
 74
     0
 42
0.00000001
 43
0.00000001
 40
0.0
 40
0.0
 40
0.0
 40
0.0
 40
0.2500000000000001
 40
0.2500000000000001
 40
0.5000000000000001
 40
0.5000000000000001
 40
0.75
 40
0.75
 40
1.0
 40
1.0
 40
1.0
 40
1.0
 10
126.1578141420254
 20
60.51067341341849
 30
0.0
 10
126.2603746598495
 20
60.14485084757263
 30
0.0
 10
126.3236876460004
 20
59.76924293213118
 30
0.0
 10
126.4089053091856
 20
59.02023769286249
 30
0.0
 10
126.4308234038642
 20
58.64475703521348
 30
0.0
 10
126.4565966596439
 20
57.89294189649834
 30
0.0
 10
126.4603601451085
 20
57.51660308198299
 30
0.0
 10
126.4636714932144
 20
56.7637261831344
 30
0.0
 10
126.4632622314948
 20
56.38719012550544
 30
0.0
 10
126.4632622314948
 20
56.01067341341847
 30
0.0
  0
LINE
  5
E1
330
1F
100
AcDbEntity
  8
0
  6
Continuous
 62
     7
370
    25
100
AcDbLine
 10
126.157814142
 20
60.5106734134
 30
0.0
 11
125.7341761644
 21
60.3919040033
 31
0.0
  0
SPLINE
  5
E2
330
1F
100
AcDbEntity
  8
0
  6
Continuous
 62
     7
370
    25
100
AcDbSpline
210
0.0
220
0.0
230
1.0
 70
     8
 71
     3
 72
    14
 73
    10
 74
     0
 42
0.00000001
 43
0.00000001
 40
0.0
 40
0.0
 40
0.0
 40
0.0
 40
0.25
 40
0.25
 40
0.5
 40
0.5
 40
0.75
 40
0.75
 40
1.0
 40
1.0
 40
1.0
 40
1.0
 10
126.3336607319562
 20
51.01067341341849
 30
0.0
 10
126.2951852483346
 20
51.01067341341849
 30
0.0
 10
126.2540963268646
 20
51.0214599844017
 30
0.0
 10
126.174813479424
 20
51.06439177146687
 30
0.0
 10
126.1375305783136
 20
51.09580927977174
 30
0.0
 10
126.0847248190018
 20
51.18712412534796
 30
0.0
 10
126.0727555589082
 20
51.24835460811221
 30
0.0
 10
126.0927573472803
 20
51.37921796876793
 30
0.0
 10
126.1222138028326
 20
51.44718208310552
 30
0.0
 10
126.1578141420254
 20
51.51067341341849
 30
0.0
  0
ARC
  5
E3
330
1F
100
AcDbEntity
  8
0
  6
Continuous
 62
     7
370
    25
100
AcDbCircle
 10
126.3422093155
 20
50.5273036027
 30
0.0
 40
0.4834453973191846
100
AcDbArc
 50
91.0131925738
 51
170.032425387
  0
SPLINE
  5
E4
330
1F
100
AcDbEntity
  8
0
  6
Continuous
 62
     7
370
    25
100
AcDbSpline
210
0.0
220
0.0
230
1.0
 70
     8
 71
     3
 72
    14
 73
    10
 74
     0
 42
0.00000001
 43
0.00000001
 40
0.0
 40
0.0
 40
0.0
 40
0.0
 40
0.25
 40
0.25
 40
0.5
 40
0.5
 40
0.75
 40
0.75
 40
1.0
 40
1.0
 40
1.0
 40
1.0
 10
140.5928637310333
 20
61.01067341341849
 30
0.0
 10
140.6313392146549
 20
61.01067341341849
 30
0.0
 10
140.6724281361249
 20
60.99988684243527
 30
0.0
 10
140.7517109835655
 20
60.95695505537011
 30
0.0
 10
140.788993884676
 20
60.92553754706523
 30
0.0
 10
140.8417996439877
 20
60.83422270148902
 30
0.0
 10
140.8537689040814
 20
60.77299221872476
 30
0.0
 10
140.8337671157092
 20
60.64212885806904
 30
0.0
 10
140.8043106601569
 20
60.57416474373145
 30
0.0
 10
140.7687103209642
 20
60.51067341341849
 30
0.0
  0
ARC
  5
E5
330
1F
100
AcDbEntity
  8
0
  6
Continuous
 62
     7
370
    25
100
AcDbCircle
 10
140.5843151475
 20
61.4940432241
 30
0.0
 40
0.4834453973191572
100
AcDbArc
 50
271.0131925738
 51
350.032425387
  0
ARC
  5
E6
330
1F
100
AcDbEntity
  8
0
  6
Continuous
 62
     7
370
    25
100
AcDbCircle
 10
140.5843151475
 20
50.5273036027
 30
0.0
 40
0.4834453973191529
100
AcDbArc
 50
9.967574613
 51
88.9868074262
  0
SPLINE
  5
E7
330
1F
100
AcDbEntity
  8
0
  6
Continuous
 62
     7
370
    25
100
AcDbSpline
210
0.0
220
0.0
230
1.0
 70
     8
 71
     3
 72
    16
 73
    12
 74
     0
 42
0.00000001
 43
0.00000001
 40
0.0
 40
0.0
 40
0.0
 40
0.0
 40
0.2499999999999999
 40
0.2499999999999999
 40
0.3750000000000003
 40
0.3750000000000003
 40
0.5000000000000007
 40
0.5000000000000007
 40
0.7500000000000003
 40
0.7500000000000003
 40
1.0
 40
1.0
 40
1.0
 40
1.0
 10
140.7687103209642
 20
51.51067341341849
 30
0.0
 10
140.8042642504128
 20
51.44726485244029
 30
0.0
 10
140.8335363916415
 20
51.37999755211947
 30
0.0
 10
140.8487489418624
 20
51.28155824097713
 30
0.0
 10
140.8488096100359
 20
51.24908283462184
 30
0.0
 10
140.8385990255586
 20
51.19045762749564
 30
0.0
 10
140.8288156960334
 20
51.16483481594266
 30
0.0
 10
140.7896511475014
 20
51.0966259722472
 30
0.0
 10
140.7517780742282
 20
51.06446321708143
 30
0.0
 10
140.6727051012366
 20
51.02157499796554
 30
0.0
 10
140.6313179686458
 20
51.01067341341849
 30
0.0
 10
140.5928637310333
 20
51.01067341341849
 30
0.0
  0
SPLINE
  5
E8
330
1F
100
AcDbEntity
  8
0
  6
Continuous
 62
     7
370
    25
100
AcDbSpline
210
0.0
220
0.0
230
1.0
 70
     8
 71
     3
 72
    16
 73
    12
 74
     0
 42
0.00000001
 43
0.00000001
 40
0.0
 40
0.0
 40
0.0
 40
0.0
 40
0.2500000000000049
 40
0.2500000000000049
 40
0.3750000000000051
 40
0.3750000000000051
 40
0.5000000000000052
 40
0.5000000000000052
 40
0.7500000000000026
 40
0.7500000000000026
 40
1.0
 40
1.0
 40
1.0
 40
1.0
 10
126.1578141420254
 20
60.51067341341849
 30
0.0
 10
126.1222602125767
 20
60.57408197439668
 30
0.0
 10
126.092988071348
 20
60.6413492747175
 30
0.0
 10
126.0777755211272
 20
60.73978858585983
 30
0.0
 10
126.0777148529536
 20
60.77226399221513
 30
0.0
 10
126.0879254374309
 20
60.83088919934133
 30
0.0
 10
126.0977087669562
 20
60.85651201089431
 30
0.0
 10
126.1368733154881
 20
60.92472085458976
 30
0.0
 10
126.1747463887614
 20
60.95688360975554
 30
0.0
 10
126.253819361753
 20
60.99977182887142
 30
0.0
 10
126.2952064943438
 20
61.01067341341849
 30
0.0
 10
126.3336607319562
 20
61.01067341341849
 30
0.0
  0
ARC
  5
E9
330
1F
100
AcDbEntity
  8
0
  6
Continuous
 62
     7
370
    25
100
AcDbCircle
 10
126.3422093155
 20
61.4940432241
 30
0.0
 40
0.4834453973191861
100
AcDbArc
 50
189.967574613
 51
268.9868074262
  0
LINE
  5
EA
330
1F
100
AcDbEntity
  8
0
  6
Continuous
 62
     7
370
    25
100
AcDbLine
 10
130.1693187505
 20
55.4555337896
 30
0.0
 11
130.6551974375
 21
55.4555337896
 31
0.0
  0
ELLIPSE
  5
EB
330
1F
100
AcDbEntity
  8
0
  6
Continuous
 62
     7
370
    25
100
AcDbEllipse
 10
130.1693187505
 20
55.5202071632
 30
0.0
 11
0.0678412947923448
 21
0.0
 31
0.0
210
0.0
220
0.0
230
1.0
 40
0.9533039403
 41
2.798568711307527
 42
4.712388980384703
  0
LINE
  5
EC
330
1F
100
AcDbEntity
  8
0
  6
Continuous
 62
     7
370
    25
100
AcDbLine
 10
130.3483691048
 20
56.1904252665
 30
0.0
 11
130.1054297599
 21
55.5419591728
 31
0.0
  0
ELLIPSE
  5
ED
330
1F
100
AcDbEntity
  8
0
  6
Continuous
 62
     7
370
    25
100
AcDbEllipse
 10
130.4122580954
 20
56.1686732569
 30
0.0
 11
0.06784129479271428
 21
0.0
 31
0.0
210
0.0
220
0.0
230
1.0
 40
0.9533039403
 41
0.3430239385579157
 42
2.798568711308976
  0
LINE
  5
EE
330
1F
100
AcDbEntity
  8
0
  6
Continuous
 62
     7
370
    25
100
AcDbLine
 10
130.7190864282
 20
55.5419591726
 30
0.0
 11
130.4761470861
 21
56.1904252662
 31
0.0
  0
ELLIPSE
  5
EF
330
1F
100
AcDbEntity
  8
0
  6
Continuous
 62
     7
370
    25
100
AcDbEllipse
 10
130.6551974375
 20
55.5202071632
 30
0.0
 11
-0.0678412947923448
 21
0.0
 31
0.0
210
0.0
220
0.0
230
1.0
 40
0.9533039403
 41
1.570796326794897
 42
3.484616592149382
  0
ARC
  5
F0
330
1F
100
AcDbEntity
  8
0
  6
Continuous
 62
     7
370
    25
100
AcDbCircle
 10
134.6529126403
 20
55.2056272729
 30
0.0
 40
1.239109388553836
100
AcDbArc
 50
45.0
 51
315.0
  0
ARC
  5
F1
330
1F
100
AcDbEntity
  8
0
  6
Continuous
 62
     7
370
    25
100
AcDbCircle
 10
137.3266283174
 20
55.2056272729
 30
0.0
 40
0.7112000000000971
100
AcDbArc
 50
200.9248324276
 51
315.0
  0
LINE
  5
F2
330
1F
100
AcDbEntity
  8
0
  6
Continuous
 62
     7
370
    25
100
AcDbLine
 10
136.6623321184
 20
54.9516272729
 30
0.0
 11
138.2028109686
 21
54.9516272729
 31
0.0
  0
LINE
  5
F3
330
1F
100
AcDbEntity
  8
0
  6
Continuous
 62
     7
370
    25
100
AcDbLine
 10
138.2028109686
 20
54.9516272729
 30
0.0
 11
138.2028109686
 21
55.4596272729
 31
0.0
  0
LINE
  5
F4
330
1F
100
AcDbEntity
  8
0
  6
Continuous
 62
     7
370
    25
100
AcDbLine
 10
138.2028109686
 20
55.4596272729
 30
0.0
 11
136.6623321184
 21
55.4596272729
 31
0.0
  0
LINE
  5
F5
330
1F
100
AcDbEntity
  8
0
  6
Continuous
 62
     7
370
    25
100
AcDbLine
 10
137.8295226601
 20
55.7085216157
 30
0.0
 11
138.2028109686
 21
56.0818099242
 31
0.0
  0
ARC
  5
F6
330
1F
100
AcDbEntity
  8
0
  6
Continuous
 62
     7
370
    25
100
AcDbCircle
 10
137.3266283174
 20
55.2056272729
 30
0.0
 40
1.239109388553816
100
AcDbArc
 50
45.0
 51
315.0
  0
ELLIPSE
  5
F7
330
1F
100
AcDbEntity
  8
0
  6
Continuous
 62
     7
370
    25
100
AcDbEllipse
 10
130.4122580938
 20
52.3641465294
 30
0.0
 11
2.293035763987632
 21
-1.072919530997751E-12
 31
0.0
210
0.0
220
0.0
230
1.0
 40
0.9533039403
 41
0.8210019969645914
 42
2.320590656625108
  0
ELLIPSE
  5
F8
330
1F
100
AcDbEntity
  8
0
  6
Continuous
 62
     7
370
    25
100
AcDbEllipse
 10
132.0211680904
 20
54.0112254259
 30
0.0
 11
0.0678412947923448
 21
0.0
 31
0.0
210
0.0
220
0.0
230
1.0
 40
0.9533039403
 41
3.962594650555216
 42
5.819537698175154
  0
LINE
  5
F9
330
1F
100
AcDbEntity
  8
0
  6
Continuous
 62
     7
370
    25
100
AcDbLine
 10
132.0818471891
 20
53.9823026139
 30
0.0
 11
132.7188621168
 21
55.196840295
 31
0.0
  0
LINE
  5
FA
330
1F
100
AcDbEntity
  8
0
  6
Continuous
 62
     7
370
    25
100
AcDbLine
 10
132.7188621168
 20
55.196840295
 30
0.0
 11
132.6855418613
 21
55.1777963512
 31
0.0
  0
ELLIPSE
  5
FB
330
1F
100
AcDbEntity
  8
0
  6
Continuous
 62
     7
370
    25
100
AcDbEllipse
 10
132.4064673177
 20
55.6215423281
 30
0.0
 11
0.5427303583402932
 21
3.623767952376511E-13
 31
0.0
210
0.0
220
0.0
230
1.0
 40
0.9533039404
 41
3.470145824142382
 42
5.252469180527864
  0
LINE
  5
FC
330
1F
100
AcDbEntity
  8
0
  6
Continuous
 62
     7
370
    25
100
AcDbLine
 10
131.8927675041
 20
55.4545950361
 30
0.0
 11
130.8850437947
 21
58.2725515195
 31
0.0
  0
ELLIPSE
  5
FD
330
1F
100
AcDbEntity
  8
0
  6
Continuous
 62
     7
370
    25
100
AcDbEllipse
 10
130.4122580938
 20
58.0626791646
 30
0.0
 11
0.5215299537176747
 21
0.0
 31
0.0
210
0.0
220
0.0
230
1.0
 40
0.9533039403
 41
0.4357918987553402
 42
2.70580075483442
  0
LINE
  5
FE
330
1F
100
AcDbEntity
  8
0
  6
Continuous
 62
     7
370
    25
100
AcDbLine
 10
129.939472393
 20
58.2725515195
 30
0.0
 11
128.9319835201
 21
55.4552517232
 31
0.0
  0
ELLIPSE
  5
FF
330
1F
100
AcDbEntity
  8
0
  6
Continuous
 62
     7
370
    25
100
AcDbEllipse
 10
128.4182837065
 20
55.6221990152
 30
0.0
 11
-0.5427303583406484
 21
3.552713678800501E-13
 31
0.0
210
0.0
220
0.0
230
1.0
 40
0.9533039403
 41
1.047197551196621
 42
2.81303948303929
  0
LINE
  5
100
330
1F
100
AcDbEntity
  8
0
  6
Continuous
 62
     7
370
    25
100
AcDbLine
 10
128.1469185273
 20
55.174128739
 30
0.0
 11
128.1056540709
 21
55.196840295
 31
0.0
  0
LINE
  5
101
330
1F
100
AcDbEntity
  8
0
  6
Continuous
 62
     7
370
    25
100
AcDbLine
 10
128.1056540709
 20
55.196840295
 30
0.0
 11
128.7426689985
 21
53.9823026139
 31
0.0
  0
ELLIPSE
  5
102
330
1F
100
AcDbEntity
  8
0
  6
Continuous
 62
     7
370
    25
100
AcDbEllipse
 10
128.8033480972
 20
54.0112254259
 30
0.0
 11
0.0678412947923448
 21
0.0
 31
0.0
210
0.0
220
0.0
230
1.0
 40
0.9533039403
 41
3.605240262580552
 42
5.462183310227106
  0
LINE
  5
103
330
1F
100
AcDbEntity
  8
0
  6
Continuous
 62
     7
370
    25
100
AcDbLine
 10
140.768710321
 20
60.5106734134
 30
0.0
 11
126.157814142
 21
60.5106734134
 31
0.0
  0
LINE
  5
104
330
1F
100
AcDbEntity
  8
0
  6
Continuous
 62
     7
370
    25
100
AcDbLine
 10
126.157814142
 20
51.5106734134
 30
0.0
 11
140.768710321
 21
51.5106734134
 31
0.0
  0
ARC
  5
105
330
1F
100
AcDbEntity
  8
0
  6
Continuous
 62
     7
370
    25
100
AcDbCircle
 10
134.6529126403
 20
55.2056272729
 30
0.0
 40
0.7111999999997523
100
AcDbArc
 50
45.0
 51
315.0
  0
LINE
  5
106
330
1F
100
AcDbEntity
  8
0
  6
Continuous
 62
     7
370
    25
100
AcDbLine
 10
135.5290952916
 20
54.3294446216
 30
0.0
 11
135.1558069831
 21
54.7027329301
 31
0.0
  0
LINE
  5
107
330
1F
100
AcDbEntity
  8
0
  6
Continuous
 62
     7
370
    25
100
AcDbLine
 10
138.2028109686
 20
54.3294446216
 30
0.0
 11
137.8295226601
 21
54.7027329301
 31
0.0
  0
LINE
  5
108
330
1F
100
AcDbEntity
  8
0
  6
Continuous
 62
     7
370
    25
100
AcDbLine
 10
135.1558069831
 20
55.7085216157
 30
0.0
 11
135.5290952916
 21
56.0818099242
 31
0.0
  0
ARC
  5
109
330
1F
100
AcDbEntity
  8
0
  6
Continuous
 62
     7
370
    25
100
AcDbCircle
 10
137.3266283174
 20
55.2056272729
 30
0.0
 40
0.7112000000000287
100
AcDbArc
 50
45.0
 51
159.0751675723
  0
LINE
  5
10A
330
1F
100
AcDbEntity
  8
0
  6
Continuous
 62
     7
370
    25
100
AcDbLine
 10
140.592863731
 20
51.0106734134
 30
0.0
 11
126.333660732
 21
51.0106734134
 31
0.0
  0
LINE
  5
10B
330
1F
100
AcDbEntity
  8
0
  6
Continuous
 62
     7
370
    25
100
AcDbLine
 10
126.333660732
 20
61.0106734134
 30
0.0
 11
140.592863731
 21
61.0106734134
 31
0.0
  0
ARC
  5
10C
330
1F
100
AcDbEntity
  8
0
  6
Continuous
 62
     7
370
    25
100
AcDbCircle
 10
126.4632622315
 20
50.5106734134
 30
0.0
 40
0.5
100
AcDbArc
 50
90.0
 51
180.0
  0
ARC
  5
10D
330
1F
100
AcDbEntity
  8
0
  6
Continuous
 62
     7
370
    25
100
AcDbCircle
 10
140.4632622315
 20
50.5106734134
 30
0.0
 40
0.5
100
AcDbArc
 50
0.0
 51
90.0
  0
ARC
  5
10E
330
1F
100
AcDbEntity
  8
0
  6
Continuous
 62
     7
370
    25
100
AcDbCircle
 10
126.4632622315
 20
61.5106734134
 30
0.0
 40
0.5
100
AcDbArc
 50
180.0
 51
270.0
  0
ARC
  5
10F
330
1F
100
AcDbEntity
  8
0
  6
Continuous
 62
     7
370
    25
100
AcDbCircle
 10
140.4632622315
 20
61.5106734134
 30
0.0
 40
0.5
100
AcDbArc
 50
270.0
 51
0.0
  0
LWPOLYLINE
  5
110
330
1F
100
AcDbEntity
  8
0
  6
Continuous
 62
     7
370
    25
100
AcDbPolyline
 90
        9
 70
   128
 43
0.0
 10
140.4632622315
 20
61.2051178579
 10
140.5608073925
 20
61.2109890222
 10
140.6546039477
 20
61.2283768896
 10
140.741047348
 20
61.2566132541
 10
140.8168156221
 20
61.2946130081
 10
140.8789970376
 20
61.3409158422
 10
140.9252019978
 20
61.3937423646
 10
140.9536548717
 20
61.4510624817
 10
140.9632622315
 20
61.5106734134
  0
LINE
  5
111
330
1F
100
AcDbEntity
  8
0
  6
Continuous
 62
     7
370
    25
100
AcDbLine
 10
140.4632622315
 20
61.0106734134
 30
0.0
 11
140.4632622315
 21
61.2051178579
 31
0.0
  0
LINE
  5
112
330
1F
100
AcDbEntity
  8
0
  6
Continuous
 62
     7
370
    25
100
AcDbLine
 10
140.4632622315
 20
50.816228969
 30
0.0
 11
126.4632622315
 21
50.816228969
 31
0.0
  0
LINE
  5
113
330
1F
100
AcDbEntity
  8
0
  6
Continuous
 62
     7
370
    25
100
AcDbLine
 10
126.4632622315
 20
50.816228969
 30
0.0
 11
126.4632622315
 21
51.0106734134
 31
0.0
  0
LINE
  5
114
330
1F
100
AcDbEntity
  8
0
  6
Continuous
 62
     7
370
    25
100
AcDbLine
 10
140.4632622315
 20
50.816228969
 30
0.0
 11
140.4632622315
 21
51.0106734134
 31
0.0
  0
LWPOLYLINE
  5
115
330
1F
100
AcDbEntity
  8
0
  6
Continuous
 62
     7
370
    25
100
AcDbPolyline
 90
        9
 70
   128
 43
0.0
 10
126.4632622315
 20
50.816228969
 10
126.3657170705
 20
50.8103578047
 10
126.2719205153
 20
50.7929699372
 10
126.185477115
 20
50.7647335727
 10
126.1097088409
 20
50.7267338188
 10
126.0475274253
 20
50.6804309846
 10
126.0013224652
 20
50.6276044622
 10
125.9728695913
 20
50.5702843451
 10
125.9632622315
 20
50.5106734134
  0
LWPOLYLINE
  5
116
330
1F
100
AcDbEntity
  8
0
  6
Continuous
 62
     7
370
    25
100
AcDbPolyline
 90
        9
 70
   128
 43
0.0
 10
125.9632622315
 20
61.5106734134
 10
125.9728695913
 20
61.4510624817
 10
126.0013224652
 20
61.3937423646
 10
126.0475274253
 20
61.3409158422
 10
126.1097088409
 20
61.2946130081
 10
126.185477115
 20
61.2566132541
 10
126.2719205153
 20
61.2283768896
 10
126.3657170705
 20
61.2109890222
 10
126.4632622315
 20
61.2051178579
  0
LINE
  5
117
330
1F
100
AcDbEntity
  8
0
  6
Continuous
 62
     7
370
    25
100
AcDbLine
 10
126.4632622315
 20
61.0106734134
 30
0.0
 11
126.4632622315
 21
61.2051178579
 31
0.0
  0
LWPOLYLINE
  5
118
330
1F
100
AcDbEntity
  8
0
  6
Continuous
 62
     7
370
    25
100
AcDbPolyline
 90
        9
 70
   128
 43
0.0
 10
140.9632622315
 20
50.5106734134
 10
140.9536548717
 20
50.5702843451
 10
140.9252019978
 20
50.6276044622
 10
140.8789970376
 20
50.6804309846
 10
140.8168156221
 20
50.7267338188
 10
140.741047348
 20
50.7647335727
 10
140.6546039477
 20
50.7929699372
 10
140.5608073925
 20
50.8103578047
 10
140.4632622315
 20
50.816228969
  0
LINE
  5
119
330
1F
100
AcDbEntity
  8
0
  6
Continuous
 62
     7
370
    25
100
AcDbLine
 10
126.4632622315
 20
61.2051178579
 30
0.0
 11
140.4632622315
 21
61.2051178579
 31
0.0
  0
LINE
  5
11A
330
1F
100
AcDbEntity
  8
0
  6
Continuous
 62
     7
370
    25
100
AcDbLine
 10
151.2577377739
 20
56.0106734134
 30
0.0
 11
151.2577377739
 21
49.4873132741
 31
0.0
  0
LINE
  5
11B
330
1F
100
AcDbEntity
  8
0
  6
Continuous
 62
     7
370
    25
100
AcDbLine
 10
151.2577377739
 20
62.5340335527
 30
0.0
 11
151.2577377739
 21
56.0106734134
 31
0.0
  0
LINE
  5
11C
330
1F
100
AcDbEntity
  8
0
  6
Continuous
 62
     7
370
    25
100
AcDbLine
 10
153.4632622315
 20
61.2606734134
 30
0.0
 11
153.4632622315
 21
50.7606734134
 31
0.0
  0
SPLINE
  5
11D
330
1F
100
AcDbEntity
  8
0
  6
Continuous
 62
     7
370
    25
100
AcDbSpline
210
0.0
220
0.0
230
1.0
 70
    11
 71
     3
 72
    26
 73
    22
 74
     0
 42
0.00000001
 43
0.00000001
 40
0.0
 40
0.0
 40
0.0
 40
0.0
 40
0.125
 40
0.125
 40
0.1875
 40
0.1875
 40
0.25
 40
0.25
 40
0.3125
 40
0.3125
 40
0.375
 40
0.375
 40
0.5
 40
0.5
 40
0.625
 40
0.625
 40
0.75
 40
0.75
 40
0.875
 40
0.875
 40
1.0
 40
1.0
 40
1.0
 40
1.0
 10
133.9765812003432
 20
64.01067341341849
 30
0.0
 10
133.9765812003431
 20
64.1497924446473
 30
0.0
 10
133.9237852291942
 20
64.28552014762279
 30
0.0
 10
133.7823296393169
 20
64.43853888411856
 30
0.0
 10
133.725775702945
 20
64.48004178513911
 30
0.0
 10
133.6002315515016
 20
64.53724167893279
 30
0.0
 10
133.5310799383936
 20
64.5525256676771
 30
0.0
 10
133.3939215636501
 20
64.55230479391346
 30
0.0
 10
133.324806980844
 20
64.53674473262582
 30
0.0
 10
133.2000472122129
 20
64.4795388981318
 30
0.0
 10
133.1434161238784
 20
64.43778747086485
 30
0.0
 10
133.0033024973555
 20
64.2859466025814
 30
0.0
 10
132.9499819634089
 20
64.14989427531353
 30
0.0
 10
132.9499046048328
 20
63.87176158161017
 30
0.0
 10
133.0035929868545
 20
63.7349595715902
 30
0.0
 10
133.1902878011622
 20
63.53289076792513
 30
0.0
 10
133.3261690105257
 20
63.46872100823958
 30
0.0
 10
133.6018001445642
 20
63.46914206104059
 30
0.0
 10
133.7367751829779
 20
63.5334107434639
 30
0.0
 10
133.9226226600439
 20
63.73468829468803
 30
0.0
 10
133.9765812003432
 20
63.87155438218966
 30
0.0
 10
133.9765812003432
 20
64.01067341341849
 30
0.0
  0
SPLINE
  5
11E
330
1F
100
AcDbEntity
  8
0
  6
Continuous
 62
     7
370
    25
100
AcDbSpline
210
0.0
220
0.0
230
1.0
 70
    11
 71
     3
 72
    38
 73
    34
 74
     0
 42
0.00000001
 43
0.00000001
 40
0.0
 40
0.0
 40
0.0
 40
0.0
 40
0.0625
 40
0.0625
 40
0.125
 40
0.125
 40
0.1874999999999999
 40
0.1874999999999999
 40
0.2499999999999999
 40
0.2499999999999999
 40
0.3125
 40
0.3125
 40
0.375
 40
0.375
 40
0.4375000000000001
 40
0.4375000000000001
 40
0.5000000000000001
 40
0.5000000000000001
 40
0.5625000000000001
 40
0.5625000000000001
 40
0.6250000000000001
 40
0.6250000000000001
 40
0.6875000000000001
 40
0.6875000000000001
 40
0.75
 40
0.75
 40
0.8125
 40
0.8125
 40
0.875
 40
0.875
 40
0.9375
 40
0.9375
 40
1.0
 40
1.0
 40
1.0
 40
1.0
 10
132.4632622314948
 20
64.01067341341849
 30
0.0
 10
132.4632622314948
 20
63.87828749850819
 30
0.0
 10
132.4894107826376
 20
63.74840017202948
 30
0.0
 10
132.5898764520954
 20
63.5063211774436
 30
0.0
 10
132.6641613184919
 20
63.39553982338758
 30
0.0
 10
132.8483104982267
 20
63.21143254328182
 30
0.0
 10
132.9596861208209
 20
63.13696387198582
 30
0.0
 10
133.2002346253548
 20
63.03713669585713
 30
0.0
 10
133.3319925213422
 20
63.01074877578382
 30
0.0
 10
133.5933812135061
 20
63.01059838209699
 30
0.0
 10
133.7245532840978
 20
63.03653820250704
 30
0.0
 10
133.9669909700975
 20
63.13690583493231
 30
0.0
 10
134.0770451382471
 20
63.21029473807754
 30
0.0
 10
134.263298455658
 20
63.39644420490708
 30
0.0
 10
134.3367247835511
 20
63.50648272230709
 30
0.0
 10
134.43708953118
 20
63.74836543939576
 30
0.0
 10
134.4632107954762
 20
63.87963995790707
 30
0.0
 10
134.4633135129615
 20
64.14092060727961
 30
0.0
 10
134.4370698848678
 20
64.27273601079251
 30
0.0
 10
134.3374015280696
 20
64.513523928874
 30
0.0
 10
134.2631207361011
 20
64.624856130272
 30
0.0
 10
134.0789339956675
 20
64.809386325467
 30
0.0
 10
133.9685104216049
 20
64.88357265474076
 30
0.0
 10
133.7261257063649
 20
64.98439391371093
 30
0.0
 10
133.5962015267986
 20
65.01056814301596
 30
0.0
 10
133.3319114172816
 20
65.01077805300287
 30
0.0
 10
133.2016776586196
 20
64.9846903306397
 30
0.0
 10
132.9597849874489
 20
64.8845418866611
 30
0.0
 10
132.8487690620423
 20
64.81025559149593
 30
0.0
 10
132.6646013260622
 20
64.62636349205916
 30
0.0
 10
132.5900026545602
 20
64.51503334150513
 30
0.0
 10
132.489951841015
 20
64.2745448016965
 30
0.0
 10
132.4632622314948
 20
64.14305932832879
 30
0.0
 10
132.4632622314948
 20
64.01067341341849
 30
0.0
  0
SPLINE
  5
11F
330
1F
100
AcDbEntity
  8
0
  6
Continuous
 62
     7
370
    25
100
AcDbSpline
210
0.0
220
0.0
230
1.0
 70
     8
 71
     3
 72
    15
 73
    11
 74
     0
 42
0.00000001
 43
0.00000001
 40
0.0
 40
0.0
 40
0.0
 40
0.0
 40
0.0081667445812695
 40
0.3321939991490077
 40
0.4756279600585576
 40
0.68668309732849
 40
0.8457435502264812
 40
0.8967566214763186
 40
0.9909540928118028
 40
1.0
 40
1.0
 40
1.0
 40
1.0
 10
128.364242717902
 20
83.3606734134185
 30
0.0
 10
128.3637551837591
 20
83.36067073707271
 30
0.0
 10
128.343924036227
 20
83.36056187288597
 30
0.0
 10
128.3156432562178
 20
83.35101586061646
 30
0.0
 10
128.2778139577289
 20
83.31365347736194
 30
0.0
 10
128.2512300611614
 20
83.26878796262724
 30
0.0
 10
128.2340602374065
 20
83.21091166305034
 30
0.0
 10
128.22624324119
 20
83.16023562307842
 30
0.0
 10
128.2242475547541
 20
83.1315413435584
 30
0.0
 10
128.2241825908033
 20
83.11235451200291
 30
0.0
 10
128.2241768988367
 20
83.1106734134185
 30
0.0
  0
LINE
  5
120
330
1F
100
AcDbEntity
  8
0
  6
Continuous
 62
     7
370
    25
100
AcDbLine
 10
128.3642427179
 20
83.3606734134
 30
0.0
 11
138.5622817451
 21
83.3606734134
 31
0.0
  0
SPLINE
  5
121
330
1F
100
AcDbEntity
  8
0
  6
Continuous
 62
     7
370
    25
100
AcDbSpline
210
0.0
220
0.0
230
1.0
 70
     8
 71
     3
 72
    15
 73
    11
 74
     0
 42
0.00000001
 43
0.00000001
 40
0.0
 40
0.0
 40
0.0
 40
0.0
 40
0.0090459071881971
 40
0.1032433785236875
 40
0.1542564497735192
 40
0.3133169026715104
 40
0.5243720399414423
 40
0.6678060008509901
 40
0.9918332554187292
 40
1.0
 40
1.0
 40
1.0
 40
1.0
 10
138.7023475641529
 20
83.1106734134185
 30
0.0
 10
138.7023418721862
 20
83.11235451200291
 30
0.0
 10
138.7022769082354
 20
83.13154134355847
 30
0.0
 10
138.7002812217995
 20
83.16023562307839
 30
0.0
 10
138.6924642255831
 20
83.21091166305035
 30
0.0
 10
138.6752944018281
 20
83.26878796262724
 30
0.0
 10
138.6487105052606
 20
83.31365347736194
 30
0.0
 10
138.6108812067718
 20
83.35101586061644
 30
0.0
 10
138.5826004267626
 20
83.3605618728861
 30
0.0
 10
138.5627692792305
 20
83.36067073707271
 30
0.0
 10
138.5622817450875
 20
83.3606734134185
 30
0.0
  0
LINE
  5
122
330
1F
100
AcDbEntity
  8
0
  6
Continuous
 62
     7
370
    25
100
AcDbLine
 10
138.7023475642
 20
83.1106734134
 30
0.0
 11
128.2241768988
 21
83.1106734134
 31
0.0
  0
LINE
  5
123
330
1F
100
AcDbEntity
  8
0
  6
Continuous
 62
     7
370
    25
100
AcDbLine
 10
128.2241768988
 20
83.1106734134
 30
0.0
 11
128.2241768988
 21
82.5106734134
 31
0.0
  0
LINE
  5
124
330
1F
100
AcDbEntity
  8
0
  6
Continuous
 62
     7
370
    25
100
AcDbLine
 10
138.7023475642
 20
82.5106734134
 30
0.0
 11
138.7023475642
 21
83.1106734134
 31
0.0
  0
LINE
  5
125
330
1F
100
AcDbEntity
  8
0
  6
Continuous
 62
     7
370
    25
100
AcDbLine
 10
128.2241768988
 20
82.5106734134
 30
0.0
 11
138.7023475642
 21
82.5106734134
 31
0.0
  0
LINE
  5
126
330
1F
100
AcDbEntity
  8
0
  6
Continuous
 62
     7
370
    25
100
AcDbLine
 10
127.9860366564
 20
83.1106734134
 30
0.0
 11
128.2241768988
 21
83.1106734134
 31
0.0
  0
SPLINE
  5
127
330
1F
100
AcDbEntity
  8
0
  6
Continuous
 62
     7
370
    25
100
AcDbSpline
210
0.0
220
0.0
230
1.0
 70
     8
 71
     3
 72
    15
 73
    11
 74
     0
 42
0.00000001
 43
0.00000001
 40
0.0
 40
0.0
 40
0.0
 40
0.0
 40
0.0089557228015919
 40
0.0999003359608148
 40
0.153163246058169
 40
0.3125636920784848
 40
0.5249666935694998
 40
0.6689893599352452
 40
0.9919152533810159
 40
1.0
 40
1.0
 40
1.0
 40
1.0
 10
127.9860366564431
 20
83.1106734134185
 30
0.0
 10
127.9860524120217
 20
83.1123545389914
 30
0.0
 10
127.9862281641783
 20
83.13110735361585
 30
0.0
 10
127.9916571801978
 20
83.15986958272332
 30
0.0
 10
128.0131926639051
 20
83.21075665619163
 30
0.0
 10
128.0608980921699
 20
83.26889230632429
 30
0.0
 10
128.1332890371618
 20
83.3136001795077
 30
0.0
 10
128.2352081491796
 20
83.35088200296944
 30
0.0
 10
128.3105632406341
 20
83.3605611578071
 30
0.0
 10
128.3629628863578
 20
83.3606707370088
 30
0.0
 10
128.364242717902
 20
83.3606734134185
 30
0.0
  0
LINE
  5
128
330
1F
100
AcDbEntity
  8
0
  6
Continuous
 62
     7
370
    25
100
AcDbLine
 10
138.7023475642
 20
83.1106734134
 30
0.0
 11
138.9404878065
 21
83.1106734134
 31
0.0
  0
SPLINE
  5
129
330
1F
100
AcDbEntity
  8
0
  6
Continuous
 62
     7
370
    25
100
AcDbSpline
210
0.0
220
0.0
230
1.0
 70
     8
 71
     3
 72
    15
 73
    11
 74
     0
 42
0.00000001
 43
0.00000001
 40
0.0
 40
0.0
 40
0.0
 40
0.0
 40
0.0080847466189818
 40
0.3310106400647568
 40
0.4750333064304977
 40
0.6874363079215144
 40
0.846836753941831
 40
0.9000996640391853
 40
0.991044277198408
 40
1.0
 40
1.0
 40
1.0
 40
1.0
 10
138.5622817450875
 20
83.3606734134185
 30
0.0
 10
138.5635615766317
 20
83.3606707370088
 30
0.0
 10
138.6159612223555
 20
83.36056115780704
 30
0.0
 10
138.6913163138099
 20
83.35088200296944
 30
0.0
 10
138.7932354258277
 20
83.3136001795077
 30
0.0
 10
138.8656263708196
 20
83.26889230632429
 30
0.0
 10
138.9133317990844
 20
83.21075665619163
 30
0.0
 10
138.9348672827917
 20
83.15986958272332
 30
0.0
 10
138.9402962988113
 20
83.13110735361587
 30
0.0
 10
138.9404720509678
 20
83.1123545389914
 30
0.0
 10
138.9404878065464
 20
83.1106734134185
 30
0.0
  0
LINE
  5
12A
330
1F
100
AcDbEntity
  8
0
  6
Continuous
 62
     7
370
    25
100
AcDbLine
 10
127.9860366564
 20
82.5106734134
 30
0.0
 11
127.9860366564
 21
83.1106734134
 31
0.0
  0
LINE
  5
12B
330
1F
100
AcDbEntity
  8
0
  6
Continuous
 62
     7
370
    25
100
AcDbLine
 10
128.2241768988
 20
82.5106734134
 30
0.0
 11
127.9860366564
 21
82.5106734134
 31
0.0
  0
LINE
  5
12C
330
1F
100
AcDbEntity
  8
0
  6
Continuous
 62
     7
370
    25
100
AcDbLine
 10
138.9404878065
 20
83.1106734134
 30
0.0
 11
138.9404878065
 21
82.5106734134
 31
0.0
  0
LINE
  5
12D
330
1F
100
AcDbEntity
  8
0
  6
Continuous
 62
     7
370
    25
100
AcDbLine
 10
138.9404878065
 20
82.5106734134
 30
0.0
 11
138.7023475642
 21
82.5106734134
 31
0.0
  0
LINE
  5
12E
330
1F
100
AcDbEntity
  8
0
  6
Continuous
 62
     7
370
    25
100
AcDbLine
 10
127.4632622315
 20
82.5106734134
 30
0.0
 11
127.4632622315
 21
83.1106734134
 31
0.0
  0
LINE
  5
12F
330
1F
100
AcDbEntity
  8
0
  6
Continuous
 62
     7
370
    25
100
AcDbLine
 10
127.4632622315
 20
83.1106734134
 30
0.0
 11
127.7132622315
 21
83.1106734134
 31
0.0
  0
LINE
  5
130
330
1F
100
AcDbEntity
  8
0
  6
Continuous
 62
     7
370
    25
100
AcDbLine
 10
127.7132622315
 20
83.1106734134
 30
0.0
 11
127.7132622315
 21
82.5106734134
 31
0.0
  0
LINE
  5
131
330
1F
100
AcDbEntity
  8
0
  6
Continuous
 62
     7
370
    25
100
AcDbLine
 10
127.7132622315
 20
82.5106734134
 30
0.0
 11
127.4632622315
 21
82.5106734134
 31
0.0
  0
ARC
  5
132
330
1F
100
AcDbEntity
  8
0
  6
Continuous
 62
     7
370
    25
100
AcDbCircle
 10
127.7132622315
 20
83.1106734134
 30
0.0
 40
0.25
100
AcDbArc
 50
90.0
 51
180.0
  0
LINE
  5
133
330
1F
100
AcDbEntity
  8
0
  6
Continuous
 62
     7
370
    25
100
AcDbLine
 10
127.7132622315
 20
83.3606734134
 30
0.0
 11
127.7132622315
 21
83.1106734134
 31
0.0
  0
LINE
  5
134
330
1F
100
AcDbEntity
  8
0
  6
Continuous
 62
     7
370
    25
100
AcDbLine
 10
127.9860366564
 20
83.1106734134
 30
0.0
 11
127.7132622315
 21
83.1106734134
 31
0.0
  0
LINE
  5
135
330
1F
100
AcDbEntity
  8
0
  6
Continuous
 62
     7
370
    25
100
AcDbLine
 10
127.9860366564
 20
82.5106734134
 30
0.0
 11
127.7132622315
 21
82.5106734134
 31
0.0
  0
LINE
  5
136
330
1F
100
AcDbEntity
  8
0
  6
Continuous
 62
     7
370
    25
100
AcDbLine
 10
127.7132622315
 20
83.3606734134
 30
0.0
 11
128.3642427179
 21
83.3606734134
 31
0.0
  0
LINE
  5
137
330
1F
100
AcDbEntity
  8
0
  6
Continuous
 62
     7
370
    25
100
AcDbLine
 10
139.2132622315
 20
83.1106734134
 30
0.0
 11
139.2132622315
 21
83.3606734134
 31
0.0
  0
LINE
  5
138
330
1F
100
AcDbEntity
  8
0
  6
Continuous
 62
     7
370
    25
100
AcDbLine
 10
139.2132622315
 20
83.1106734134
 30
0.0
 11
138.9404878065
 21
83.1106734134
 31
0.0
  0
LINE
  5
139
330
1F
100
AcDbEntity
  8
0
  6
Continuous
 62
     7
370
    25
100
AcDbLine
 10
138.5622817451
 20
83.3606734134
 30
0.0
 11
139.2132622315
 21
83.3606734134
 31
0.0
  0
LINE
  5
13A
330
1F
100
AcDbEntity
  8
0
  6
Continuous
 62
     7
370
    25
100
AcDbLine
 10
139.2132622315
 20
82.5106734134
 30
0.0
 11
139.2132622315
 21
83.1106734134
 31
0.0
  0
LINE
  5
13B
330
1F
100
AcDbEntity
  8
0
  6
Continuous
 62
     7
370
    25
100
AcDbLine
 10
139.2132622315
 20
83.1106734134
 30
0.0
 11
139.4632622315
 21
83.1106734134
 31
0.0
  0
LINE
  5
13C
330
1F
100
AcDbEntity
  8
0
  6
Continuous
 62
     7
370
    25
100
AcDbLine
 10
139.4632622315
 20
83.1106734134
 30
0.0
 11
139.4632622315
 21
82.5106734134
 31
0.0
  0
LINE
  5
13D
330
1F
100
AcDbEntity
  8
0
  6
Continuous
 62
     7
370
    25
100
AcDbLine
 10
139.4632622315
 20
82.5106734134
 30
0.0
 11
139.2132622315
 21
82.5106734134
 31
0.0
  0
LINE
  5
13E
330
1F
100
AcDbEntity
  8
0
  6
Continuous
 62
     7
370
    25
100
AcDbLine
 10
139.2132622315
 20
82.5106734134
 30
0.0
 11
138.9404878065
 21
82.5106734134
 31
0.0
  0
ARC
  5
13F
330
1F
100
AcDbEntity
  8
0
  6
Continuous
 62
     7
370
    25
100
AcDbCircle
 10
139.2132622315
 20
83.1106734134
 30
0.0
 40
0.25
100
AcDbArc
 50
0.0
 51
90.0
  0
LINE
  5
140
330
1F
100
AcDbEntity
  8
0
  6
Continuous
 62
     7
370
    25
100
AcDbLine
 10
138.4632622315
 20
83.3606734134
 30
0.0
 11
138.4632622315
 21
83.3706734134
 31
0.0
  0
LINE
  5
141
330
1F
100
AcDbEntity
  8
0
  6
Continuous
 62
     7
370
    25
100
AcDbLine
 10
128.4632622315
 20
83.3606734134
 30
0.0
 11
128.4632622315
 21
83.3706734134
 31
0.0
  0
LINE
  5
142
330
1F
100
AcDbEntity
  8
0
  6
Continuous
 62
     7
370
    25
100
AcDbLine
 10
128.4632622315
 20
83.3706734134
 30
0.0
 11
138.4632622315
 21
83.3706734134
 31
0.0
  0
LINE
  5
143
330
1F
100
AcDbEntity
  8
0
  6
Continuous
 62
     7
370
    25
100
AcDbLine
 10
131.4632622315
 20
66.5106734134
 30
0.0
 11
140.4632622315
 21
66.5106734134
 31
0.0
  0
LINE
  5
144
330
1F
100
AcDbEntity
  8
0
  6
Continuous
 62
     7
370
    25
100
AcDbLine
 10
131.4632622315
 20
66.5484903372
 30
0.0
 11
131.4632622315
 21
66.5106734134
 31
0.0
  0
SPLINE
  5
145
330
1F
100
AcDbEntity
  8
0
  6
Continuous
 62
     7
370
    25
100
AcDbSpline
210
0.0
220
0.0
230
1.0
 70
     8
 71
     3
 72
     9
 73
     5
 74
     0
 42
0.00000001
 43
0.00000001
 40
0.0
 40
0.0
 40
0.0
 40
0.0
 40
0.4875141023677128
 40
0.9999999999999999
 40
0.9999999999999999
 40
0.9999999999999999
 40
0.9999999999999999
 10
131.3073169810676
 20
66.51067341341854
 30
0.0
 10
131.3336235549901
 20
66.51240075939025
 30
0.0
 10
131.3875841969384
 20
66.51594393068171
 30
0.0
 10
131.4376197276331
 20
66.53746241663104
 30
0.0
 10
131.4632622314948
 20
66.54849033721847
 30
0.0
  0
SPLINE
  5
146
330
1F
100
AcDbEntity
  8
0
  6
Continuous
 62
     7
370
    25
100
AcDbSpline
210
0.0
220
0.0
230
1.0
 70
     8
 71
     3
 72
    17
 73
    13
 74
     0
 42
0.00000001
 43
0.00000001
 40
0.0
 40
0.0
 40
0.0
 40
0.0
 40
0.3241697628029873
 40
0.5422758463620719
 40
0.689509052693928
 40
0.7894036290694505
 40
0.8577090008137825
 40
0.9049823971474137
 40
0.9551712229700868
 40
0.9753097783197817
 40
0.9919572060138848
 40
1.0
 40
1.0
 40
1.0
 40
1.0
 10
128.9887153474126
 20
74.51067341341611
 30
0.0
 10
129.1314307074298
 20
73.59805991081043
 30
0.0
 10
129.3701670163718
 20
72.0714269045491
 30
0.0
 10
129.7497542108234
 20
70.14465400226813
 30
0.0
 10
130.0588884191705
 20
68.85701853133536
 30
0.0
 10
130.3150019473706
 20
67.99786656461362
 30
0.0
 10
130.5293129502656
 20
67.42439867623622
 30
0.0
 10
130.7325471712935
 20
67.00286652220625
 30
0.0
 10
130.9170924358361
 20
66.72237397941082
 30
0.0
 10
131.1031635222043
 20
66.56682531083015
 30
0.0
 10
131.2183741214602
 20
66.51621471163266
 30
0.0
 10
131.285462926933
 20
66.51203495982801
 30
0.0
 10
131.3073169810676
 20
66.51067341341854
 30
0.0
  0
LINE
  5
147
330
1F
100
AcDbEntity
  8
0
  6
Continuous
 62
     7
370
    25
100
AcDbLine
 10
128.9887153474
 20
74.5106734134
 30
0.0
 11
140.9132622315
 21
74.5106734134
 31
0.0
  0
SPLINE
  5
148
330
1F
100
AcDbEntity
  8
0
  6
Continuous
 62
     7
370
    25
100
AcDbSpline
210
0.0
220
0.0
230
1.0
 70
     8
 71
     3
 72
     9
 73
     5
 74
     0
 42
0.00000001
 43
0.00000001
 40
0.0
 40
0.0
 40
0.0
 40
0.0
 40
0.4978401817595094
 40
1.0
 40
1.0
 40
1.0
 40
1.0
 10
129.7489261031744
 20
75.50541699138542
 30
0.0
 10
129.6126041948037
 20
75.34890580869282
 30
0.0
 10
129.3387775464828
 20
75.0345254343738
 30
0.0
 10
129.1057382953862
 20
74.68579288634753
 30
0.0
 10
128.9887153474126
 20
74.51067341341611
 30
0.0
  0
LINE
  5
149
330
1F
100
AcDbEntity
  8
0
  6
Continuous
 62
     7
370
    25
100
AcDbLine
 10
128.2394600571
 20
82.5106734134
 30
0.0
 11
126.5113213932
 21
75.5054169914
 31
0.0
  0
LINE
  5
14A
330
1F
100
AcDbEntity
  8
0
  6
Continuous
 62
     7
370
    25
100
AcDbLine
 10
138.7023475642
 20
82.5106734134
 30
0.0
 11
128.2394600571
 21
82.5106734134
 31
0.0
  0
SPLINE
  5
14B
330
1F
100
AcDbEntity
  8
0
  6
Continuous
 62
     7
370
    25
100
AcDbSpline
210
0.0
220
0.0
230
1.0
 70
     8
 71
     3
 72
    14
 73
    10
 74
     0
 42
0.00000001
 43
0.00000001
 40
0.0
 40
0.0
 40
0.0
 40
0.0
 40
0.1576095309202822
 40
0.3152382602707094
 40
0.4726926441579498
 40
0.6301650083177254
 40
0.7907313191165901
 40
0.9513050385928076
 40
1.0
 40
1.0
 40
1.0
 40
1.0
 10
126.9632622314948
 20
66.51067341341849
 30
0.0
 10
126.8966912167127
 20
66.72417520189589
 30
0.0
 10
126.7635410781278
 20
67.15120478552139
 30
0.0
 10
126.4349741163771
 20
67.73645186437771
 30
0.0
 10
126.0215844756451
 20
68.25860640520013
 30
0.0
 10
125.5259095567005
 20
68.70758453261999
 30
0.0
 10
124.959619851416
 20
69.06686626442638
 30
0.0
 10
124.4833691950229
 20
69.27143244352757
 30
0.0
 10
124.2031746268301
 20
69.35222699187887
 30
0.0
 10
124.1379758420571
 20
69.37102716492565
 30
0.0
  0
LINE
  5
14C
330
1F
100
AcDbEntity
  8
0
  6
Continuous
 62
     7
370
    25
100
AcDbLine
 10
124.1379758421
 20
69.3710271649
 30
0.0
 11
118.3582189922
 21
70.9396486054
 31
0.0
  0
SPLINE
  5
14D
330
1F
100
AcDbEntity
  8
0
  6
Continuous
 62
     7
370
    25
100
AcDbSpline
210
0.0
220
0.0
230
1.0
 70
     8
 71
     3
 72
    11
 73
     7
 74
     0
 42
0.00000001
 43
0.00000001
 40
0.0
 40
0.0
 40
0.0
 40
0.0
 40
0.2488466353289361
 40
0.4976946020535204
 40
0.7488461225871278
 40
1.0
 40
1.0
 40
1.0
 40
1.0
 10
111.2878253699581
 20
72.26284910639403
 30
0.0
 10
111.8822614190944
 20
72.1933247299004
 30
0.0
 10
113.0711366977578
 20
72.05427560493922
 30
0.0
 10
114.8458613684668
 20
71.75394686681393
 30
0.0
 10
116.6124420102092
 20
71.3920372485588
 30
0.0
 10
117.7762915112289
 20
71.09044529149423
 30
0.0
 10
118.3582189922019
 20
70.93964860540851
 30
0.0
  0
LINE
  5
14E
330
1F
100
AcDbEntity
  8
0
  6
Continuous
 62
     7
370
    25
100
AcDbLine
 10
111.28782537
 20
72.2628491064
 30
0.0
 11
111.28782537
 21
75.5054169914
 31
0.0
  0
LINE
  5
14F
330
1F
100
AcDbEntity
  8
0
  6
Continuous
 62
     7
370
    25
100
AcDbLine
 10
111.28782537
 20
75.5054169914
 30
0.0
 11
129.7489261032
 21
75.5054169914
 31
0.0
  0
LINE
  5
150
330
1F
100
AcDbEntity
  8
0
  6
Continuous
 62
     7
370
    25
100
AcDbLine
 10
131.3073169811
 20
66.5106734134
 30
0.0
 11
126.9632622315
 21
66.5106734134
 31
0.0
  0
LINE
  5
151
330
1F
100
AcDbEntity
  8
0
  6
Continuous
 62
     7
370
    25
100
AcDbLine
 10
131.4632622315
 20
66.5484903372
 30
0.0
 11
131.4564628736
 21
66.5106734134
 31
0.0
  0
LINE
  5
152
330
1F
100
AcDbEntity
  8
0
  6
Continuous
 62
     7
370
    25
100
AcDbLine
 10
131.4632622315
 20
66.5106734134
 30
0.0
 11
131.4564628736
 21
66.5106734134
 31
0.0
  0
LINE
  5
153
330
1F
100
AcDbEntity
  8
0
  6
Continuous
 62
     7
370
    25
100
AcDbLine
 10
131.4564628736
 20
66.5106734134
 30
0.0
 11
131.3073169811
 21
66.5106734134
 31
0.0
  0
LINE
  5
154
330
1F
100
AcDbEntity
  8
0
  6
Continuous
 62
     7
370
    25
100
AcDbLine
 10
93.4632622315
 20
84.5106734134
 30
0.0
 11
111.28782537
 21
84.5106734134
 31
0.0
  0
LINE
  5
155
330
1F
100
AcDbEntity
  8
0
  6
Continuous
 62
     7
370
    25
100
AcDbLine
 10
111.28782537
 20
84.5106734134
 30
0.0
 11
111.28782537
 21
75.5054169914
 31
0.0
  0
LINE
  5
156
330
1F
100
AcDbEntity
  8
0
  6
Continuous
 62
     7
370
    25
100
AcDbLine
 10
106.5715943737
 20
72.5106734134
 30
0.0
 11
98.4632622315
 21
72.5106734134
 31
0.0
  0
ARC
  5
157
330
1F
100
AcDbEntity
  8
0
  6
Continuous
 62
     7
370
    25
100
AcDbCircle
 10
98.4632622315
 20
77.5106734134
 30
0.0
 40
5.0
100
AcDbArc
 50
180.0
 51
270.0
  0
LINE
  5
158
330
1F
100
AcDbEntity
  8
0
  6
Continuous
 62
     7
370
    25
100
AcDbLine
 10
93.4632622315
 20
77.5106734134
 30
0.0
 11
93.4632622315
 21
84.5106734134
 31
0.0
  0
ARC
  5
159
330
1F
100
AcDbEntity
  8
0
  6
Continuous
 62
     7
370
    25
100
AcDbCircle
 10
106.5715943737
 20
27.5105441592
 30
0.0
 40
45.00012925418374
100
AcDbArc
 50
83.9840777705
 51
90.0
  0
LINE
  5
15A
330
1F
100
AcDbEntity
  8
0
  6
Continuous
 62
     7
370
    25
100
AcDbLine
 10
111.28782537
 20
84.5106734134
 30
0.0
 11
113.4632622315
 21
84.5106734134
 31
0.0
  0
LINE
  5
15B
330
1F
100
AcDbEntity
  8
0
  6
Continuous
 62
     7
370
    25
100
AcDbLine
 10
113.4632622315
 20
84.5106734134
 30
0.0
 11
113.4632622315
 21
82.5296289368
 31
0.0
  0
ARC
  5
15C
330
1F
100
AcDbEntity
  8
0
  6
Continuous
 62
     7
370
    25
100
AcDbCircle
 10
119.4632622315
 20
82.5296289368
 30
0.0
 40
6.000000000000003
100
AcDbArc
 50
180.0
 51
275.5801667845
  0
ARC
  5
15D
330
1F
100
AcDbEntity
  8
0
  6
Continuous
 62
     7
370
    25
100
AcDbCircle
 10
119.0743086672
 20
86.5106734134
 30
0.0
 40
10.00000000000847
100
AcDbArc
 50
275.5801667845
 51
336.4218215217
  0
LINE
  5
15E
330
1F
100
AcDbEntity
  8
0
  6
Continuous
 62
     7
370
    25
100
AcDbLine
 10
126.9632622315
 20
66.5106734134
 30
0.0
 11
126.4632622315
 21
66.5106734134
 31
0.0
  0
LINE
  5
15F
330
1F
100
AcDbEntity
  8
0
  6
Continuous
 62
     7
370
    25
100
AcDbLine
 10
128.2241768988
 20
82.5106734134
 30
0.0
 11
128.2394600571
 21
82.5106734134
 31
0.0
  0
LINE
  5
160
330
1F
100
AcDbEntity
  8
0
  6
Continuous
 62
     7
370
    25
100
AcDbLine
 10
140.4632622315
 20
61.2051178579
 30
0.0
 11
140.4632622315
 21
64.5106734134
 31
0.0
  0
LINE
  5
161
330
1F
100
AcDbEntity
  8
0
  6
Continuous
 62
     7
370
    25
100
AcDbLine
 10
126.4632622315
 20
50.816228969
 30
0.0
 11
126.4632622315
 21
47.5106734134
 31
0.0
  0
LINE
  5
162
330
1F
100
AcDbEntity
  8
0
  6
Continuous
 62
     7
370
    25
100
AcDbLine
 10
126.4632622315
 20
64.5106734134
 30
0.0
 11
126.4632622315
 21
61.2051178579
 31
0.0
  0
LINE
  5
163
330
1F
100
AcDbEntity
  8
0
  6
Continuous
 62
     7
370
    25
100
AcDbLine
 10
140.4632622315
 20
47.5106734134
 30
0.0
 11
140.4632622315
 21
50.816228969
 31
0.0
  0
SPLINE
  5
164
330
1F
100
AcDbEntity
  8
0
  6
Continuous
 62
     7
370
    25
100
AcDbSpline
210
0.0
220
0.0
230
1.0
 70
     8
 71
     3
 72
    32
 73
    28
 74
     0
 42
0.00000001
 43
0.00000001
 40
0.0
 40
0.0
 40
0.0
 40
0.0
 40
0.0401450235848357
 40
0.0814946510747366
 40
0.1230108374273918
 40
0.1655335881087852
 40
0.213102689944118
 40
0.2616869956899938
 40
0.3186512837064658
 40
0.3479268696243464
 40
0.3771976325562726
 40
0.4187548087056146
 40
0.4612652019558922
 40
0.5031787598671369
 40
0.5464778200637773
 40
0.5837150053189375
 40
0.6216789039917089
 40
0.649608003238977
 40
0.6775412817538382
 40
0.7348752066615024
 40
0.7907587055724206
 40
0.8195305177303107
 40
0.848297267517085
 40
0.8930422512982819
 40
0.939068727387773
 40
0.9835429316127413
 40
1.0
 40
1.0
 40
1.0
 40
1.0
 10
139.8632622314948
 20
64.51067341341849
 30
0.0
 10
139.8519434211264
 20
64.50305473143624
 30
0.0
 10
139.8289661646901
 20
64.4875887589607
 30
0.0
 10
139.6442897321936
 20
64.36436948272379
 30
0.0
 10
139.3537099597474
 20
64.17434554966539
 30
0.0
 10
138.9427696708836
 20
63.91381080894639
 30
0.0
 10
138.4101377365091
 20
63.59200651464515
 30
0.0
 10
137.7216930126224
 20
63.20614687968784
 30
0.0
 10
137.0297370599136
 20
62.86197836335153
 30
0.0
 10
136.3838184509415
 20
62.58793647553
 30
0.0
 10
135.7936324250774
 20
62.37085004738231
 30
0.0
 10
135.0857396773911
 20
62.16530089989435
 30
0.0
 10
134.2556426741529
 20
62.01586321386154
 30
0.0
 10
133.3888478161073
 20
61.96828032919913
 30
0.0
 10
132.5597700035167
 20
62.03174857018694
 30
0.0
 10
131.7840277442704
 20
62.18197407443605
 30
0.0
 10
131.1407108775275
 20
62.36938318750879
 30
0.0
 10
130.5858594600194
 20
62.57131790903512
 30
0.0
 10
129.9491300346461
 20
62.83774937216845
 30
0.0
 10
129.2190292419727
 20
63.19717592949636
 30
0.0
 10
128.5801505654334
 20
63.55614238119885
 30
0.0
 10
128.1365416293447
 20
63.82128526904599
 30
0.0
 10
127.7816111036173
 20
64.04103358095969
 30
0.0
 10
127.4382891213005
 20
64.26158403810584
 30
0.0
 10
127.1816314108109
 20
64.43120022960107
 30
0.0
 10
127.0585532379236
 20
64.5138301660302
 30
0.0
 10
127.0761803965125
 20
64.5020049618557
 30
0.0
 10
127.080941356557
 20
64.49881106510205
 30
0.0
  0
SPLINE
  5
165
330
1F
100
AcDbEntity
  8
0
  6
Continuous
 62
     7
370
    25
100
AcDbSpline
210
0.0
220
0.0
230
1.0
 70
     8
 71
     3
 72
    32
 73
    28
 74
     0
 42
0.00000001
 43
0.00000001
 40
0.0
 40
0.0
 40
0.0
 40
0.0
 40
0.0148226906036678
 40
0.0619098642308405
 40
0.1074419255042467
 40
0.1543358594329046
 40
0.182598153298089
 40
0.2108647534549355
 40
0.2690259379277178
 40
0.3246070981579414
 40
0.3531531900241039
 40
0.3816927019323051
 40
0.4179901534316578
 40
0.4550296659437936
 40
0.4953226362402814
 40
0.5372317715994345
 40
0.5776049808321276
 40
0.6191596213353762
 40
0.6475096399520571
 40
0.6758659597953307
 40
0.7341701314178916
 40
0.7822939425002001
 40
0.8313627427680195
 40
0.8736469360376942
 40
0.9168681617688612
 40
0.9578489936169664
 40
1.0
 40
1.0
 40
1.0
 40
1.0
 10
127.5777679337036
 20
64.99949438557348
 30
0.0
 10
127.5738239380278
 20
65.00253362521609
 30
0.0
 10
127.5573510692791
 20
65.0152276035679
 30
0.0
 10
127.6681249556439
 20
64.92977495194275
 30
0.0
 10
127.905557662531
 20
64.74953534712559
 30
0.0
 10
128.2183756877175
 20
64.51853942180188
 30
0.0
 10
128.5434980309088
 20
64.2872412375367
 30
0.0
 10
128.949586870607
 20
64.00798535246011
 30
0.0
 10
129.5318124558513
 20
63.63128955410056
 30
0.0
 10
130.2076036328562
 20
63.24817976703721
 30
0.0
 10
130.7941764824472
 20
62.96436452531158
 30
0.0
 10
131.3094378330181
 20
62.74822903175864
 30
0.0
 10
131.9069372829579
 20
62.54736163525789
 30
0.0
 10
132.6130262519891
 20
62.38887509033709
 30
0.0
 10
133.3843998931393
 20
62.3187784324161
 30
0.0
 10
134.181249029412
 20
62.36707926214574
 30
0.0
 10
134.9571889927742
 20
62.52678136120561
 30
0.0
 10
135.6060846281457
 20
62.74288321077515
 30
0.0
 10
136.1471323492152
 20
62.97115014324109
 30
0.0
 10
136.7448347033935
 20
63.26136621068695
 30
0.0
 10
137.3821811264279
 20
63.62526717179303
 30
0.0
 10
138.0215779375226
 20
64.03653442923132
 30
0.0
 10
138.5096213993652
 20
64.37512191096762
 30
0.0
 10
138.8914425231272
 20
64.65300560691436
 30
0.0
 10
139.1577617778588
 20
64.85301466590491
 30
0.0
 10
139.3305384143965
 20
64.98536981433168
 30
0.0
 10
139.3522524094586
 20
65.0021600996451
 30
0.0
 10
139.3632622314948
 20
65.01067341341849
 30
0.0
  0
LINE
  5
166
330
1F
100
AcDbEntity
  8
FORMAT
100
AcDbLine
 10
152.7654464965
 20
50.357789311
 30
0.0
 11
143.9632622315
 21
50.0827210527
 31
0.0
  0
LINE
  5
167
330
1F
100
AcDbEntity
  8
FORMAT
100
AcDbLine
 10
152.7654464965
 20
61.6635575158
 30
0.0
 11
143.9632622315
 21
61.9386257741
 31
0.0
  0
LINE
  5
168
330
1F
100
AcDbEntity
  8
FORMAT
100
AcDbLine
 10
143.9632622315
 20
62.7619859134
 30
0.0
 11
143.9632622315
 21
49.2593609134
 31
0.0
  0
LINE
  5
169
330
1F
100
AcDbEntity
  8
FORMAT
  6
CENTERX2
370
    18
100
AcDbLine
 10
98.4392821102
 20
56.0106734134
 30
0.0
 11
154.9681715916
 21
56.0106734134
 31
0.0
  0
LINE
  5
16A
330
1F
100
AcDbEntity
  8
FORMAT
  6
CENTERX2
370
    18
100
AcDbLine
 10
133.4632622315
 20
45.6562077663
 30
0.0
 11
133.4632622315
 21
84.8353500358
 31
0.0
  0
LINE
  5
16B
330
1F
100
AcDbEntity
  8
0
  6
Continuous
 62
     7
370
    25
100
AcDbLine
 10
190.9823906132
 20
64.0847058632
 30
0.0
 11
190.9823906132
 21
66.5106734134
 31
0.0
  0
LINE
  5
16C
330
1F
100
AcDbEntity
  8
0
  6
Continuous
 62
     7
370
    25
100
AcDbLine
 10
179.1823906132
 20
66.5106734134
 30
0.0
 11
179.1823906132
 21
65.0087670837
 31
0.0
  0
ARC
  5
16D
330
1F
100
AcDbEntity
  8
0
  6
Continuous
 62
     7
370
    25
100
AcDbCircle
 10
179.3823906132
 20
64.5524158438
 30
0.0
 40
0.5000000000000135
100
AcDbArc
 50
113.6449780875
 51
180.007858636
  0
ARC
  5
16E
330
1F
100
AcDbEntity
  8
0
  6
Continuous
 62
     7
370
    25
100
AcDbCircle
 10
190.3323906132
 20
83.1106734134
 30
0.0
 40
0.25
100
AcDbArc
 50
0.0
 51
90.0
  0
ARC
  5
16F
330
1F
100
AcDbEntity
  8
0
  6
Continuous
 62
     7
370
    25
100
AcDbCircle
 10
179.8323906132
 20
83.1106734134
 30
0.0
 40
0.25
100
AcDbArc
 50
90.0
 51
180.0
  0
LINE
  5
170
330
1F
100
AcDbEntity
  8
0
  6
Continuous
 62
     7
370
    25
100
AcDbLine
 10
190.5823906132
 20
82.5106734134
 30
0.0
 11
190.5823906132
 21
83.1106734134
 31
0.0
  0
LINE
  5
171
330
1F
100
AcDbEntity
  8
0
  6
Continuous
 62
     7
370
    25
100
AcDbLine
 10
179.5823906132
 20
83.1106734134
 30
0.0
 11
179.5823906132
 21
82.5106734134
 31
0.0
  0
LINE
  5
172
330
1F
100
AcDbEntity
  8
0
  6
Continuous
 62
     7
370
    25
100
AcDbLine
 10
192.5323906132
 20
74.5106734134
 30
0.0
 11
190.5823906132
 21
82.5106734134
 31
0.0
  0
LINE
  5
173
330
1F
100
AcDbEntity
  8
0
  6
Continuous
 62
     7
370
    25
100
AcDbLine
 10
179.5823906132
 20
82.5106734134
 30
0.0
 11
177.6323906132
 21
74.5106734134
 31
0.0
  0
LINE
  5
174
330
1F
100
AcDbEntity
  8
0
  6
Continuous
 62
     7
370
    25
100
AcDbLine
 10
177.6323906132
 20
74.5106734134
 30
0.0
 11
178.0823906132
 21
66.5106734134
 31
0.0
  0
LINE
  5
175
330
1F
100
AcDbEntity
  8
0
  6
Continuous
 62
     7
370
    25
100
AcDbLine
 10
192.0823906132
 20
66.5106734134
 30
0.0
 11
192.5323906132
 21
74.5106734134
 31
0.0
  0
CIRCLE
  5
176
330
1F
100
AcDbEntity
  8
0
  6
Continuous
 62
     7
370
    25
100
AcDbCircle
 10
185.0823906132
 20
56.0106734134
 30
0.0
 40
2.900000000000006
  0
CIRCLE
  5
177
330
1F
100
AcDbEntity
  8
0
  6
Continuous
 62
     7
370
    25
100
AcDbCircle
 10
185.0823906132
 20
56.0106734134
 30
0.0
 40
6.523360139300024
  0
CIRCLE
  5
178
330
1F
100
AcDbEntity
  8
0
  6
Continuous
 62
     7
370
    25
100
AcDbCircle
 10
185.0823906132
 20
56.0106734134
 30
0.0
 40
5.25
  0
CIRCLE
  5
179
330
1F
100
AcDbEntity
  8
0
  6
Continuous
 62
     7
370
    25
100
AcDbCircle
 10
185.0823906132
 20
56.0106734134
 30
0.0
 40
4.0
  0
CIRCLE
  5
17A
330
1F
100
AcDbEntity
  8
0
  6
Continuous
 62
     7
370
    25
100
AcDbCircle
 10
185.0823906132
 20
56.0106734134
 30
0.0
 40
4.5
  0
CIRCLE
  5
17B
330
1F
100
AcDbEntity
  8
0
  6
Continuous
 62
     7
370
    25
100
AcDbCircle
 10
185.0823906132
 20
56.0106734134
 30
0.0
 40
6.766937500000012
  0
CIRCLE
  5
17C
330
1F
100
AcDbEntity
  8
0
  6
Continuous
 62
     7
370
    25
100
AcDbCircle
 10
185.0823906132
 20
56.0106734134
 30
0.0
 40
9.999999999999972
  0
CIRCLE
  5
17D
330
1F
100
AcDbEntity
  8
0
  6
Continuous
 62
     7
370
    25
100
AcDbCircle
 10
185.0823906132
 20
56.0106734134
 30
0.0
 40
9.499999999999972
  0
CIRCLE
  5
17E
330
1F
100
AcDbEntity
  8
0
  6
Continuous
 62
     7
370
    25
100
AcDbCircle
 10
185.0823906132
 20
56.0106734134
 30
0.0
 40
2.999999999999972
  0
SPLINE
  5
17F
330
1F
100
AcDbEntity
  8
0
  6
Continuous
 62
     7
370
    25
100
AcDbSpline
210
0.0
220
0.0
230
1.0
 70
     8
 71
     3
 72
    13
 73
     9
 74
     0
 42
0.00000001
 43
0.00000001
 40
0.0
 40
0.0
 40
0.0
 40
0.0
 40
0.0709002556126979
 40
0.2985326187209611
 40
0.5283503324641392
 40
0.7606230766495086
 40
0.9918193887712565
 40
0.9999999999999999
 40
0.9999999999999999
 40
0.9999999999999999
 40
0.9999999999999999
 10
179.2646588836044
 20
64.12166701000598
 30
0.0
 10
179.2645743315944
 20
64.15619599774314
 30
0.0
 10
179.2642183168983
 20
64.30158375469661
 30
0.0
 10
179.2451175999509
 20
64.5412579469178
 30
0.0
 10
179.2157904447169
 20
64.80073030822687
 30
0.0
 10
179.1910764910081
 20
64.9598689277433
 30
0.0
 10
179.1795384556209
 20
65.0279237800138
 30
0.0
 10
179.1826012637176
 20
65.00940012238081
 30
0.0
 10
179.1827059339672
 20
65.00876708374238
 30
0.0
  0
SPLINE
  5
180
330
1F
100
AcDbEntity
  8
0
  6
Continuous
 62
     7
370
    25
100
AcDbSpline
210
0.0
220
0.0
230
1.0
 70
    24
 71
     3
 72
    14
 73
    10
 74
     0
 42
0.00000001
 43
0.00000001
 40
0.0
 40
0.0
 40
0.0
 40
0.0
 40
0.0686782875714484
 40
0.293216909137959
 40
0.2935197863693179
 40
0.5073359099559678
 40
0.7069537562193142
 40
0.9001971037285486
 40
1.0
 40
1.0
 40
1.0
 40
1.0
 10
178.8823906132169
 20
64.01067341341933
 30
0.0
 10
178.8823906132169
 20
64.02952551464693
 30
0.0
 10
178.8823906132169
 20
64.11001317746125
 30
0.0
 10
178.8823906132169
 20
64.18970218380429
 30
0.0
 10
178.882390613217
 20
64.2989139065806
 30
0.0
 10
178.8823906132169
 20
64.39560998709086
 30
0.0
 10
178.8823906132169
 20
64.49719252938101
 30
0.0
 10
178.8823906132169
 20
64.55074459883534
 30
0.0
 10
178.8823906132169
 20
64.54653779757047
 30
0.0
 10
178.8823906132169
 20
64.54510508529663
 30
0.0
  0
SPLINE
  5
181
330
1F
100
AcDbEntity
  8
0
  6
Continuous
 62
     7
370
    25
100
AcDbSpline
210
0.0
220
0.0
230
1.0
 70
    24
 71
     3
 72
     9
 73
     5
 74
     0
 42
0.00000001
 43
0.00000001
 40
0.0
 40
0.0
 40
0.0
 40
0.0
 40
0.3143288738672229
 40
1.0
 40
1.0
 40
1.0
 40
1.0
 10
178.8823906132169
 20
63.82525101040912
 30
0.0
 10
178.8823906132169
 20
63.84343428222618
 30
0.0
 10
178.8823906132169
 20
63.90128220307847
 30
0.0
 10
178.8823906132169
 20
63.96617695546819
 30
0.0
 10
178.8823906132169
 20
64.01067341341933
 30
0.0
  0
LINE
  5
182
330
1F
100
AcDbEntity
  8
0
  6
Continuous
 62
     7
370
    25
100
AcDbLine
 10
186.3323906132
 20
82.5106734134
 30
0.0
 11
186.3323906132
 21
83.1106734134
 31
0.0
  0
LINE
  5
183
330
1F
100
AcDbEntity
  8
0
  6
Continuous
 62
     7
370
    25
100
AcDbLine
 10
186.3323906132
 20
83.1106734134
 30
0.0
 11
186.5823906132
 21
83.1106734134
 31
0.0
  0
LINE
  5
184
330
1F
100
AcDbEntity
  8
0
  6
Continuous
 62
     7
370
    25
100
AcDbLine
 10
186.5823906132
 20
83.1106734134
 30
0.0
 11
186.5823906132
 21
82.5106734134
 31
0.0
  0
LINE
  5
185
330
1F
100
AcDbEntity
  8
0
  6
Continuous
 62
     7
370
    25
100
AcDbLine
 10
186.5823906132
 20
82.5106734134
 30
0.0
 11
186.3323906132
 21
82.5106734134
 31
0.0
  0
LINE
  5
186
330
1F
100
AcDbEntity
  8
0
  6
Continuous
 62
     7
370
    25
100
AcDbLine
 10
186.3323906132
 20
83.1106734134
 30
0.0
 11
186.3323906132
 21
83.3606734134
 31
0.0
  0
ARC
  5
187
330
1F
100
AcDbEntity
  8
0
  6
Continuous
 62
     7
370
    25
100
AcDbCircle
 10
186.3323906132
 20
83.1106734134
 30
0.0
 40
0.25
100
AcDbArc
 50
0.0
 51
90.0
  0
LINE
  5
188
330
1F
100
AcDbEntity
  8
0
  6
Continuous
 62
     7
370
    25
100
AcDbLine
 10
183.8323906132
 20
83.1106734134
 30
0.0
 11
183.8323906132
 21
82.5106734134
 31
0.0
  0
LINE
  5
189
330
1F
100
AcDbEntity
  8
0
  6
Continuous
 62
     7
370
    25
100
AcDbLine
 10
186.3323906132
 20
83.1106734134
 30
0.0
 11
183.8323906132
 21
83.1106734134
 31
0.0
  0
LINE
  5
18A
330
1F
100
AcDbEntity
  8
0
  6
Continuous
 62
     7
370
    25
100
AcDbLine
 10
186.3323906132
 20
82.5106734134
 30
0.0
 11
183.8323906132
 21
82.5106734134
 31
0.0
  0
LINE
  5
18B
330
1F
100
AcDbEntity
  8
0
  6
Continuous
 62
     7
370
    25
100
AcDbLine
 10
183.8323906132
 20
83.3606734134
 30
0.0
 11
183.8323906132
 21
83.1106734134
 31
0.0
  0
LINE
  5
18C
330
1F
100
AcDbEntity
  8
0
  6
Continuous
 62
     7
370
    25
100
AcDbLine
 10
183.8323906132
 20
83.3606734134
 30
0.0
 11
186.3323906132
 21
83.3606734134
 31
0.0
  0
ARC
  5
18D
330
1F
100
AcDbEntity
  8
0
  6
Continuous
 62
     7
370
    25
100
AcDbCircle
 10
183.8323906132
 20
83.1106734134
 30
0.0
 40
0.25
100
AcDbArc
 50
90.0
 51
180.0
  0
LINE
  5
18E
330
1F
100
AcDbEntity
  8
0
  6
Continuous
 62
     7
370
    25
100
AcDbLine
 10
183.5823906132
 20
83.1106734134
 30
0.0
 11
183.8323906132
 21
83.1106734134
 31
0.0
  0
LINE
  5
18F
330
1F
100
AcDbEntity
  8
0
  6
Continuous
 62
     7
370
    25
100
AcDbLine
 10
183.5823906132
 20
82.5106734134
 30
0.0
 11
183.5823906132
 21
83.1106734134
 31
0.0
  0
LINE
  5
190
330
1F
100
AcDbEntity
  8
0
  6
Continuous
 62
     7
370
    25
100
AcDbLine
 10
183.8323906132
 20
82.5106734134
 30
0.0
 11
183.5823906132
 21
82.5106734134
 31
0.0
  0
SPLINE
  5
191
330
1F
100
AcDbEntity
  8
0
  6
Continuous
 62
     7
370
    25
100
AcDbSpline
210
0.0
220
0.0
230
1.0
 70
     8
 71
     3
 72
    15
 73
    11
 74
     0
 42
0.00000001
 43
0.00000001
 40
0.0
 40
0.0
 40
0.0
 40
0.0
 40
0.0081667445812973
 40
0.3321939991490809
 40
0.4756279600585568
 40
0.6866830973284903
 40
0.8457435502264812
 40
0.8967566214763185
 40
0.9909540928118028
 40
1.0
 40
1.0
 40
1.0
 40
1.0
 10
186.3323906132169
 20
83.3606734134185
 30
0.0
 10
186.333828076156
 20
83.36067073707271
 30
0.0
 10
186.392298934108
 20
83.36056187288601
 30
0.0
 10
186.4767241118271
 20
83.35101586061646
 30
0.0
 10
186.5913031838496
 20
83.31365347736191
 30
0.0
 10
186.6726740710462
 20
83.26878796262724
 30
0.0
 10
186.7256930630479
 20
83.21091166305034
 30
0.0
 10
186.749894994892
 20
83.1602356230784
 30
0.0
 10
186.7560846155582
 20
83.13154134355841
 30
0.0
 10
186.7562860109707
 20
83.11235451200291
 30
0.0
 10
186.7563036566952
 20
83.1106734134185
 30
0.0
  0
LINE
  5
192
330
1F
100
AcDbEntity
  8
0
  6
Continuous
 62
     7
370
    25
100
AcDbLine
 10
186.5823906132
 20
83.1106734134
 30
0.0
 11
186.7563036567
 21
83.1106734134
 31
0.0
  0
LINE
  5
193
330
1F
100
AcDbEntity
  8
0
  6
Continuous
 62
     7
370
    25
100
AcDbLine
 10
183.4084775697
 20
83.1106734134
 30
0.0
 11
183.5823906132
 21
83.1106734134
 31
0.0
  0
SPLINE
  5
194
330
1F
100
AcDbEntity
  8
0
  6
Continuous
 62
     7
370
    25
100
AcDbSpline
210
0.0
220
0.0
230
1.0
 70
     8
 71
     3
 72
    15
 73
    11
 74
     0
 42
0.00000001
 43
0.00000001
 40
0.0
 40
0.0
 40
0.0
 40
0.0
 40
0.0090459071881971
 40
0.1032433785236875
 40
0.1542564497735192
 40
0.3133169026715104
 40
0.5243720399414423
 40
0.6678060008509901
 40
0.9918332554187292
 40
1.0
 40
1.0
 40
1.0
 40
1.0
 10
183.4084775697387
 20
83.1106734134185
 30
0.0
 10
183.4084952154631
 20
83.11235451200291
 30
0.0
 10
183.4086966108757
 20
83.13154134355847
 30
0.0
 10
183.4148862315419
 20
83.16023562307839
 30
0.0
 10
183.439088163386
 20
83.21091166305035
 30
0.0
 10
183.4921071553877
 20
83.26878796262724
 30
0.0
 10
183.5734780425843
 20
83.31365347736194
 30
0.0
 10
183.6880571146067
 20
83.35101586061644
 30
0.0
 10
183.7724822923262
 20
83.3605618728861
 30
0.0
 10
183.8309531502779
 20
83.36067073707271
 30
0.0
 10
183.8323906132169
 20
83.3606734134185
 30
0.0
  0
LINE
  5
195
330
1F
100
AcDbEntity
  8
0
  6
Continuous
 62
     7
370
    25
100
AcDbLine
 10
186.7563036567
 20
83.1106734134
 30
0.0
 11
186.7563036567
 21
82.5106734134
 31
0.0
  0
LINE
  5
196
330
1F
100
AcDbEntity
  8
0
  6
Continuous
 62
     7
370
    25
100
AcDbLine
 10
186.7563036567
 20
82.5106734134
 30
0.0
 11
186.5823906132
 21
82.5106734134
 31
0.0
  0
LINE
  5
197
330
1F
100
AcDbEntity
  8
0
  6
Continuous
 62
     7
370
    25
100
AcDbLine
 10
183.4084775697
 20
82.5106734134
 30
0.0
 11
183.4084775697
 21
83.1106734134
 31
0.0
  0
LINE
  5
198
330
1F
100
AcDbEntity
  8
0
  6
Continuous
 62
     7
370
    25
100
AcDbLine
 10
183.5823906132
 20
82.5106734134
 30
0.0
 11
183.4084775697
 21
82.5106734134
 31
0.0
  0
LINE
  5
199
330
1F
100
AcDbEntity
  8
0
  6
Continuous
 62
     7
370
    25
100
AcDbLine
 10
186.3323906132
 20
83.3606734134
 30
0.0
 11
190.3323906132
 21
83.3606734134
 31
0.0
  0
LINE
  5
19A
330
1F
100
AcDbEntity
  8
0
  6
Continuous
 62
     7
370
    25
100
AcDbLine
 10
179.8323906132
 20
83.3606734134
 30
0.0
 11
183.8323906132
 21
83.3606734134
 31
0.0
  0
LINE
  5
19B
330
1F
100
AcDbEntity
  8
0
  6
Continuous
 62
     7
370
    25
100
AcDbLine
 10
186.7563036567
 20
82.5106734134
 30
0.0
 11
190.5823906132
 21
82.5106734134
 31
0.0
  0
LINE
  5
19C
330
1F
100
AcDbEntity
  8
0
  6
Continuous
 62
     7
370
    25
100
AcDbLine
 10
179.5823906132
 20
82.5106734134
 30
0.0
 11
183.4084775697
 21
82.5106734134
 31
0.0
  0
LINE
  5
19D
330
1F
100
AcDbEntity
  8
0
  6
Continuous
 62
     7
370
    25
100
AcDbLine
 10
184.4823906132
 20
83.3606734134
 30
0.0
 11
184.4823906132
 21
83.3706734134
 31
0.0
  0
LINE
  5
19E
330
1F
100
AcDbEntity
  8
0
  6
Continuous
 62
     7
370
    25
100
AcDbLine
 10
184.4823906132
 20
83.3706734134
 30
0.0
 11
185.6823906132
 21
83.3706734134
 31
0.0
  0
LINE
  5
19F
330
1F
100
AcDbEntity
  8
0
  6
Continuous
 62
     7
370
    25
100
AcDbLine
 10
185.6823906132
 20
83.3606734134
 30
0.0
 11
185.6823906132
 21
83.3706734134
 31
0.0
  0
LINE
  5
1A0
330
1F
100
AcDbEntity
  8
0
  6
Continuous
 62
     7
370
    25
100
AcDbLine
 10
177.6323906132
 20
74.5106734134
 30
0.0
 11
192.5323906132
 21
74.5106734134
 31
0.0
  0
LINE
  5
1A1
330
1F
100
AcDbEntity
  8
0
  6
Continuous
 62
     7
370
    25
100
AcDbLine
 10
178.0823906132
 20
66.5106734134
 30
0.0
 11
192.0823906132
 21
66.5106734134
 31
0.0
  0
LINE
  5
1A2
330
1F
100
AcDbEntity
  8
0
  6
Continuous
 62
     7
370
    25
100
AcDbLine
 10
188.3540898773
 20
84.5106734134
 30
0.0
 11
188.3540898773
 21
83.3606734134
 31
0.0
  0
LINE
  5
1A3
330
1F
100
AcDbEntity
  8
0
  6
Continuous
 62
     7
370
    25
100
AcDbLine
 10
188.3540898773
 20
84.5106734134
 30
0.0
 11
188.5823906132
 21
84.5106734134
 31
0.0
  0
LINE
  5
1A4
330
1F
100
AcDbEntity
  8
0
  6
Continuous
 62
     7
370
    25
100
AcDbLine
 10
188.5823906132
 20
83.3606734134
 30
0.0
 11
188.5823906132
 21
84.5106734134
 31
0.0
  0
LINE
  5
1A5
330
1F
100
AcDbEntity
  8
0
  6
Continuous
 62
     7
370
    25
100
AcDbLine
 10
181.5823906132
 20
84.5106734134
 30
0.0
 11
181.5823906132
 21
83.3606734134
 31
0.0
  0
LINE
  5
1A6
330
1F
100
AcDbEntity
  8
0
  6
Continuous
 62
     7
370
    25
100
AcDbLine
 10
181.5823906132
 20
84.5106734134
 30
0.0
 11
181.8106913492
 21
84.5106734134
 31
0.0
  0
LINE
  5
1A7
330
1F
100
AcDbEntity
  8
0
  6
Continuous
 62
     7
370
    25
100
AcDbLine
 10
181.8106913492
 20
84.5106734134
 30
0.0
 11
181.8106913492
 21
83.3606734134
 31
0.0
  0
LINE
  5
1A8
330
1F
100
AcDbEntity
  8
0
  6
Continuous
 62
     7
370
    25
100
AcDbLine
 10
181.8106913492
 20
84.5106734134
 30
0.0
 11
188.3540898773
 21
84.5106734134
 31
0.0
  0
LINE
  5
1A9
330
1F
100
AcDbEntity
  8
0
  6
Continuous
 62
     7
370
    25
100
AcDbLine
 10
190.5823906132
 20
83.1106734134
 30
0.0
 11
186.7563036567
 21
83.1106734134
 31
0.0
  0
LINE
  5
1AA
330
1F
100
AcDbEntity
  8
0
  6
Continuous
 62
     7
370
    25
100
AcDbLine
 10
183.4084775697
 20
83.1106734134
 30
0.0
 11
179.5823906132
 21
83.1106734134
 31
0.0
  0
INSERT
  5
1B6
330
1F
100
AcDbEntity
  8
FORMAT
100
AcDbBlockReference
  2
SW_CENTERMARKSYMBOL_0
 10
185.0823906132
 20
56.0106734134
 30
0.0
  0
LINE
  5
1B7
330
1F
100
AcDbEntity
  8
0
  6
Continuous
 62
     7
370
    25
100
AcDbLine
 10
104.5797875373
 20
124.4925772965
 30
0.0
 11
100.1113927568
 21
123.0407078218
 31
0.0
  0
LINE
  5
1B8
330
1F
100
AcDbEntity
  8
0
  6
Continuous
 62
     7
370
    25
100
AcDbLine
 10
100.1113927568
 20
109.9444467712
 30
0.0
 11
104.5797875373
 21
108.4925772965
 31
0.0
  0
LINE
  5
1B9
330
1F
100
AcDbEntity
  8
0
  6
Continuous
 62
     7
370
    25
100
AcDbLine
 10
117.3189246642
 20
108.4925772965
 30
0.0
 11
117.4632622315
 21
108.7425772965
 31
0.0
  0
LINE
  5
1BA
330
1F
100
AcDbEntity
  8
0
  6
Continuous
 62
     7
370
    25
100
AcDbLine
 10
117.4632622315
 20
124.2425772965
 30
0.0
 11
117.3189246642
 21
124.4925772965
 31
0.0
  0
LINE
  5
1BB
330
1F
100
AcDbEntity
  8
0
  6
Continuous
 62
     7
370
    25
100
AcDbLine
 10
100.1113927568
 20
123.0407078218
 30
0.0
 11
99.9632622315
 21
122.8925772965
 31
0.0
  0
LINE
  5
1BC
330
1F
100
AcDbEntity
  8
0
  6
Continuous
 62
     7
370
    25
100
AcDbLine
 10
99.9632622315
 20
110.0925772965
 30
0.0
 11
100.1113927568
 21
109.9444467712
 31
0.0
  0
LINE
  5
1BD
330
1F
100
AcDbEntity
  8
0
  6
Continuous
 62
     7
370
    25
100
AcDbLine
 10
123.3189246642
 20
107.9925772965
 30
0.0
 11
123.4632622315
 21
108.2425772965
 31
0.0
  0
LINE
  5
1BE
330
1F
100
AcDbEntity
  8
0
  6
Continuous
 62
     7
370
    25
100
AcDbLine
 10
123.4632622315
 20
124.7425772965
 30
0.0
 11
123.3189246642
 21
124.9925772965
 31
0.0
  0
LINE
  5
1BF
330
1F
100
AcDbEntity
  8
0
  6
Continuous
 62
     7
370
    25
100
AcDbLine
 10
117.6075997988
 20
124.9925772965
 30
0.0
 11
117.4632622315
 21
124.7425772965
 31
0.0
  0
LINE
  5
1C0
330
1F
100
AcDbEntity
  8
0
  6
Continuous
 62
     7
370
    25
100
AcDbLine
 10
117.4632622315
 20
108.2425772965
 30
0.0
 11
117.6075997988
 21
107.9925772965
 31
0.0
  0
LINE
  5
1C1
330
1F
100
AcDbEntity
  8
0
  6
Continuous
 62
     7
370
    25
100
AcDbLine
 10
123.7132622315
 20
106.4925772965
 30
0.0
 11
125.5812962202
 21
106.4925772965
 31
0.0
  0
LINE
  5
1C2
330
1F
100
AcDbEntity
  8
0
  6
Continuous
 62
     7
370
    25
100
AcDbLine
 10
125.5812962202
 20
126.4925772965
 30
0.0
 11
123.7132622315
 21
126.4925772965
 31
0.0
  0
ARC
  5
1C3
330
1F
100
AcDbEntity
  8
0
  6
Continuous
 62
     7
370
    25
100
AcDbCircle
 10
142.4632622315
 20
125.4925772965
 30
0.0
 40
1.5
100
AcDbArc
 50
138.1896851042
 51
180.0
  0
ARC
  5
1C4
330
1F
100
AcDbEntity
  8
0
  6
Continuous
 62
     7
370
    25
100
AcDbCircle
 10
142.4632622315
 20
107.4925772965
 30
0.0
 40
1.5
100
AcDbArc
 50
180.0
 51
221.8103148958
  0
ARC
  5
1C5
330
1F
100
AcDbEntity
  8
0
  6
Continuous
 62
     7
370
    25
100
AcDbCircle
 10
124.4632622315
 20
107.4925772965
 30
0.0
 40
1.500000000000014
100
AcDbArc
 50
318.1896851042
 51
0.0
  0
ARC
  5
1C6
330
1F
100
AcDbEntity
  8
0
  6
Continuous
 62
     7
370
    25
100
AcDbCircle
 10
124.4632622315
 20
125.4925772965
 30
0.0
 40
1.500000000000014
100
AcDbArc
 50
0.0
 51
41.8103148958
  0
LINE
  5
1C7
330
1F
100
AcDbEntity
  8
0
  6
Continuous
 62
     7
370
    25
100
AcDbLine
 10
142.9632622315
 20
106.4925772965
 30
0.0
 11
143.4632622315
 21
106.9925772965
 31
0.0
  0
LINE
  5
1C8
330
1F
100
AcDbEntity
  8
0
  6
Continuous
 62
     7
370
    25
100
AcDbLine
 10
143.4632622315
 20
125.9925772965
 30
0.0
 11
142.9632622315
 21
126.4925772965
 31
0.0
  0
LINE
  5
1C9
330
1F
100
AcDbEntity
  8
0
  6
Continuous
 62
     7
370
    25
100
AcDbLine
 10
142.9632622315
 20
126.4925772965
 30
0.0
 11
141.3452282427
 21
126.4925772965
 31
0.0
  0
LINE
  5
1CA
330
1F
100
AcDbEntity
  8
0
  6
Continuous
 62
     7
370
    25
100
AcDbLine
 10
141.3452282427
 20
106.4925772965
 30
0.0
 11
142.9632622315
 21
106.4925772965
 31
0.0
  0
LINE
  5
1CB
330
1F
100
AcDbEntity
  8
0
  6
Continuous
 62
     7
370
    25
100
AcDbLine
 10
123.7132622315
 20
126.4925772965
 30
0.0
 11
123.4632622315
 21
126.2425772965
 31
0.0
  0
LINE
  5
1CC
330
1F
100
AcDbEntity
  8
0
  6
Continuous
 62
     7
370
    25
100
AcDbLine
 10
123.4632622315
 20
106.7425772965
 30
0.0
 11
123.7132622315
 21
106.4925772965
 31
0.0
  0
LINE
  5
1CD
330
1F
100
AcDbEntity
  8
0
  6
Continuous
 62
     7
370
    25
100
AcDbLine
 10
143.4632622315
 20
109.7256397965
 30
0.0
 11
151.2577377739
 21
109.9692171572
 31
0.0
  0
LINE
  5
1CE
330
1F
100
AcDbEntity
  8
0
  6
Continuous
 62
     7
370
    25
100
AcDbLine
 10
151.2577377739
 20
123.0159374358
 30
0.0
 11
143.4632622315
 21
123.2595147965
 31
0.0
  0
LINE
  5
1CF
330
1F
100
AcDbEntity
  8
0
  6
Continuous
 62
     7
370
    25
100
AcDbLine
 10
151.2577377739
 20
109.9692171572
 30
0.0
 11
153.4632622315
 21
111.2425772965
 31
0.0
  0
LINE
  5
1D0
330
1F
100
AcDbEntity
  8
0
  6
Continuous
 62
     7
370
    25
100
AcDbLine
 10
153.4632622315
 20
121.7425772965
 30
0.0
 11
151.2577377739
 21
123.0159374358
 31
0.0
  0
SPLINE
  5
1D1
330
1F
100
AcDbEntity
  8
0
  6
Continuous
 62
     7
370
    25
100
AcDbSpline
210
0.0
220
0.0
230
1.0
 70
    24
 71
     3
 72
    15
 73
    11
 74
     0
 42
0.00000001
 43
0.00000001
 40
0.0
 40
0.0
 40
0.0
 40
0.0
 40
0.0206596214305649
 40
0.2785281562775099
 40
0.409692068365003
 40
0.540769697738802
 40
0.6773125484361164
 40
0.8170001972328492
 40
0.9342620865565013
 40
1.0
 40
1.0
 40
1.0
 40
1.0
 10
106.8880501901391
 20
124.4925772965074
 30
0.0
 10
106.8646291102386
 20
124.4925772965074
 30
0.0
 10
106.5488716204597
 20
124.4925772965074
 30
0.0
 10
106.1011428793551
 20
124.4925772965074
 30
0.0
 10
105.5839094598828
 20
124.4925772965074
 30
0.0
 10
105.2255735305778
 20
124.4925772965075
 30
0.0
 10
104.9125638529801
 20
124.4925772965075
 30
0.0
 10
104.695625018802
 20
124.4925772965075
 30
0.0
 10
104.5850376242527
 20
124.4925772965075
 30
0.0
 10
104.5911030402023
 20
124.4925772965075
 30
0.0
 10
104.593281882926
 20
124.4925772965075
 30
0.0
  0
LINE
  5
1D2
330
1F
100
AcDbEntity
  8
0
  6
Continuous
 62
     7
370
    25
100
AcDbLine
 10
106.8880501901
 20
124.4925772965
 30
0.0
 11
106.8880501901
 21
123.562084586
 31
0.0
  0
SPLINE
  5
1D3
330
1F
100
AcDbEntity
  8
0
  6
Continuous
 62
     7
370
    25
100
AcDbSpline
210
0.0
220
0.0
230
1.0
 70
     8
 71
     3
 72
    15
 73
    11
 74
     0
 42
0.00000001
 43
0.00000001
 40
0.0
 40
0.0
 40
0.0
 40
0.0
 40
0.0874542671838036
 40
0.1835133032392293
 40
0.279641850538996
 40
0.4016099382565959
 40
0.5238471082696792
 40
0.6821600813016832
 40
0.8411401604483262
 40
1.0
 40
1.0
 40
1.0
 40
1.0
 10
104.6475536550712
 20
119.9925772965075
 30
0.0
 10
104.621039507327
 20
120.1157528733383
 30
0.0
 10
104.565402441329
 20
120.3742234741509
 30
0.0
 10
104.5883518128459
 20
120.7767743599289
 30
0.0
 10
104.6961572414239
 20
121.2174059505065
 30
0.0
 10
104.9147216144601
 20
121.6687489904361
 30
0.0
 10
105.2636001275324
 20
122.1598717058755
 30
0.0
 10
105.7230962115793
 20
122.6479642979892
 30
0.0
 10
106.2813952467993
 20
123.1281949820556
 30
0.0
 10
106.685882881903
 20
123.4174911984732
 30
0.0
 10
106.8880501901391
 20
123.5620845859596
 30
0.0
  0
SPLINE
  5
1D4
330
1F
100
AcDbEntity
  8
0
  6
Continuous
 62
     7
370
    25
100
AcDbSpline
210
0.0
220
0.0
230
1.0
 70
     8
 71
     3
 72
    15
 73
    11
 74
     0
 42
0.00000001
 43
0.00000001
 40
0.0
 40
0.0
 40
0.0
 40
0.0
 40
0.2097791930366152
 40
0.4191526115085179
 40
0.5400435965490072
 40
0.6607245759317967
 40
0.7564451902662235
 40
0.8520571814181235
 40
0.9480929640469156
 40
1.0
 40
1.0
 40
1.0
 40
1.0
 10
106.8880501901391
 20
109.4230700070554
 30
0.0
 10
106.6221240221341
 20
109.6153137214188
 30
0.0
 10
106.0907860654269
 20
109.9994292943464
 30
0.0
 10
105.4856269549266
 20
110.5706705813786
 30
0.0
 10
105.056971560621
 20
111.0989687833352
 30
0.0
 10
104.8009483239375
 20
111.5293217307358
 30
0.0
 10
104.6404243965571
 20
111.955173983761
 30
0.0
 10
104.5713356712654
 20
112.3627918003243
 30
0.0
 10
104.5772655477776
 20
112.7144306436564
 30
0.0
 10
104.6343620511624
 20
112.9203342201071
 30
0.0
 10
104.6543948603409
 20
112.9925772965074
 30
0.0
  0
LINE
  5
1D5
330
1F
100
AcDbEntity
  8
0
  6
Continuous
 62
     7
370
    25
100
AcDbLine
 10
106.8880501901
 20
109.4230700071
 30
0.0
 11
106.8880501901
 21
108.4925772965
 31
0.0
  0
SPLINE
  5
1D6
330
1F
100
AcDbEntity
  8
0
  6
Continuous
 62
     7
370
    25
100
AcDbSpline
210
0.0
220
0.0
230
1.0
 70
    24
 71
     3
 72
    15
 73
    11
 74
     0
 42
0.00000001
 43
0.00000001
 40
0.0
 40
0.0
 40
0.0
 40
0.0
 40
0.0611801621028028
 40
0.1829884326497989
 40
0.3192190903520836
 40
0.4592267643931802
 40
0.5878355380453879
 40
0.7165250885764821
 40
0.9793400797552642
 40
1.0
 40
1.0
 40
1.0
 40
1.0
 10
104.5923505840689
 20
108.4925772965076
 30
0.0
 10
104.5901816900361
 20
108.4925772965076
 30
0.0
 10
104.5836945787566
 20
108.4925772965076
 30
0.0
 10
104.6919996847335
 20
108.4925772965076
 30
0.0
 10
104.910096271933
 20
108.4925772965076
 30
0.0
 10
105.2205777614001
 20
108.4925772965076
 30
0.0
 10
105.5770871848091
 20
108.4925772965076
 30
0.0
 10
106.093073699642
 20
108.4925772965076
 30
0.0
 10
106.5432695895748
 20
108.4925772965076
 30
0.0
 10
106.8646291973165
 20
108.4925772965076
 30
0.0
 10
106.8880501901391
 20
108.4925772965076
 30
0.0
  0
LINE
  5
1D7
330
1F
100
AcDbEntity
  8
0
  6
Continuous
 62
     7
370
    25
100
AcDbLine
 10
100.1113927568
 20
123.0407078218
 30
0.0
 11
100.1113927568
 21
119.9925772965
 31
0.0
  0
LINE
  5
1D8
330
1F
100
AcDbEntity
  8
0
  6
Continuous
 62
     7
370
    25
100
AcDbLine
 10
100.1113927568
 20
112.9925772965
 30
0.0
 11
100.1113927568
 21
109.9444467712
 31
0.0
  0
LINE
  5
1D9
330
1F
100
AcDbEntity
  8
0
  6
Continuous
 62
     7
370
    25
100
AcDbLine
 10
116.8859119623
 20
109.4230700071
 30
0.0
 11
106.8880501901
 21
109.4230700071
 31
0.0
  0
SPLINE
  5
1DA
330
1F
100
AcDbEntity
  8
0
  6
Continuous
 62
     7
370
    25
100
AcDbSpline
210
0.0
220
0.0
230
1.0
 70
     8
 71
     3
 72
    11
 73
     7
 74
     0
 42
0.00000001
 43
0.00000001
 40
0.0
 40
0.0
 40
0.0
 40
0.0
 40
0.0543023767256378
 40
0.3707439201807027
 40
0.6844922198107957
 40
1.0
 40
1.0
 40
1.0
 40
1.0
 10
117.3092709096842
 20
112.6904271555042
 30
0.0
 10
117.3127120218181
 20
112.6308224028349
 30
0.0
 10
117.3362058627738
 20
112.2238770535054
 30
0.0
 10
117.2792718560582
 20
111.4710387826275
 30
0.0
 10
117.1397459045717
 20
110.4383865512312
 30
0.0
 10
116.9706808522375
 20
109.7621391465538
 30
0.0
 10
116.885911962305
 20
109.4230700070554
 30
0.0
  0
LINE
  5
1DB
330
1F
100
AcDbEntity
  8
0
  6
Continuous
 62
     7
370
    25
100
AcDbLine
 10
106.8880501901
 20
123.562084586
 30
0.0
 11
116.8859119623
 21
123.562084586
 31
0.0
  0
SPLINE
  5
1DC
330
1F
100
AcDbEntity
  8
0
  6
Continuous
 62
     7
370
    25
100
AcDbSpline
210
0.0
220
0.0
230
1.0
 70
     8
 71
     3
 72
    11
 73
     7
 74
     0
 42
0.00000001
 43
0.00000001
 40
0.0
 40
0.0
 40
0.0
 40
0.0
 40
0.3091453350587609
 40
0.6182115978828499
 40
0.9349055397544634
 40
1.0
 40
1.0
 40
1.0
 40
1.0
 10
116.885911962305
 20
123.5620845859596
 30
0.0
 10
116.9689207115158
 20
123.2301354448797
 30
0.0
 10
117.1349169782171
 20
122.5663220676413
 30
0.0
 10
117.2762512994615
 20
121.546634315786
 30
0.0
 10
117.3352722717972
 20
120.7875610675032
 30
0.0
 10
117.3121708754788
 20
120.3687676223407
 30
0.0
 10
117.3082321153805
 20
120.2973638470661
 30
0.0
  0
SPLINE
  5
1DD
330
1F
100
AcDbEntity
  8
0
  6
Continuous
 62
     7
370
    25
100
AcDbSpline
210
0.0
220
0.0
230
1.0
 70
    24
 71
     3
 72
    11
 73
     7
 74
     0
 42
0.00000001
 43
0.00000001
 40
0.0
 40
0.0
 40
0.0
 40
0.0
 40
0.2513143413296903
 40
0.5032998081395758
 40
0.8218748097706021
 40
1.0
 40
1.0
 40
1.0
 40
1.0
 10
116.885911962305
 20
108.4925772965076
 30
0.0
 10
116.9504617769876
 20
108.4925772965076
 30
0.0
 10
117.0797337842008
 20
108.4925772965076
 30
0.0
 10
117.2252712476974
 20
108.4925772965076
 30
0.0
 10
117.3132693332907
 20
108.4925772965076
 30
0.0
 10
117.3088205241215
 20
108.4925772965076
 30
0.0
 10
117.3072251050084
 20
108.4925772965076
 30
0.0
  0
LINE
  5
1DE
330
1F
100
AcDbEntity
  8
0
  6
Continuous
 62
     7
370
    25
100
AcDbLine
 10
116.8859119623
 20
108.4925772965
 30
0.0
 11
116.8859119623
 21
109.4230700071
 31
0.0
  0
LINE
  5
1DF
330
1F
100
AcDbEntity
  8
0
  6
Continuous
 62
     7
370
    25
100
AcDbLine
 10
116.8859119623
 20
123.562084586
 30
0.0
 11
116.8859119623
 21
124.4925772965
 31
0.0
  0
SPLINE
  5
1E0
330
1F
100
AcDbEntity
  8
0
  6
Continuous
 62
     7
370
    25
100
AcDbSpline
210
0.0
220
0.0
230
1.0
 70
    24
 71
     3
 72
    11
 73
     7
 74
     0
 42
0.00000001
 43
0.00000001
 40
0.0
 40
0.0
 40
0.0
 40
0.0
 40
0.1699014571529352
 40
0.4966925879501173
 40
0.7479810017328705
 40
1.0
 40
1.0
 40
1.0
 40
1.0
 10
117.3064360174826
 20
124.4925772965075
 30
0.0
 10
117.3085483410714
 20
124.4925772965075
 30
0.0
 10
117.3147235410225
 20
124.4925772965075
 30
0.0
 10
117.2266419542181
 20
124.4925772965075
 30
0.0
 10
117.0799224431906
 20
124.4925772965074
 30
0.0
 10
116.9506446743859
 20
124.4925772965074
 30
0.0
 10
116.885911962305
 20
124.4925772965074
 30
0.0
  0
LINE
  5
1E1
330
1F
100
AcDbEntity
  8
0
  6
Continuous
 62
     7
370
    25
100
AcDbLine
 10
99.9632622315
 20
110.0925772965
 30
0.0
 11
99.9632622315
 21
112.9925772965
 31
0.0
  0
LINE
  5
1E2
330
1F
100
AcDbEntity
  8
0
  6
Continuous
 62
     7
370
    25
100
AcDbLine
 10
99.9632622315
 20
119.9925772965
 30
0.0
 11
99.9632622315
 21
122.8925772965
 31
0.0
  0
LINE
  5
1E3
330
1F
100
AcDbEntity
  8
0
  6
Continuous
 62
     7
370
    25
100
AcDbLine
 10
116.8859119623
 20
124.4925772965
 30
0.0
 11
106.8880501901
 21
124.4925772965
 31
0.0
  0
LINE
  5
1E4
330
1F
100
AcDbEntity
  8
0
  6
Continuous
 62
     7
370
    25
100
AcDbLine
 10
106.8880501901
 20
108.4925772965
 30
0.0
 11
116.8859119623
 21
108.4925772965
 31
0.0
  0
SPLINE
  5
1E5
330
1F
100
AcDbEntity
  8
0
  6
Continuous
 62
     7
370
    25
100
AcDbSpline
210
0.0
220
0.0
230
1.0
 70
    24
 71
     3
 72
    11
 73
     7
 74
     0
 42
0.00000001
 43
0.00000001
 40
0.0
 40
0.0
 40
0.0
 40
0.0
 40
0.3069006645077679
 40
0.6152812132482595
 40
0.9004212768896063
 40
1.0
 40
1.0
 40
1.0
 40
1.0
 10
122.7415743950077
 20
107.9925772965076
 30
0.0
 10
122.8444708557291
 20
107.9925772965076
 30
0.0
 10
123.0507599469993
 20
107.9925772965076
 30
0.0
 10
123.2356392642331
 20
107.9925772965075
 30
0.0
 10
123.3220197100654
 20
107.9925772965075
 30
0.0
 10
123.3101787788256
 20
107.9925772965075
 30
0.0
 10
123.307113930282
 20
107.9925772965075
 30
0.0
  0
LINE
  5
1E6
330
1F
100
AcDbEntity
  8
0
  6
Continuous
 62
     7
370
    25
100
AcDbLine
 10
122.741574395
 20
107.9925772965
 30
0.0
 11
122.741574395
 21
108.5683426823
 31
0.0
  0
SPLINE
  5
1E7
330
1F
100
AcDbEntity
  8
0
  6
Continuous
 62
     7
370
    25
100
AcDbSpline
210
0.0
220
0.0
230
1.0
 70
     8
 71
     3
 72
    10
 73
     6
 74
     0
 42
0.00000001
 43
0.00000001
 40
0.0
 40
0.0
 40
0.0
 40
0.0
 40
0.1092991982330665
 40
0.5524068169408792
 40
1.0
 40
1.0
 40
1.0
 40
1.0
 10
123.2991971786222
 20
111.8502708283293
 30
0.0
 10
123.2983270083995
 20
111.7291370187342
 30
0.0
 10
123.2939290990763
 20
111.1169171373072
 30
0.0
 10
123.1265212550829
 20
110.0130921855047
 30
0.0
 10
122.8703200909185
 20
109.0515399739442
 30
0.0
 10
122.7415743950077
 20
108.5683426823328
 30
0.0
  0
SPLINE
  5
1E8
330
1F
100
AcDbEntity
  8
0
  6
Continuous
 62
     7
370
    25
100
AcDbSpline
210
0.0
220
0.0
230
1.0
 70
     8
 71
     3
 72
    10
 73
     6
 74
     0
 42
0.00000001
 43
0.00000001
 40
0.0
 40
0.0
 40
0.0
 40
0.0
 40
0.3318368326242598
 40
0.663582881167698
 40
0.9999999999999999
 40
0.9999999999999999
 40
0.9999999999999999
 40
0.9999999999999999
 10
122.7415743950077
 20
124.4168119106823
 30
0.0
 10
122.8406065054172
 20
124.0584481986795
 30
0.0
 10
123.0386436329836
 20
123.341818815991
 30
0.0
 10
123.2399848668049
 20
122.2431919956434
 30
0.0
 10
123.2872840097769
 20
121.5020943287353
 30
0.0
 10
123.3110989133496
 20
121.1289550207818
 30
0.0
  0
LINE
  5
1E9
330
1F
100
AcDbEntity
  8
0
  6
Continuous
 62
     7
370
    25
100
AcDbLine
 10
122.741574395
 20
124.4168119107
 30
0.0
 11
122.741574395
 21
124.9925772965
 31
0.0
  0
SPLINE
  5
1EA
330
1F
100
AcDbEntity
  8
0
  6
Continuous
 62
     7
370
    25
100
AcDbSpline
210
0.0
220
0.0
230
1.0
 70
    24
 71
     3
 72
    11
 73
     7
 74
     0
 42
0.00000001
 43
0.00000001
 40
0.0
 40
0.0
 40
0.0
 40
0.0
 40
0.0921969458703319
 40
0.3847109544559704
 40
0.6915213050714433
 40
0.9999999999999999
 40
0.9999999999999999
 40
0.9999999999999999
 40
0.9999999999999999
 10
123.307078694584
 20
124.9925772965075
 30
0.0
 10
123.3102775261047
 20
124.9925772965075
 30
0.0
 10
123.323625316705
 20
124.9925772965075
 30
0.0
 10
123.2370238243777
 20
124.9925772965075
 30
0.0
 10
123.0512758337059
 20
124.9925772965075
 30
0.0
 10
122.844994650383
 20
124.9925772965075
 30
0.0
 10
122.7415743950077
 20
124.9925772965075
 30
0.0
  0
LINE
  5
1EB
330
1F
100
AcDbEntity
  8
0
  6
Continuous
 62
     7
370
    25
100
AcDbLine
 10
117.4632622315
 20
108.2425772965
 30
0.0
 11
117.4632622315
 21
112.698558315
 31
0.0
  0
LINE
  5
1EC
330
1F
100
AcDbEntity
  8
0
  6
Continuous
 62
     7
370
    25
100
AcDbLine
 10
117.4632622315
 20
120.286596278
 30
0.0
 11
117.4632622315
 21
124.7425772965
 31
0.0
  0
SPLINE
  5
1ED
330
1F
100
AcDbEntity
  8
0
  6
Continuous
 62
     7
370
    25
100
AcDbSpline
210
0.0
220
0.0
230
1.0
 70
    24
 71
     3
 72
    11
 73
     7
 74
     0
 42
0.00000001
 43
0.00000001
 40
0.0
 40
0.0
 40
0.0
 40
0.0
 40
0.3031305053797863
 40
0.6076814122186762
 40
0.8923931906423693
 40
1.0
 40
1.0
 40
1.0
 40
1.0
 10
118.1849500679818
 20
124.9925772965075
 30
0.0
 10
118.0832521340188
 20
124.9925772965075
 30
0.0
 10
117.8793797324175
 20
124.9925772965075
 30
0.0
 10
117.6940108706385
 20
124.9925772965075
 30
0.0
 10
117.6057092401894
 20
124.9925772965075
 30
0.0
 10
117.6167358350466
 20
124.9925772965075
 30
0.0
 10
117.6197602563399
 20
124.9925772965075
 30
0.0
  0
LINE
  5
1EE
330
1F
100
AcDbEntity
  8
0
  6
Continuous
 62
     7
370
    25
100
AcDbLine
 10
118.184950068
 20
124.9925772965
 30
0.0
 11
118.184950068
 21
124.4168119107
 31
0.0
  0
SPLINE
  5
1EF
330
1F
100
AcDbEntity
  8
0
  6
Continuous
 62
     7
370
    25
100
AcDbSpline
210
0.0
220
0.0
230
1.0
 70
     8
 71
     3
 72
    11
 73
     7
 74
     0
 42
0.00000001
 43
0.00000001
 40
0.0
 40
0.0
 40
0.0
 40
0.0
 40
0.009900208579826
 40
0.2836138947984933
 40
0.6400030891513984
 40
1.0
 40
1.0
 40
1.0
 40
1.0
 10
117.6179380036918
 20
120.3261860837019
 30
0.0
 10
117.6167777317558
 20
120.3397893446419
 30
0.0
 10
117.583539114596
 20
120.7294855602366
 30
0.0
 10
117.6277733305534
 20
121.6134602428556
 30
0.0
 10
117.7905249987707
 20
122.9719997204685
 30
0.0
 10
118.0530343796441
 20
123.9335936533542
 30
0.0
 10
118.1849500679818
 20
124.4168119106823
 30
0.0
  0
SPLINE
  5
1F0
330
1F
100
AcDbEntity
  8
0
  6
Continuous
 62
     7
370
    25
100
AcDbSpline
210
0.0
220
0.0
230
1.0
 70
     8
 71
     3
 72
    11
 73
     7
 74
     0
 42
0.00000001
 43
0.00000001
 40
0.0
 40
0.0
 40
0.0
 40
0.0
 40
0.2670789499265425
 40
0.5340848322650654
 40
0.8074664073584168
 40
1.0
 40
1.0
 40
1.0
 40
1.0
 10
118.1849500679818
 20
108.5683426823328
 30
0.0
 10
118.085287829818
 20
108.9266985817021
 30
0.0
 10
117.8859906191337
 20
109.6433123412609
 30
0.0
 10
117.6935187625412
 20
110.7456283499741
 30
0.0
 10
117.5962877348301
 20
111.7552933386674
 30
0.0
 10
117.6185914335907
 20
112.3980909278182
 30
0.0
 10
117.6278081570395
 20
112.6637189600246
 30
0.0
  0
LINE
  5
1F1
330
1F
100
AcDbEntity
  8
0
  6
Continuous
 62
     7
370
    25
100
AcDbLine
 10
118.184950068
 20
108.5683426823
 30
0.0
 11
118.184950068
 21
107.9925772965
 31
0.0
  0
SPLINE
  5
1F2
330
1F
100
AcDbEntity
  8
0
  6
Continuous
 62
     7
370
    25
100
AcDbSpline
210
0.0
220
0.0
230
1.0
 70
    24
 71
     3
 72
    11
 73
     7
 74
     0
 42
0.00000001
 43
0.00000001
 40
0.0
 40
0.0
 40
0.0
 40
0.0
 40
0.1002367743294462
 40
0.3923107761146403
 40
0.6953555296890899
 40
1.0
 40
1.0
 40
1.0
 40
1.0
 10
117.6199075076283
 20
107.9925772965075
 30
0.0
 10
117.6166933271845
 20
107.9925772965075
 30
0.0
 10
117.6041135366547
 20
107.9925772965075
 30
0.0
 10
117.6926006621531
 20
107.9925772965075
 30
0.0
 10
117.8788843020751
 20
107.9925772965076
 30
0.0
 10
118.0827492573265
 20
107.9925772965076
 30
0.0
 10
118.1849500679818
 20
107.9925772965076
 30
0.0
  0
LINE
  5
1F3
330
1F
100
AcDbEntity
  8
0
  6
Continuous
 62
     7
370
    25
100
AcDbLine
 10
118.184950068
 20
124.4168119107
 30
0.0
 11
122.741574395
 21
124.4168119107
 31
0.0
  0
LINE
  5
1F4
330
1F
100
AcDbEntity
  8
0
  6
Continuous
 62
     7
370
    25
100
AcDbLine
 10
122.741574395
 20
108.5683426823
 30
0.0
 11
118.184950068
 21
108.5683426823
 31
0.0
  0
LINE
  5
1F5
330
1F
100
AcDbEntity
  8
0
  6
Continuous
 62
     7
370
    25
100
AcDbLine
 10
118.184950068
 20
107.9925772965
 30
0.0
 11
122.741574395
 21
107.9925772965
 31
0.0
  0
LINE
  5
1F6
330
1F
100
AcDbEntity
  8
0
  6
Continuous
 62
     7
370
    25
100
AcDbLine
 10
122.741574395
 20
124.9925772965
 30
0.0
 11
118.184950068
 21
124.9925772965
 31
0.0
  0
LINE
  5
1F7
330
1F
100
AcDbEntity
  8
0
  6
Continuous
 62
     7
370
    25
100
AcDbLine
 10
125.5812962202
 20
126.4925772965
 30
0.0
 11
125.5812962202
 21
121.5836134897
 31
0.0
  0
LINE
  5
1F8
330
1F
100
AcDbEntity
  8
0
  6
Continuous
 62
     7
370
    25
100
AcDbLine
 10
125.5812962202
 20
111.4015411033
 30
0.0
 11
125.5812962202
 21
106.4925772965
 31
0.0
  0
LINE
  5
1F9
330
1F
100
AcDbEntity
  8
0
  6
Continuous
 62
     7
370
    25
100
AcDbLine
 10
123.7132622315
 20
126.4925772965
 30
0.0
 11
123.7132622315
 21
121.1912566299
 31
0.0
  0
LINE
  5
1FA
330
1F
100
AcDbEntity
  8
0
  6
Continuous
 62
     7
370
    25
100
AcDbLine
 10
123.7132622315
 20
111.7938979631
 30
0.0
 11
123.7132622315
 21
106.4925772965
 31
0.0
  0
LINE
  5
1FB
330
1F
100
AcDbEntity
  8
0
  6
Continuous
 62
     7
370
    25
100
AcDbLine
 10
141.3452282427
 20
106.4925772965
 30
0.0
 11
141.3452282427
 21
126.4925772965
 31
0.0
  0
SPLINE
  5
1FC
330
1F
100
AcDbEntity
  8
0
  6
Continuous
 62
     7
370
    25
100
AcDbSpline
210
0.0
220
0.0
230
1.0
 70
     8
 71
     3
 72
    12
 73
     8
 74
     0
 42
0.00000001
 43
0.00000001
 40
0.0
 40
0.0
 40
0.0
 40
0.0
 40
0.25
 40
0.25
 40
0.5
 40
0.5
 40
1.0
 40
1.0
 40
1.0
 40
1.0
 10
141.1923482985968
 20
107.7301161167577
 30
0.0
 10
141.1112316964922
 20
107.6956109788976
 30
0.0
 10
141.0642017733238
 20
107.6627659075972
 30
0.0
 10
141.001338171792
 20
107.6044133793505
 30
0.0
 10
140.9858885008748
 20
107.5787590157219
 30
0.0
 10
140.9587048364955
 20
107.5156597629822
 30
0.0
 10
140.9632622314948
 20
107.4925772965075
 30
0.0
 10
140.9632622314948
 20
107.4925772965075
 30
0.0
  0
SPLINE
  5
1FD
330
1F
100
AcDbEntity
  8
0
  6
Continuous
 62
     7
370
    25
100
AcDbSpline
210
0.0
220
0.0
230
1.0
 70
     8
 71
     3
 72
    14
 73
    10
 74
     0
 42
0.00000001
 43
0.00000001
 40
0.0
 40
0.0
 40
0.0
 40
0.0
 40
0.25
 40
0.25
 40
0.5
 40
0.5
 40
0.75
 40
0.75
 40
1.0
 40
1.0
 40
1.0
 40
1.0
 10
141.1923482985968
 20
107.7301161167577
 30
0.0
 10
141.2198692863419
 20
107.7418229123033
 30
0.0
 10
141.2397892081783
 20
107.7738648653849
 30
0.0
 10
141.2554562499963
 20
107.8731886160499
 30
0.0
 10
141.250964418184
 20
107.9410120588306
 30
0.0
 10
141.2197080729005
 20
108.1034536762434
 30
0.0
 10
141.1933354895187
 20
108.1978990729792
 30
0.0
 10
141.1304989383744
 20
108.4061281805757
 30
0.0
 10
141.0944593595143
 20
108.5187265734589
 30
0.0
 10
141.0604633561487
 20
108.6384829670589
 30
0.0
  0
SPLINE
  5
1FE
330
1F
100
AcDbEntity
  8
0
  6
Continuous
 62
     7
370
    25
100
AcDbSpline
210
0.0
220
0.0
230
1.0
 70
     8
 71
     3
 72
     8
 73
     4
 74
     0
 42
0.00000001
 43
0.00000001
 40
0.0
 40
0.0
 40
0.0
 40
0.0
 40
1.0
 40
1.0
 40
1.0
 40
1.0
 10
140.9632622314948
 20
109.36867387212
 30
0.0
 10
140.9632622314948
 20
109.121244415325
 30
0.0
 10
140.9926269385726
 20
108.8774476664177
 30
0.0
 10
141.0604633561487
 20
108.6384829670589
 30
0.0
  0
LINE
  5
1FF
330
1F
100
AcDbEntity
  8
0
  6
Continuous
 62
     7
370
    25
100
AcDbLine
 10
140.9632622315
 20
109.3686738721
 30
0.0
 11
140.9632622315
 21
123.6164807209
 31
0.0
  0
SPLINE
  5
200
330
1F
100
AcDbEntity
  8
0
  6
Continuous
 62
     7
370
    25
100
AcDbSpline
210
0.0
220
0.0
230
1.0
 70
     8
 71
     3
 72
     8
 73
     4
 74
     0
 42
0.00000001
 43
0.00000001
 40
0.0
 40
0.0
 40
0.0
 40
0.0
 40
1.0
 40
1.0
 40
1.0
 40
1.0
 10
141.0604633561487
 20
124.3466716259561
 30
0.0
 10
140.9926269385726
 20
124.1077069265974
 30
0.0
 10
140.9632622314948
 20
123.86391017769
 30
0.0
 10
140.9632622314948
 20
123.616480720895
 30
0.0
  0
SPLINE
  5
201
330
1F
100
AcDbEntity
  8
0
  6
Continuous
 62
     7
370
    25
100
AcDbSpline
210
0.0
220
0.0
230
1.0
 70
     8
 71
     3
 72
    12
 73
     8
 74
     0
 42
0.00000001
 43
0.00000001
 40
0.0
 40
0.0
 40
0.0
 40
0.0
 40
0.4999999999999992
 40
0.4999999999999992
 40
0.7499999999999996
 40
0.7499999999999996
 40
1.0
 40
1.0
 40
1.0
 40
1.0
 10
141.0604633561487
 20
124.3466716259561
 30
0.0
 10
141.1283331161585
 20
124.5857537794042
 30
0.0
 10
141.2043676674122
 20
124.801523886581
 30
0.0
 10
141.2510122657892
 20
125.0446184792849
 30
0.0
 10
141.2554512623119
 20
125.1122837547611
 30
0.0
 10
141.239720648519
 20
125.2114368709177
 30
0.0
 10
141.2198402185767
 20
125.2433440454709
 30
0.0
 10
141.1923482985968
 20
125.2550384762574
 30
0.0
  0
SPLINE
  5
202
330
1F
100
AcDbEntity
  8
0
  6
Continuous
 62
     7
370
    25
100
AcDbSpline
210
0.0
220
0.0
230
1.0
 70
     8
 71
     3
 72
    12
 73
     8
 74
     0
 42
0.00000001
 43
0.00000001
 40
0.0
 40
0.0
 40
0.0
 40
0.0
 40
0.5000000000000002
 40
0.5000000000000002
 40
0.7500000000000001
 40
0.7500000000000001
 40
1.0
 40
1.0
 40
1.0
 40
1.0
 10
140.9632622314948
 20
125.4925772965075
 30
0.0
 10
140.9632622314948
 20
125.4925772965075
 30
0.0
 10
140.9587048364955
 20
125.4694948300329
 30
0.0
 10
140.9858885008748
 20
125.4063955772932
 30
0.0
 10
141.001338171792
 20
125.3807412136645
 30
0.0
 10
141.0642017733238
 20
125.3223886854179
 30
0.0
 10
141.1112316964922
 20
125.2895436141174
 30
0.0
 10
141.1923482985968
 20
125.2550384762574
 30
0.0
  0
SPLINE
  5
203
330
1F
100
AcDbEntity
  8
0
  6
Continuous
 62
     7
370
    25
100
AcDbSpline
210
0.0
220
0.0
230
1.0
 70
     8
 71
     3
 72
    12
 73
     8
 74
     0
 42
0.00000001
 43
0.00000001
 40
0.0
 40
0.0
 40
0.0
 40
0.0
 40
0.2500000000000001
 40
0.2500000000000001
 40
0.5000000000000001
 40
0.5000000000000001
 40
1.0
 40
1.0
 40
1.0
 40
1.0
 10
125.7341761643927
 20
125.2550384762574
 30
0.0
 10
125.8152927664974
 20
125.2895436141174
 30
0.0
 10
125.8623226896657
 20
125.3223886854179
 30
0.0
 10
125.9251862911975
 20
125.3807412136645
 30
0.0
 10
125.9406359621147
 20
125.4063955772932
 30
0.0
 10
125.967819626494
 20
125.4694948300329
 30
0.0
 10
125.9632622314948
 20
125.4925772965075
 30
0.0
 10
125.9632622314948
 20
125.4925772965075
 30
0.0
  0
SPLINE
  5
204
330
1F
100
AcDbEntity
  8
0
  6
Continuous
 62
     7
370
    25
100
AcDbSpline
210
0.0
220
0.0
230
1.0
 70
     8
 71
     3
 72
    14
 73
    10
 74
     0
 42
0.00000001
 43
0.00000001
 40
0.0
 40
0.0
 40
0.0
 40
0.0
 40
0.25
 40
0.25
 40
0.5
 40
0.5
 40
0.75
 40
0.75
 40
1.0
 40
1.0
 40
1.0
 40
1.0
 10
125.7341761643927
 20
125.2550384762574
 30
0.0
 10
125.7066551766476
 20
125.2433316807118
 30
0.0
 10
125.6867352548113
 20
125.2112897276302
 30
0.0
 10
125.6710682129932
 20
125.1119659769652
 30
0.0
 10
125.6755600448055
 20
125.0441425341845
 30
0.0
 10
125.7068163900891
 20
124.8817009167716
 30
0.0
 10
125.7331889734709
 20
124.7872555200359
 30
0.0
 10
125.7960255246151
 20
124.5790264124394
 30
0.0
 10
125.8320651034752
 20
124.4664280195562
 30
0.0
 10
125.8660611068408
 20
124.3466716259561
 30
0.0
  0
SPLINE
  5
205
330
1F
100
AcDbEntity
  8
0
  6
Continuous
 62
     7
370
    25
100
AcDbSpline
210
0.0
220
0.0
230
1.0
 70
     8
 71
     3
 72
     8
 73
     4
 74
     0
 42
0.00000001
 43
0.00000001
 40
0.0
 40
0.0
 40
0.0
 40
0.0
 40
1.0
 40
1.0
 40
1.0
 40
1.0
 10
125.9632622314948
 20
123.616480720895
 30
0.0
 10
125.9632622314948
 20
123.86391017769
 30
0.0
 10
125.9338975244169
 20
124.1077069265974
 30
0.0
 10
125.8660611068408
 20
124.3466716259561
 30
0.0
  0
LINE
  5
206
330
1F
100
AcDbEntity
  8
0
  6
Continuous
 62
     7
370
    25
100
AcDbLine
 10
125.9632622315
 20
123.6164807209
 30
0.0
 11
125.9632622315
 21
121.6709257631
 31
0.0
  0
LINE
  5
207
330
1F
100
AcDbEntity
  8
0
  6
Continuous
 62
     7
370
    25
100
AcDbLine
 10
125.9632622315
 20
111.31422883
 30
0.0
 11
125.9632622315
 21
109.3686738721
 31
0.0
  0
SPLINE
  5
208
330
1F
100
AcDbEntity
  8
0
  6
Continuous
 62
     7
370
    25
100
AcDbSpline
210
0.0
220
0.0
230
1.0
 70
     8
 71
     3
 72
     8
 73
     4
 74
     0
 42
0.00000001
 43
0.00000001
 40
0.0
 40
0.0
 40
0.0
 40
0.0
 40
1.0
 40
1.0
 40
1.0
 40
1.0
 10
125.8660611068408
 20
108.6384829670589
 30
0.0
 10
125.9338975244169
 20
108.8774476664177
 30
0.0
 10
125.9632622314948
 20
109.121244415325
 30
0.0
 10
125.9632622314948
 20
109.36867387212
 30
0.0
  0
SPLINE
  5
209
330
1F
100
AcDbEntity
  8
0
  6
Continuous
 62
     7
370
    25
100
AcDbSpline
210
0.0
220
0.0
230
1.0
 70
     8
 71
     3
 72
    12
 73
     8
 74
     0
 42
0.00000001
 43
0.00000001
 40
0.0
 40
0.0
 40
0.0
 40
0.0
 40
0.4999999999999992
 40
0.4999999999999992
 40
0.7499999999999996
 40
0.7499999999999996
 40
1.0
 40
1.0
 40
1.0
 40
1.0
 10
125.8660611068408
 20
108.6384829670589
 30
0.0
 10
125.798191346831
 20
108.3994008136109
 30
0.0
 10
125.7221567955773
 20
108.183630706434
 30
0.0
 10
125.6755121972003
 20
107.9405361137301
 30
0.0
 10
125.6710732006777
 20
107.872870838254
 30
0.0
 10
125.6868038144705
 20
107.7737177220974
 30
0.0
 10
125.7066842444129
 20
107.7418105475442
 30
0.0
 10
125.7341761643927
 20
107.7301161167577
 30
0.0
  0
SPLINE
  5
20A
330
1F
100
AcDbEntity
  8
0
  6
Continuous
 62
     7
370
    25
100
AcDbSpline
210
0.0
220
0.0
230
1.0
 70
     8
 71
     3
 72
    12
 73
     8
 74
     0
 42
0.00000001
 43
0.00000001
 40
0.0
 40
0.0
 40
0.0
 40
0.0
 40
0.4999999999999998
 40
0.4999999999999998
 40
0.7499999999999999
 40
0.7499999999999999
 40
1.0
 40
1.0
 40
1.0
 40
1.0
 10
125.9632622314948
 20
107.4925772965075
 30
0.0
 10
125.9632622314948
 20
107.4925772965075
 30
0.0
 10
125.967819626494
 20
107.5156597629822
 30
0.0
 10
125.9406359621147
 20
107.5787590157219
 30
0.0
 10
125.9251862911975
 20
107.6044133793505
 30
0.0
 10
125.8623226896657
 20
107.6627659075972
 30
0.0
 10
125.8152927664974
 20
107.6956109788976
 30
0.0
 10
125.7341761643927
 20
107.7301161167577
 30
0.0
  0
LINE
  5
20B
330
1F
100
AcDbEntity
  8
0
  6
Continuous
 62
     7
370
    25
100
AcDbLine
 10
142.9632622315
 20
106.4925772965
 30
0.0
 11
142.9632622315
 21
126.4925772965
 31
0.0
  0
LINE
  5
20C
330
1F
100
AcDbEntity
  8
0
  6
Continuous
 62
     7
370
    25
100
AcDbLine
 10
143.4632622315
 20
125.9925772965
 30
0.0
 11
143.4632622315
 21
106.9925772965
 31
0.0
  0
LINE
  5
20D
330
1F
100
AcDbEntity
  8
0
  6
Continuous
 62
     7
370
    25
100
AcDbLine
 10
123.4632622315
 20
106.7425772965
 30
0.0
 11
123.4632622315
 21
111.8420779776
 31
0.0
  0
LINE
  5
20E
330
1F
100
AcDbEntity
  8
0
  6
Continuous
 62
     7
370
    25
100
AcDbLine
 10
123.4632622315
 20
121.1430766154
 30
0.0
 11
123.4632622315
 21
126.2425772965
 31
0.0
  0
ARC
  5
20F
330
1F
100
AcDbEntity
  8
0
  6
Continuous
 62
     7
370
    25
100
AcDbCircle
 10
140.5099443303
 20
123.6754566592
 30
0.0
 40
0.4571381420089263
100
AcDbArc
 50
264.138844256
 51
352.5875431534
  0
ARC
  5
210
330
1F
100
AcDbEntity
  8
0
  6
Continuous
 62
     7
370
    25
100
AcDbCircle
 10
140.5099443303
 20
109.3096979338
 30
0.0
 40
0.4571381420089009
100
AcDbArc
 50
7.4124568466
 51
95.861155744
  0
ARC
  5
211
330
1F
100
AcDbEntity
  8
0
  6
Continuous
 62
     7
370
    25
100
AcDbCircle
 10
126.4165801327
 20
123.6754566592
 30
0.0
 40
0.4571381420089292
100
AcDbArc
 50
187.4124568466
 51
275.861155744
  0
ARC
  5
212
330
1F
100
AcDbEntity
  8
0
  6
Continuous
 62
     7
370
    25
100
AcDbCircle
 10
126.4165801327
 20
109.3096979338
 30
0.0
 40
0.4571381420089292
100
AcDbArc
 50
84.138844256
 51
172.5875431534
  0
LINE
  5
213
330
1F
100
AcDbEntity
  8
0
  6
Continuous
 62
     7
370
    25
100
AcDbLine
 10
151.2577377739
 20
123.0159374358
 30
0.0
 11
151.2577377739
 21
109.9692171572
 31
0.0
  0
LINE
  5
214
330
1F
100
AcDbEntity
  8
0
  6
Continuous
 62
     7
370
    25
100
AcDbLine
 10
153.4632622315
 20
121.7425772965
 30
0.0
 11
153.4632622315
 21
111.2425772965
 31
0.0
  0
LINE
  5
215
330
1F
100
AcDbEntity
  8
0
  6
Continuous
 62
     7
370
    25
100
AcDbLine
 10
125.8660611068
 20
124.346671626
 30
0.0
 11
126.333660732
 21
124.4925772965
 31
0.0
  0
SPLINE
  5
216
330
1F
100
AcDbEntity
  8
0
  6
Continuous
 62
     7
370
    25
100
AcDbSpline
210
0.0
220
0.0
230
1.0
 70
     8
 71
     3
 72
     8
 73
     4
 74
     0
 42
0.00000001
 43
0.00000001
 40
0.0
 40
0.0
 40
0.0
 40
0.0
 40
1.0
 40
1.0
 40
1.0
 40
1.0
 10
126.3336607319562
 20
124.4925772965075
 30
0.0
 10
126.4226694273446
 20
124.2073215388777
 30
0.0
 10
126.4632622314948
 20
123.9149035889958
 30
0.0
 10
126.4632622314948
 20
123.616480720895
 30
0.0
  0
LINE
  5
217
330
1F
100
AcDbEntity
  8
0
  6
Continuous
 62
     7
370
    25
100
AcDbLine
 10
125.9632622315
 20
123.6164807209
 30
0.0
 11
126.4632622315
 21
123.6164807209
 31
0.0
  0
SPLINE
  5
218
330
1F
100
AcDbEntity
  8
0
  6
Continuous
 62
     7
370
    25
100
AcDbSpline
210
0.0
220
0.0
230
1.0
 70
     8
 71
     3
 72
     8
 73
     4
 74
     0
 42
0.00000001
 43
0.00000001
 40
0.0
 40
0.0
 40
0.0
 40
0.0
 40
1.0
 40
1.0
 40
1.0
 40
1.0
 10
140.4632622314948
 20
123.616480720895
 30
0.0
 10
140.4632622314948
 20
123.9149035889958
 30
0.0
 10
140.5038550356449
 20
124.2073215388777
 30
0.0
 10
140.5928637310333
 20
124.4925772965075
 30
0.0
  0
LINE
  5
219
330
1F
100
AcDbEntity
  8
0
  6
Continuous
 62
     7
370
    25
100
AcDbLine
 10
140.592863731
 20
124.4925772965
 30
0.0
 11
141.0604633561
 21
124.346671626
 31
0.0
  0
LINE
  5
21A
330
1F
100
AcDbEntity
  8
0
  6
Continuous
 62
     7
370
    25
100
AcDbLine
 10
140.4632622315
 20
123.6164807209
 30
0.0
 11
140.9632622315
 21
123.6164807209
 31
0.0
  0
SPLINE
  5
21B
330
1F
100
AcDbEntity
  8
0
  6
Continuous
 62
     7
370
    25
100
AcDbSpline
210
0.0
220
0.0
230
1.0
 70
     8
 71
     3
 72
     8
 73
     4
 74
     0
 42
0.00000001
 43
0.00000001
 40
0.0
 40
0.0
 40
0.0
 40
0.0
 40
1.0
 40
1.0
 40
1.0
 40
1.0
 10
126.4632622314948
 20
109.36867387212
 30
0.0
 10
126.4632622314948
 20
109.0702510040193
 30
0.0
 10
126.4226694273446
 20
108.7778330541373
 30
0.0
 10
126.3336607319562
 20
108.4925772965075
 30
0.0
  0
LINE
  5
21C
330
1F
100
AcDbEntity
  8
0
  6
Continuous
 62
     7
370
    25
100
AcDbLine
 10
126.333660732
 20
108.4925772965
 30
0.0
 11
125.8660611068
 21
108.6384829671
 31
0.0
  0
LINE
  5
21D
330
1F
100
AcDbEntity
  8
0
  6
Continuous
 62
     7
370
    25
100
AcDbLine
 10
125.9632622315
 20
109.3686738721
 30
0.0
 11
126.4632622315
 21
109.3686738721
 31
0.0
  0
LINE
  5
21E
330
1F
100
AcDbEntity
  8
0
  6
Continuous
 62
     7
370
    25
100
AcDbLine
 10
141.0604633561
 20
108.6384829671
 30
0.0
 11
140.592863731
 21
108.4925772965
 31
0.0
  0
SPLINE
  5
21F
330
1F
100
AcDbEntity
  8
0
  6
Continuous
 62
     7
370
    25
100
AcDbSpline
210
0.0
220
0.0
230
1.0
 70
     8
 71
     3
 72
     8
 73
     4
 74
     0
 42
0.00000001
 43
0.00000001
 40
0.0
 40
0.0
 40
0.0
 40
0.0
 40
1.0
 40
1.0
 40
1.0
 40
1.0
 10
140.5928637310333
 20
108.4925772965075
 30
0.0
 10
140.5038550356449
 20
108.7778330541373
 30
0.0
 10
140.4632622314948
 20
109.0702510040193
 30
0.0
 10
140.4632622314948
 20
109.36867387212
 30
0.0
  0
LINE
  5
220
330
1F
100
AcDbEntity
  8
0
  6
Continuous
 62
     7
370
    25
100
AcDbLine
 10
140.9632622315
 20
109.3686738721
 30
0.0
 11
140.4632622315
 21
109.3686738721
 31
0.0
  0
LINE
  5
221
330
1F
100
AcDbEntity
  8
0
  6
Continuous
 62
     7
370
    25
100
AcDbLine
 10
126.4632622315
 20
123.2207083084
 30
0.0
 11
126.4632622315
 21
123.6164807209
 31
0.0
  0
LINE
  5
222
330
1F
100
AcDbEntity
  8
0
  6
Continuous
 62
     7
370
    25
100
AcDbLine
 10
140.4632622315
 20
123.2207083084
 30
0.0
 11
140.4632622315
 21
123.6164807209
 31
0.0
  0
LINE
  5
223
330
1F
100
AcDbEntity
  8
0
  6
Continuous
 62
     7
370
    25
100
AcDbLine
 10
126.4632622315
 20
109.3686738721
 30
0.0
 11
126.4632622315
 21
109.7644462846
 31
0.0
  0
LINE
  5
224
330
1F
100
AcDbEntity
  8
0
  6
Continuous
 62
     7
370
    25
100
AcDbLine
 10
140.4632622315
 20
109.3686738721
 30
0.0
 11
140.4632622315
 21
109.7644462846
 31
0.0
  0
ARC
  5
225
330
1F
100
AcDbEntity
  8
0
  6
Continuous
 62
     7
370
    25
100
AcDbCircle
 10
126.161643955
 20
125.471886114
 30
0.0
 40
0.4793241179195131
100
AcDbArc
 50
206.8979585986
 51
269.5422002632
  0
SPLINE
  5
226
330
1F
100
AcDbEntity
  8
0
  6
Continuous
 62
     7
370
    25
100
AcDbSpline
210
0.0
220
0.0
230
1.0
 70
     8
 71
     3
 72
    14
 73
    10
 74
     0
 42
0.00000001
 43
0.00000001
 40
0.0
 40
0.0
 40
0.0
 40
0.0
 40
0.25
 40
0.25
 40
0.5
 40
0.5
 40
0.75
 40
0.75
 40
1.0
 40
1.0
 40
1.0
 40
1.0
 10
126.3336607319562
 20
124.4925772965075
 30
0.0
 10
126.2951852483346
 20
124.554230560735
 30
0.0
 10
126.2540963268646
 20
124.6124145060079
 30
0.0
 10
126.174813479424
 20
124.7260798274749
 30
0.0
 10
126.1375305783136
 20
124.7797564261746
 30
0.0
 10
126.0847248190018
 20
124.8797464586213
 30
0.0
 10
126.0727555589082
 20
124.9241509588442
 30
0.0
 10
126.0927573472803
 20
124.980210814338
 30
0.0
 10
126.1222138028326
 20
124.9925772965075
 30
0.0
 10
126.1578141420254
 20
124.9925772965075
 30
0.0
  0
ARC
  5
227
330
1F
100
AcDbEntity
  8
0
  6
Continuous
 62
     7
370
    25
100
AcDbCircle
 10
140.764880508
 20
107.513268479
 30
0.0
 40
0.4793241179194606
100
AcDbArc
 50
26.8979585986
 51
89.5422002632
  0
SPLINE
  5
228
330
1F
100
AcDbEntity
  8
0
  6
Continuous
 62
     7
370
    25
100
AcDbSpline
210
0.0
220
0.0
230
1.0
 70
     8
 71
     3
 72
    14
 73
    10
 74
     0
 42
0.00000001
 43
0.00000001
 40
0.0
 40
0.0
 40
0.0
 40
0.0
 40
0.25
 40
0.25
 40
0.5
 40
0.5
 40
0.75
 40
0.75
 40
1.0
 40
1.0
 40
1.0
 40
1.0
 10
140.5928637310333
 20
108.4925772965075
 30
0.0
 10
140.6313392146549
 20
108.43092403228
 30
0.0
 10
140.6724281361249
 20
108.3727400870071
 30
0.0
 10
140.7517109835655
 20
108.2590747655402
 30
0.0
 10
140.7889938846759
 20
108.2053981668404
 30
0.0
 10
140.8417996439877
 20
108.1054081343938
 30
0.0
 10
140.8537689040814
 20
108.0610036341708
 30
0.0
 10
140.8337671157092
 20
108.004943778677
 30
0.0
 10
140.8043106601569
 20
107.9925772965075
 30
0.0
 10
140.7687103209641
 20
107.9925772965075
 30
0.0
  0
SPLINE
  5
229
330
1F
100
AcDbEntity
  8
0
  6
Continuous
 62
     7
370
    25
100
AcDbSpline
210
0.0
220
0.0
230
1.0
 70
     8
 71
     3
 72
    16
 73
    12
 74
     0
 42
0.00000001
 43
0.00000001
 40
0.0
 40
0.0
 40
0.0
 40
0.0
 40
0.2500000000000011
 40
0.2500000000000011
 40
0.3749999999999992
 40
0.3749999999999992
 40
0.4999999999999974
 40
0.4999999999999974
 40
0.7499999999999987
 40
0.7499999999999987
 40
1.0
 40
1.0
 40
1.0
 40
1.0
 10
140.7687103209641
 20
124.9925772965075
 30
0.0
 10
140.8042642504128
 20
124.9925772965075
 30
0.0
 10
140.8335363916415
 20
124.9804455460917
 30
0.0
 10
140.8487489418624
 20
124.9384238398123
 30
0.0
 10
140.8488096100359
 20
124.9202094703058
 30
0.0
 10
140.8385990255586
 20
124.8782724577792
 30
0.0
 10
140.8288156960333
 20
124.8552448942849
 30
0.0
 10
140.7896511475014
 20
124.7808362155129
 30
0.0
 10
140.7517780742282
 20
124.7261783393304
 30
0.0
 10
140.6727051012365
 20
124.6128092661517
 30
0.0
 10
140.6313179686458
 20
124.5541965160475
 30
0.0
 10
140.5928637310333
 20
124.4925772965075
 30
0.0
  0
ARC
  5
22A
330
1F
100
AcDbEntity
  8
0
  6
Continuous
 62
     7
370
    25
100
AcDbCircle
 10
140.764880508
 20
125.471886114
 30
0.0
 40
0.4793241179195416
100
AcDbArc
 50
270.4577997368
 51
333.1020414014
  0
SPLINE
  5
22B
330
1F
100
AcDbEntity
  8
0
  6
Continuous
 62
     7
370
    25
100
AcDbSpline
210
0.0
220
0.0
230
1.0
 70
     8
 71
     3
 72
    16
 73
    12
 74
     0
 42
0.00000001
 43
0.00000001
 40
0.0
 40
0.0
 40
0.0
 40
0.0
 40
0.2500000000000049
 40
0.2500000000000049
 40
0.3750000000000051
 40
0.3750000000000051
 40
0.5000000000000052
 40
0.5000000000000052
 40
0.7500000000000026
 40
0.7500000000000026
 40
1.0
 40
1.0
 40
1.0
 40
1.0
 10
126.1578141420254
 20
107.9925772965075
 30
0.0
 10
126.1222602125767
 20
107.9925772965075
 30
0.0
 10
126.092988071348
 20
108.0047090469233
 30
0.0
 10
126.0777755211272
 20
108.0467307532028
 30
0.0
 10
126.0777148529536
 20
108.0649451227093
 30
0.0
 10
126.0879254374309
 20
108.1068821352359
 30
0.0
 10
126.0977087669562
 20
108.1299096987301
 30
0.0
 10
126.1368733154881
 20
108.2043183775022
 30
0.0
 10
126.1747463887614
 20
108.2589762536847
 30
0.0
 10
126.253819361753
 20
108.3723453268634
 30
0.0
 10
126.2952064943438
 20
108.4309580769676
 30
0.0
 10
126.3336607319562
 20
108.4925772965075
 30
0.0
  0
ARC
  5
22C
330
1F
100
AcDbEntity
  8
0
  6
Continuous
 62
     7
370
    25
100
AcDbCircle
 10
126.161643955
 20
107.513268479
 30
0.0
 40
0.4793241179194989
100
AcDbArc
 50
90.4577997368
 51
153.1020414014
  0
LINE
  5
22D
330
1F
100
AcDbEntity
  8
0
  6
Continuous
 62
     7
370
    25
100
AcDbLine
 10
140.592863731
 20
124.4925772965
 30
0.0
 11
126.333660732
 21
124.4925772965
 31
0.0
  0
LINE
  5
22E
330
1F
100
AcDbEntity
  8
0
  6
Continuous
 62
     7
370
    25
100
AcDbLine
 10
126.157814142
 20
124.9925772965
 30
0.0
 11
140.768710321
 21
124.9925772965
 31
0.0
  0
LINE
  5
22F
330
1F
100
AcDbEntity
  8
0
  6
Continuous
 62
     7
370
    25
100
AcDbLine
 10
126.333660732
 20
108.4925772965
 30
0.0
 11
140.592863731
 21
108.4925772965
 31
0.0
  0
LINE
  5
230
330
1F
100
AcDbEntity
  8
0
  6
Continuous
 62
     7
370
    25
100
AcDbLine
 10
140.768710321
 20
107.9925772965
 30
0.0
 11
126.157814142
 21
107.9925772965
 31
0.0
  0
ARC
  5
231
330
1F
100
AcDbEntity
  8
0
  6
Continuous
 62
     7
370
    25
100
AcDbCircle
 10
140.4632622315
 20
125.4925772965
 30
0.0
 40
0.5
100
AcDbArc
 50
270.0
 51
0.0
  0
ARC
  5
232
330
1F
100
AcDbEntity
  8
0
  6
Continuous
 62
     7
370
    25
100
AcDbCircle
 10
126.4632622315
 20
125.4925772965
 30
0.0
 40
0.5
100
AcDbArc
 50
180.0
 51
270.0
  0
ARC
  5
233
330
1F
100
AcDbEntity
  8
0
  6
Continuous
 62
     7
370
    25
100
AcDbCircle
 10
140.4632622315
 20
107.4925772965
 30
0.0
 40
0.5
100
AcDbArc
 50
0.0
 51
90.0
  0
ARC
  5
234
330
1F
100
AcDbEntity
  8
0
  6
Continuous
 62
     7
370
    25
100
AcDbCircle
 10
126.4632622315
 20
107.4925772965
 30
0.0
 40
0.5
100
AcDbArc
 50
90.0
 51
180.0
  0
SPLINE
  5
235
330
1F
100
AcDbEntity
  8
0
  6
Continuous
 62
     7
370
    25
100
AcDbSpline
210
0.0
220
0.0
230
1.0
 70
     8
 71
     3
 72
    15
 73
    11
 74
     0
 42
0.00000001
 43
0.00000001
 40
0.0
 40
0.0
 40
0.0
 40
0.0
 40
0.0090459071881971
 40
0.1032433785236877
 40
0.1542564497735194
 40
0.3133169026715102
 40
0.5243720399414429
 40
0.6678060008509186
 40
0.9918332554187028
 40
1.0
 40
1.0
 40
1.0
 40
1.0
 10
128.2241768988366
 20
118.1664903399858
 30
0.0
 10
128.2241825908033
 20
118.1664726942613
 30
0.0
 10
128.2242475547541
 20
118.1662712988488
 30
0.0
 10
128.22624324119
 20
118.1600816781826
 30
0.0
 10
128.2340602374065
 20
118.1358797463384
 30
0.0
 10
128.2512300611614
 20
118.0828607543368
 30
0.0
 10
128.277813957729
 20
118.0014898671402
 30
0.0
 10
128.3156432562176
 20
117.8869107951177
 30
0.0
 10
128.3439240362279
 20
117.8024856173986
 30
0.0
 10
128.3637551837591
 20
117.7440147594466
 30
0.0
 10
128.364242717902
 20
117.7425772965075
 30
0.0
  0
ARC
  5
236
330
1F
100
AcDbEntity
  8
0
  6
Continuous
 62
     7
370
    25
100
AcDbCircle
 10
133.4632622315
 20
116.4925772965
 30
0.0
 40
5.50000000000002
100
AcDbArc
 50
17.7189318734
 51
162.2810681266
  0
SPLINE
  5
237
330
1F
100
AcDbEntity
  8
0
  6
Continuous
 62
     7
370
    25
100
AcDbSpline
210
0.0
220
0.0
230
1.0
 70
     8
 71
     3
 72
    15
 73
    11
 74
     0
 42
0.00000001
 43
0.00000001
 40
0.0
 40
0.0
 40
0.0
 40
0.0
 40
0.0081667445812973
 40
0.3321939991490809
 40
0.4756279600585568
 40
0.6866830973284903
 40
0.8457435502264812
 40
0.8967566214763185
 40
0.9909540928118028
 40
1.0
 40
1.0
 40
1.0
 40
1.0
 10
138.5622817450875
 20
117.7425772965075
 30
0.0
 10
138.5627692792304
 20
117.7440147594466
 30
0.0
 10
138.5826004267617
 20
117.8024856173986
 30
0.0
 10
138.6108812067719
 20
117.8869107951177
 30
0.0
 10
138.6487105052606
 20
118.0014898671402
 30
0.0
 10
138.6752944018281
 20
118.0828607543368
 30
0.0
 10
138.6924642255831
 20
118.1358797463384
 30
0.0
 10
138.7002812217995
 20
118.1600816781826
 30
0.0
 10
138.7022769082354
 20
118.1662712988488
 30
0.0
 10
138.7023418721862
 20
118.1664726942613
 30
0.0
 10
138.7023475641529
 20
118.1664903399858
 30
0.0
  0
ARC
  5
238
330
1F
100
AcDbEntity
  8
0
  6
Continuous
 62
     7
370
    25
100
AcDbCircle
 10
133.4632622315
 20
116.4925772965
 30
0.0
 40
5.250000000000009
100
AcDbArc
 50
13.774146998
 51
166.225853002
  0
SPLINE
  5
239
330
1F
100
AcDbEntity
  8
0
  6
Continuous
 62
     7
370
    25
100
AcDbSpline
210
0.0
220
0.0
230
1.0
 70
     8
 71
     3
 72
    15
 73
    11
 74
     0
 42
0.00000001
 43
0.00000001
 40
0.0
 40
0.0
 40
0.0
 40
0.0
 40
0.0089557228015919
 40
0.0999003359608152
 40
0.1531632460581694
 40
0.3125636920784852
 40
0.5249666935695046
 40
0.6689893599351767
 40
0.9919152533810449
 40
1.0
 40
1.0
 40
1.0
 40
1.0
 10
138.9404878065464
 20
117.9925772965075
 30
0.0
 10
138.9404720509678
 20
117.9925665121444
 30
0.0
 10
138.9402962988113
 20
117.9924462134789
 30
0.0
 10
138.9348672827917
 20
117.9887277625608
 30
0.0
 10
138.9133317990844
 20
117.9740167214945
 30
0.0
 10
138.8656263708196
 20
117.9415678600359
 30
0.0
 10
138.7932354258277
 20
117.8929838196925
 30
0.0
 10
138.69131631381
 20
117.8256133474242
 30
0.0
 10
138.6159612223549
 20
117.7767997826903
 30
0.0
 10
138.5635615766317
 20
117.7433932324958
 30
0.0
 10
138.5622817450875
 20
117.7425772965075
 30
0.0
  0
ARC
  5
23A
330
1F
100
AcDbEntity
  8
0
  6
Continuous
 62
     7
370
    25
100
AcDbCircle
 10
138.9404878065
 20
118.2425772965
 30
0.0
 40
0.25
100
AcDbArc
 50
197.7189318734
 51
270.0
  0
SPLINE
  5
23B
330
1F
100
AcDbEntity
  8
0
  6
Continuous
 62
     7
370
    25
100
AcDbSpline
210
0.0
220
0.0
230
1.0
 70
     8
 71
     3
 72
    15
 73
    11
 74
     0
 42
0.00000001
 43
0.00000001
 40
0.0
 40
0.0
 40
0.0
 40
0.0
 40
0.0080847466189582
 40
0.3310106400648248
 40
0.475033306430495
 40
0.6874363079215143
 40
0.8468367539418303
 40
0.9000996640391847
 40
0.991044277198408
 40
1.0
 40
1.0
 40
1.0
 40
1.0
 10
128.364242717902
 20
117.7425772965075
 30
0.0
 10
128.3629628863578
 20
117.7433932324958
 30
0.0
 10
128.3105632406347
 20
117.7767997826903
 30
0.0
 10
128.2352081491795
 20
117.8256133474241
 30
0.0
 10
128.1332890371618
 20
117.8929838196925
 30
0.0
 10
128.0608980921699
 20
117.9415678600359
 30
0.0
 10
128.0131926639051
 20
117.9740167214945
 30
0.0
 10
127.9916571801978
 20
117.9887277625608
 30
0.0
 10
127.9862281641783
 20
117.9924462134789
 30
0.0
 10
127.9860524120217
 20
117.9925665121444
 30
0.0
 10
127.9860366564431
 20
117.9925772965075
 30
0.0
  0
ARC
  5
23C
330
1F
100
AcDbEntity
  8
0
  6
Continuous
 62
     7
370
    25
100
AcDbCircle
 10
127.9860366564
 20
118.2425772965
 30
0.0
 40
0.2500000000000077
100
AcDbArc
 50
270.0
 51
342.2810681266
  0
SPLINE
  5
23D
330
1F
100
AcDbEntity
  8
0
  6
Continuous
 62
     7
370
    25
100
AcDbSpline
210
0.0
220
0.0
230
1.0
 70
     8
 71
     3
 72
    15
 73
    11
 74
     0
 42
0.00000001
 43
0.00000001
 40
0.0
 40
0.0
 40
0.0
 40
0.0
 40
0.0081667445812695
 40
0.3321939991490077
 40
0.4756279600585576
 40
0.68668309732849
 40
0.8457435502264812
 40
0.8967566214763186
 40
0.9909540928118028
 40
1.0
 40
1.0
 40
1.0
 40
1.0
 10
128.364242717902
 20
115.2425772965075
 30
0.0
 10
128.3637551837591
 20
115.2411398335685
 30
0.0
 10
128.343924036227
 20
115.1826689756168
 30
0.0
 10
128.3156432562178
 20
115.0982437978973
 30
0.0
 10
128.2778139577289
 20
114.9836647258749
 30
0.0
 10
128.2512300611614
 20
114.9022938386783
 30
0.0
 10
128.2340602374065
 20
114.8492748466766
 30
0.0
 10
128.22624324119
 20
114.8250729148325
 30
0.0
 10
128.2242475547541
 20
114.8188832941663
 30
0.0
 10
128.2241825908033
 20
114.8186818987537
 30
0.0
 10
128.2241768988366
 20
114.8186642530293
 30
0.0
  0
ARC
  5
23E
330
1F
100
AcDbEntity
  8
0
  6
Continuous
 62
     7
370
    25
100
AcDbCircle
 10
133.4632622315
 20
116.4925772965
 30
0.0
 40
5.250000000000012
100
AcDbArc
 50
193.774146998
 51
346.225853002
  0
SPLINE
  5
23F
330
1F
100
AcDbEntity
  8
0
  6
Continuous
 62
     7
370
    25
100
AcDbSpline
210
0.0
220
0.0
230
1.0
 70
     8
 71
     3
 72
    15
 73
    11
 74
     0
 42
0.00000001
 43
0.00000001
 40
0.0
 40
0.0
 40
0.0
 40
0.0
 40
0.0090459071881971
 40
0.1032433785236875
 40
0.1542564497735192
 40
0.3133169026715104
 40
0.5243720399414423
 40
0.6678060008509901
 40
0.9918332554187292
 40
1.0
 40
1.0
 40
1.0
 40
1.0
 10
138.7023475641529
 20
114.8186642530293
 30
0.0
 10
138.7023418721862
 20
114.8186818987537
 30
0.0
 10
138.7022769082354
 20
114.8188832941663
 30
0.0
 10
138.7002812217995
 20
114.8250729148325
 30
0.0
 10
138.6924642255831
 20
114.8492748466766
 30
0.0
 10
138.6752944018281
 20
114.9022938386783
 30
0.0
 10
138.6487105052606
 20
114.9836647258749
 30
0.0
 10
138.6108812067718
 20
115.0982437978973
 30
0.0
 10
138.5826004267626
 20
115.1826689756168
 30
0.0
 10
138.5627692792305
 20
115.2411398335685
 30
0.0
 10
138.5622817450875
 20
115.2425772965075
 30
0.0
  0
ARC
  5
240
330
1F
100
AcDbEntity
  8
0
  6
Continuous
 62
     7
370
    25
100
AcDbCircle
 10
133.4632622315
 20
116.4925772965
 30
0.0
 40
5.500000000000025
100
AcDbArc
 50
197.7189318734
 51
342.2810681266
  0
ARC
  5
241
330
1F
100
AcDbEntity
  8
0
  6
Continuous
 62
     7
370
    25
100
AcDbCircle
 10
138.9404878065
 20
114.7425772965
 30
0.0
 40
0.25
100
AcDbArc
 50
90.0
 51
162.2810681266
  0
SPLINE
  5
242
330
1F
100
AcDbEntity
  8
0
  6
Continuous
 62
     7
370
    25
100
AcDbSpline
210
0.0
220
0.0
230
1.0
 70
     8
 71
     3
 72
    15
 73
    11
 74
     0
 42
0.00000001
 43
0.00000001
 40
0.0
 40
0.0
 40
0.0
 40
0.0
 40
0.0080847466189818
 40
0.3310106400647568
 40
0.4750333064304977
 40
0.6874363079215144
 40
0.846836753941831
 40
0.9000996640391853
 40
0.991044277198408
 40
1.0
 40
1.0
 40
1.0
 40
1.0
 10
138.5622817450875
 20
115.2425772965075
 30
0.0
 10
138.5635615766317
 20
115.2417613605193
 30
0.0
 10
138.6159612223555
 20
115.2083548103256
 30
0.0
 10
138.6913163138099
 20
115.1595412455907
 30
0.0
 10
138.7932354258277
 20
115.0921707733226
 30
0.0
 10
138.8656263708196
 20
115.0435867329791
 30
0.0
 10
138.9133317990844
 20
115.0111378715206
 30
0.0
 10
138.9348672827917
 20
114.9964268304543
 30
0.0
 10
138.9402962988113
 20
114.9927083795362
 30
0.0
 10
138.9404720509678
 20
114.9925880808707
 30
0.0
 10
138.9404878065464
 20
114.9925772965075
 30
0.0
  0
ARC
  5
243
330
1F
100
AcDbEntity
  8
0
  6
Continuous
 62
     7
370
    25
100
AcDbCircle
 10
127.9860366564
 20
114.7425772965
 30
0.0
 40
0.2500000000000077
100
AcDbArc
 50
17.7189318734
 51
90.0
  0
SPLINE
  5
244
330
1F
100
AcDbEntity
  8
0
  6
Continuous
 62
     7
370
    25
100
AcDbSpline
210
0.0
220
0.0
230
1.0
 70
     8
 71
     3
 72
    15
 73
    11
 74
     0
 42
0.00000001
 43
0.00000001
 40
0.0
 40
0.0
 40
0.0
 40
0.0
 40
0.0089557228015919
 40
0.0999003359608148
 40
0.153163246058169
 40
0.3125636920784848
 40
0.5249666935694998
 40
0.6689893599352452
 40
0.9919152533810159
 40
1.0
 40
1.0
 40
1.0
 40
1.0
 10
127.9860366564431
 20
114.9925772965075
 30
0.0
 10
127.9860524120217
 20
114.9925880808707
 30
0.0
 10
127.9862281641783
 20
114.9927083795362
 30
0.0
 10
127.9916571801978
 20
114.9964268304543
 30
0.0
 10
128.0131926639051
 20
115.0111378715206
 30
0.0
 10
128.0608980921699
 20
115.0435867329791
 30
0.0
 10
128.1332890371618
 20
115.0921707733226
 30
0.0
 10
128.2352081491796
 20
115.1595412455908
 30
0.0
 10
128.3105632406341
 20
115.2083548103255
 30
0.0
 10
128.3629628863578
 20
115.2417613605192
 30
0.0
 10
128.364242717902
 20
115.2425772965075
 30
0.0
  0
LINE
  5
245
330
1F
100
AcDbEntity
  8
0
  6
Continuous
 62
     7
370
    25
100
AcDbLine
 10
128.4632622315
 20
115.8925772965
 30
0.0
 11
138.4632622315
 21
115.8925772965
 31
0.0
  0
LINE
  5
246
330
1F
100
AcDbEntity
  8
0
  6
Continuous
 62
     7
370
    25
100
AcDbLine
 10
128.4632622315
 20
117.0925772965
 30
0.0
 11
128.4632622315
 21
115.8925772965
 31
0.0
  0
LINE
  5
247
330
1F
100
AcDbEntity
  8
0
  6
Continuous
 62
     7
370
    25
100
AcDbLine
 10
138.4632622315
 20
117.0925772965
 30
0.0
 11
128.4632622315
 21
117.0925772965
 31
0.0
  0
LINE
  5
248
330
1F
100
AcDbEntity
  8
0
  6
Continuous
 62
     7
370
    25
100
AcDbLine
 10
138.4632622315
 20
115.8925772965
 30
0.0
 11
138.4632622315
 21
117.0925772965
 31
0.0
  0
LINE
  5
249
330
1F
100
AcDbEntity
  8
0
  6
Continuous
 62
     7
370
    25
100
AcDbLine
 10
127.7132622315
 20
115.2425772965
 30
0.0
 11
128.3642427179
 21
115.2425772965
 31
0.0
  0
LINE
  5
24A
330
1F
100
AcDbEntity
  8
0
  6
Continuous
 62
     7
370
    25
100
AcDbLine
 10
127.7132622315
 20
117.7425772965
 30
0.0
 11
127.7132622315
 21
115.2425772965
 31
0.0
  0
LINE
  5
24B
330
1F
100
AcDbEntity
  8
0
  6
Continuous
 62
     7
370
    25
100
AcDbLine
 10
128.3642427179
 20
117.7425772965
 30
0.0
 11
127.7132622315
 21
117.7425772965
 31
0.0
  0
LINE
  5
24C
330
1F
100
AcDbEntity
  8
0
  6
Continuous
 62
     7
370
    25
100
AcDbLine
 10
139.2132622315
 20
117.7425772965
 30
0.0
 11
138.5622817451
 21
117.7425772965
 31
0.0
  0
LINE
  5
24D
330
1F
100
AcDbEntity
  8
0
  6
Continuous
 62
     7
370
    25
100
AcDbLine
 10
139.2132622315
 20
115.2425772965
 30
0.0
 11
139.2132622315
 21
117.7425772965
 31
0.0
  0
LINE
  5
24E
330
1F
100
AcDbEntity
  8
0
  6
Continuous
 62
     7
370
    25
100
AcDbLine
 10
138.5622817451
 20
115.2425772965
 30
0.0
 11
139.2132622315
 21
115.2425772965
 31
0.0
  0
LINE
  5
24F
330
1F
100
AcDbEntity
  8
0
  6
Continuous
 62
     7
370
    25
100
AcDbLine
 10
138.9404878065
 20
117.9925772965
 30
0.0
 11
139.2132622315
 21
117.9925772965
 31
0.0
  0
LINE
  5
250
330
1F
100
AcDbEntity
  8
0
  6
Continuous
 62
     7
370
    25
100
AcDbLine
 10
139.2132622315
 20
117.7425772965
 30
0.0
 11
139.2132622315
 21
117.9925772965
 31
0.0
  0
LINE
  5
251
330
1F
100
AcDbEntity
  8
0
  6
Continuous
 62
     7
370
    25
100
AcDbLine
 10
127.7132622315
 20
117.9925772965
 30
0.0
 11
127.7132622315
 21
117.7425772965
 31
0.0
  0
LINE
  5
252
330
1F
100
AcDbEntity
  8
0
  6
Continuous
 62
     7
370
    25
100
AcDbLine
 10
127.7132622315
 20
117.9925772965
 30
0.0
 11
127.9860366564
 21
117.9925772965
 31
0.0
  0
ARC
  5
253
330
1F
100
AcDbEntity
  8
0
  6
Continuous
 62
     7
370
    25
100
AcDbCircle
 10
127.7132622315
 20
117.7425772965
 30
0.0
 40
0.25
100
AcDbArc
 50
90.0
 51
180.0
  0
LINE
  5
254
330
1F
100
AcDbEntity
  8
0
  6
Continuous
 62
     7
370
    25
100
AcDbLine
 10
127.7132622315
 20
117.7425772965
 30
0.0
 11
127.4632622315
 21
117.7425772965
 31
0.0
  0
LINE
  5
255
330
1F
100
AcDbEntity
  8
0
  6
Continuous
 62
     7
370
    25
100
AcDbLine
 10
139.4632622315
 20
117.7425772965
 30
0.0
 11
139.2132622315
 21
117.7425772965
 31
0.0
  0
ARC
  5
256
330
1F
100
AcDbEntity
  8
0
  6
Continuous
 62
     7
370
    25
100
AcDbCircle
 10
139.2132622315
 20
117.7425772965
 30
0.0
 40
0.25
100
AcDbArc
 50
0.0
 51
90.0
  0
LINE
  5
257
330
1F
100
AcDbEntity
  8
0
  6
Continuous
 62
     7
370
    25
100
AcDbLine
 10
139.4632622315
 20
117.7425772965
 30
0.0
 11
139.4632622315
 21
115.2425772965
 31
0.0
  0
LINE
  5
258
330
1F
100
AcDbEntity
  8
0
  6
Continuous
 62
     7
370
    25
100
AcDbLine
 10
139.2132622315
 20
115.2425772965
 30
0.0
 11
139.4632622315
 21
115.2425772965
 31
0.0
  0
LINE
  5
259
330
1F
100
AcDbEntity
  8
0
  6
Continuous
 62
     7
370
    25
100
AcDbLine
 10
127.4632622315
 20
115.2425772965
 30
0.0
 11
127.7132622315
 21
115.2425772965
 31
0.0
  0
LINE
  5
25A
330
1F
100
AcDbEntity
  8
0
  6
Continuous
 62
     7
370
    25
100
AcDbLine
 10
127.4632622315
 20
115.2425772965
 30
0.0
 11
127.4632622315
 21
117.7425772965
 31
0.0
  0
LINE
  5
25B
330
1F
100
AcDbEntity
  8
0
  6
Continuous
 62
     7
370
    25
100
AcDbLine
 10
127.7132622315
 20
115.2425772965
 30
0.0
 11
127.7132622315
 21
114.9925772965
 31
0.0
  0
LINE
  5
25C
330
1F
100
AcDbEntity
  8
0
  6
Continuous
 62
     7
370
    25
100
AcDbLine
 10
127.9860366564
 20
114.9925772965
 30
0.0
 11
127.7132622315
 21
114.9925772965
 31
0.0
  0
ARC
  5
25D
330
1F
100
AcDbEntity
  8
0
  6
Continuous
 62
     7
370
    25
100
AcDbCircle
 10
127.7132622315
 20
115.2425772965
 30
0.0
 40
0.25
100
AcDbArc
 50
180.0
 51
270.0
  0
LINE
  5
25E
330
1F
100
AcDbEntity
  8
0
  6
Continuous
 62
     7
370
    25
100
AcDbLine
 10
139.2132622315
 20
114.9925772965
 30
0.0
 11
139.2132622315
 21
115.2425772965
 31
0.0
  0
LINE
  5
25F
330
1F
100
AcDbEntity
  8
0
  6
Continuous
 62
     7
370
    25
100
AcDbLine
 10
139.2132622315
 20
114.9925772965
 30
0.0
 11
138.9404878065
 21
114.9925772965
 31
0.0
  0
ARC
  5
260
330
1F
100
AcDbEntity
  8
0
  6
Continuous
 62
     7
370
    25
100
AcDbCircle
 10
139.2132622315
 20
115.2425772965
 30
0.0
 40
0.25
100
AcDbArc
 50
270.0
 51
0.0
  0
LINE
  5
261
330
1F
100
AcDbEntity
  8
0
  6
Continuous
 62
     7
370
    25
100
AcDbLine
 10
113.4632622315
 20
113.2208780325
 30
0.0
 11
113.4632622315
 21
119.7642765606
 31
0.0
  0
LINE
  5
262
330
1F
100
AcDbEntity
  8
0
  6
Continuous
 62
     7
370
    25
100
AcDbLine
 10
111.28782537
 20
112.9925772965
 30
0.0
 11
113.4632622315
 21
113.2208780325
 31
0.0
  0
LINE
  5
263
330
1F
100
AcDbEntity
  8
0
  6
Continuous
 62
     7
370
    25
100
AcDbLine
 10
93.4632622315
 20
112.9925772965
 30
0.0
 11
111.28782537
 21
112.9925772965
 31
0.0
  0
LINE
  5
264
330
1F
100
AcDbEntity
  8
0
  6
Continuous
 62
     7
370
    25
100
AcDbLine
 10
93.4632622315
 20
119.9925772965
 30
0.0
 11
93.4632622315
 21
112.9925772965
 31
0.0
  0
LINE
  5
265
330
1F
100
AcDbEntity
  8
0
  6
Continuous
 62
     7
370
    25
100
AcDbLine
 10
111.28782537
 20
119.9925772965
 30
0.0
 11
93.4632622315
 21
119.9925772965
 31
0.0
  0
LINE
  5
266
330
1F
100
AcDbEntity
  8
0
  6
Continuous
 62
     7
370
    25
100
AcDbLine
 10
113.4632622315
 20
119.7642765606
 30
0.0
 11
111.28782537
 21
119.9925772965
 31
0.0
  0
LINE
  5
267
330
1F
100
AcDbEntity
  8
0
  6
Continuous
 62
     7
370
    25
100
AcDbLine
 10
128.2394600571
 20
118.2135917773
 30
0.0
 11
128.1110510185
 21
118.0294501439
 31
0.0
  0
LINE
  5
268
330
1F
100
AcDbEntity
  8
0
  6
Continuous
 62
     7
370
    25
100
AcDbLine
 10
128.1206183592
 20
114.9473596291
 30
0.0
 11
128.2394600571
 21
114.7715628157
 31
0.0
  0
LINE
  5
269
330
1F
100
AcDbEntity
  8
0
  6
Continuous
 62
     7
370
    25
100
AcDbLine
 10
120.0466925779
 20
119.0733799321
 30
0.0
 11
120.0466925779
 21
113.9117746609
 31
0.0
  0
LINE
  5
26A
330
1F
100
AcDbEntity
  8
0
  6
Continuous
 62
     7
370
    25
100
AcDbLine
 10
128.2394600571
 20
114.7715628157
 30
0.0
 11
120.0466925779
 21
113.9117746609
 31
0.0
  0
LINE
  5
26B
330
1F
100
AcDbEntity
  8
0
  6
Continuous
 62
     7
370
    25
100
AcDbLine
 10
120.0466925779
 20
119.0733799321
 30
0.0
 11
128.2394600571
 21
118.2135917773
 31
0.0
  0
LINE
  5
26C
330
1F
100
AcDbEntity
  8
0
  6
Continuous
 62
     7
370
    25
100
AcDbLine
 10
120.0466925779
 20
113.9117746609
 30
0.0
 11
113.4632622315
 21
113.2208780325
 31
0.0
  0
LINE
  5
26D
330
1F
100
AcDbEntity
  8
0
  6
Continuous
 62
     7
370
    25
100
AcDbLine
 10
113.4632622315
 20
119.7642765606
 30
0.0
 11
120.0466925779
 21
119.0733799321
 31
0.0
  0
ARC
  5
26E
330
1F
100
AcDbEntity
  8
0
  6
Continuous
 62
     7
370
    25
100
AcDbCircle
 10
133.4632622315
 20
116.4925772965
 30
0.0
 40
7.450000000000656
100
AcDbArc
 50
233.0863788866
 51
126.9136211134
  0
ARC
  5
26F
330
1F
100
AcDbEntity
  8
0
  6
Continuous
 62
     7
370
    25
100
AcDbCircle
 10
133.4632622315
 20
116.4925772965
 30
0.0
 40
7.207531252870806
100
AcDbArc
 50
195.3041237151
 51
238.9797515565
  0
ARC
  5
270
330
1F
100
AcDbEntity
  8
0
  6
Continuous
 62
     7
370
    25
100
AcDbCircle
 10
133.4632622315
 20
116.4925772965
 30
0.0
 40
7.207531252872471
100
AcDbArc
 50
121.0202484435
 51
164.6958762849
  0
ARC
  5
271
330
1F
100
AcDbEntity
  8
0
  6
Continuous
 62
     7
370
    25
100
AcDbCircle
 10
111.28782537
 20
184.9925772965
 30
0.0
 40
64.99999999999997
100
AcDbArc
 50
270.0
 51
286.5000949923
  0
ARC
  5
272
330
1F
100
AcDbEntity
  8
0
  6
Continuous
 62
     7
370
    25
100
AcDbCircle
 10
111.28782537
 20
47.9925772965
 30
0.0
 40
65.0
100
AcDbArc
 50
73.4999050077
 51
90.0
  0
LINE
  5
273
330
1F
100
AcDbEntity
  8
0
  6
Continuous
 62
     7
370
    25
100
AcDbLine
 10
140.4632622315
 20
109.7644462846
 30
0.0
 11
140.4632622315
 21
113.9425772965
 31
0.0
  0
LINE
  5
274
330
1F
100
AcDbEntity
  8
0
  6
Continuous
 62
     7
370
    25
100
AcDbLine
 10
140.4632622315
 20
119.0425772965
 30
0.0
 11
140.4632622315
 21
123.2207083084
 31
0.0
  0
LINE
  5
275
330
1F
100
AcDbEntity
  8
0
  6
Continuous
 62
     7
370
    25
100
AcDbLine
 10
126.4632622315
 20
123.2207083084
 30
0.0
 11
126.4632622315
 21
121.788889777
 31
0.0
  0
LINE
  5
276
330
1F
100
AcDbEntity
  8
0
  6
Continuous
 62
     7
370
    25
100
AcDbLine
 10
126.4632622315
 20
111.196264816
 30
0.0
 11
126.4632622315
 21
109.7644462846
 31
0.0
  0
LINE
  5
277
330
1F
100
AcDbEntity
  8
0
  6
Continuous
 62
     7
370
    25
100
AcDbLine
 10
140.4632622315
 20
123.2207083084
 30
0.0
 11
136.6624422962
 21
123.2207083084
 31
0.0
  0
LINE
  5
278
330
1F
100
AcDbEntity
  8
0
  6
Continuous
 62
     7
370
    25
100
AcDbLine
 10
130.2640821668
 20
123.2207083084
 30
0.0
 11
126.4632622315
 21
123.2207083084
 31
0.0
  0
LINE
  5
279
330
1F
100
AcDbEntity
  8
0
  6
Continuous
 62
     7
370
    25
100
AcDbLine
 10
126.4632622315
 20
109.7644462846
 30
0.0
 11
130.2640821668
 21
109.7644462846
 31
0.0
  0
LINE
  5
27A
330
1F
100
AcDbEntity
  8
0
  6
Continuous
 62
     7
370
    25
100
AcDbLine
 10
136.6624422962
 20
109.7644462846
 30
0.0
 11
140.4632622315
 21
109.7644462846
 31
0.0
  0
LINE
  5
27B
330
1F
100
AcDbEntity
  8
0
  6
Continuous
 62
     7
370
    25
100
AcDbLine
 10
126.4632622315
 20
123.6164807209
 30
0.0
 11
131.2832392958
 21
123.6164807209
 31
0.0
  0
LINE
  5
27C
330
1F
100
AcDbEntity
  8
0
  6
Continuous
 62
     7
370
    25
100
AcDbLine
 10
135.6432851672
 20
123.6164807209
 30
0.0
 11
140.4632622315
 21
123.6164807209
 31
0.0
  0
LINE
  5
27D
330
1F
100
AcDbEntity
  8
0
  6
Continuous
 62
     7
370
    25
100
AcDbLine
 10
140.4632622315
 20
109.3686738721
 30
0.0
 11
135.6432851672
 21
109.3686738721
 31
0.0
  0
LINE
  5
27E
330
1F
100
AcDbEntity
  8
0
  6
Continuous
 62
     7
370
    25
100
AcDbLine
 10
131.2832392958
 20
109.3686738721
 30
0.0
 11
126.4632622315
 21
109.3686738721
 31
0.0
  0
INSERT
  5
28A
330
1F
100
AcDbEntity
  8
FORMAT
100
AcDbBlockReference
  2
SW_CENTERMARKSYMBOL_1
 10
133.4632622315
 20
116.4925772965
 30
0.0
  0
LINE
  5
28B
330
1F
100
AcDbEntity
  8
FORMAT
100
AcDbLine
 10
152.7654464965
 20
110.8396931941
 30
0.0
 11
143.9632622315
 21
110.5646249358
 31
0.0
  0
LINE
  5
28C
330
1F
100
AcDbEntity
  8
FORMAT
100
AcDbLine
 10
152.7654464965
 20
122.1454613989
 30
0.0
 11
143.9632622315
 21
122.4205296572
 31
0.0
  0
LINE
  5
28D
330
1F
100
AcDbEntity
  8
FORMAT
100
AcDbLine
 10
143.9632622315
 20
123.2438897965
 30
0.0
 11
143.9632622315
 21
109.7412647965
 31
0.0
  0
ENDSEC
  0
SECTION
  2
OBJECTS
  0
DICTIONARY
  5
C
330
0
100
AcDbDictionary
281
     1
  3
ACAD_GROUP
350
D
  3
ACAD_LAYOUT
350
1A
  3
ACAD_MLINESTYLE
350
17
  3
ACAD_PLOTSETTINGS
350
19
  3
ACAD_PLOTSTYLENAME
350
E
  3
ACAD_SCALELIST
350
47
  3
DWGPROPS
350
28E
  0
DICTIONARY
  5
D
102
{ACAD_REACTORS
330
C
102
}
330
C
100
AcDbDictionary
281
     1
  0
DICTIONARY
  5
1A
102
{ACAD_REACTORS
330
C
102
}
330
C
100
AcDbDictionary
281
     1
  3
Layout1
350
1E
  3
Layout2
350
26
  3
Model
350
22
  0
DICTIONARY
  5
17
102
{ACAD_REACTORS
330
C
102
}
330
C
100
AcDbDictionary
281
     1
  3
Standard
350
18
  0
DICTIONARY
  5
19
102
{ACAD_REACTORS
330
C
102
}
330
C
100
AcDbDictionary
281
     1
  0
ACDBDICTIONARYWDFLT
  5
E
102
{ACAD_REACTORS
330
C
102
}
330
C
100
AcDbDictionary
281
     1
  3
Normal
350
F
100
AcDbDictionaryWithDefault
340
F
  0
DICTIONARY
  5
47
102
{ACAD_REACTORS
330
C
102
}
330
C
100
AcDbDictionary
281
     1
  3
A0
350
48
  3
A1
350
49
  3
A2
350
4A
  3
A3
350
4B
  3
A4
350
4C
  3
A5
350
4D
  3
A6
350
4E
  3
A7
350
4F
  3
A8
350
50
  3
A9
350
51
  3
B0
350
52
  3
B1
350
53
  3
B2
350
54
  3
B3
350
55
  3
B4
350
56
  3
B5
350
57
  3
B6
350
58
  0
XRECORD
  5
28E
102
{ACAD_REACTORS
330
C
102
}
330
C
100
AcDbXrecord
280
     1
  1
DWGPROPS COOKIE
  2

  3

  4

  6

  7

  8
user28
  9

300
=
301
=
302
=
303
=
304
=
305
=
306
=
307
=
308
=
309
=
 40
0.0
 41
2460406.334157465
 42
2460406.334158206
  1

 90
        0
  0
LAYOUT
  5
1E
102
{ACAD_REACTORS
330
1A
102
}
330
1A
100
AcDbPlotSettings
  1

  2
none_device
  4

  6

 40
0.0
 41
0.0
 42
0.0
 43
0.0
 44
0.0
 45
0.0
 46
0.0
 47
0.0
 48
0.0
 49
0.0
140
0.0
141
0.0
142
1.0
143
1.0
 70
   688
 72
     1
 73
     0
 74
     5
  7

 75
    16
147
1.0
148
0.0
149
0.0
100
AcDbLayout
  1
Layout1
 70
     1
 71
     1
 10
0.0
 20
0.0
 11
420.0
 21
297.0
 12
0.0
 22
0.0
 32
0.0
 14
1.0000000000E+20
 24
1.0000000000E+20
 34
1.0000000000E+20
 15
-1.0000000000E+20
 25
-1.0000000000E+20
 35
-1.0000000000E+20
146
0.0
 13
0.0
 23
0.0
 33
0.0
 16
1.0
 26
0.0
 36
0.0
 17
0.0
 27
1.0
 37
0.0
 76
     0
330
1B
  0
LAYOUT
  5
26
102
{ACAD_REACTORS
330
1A
102
}
330
1A
100
AcDbPlotSettings
  1

  2
none_device
  4

  6

 40
0.0
 41
0.0
 42
0.0
 43
0.0
 44
0.0
 45
0.0
 46
0.0
 47
0.0
 48
0.0
 49
0.0
140
0.0
141
0.0
142
1.0
143
1.0
 70
   688
 72
     1
 73
     0
 74
     5
  7

 75
    16
147
1.0
148
0.0
149
0.0
100
AcDbLayout
  1
Layout2
 70
     1
 71
     2
 10
0.0
 20
0.0
 11
0.0
 21
0.0
 12
0.0
 22
0.0
 32
0.0
 14
0.0
 24
0.0
 34
0.0
 15
0.0
 25
0.0
 35
0.0
146
0.0
 13
0.0
 23
0.0
 33
0.0
 16
1.0
 26
0.0
 36
0.0
 17
0.0
 27
1.0
 37
0.0
 76
     0
330
23
  0
LAYOUT
  5
22
102
{ACAD_REACTORS
330
1A
102
}
330
1A
100
AcDbPlotSettings
  1

  2
none_device
  4
Letter_(8.50_x_11.00_Inches)
  6

 40
6.35
 41
6.35
 42
6.35000508
 43
6.35000508
 44
215.9
 45
279.4
 46
0.0
 47
0.0
 48
0.0
 49
0.0
140
0.0
141
0.0
142
1.0
143
1.0
 70
  1712
 72
     1
 73
     0
 74
     0
  7

 75
     0
147
1.0
148
0.0
149
0.0
100
AcDbLayout
  1
Model
 70
     1
 71
     0
 10
0.0
 20
0.0
 11
297.0
 21
210.0
 12
0.0
 22
0.0
 32
0.0
 14
0.0
 24
0.0
 34
0.0
 15
297.0
 25
210.0
 35
0.0
146
0.0
 13
0.0
 23
0.0
 33
0.0
 16
1.0
 26
0.0
 36
0.0
 17
0.0
 27
1.0
 37
0.0
 76
     0
330
1F
331
29
  0
MLINESTYLE
  5
18
102
{ACAD_REACTORS
330
17
102
}
330
17
100
AcDbMlineStyle
  2
Standard
 70
     0
  3

 62
   256
 51
90.0
 52
90.0
 71
     2
 49
0.5
 62
   256
  6
BYLAYER
 49
-0.5
 62
   256
  6
BYLAYER
  0
ACDBPLACEHOLDER
  5
F
102
{ACAD_REACTORS
330
E
102
}
330
E
  0
SCALE
  5
48
102
{ACAD_REACTORS
330
47
102
}
330
47
100
AcDbScale
 70
     0
300
1:1
140
1.0
141
1.0
290
     1
  0
SCALE
  5
49
102
{ACAD_REACTORS
330
47
102
}
330
47
100
AcDbScale
 70
     0
300
1:2
140
1.0
141
2.0
290
     0
  0
SCALE
  5
4A
102
{ACAD_REACTORS
330
47
102
}
330
47
100
AcDbScale
 70
     0
300
1:4
140
1.0
141
4.0
290
     0
  0
SCALE
  5
4B
102
{ACAD_REACTORS
330
47
102
}
330
47
100
AcDbScale
 70
     0
300
1:5
140
1.0
141
5.0
290
     0
  0
SCALE
  5
4C
102
{ACAD_REACTORS
330
47
102
}
330
47
100
AcDbScale
 70
     0
300
1:8
140
1.0
141
8.0
290
     0
  0
SCALE
  5
4D
102
{ACAD_REACTORS
330
47
102
}
330
47
100
AcDbScale
 70
     0
300
1:10
140
1.0
141
10.0
290
     0
  0
SCALE
  5
4E
102
{ACAD_REACTORS
330
47
102
}
330
47
100
AcDbScale
 70
     0
300
1:16
140
1.0
141
16.0
290
     0
  0
SCALE
  5
4F
102
{ACAD_REACTORS
330
47
102
}
330
47
100
AcDbScale
 70
     0
300
1:20
140
1.0
141
20.0
290
     0
  0
SCALE
  5
50
102
{ACAD_REACTORS
330
47
102
}
330
47
100
AcDbScale
 70
     0
300
1:30
140
1.0
141
30.0
290
     0
  0
SCALE
  5
51
102
{ACAD_REACTORS
330
47
102
}
330
47
100
AcDbScale
 70
     0
300
1:40
140
1.0
141
40.0
290
     0
  0
SCALE
  5
52
102
{ACAD_REACTORS
330
47
102
}
330
47
100
AcDbScale
 70
     0
300
1:50
140
1.0
141
50.0
290
     0
  0
SCALE
  5
53
102
{ACAD_REACTORS
330
47
102
}
330
47
100
AcDbScale
 70
     0
300
1:100
140
1.0
141
100.0
290
     0
  0
SCALE
  5
54
102
{ACAD_REACTORS
330
47
102
}
330
47
100
AcDbScale
 70
     0
300
2:1
140
2.0
141
1.0
290
     0
  0
SCALE
  5
55
102
{ACAD_REACTORS
330
47
102
}
330
47
100
AcDbScale
 70
     0
300
4:1
140
4.0
141
1.0
290
     0
  0
SCALE
  5
56
102
{ACAD_REACTORS
330
47
102
}
330
47
100
AcDbScale
 70
     0
300
8:1
140
8.0
141
1.0
290
     0
  0
SCALE
  5
57
102
{ACAD_REACTORS
330
47
102
}
330
47
100
AcDbScale
 70
     0
300
10:1
140
10.0
141
1.0
290
     0
  0
SCALE
  5
58
102
{ACAD_REACTORS
330
47
102
}
330
47
100
AcDbScale
 70
     0
300
100:1
140
100.0
141
1.0
290
     0
  0
ENDSEC
  0
EOF
