  0
SECTION
  2
HEADER
  9
$ACADVER
  1
AC1015
  9
$ACADMAINTVER
 70
     6
  9
$DWGCODEPAGE
  3
DOS932
  9
$INSBASE
 10
0.0
 20
0.0
 30
0.0
  9
$EXTMIN
 10
0.0
 20
0.0
 30
0.0
  9
$EXTMAX
 10
297.0
 20
210.0
 30
0.0
  9
$LIMMIN
 10
0.0
 20
0.0
  9
$LIMMAX
 10
297.0
 20
210.0
  9
$ORTHOMODE
 70
     0
  9
$REGENMODE
 70
     1
  9
$FILLMODE
 70
     1
  9
$QTEXTMODE
 70
     0
  9
$MIRRTEXT
 70
     1
  9
$LTSCALE
 40
1.0
  9
$ATTMODE
 70
     1
  9
$TEXTSIZE
 40
3.5277777778
  9
$TRACEWID
 40
1.0
  9
$TEXTSTYLE
  7
Standard
  9
$CLAYER
  8
0
  9
$CELTYPE
  6
ByLayer
  9
$CECOLOR
 62
   256
  9
$CELTSCALE
 40
1.0
  9
$DISPSILH
 70
     0
  9
$DIMSCALE
 40
1.0
  9
$DIMASZ
 40
2.728515625
  9
$DIMEXO
 40
1.0
  9
$DIMDLI
 40
3.75
  9
$DIMRND
 40
0.0
  9
$DIMDLE
 40
0.0
  9
$DIMEXE
 40
1.0
  9
$DIMTP
 40
0.0
  9
$DIMTM
 40
0.0
  9
$DIMTXT
 40
3.5277777778
  9
$DIMCEN
 40
2.5
  9
$DIMTSZ
 40
0.0
  9
$DIMTOL
 70
     0
  9
$DIMLIM
 70
     0
  9
$DIMTIH
 70
     1
  9
$DIMTOH
 70
     1
  9
$DIMSE1
 70
     0
  9
$DIMSE2
 70
     0
  9
$DIMTAD
 70
     1
  9
$DIMZIN
 70
     0
  9
$DIMBLK
  1

  9
$DIMASO
 70
     1
  9
$DIMSHO
 70
     1
  9
$DIMPOST
  1

  9
$DIMAPOST
  1

  9
$DIMALT
 70
     0
  9
$DIMALTD
 70
     3
  9
$DIMALTF
 40
0.0393700787
  9
$DIMLFAC
 40
1.0
  9
$DIMTOFL
 70
     1
  9
$DIMTVP
 40
0.0
  9
$DIMTIX
 70
     0
  9
$DIMSOXD
 70
     0
  9
$DIMSAH
 70
     0
  9
$DIMBLK1
  1

  9
$DIMBLK2
  1

  9
$DIMSTYLE
  2
ISO-25
  9
$DIMCLRD
 70
     0
  9
$DIMCLRE
 70
     0
  9
$DIMCLRT
 70
     0
  9
$DIMTFAC
 40
1.0
  9
$DIMGAP
 40
1.524
  9
$DIMJUST
 70
     0
  9
$DIMSD1
 70
     0
  9
$DIMSD2
 70
     0
  9
$DIMTOLJ
 70
     0
  9
$DIMTZIN
 70
     0
  9
$DIMALTZ
 70
     0
  9
$DIMALTTZ
 70
     0
  9
$DIMUPT
 70
     0
  9
$DIMDEC
 70
     2
  9
$DIMTDEC
 70
     2
  9
$DIMALTU
 70
     2
  9
$DIMALTTD
 70
     3
  9
$DIMTXSTY
  7
Standard
  9
$DIMAUNIT
 70
     0
  9
$DIMADEC
 70
     2
  9
$DIMALTRND
 40
0.0
  9
$DIMAZIN
 70
     0
  9
$DIMDSEP
 70
    44
  9
$DIMATFIT
 70
     3
  9
$DIMFRAC
 70
     0
  9
$DIMLDRBLK
  1

  9
$DIMLUNIT
 70
     2
  9
$DIMLWD
 70
    -2
  9
$DIMLWE
 70
    -2
  9
$DIMTMOVE
 70
     0
  9
$LUNITS
 70
     2
  9
$LUPREC
 70
     2
  9
$SKETCHINC
 40
1.0
  9
$FILLETRAD
 40
0.0
  9
$AUNITS
 70
     0
  9
$AUPREC
 70
     2
  9
$MENU
  1
.
  9
$ELEVATION
 40
0.0
  9
$PELEVATION
 40
0.0
  9
$THICKNESS
 40
0.0
  9
$LIMCHECK
 70
     0
  9
$CHAMFERA
 40
0.0
  9
$CHAMFERB
 40
0.0
  9
$CHAMFERC
 40
0.0
  9
$CHAMFERD
 40
0.0
  9
$SKPOLY
 70
     0
  9
$TDCREATE
 40
2460406.707885359
  9
$TDUCREATE
 40
2460406.332885359
  9
$TDUPDATE
 40
2460406.707886088
  9
$TDUUPDATE
 40
2460406.332886088
  9
$TDINDWG
 40
0.0000000116
  9
$TDUSRTIMER
 40
0.0000000116
  9
$USRTIMER
 70
     1
  9
$ANGBASE
 50
0.0
  9
$ANGDIR
 70
     0
  9
$PDMODE
 70
     0
  9
$PDSIZE
 40
-1.0
  9
$PLINEWID
 40
0.0
  9
$SPLFRAME
 70
     0
  9
$SPLINETYPE
 70
     6
  9
$SPLINESEGS
 70
     8
  9
$HANDSEED
  5
29F
  9
$SURFTAB1
 70
     6
  9
$SURFTAB2
 70
     6
  9
$SURFTYPE
 70
     6
  9
$SURFU
 70
     6
  9
$SURFV
 70
     6
  9
$UCSBASE
  2

  9
$UCSNAME
  2

  9
$UCSORG
 10
0.0
 20
0.0
 30
0.0
  9
$UCSXDIR
 10
1.0
 20
0.0
 30
0.0
  9
$UCSYDIR
 10
0.0
 20
1.0
 30
0.0
  9
$UCSORTHOREF
  2

  9
$UCSORTHOVIEW
 70
     0
  9
$UCSORGTOP
 10
0.0
 20
0.0
 30
0.0
  9
$UCSORGBOTTOM
 10
0.0
 20
0.0
 30
0.0
  9
$UCSORGLEFT
 10
0.0
 20
0.0
 30
0.0
  9
$UCSORGRIGHT
 10
0.0
 20
0.0
 30
0.0
  9
$UCSORGFRONT
 10
0.0
 20
0.0
 30
0.0
  9
$UCSORGBACK
 10
0.0
 20
0.0
 30
0.0
  9
$PUCSBASE
  2

  9
$PUCSNAME
  2

  9
$PUCSORG
 10
0.0
 20
0.0
 30
0.0
  9
$PUCSXDIR
 10
1.0
 20
0.0
 30
0.0
  9
$PUCSYDIR
 10
0.0
 20
1.0
 30
0.0
  9
$PUCSORTHOREF
  2

  9
$PUCSORTHOVIEW
 70
     0
  9
$PUCSORGTOP
 10
0.0
 20
0.0
 30
0.0
  9
$PUCSORGBOTTOM
 10
0.0
 20
0.0
 30
0.0
  9
$PUCSORGLEFT
 10
0.0
 20
0.0
 30
0.0
  9
$PUCSORGRIGHT
 10
0.0
 20
0.0
 30
0.0
  9
$PUCSORGFRONT
 10
0.0
 20
0.0
 30
0.0
  9
$PUCSORGBACK
 10
0.0
 20
0.0
 30
0.0
  9
$USERI1
 70
     0
  9
$USERI2
 70
     0
  9
$USERI3
 70
     0
  9
$USERI4
 70
     0
  9
$USERI5
 70
     0
  9
$USERR1
 40
0.0
  9
$USERR2
 40
0.0
  9
$USERR3
 40
0.0
  9
$USERR4
 40
0.0
  9
$USERR5
 40
0.0
  9
$WORLDVIEW
 70
     1
  9
$SHADEDGE
 70
     3
  9
$SHADEDIF
 70
    70
  9
$TILEMODE
 70
     1
  9
$MAXACTVP
 70
    64
  9
$PINSBASE
 10
0.0
 20
0.0
 30
0.0
  9
$PLIMCHECK
 70
     0
  9
$PEXTMIN
 10
1.0000000000E+20
 20
1.0000000000E+20
 30
1.0000000000E+20
  9
$PEXTMAX
 10
-1.0000000000E+20
 20
-1.0000000000E+20
 30
-1.0000000000E+20
  9
$PLIMMIN
 10
0.0
 20
0.0
  9
$PLIMMAX
 10
420.0
 20
297.0
  9
$UNITMODE
 70
     0
  9
$VISRETAIN
 70
     1
  9
$PLINEGEN
 70
     0
  9
$PSLTSCALE
 70
     1
  9
$TREEDEPTH
 70
  3020
  9
$CMLSTYLE
  2
Standard
  9
$CMLJUST
 70
     0
  9
$CMLSCALE
 40
20.0
  9
$PROXYGRAPHICS
 70
     1
  9
$MEASUREMENT
 70
     1
  9
$CELWEIGHT
370
    -1
  9
$ENDCAPS
280
     0
  9
$JOINSTYLE
280
     0
  9
$LWDISPLAY
290
     1
  9
$INSUNITS
 70
     4
  9
$HYPERLINKBASE
  1

  9
$STYLESHEET
  1

  9
$XEDIT
290
     1
  9
$CEPSNTYPE
380
     0
  9
$PSTYLEMODE
290
     1
  9
$FINGERPRINTGUID
  2
{b494fb4b-f262-4c2c-8137-9c235ec395c8}
  9
$VERSIONGUID
  2
{FAEB1C32-E019-11D5-929B-00C0DF256EC4}
  9
$EXTNAMES
290
     1
  9
$PSVPSCALE
 40
0.0
  9
$OLESTARTUP
290
     0
  0
ENDSEC
  0
SECTION
  2
CLASSES
  0
CLASS
  1
ACDBDICTIONARYWDFLT
  2
AcDbDictionaryWithDefault
  3
ObjectDBX Classes
 90
        0
280
     0
281
     0
  0
CLASS
  1
VISUALSTYLE
  2
AcDbVisualStyle
  3
ObjectDBX Classes
 90
     4095
280
     0
281
     0
  0
CLASS
  1
MATERIAL
  2
AcDbMaterial
  3
ObjectDBX Classes
 90
     1153
280
     0
281
     0
  0
CLASS
  1
SCALE
  2
AcDbScale
  3
ObjectDBX Classes
 90
     1153
280
     0
281
     0
  0
CLASS
  1
TABLESTYLE
  2
AcDbTableStyle
  3
ObjectDBX Classes
 90
     4095
280
     0
281
     0
  0
CLASS
  1
MLEADERSTYLE
  2
AcDbMLeaderStyle
  3
ACDB_MLEADERSTYLE_CLASS
 90
     4095
280
     0
281
     0
  0
CLASS
  1
SUN
  2
AcDbSun
  3
SCENEOE
 90
     1153
280
     0
281
     0
  0
CLASS
  1
ACDBPLACEHOLDER
  2
AcDbPlaceHolder
  3
ObjectDBX Classes
 90
        0
280
     0
281
     0
  0
CLASS
  1
LAYOUT
  2
AcDbLayout
  3
ObjectDBX Classes
 90
        0
280
     0
281
     0
  0
ENDSEC
  0
SECTION
  2
TABLES
  0
TABLE
  2
VPORT
  5
8
330
0
100
AcDbSymbolTable
 70
     1
  0
VPORT
  5
29
330
8
100
AcDbSymbolTableRecord
100
AcDbViewportTableRecord
  2
*Active
 70
     0
 10
0.0
 20
0.0
 11
1.0
 21
1.0
 12
148.5
 22
105.0
 13
0.0
 23
0.0
 14
10.0
 24
10.0
 15
10.0
 25
10.0
 16
0.0
 26
0.0
 36
1.0
 17
0.0
 27
0.0
 37
0.0
 40
210.0
 41
1.4142857143
 42
50.0
 43
0.0
 44
0.0
 50
0.0
 51
0.0
 71
     0
 72
  2000
 73
     1
 74
     3
 75
     0
 76
     0
 77
     0
 78
     0
281
     0
 65
     1
110
0.0
120
0.0
130
0.0
111
1.0
121
0.0
131
0.0
112
0.0
122
1.0
132
0.0
 79
     0
146
0.0
  0
ENDTAB
  0
TABLE
  2
LTYPE
  5
5
330
0
100
AcDbSymbolTable
 70
     6
  0
LTYPE
  5
14
330
5
100
AcDbSymbolTableRecord
100
AcDbLinetypeTableRecord
  2
ByBlock
 70
     0
  3

 72
    65
 73
     0
 40
0.0
  0
LTYPE
  5
15
330
5
100
AcDbSymbolTableRecord
100
AcDbLinetypeTableRecord
  2
ByLayer
 70
     0
  3

 72
    65
 73
     0
 40
0.0
  0
LTYPE
  5
16
330
5
100
AcDbSymbolTableRecord
100
AcDbLinetypeTableRecord
  2
Continuous
 70
     0
  3
Solid line
 72
    65
 73
     0
 40
0.0
  0
LTYPE
  5
5E
330
5
100
AcDbSymbolTableRecord
100
AcDbLinetypeTableRecord
  2
HIDDEN
 70
     0
  3
Hidden __ __ __ __ __ __ __ __ __ __ __ __ __ __
 72
    65
 73
     2
 40
1.905
 49
1.27
 74
     0
 49
-0.635
 74
     0
  0
LTYPE
  5
5F
330
5
100
AcDbSymbolTableRecord
100
AcDbLinetypeTableRecord
  2
PHANTOM
 70
     0
  3
Phantom ______  __  __  ______  __  __  ______
 72
    65
 73
     6
 40
12.7
 49
6.35
 74
     0
 49
-1.27
 74
     0
 49
1.27
 74
     0
 49
-1.27
 74
     0
 49
1.27
 74
     0
 49
-1.27
 74
     0
  0
LTYPE
  5
60
330
5
100
AcDbSymbolTableRecord
100
AcDbLinetypeTableRecord
  2
CENTER
 70
     0
  3
Center ____ _ ____ _ ____ _ ____ _ ____ _ ____
 72
    65
 73
     4
 40
10.16
 49
6.35
 74
     0
 49
-1.27
 74
     0
 49
1.27
 74
     0
 49
-1.27
 74
     0
  0
LTYPE
  5
61
330
5
100
AcDbSymbolTableRecord
100
AcDbLinetypeTableRecord
  2
CENTERX2
 70
     0
  3
Center (2x) ________  __  ________  __  _____
 72
    65
 73
     4
 40
20.32
 49
12.7
 74
     0
 49
-2.54
 74
     0
 49
2.54
 74
     0
 49
-2.54
 74
     0
  0
LTYPE
  5
62
330
5
100
AcDbSymbolTableRecord
100
AcDbLinetypeTableRecord
  2
DOT2
 70
     0
  3
Dot (.5x) ........................................
 72
    65
 73
     2
 40
0.635
 49
0.0
 74
     0
 49
-0.635
 74
     0
  0
ENDTAB
  0
TABLE
  2
LAYER
  5
2
330
0
100
AcDbSymbolTable
 70
     2
  0
LAYER
  5
10
330
2
100
AcDbSymbolTableRecord
100
AcDbLayerTableRecord
  2
0
 70
     0
 62
     7
  6
Continuous
370
    -3
390
F
  0
LAYER
  5
63
330
2
100
AcDbSymbolTableRecord
100
AcDbLayerTableRecord
  2
FORMAT
 70
     0
 62
     7
  6
Continuous
370
    -3
390
F
  0
ENDTAB
  0
TABLE
  2
STYLE
  5
3
330
0
100
AcDbSymbolTable
 70
     2
  0
STYLE
  5
11
330
3
100
AcDbSymbolTableRecord
100
AcDbTextStyleTableRecord
  2
Standard
 70
     0
 40
0.0
 41
1.0
 50
0.0
 71
     0
 42
3.5277777778
  3
txt
  4
bigfont
  0
STYLE
  5
64
330
3
100
AcDbSymbolTableRecord
100
AcDbTextStyleTableRecord
  2
SLDTEXTSTYLE0
 70
     0
 40
0.0
 41
0.7
 50
0.0
 71
     0
 42
3.5277777778
  3
TXT
  4
bigfont
  0
ENDTAB
  0
TABLE
  2
VIEW
  5
6
330
0
100
AcDbSymbolTable
 70
     0
  0
ENDTAB
  0
TABLE
  2
UCS
  5
7
330
0
100
AcDbSymbolTable
 70
     0
  0
ENDTAB
  0
TABLE
  2
APPID
  5
9
330
0
100
AcDbSymbolTable
 70
     1
  0
APPID
  5
12
330
9
100
AcDbSymbolTableRecord
100
AcDbRegAppTableRecord
  2
ACAD
 70
     0
  0
ENDTAB
  0
TABLE
  2
DIMSTYLE
  5
A
330
0
100
AcDbSymbolTable
 70
     1
100
AcDbDimStyleTable
  0
DIMSTYLE
105
27
330
A
100
AcDbSymbolTableRecord
100
AcDbDimStyleTableRecord
  2
ISO-25
 70
     0
 41
2.5
 42
0.625
 43
3.75
 44
1.25
 73
     0
 74
     0
 77
     1
 78
     8
140
2.5
141
2.5
143
0.0393700787
147
0.625
171
     3
172
     1
178
     0
271
     2
272
     2
274
     3
278
    44
283
     0
284
     8
340
11
  0
ENDTAB
  0
TABLE
  2
BLOCK_RECORD
  5
1
330
0
100
AcDbSymbolTable
 70
     3
  0
BLOCK_RECORD
  5
1F
330
1
100
AcDbSymbolTableRecord
100
AcDbBlockTableRecord
  2
*Model_Space
340
22
  0
BLOCK_RECORD
  5
1B
330
1
100
AcDbSymbolTableRecord
100
AcDbBlockTableRecord
  2
*Paper_Space
340
1E
  0
BLOCK_RECORD
  5
23
330
1
100
AcDbSymbolTableRecord
100
AcDbBlockTableRecord
  2
*Paper_Space0
340
26
  0
BLOCK_RECORD
  5
1B9
330
1
100
AcDbSymbolTableRecord
100
AcDbBlockTableRecord
  2
SW_CENTERMARKSYMBOL_0
340
0
102
{BLKREFS
331
1C4
102
}
  0
BLOCK_RECORD
  5
28D
330
1
100
AcDbSymbolTableRecord
100
AcDbBlockTableRecord
  2
SW_CENTERMARKSYMBOL_1
340
0
102
{BLKREFS
331
298
102
}
  0
ENDTAB
  0
ENDSEC
  0
SECTION
  2
BLOCKS
  0
BLOCK
  5
20
330
1F
100
AcDbEntity
  8
0
100
AcDbBlockBegin
  2
*Model_Space
 70
     0
 10
0.0
 20
0.0
 30
0.0
  3
*Model_Space
  1

  0
ENDBLK
  5
21
330
1F
100
AcDbEntity
  8
0
100
AcDbBlockEnd
  0
BLOCK
  5
1C
330
1B
100
AcDbEntity
 67
     1
  8
0
100
AcDbBlockBegin
  2
*Paper_Space
 70
     0
 10
0.0
 20
0.0
 30
0.0
  3
*Paper_Space
  1

  0
ENDBLK
  5
1D
330
1B
100
AcDbEntity
 67
     1
  8
0
100
AcDbBlockEnd
  0
BLOCK
  5
24
330
23
100
AcDbEntity
  8
0
100
AcDbBlockBegin
  2
*Paper_Space0
 70
     0
 10
0.0
 20
0.0
 30
0.0
  3
*Paper_Space0
  1

  0
ENDBLK
  5
25
330
23
100
AcDbEntity
  8
0
100
AcDbBlockEnd
  0
BLOCK
  5
1BA
330
1B9
100
AcDbEntity
  8
0
100
AcDbBlockBegin
  2
SW_CENTERMARKSYMBOL_0
 70
     0
 10
0.0
 20
0.0
 30
0.0
  3
SW_CENTERMARKSYMBOL_0
  1

  0
LINE
  5
1BC
330
1B9
100
AcDbEntity
  8
FORMAT
 62
     0
100
AcDbLine
 10
0.0
 20
0.0
 30
0.0
 11
0.0
 21
2.5
 31
0.0
  0
LINE
  5
1BD
330
1B9
100
AcDbEntity
  8
FORMAT
 62
     0
100
AcDbLine
 10
0.0
 20
0.0
 30
0.0
 11
-2.5
 21
0.0
 31
0.0
  0
LINE
  5
1BE
330
1B9
100
AcDbEntity
  8
FORMAT
 62
     0
100
AcDbLine
 10
0.0
 20
0.0
 30
0.0
 11
0.0
 21
-2.5
 31
0.0
  0
LINE
  5
1BF
330
1B9
100
AcDbEntity
  8
FORMAT
 62
     0
100
AcDbLine
 10
0.0
 20
0.0
 30
0.0
 11
2.5
 21
0.0
 31
0.0
  0
LINE
  5
1C0
330
1B9
100
AcDbEntity
  8
FORMAT
 62
     0
100
AcDbLine
 10
0.0
 20
5.0
 30
0.0
 11
0.0
 21
29.6850968152
 31
0.0
  0
LINE
  5
1C1
330
1B9
100
AcDbEntity
  8
FORMAT
 62
     0
100
AcDbLine
 10
-5.0
 20
0.0
 30
0.0
 11
-12.5
 21
0.0
 31
0.0
  0
LINE
  5
1C2
330
1B9
100
AcDbEntity
  8
FORMAT
 62
     0
100
AcDbLine
 10
0.0
 20
-5.0
 30
0.0
 11
0.0
 21
-12.5
 31
0.0
  0
LINE
  5
1C3
330
1B9
100
AcDbEntity
  8
FORMAT
 62
     0
100
AcDbLine
 10
5.0
 20
0.0
 30
0.0
 11
12.5
 21
0.0
 31
0.0
  0
ENDBLK
  5
1BB
330
1B9
100
AcDbEntity
  8
0
100
AcDbBlockEnd
  0
BLOCK
  5
28E
330
28D
100
AcDbEntity
  8
0
100
AcDbBlockBegin
  2
SW_CENTERMARKSYMBOL_1
 70
     0
 10
0.0
 20
0.0
 30
0.0
  3
SW_CENTERMARKSYMBOL_1
  1

  0
LINE
  5
290
330
28D
100
AcDbEntity
  8
FORMAT
 62
     0
100
AcDbLine
 10
0.0
 20
0.0
 30
0.0
 11
0.0
 21
2.5
 31
0.0
  0
LINE
  5
291
330
28D
100
AcDbEntity
  8
FORMAT
 62
     0
100
AcDbLine
 10
0.0
 20
0.0
 30
0.0
 11
-2.5
 21
0.0
 31
0.0
  0
LINE
  5
292
330
28D
100
AcDbEntity
  8
FORMAT
 62
     0
100
AcDbLine
 10
0.0
 20
0.0
 30
0.0
 11
0.0
 21
-2.5
 31
0.0
  0
LINE
  5
293
330
28D
100
AcDbEntity
  8
FORMAT
 62
     0
100
AcDbLine
 10
0.0
 20
0.0
 30
0.0
 11
2.5
 21
0.0
 31
0.0
  0
LINE
  5
294
330
28D
100
AcDbEntity
  8
FORMAT
 62
     0
100
AcDbLine
 10
0.0
 20
5.0
 30
0.0
 11
0.0
 21
9.95
 31
0.0
  0
LINE
  5
295
330
28D
100
AcDbEntity
  8
FORMAT
 62
     0
100
AcDbLine
 10
-5.0
 20
0.0
 30
0.0
 11
-41.7319942474
 21
0.0
 31
0.0
  0
LINE
  5
296
330
28D
100
AcDbEntity
  8
FORMAT
 62
     0
100
AcDbLine
 10
0.0
 20
-5.0
 30
0.0
 11
0.0
 21
-9.95
 31
0.0
  0
LINE
  5
297
330
28D
100
AcDbEntity
  8
FORMAT
 62
     0
100
AcDbLine
 10
5.0
 20
0.0
 30
0.0
 11
21.3265303295
 21
0.0
 31
0.0
  0
ENDBLK
  5
28F
330
28D
100
AcDbEntity
  8
0
100
AcDbBlockEnd
  0
ENDSEC
  0
SECTION
  2
ENTITIES
  0
MTEXT
  5
65
330
1F
100
AcDbEntity
  8
FORMAT
100
AcDbMText
 10
145.8753617047
 20
100.4366064577
 30
0.0
 40
3.7041666667
 41
0.0
 71
     1
 72
     1
  1
エースボール　BU-1185R
  7
SLDTEXTSTYLE0
 73
     1
 44
1.0
  0
LINE
  5
66
330
1F
100
AcDbEntity
  8
0
  6
Continuous
 62
     7
370
    25
100
AcDbLine
 10
100.7772838856
 20
67.8695160459
 30
0.0
 11
92.1548739456
 21
65.3970797814
 31
0.0
  0
LINE
  5
67
330
1F
100
AcDbEntity
  8
0
  6
Continuous
 62
     7
370
    25
100
AcDbLine
 10
92.1548739456
 20
49.3419523103
 30
0.0
 11
100.7772838856
 21
46.8695160459
 31
0.0
  0
LINE
  5
68
330
1F
100
AcDbEntity
  8
0
  6
Continuous
 62
     7
370
    25
100
AcDbLine
 10
111.3370599395
 20
46.8695160459
 30
0.0
 11
112.058747776
 21
48.1195160459
 31
0.0
  0
LINE
  5
69
330
1F
100
AcDbEntity
  8
0
  6
Continuous
 62
     7
370
    25
100
AcDbLine
 10
112.058747776
 20
66.6195160459
 30
0.0
 11
111.3370599395
 21
67.8695160459
 31
0.0
  0
LINE
  5
6A
330
1F
100
AcDbEntity
  8
0
  6
Continuous
 62
     7
370
    25
100
AcDbLine
 10
92.1548739456
 20
65.3970797814
 30
0.0
 11
92.058747776
 21
65.223663581
 31
0.0
  0
LINE
  5
6B
330
1F
100
AcDbEntity
  8
0
  6
Continuous
 62
     7
370
    25
100
AcDbLine
 10
92.058747776
 20
49.5153685108
 30
0.0
 11
92.1548739456
 21
49.3419523103
 31
0.0
  0
LINE
  5
6C
330
1F
100
AcDbEntity
  8
0
  6
Continuous
 62
     7
370
    25
100
AcDbLine
 10
111.3370599395
 20
67.8695160459
 30
0.0
 11
100.7772838856
 21
67.8695160459
 31
0.0
  0
LINE
  5
6D
330
1F
100
AcDbEntity
  8
0
  6
Continuous
 62
     7
370
    25
100
AcDbLine
 10
100.7772838856
 20
46.8695160459
 30
0.0
 11
111.3370599395
 21
46.8695160459
 31
0.0
  0
LINE
  5
6E
330
1F
100
AcDbEntity
  8
0
  6
Continuous
 62
     7
370
    25
100
AcDbLine
 10
112.7804356124
 20
67.8695160459
 30
0.0
 11
112.058747776
 21
66.6195160459
 31
0.0
  0
LINE
  5
6F
330
1F
100
AcDbEntity
  8
0
  6
Continuous
 62
     7
370
    25
100
AcDbLine
 10
112.058747776
 20
48.1195160459
 30
0.0
 11
112.7804356124
 21
46.8695160459
 31
0.0
  0
LINE
  5
70
330
1F
100
AcDbEntity
  8
0
  6
Continuous
 62
     7
370
    25
100
AcDbLine
 10
117.3370599395
 20
46.8695160459
 30
0.0
 11
118.058747776
 21
48.1195160459
 31
0.0
  0
LINE
  5
71
330
1F
100
AcDbEntity
  8
0
  6
Continuous
 62
     7
370
    25
100
AcDbLine
 10
118.058747776
 20
66.6195160459
 30
0.0
 11
117.3370599395
 21
67.8695160459
 31
0.0
  0
LINE
  5
72
330
1F
100
AcDbEntity
  8
0
  6
Continuous
 62
     7
370
    25
100
AcDbLine
 10
112.7804356124
 20
46.8695160459
 30
0.0
 11
117.3370599395
 21
46.8695160459
 31
0.0
  0
LINE
  5
73
330
1F
100
AcDbEntity
  8
0
  6
Continuous
 62
     7
370
    25
100
AcDbLine
 10
117.3370599395
 20
67.8695160459
 30
0.0
 11
112.7804356124
 21
67.8695160459
 31
0.0
  0
LINE
  5
74
330
1F
100
AcDbEntity
  8
0
  6
Continuous
 62
     7
370
    25
100
AcDbLine
 10
135.058747776
 20
67.8695160459
 30
0.0
 11
135.508747776
 21
75.8695160459
 31
0.0
  0
LINE
  5
75
330
1F
100
AcDbEntity
  8
0
  6
Continuous
 62
     7
370
    25
100
AcDbLine
 10
135.508747776
 20
75.8695160459
 30
0.0
 11
133.558747776
 21
83.8695160458
 31
0.0
  0
LINE
  5
76
330
1F
100
AcDbEntity
  8
0
  6
Continuous
 62
     7
370
    25
100
AcDbLine
 10
120.9880911502
 20
69.1256338372
 30
0.0
 11
121.058747776
 21
67.8695160459
 31
0.0
  0
LINE
  5
77
330
1F
100
AcDbEntity
  8
0
  6
Continuous
 62
     7
370
    25
100
AcDbLine
 10
122.558747776
 20
83.8695160458
 30
0.0
 11
122.3047709357
 21
82.827559778
 31
0.0
  0
LINE
  5
78
330
1F
100
AcDbEntity
  8
0
  6
Continuous
 62
     7
370
    25
100
AcDbLine
 10
137.558747776
 20
47.3695160459
 30
0.0
 11
138.058747776
 21
47.8695160459
 31
0.0
  0
LINE
  5
79
330
1F
100
AcDbEntity
  8
0
  6
Continuous
 62
     7
370
    25
100
AcDbLine
 10
138.058747776
 20
66.8695160459
 30
0.0
 11
137.558747776
 21
67.3695160459
 31
0.0
  0
LINE
  5
7A
330
1F
100
AcDbEntity
  8
0
  6
Continuous
 62
     7
370
    25
100
AcDbLine
 10
137.558747776
 20
67.3695160459
 30
0.0
 11
135.9407137872
 21
67.3695160459
 31
0.0
  0
LINE
  5
7B
330
1F
100
AcDbEntity
  8
0
  6
Continuous
 62
     7
370
    25
100
AcDbLine
 10
135.9407137872
 20
47.3695160459
 30
0.0
 11
137.558747776
 21
47.3695160459
 31
0.0
  0
ARC
  5
7C
330
1F
100
AcDbEntity
  8
0
  6
Continuous
 62
     7
370
    25
100
AcDbCircle
 10
137.058747776
 20
66.3695160459
 30
0.0
 40
1.5
100
AcDbArc
 50
138.1896851042
 51
180.0
  0
ARC
  5
7D
330
1F
100
AcDbEntity
  8
0
  6
Continuous
 62
     7
370
    25
100
AcDbCircle
 10
137.058747776
 20
48.3695160459
 30
0.0
 40
1.5
100
AcDbArc
 50
180.0
 51
221.8103148958
  0
LINE
  5
7E
330
1F
100
AcDbEntity
  8
0
  6
Continuous
 62
     7
370
    25
100
AcDbLine
 10
118.308747776
 20
67.3695160459
 30
0.0
 11
118.058747776
 21
67.1195160459
 31
0.0
  0
LINE
  5
7F
330
1F
100
AcDbEntity
  8
0
  6
Continuous
 62
     7
370
    25
100
AcDbLine
 10
118.058747776
 20
47.6195160459
 30
0.0
 11
118.308747776
 21
47.3695160459
 31
0.0
  0
ARC
  5
80
330
1F
100
AcDbEntity
  8
0
  6
Continuous
 62
     7
370
    25
100
AcDbCircle
 10
119.058747776
 20
48.3695160459
 30
0.0
 40
1.5
100
AcDbArc
 50
318.1896851042
 51
0.0
  0
ARC
  5
81
330
1F
100
AcDbEntity
  8
0
  6
Continuous
 62
     7
370
    25
100
AcDbCircle
 10
119.058747776
 20
66.3695160459
 30
0.0
 40
1.500000000000004
100
AcDbArc
 50
0.0
 51
41.8103148958
  0
LINE
  5
82
330
1F
100
AcDbEntity
  8
0
  6
Continuous
 62
     7
370
    25
100
AcDbLine
 10
118.308747776
 20
47.3695160459
 30
0.0
 11
120.1767817647
 21
47.3695160459
 31
0.0
  0
LINE
  5
83
330
1F
100
AcDbEntity
  8
0
  6
Continuous
 62
     7
370
    25
100
AcDbLine
 10
120.1767817647
 20
67.3695160459
 30
0.0
 11
118.308747776
 21
67.3695160459
 31
0.0
  0
ARC
  5
84
330
1F
100
AcDbEntity
  8
0
  6
Continuous
 62
     7
370
    25
100
AcDbCircle
 10
135.058747776
 20
66.3695160459
 30
0.0
 40
0.5
100
AcDbArc
 50
270.0
 51
0.0
  0
ARC
  5
85
330
1F
100
AcDbEntity
  8
0
  6
Continuous
 62
     7
370
    25
100
AcDbCircle
 10
121.058747776
 20
48.3695160459
 30
0.0
 40
0.5
100
AcDbArc
 50
90.0
 51
180.0
  0
ARC
  5
86
330
1F
100
AcDbEntity
  8
0
  6
Continuous
 62
     7
370
    25
100
AcDbCircle
 10
121.058747776
 20
66.3695160459
 30
0.0
 40
0.5
100
AcDbArc
 50
180.0
 51
270.0
  0
ARC
  5
87
330
1F
100
AcDbEntity
  8
0
  6
Continuous
 62
     7
370
    25
100
AcDbCircle
 10
135.058747776
 20
48.3695160459
 30
0.0
 40
0.5
100
AcDbArc
 50
0.0
 51
90.0
  0
LINE
  5
88
330
1F
100
AcDbEntity
  8
0
  6
Continuous
 62
     7
370
    25
100
AcDbLine
 10
121.676426901
 20
65.8695160459
 30
0.0
 11
121.058747776
 21
65.8695160459
 31
0.0
  0
LINE
  5
89
330
1F
100
AcDbEntity
  8
0
  6
Continuous
 62
     7
370
    25
100
AcDbLine
 10
135.058747776
 20
65.8695160459
 30
0.0
 11
134.458747776
 21
65.8695160459
 31
0.0
  0
LINE
  5
8A
330
1F
100
AcDbEntity
  8
0
  6
Continuous
 62
     7
370
    25
100
AcDbLine
 10
121.058747776
 20
48.8695160459
 30
0.0
 11
135.058747776
 21
48.8695160459
 31
0.0
  0
SPLINE
  5
8B
330
1F
100
AcDbEntity
  8
0
  6
Continuous
 62
     7
370
    25
100
AcDbSpline
210
0.0
220
0.0
230
1.0
 70
     8
 71
     3
 72
    13
 73
     9
 74
     0
 42
0.00000001
 43
0.00000001
 40
0.0
 40
0.0
 40
0.0
 40
0.0
 40
0.1653483772704199
 40
0.3289780008660353
 40
0.5087155491987039
 40
0.6921965826657347
 40
0.8676459392758011
 40
1.0
 40
1.0
 40
1.0
 40
1.0
 10
134.4590474335925
 20
65.87276204119411
 30
0.0
 10
134.4154717269378
 20
65.87466587140617
 30
0.0
 10
134.3287732718441
 20
65.87845374200698
 30
0.0
 10
134.2043937639542
 20
65.93263377696529
 30
0.0
 10
134.0936985928228
 20
66.01743273194457
 30
0.0
 10
134.0108448172092
 20
66.13370573553587
 30
0.0
 10
133.9647026393201
 20
66.25637899527607
 30
0.0
 10
133.9616304765459
 20
66.33725103746535
 30
0.0
 10
133.9603094606134
 20
66.37202564547819
 30
0.0
  0
SPLINE
  5
8C
330
1F
100
AcDbEntity
  8
0
  6
Continuous
 62
     7
370
    25
100
AcDbSpline
210
0.0
220
0.0
230
1.0
 70
     8
 71
     3
 72
    14
 73
    10
 74
     0
 42
0.00000001
 43
0.00000001
 40
0.0
 40
0.0
 40
0.0
 40
0.0
 40
0.0257257692796887
 40
0.2045790861422324
 40
0.3938576180206719
 40
0.5970327684438136
 40
0.7687243788229875
 40
0.9188671766720544
 40
1.0
 40
1.0
 40
1.0
 40
1.0
 10
122.1563895049204
 20
66.35712599517643
 30
0.0
 10
122.156949275605
 20
66.35067509541179
 30
0.0
 10
122.1614007411322
 20
66.29937559239985
 30
0.0
 10
122.134115693572
 20
66.20084443119853
 30
0.0
 10
122.0702731566915
 20
66.07171254700523
 30
0.0
 10
121.9686398219503
 20
65.9683236129629
 30
0.0
 10
121.8524966976951
 20
65.90387674476617
 30
0.0
 10
121.7540823685088
 20
65.87402714525956
 30
0.0
 10
121.695831720302
 20
65.87262132036244
 30
0.0
 10
121.6753970565633
 20
65.8721281488711
 30
0.0
  0
LINE
  5
8D
330
1F
100
AcDbEntity
  8
0
  6
Continuous
 62
     7
370
    25
100
AcDbLine
 10
133.958747776
 20
66.3695160459
 30
0.0
 11
133.958747776
 21
67.8695160459
 31
0.0
  0
LINE
  5
8E
330
1F
100
AcDbEntity
  8
0
  6
Continuous
 62
     7
370
    25
100
AcDbLine
 10
122.158747776
 20
67.8695160459
 30
0.0
 11
122.158747776
 21
66.3582453059
 31
0.0
  0
LINE
  5
8F
330
1F
100
AcDbEntity
  8
0
  6
Continuous
 62
     7
370
    25
100
AcDbLine
 10
138.058747776
 20
52.3170785459
 30
0.0
 11
146.7037997165
 21
52.587236419
 31
0.0
  0
LINE
  5
90
330
1F
100
AcDbEntity
  8
0
  6
Continuous
 62
     7
370
    25
100
AcDbLine
 10
146.7037997165
 20
62.1517956727
 30
0.0
 11
138.058747776
 21
62.4219535459
 31
0.0
  0
LINE
  5
91
330
1F
100
AcDbEntity
  8
0
  6
Continuous
 62
     7
370
    25
100
AcDbLine
 10
146.7037997165
 20
52.587236419
 30
0.0
 11
148.058747776
 21
53.3695160459
 31
0.0
  0
LINE
  5
92
330
1F
100
AcDbEntity
  8
0
  6
Continuous
 62
     7
370
    25
100
AcDbLine
 10
148.058747776
 20
61.3695160459
 30
0.0
 11
146.7037997165
 21
62.1517956727
 31
0.0
  0
LINE
  5
93
330
1F
100
AcDbEntity
  8
0
  6
Continuous
 62
     7
370
    25
100
AcDbLine
 10
111.3370599395
 20
52.8973800909
 30
0.0
 11
100.7772838856
 21
52.8973800909
 31
0.0
  0
SPLINE
  5
94
330
1F
100
AcDbEntity
  8
0
  6
Continuous
 62
     7
370
    25
100
AcDbSpline
210
0.0
220
0.0
230
1.0
 70
     8
 71
     3
 72
    22
 73
    18
 74
     0
 42
0.00000001
 43
0.00000001
 40
0.0
 40
0.0
 40
0.0
 40
0.0
 40
0.1030943261231017
 40
0.2060863399348692
 40
0.2692483176586212
 40
0.3323305108308089
 40
0.383998797618624
 40
0.4355610823842002
 40
0.497004693216938
 40
0.5421190929646695
 40
0.5872850973795216
 40
0.6461441508226765
 40
0.7051476750038707
 40
0.8007462423303093
 40
0.8968696567745014
 40
0.9929379302588247
 40
1.0
 40
1.0
 40
1.0
 40
1.0
 10
100.7772838855602
 20
52.89738009086516
 30
0.0
 10
100.4451519300702
 20
53.12832498448336
 30
0.0
 10
99.78121763168224
 20
53.58998557864243
 30
0.0
 10
98.97656450999987
 20
54.27786394106489
 30
0.0
 10
98.35088382157085
 20
54.92501203855424
 30
0.0
 10
97.92184214930182
 20
55.47792730154089
 30
0.0
 10
97.59341126137659
 20
56.04396632792363
 30
0.0
 10
97.35949329364205
 20
56.64943450507745
 30
0.0
 10
97.26639678754124
 20
57.27041869855483
 30
0.0
 10
97.31971204790084
 20
57.86676139399574
 30
0.0
 10
97.47624571906177
 20
58.43339808391595
 30
0.0
 10
97.75987593933299
 20
59.01089073714493
 30
0.0
 10
98.2419257067004
 20
59.6980009234582
 30
0.0
 10
98.916160831804
 20
60.41923557285184
 30
0.0
 10
99.78183777255614
 20
61.14627284863993
 30
0.0
 10
100.4190862046367
 20
61.59975710371684
 30
0.0
 10
100.7543275228152
 20
61.82614931254216
 30
0.0
 10
100.7772838855601
 20
61.84165200086432
 30
0.0
  0
LINE
  5
95
330
1F
100
AcDbEntity
  8
0
  6
Continuous
 62
     7
370
    25
100
AcDbLine
 10
100.7772838856
 20
61.8416520009
 30
0.0
 11
111.3370599395
 21
61.8416520009
 31
0.0
  0
SPLINE
  5
96
330
1F
100
AcDbEntity
  8
0
  6
Continuous
 62
     7
370
    25
100
AcDbSpline
210
0.0
220
0.0
230
1.0
 70
     8
 71
     3
 72
    14
 73
    10
 74
     0
 42
0.00000001
 43
0.00000001
 40
0.0
 40
0.0
 40
0.0
 40
0.0
 40
0.1398770721431952
 40
0.2802644202987035
 40
0.4307410145400788
 40
0.5812056740670991
 40
0.7356355360611129
 40
0.8901010649031568
 40
1.0
 40
1.0
 40
1.0
 40
1.0
 10
111.3370599394709
 20
61.84165200086432
 30
0.0
 10
111.4315344893907
 20
61.43081680210544
 30
0.0
 10
111.6208282353961
 20
60.60764766470322
 30
0.0
 10
111.8152794911231
 20
59.32314322175303
 30
0.0
 10
111.9205789037048
 20
57.99639905086699
 30
0.0
 10
111.9171640055056
 20
56.62266382419394
 30
0.0
 10
111.7953824898309
 20
55.24262023091824
 30
0.0
 10
111.5931947613908
 20
53.99571387111521
 30
0.0
 10
111.4122715263982
 20
53.21989549884061
 30
0.0
 10
111.3370599394711
 20
52.89738009086484
 30
0.0
  0
LINE
  5
97
330
1F
100
AcDbEntity
  8
0
  6
Continuous
 62
     7
370
    25
100
AcDbLine
 10
100.7772838856
 20
52.8973800909
 30
0.0
 11
100.7772838856
 21
51.3783426874
 31
0.0
  0
SPLINE
  5
98
330
1F
100
AcDbEntity
  8
0
  6
Continuous
 62
     7
370
    25
100
AcDbSpline
210
0.0
220
0.0
230
1.0
 70
     8
 71
     3
 72
    22
 73
    18
 74
     0
 42
0.00000001
 43
0.00000001
 40
0.0
 40
0.0
 40
0.0
 40
0.0
 40
0.0886448200637557
 40
0.177336235894876
 40
0.2657042856716869
 40
0.3178354022311217
 40
0.3699039806172352
 40
0.4227749210969924
 40
0.4755197313119366
 40
0.5223974882658291
 40
0.5693104164564463
 40
0.6221702960482695
 40
0.675142943385844
 40
0.7399080221121809
 40
0.8049319894362854
 40
0.8699018717152494
 40
1.0
 40
1.0
 40
1.0
 40
1.0
 10
100.7772838855602
 20
46.90620673241282
 30
0.0
 10
100.4910514895743
 20
47.00502083498338
 30
0.0
 10
99.91843624077818
 20
47.20270098133135
 30
0.0
 10
99.11041355151697
 20
47.53298052907567
 30
0.0
 10
98.47133256554359
 20
47.8507222149939
 30
0.0
 10
97.99713172561594
 20
48.14542677346638
 30
0.0
 10
97.66692434846763
 20
48.40661979884823
 30
0.0
 10
97.4190374342688
 20
48.6915293618185
 30
0.0
 10
97.28579728873804
 20
48.98558456299764
 30
0.0
 10
97.28597423115257
 20
49.27501942583122
 30
0.0
 10
97.39697737204642
 20
49.55899083614893
 30
0.0
 10
97.62531847524049
 20
49.83787832607265
 30
0.0
 10
97.97280954072009
 20
50.12491928222099
 30
0.0
 10
98.42171722244512
 20
50.40568306481084
 30
0.0
 10
98.96074847841979
 20
50.67702469739883
 30
0.0
 10
99.73261902719463
 20
51.01144015418492
 30
0.0
 10
100.3593161868338
 20
51.23154593605052
 30
0.0
 10
100.7772838855601
 20
51.37834268741234
 30
0.0
  0
LINE
  5
99
330
1F
100
AcDbEntity
  8
0
  6
Continuous
 62
     7
370
    25
100
AcDbLine
 10
100.7772838856
 20
46.9062067324
 30
0.0
 11
100.7772838856
 21
46.8695160459
 31
0.0
  0
LINE
  5
9A
330
1F
100
AcDbEntity
  8
0
  6
Continuous
 62
     7
370
    25
100
AcDbLine
 10
100.7772838856
 20
67.8695160459
 30
0.0
 11
100.7772838856
 21
67.8328253593
 31
0.0
  0
SPLINE
  5
9B
330
1F
100
AcDbEntity
  8
0
  6
Continuous
 62
     7
370
    25
100
AcDbSpline
210
0.0
220
0.0
230
1.0
 70
     8
 71
     3
 72
    22
 73
    18
 74
     0
 42
0.00000001
 43
0.00000001
 40
0.0
 40
0.0
 40
0.0
 40
0.0
 40
0.0886448200637559
 40
0.1773362358948763
 40
0.2657042856716874
 40
0.3178354022311219
 40
0.3699039806172355
 40
0.4227749210969925
 40
0.4755197313119366
 40
0.5223974882658289
 40
0.5693104164564464
 40
0.6221702960482693
 40
0.6751429433858442
 40
0.739908022112181
 40
0.8049319894362859
 40
0.8699018717152501
 40
1.0
 40
1.0
 40
1.0
 40
1.0
 10
100.7772838855602
 20
63.36068940431715
 30
0.0
 10
100.4910514895743
 20
63.4595035068877
 30
0.0
 10
99.91843624077818
 20
63.65718365323568
 30
0.0
 10
99.11041355151696
 20
63.98746320098
 30
0.0
 10
98.4713325655436
 20
64.30520488689825
 30
0.0
 10
97.99713172561593
 20
64.59990944537073
 30
0.0
 10
97.66692434846763
 20
64.86110247075258
 30
0.0
 10
97.4190374342688
 20
65.14601203372284
 30
0.0
 10
97.28579728873807
 20
65.440067234902
 30
0.0
 10
97.28597423115254
 20
65.72950209773559
 30
0.0
 10
97.39697737204644
 20
66.0134735080533
 30
0.0
 10
97.62531847524048
 20
66.29236099797703
 30
0.0
 10
97.9728095407201
 20
66.57940195412536
 30
0.0
 10
98.42171722244511
 20
66.86016573671522
 30
0.0
 10
98.9607484784198
 20
67.13150736930321
 30
0.0
 10
99.73261902719462
 20
67.46592282608931
 30
0.0
 10
100.3593161868338
 20
67.68602860795492
 30
0.0
 10
100.7772838855602
 20
67.83282535931673
 30
0.0
  0
LINE
  5
9C
330
1F
100
AcDbEntity
  8
0
  6
Continuous
 62
     7
370
    25
100
AcDbLine
 10
100.7772838856
 20
63.3606894043
 30
0.0
 11
100.7772838856
 21
61.8416520009
 31
0.0
  0
LINE
  5
9D
330
1F
100
AcDbEntity
  8
0
  6
Continuous
 62
     7
370
    25
100
AcDbLine
 10
92.1548739456
 20
65.3970797814
 30
0.0
 11
92.1548739456
 21
49.3419523103
 31
0.0
  0
LINE
  5
9E
330
1F
100
AcDbEntity
  8
0
  6
Continuous
 62
     7
370
    25
100
AcDbLine
 10
112.058747776
 20
66.6195160459
 30
0.0
 11
112.058747776
 21
48.1195160459
 31
0.0
  0
LINE
  5
9F
330
1F
100
AcDbEntity
  8
0
  6
Continuous
 62
     7
370
    25
100
AcDbLine
 10
111.3370599395
 20
51.3783426874
 30
0.0
 11
111.3370599395
 21
52.8973800909
 31
0.0
  0
LINE
  5
A0
330
1F
100
AcDbEntity
  8
0
  6
Continuous
 62
     7
370
    25
100
AcDbLine
 10
111.3370599395
 20
61.8416520009
 30
0.0
 11
111.3370599395
 21
63.3606894043
 31
0.0
  0
SPLINE
  5
A1
330
1F
100
AcDbEntity
  8
0
  6
Continuous
 62
     7
370
    25
100
AcDbSpline
210
0.0
220
0.0
230
1.0
 70
     8
 71
     3
 72
    13
 73
     9
 74
     0
 42
0.00000001
 43
0.00000001
 40
0.0
 40
0.0
 40
0.0
 40
0.0
 40
0.1560946016369933
 40
0.3121477071956413
 40
0.4719957467881128
 40
0.6318375672398524
 40
0.8152147947534313
 40
1.0
 40
1.0
 40
1.0
 40
1.0
 10
111.3370599394709
 20
67.83282535931673
 30
0.0
 10
111.4416057893212
 20
67.6034876569662
 30
0.0
 10
111.6506696966273
 20
67.1448732192375
 30
0.0
 10
111.847593155727
 20
66.43978500629096
 30
0.0
 10
111.9332736292642
 20
65.72357627256706
 30
0.0
 10
111.8891716898247
 20
64.96524132514716
 30
0.0
 10
111.7028157511306
 20
64.17374772504456
 30
0.0
 10
111.4592889862777
 20
63.63239894487083
 30
0.0
 10
111.3370599394709
 20
63.36068940431715
 30
0.0
  0
LINE
  5
A2
330
1F
100
AcDbEntity
  8
0
  6
Continuous
 62
     7
370
    25
100
AcDbLine
 10
111.3370599395
 20
67.8328253593
 30
0.0
 11
111.3370599395
 21
67.8695160459
 31
0.0
  0
LINE
  5
A3
330
1F
100
AcDbEntity
  8
0
  6
Continuous
 62
     7
370
    25
100
AcDbLine
 10
111.3370599395
 20
46.8695160459
 30
0.0
 11
111.3370599395
 21
46.9062067324
 31
0.0
  0
SPLINE
  5
A4
330
1F
100
AcDbEntity
  8
0
  6
Continuous
 62
     7
370
    25
100
AcDbSpline
210
0.0
220
0.0
230
1.0
 70
     8
 71
     3
 72
    13
 73
     9
 74
     0
 42
0.00000001
 43
0.00000001
 40
0.0
 40
0.0
 40
0.0
 40
0.0
 40
0.1560946016369933
 40
0.3121477071956412
 40
0.4719957467881127
 40
0.6318375672398522
 40
0.8152147947534314
 40
0.9999999999999999
 40
0.9999999999999999
 40
0.9999999999999999
 40
0.9999999999999999
 10
111.3370599394709
 20
51.37834268741234
 30
0.0
 10
111.4416057893212
 20
51.14900498506181
 30
0.0
 10
111.6506696966273
 20
50.69039054733312
 30
0.0
 10
111.847593155727
 20
49.98530233438657
 30
0.0
 10
111.9332736292642
 20
49.26909360066271
 30
0.0
 10
111.8891716898247
 20
48.51075865324281
 30
0.0
 10
111.7028157511306
 20
47.71926505314023
 30
0.0
 10
111.4592889862777
 20
47.17791627296649
 30
0.0
 10
111.3370599394709
 20
46.90620673241282
 30
0.0
  0
LINE
  5
A5
330
1F
100
AcDbEntity
  8
0
  6
Continuous
 62
     7
370
    25
100
AcDbLine
 10
111.3370599395
 20
63.3606894043
 30
0.0
 11
100.7772838856
 21
63.3606894043
 31
0.0
  0
LINE
  5
A6
330
1F
100
AcDbEntity
  8
0
  6
Continuous
 62
     7
370
    25
100
AcDbLine
 10
100.7772838856
 20
51.3783426874
 30
0.0
 11
111.3370599395
 21
51.3783426874
 31
0.0
  0
LINE
  5
A7
330
1F
100
AcDbEntity
  8
0
  6
Continuous
 62
     7
370
    25
100
AcDbLine
 10
100.7772838856
 20
67.8328253593
 30
0.0
 11
111.3370599395
 21
67.8328253593
 31
0.0
  0
LINE
  5
A8
330
1F
100
AcDbEntity
  8
0
  6
Continuous
 62
     7
370
    25
100
AcDbLine
 10
111.3370599395
 20
46.9062067324
 30
0.0
 11
100.7772838856
 21
46.9062067324
 31
0.0
  0
LINE
  5
A9
330
1F
100
AcDbEntity
  8
0
  6
Continuous
 62
     7
370
    25
100
AcDbLine
 10
92.058747776
 20
49.5153685108
 30
0.0
 11
92.058747776
 21
65.223663581
 31
0.0
  0
LINE
  5
AA
330
1F
100
AcDbEntity
  8
0
  6
Continuous
 62
     7
370
    25
100
AcDbLine
 10
112.058747776
 20
57.3695160459
 30
0.0
 11
112.058747776
 21
66.6195160459
 31
0.0
  0
LINE
  5
AB
330
1F
100
AcDbEntity
  8
0
  6
Continuous
 62
     7
370
    25
100
AcDbLine
 10
112.058747776
 20
48.1195160459
 30
0.0
 11
112.058747776
 21
57.3695160459
 31
0.0
  0
LINE
  5
AC
330
1F
100
AcDbEntity
  8
0
  6
Continuous
 62
     7
370
    25
100
AcDbLine
 10
112.7804356124
 20
67.8695160459
 30
0.0
 11
112.7804356124
 21
67.8328253593
 31
0.0
  0
SPLINE
  5
AD
330
1F
100
AcDbEntity
  8
0
  6
Continuous
 62
     7
370
    25
100
AcDbSpline
210
0.0
220
0.0
230
1.0
 70
     8
 71
     3
 72
    13
 73
     9
 74
     0
 42
0.00000001
 43
0.00000001
 40
0.0
 40
0.0
 40
0.0
 40
0.0
 40
0.1560946016369959
 40
0.3121477071956464
 40
0.4719957467881205
 40
0.6318375672398628
 40
0.8152147947534367
 40
1.0
 40
1.0
 40
1.0
 40
1.0
 10
112.7804356124449
 20
63.36068940431727
 30
0.0
 10
112.6758897625946
 20
63.5900271066678
 30
0.0
 10
112.4668258552885
 20
64.04864154439649
 30
0.0
 10
112.2699023961888
 20
64.75372975734305
 30
0.0
 10
112.1842219226516
 20
65.46993849106691
 30
0.0
 10
112.2283238620912
 20
66.2282734384868
 30
0.0
 10
112.4146798007852
 20
67.01976703858936
 30
0.0
 10
112.6582065656381
 20
67.56111581876307
 30
0.0
 10
112.7804356124449
 20
67.83282535931674
 30
0.0
  0
LINE
  5
AE
330
1F
100
AcDbEntity
  8
0
  6
Continuous
 62
     7
370
    25
100
AcDbLine
 10
112.7804356124
 20
63.3606894043
 30
0.0
 11
112.7804356124
 21
61.8416520009
 31
0.0
  0
SPLINE
  5
AF
330
1F
100
AcDbEntity
  8
0
  6
Continuous
 62
     7
370
    25
100
AcDbSpline
210
0.0
220
0.0
230
1.0
 70
     8
 71
     3
 72
    14
 73
    10
 74
     0
 42
0.00000001
 43
0.00000001
 40
0.0
 40
0.0
 40
0.0
 40
0.0
 40
0.1151637259473398
 40
0.2655051613930186
 40
0.4158145907537728
 40
0.5699258496929775
 40
0.7240503276523452
 40
0.8617568937687804
 40
1.0
 40
1.0
 40
1.0
 40
1.0
 10
112.7804356124449
 20
52.89738009086528
 30
0.0
 10
112.7017941735036
 20
53.23539402567902
 30
0.0
 10
112.5204896197778
 20
54.01467103827625
 30
0.0
 10
112.3216912136654
 20
55.25297588910925
 30
0.0
 10
112.2005598292572
 20
56.61906310522813
 30
0.0
 10
112.1962960899605
 20
58.00246171449577
 30
0.0
 10
112.3044708138353
 20
59.34300521910412
 30
0.0
 10
112.500470615504
 20
60.62517515716654
 30
0.0
 10
112.6869930590863
 20
61.43563445003185
 30
0.0
 10
112.7804356124449
 20
61.84165200086446
 30
0.0
  0
LINE
  5
B0
330
1F
100
AcDbEntity
  8
0
  6
Continuous
 62
     7
370
    25
100
AcDbLine
 10
112.7804356124
 20
52.8973800909
 30
0.0
 11
112.7804356124
 21
51.3783426874
 31
0.0
  0
SPLINE
  5
B1
330
1F
100
AcDbEntity
  8
0
  6
Continuous
 62
     7
370
    25
100
AcDbSpline
210
0.0
220
0.0
230
1.0
 70
     8
 71
     3
 72
    13
 73
     9
 74
     0
 42
0.00000001
 43
0.00000001
 40
0.0
 40
0.0
 40
0.0
 40
0.0
 40
0.1560946016369932
 40
0.3121477071956409
 40
0.4719957467881122
 40
0.6318375672398514
 40
0.815214794753431
 40
1.0
 40
1.0
 40
1.0
 40
1.0
 10
112.7804356124449
 20
46.90620673241282
 30
0.0
 10
112.6758897625946
 20
47.13554443476335
 30
0.0
 10
112.4668258552885
 20
47.59415887249206
 30
0.0
 10
112.2699023961888
 20
48.29924708543862
 30
0.0
 10
112.1842219226516
 20
49.01545581916252
 30
0.0
 10
112.2283238620911
 20
49.77379076658244
 30
0.0
 10
112.4146798007852
 20
50.56528436668504
 30
0.0
 10
112.6582065656381
 20
51.10663314685879
 30
0.0
 10
112.7804356124449
 20
51.37834268741248
 30
0.0
  0
LINE
  5
B2
330
1F
100
AcDbEntity
  8
0
  6
Continuous
 62
     7
370
    25
100
AcDbLine
 10
112.7804356124
 20
46.9062067324
 30
0.0
 11
112.7804356124
 21
46.8695160459
 31
0.0
  0
LINE
  5
B3
330
1F
100
AcDbEntity
  8
0
  6
Continuous
 62
     7
370
    25
100
AcDbLine
 10
117.3370599395
 20
46.8695160459
 30
0.0
 11
117.3370599395
 21
46.9062067324
 31
0.0
  0
SPLINE
  5
B4
330
1F
100
AcDbEntity
  8
0
  6
Continuous
 62
     7
370
    25
100
AcDbSpline
210
0.0
220
0.0
230
1.0
 70
     8
 71
     3
 72
    13
 73
     9
 74
     0
 42
0.00000001
 43
0.00000001
 40
0.0
 40
0.0
 40
0.0
 40
0.0
 40
0.1560946016369929
 40
0.3121477071956407
 40
0.4719957467881117
 40
0.6318375672398507
 40
0.8152147947534306
 40
1.0
 40
1.0
 40
1.0
 40
1.0
 10
117.3370599394709
 20
51.37834268741248
 30
0.0
 10
117.4416057893212
 20
51.14900498506195
 30
0.0
 10
117.6506696966273
 20
50.69039054733324
 30
0.0
 10
117.847593155727
 20
49.98530233438667
 30
0.0
 10
117.9332736292642
 20
49.26909360066279
 30
0.0
 10
117.8891716898246
 20
48.51075865324287
 30
0.0
 10
117.7028157511306
 20
47.71926505314025
 30
0.0
 10
117.4592889862777
 20
47.17791627296651
 30
0.0
 10
117.3370599394709
 20
46.90620673241282
 30
0.0
  0
LINE
  5
B5
330
1F
100
AcDbEntity
  8
0
  6
Continuous
 62
     7
370
    25
100
AcDbLine
 10
117.3370599395
 20
51.3783426874
 30
0.0
 11
117.3370599395
 21
52.8973800909
 31
0.0
  0
SPLINE
  5
B6
330
1F
100
AcDbEntity
  8
0
  6
Continuous
 62
     7
370
    25
100
AcDbSpline
210
0.0
220
0.0
230
1.0
 70
     8
 71
     3
 72
    14
 73
    10
 74
     0
 42
0.00000001
 43
0.00000001
 40
0.0
 40
0.0
 40
0.0
 40
0.0
 40
0.1378112084178204
 40
0.2761084666007194
 40
0.4263630367413825
 40
0.5766050274707357
 40
0.730800079132035
 40
0.885030206770378
 40
1.0
 40
1.0
 40
1.0
 40
1.0
 10
117.3370599394709
 20
61.84165200086446
 30
0.0
 10
117.4302282107863
 20
61.4369080233994
 30
0.0
 10
117.6168933509012
 20
60.6259925669081
 30
0.0
 10
117.8112636514452
 20
59.35488005702259
 30
0.0
 10
117.9189548801842
 20
58.0360013224313
 30
0.0
 10
117.9189668211279
 20
56.66431424526326
 30
0.0
 10
117.8007932773595
 20
55.28605445870036
 30
0.0
 10
117.5994002808184
 20
54.02494342970871
 30
0.0
 10
117.4155700710448
 20
53.23482398392344
 30
0.0
 10
117.3370599394709
 20
52.89738009086528
 30
0.0
  0
LINE
  5
B7
330
1F
100
AcDbEntity
  8
0
  6
Continuous
 62
     7
370
    25
100
AcDbLine
 10
117.3370599395
 20
61.8416520009
 30
0.0
 11
117.3370599395
 21
63.3606894043
 31
0.0
  0
SPLINE
  5
B8
330
1F
100
AcDbEntity
  8
0
  6
Continuous
 62
     7
370
    25
100
AcDbSpline
210
0.0
220
0.0
230
1.0
 70
     8
 71
     3
 72
    13
 73
     9
 74
     0
 42
0.00000001
 43
0.00000001
 40
0.0
 40
0.0
 40
0.0
 40
0.0
 40
0.1560946016369959
 40
0.3121477071956467
 40
0.4719957467881207
 40
0.631837567239863
 40
0.8152147947534367
 40
1.0
 40
1.0
 40
1.0
 40
1.0
 10
117.3370599394709
 20
67.83282535931674
 30
0.0
 10
117.4416057893212
 20
67.60348765696621
 30
0.0
 10
117.6506696966273
 20
67.14487321923751
 30
0.0
 10
117.847593155727
 20
66.43978500629098
 30
0.0
 10
117.9332736292642
 20
65.72357627256709
 30
0.0
 10
117.8891716898246
 20
64.9652413251472
 30
0.0
 10
117.7028157511306
 20
64.17374772504465
 30
0.0
 10
117.4592889862777
 20
63.63239894487094
 30
0.0
 10
117.3370599394709
 20
63.36068940431727
 30
0.0
  0
LINE
  5
B9
330
1F
100
AcDbEntity
  8
0
  6
Continuous
 62
     7
370
    25
100
AcDbLine
 10
117.3370599395
 20
67.8328253593
 30
0.0
 11
117.3370599395
 21
67.8695160459
 31
0.0
  0
LINE
  5
BA
330
1F
100
AcDbEntity
  8
0
  6
Continuous
 62
     7
370
    25
100
AcDbLine
 10
117.3370599395
 20
52.8973800909
 30
0.0
 11
112.7804356124
 21
52.8973800909
 31
0.0
  0
LINE
  5
BB
330
1F
100
AcDbEntity
  8
0
  6
Continuous
 62
     7
370
    25
100
AcDbLine
 10
112.7804356124
 20
61.8416520009
 30
0.0
 11
117.3370599395
 21
61.8416520009
 31
0.0
  0
LINE
  5
BC
330
1F
100
AcDbEntity
  8
0
  6
Continuous
 62
     7
370
    25
100
AcDbLine
 10
112.7804356124
 20
51.3783426874
 30
0.0
 11
117.3370599395
 21
51.3783426874
 31
0.0
  0
LINE
  5
BD
330
1F
100
AcDbEntity
  8
0
  6
Continuous
 62
     7
370
    25
100
AcDbLine
 10
117.3370599395
 20
63.3606894043
 30
0.0
 11
112.7804356124
 21
63.3606894043
 31
0.0
  0
LINE
  5
BE
330
1F
100
AcDbEntity
  8
0
  6
Continuous
 62
     7
370
    25
100
AcDbLine
 10
117.3370599395
 20
46.9062067324
 30
0.0
 11
112.7804356124
 21
46.9062067324
 31
0.0
  0
LINE
  5
BF
330
1F
100
AcDbEntity
  8
0
  6
Continuous
 62
     7
370
    25
100
AcDbLine
 10
112.7804356124
 20
67.8328253593
 30
0.0
 11
117.3370599395
 21
67.8328253593
 31
0.0
  0
SPLINE
  5
C0
330
1F
100
AcDbEntity
  8
0
  6
Continuous
 62
     7
370
    25
100
AcDbSpline
210
0.0
220
0.0
230
1.0
 70
     8
 71
     3
 72
    15
 73
    11
 74
     0
 42
0.00000001
 43
0.00000001
 40
0.0
 40
0.0
 40
0.0
 40
0.0
 40
0.0090459071881971
 40
0.1032433785236876
 40
0.1542564497735193
 40
0.3133169026715103
 40
0.524372039941443
 40
0.6678060008509185
 40
0.9918332554187027
 40
0.9999999999999999
 40
0.9999999999999999
 40
0.9999999999999999
 40
0.9999999999999999
 10
133.297833108616
 20
84.46951604586478
 30
0.0
 10
133.2978274166493
 20
84.4711971444492
 30
0.0
 10
133.2977624526985
 20
84.49038397600472
 30
0.0
 10
133.2957667662627
 20
84.51907825552469
 30
0.0
 10
133.2879497700462
 20
84.56975429549664
 30
0.0
 10
133.2707799462912
 20
84.62763059507353
 30
0.0
 10
133.2441960497237
 20
84.67249610980821
 30
0.0
 10
133.2063667512351
 20
84.70985849306278
 30
0.0
 10
133.1780859712248
 20
84.71940450533205
 30
0.0
 10
133.1582548236936
 20
84.71951336951899
 30
0.0
 10
133.1577672895507
 20
84.71951604586478
 30
0.0
  0
LINE
  5
C1
330
1F
100
AcDbEntity
  8
0
  6
Continuous
 62
     7
370
    25
100
AcDbLine
 10
133.2978331086
 20
84.4695160459
 30
0.0
 11
122.8196624433
 21
84.4695160459
 31
0.0
  0
SPLINE
  5
C2
330
1F
100
AcDbEntity
  8
0
  6
Continuous
 62
     7
370
    25
100
AcDbSpline
210
0.0
220
0.0
230
1.0
 70
     8
 71
     3
 72
    15
 73
    11
 74
     0
 42
0.00000001
 43
0.00000001
 40
0.0
 40
0.0
 40
0.0
 40
0.0
 40
0.0081667445812973
 40
0.3321939991490806
 40
0.4756279600585563
 40
0.6866830973284899
 40
0.8457435502264806
 40
0.8967566214763123
 40
0.9909540928118028
 40
1.0
 40
1.0
 40
1.0
 40
1.0
 10
122.9597282623651
 20
84.71951604586478
 30
0.0
 10
122.9592407282222
 20
84.71951336951899
 30
0.0
 10
122.939409580691
 20
84.7194045053323
 30
0.0
 10
122.9111288006807
 20
84.70985849306274
 30
0.0
 10
122.8732995021921
 20
84.67249610980821
 30
0.0
 10
122.8467156056246
 20
84.62763059507353
 30
0.0
 10
122.8295457818696
 20
84.56975429549662
 30
0.0
 10
122.8217287856531
 20
84.5190782555247
 30
0.0
 10
122.8197330992173
 20
84.49038397600471
 30
0.0
 10
122.8196681352665
 20
84.4711971444492
 30
0.0
 10
122.8196624432998
 20
84.46951604586478
 30
0.0
  0
LINE
  5
C3
330
1F
100
AcDbEntity
  8
0
  6
Continuous
 62
     7
370
    25
100
AcDbLine
 10
122.9597282624
 20
84.7195160459
 30
0.0
 11
133.1577672896
 21
84.7195160459
 31
0.0
  0
LINE
  5
C4
330
1F
100
AcDbEntity
  8
0
  6
Continuous
 62
     7
370
    25
100
AcDbLine
 10
133.2978331086
 20
83.8695160459
 30
0.0
 11
133.2978331086
 21
84.4695160459
 31
0.0
  0
LINE
  5
C5
330
1F
100
AcDbEntity
  8
0
  6
Continuous
 62
     7
370
    25
100
AcDbLine
 10
122.8196624433
 20
83.8695160459
 30
0.0
 11
133.2978331086
 21
83.8695160459
 31
0.0
  0
LINE
  5
C6
330
1F
100
AcDbEntity
  8
0
  6
Continuous
 62
     7
370
    25
100
AcDbLine
 10
122.8196624433
 20
84.4695160459
 30
0.0
 11
122.8196624433
 21
83.8695160459
 31
0.0
  0
SPLINE
  5
C7
330
1F
100
AcDbEntity
  8
0
  6
Continuous
 62
     7
370
    25
100
AcDbSpline
210
0.0
220
0.0
230
1.0
 70
     8
 71
     3
 72
    15
 73
    11
 74
     0
 42
0.00000001
 43
0.00000001
 40
0.0
 40
0.0
 40
0.0
 40
0.0
 40
0.0089557228015919
 40
0.099900335960821
 40
0.1531632460581752
 40
0.3125636920784863
 40
0.5249666935695052
 40
0.6689893599351772
 40
0.991915253381045
 40
1.0
 40
1.0
 40
1.0
 40
1.0
 10
122.5815222009062
 20
84.46951604586478
 30
0.0
 10
122.5815379564849
 20
84.47119717143768
 30
0.0
 10
122.5817137086414
 20
84.4899499860621
 30
0.0
 10
122.5871427246609
 20
84.51871221516963
 30
0.0
 10
122.6086782083682
 20
84.5695992886379
 30
0.0
 10
122.6563836366331
 20
84.6277349387706
 30
0.0
 10
122.728774581625
 20
84.67244281195397
 30
0.0
 10
122.8306936936427
 20
84.70972463541575
 30
0.0
 10
122.9060487850977
 20
84.71940379025335
 30
0.0
 10
122.958448430821
 20
84.7195133694551
 30
0.0
 10
122.9597282623651
 20
84.71951604586478
 30
0.0
  0
LINE
  5
C8
330
1F
100
AcDbEntity
  8
0
  6
Continuous
 62
     7
370
    25
100
AcDbLine
 10
122.5815222009
 20
84.4695160459
 30
0.0
 11
122.8196624433
 21
84.4695160459
 31
0.0
  0
SPLINE
  5
C9
330
1F
100
AcDbEntity
  8
0
  6
Continuous
 62
     7
370
    25
100
AcDbSpline
210
0.0
220
0.0
230
1.0
 70
     8
 71
     3
 72
    15
 73
    11
 74
     0
 42
0.00000001
 43
0.00000001
 40
0.0
 40
0.0
 40
0.0
 40
0.0
 40
0.0080847466189581
 40
0.3310106400648243
 40
0.4750333064304945
 40
0.6874363079215134
 40
0.8468367539418247
 40
0.9000996640391788
 40
0.991044277198408
 40
1.0
 40
1.0
 40
1.0
 40
1.0
 10
133.1577672895507
 20
84.71951604586478
 30
0.0
 10
133.1590471210948
 20
84.7195133694551
 30
0.0
 10
133.211446766818
 20
84.71940379025324
 30
0.0
 10
133.2868018582732
 20
84.70972463541577
 30
0.0
 10
133.3887209702908
 20
84.67244281195397
 30
0.0
 10
133.4611119152827
 20
84.62773493877057
 30
0.0
 10
133.5088173435475
 20
84.56959928863795
 30
0.0
 10
133.5303528272549
 20
84.51871221516961
 30
0.0
 10
133.5357818432744
 20
84.48994998606213
 30
0.0
 10
133.535957595431
 20
84.47119717143768
 30
0.0
 10
133.5359733510095
 20
84.46951604586478
 30
0.0
  0
LINE
  5
CA
330
1F
100
AcDbEntity
  8
0
  6
Continuous
 62
     7
370
    25
100
AcDbLine
 10
133.2978331086
 20
84.4695160459
 30
0.0
 11
133.535973351
 21
84.4695160459
 31
0.0
  0
LINE
  5
CB
330
1F
100
AcDbEntity
  8
0
  6
Continuous
 62
     7
370
    25
100
AcDbLine
 10
122.5815222009
 20
83.8695160459
 30
0.0
 11
122.5815222009
 21
84.4695160459
 31
0.0
  0
LINE
  5
CC
330
1F
100
AcDbEntity
  8
0
  6
Continuous
 62
     7
370
    25
100
AcDbLine
 10
122.8196624433
 20
83.8695160459
 30
0.0
 11
122.5815222009
 21
83.8695160459
 31
0.0
  0
LINE
  5
CD
330
1F
100
AcDbEntity
  8
0
  6
Continuous
 62
     7
370
    25
100
AcDbLine
 10
133.535973351
 20
84.4695160459
 30
0.0
 11
133.535973351
 21
83.8695160459
 31
0.0
  0
LINE
  5
CE
330
1F
100
AcDbEntity
  8
0
  6
Continuous
 62
     7
370
    25
100
AcDbLine
 10
133.535973351
 20
83.8695160459
 30
0.0
 11
133.2978331086
 21
83.8695160459
 31
0.0
  0
LINE
  5
CF
330
1F
100
AcDbEntity
  8
0
  6
Continuous
 62
     7
370
    25
100
AcDbLine
 10
122.058747776
 20
83.8695160459
 30
0.0
 11
122.058747776
 21
84.4695160459
 31
0.0
  0
LINE
  5
D0
330
1F
100
AcDbEntity
  8
0
  6
Continuous
 62
     7
370
    25
100
AcDbLine
 10
122.058747776
 20
84.4695160459
 30
0.0
 11
122.308747776
 21
84.4695160459
 31
0.0
  0
LINE
  5
D1
330
1F
100
AcDbEntity
  8
0
  6
Continuous
 62
     7
370
    25
100
AcDbLine
 10
122.308747776
 20
84.4695160459
 30
0.0
 11
122.308747776
 21
83.8695160459
 31
0.0
  0
LINE
  5
D2
330
1F
100
AcDbEntity
  8
0
  6
Continuous
 62
     7
370
    25
100
AcDbLine
 10
122.308747776
 20
83.8695160459
 30
0.0
 11
122.058747776
 21
83.8695160459
 31
0.0
  0
LINE
  5
D3
330
1F
100
AcDbEntity
  8
0
  6
Continuous
 62
     7
370
    25
100
AcDbLine
 10
122.5815222009
 20
84.4695160459
 30
0.0
 11
122.308747776
 21
84.4695160459
 31
0.0
  0
LINE
  5
D4
330
1F
100
AcDbEntity
  8
0
  6
Continuous
 62
     7
370
    25
100
AcDbLine
 10
122.308747776
 20
84.7195160459
 30
0.0
 11
122.308747776
 21
84.4695160459
 31
0.0
  0
LINE
  5
D5
330
1F
100
AcDbEntity
  8
0
  6
Continuous
 62
     7
370
    25
100
AcDbLine
 10
122.308747776
 20
84.7195160459
 30
0.0
 11
122.9597282624
 21
84.7195160459
 31
0.0
  0
ARC
  5
D6
330
1F
100
AcDbEntity
  8
0
  6
Continuous
 62
     7
370
    25
100
AcDbCircle
 10
122.308747776
 20
84.4695160459
 30
0.0
 40
0.25
100
AcDbArc
 50
90.0
 51
180.0
  0
LINE
  5
D7
330
1F
100
AcDbEntity
  8
0
  6
Continuous
 62
     7
370
    25
100
AcDbLine
 10
122.308747776
 20
83.8695160459
 30
0.0
 11
122.5815222009
 21
83.8695160459
 31
0.0
  0
LINE
  5
D8
330
1F
100
AcDbEntity
  8
0
  6
Continuous
 62
     7
370
    25
100
AcDbLine
 10
133.808747776
 20
83.8695160459
 30
0.0
 11
133.808747776
 21
84.4695160459
 31
0.0
  0
LINE
  5
D9
330
1F
100
AcDbEntity
  8
0
  6
Continuous
 62
     7
370
    25
100
AcDbLine
 10
133.808747776
 20
84.4695160459
 30
0.0
 11
133.535973351
 21
84.4695160459
 31
0.0
  0
LINE
  5
DA
330
1F
100
AcDbEntity
  8
0
  6
Continuous
 62
     7
370
    25
100
AcDbLine
 10
133.535973351
 20
83.8695160459
 30
0.0
 11
133.808747776
 21
83.8695160459
 31
0.0
  0
LINE
  5
DB
330
1F
100
AcDbEntity
  8
0
  6
Continuous
 62
     7
370
    25
100
AcDbLine
 10
133.808747776
 20
84.4695160459
 30
0.0
 11
133.808747776
 21
84.7195160459
 31
0.0
  0
LINE
  5
DC
330
1F
100
AcDbEntity
  8
0
  6
Continuous
 62
     7
370
    25
100
AcDbLine
 10
133.1577672896
 20
84.7195160459
 30
0.0
 11
133.808747776
 21
84.7195160459
 31
0.0
  0
LINE
  5
DD
330
1F
100
AcDbEntity
  8
0
  6
Continuous
 62
     7
370
    25
100
AcDbLine
 10
133.808747776
 20
84.4695160459
 30
0.0
 11
134.058747776
 21
84.4695160459
 31
0.0
  0
LINE
  5
DE
330
1F
100
AcDbEntity
  8
0
  6
Continuous
 62
     7
370
    25
100
AcDbLine
 10
134.058747776
 20
84.4695160459
 30
0.0
 11
134.058747776
 21
83.8695160459
 31
0.0
  0
LINE
  5
DF
330
1F
100
AcDbEntity
  8
0
  6
Continuous
 62
     7
370
    25
100
AcDbLine
 10
134.058747776
 20
83.8695160459
 30
0.0
 11
133.808747776
 21
83.8695160459
 31
0.0
  0
ARC
  5
E0
330
1F
100
AcDbEntity
  8
0
  6
Continuous
 62
     7
370
    25
100
AcDbCircle
 10
133.808747776
 20
84.4695160459
 30
0.0
 40
0.25
100
AcDbArc
 50
0.0
 51
90.0
  0
LINE
  5
E1
330
1F
100
AcDbEntity
  8
0
  6
Continuous
 62
     7
370
    25
100
AcDbLine
 10
123.058747776
 20
84.7195160459
 30
0.0
 11
123.058747776
 21
84.7295160459
 31
0.0
  0
LINE
  5
E2
330
1F
100
AcDbEntity
  8
0
  6
Continuous
 62
     7
370
    25
100
AcDbLine
 10
133.058747776
 20
84.7195160459
 30
0.0
 11
133.058747776
 21
84.7295160459
 31
0.0
  0
LINE
  5
E3
330
1F
100
AcDbEntity
  8
0
  6
Continuous
 62
     7
370
    25
100
AcDbLine
 10
123.058747776
 20
84.7295160459
 30
0.0
 11
133.058747776
 21
84.7295160459
 31
0.0
  0
LINE
  5
E4
330
1F
100
AcDbEntity
  8
0
  6
Continuous
 62
     7
370
    25
100
AcDbLine
 10
126.058747776
 20
67.8695160459
 30
0.0
 11
135.058747776
 21
67.8695160459
 31
0.0
  0
LINE
  5
E5
330
1F
100
AcDbEntity
  8
0
  6
Continuous
 62
     7
370
    25
100
AcDbLine
 10
126.058747776
 20
67.9073329697
 30
0.0
 11
126.058747776
 21
67.8695160459
 31
0.0
  0
SPLINE
  5
E6
330
1F
100
AcDbEntity
  8
0
  6
Continuous
 62
     7
370
    25
100
AcDbSpline
210
0.0
220
0.0
230
1.0
 70
     8
 71
     3
 72
     9
 73
     5
 74
     0
 42
0.00000001
 43
0.00000001
 40
0.0
 40
0.0
 40
0.0
 40
0.0
 40
0.4875141023677128
 40
0.9999999999999999
 40
0.9999999999999999
 40
0.9999999999999999
 40
0.9999999999999999
 10
125.9028025255307
 20
67.86951604586483
 30
0.0
 10
125.9291090994533
 20
67.87124339183653
 30
0.0
 10
125.9830697414015
 20
67.87478656312801
 30
0.0
 10
126.0331052720963
 20
67.89630504907733
 30
0.0
 10
126.0587477759579
 20
67.90733296966475
 30
0.0
  0
SPLINE
  5
E7
330
1F
100
AcDbEntity
  8
0
  6
Continuous
 62
     7
370
    25
100
AcDbSpline
210
0.0
220
0.0
230
1.0
 70
     8
 71
     3
 72
    17
 73
    13
 74
     0
 42
0.00000001
 43
0.00000001
 40
0.0
 40
0.0
 40
0.0
 40
0.0
 40
0.3241697628029873
 40
0.5422758463620719
 40
0.689509052693928
 40
0.7894036290694505
 40
0.8577090008137825
 40
0.9049823971474137
 40
0.9551712229700868
 40
0.9753097783197817
 40
0.9919572060138848
 40
1.0
 40
1.0
 40
1.0
 40
1.0
 10
123.5842008918757
 20
75.86951604586241
 30
0.0
 10
123.7269162518929
 20
74.95690254325672
 30
0.0
 10
123.9656525608349
 20
73.43026953699538
 30
0.0
 10
124.3452397552865
 20
71.50349663471442
 30
0.0
 10
124.6543739636336
 20
70.21586116378164
 30
0.0
 10
124.9104874918337
 20
69.3567091970599
 30
0.0
 10
125.1247984947287
 20
68.7832413086825
 30
0.0
 10
125.3280327157566
 20
68.36170915465253
 30
0.0
 10
125.5125779802992
 20
68.0812166118571
 30
0.0
 10
125.6986490666674
 20
67.92566794327644
 30
0.0
 10
125.8138596659233
 20
67.87505734407895
 30
0.0
 10
125.8809484713962
 20
67.87087759227431
 30
0.0
 10
125.9028025255307
 20
67.86951604586483
 30
0.0
  0
LINE
  5
E8
330
1F
100
AcDbEntity
  8
0
  6
Continuous
 62
     7
370
    25
100
AcDbLine
 10
123.5842008919
 20
75.8695160459
 30
0.0
 11
135.508747776
 21
75.8695160458
 31
0.0
  0
SPLINE
  5
E9
330
1F
100
AcDbEntity
  8
0
  6
Continuous
 62
     7
370
    25
100
AcDbSpline
210
0.0
220
0.0
230
1.0
 70
     8
 71
     3
 72
     9
 73
     5
 74
     0
 42
0.00000001
 43
0.00000001
 40
0.0
 40
0.0
 40
0.0
 40
0.0
 40
0.4978401817595094
 40
1.0
 40
1.0
 40
1.0
 40
1.0
 10
124.3444116476375
 20
76.8642596238317
 30
0.0
 10
124.2080897392669
 20
76.7077484411391
 30
0.0
 10
123.934263090946
 20
76.39336806682009
 30
0.0
 10
123.7012238398493
 20
76.04463551879381
 30
0.0
 10
123.5842008918757
 20
75.86951604586241
 30
0.0
  0
LINE
  5
EA
330
1F
100
AcDbEntity
  8
0
  6
Continuous
 62
     7
370
    25
100
AcDbLine
 10
122.8349456016
 20
83.8695160458
 30
0.0
 11
121.1068069376
 21
76.8642596238
 31
0.0
  0
LINE
  5
EB
330
1F
100
AcDbEntity
  8
0
  6
Continuous
 62
     7
370
    25
100
AcDbLine
 10
133.2978331086
 20
83.8695160458
 30
0.0
 11
122.8349456016
 21
83.8695160458
 31
0.0
  0
SPLINE
  5
EC
330
1F
100
AcDbEntity
  8
0
  6
Continuous
 62
     7
370
    25
100
AcDbSpline
210
0.0
220
0.0
230
1.0
 70
     8
 71
     3
 72
    14
 73
    10
 74
     0
 42
0.00000001
 43
0.00000001
 40
0.0
 40
0.0
 40
0.0
 40
0.0
 40
0.1576095309202822
 40
0.3152382602707094
 40
0.4726926441579498
 40
0.6301650083177254
 40
0.7907313191165901
 40
0.9513050385928076
 40
1.0
 40
1.0
 40
1.0
 40
1.0
 10
121.5587477759579
 20
67.86951604586477
 30
0.0
 10
121.4921767611759
 20
68.08301783434217
 30
0.0
 10
121.3590266225909
 20
68.51004741796768
 30
0.0
 10
121.0304596608402
 20
69.095294496824
 30
0.0
 10
120.6170700201082
 20
69.61744903764641
 30
0.0
 10
120.1213951011636
 20
70.06642716506629
 30
0.0
 10
119.5551053958791
 20
70.42570889687266
 30
0.0
 10
119.078854739486
 20
70.63027507597386
 30
0.0
 10
118.7986601712933
 20
70.71106962432515
 30
0.0
 10
118.7334613865202
 20
70.72986979737193
 30
0.0
  0
LINE
  5
ED
330
1F
100
AcDbEntity
  8
0
  6
Continuous
 62
     7
370
    25
100
AcDbLine
 10
118.7334613865
 20
70.7298697974
 30
0.0
 11
112.9537045367
 21
72.2984912379
 31
0.0
  0
SPLINE
  5
EE
330
1F
100
AcDbEntity
  8
0
  6
Continuous
 62
     7
370
    25
100
AcDbSpline
210
0.0
220
0.0
230
1.0
 70
     8
 71
     3
 72
    11
 73
     7
 74
     0
 42
0.00000001
 43
0.00000001
 40
0.0
 40
0.0
 40
0.0
 40
0.0
 40
0.2488466353289361
 40
0.4976946020535204
 40
0.7488461225871278
 40
1.0
 40
1.0
 40
1.0
 40
1.0
 10
105.8833109144212
 20
73.62169173884031
 30
0.0
 10
106.4777469635575
 20
73.55216736234668
 30
0.0
 10
107.6666222422209
 20
73.41311823738552
 30
0.0
 10
109.4413469129299
 20
73.11278949926023
 30
0.0
 10
111.2079275546723
 20
72.75087988100508
 30
0.0
 10
112.371777055692
 20
72.44928792394052
 30
0.0
 10
112.953704536665
 20
72.2984912378548
 30
0.0
  0
LINE
  5
EF
330
1F
100
AcDbEntity
  8
0
  6
Continuous
 62
     7
370
    25
100
AcDbLine
 10
105.8833109144
 20
73.6216917388
 30
0.0
 11
105.8833109144
 21
76.8642596239
 31
0.0
  0
LINE
  5
F0
330
1F
100
AcDbEntity
  8
0
  6
Continuous
 62
     7
370
    25
100
AcDbLine
 10
105.8833109144
 20
76.8642596239
 30
0.0
 11
124.3444116476
 21
76.8642596238
 31
0.0
  0
LINE
  5
F1
330
1F
100
AcDbEntity
  8
0
  6
Continuous
 62
     7
370
    25
100
AcDbLine
 10
125.9028025255
 20
67.8695160459
 30
0.0
 11
121.558747776
 21
67.8695160459
 31
0.0
  0
LINE
  5
F2
330
1F
100
AcDbEntity
  8
0
  6
Continuous
 62
     7
370
    25
100
AcDbLine
 10
126.058747776
 20
67.9073329697
 30
0.0
 11
126.051948418
 21
67.8695160459
 31
0.0
  0
LINE
  5
F3
330
1F
100
AcDbEntity
  8
0
  6
Continuous
 62
     7
370
    25
100
AcDbLine
 10
126.058747776
 20
67.8695160459
 30
0.0
 11
126.051948418
 21
67.8695160459
 31
0.0
  0
LINE
  5
F4
330
1F
100
AcDbEntity
  8
0
  6
Continuous
 62
     7
370
    25
100
AcDbLine
 10
126.051948418
 20
67.8695160459
 30
0.0
 11
125.9028025255
 21
67.8695160459
 31
0.0
  0
LINE
  5
F5
330
1F
100
AcDbEntity
  8
0
  6
Continuous
 62
     7
370
    25
100
AcDbLine
 10
88.058747776
 20
85.8695160459
 30
0.0
 11
105.8833109144
 21
85.8695160459
 31
0.0
  0
LINE
  5
F6
330
1F
100
AcDbEntity
  8
0
  6
Continuous
 62
     7
370
    25
100
AcDbLine
 10
105.8833109144
 20
85.8695160459
 30
0.0
 11
105.8833109144
 21
76.8642596239
 31
0.0
  0
LINE
  5
F7
330
1F
100
AcDbEntity
  8
0
  6
Continuous
 62
     7
370
    25
100
AcDbLine
 10
101.1670799182
 20
73.8695160459
 30
0.0
 11
93.058747776
 21
73.8695160459
 31
0.0
  0
ARC
  5
F8
330
1F
100
AcDbEntity
  8
0
  6
Continuous
 62
     7
370
    25
100
AcDbCircle
 10
93.058747776
 20
78.8695160459
 30
0.0
 40
5.000000000000014
100
AcDbArc
 50
180.0
 51
270.0
  0
LINE
  5
F9
330
1F
100
AcDbEntity
  8
0
  6
Continuous
 62
     7
370
    25
100
AcDbLine
 10
88.058747776
 20
78.8695160459
 30
0.0
 11
88.058747776
 21
85.8695160459
 31
0.0
  0
ARC
  5
FA
330
1F
100
AcDbEntity
  8
0
  6
Continuous
 62
     7
370
    25
100
AcDbCircle
 10
101.1670799182
 20
28.8693867917
 30
0.0
 40
45.00012925418375
100
AcDbArc
 50
83.9840777705
 51
90.0
  0
LINE
  5
FB
330
1F
100
AcDbEntity
  8
0
  6
Continuous
 62
     7
370
    25
100
AcDbLine
 10
105.8833109144
 20
85.8695160459
 30
0.0
 11
108.058747776
 21
85.8695160459
 31
0.0
  0
LINE
  5
FC
330
1F
100
AcDbEntity
  8
0
  6
Continuous
 62
     7
370
    25
100
AcDbLine
 10
108.058747776
 20
85.8695160459
 30
0.0
 11
108.058747776
 21
83.8884715692
 31
0.0
  0
ARC
  5
FD
330
1F
100
AcDbEntity
  8
0
  6
Continuous
 62
     7
370
    25
100
AcDbCircle
 10
114.058747776
 20
83.8884715692
 30
0.0
 40
6.000000000000003
100
AcDbArc
 50
180.0
 51
275.5801667845
  0
ARC
  5
FE
330
1F
100
AcDbEntity
  8
0
  6
Continuous
 62
     7
370
    25
100
AcDbCircle
 10
113.6697942117
 20
87.8695160459
 30
0.0
 40
10.00000000000848
100
AcDbArc
 50
275.5801667845
 51
336.4218215217
  0
LINE
  5
FF
330
1F
100
AcDbEntity
  8
0
  6
Continuous
 62
     7
370
    25
100
AcDbLine
 10
121.558747776
 20
67.8695160459
 30
0.0
 11
121.058747776
 21
67.8695160459
 31
0.0
  0
LINE
  5
100
330
1F
100
AcDbEntity
  8
0
  6
Continuous
 62
     7
370
    25
100
AcDbLine
 10
122.8196624433
 20
83.8695160458
 30
0.0
 11
122.8349456016
 21
83.8695160458
 31
0.0
  0
LINE
  5
101
330
1F
100
AcDbEntity
  8
0
  6
Continuous
 62
     7
370
    25
100
AcDbLine
 10
137.558747776
 20
47.3695160459
 30
0.0
 11
137.558747776
 21
67.3695160459
 31
0.0
  0
LINE
  5
102
330
1F
100
AcDbEntity
  8
0
  6
Continuous
 62
     7
370
    25
100
AcDbLine
 10
138.058747776
 20
66.8695160459
 30
0.0
 11
138.058747776
 21
47.8695160459
 31
0.0
  0
LINE
  5
103
330
1F
100
AcDbEntity
  8
0
  6
Continuous
 62
     7
370
    25
100
AcDbLine
 10
135.9407137872
 20
47.3695160459
 30
0.0
 11
135.9407137872
 21
67.3695160459
 31
0.0
  0
SPLINE
  5
104
330
1F
100
AcDbEntity
  8
0
  6
Continuous
 62
     7
370
    25
100
AcDbSpline
210
0.0
220
0.0
230
1.0
 70
     8
 71
     3
 72
     8
 73
     4
 74
     0
 42
0.00000001
 43
0.00000001
 40
0.0
 40
0.0
 40
0.0
 40
0.0
 40
1.0
 40
1.0
 40
1.0
 40
1.0
 10
135.6559489006118
 20
51.96982619436888
 30
0.0
 10
135.5881124830358
 20
51.9384632533581
 30
0.0
 10
135.5587477759579
 20
51.90499509270855
 30
0.0
 10
135.5587477759579
 20
51.86951604586478
 30
0.0
  0
SPLINE
  5
105
330
1F
100
AcDbEntity
  8
0
  6
Continuous
 62
     7
370
    25
100
AcDbSpline
210
0.0
220
0.0
230
1.0
 70
     8
 71
     3
 72
    12
 73
     8
 74
     0
 42
0.00000001
 43
0.00000001
 40
0.0
 40
0.0
 40
0.0
 40
0.0
 40
0.5000000000000001
 40
0.5000000000000001
 40
0.75
 40
0.75
 40
1.0
 40
1.0
 40
1.0
 40
1.0
 10
135.6559489006118
 20
51.96982619436888
 30
0.0
 10
135.7238186606216
 20
52.00120455065098
 30
0.0
 10
135.7998532118754
 20
52.13491307114953
 30
0.0
 10
135.8464978102524
 20
52.41293918081531
 30
0.0
 10
135.850936806775
 20
52.51978536481926
 30
0.0
 10
135.8352061929822
 20
52.74666683887501
 30
0.0
 10
135.8153257630398
 20
52.86683581117963
 30
0.0
 10
135.7878338430599
 20
52.98828545598987
 30
0.0
  0
SPLINE
  5
106
330
1F
100
AcDbEntity
  8
0
  6
Continuous
 62
     7
370
    25
100
AcDbSpline
210
0.0
220
0.0
230
1.0
 70
     8
 71
     3
 72
    12
 73
     8
 74
     0
 42
0.00000001
 43
0.00000001
 40
0.0
 40
0.0
 40
0.0
 40
0.0
 40
0.5
 40
0.5
 40
0.75
 40
0.75
 40
1.0
 40
1.0
 40
1.0
 40
1.0
 10
135.5587477759579
 20
57.36951604586478
 30
0.0
 10
135.5587477759579
 20
56.63555902370756
 30
0.0
 10
135.5541903809587
 20
55.90258057934476
 30
0.0
 10
135.581374045338
 20
54.80575646639835
 30
0.0
 10
135.5968237162551
 20
54.44060887782791
 30
0.0
 10
135.659687317787
 20
53.71182086396387
 30
0.0
 10
135.7067172409553
 20
53.34663010856554
 30
0.0
 10
135.78783384306
 20
52.98828545598987
 30
0.0
  0
SPLINE
  5
107
330
1F
100
AcDbEntity
  8
0
  6
Continuous
 62
     7
370
    25
100
AcDbSpline
210
0.0
220
0.0
230
1.0
 70
     8
 71
     3
 72
    12
 73
     8
 74
     0
 42
0.00000001
 43
0.00000001
 40
0.0
 40
0.0
 40
0.0
 40
0.0
 40
0.25
 40
0.25
 40
0.5
 40
0.5
 40
1.0
 40
1.0
 40
1.0
 40
1.0
 10
135.7878338430599
 20
61.75074663573968
 30
0.0
 10
135.7067172409553
 20
61.39240198316401
 30
0.0
 10
135.659687317787
 20
61.02721122776568
 30
0.0
 10
135.5968237162551
 20
60.29842321390164
 30
0.0
 10
135.581374045338
 20
59.93327562533121
 30
0.0
 10
135.5541903809587
 20
58.8364515123848
 30
0.0
 10
135.5587477759579
 20
58.10347306802199
 30
0.0
 10
135.5587477759579
 20
57.36951604586477
 30
0.0
  0
SPLINE
  5
108
330
1F
100
AcDbEntity
  8
0
  6
Continuous
 62
     7
370
    25
100
AcDbSpline
210
0.0
220
0.0
230
1.0
 70
     8
 71
     3
 72
    14
 73
    10
 74
     0
 42
0.00000001
 43
0.00000001
 40
0.0
 40
0.0
 40
0.0
 40
0.0
 40
0.25
 40
0.25
 40
0.5
 40
0.5
 40
0.75
 40
0.75
 40
1.0
 40
1.0
 40
1.0
 40
1.0
 10
135.7878338430599
 20
61.75074663573968
 30
0.0
 10
135.815354830805
 20
61.8723246917254
 30
0.0
 10
135.8352747526414
 20
61.99284942875052
 30
0.0
 10
135.8509417944595
 20
62.21982568785863
 30
0.0
 10
135.8464499626472
 20
62.3267956654248
 30
0.0
 10
135.8151936173636
 20
62.51226121720453
 30
0.0
 10
135.7888210339818
 20
62.59114647832337
 30
0.0
 10
135.7259844828375
 20
62.71178426949646
 30
0.0
 10
135.6899449039774
 20
62.75348845993907
 30
0.0
 10
135.6559489006118
 20
62.76920589736068
 30
0.0
  0
SPLINE
  5
109
330
1F
100
AcDbEntity
  8
0
  6
Continuous
 62
     7
370
    25
100
AcDbSpline
210
0.0
220
0.0
230
1.0
 70
     8
 71
     3
 72
     8
 73
     4
 74
     0
 42
0.00000001
 43
0.00000001
 40
0.0
 40
0.0
 40
0.0
 40
0.0
 40
1.0
 40
1.0
 40
1.0
 40
1.0
 10
135.5587477759579
 20
62.86951604586477
 30
0.0
 10
135.5587477759579
 20
62.834036999021
 30
0.0
 10
135.5881124830358
 20
62.80056883837145
 30
0.0
 10
135.6559489006118
 20
62.76920589736066
 30
0.0
  0
LINE
  5
10A
330
1F
100
AcDbEntity
  8
0
  6
Continuous
 62
     7
370
    25
100
AcDbLine
 10
135.558747776
 20
62.8695160459
 30
0.0
 11
135.558747776
 21
66.3695160459
 31
0.0
  0
LINE
  5
10B
330
1F
100
AcDbEntity
  8
0
  6
Continuous
 62
     7
370
    25
100
AcDbLine
 10
135.558747776
 20
48.3695160459
 30
0.0
 11
135.558747776
 21
51.8695160459
 31
0.0
  0
LINE
  5
10C
330
1F
100
AcDbEntity
  8
0
  6
Continuous
 62
     7
370
    25
100
AcDbLine
 10
118.058747776
 20
57.3695160459
 30
0.0
 11
118.058747776
 21
67.1195160459
 31
0.0
  0
LINE
  5
10D
330
1F
100
AcDbEntity
  8
0
  6
Continuous
 62
     7
370
    25
100
AcDbLine
 10
118.058747776
 20
47.6195160459
 30
0.0
 11
118.058747776
 21
57.3695160459
 31
0.0
  0
LINE
  5
10E
330
1F
100
AcDbEntity
  8
0
  6
Continuous
 62
     7
370
    25
100
AcDbLine
 10
118.308747776
 20
57.3695160459
 30
0.0
 11
118.308747776
 21
47.3695160459
 31
0.0
  0
LINE
  5
10F
330
1F
100
AcDbEntity
  8
0
  6
Continuous
 62
     7
370
    25
100
AcDbLine
 10
118.308747776
 20
67.3695160459
 30
0.0
 11
118.308747776
 21
57.3695160459
 31
0.0
  0
LINE
  5
110
330
1F
100
AcDbEntity
  8
0
  6
Continuous
 62
     7
370
    25
100
AcDbLine
 10
120.1767817647
 20
57.3695160459
 30
0.0
 11
120.1767817647
 21
47.3695160459
 31
0.0
  0
LINE
  5
111
330
1F
100
AcDbEntity
  8
0
  6
Continuous
 62
     7
370
    25
100
AcDbLine
 10
120.1767817647
 20
67.3695160459
 30
0.0
 11
120.1767817647
 21
57.3695160459
 31
0.0
  0
LINE
  5
112
330
1F
100
AcDbEntity
  8
0
  6
Continuous
 62
     7
370
    25
100
AcDbLine
 10
120.558747776
 20
66.3695160459
 30
0.0
 11
120.558747776
 21
62.8695160459
 31
0.0
  0
SPLINE
  5
113
330
1F
100
AcDbEntity
  8
0
  6
Continuous
 62
     7
370
    25
100
AcDbSpline
210
0.0
220
0.0
230
1.0
 70
     8
 71
     3
 72
     8
 73
     4
 74
     0
 42
0.00000001
 43
0.00000001
 40
0.0
 40
0.0
 40
0.0
 40
0.0
 40
1.0
 40
1.0
 40
1.0
 40
1.0
 10
120.461546651304
 20
62.76920589736066
 30
0.0
 10
120.5293830688801
 20
62.80056883837145
 30
0.0
 10
120.5587477759579
 20
62.834036999021
 30
0.0
 10
120.5587477759579
 20
62.86951604586477
 30
0.0
  0
SPLINE
  5
114
330
1F
100
AcDbEntity
  8
0
  6
Continuous
 62
     7
370
    25
100
AcDbSpline
210
0.0
220
0.0
230
1.0
 70
     8
 71
     3
 72
    12
 73
     8
 74
     0
 42
0.00000001
 43
0.00000001
 40
0.0
 40
0.0
 40
0.0
 40
0.0
 40
0.4999999999999992
 40
0.4999999999999992
 40
0.7499999999999996
 40
0.7499999999999996
 40
1.0
 40
1.0
 40
1.0
 40
1.0
 10
120.461546651304
 20
62.76920589736066
 30
0.0
 10
120.3936768912942
 20
62.73782754107858
 30
0.0
 10
120.3176423400404
 20
62.60411902058002
 30
0.0
 10
120.2709977416635
 20
62.32609291091424
 30
0.0
 10
120.2665587451408
 20
62.21924672691028
 30
0.0
 10
120.2822893589336
 20
61.99236525285453
 30
0.0
 10
120.302169788876
 20
61.87219628054992
 30
0.0
 10
120.3296617088559
 20
61.75074663573968
 30
0.0
  0
SPLINE
  5
115
330
1F
100
AcDbEntity
  8
0
  6
Continuous
 62
     7
370
    25
100
AcDbSpline
210
0.0
220
0.0
230
1.0
 70
     8
 71
     3
 72
    12
 73
     8
 74
     0
 42
0.00000001
 43
0.00000001
 40
0.0
 40
0.0
 40
0.0
 40
0.0
 40
0.4999999999999998
 40
0.4999999999999998
 40
0.7499999999999999
 40
0.7499999999999999
 40
1.0
 40
1.0
 40
1.0
 40
1.0
 10
120.5587477759579
 20
57.36951604586476
 30
0.0
 10
120.5587477759579
 20
58.10347306802198
 30
0.0
 10
120.5633051709571
 20
58.83645151238479
 30
0.0
 10
120.5361215065779
 20
59.93327562533121
 30
0.0
 10
120.5206718356607
 20
60.29842321390164
 30
0.0
 10
120.4578082341288
 20
61.02721122776568
 30
0.0
 10
120.4107783109605
 20
61.39240198316401
 30
0.0
 10
120.3296617088559
 20
61.75074663573968
 30
0.0
  0
SPLINE
  5
116
330
1F
100
AcDbEntity
  8
0
  6
Continuous
 62
     7
370
    25
100
AcDbSpline
210
0.0
220
0.0
230
1.0
 70
     8
 71
     3
 72
    12
 73
     8
 74
     0
 42
0.00000001
 43
0.00000001
 40
0.0
 40
0.0
 40
0.0
 40
0.0
 40
0.2500000000000001
 40
0.2500000000000001
 40
0.5000000000000002
 40
0.5000000000000002
 40
1.0
 40
1.0
 40
1.0
 40
1.0
 10
120.3296617088559
 20
52.98828545598987
 30
0.0
 10
120.4107783109605
 20
53.34663010856554
 30
0.0
 10
120.4578082341288
 20
53.71182086396387
 30
0.0
 10
120.5206718356607
 20
54.44060887782791
 30
0.0
 10
120.5361215065779
 20
54.80575646639835
 30
0.0
 10
120.5633051709571
 20
55.90258057934476
 30
0.0
 10
120.5587477759579
 20
56.63555902370756
 30
0.0
 10
120.5587477759579
 20
57.36951604586478
 30
0.0
  0
SPLINE
  5
117
330
1F
100
AcDbEntity
  8
0
  6
Continuous
 62
     7
370
    25
100
AcDbSpline
210
0.0
220
0.0
230
1.0
 70
     8
 71
     3
 72
    14
 73
    10
 74
     0
 42
0.00000001
 43
0.00000001
 40
0.0
 40
0.0
 40
0.0
 40
0.0
 40
0.25
 40
0.25
 40
0.5
 40
0.5
 40
0.75
 40
0.75
 40
1.0
 40
1.0
 40
1.0
 40
1.0
 10
120.3296617088559
 20
52.98828545598987
 30
0.0
 10
120.3021407211108
 20
52.86670740000415
 30
0.0
 10
120.2822207992744
 20
52.74618266297903
 30
0.0
 10
120.2665537574563
 20
52.51920640387092
 30
0.0
 10
120.2710455892686
 20
52.41223642630475
 30
0.0
 10
120.3023019345522
 20
52.22677087452502
 30
0.0
 10
120.328674517934
 20
52.14788561340618
 30
0.0
 10
120.3915110690783
 20
52.02724782223309
 30
0.0
 10
120.4275506479384
 20
51.98554363179048
 30
0.0
 10
120.461546651304
 20
51.96982619436888
 30
0.0
  0
SPLINE
  5
118
330
1F
100
AcDbEntity
  8
0
  6
Continuous
 62
     7
370
    25
100
AcDbSpline
210
0.0
220
0.0
230
1.0
 70
     8
 71
     3
 72
     8
 73
     4
 74
     0
 42
0.00000001
 43
0.00000001
 40
0.0
 40
0.0
 40
0.0
 40
0.0
 40
1.0
 40
1.0
 40
1.0
 40
1.0
 10
120.5587477759579
 20
51.86951604586478
 30
0.0
 10
120.5587477759579
 20
51.90499509270855
 30
0.0
 10
120.5293830688801
 20
51.9384632533581
 30
0.0
 10
120.461546651304
 20
51.96982619436888
 30
0.0
  0
LINE
  5
119
330
1F
100
AcDbEntity
  8
0
  6
Continuous
 62
     7
370
    25
100
AcDbLine
 10
120.558747776
 20
51.8695160459
 30
0.0
 11
120.558747776
 21
48.3695160459
 31
0.0
  0
SPLINE
  5
11A
330
1F
100
AcDbEntity
  8
0
  6
Continuous
 62
     7
370
    25
100
AcDbSpline
210
0.0
220
0.0
230
1.0
 70
     8
 71
     3
 72
    14
 73
    10
 74
     0
 42
0.00000001
 43
0.00000001
 40
0.0
 40
0.0
 40
0.0
 40
0.0
 40
0.2500000000000001
 40
0.2500000000000001
 40
0.5000000000000001
 40
0.5000000000000001
 40
0.7500000000000001
 40
0.7500000000000001
 40
1.0
 40
1.0
 40
1.0
 40
1.0
 10
121.0587477759579
 20
57.36951604586478
 30
0.0
 10
121.0587477759579
 20
56.99299933377781
 30
0.0
 10
121.0591570376775
 20
56.61646327614883
 30
0.0
 10
121.0558456895717
 20
55.86358637730025
 30
0.0
 10
121.052082204107
 20
55.48724756278491
 30
0.0
 10
121.0263089483273
 20
54.73543242406976
 30
0.0
 10
121.0043908536488
 20
54.35995176642076
 30
0.0
 10
120.9191731904635
 20
53.61094652715208
 30
0.0
 10
120.8558602043126
 20
53.23533861171063
 30
0.0
 10
120.7532996864885
 20
52.86951604586478
 30
0.0
  0
LINE
  5
11B
330
1F
100
AcDbEntity
  8
0
  6
Continuous
 62
     7
370
    25
100
AcDbLine
 10
120.7532996865
 20
52.8695160459
 30
0.0
 11
120.3296617089
 21
52.988285456
 31
0.0
  0
LINE
  5
11C
330
1F
100
AcDbEntity
  8
0
  6
Continuous
 62
     7
370
    25
100
AcDbLine
 10
121.058747776
 20
57.3695160459
 30
0.0
 11
120.558747776
 21
57.3695160459
 31
0.0
  0
LINE
  5
11D
330
1F
100
AcDbEntity
  8
0
  6
Continuous
 62
     7
370
    25
100
AcDbLine
 10
135.7878338431
 20
52.988285456
 30
0.0
 11
135.3641958654
 21
52.8695160459
 31
0.0
  0
SPLINE
  5
11E
330
1F
100
AcDbEntity
  8
0
  6
Continuous
 62
     7
370
    25
100
AcDbSpline
210
0.0
220
0.0
230
1.0
 70
     8
 71
     3
 72
    14
 73
    10
 74
     0
 42
0.00000001
 43
0.00000001
 40
0.0
 40
0.0
 40
0.0
 40
0.0
 40
0.2500000000000002
 40
0.2500000000000002
 40
0.5000000000000003
 40
0.5000000000000003
 40
0.7500000000000002
 40
0.7500000000000002
 40
1.0
 40
1.0
 40
1.0
 40
1.0
 10
135.3641958654273
 20
52.86951604586478
 30
0.0
 10
135.2616353476032
 20
53.23533861171063
 30
0.0
 10
135.1983223614523
 20
53.61094652715208
 30
0.0
 10
135.1131046982671
 20
54.35995176642076
 30
0.0
 10
135.0911866035885
 20
54.73543242406977
 30
0.0
 10
135.0654133478088
 20
55.48724756278492
 30
0.0
 10
135.0616498623442
 20
55.86358637730026
 30
0.0
 10
135.0583385142383
 20
56.61646327614885
 30
0.0
 10
135.0587477759579
 20
56.99299933377781
 30
0.0
 10
135.0587477759579
 20
57.36951604586478
 30
0.0
  0
LINE
  5
11F
330
1F
100
AcDbEntity
  8
0
  6
Continuous
 62
     7
370
    25
100
AcDbLine
 10
135.558747776
 20
57.3695160459
 30
0.0
 11
135.058747776
 21
57.3695160459
 31
0.0
  0
SPLINE
  5
120
330
1F
100
AcDbEntity
  8
0
  6
Continuous
 62
     7
370
    25
100
AcDbSpline
210
0.0
220
0.0
230
1.0
 70
     8
 71
     3
 72
    14
 73
    10
 74
     0
 42
0.00000001
 43
0.00000001
 40
0.0
 40
0.0
 40
0.0
 40
0.0
 40
0.2499999999999999
 40
0.2499999999999999
 40
0.4999999999999999
 40
0.4999999999999999
 40
0.7499999999999999
 40
0.7499999999999999
 40
1.0
 40
1.0
 40
1.0
 40
1.0
 10
135.0587477759579
 20
57.36951604586477
 30
0.0
 10
135.0587477759579
 20
57.74603275795175
 30
0.0
 10
135.0583385142383
 20
58.1225688155807
 30
0.0
 10
135.0616498623442
 20
58.87544571442928
 30
0.0
 10
135.0654133478088
 20
59.25178452894463
 30
0.0
 10
135.0911866035885
 20
60.00359966765978
 30
0.0
 10
135.1131046982671
 20
60.37908032530878
 30
0.0
 10
135.1983223614523
 20
61.12808556457747
 30
0.0
 10
135.2616353476032
 20
61.50369348001892
 30
0.0
 10
135.3641958654273
 20
61.86951604586478
 30
0.0
  0
LINE
  5
121
330
1F
100
AcDbEntity
  8
0
  6
Continuous
 62
     7
370
    25
100
AcDbLine
 10
135.7878338431
 20
61.7507466357
 30
0.0
 11
135.3641958654
 21
61.8695160459
 31
0.0
  0
SPLINE
  5
122
330
1F
100
AcDbEntity
  8
0
  6
Continuous
 62
     7
370
    25
100
AcDbSpline
210
0.0
220
0.0
230
1.0
 70
     8
 71
     3
 72
    14
 73
    10
 74
     0
 42
0.00000001
 43
0.00000001
 40
0.0
 40
0.0
 40
0.0
 40
0.0
 40
0.2500000000000001
 40
0.2500000000000001
 40
0.5000000000000001
 40
0.5000000000000001
 40
0.75
 40
0.75
 40
1.0
 40
1.0
 40
1.0
 40
1.0
 10
120.7532996864885
 20
61.86951604586478
 30
0.0
 10
120.8558602043126
 20
61.50369348001892
 30
0.0
 10
120.9191731904635
 20
61.12808556457747
 30
0.0
 10
121.0043908536488
 20
60.37908032530878
 30
0.0
 10
121.0263089483273
 20
60.00359966765977
 30
0.0
 10
121.052082204107
 20
59.25178452894463
 30
0.0
 10
121.0558456895717
 20
58.87544571442928
 30
0.0
 10
121.0591570376776
 20
58.12256881558069
 30
0.0
 10
121.0587477759579
 20
57.74603275795173
 30
0.0
 10
121.0587477759579
 20
57.36951604586476
 30
0.0
  0
LINE
  5
123
330
1F
100
AcDbEntity
  8
0
  6
Continuous
 62
     7
370
    25
100
AcDbLine
 10
120.7532996865
 20
61.8695160459
 30
0.0
 11
120.3296617089
 21
61.7507466357
 31
0.0
  0
SPLINE
  5
124
330
1F
100
AcDbEntity
  8
0
  6
Continuous
 62
     7
370
    25
100
AcDbSpline
210
0.0
220
0.0
230
1.0
 70
     8
 71
     3
 72
    14
 73
    10
 74
     0
 42
0.00000001
 43
0.00000001
 40
0.0
 40
0.0
 40
0.0
 40
0.0
 40
0.25
 40
0.25
 40
0.5
 40
0.5
 40
0.75
 40
0.75
 40
1.0
 40
1.0
 40
1.0
 40
1.0
 10
120.9291462764193
 20
52.36951604586478
 30
0.0
 10
120.8906707927977
 20
52.36951604586478
 30
0.0
 10
120.8495818713277
 20
52.38030261684799
 30
0.0
 10
120.7702990238872
 20
52.42323440391315
 30
0.0
 10
120.7330161227767
 20
52.45465191221803
 30
0.0
 10
120.6802103634649
 20
52.54596675779425
 30
0.0
 10
120.6682411033713
 20
52.6071972405585
 30
0.0
 10
120.6882428917435
 20
52.73806060121422
 30
0.0
 10
120.7176993472958
 20
52.80602471555181
 30
0.0
 10
120.7532996864885
 20
52.86951604586478
 30
0.0
  0
ARC
  5
125
330
1F
100
AcDbEntity
  8
0
  6
Continuous
 62
     7
370
    25
100
AcDbCircle
 10
120.93769486
 20
51.8861462352
 30
0.0
 40
0.4834453973191504
100
AcDbArc
 50
91.0131925738
 51
170.032425387
  0
SPLINE
  5
126
330
1F
100
AcDbEntity
  8
0
  6
Continuous
 62
     7
370
    25
100
AcDbSpline
210
0.0
220
0.0
230
1.0
 70
     8
 71
     3
 72
    14
 73
    10
 74
     0
 42
0.00000001
 43
0.00000001
 40
0.0
 40
0.0
 40
0.0
 40
0.0
 40
0.25
 40
0.25
 40
0.5
 40
0.5
 40
0.75
 40
0.75
 40
1.0
 40
1.0
 40
1.0
 40
1.0
 10
135.1883492754965
 20
62.36951604586478
 30
0.0
 10
135.2268247591181
 20
62.36951604586478
 30
0.0
 10
135.2679136805881
 20
62.35872947488155
 30
0.0
 10
135.3471965280287
 20
62.3157976878164
 30
0.0
 10
135.3844794291391
 20
62.28438017951152
 30
0.0
 10
135.4372851884509
 20
62.19306533393531
 30
0.0
 10
135.4492544485445
 20
62.13183485117105
 30
0.0
 10
135.4292526601724
 20
62.00097149051533
 30
0.0
 10
135.39979620462
 20
61.93300737617774
 30
0.0
 10
135.3641958654273
 20
61.86951604586478
 30
0.0
  0
ARC
  5
127
330
1F
100
AcDbEntity
  8
0
  6
Continuous
 62
     7
370
    25
100
AcDbCircle
 10
135.1798006919
 20
62.8528858566
 30
0.0
 40
0.4834453973191785
100
AcDbArc
 50
271.0131925738
 51
350.032425387
  0
SPLINE
  5
128
330
1F
100
AcDbEntity
  8
0
  6
Continuous
 62
     7
370
    25
100
AcDbSpline
210
0.0
220
0.0
230
1.0
 70
     8
 71
     3
 72
    16
 73
    12
 74
     0
 42
0.00000001
 43
0.00000001
 40
0.0
 40
0.0
 40
0.0
 40
0.0
 40
0.2500000000000049
 40
0.2500000000000049
 40
0.3750000000000051
 40
0.3750000000000051
 40
0.5000000000000052
 40
0.5000000000000052
 40
0.7500000000000026
 40
0.7500000000000026
 40
1.0
 40
1.0
 40
1.0
 40
1.0
 10
120.7532996864885
 20
61.86951604586478
 30
0.0
 10
120.7177457570399
 20
61.93292460684297
 30
0.0
 10
120.6884736158112
 20
62.00019190716378
 30
0.0
 10
120.6732610655903
 20
62.09863121830612
 30
0.0
 10
120.6732003974168
 20
62.13110662466142
 30
0.0
 10
120.6834109818941
 20
62.18973183178762
 30
0.0
 10
120.6931943114193
 20
62.2153546433406
 30
0.0
 10
120.7323588599513
 20
62.28356348703605
 30
0.0
 10
120.7702319332245
 20
62.31572624220183
 30
0.0
 10
120.8493049062161
 20
62.35861446131771
 30
0.0
 10
120.8906920388069
 20
62.36951604586478
 30
0.0
 10
120.9291462764193
 20
62.36951604586478
 30
0.0
  0
ARC
  5
129
330
1F
100
AcDbEntity
  8
0
  6
Continuous
 62
     7
370
    25
100
AcDbCircle
 10
120.93769486
 20
62.8528858566
 30
0.0
 40
0.4834453973191501
100
AcDbArc
 50
189.967574613
 51
268.9868074262
  0
ARC
  5
12A
330
1F
100
AcDbEntity
  8
0
  6
Continuous
 62
     7
370
    25
100
AcDbCircle
 10
135.1798006919
 20
51.8861462352
 30
0.0
 40
0.4834453973191643
100
AcDbArc
 50
9.967574613
 51
88.9868074262
  0
SPLINE
  5
12B
330
1F
100
AcDbEntity
  8
0
  6
Continuous
 62
     7
370
    25
100
AcDbSpline
210
0.0
220
0.0
230
1.0
 70
     8
 71
     3
 72
    16
 73
    12
 74
     0
 42
0.00000001
 43
0.00000001
 40
0.0
 40
0.0
 40
0.0
 40
0.0
 40
0.2499999999999999
 40
0.2499999999999999
 40
0.3750000000000003
 40
0.3750000000000003
 40
0.5000000000000007
 40
0.5000000000000007
 40
0.7500000000000003
 40
0.7500000000000003
 40
1.0
 40
1.0
 40
1.0
 40
1.0
 10
135.3641958654273
 20
52.86951604586478
 30
0.0
 10
135.3997497948759
 20
52.80610748488658
 30
0.0
 10
135.4290219361046
 20
52.73884018456576
 30
0.0
 10
135.4442344863255
 20
52.64040087342342
 30
0.0
 10
135.444295154499
 20
52.60792546706814
 30
0.0
 10
135.4340845700217
 20
52.54930025994193
 30
0.0
 10
135.4243012404965
 20
52.52367744838895
 30
0.0
 10
135.3851366919646
 20
52.45546860469349
 30
0.0
 10
135.3472636186913
 20
52.42330584952772
 30
0.0
 10
135.2681906456997
 20
52.38041763041183
 30
0.0
 10
135.2268035131089
 20
52.36951604586478
 30
0.0
 10
135.1883492754965
 20
52.36951604586478
 30
0.0
  0
LINE
  5
12C
330
1F
100
AcDbEntity
  8
0
  6
Continuous
 62
     7
370
    25
100
AcDbLine
 10
124.764804295
 20
56.814376422
 30
0.0
 11
125.250682982
 21
56.814376422
 31
0.0
  0
ELLIPSE
  5
12D
330
1F
100
AcDbEntity
  8
0
  6
Continuous
 62
     7
370
    25
100
AcDbEllipse
 10
124.764804295
 20
56.8790497957
 30
0.0
 11
0.06784129479237322
 21
0.0
 31
0.0
210
0.0
220
0.0
230
1.0
 40
0.9533039403
 41
2.798568711307185
 42
4.712388980384703
  0
ELLIPSE
  5
12E
330
1F
100
AcDbEntity
  8
0
  6
Continuous
 62
     7
370
    25
100
AcDbEllipse
 10
125.0077436399
 20
57.5275158893
 30
0.0
 11
0.06784129479270007
 21
0.0
 31
0.0
210
0.0
220
0.0
230
1.0
 40
0.9533039403
 41
0.3430239385579903
 42
2.798568711309183
  0
LINE
  5
12F
330
1F
100
AcDbEntity
  8
0
  6
Continuous
 62
     7
370
    25
100
AcDbLine
 10
125.3145719727
 20
56.9008018051
 30
0.0
 11
125.0716326306
 21
57.5492678987
 31
0.0
  0
ELLIPSE
  5
130
330
1F
100
AcDbEntity
  8
0
  6
Continuous
 62
     7
370
    25
100
AcDbEllipse
 10
125.250682982
 20
56.8790497957
 30
0.0
 11
-0.0678412947923448
 21
0.0
 31
0.0
210
0.0
220
0.0
230
1.0
 40
0.9533039403
 41
1.570796326794897
 42
3.484616592149661
  0
LINE
  5
131
330
1F
100
AcDbEntity
  8
0
  6
Continuous
 62
     7
370
    25
100
AcDbLine
 10
124.9438546493
 20
57.5492678989
 30
0.0
 11
124.7009153044
 21
56.9008018053
 31
0.0
  0
ARC
  5
132
330
1F
100
AcDbEntity
  8
0
  6
Continuous
 62
     7
370
    25
100
AcDbCircle
 10
129.2483981847
 20
56.5644699054
 30
0.0
 40
1.239109388553822
100
AcDbArc
 50
45.0
 51
315.0
  0
LINE
  5
133
330
1F
100
AcDbEntity
  8
0
  6
Continuous
 62
     7
370
    25
100
AcDbLine
 10
131.2578176628
 20
56.3104699054
 30
0.0
 11
132.7982965131
 21
56.3104699054
 31
0.0
  0
LINE
  5
134
330
1F
100
AcDbEntity
  8
0
  6
Continuous
 62
     7
370
    25
100
AcDbLine
 10
132.7982965131
 20
56.3104699054
 30
0.0
 11
132.7982965131
 21
56.8184699054
 31
0.0
  0
LINE
  5
135
330
1F
100
AcDbEntity
  8
0
  6
Continuous
 62
     7
370
    25
100
AcDbLine
 10
132.7982965131
 20
56.8184699054
 30
0.0
 11
131.2578176628
 21
56.8184699054
 31
0.0
  0
ARC
  5
136
330
1F
100
AcDbEntity
  8
0
  6
Continuous
 62
     7
370
    25
100
AcDbCircle
 10
131.9221138618
 20
56.5644699054
 30
0.0
 40
0.7112000000000287
100
AcDbArc
 50
45.0
 51
159.0751675723
  0
LINE
  5
137
330
1F
100
AcDbEntity
  8
0
  6
Continuous
 62
     7
370
    25
100
AcDbLine
 10
132.7982965131
 20
55.6882872541
 30
0.0
 11
132.4250082046
 21
56.0615755626
 31
0.0
  0
ELLIPSE
  5
138
330
1F
100
AcDbEntity
  8
0
  6
Continuous
 62
     7
370
    25
100
AcDbEllipse
 10
126.6166536349
 20
55.3700680583
 30
0.0
 11
0.06784129479235901
 21
0.0
 31
0.0
210
0.0
220
0.0
230
1.0
 40
0.9533039403
 41
3.962594650555167
 42
5.819537698174784
  0
LINE
  5
139
330
1F
100
AcDbEntity
  8
0
  6
Continuous
 62
     7
370
    25
100
AcDbLine
 10
126.6773327336
 20
55.3411452463
 30
0.0
 11
127.3143476612
 21
56.5556829275
 31
0.0
  0
LINE
  5
13A
330
1F
100
AcDbEntity
  8
0
  6
Continuous
 62
     7
370
    25
100
AcDbLine
 10
126.4882530486
 20
56.8134376686
 30
0.0
 11
125.4805293392
 21
59.631394152
 31
0.0
  0
ELLIPSE
  5
13B
330
1F
100
AcDbEntity
  8
0
  6
Continuous
 62
     7
370
    25
100
AcDbEllipse
 10
125.0077436383
 20
59.4215217971
 30
0.0
 11
0.5215299537176605
 21
0.0
 31
0.0
210
0.0
220
0.0
230
1.0
 40
0.9533039403
 41
0.4357918987553373
 42
2.705800754834446
  0
LINE
  5
13C
330
1F
100
AcDbEntity
  8
0
  6
Continuous
 62
     7
370
    25
100
AcDbLine
 10
124.5349579374
 20
59.631394152
 30
0.0
 11
123.5274690645
 21
56.8140943557
 31
0.0
  0
ELLIPSE
  5
13D
330
1F
100
AcDbEntity
  8
0
  6
Continuous
 62
     7
370
    25
100
AcDbEllipse
 10
123.0137692509
 20
56.9810416477
 30
0.0
 11
-0.5427303583406342
 21
3.552713678800501E-13
 31
0.0
210
0.0
220
0.0
230
1.0
 40
0.9533039403
 41
1.047197551196587
 42
2.813039483039307
  0
ELLIPSE
  5
13E
330
1F
100
AcDbEntity
  8
0
  6
Continuous
 62
     7
370
    25
100
AcDbEllipse
 10
123.3988336417
 20
55.3700680583
 30
0.0
 11
0.06784129479235901
 21
0.0
 31
0.0
210
0.0
220
0.0
230
1.0
 40
0.9533039403
 41
3.605240262580542
 42
5.462183310227002
  0
LINE
  5
13F
330
1F
100
AcDbEntity
  8
0
  6
Continuous
 62
     7
370
    25
100
AcDbLine
 10
135.3641958654
 20
61.8695160459
 30
0.0
 11
120.7532996865
 21
61.8695160459
 31
0.0
  0
LINE
  5
140
330
1F
100
AcDbEntity
  8
0
  6
Continuous
 62
     7
370
    25
100
AcDbLine
 10
120.7532996865
 20
52.8695160459
 30
0.0
 11
135.3641958654
 21
52.8695160459
 31
0.0
  0
LINE
  5
141
330
1F
100
AcDbEntity
  8
0
  6
Continuous
 62
     7
370
    25
100
AcDbLine
 10
129.7512925275
 20
57.0673642481
 30
0.0
 11
130.124580836
 21
57.4406525566
 31
0.0
  0
ARC
  5
142
330
1F
100
AcDbEntity
  8
0
  6
Continuous
 62
     7
370
    25
100
AcDbCircle
 10
129.2483981847
 20
56.5644699054
 30
0.0
 40
0.7111999999997523
100
AcDbArc
 50
45.0
 51
315.0
  0
LINE
  5
143
330
1F
100
AcDbEntity
  8
0
  6
Continuous
 62
     7
370
    25
100
AcDbLine
 10
127.3143476612
 20
56.5556829275
 30
0.0
 11
127.2810274058
 21
56.5366389836
 31
0.0
  0
LINE
  5
144
330
1F
100
AcDbEntity
  8
0
  6
Continuous
 62
     7
370
    25
100
AcDbLine
 10
130.124580836
 20
55.6882872541
 30
0.0
 11
129.7512925275
 21
56.0615755626
 31
0.0
  0
ARC
  5
145
330
1F
100
AcDbEntity
  8
0
  6
Continuous
 62
     7
370
    25
100
AcDbCircle
 10
131.9221138618
 20
56.5644699054
 30
0.0
 40
1.239109388553842
100
AcDbArc
 50
45.0
 51
315.0
  0
ARC
  5
146
330
1F
100
AcDbEntity
  8
0
  6
Continuous
 62
     7
370
    25
100
AcDbCircle
 10
131.9221138618
 20
56.5644699054
 30
0.0
 40
0.7112000000001236
100
AcDbArc
 50
200.9248324276
 51
315.0
  0
ELLIPSE
  5
147
330
1F
100
AcDbEntity
  8
0
  6
Continuous
 62
     7
370
    25
100
AcDbEllipse
 10
125.0077436383
 20
53.7229891619
 30
0.0
 11
2.293035763987589
 21
-1.072919530997751E-12
 31
0.0
210
0.0
220
0.0
230
1.0
 40
0.9533039403
 41
0.8210019969645942
 42
2.320590656625129
  0
ELLIPSE
  5
148
330
1F
100
AcDbEntity
  8
0
  6
Continuous
 62
     7
370
    25
100
AcDbEllipse
 10
127.0019528622
 20
56.9803849606
 30
0.0
 11
0.5427303583402932
 21
3.623767952376511E-13
 31
0.0
210
0.0
220
0.0
230
1.0
 40
0.9533039404
 41
3.4701458241424
 42
5.25246918052788
  0
LINE
  5
149
330
1F
100
AcDbEntity
  8
0
  6
Continuous
 62
     7
370
    25
100
AcDbLine
 10
132.4250082046
 20
57.0673642481
 30
0.0
 11
132.7982965131
 21
57.4406525566
 31
0.0
  0
LINE
  5
14A
330
1F
100
AcDbEntity
  8
0
  6
Continuous
 62
     7
370
    25
100
AcDbLine
 10
122.7424040718
 20
56.5329713715
 30
0.0
 11
122.7011396153
 21
56.5556829275
 31
0.0
  0
LINE
  5
14B
330
1F
100
AcDbEntity
  8
0
  6
Continuous
 62
     7
370
    25
100
AcDbLine
 10
122.7011396153
 20
56.5556829275
 30
0.0
 11
123.338154543
 21
55.3411452463
 31
0.0
  0
LINE
  5
14C
330
1F
100
AcDbEntity
  8
0
  6
Continuous
 62
     7
370
    25
100
AcDbLine
 10
135.1883492755
 20
52.3695160459
 30
0.0
 11
120.9291462764
 21
52.3695160459
 31
0.0
  0
LINE
  5
14D
330
1F
100
AcDbEntity
  8
0
  6
Continuous
 62
     7
370
    25
100
AcDbLine
 10
120.9291462764
 20
62.3695160459
 30
0.0
 11
135.1883492755
 21
62.3695160459
 31
0.0
  0
ARC
  5
14E
330
1F
100
AcDbEntity
  8
0
  6
Continuous
 62
     7
370
    25
100
AcDbCircle
 10
121.058747776
 20
51.8695160459
 30
0.0
 40
0.5
100
AcDbArc
 50
90.0
 51
180.0
  0
ARC
  5
14F
330
1F
100
AcDbEntity
  8
0
  6
Continuous
 62
     7
370
    25
100
AcDbCircle
 10
135.058747776
 20
51.8695160459
 30
0.0
 40
0.5
100
AcDbArc
 50
0.0
 51
90.0
  0
ARC
  5
150
330
1F
100
AcDbEntity
  8
0
  6
Continuous
 62
     7
370
    25
100
AcDbCircle
 10
121.058747776
 20
62.8695160459
 30
0.0
 40
0.5
100
AcDbArc
 50
180.0
 51
270.0
  0
ARC
  5
151
330
1F
100
AcDbEntity
  8
0
  6
Continuous
 62
     7
370
    25
100
AcDbCircle
 10
135.058747776
 20
62.8695160459
 30
0.0
 40
0.5
100
AcDbArc
 50
270.0
 51
0.0
  0
LWPOLYLINE
  5
152
330
1F
100
AcDbEntity
  8
0
  6
Continuous
 62
     7
370
    25
100
AcDbPolyline
 90
        9
 70
   128
 43
0.0
 10
135.058747776
 20
62.5639604903
 10
135.156292937
 20
62.5698316546
 10
135.2500894921
 20
62.587219522
 10
135.3365328925
 20
62.6154558866
 10
135.4123011666
 20
62.6534556405
 10
135.4744825821
 20
62.6997584747
 10
135.5206875422
 20
62.7525849971
 10
135.5491404162
 20
62.8099051141
 10
135.558747776
 20
62.8695160459
  0
LINE
  5
153
330
1F
100
AcDbEntity
  8
0
  6
Continuous
 62
     7
370
    25
100
AcDbLine
 10
135.058747776
 20
62.3695160459
 30
0.0
 11
135.058747776
 21
62.5639604903
 31
0.0
  0
LWPOLYLINE
  5
154
330
1F
100
AcDbEntity
  8
0
  6
Continuous
 62
     7
370
    25
100
AcDbPolyline
 90
        9
 70
   128
 43
0.0
 10
121.058747776
 20
52.1750716014
 10
120.9612026149
 20
52.1692004371
 10
120.8674060598
 20
52.1518125697
 10
120.7809626594
 20
52.1235762052
 10
120.7051943854
 20
52.0855764512
 10
120.6430129698
 20
52.0392736171
 10
120.5968080097
 20
51.9864470946
 10
120.5683551358
 20
51.9291269776
 10
120.558747776
 20
51.8695160459
  0
LINE
  5
155
330
1F
100
AcDbEntity
  8
0
  6
Continuous
 62
     7
370
    25
100
AcDbLine
 10
121.058747776
 20
52.1750716014
 30
0.0
 11
121.058747776
 21
52.3695160459
 31
0.0
  0
LWPOLYLINE
  5
156
330
1F
100
AcDbEntity
  8
0
  6
Continuous
 62
     7
370
    25
100
AcDbPolyline
 90
        9
 70
   128
 43
0.0
 10
120.558747776
 20
62.8695160459
 10
120.5683551358
 20
62.8099051141
 10
120.5968080097
 20
62.7525849971
 10
120.6430129698
 20
62.6997584747
 10
120.7051943854
 20
62.6534556405
 10
120.7809626594
 20
62.6154558866
 10
120.8674060598
 20
62.587219522
 10
120.9612026149
 20
62.5698316546
 10
121.058747776
 20
62.5639604903
  0
LINE
  5
157
330
1F
100
AcDbEntity
  8
0
  6
Continuous
 62
     7
370
    25
100
AcDbLine
 10
121.058747776
 20
62.3695160459
 30
0.0
 11
121.058747776
 21
62.5639604903
 31
0.0
  0
LINE
  5
158
330
1F
100
AcDbEntity
  8
0
  6
Continuous
 62
     7
370
    25
100
AcDbLine
 10
135.058747776
 20
52.1750716014
 30
0.0
 11
121.058747776
 21
52.1750716014
 31
0.0
  0
LINE
  5
159
330
1F
100
AcDbEntity
  8
0
  6
Continuous
 62
     7
370
    25
100
AcDbLine
 10
135.058747776
 20
52.1750716014
 30
0.0
 11
135.058747776
 21
52.3695160459
 31
0.0
  0
LWPOLYLINE
  5
15A
330
1F
100
AcDbEntity
  8
0
  6
Continuous
 62
     7
370
    25
100
AcDbPolyline
 90
        9
 70
   128
 43
0.0
 10
135.558747776
 20
51.8695160459
 10
135.5491404162
 20
51.9291269776
 10
135.5206875422
 20
51.9864470946
 10
135.4744825821
 20
52.0392736171
 10
135.4123011666
 20
52.0855764512
 10
135.3365328925
 20
52.1235762052
 10
135.2500894921
 20
52.1518125697
 10
135.156292937
 20
52.1692004371
 10
135.058747776
 20
52.1750716014
  0
LINE
  5
15B
330
1F
100
AcDbEntity
  8
0
  6
Continuous
 62
     7
370
    25
100
AcDbLine
 10
121.058747776
 20
62.5639604903
 30
0.0
 11
135.058747776
 21
62.5639604903
 31
0.0
  0
SPLINE
  5
15C
330
1F
100
AcDbEntity
  8
0
  6
Continuous
 62
     7
370
    25
100
AcDbSpline
210
0.0
220
0.0
230
1.0
 70
    11
 71
     3
 72
    26
 73
    22
 74
     0
 42
0.00000001
 43
0.00000001
 40
0.0
 40
0.0
 40
0.0
 40
0.0
 40
0.125
 40
0.125
 40
0.1875
 40
0.1875
 40
0.25
 40
0.25
 40
0.3125
 40
0.3125
 40
0.375
 40
0.375
 40
0.5
 40
0.5
 40
0.625
 40
0.625
 40
0.75
 40
0.75
 40
0.875
 40
0.875
 40
1.0
 40
1.0
 40
1.0
 40
1.0
 10
128.5720667448063
 20
65.36951604586477
 30
0.0
 10
128.5720667448063
 20
65.50863507709359
 30
0.0
 10
128.5192707736573
 20
65.64436278006907
 30
0.0
 10
128.37781518378
 20
65.79738151656485
 30
0.0
 10
128.3212612474081
 20
65.83888441758539
 30
0.0
 10
128.1957170959647
 20
65.89608431137907
 30
0.0
 10
128.1265654828567
 20
65.9113683001234
 30
0.0
 10
127.9894071081132
 20
65.91114742635976
 30
0.0
 10
127.9202925253071
 20
65.8955873650721
 30
0.0
 10
127.795532756676
 20
65.83838153057809
 30
0.0
 10
127.7389016683415
 20
65.79663010331113
 30
0.0
 10
127.5987880418186
 20
65.64478923502769
 30
0.0
 10
127.545467507872
 20
65.50873690775983
 30
0.0
 10
127.5453901492959
 20
65.23060421405647
 30
0.0
 10
127.5990785313176
 20
65.09380220403649
 30
0.0
 10
127.7857733456253
 20
64.89173340037142
 30
0.0
 10
127.9216545549889
 20
64.82756364068587
 30
0.0
 10
128.1972856890273
 20
64.82798469348688
 30
0.0
 10
128.332260727441
 20
64.89225337591019
 30
0.0
 10
128.518108204507
 20
65.09353092713432
 30
0.0
 10
128.5720667448063
 20
65.23039701463595
 30
0.0
 10
128.5720667448063
 20
65.36951604586477
 30
0.0
  0
SPLINE
  5
15D
330
1F
100
AcDbEntity
  8
0
  6
Continuous
 62
     7
370
    25
100
AcDbSpline
210
0.0
220
0.0
230
1.0
 70
    11
 71
     3
 72
    38
 73
    34
 74
     0
 42
0.00000001
 43
0.00000001
 40
0.0
 40
0.0
 40
0.0
 40
0.0
 40
0.0625
 40
0.0625
 40
0.125
 40
0.125
 40
0.1874999999999999
 40
0.1874999999999999
 40
0.2499999999999999
 40
0.2499999999999999
 40
0.3125
 40
0.3125
 40
0.375
 40
0.375
 40
0.4375000000000001
 40
0.4375000000000001
 40
0.5000000000000001
 40
0.5000000000000001
 40
0.5625000000000001
 40
0.5625000000000001
 40
0.6250000000000001
 40
0.6250000000000001
 40
0.6875000000000001
 40
0.6875000000000001
 40
0.75
 40
0.75
 40
0.8125
 40
0.8125
 40
0.875
 40
0.875
 40
0.9375
 40
0.9375
 40
1.0
 40
1.0
 40
1.0
 40
1.0
 10
127.0587477759579
 20
65.36951604586477
 30
0.0
 10
127.0587477759579
 20
65.23713013095447
 30
0.0
 10
127.0848963271007
 20
65.10724280447577
 30
0.0
 10
127.1853619965586
 20
64.86516380988989
 30
0.0
 10
127.2596468629551
 20
64.75438245583388
 30
0.0
 10
127.4437960426898
 20
64.57027517572811
 30
0.0
 10
127.5551716652841
 20
64.49580650443211
 30
0.0
 10
127.795720169818
 20
64.39597932830341
 30
0.0
 10
127.9274780658054
 20
64.36959140823011
 30
0.0
 10
128.1888667579693
 20
64.36944101454328
 30
0.0
 10
128.3200388285609
 20
64.39538083495333
 30
0.0
 10
128.5624765145606
 20
64.4957484673786
 30
0.0
 10
128.6725306827102
 20
64.56913737052383
 30
0.0
 10
128.8587840001211
 20
64.75528683735338
 30
0.0
 10
128.9322103280143
 20
64.86532535475338
 30
0.0
 10
129.0325750756432
 20
65.10720807184205
 30
0.0
 10
129.0586963399394
 20
65.23848259035336
 30
0.0
 10
129.0587990574246
 20
65.4997632397259
 30
0.0
 10
129.0325554293309
 20
65.63157864323881
 30
0.0
 10
128.9328870725327
 20
65.87236656132028
 30
0.0
 10
128.8586062805642
 20
65.98369876271829
 30
0.0
 10
128.6744195401306
 20
66.16822895791329
 30
0.0
 10
128.563995966068
 20
66.24241528718706
 30
0.0
 10
128.3216112508281
 20
66.34323654615721
 30
0.0
 10
128.1916870712617
 20
66.36941077546226
 30
0.0
 10
127.9273969617448
 20
66.36962068544916
 30
0.0
 10
127.7971632030827
 20
66.34353296308598
 30
0.0
 10
127.555270531912
 20
66.24338451910738
 30
0.0
 10
127.4442546065054
 20
66.16909822394223
 30
0.0
 10
127.2600868705254
 20
65.98520612450544
 30
0.0
 10
127.1854881990233
 20
65.87387597395141
 30
0.0
 10
127.0854373854782
 20
65.63338743414279
 30
0.0
 10
127.0587477759579
 20
65.50190196077507
 30
0.0
 10
127.0587477759579
 20
65.36951604586477
 30
0.0
  0
LINE
  5
15E
330
1F
100
AcDbEntity
  8
0
  6
Continuous
 62
     7
370
    25
100
AcDbLine
 10
146.7037997165
 20
57.3695160459
 30
0.0
 11
146.7037997165
 21
52.587236419
 31
0.0
  0
LINE
  5
15F
330
1F
100
AcDbEntity
  8
0
  6
Continuous
 62
     7
370
    25
100
AcDbLine
 10
146.7037997165
 20
62.1517956727
 30
0.0
 11
146.7037997165
 21
57.3695160459
 31
0.0
  0
LINE
  5
160
330
1F
100
AcDbEntity
  8
0
  6
Continuous
 62
     7
370
    25
100
AcDbLine
 10
148.058747776
 20
61.3695160459
 30
0.0
 11
148.058747776
 21
53.3695160459
 31
0.0
  0
LINE
  5
161
330
1F
100
AcDbEntity
  8
0
  6
Continuous
 62
     7
370
    25
100
AcDbLine
 10
135.058747776
 20
62.5639604903
 30
0.0
 11
135.058747776
 21
65.8695160459
 31
0.0
  0
LINE
  5
162
330
1F
100
AcDbEntity
  8
0
  6
Continuous
 62
     7
370
    25
100
AcDbLine
 10
121.058747776
 20
52.1750716014
 30
0.0
 11
121.058747776
 21
48.8695160459
 31
0.0
  0
LINE
  5
163
330
1F
100
AcDbEntity
  8
0
  6
Continuous
 62
     7
370
    25
100
AcDbLine
 10
121.058747776
 20
65.8695160459
 30
0.0
 11
121.058747776
 21
62.5639604903
 31
0.0
  0
LINE
  5
164
330
1F
100
AcDbEntity
  8
0
  6
Continuous
 62
     7
370
    25
100
AcDbLine
 10
135.058747776
 20
48.8695160459
 30
0.0
 11
135.058747776
 21
52.1750716014
 31
0.0
  0
SPLINE
  5
165
330
1F
100
AcDbEntity
  8
0
  6
Continuous
 62
     7
370
    25
100
AcDbSpline
210
0.0
220
0.0
230
1.0
 70
     8
 71
     3
 72
    32
 73
    28
 74
     0
 42
0.00000001
 43
0.00000001
 40
0.0
 40
0.0
 40
0.0
 40
0.0
 40
0.0401450235848357
 40
0.0814946510747366
 40
0.1230108374273918
 40
0.1655335881087852
 40
0.213102689944118
 40
0.2616869956899938
 40
0.3186512837064658
 40
0.3479268696243464
 40
0.3771976325562726
 40
0.4187548087056146
 40
0.4612652019558922
 40
0.5031787598671369
 40
0.5464778200637773
 40
0.5837150053189375
 40
0.6216789039917089
 40
0.649608003238977
 40
0.6775412817538382
 40
0.7348752066615024
 40
0.7907587055724206
 40
0.8195305177303107
 40
0.848297267517085
 40
0.8930422512982819
 40
0.939068727387773
 40
0.9835429316127413
 40
1.0
 40
1.0
 40
1.0
 40
1.0
 10
134.4587477759579
 20
65.86951604586477
 30
0.0
 10
134.4474289655895
 20
65.86189736388252
 30
0.0
 10
134.4244517091532
 20
65.84643139140698
 30
0.0
 10
134.2397752766568
 20
65.72321211517007
 30
0.0
 10
133.9491955042105
 20
65.53318818211167
 30
0.0
 10
133.5382552153467
 20
65.27265344139269
 30
0.0
 10
133.0056232809722
 20
64.95084914709145
 30
0.0
 10
132.3171785570856
 20
64.56498951213413
 30
0.0
 10
131.6252226043767
 20
64.22082099579782
 30
0.0
 10
130.9793039954046
 20
63.94677910797629
 30
0.0
 10
130.3891179695406
 20
63.7296926798286
 30
0.0
 10
129.6812252218542
 20
63.52414353234065
 30
0.0
 10
128.8511282186161
 20
63.37470584630782
 30
0.0
 10
127.9843333605704
 20
63.32712296164541
 30
0.0
 10
127.1552555479798
 20
63.39059120263324
 30
0.0
 10
126.3795132887336
 20
63.54081670688235
 30
0.0
 10
125.7361964219906
 20
63.72822581995508
 30
0.0
 10
125.1813450044825
 20
63.93016054148141
 30
0.0
 10
124.5446155791092
 20
64.19659200461473
 30
0.0
 10
123.8145147864358
 20
64.55601856194265
 30
0.0
 10
123.1756361098966
 20
64.91498501364514
 30
0.0
 10
122.7320271738078
 20
65.18012790149227
 30
0.0
 10
122.3770966480804
 20
65.39987621340599
 30
0.0
 10
122.0337746657636
 20
65.62042667055212
 30
0.0
 10
121.777116955274
 20
65.79004286204736
 30
0.0
 10
121.6540387823868
 20
65.87267279847649
 30
0.0
 10
121.6716659409756
 20
65.860847594302
 30
0.0
 10
121.6764269010202
 20
65.85765369754834
 30
0.0
  0
SPLINE
  5
166
330
1F
100
AcDbEntity
  8
0
  6
Continuous
 62
     7
370
    25
100
AcDbSpline
210
0.0
220
0.0
230
1.0
 70
     8
 71
     3
 72
    32
 73
    28
 74
     0
 42
0.00000001
 43
0.00000001
 40
0.0
 40
0.0
 40
0.0
 40
0.0
 40
0.0148242529817184
 40
0.0619113519340424
 40
0.1074433409988294
 40
0.1543372005590945
 40
0.1825994496035272
 40
0.2108660049327927
 40
0.269027097168617
 40
0.3246081692535049
 40
0.3531542158488447
 40
0.3816936824966581
 40
0.417991076432422
 40
0.4550305302041455
 40
0.4953234366006107
 40
0.5372325054966889
 40
0.5776056507021098
 40
0.6191602253044716
 40
0.6475101989612795
 40
0.6758664738346869
 40
0.7341705529935286
 40
0.7822942877570007
 40
0.8313630102073389
 40
0.8736471364191402
 40
0.9168682936064078
 40
0.9578490604636208
 40
1.0
 40
1.0
 40
1.0
 40
1.0
 10
122.1732542515735
 20
66.35833642235266
 30
0.0
 10
122.1693097135937
 20
66.36137607997226
 30
0.0
 10
122.1528359203185
 20
66.37407077108942
 30
0.0
 10
122.2636101574427
 20
66.28861784866815
 30
0.0
 10
122.5010433020234
 20
66.10837790628071
 30
0.0
 10
122.8138612175256
 20
65.87738206555083
 30
0.0
 10
123.1389835783764
 20
65.6460838676658
 30
0.0
 10
123.5450724132774
 20
65.36682798628904
 30
0.0
 10
124.1272980009122
 20
64.99013218608582
 30
0.0
 10
124.8030891772445
 20
64.60702239954118
 30
0.0
 10
125.3896620269245
 20
64.32320715774692
 30
0.0
 10
125.9049233774763
 20
64.10707166420876
 30
0.0
 10
126.5024228274225
 20
63.90620426770302
 30
0.0
 10
127.2085117964518
 20
63.74771772278372
 30
0.0
 10
127.9798854376026
 20
63.67762106486229
 30
0.0
 10
128.776734573875
 20
63.72592189459206
 30
0.0
 10
129.5526745372374
 20
63.8856239936519
 30
0.0
 10
130.2015701726088
 20
64.10172584322143
 30
0.0
 10
130.7426178936783
 20
64.32999277568737
 30
0.0
 10
131.3403202478566
 20
64.62020884313324
 30
0.0
 10
131.9776666708911
 20
64.98410980423931
 30
0.0
 10
132.6170634819857
 20
65.3953770616776
 30
0.0
 10
133.1051069438283
 20
65.73396454341392
 30
0.0
 10
133.4869280675903
 20
66.01184823936066
 30
0.0
 10
133.7532473223219
 20
66.21185729835118
 30
0.0
 10
133.9260239588596
 20
66.34421244677796
 30
0.0
 10
133.9477379539217
 20
66.36100273209139
 30
0.0
 10
133.9587477759579
 20
66.36951604586477
 30
0.0
  0
LINE
  5
167
330
1F
100
AcDbEntity
  8
FORMAT
100
AcDbLine
 10
147.6784918324
 20
53.1499751745
 30
0.0
 11
138.558747776
 21
52.8649831727
 31
0.0
  0
LINE
  5
168
330
1F
100
AcDbEntity
  8
FORMAT
100
AcDbLine
 10
147.6784918324
 20
61.5890569172
 30
0.0
 11
138.558747776
 21
61.874048919
 31
0.0
  0
LINE
  5
169
330
1F
100
AcDbEntity
  8
FORMAT
100
AcDbLine
 10
138.558747776
 20
62.4063285459
 30
0.0
 11
138.558747776
 21
52.3327035459
 31
0.0
  0
LINE
  5
16A
330
1F
100
AcDbEntity
  8
FORMAT
  6
CENTERX2
370
    18
100
AcDbLine
 10
90.2639565729
 20
57.3695160459
 30
0.0
 11
149.3704081175
 21
57.3695160459
 31
0.0
  0
LINE
  5
16B
330
1F
100
AcDbEntity
  8
FORMAT
  6
CENTERX2
370
    18
100
AcDbLine
 10
128.058747776
 20
47.2085225731
 30
0.0
 11
128.058747776
 21
86.1448208063
 31
0.0
  0
ARC
  5
16C
330
1F
100
AcDbEntity
  8
0
  6
Continuous
 62
     7
370
    25
100
AcDbCircle
 10
191.4418983009
 20
84.4695160459
 30
0.0
 40
0.25
100
AcDbArc
 50
0.0
 51
90.0
  0
ARC
  5
16D
330
1F
100
AcDbEntity
  8
0
  6
Continuous
 62
     7
370
    25
100
AcDbCircle
 10
180.9418983009
 20
84.4695160459
 30
0.0
 40
0.25
100
AcDbArc
 50
90.0
 51
180.0
  0
LINE
  5
16E
330
1F
100
AcDbEntity
  8
0
  6
Continuous
 62
     7
370
    25
100
AcDbLine
 10
191.6918983009
 20
83.8695160459
 30
0.0
 11
191.6918983009
 21
84.4695160459
 31
0.0
  0
LINE
  5
16F
330
1F
100
AcDbEntity
  8
0
  6
Continuous
 62
     7
370
    25
100
AcDbLine
 10
180.6918983009
 20
84.4695160459
 30
0.0
 11
180.6918983009
 21
83.8695160459
 31
0.0
  0
LINE
  5
170
330
1F
100
AcDbEntity
  8
0
  6
Continuous
 62
     7
370
    25
100
AcDbLine
 10
178.7418983009
 20
75.8695160459
 30
0.0
 11
179.1918983009
 21
67.8695160459
 31
0.0
  0
LINE
  5
171
330
1F
100
AcDbEntity
  8
0
  6
Continuous
 62
     7
370
    25
100
AcDbLine
 10
193.1918983009
 20
67.8695160459
 30
0.0
 11
193.6418983009
 21
75.8695160459
 31
0.0
  0
LINE
  5
172
330
1F
100
AcDbEntity
  8
0
  6
Continuous
 62
     7
370
    25
100
AcDbLine
 10
193.6418983009
 20
75.8695160459
 30
0.0
 11
191.6918983009
 21
83.8695160458
 31
0.0
  0
LINE
  5
173
330
1F
100
AcDbEntity
  8
0
  6
Continuous
 62
     7
370
    25
100
AcDbLine
 10
180.6918983009
 20
83.8695160458
 30
0.0
 11
178.7418983009
 21
75.8695160459
 31
0.0
  0
LINE
  5
174
330
1F
100
AcDbEntity
  8
0
  6
Continuous
 62
     7
370
    25
100
AcDbLine
 10
192.0918983009
 20
65.4435484956
 30
0.0
 11
192.0918983009
 21
67.8695160459
 31
0.0
  0
LINE
  5
175
330
1F
100
AcDbEntity
  8
0
  6
Continuous
 62
     7
370
    25
100
AcDbLine
 10
180.2918983009
 20
67.8695160459
 30
0.0
 11
180.2918983009
 21
66.3676097162
 31
0.0
  0
ARC
  5
176
330
1F
100
AcDbEntity
  8
0
  6
Continuous
 62
     7
370
    25
100
AcDbCircle
 10
180.4918983009
 20
65.9112584762
 30
0.0
 40
0.4999999999999851
100
AcDbArc
 50
113.6449780875
 51
180.007858636
  0
ARC
  5
177
330
1F
100
AcDbEntity
  8
0
  6
Continuous
 62
     7
370
    25
100
AcDbCircle
 10
186.1918983009
 20
57.3695160459
 30
0.0
 40
10.50000000000001
100
AcDbArc
 50
265.2087652968
 51
274.7912347032
  0
SPLINE
  5
178
330
1F
100
AcDbEntity
  8
0
  6
Continuous
 62
     7
370
    25
100
AcDbSpline
210
0.0
220
0.0
230
1.0
 70
    24
 71
     3
 72
     9
 73
     5
 74
     0
 42
0.00000001
 43
0.00000001
 40
0.0
 40
0.0
 40
0.0
 40
0.0
 40
0.9933576114764283
 40
1.0
 40
1.0
 40
1.0
 40
1.0
 10
177.5689149546832
 20
51.37834268741248
 30
0.0
 10
177.9647882257608
 20
51.14978514779077
 30
0.0
 10
178.3633086241592
 20
50.91969928849785
 30
0.0
 10
178.7693108097463
 20
50.68529381735771
 30
0.0
 10
178.7720076340043
 20
50.68373680514635
 30
0.0
  0
LINE
  5
179
330
1F
100
AcDbEntity
  8
0
  6
Continuous
 62
     7
370
    25
100
AcDbLine
 10
184.0746967643
 20
47.6222278083
 30
0.0
 11
185.3148816471
 21
46.9062067324
 31
0.0
  0
ARC
  5
17A
330
1F
100
AcDbEntity
  8
0
  6
Continuous
 62
     7
370
    25
100
AcDbCircle
 10
186.1918983009
 20
57.3695160459
 30
0.0
 40
10.50000000000001
100
AcDbArc
 50
205.2087652968
 51
214.7912347032
  0
SPLINE
  5
17B
330
1F
100
AcDbEntity
  8
0
  6
Continuous
 62
     7
370
    25
100
AcDbSpline
210
0.0
220
0.0
230
1.0
 70
    24
 71
     3
 72
     9
 73
     5
 74
     0
 42
0.00000001
 43
0.00000001
 40
0.0
 40
0.0
 40
0.0
 40
0.0
 40
0.8748433813780238
 40
1.0
 40
1.0
 40
1.0
 40
1.0
 10
176.6918983008908
 20
61.84165200086446
 30
0.0
 10
176.6918983008908
 20
61.43790840752059
 30
0.0
 10
176.6918983008907
 20
60.97640455215858
 30
0.0
 10
176.6918983008907
 20
60.50699389441379
 30
0.0
 10
176.6918983008907
 20
60.44824404374534
 30
0.0
  0
SPLINE
  5
17C
330
1F
100
AcDbEntity
  8
0
  6
Continuous
 62
     7
370
    25
100
AcDbSpline
210
0.0
220
0.0
230
1.0
 70
    24
 71
     3
 72
     9
 73
     5
 74
     0
 42
0.00000001
 43
0.00000001
 40
0.0
 40
0.0
 40
0.0
 40
0.0
 40
0.2734197967129051
 40
1.0
 40
1.0
 40
1.0
 40
1.0
 10
176.6918983008907
 20
54.29793717807998
 30
0.0
 10
176.6918983008907
 20
54.16904320681754
 30
0.0
 10
176.6918983008907
 20
53.69762901950548
 30
0.0
 10
176.6918983008907
 20
53.23414117971868
 30
0.0
 10
176.6918983008906
 20
52.89738009086528
 30
0.0
  0
ARC
  5
17D
330
1F
100
AcDbEntity
  8
0
  6
Continuous
 62
     7
370
    25
100
AcDbCircle
 10
186.1918983009
 20
57.3695160459
 30
0.0
 40
10.50000000000001
100
AcDbArc
 50
145.2087652968
 51
154.7912347032
  0
LINE
  5
17E
330
1F
100
AcDbEntity
  8
0
  6
Continuous
 62
     7
370
    25
100
AcDbLine
 10
178.7620209695
 20
64.0495294831
 30
0.0
 11
177.5689149547
 21
63.3606894043
 31
0.0
  0
SPLINE
  5
17F
330
1F
100
AcDbEntity
  8
0
  6
Continuous
 62
     7
370
    25
100
AcDbSpline
210
0.0
220
0.0
230
1.0
 70
    24
 71
     3
 72
     9
 73
     5
 74
     0
 42
0.00000001
 43
0.00000001
 40
0.0
 40
0.0
 40
0.0
 40
0.0
 40
0.9897185491745559
 40
1.0
 40
1.0
 40
1.0
 40
1.0
 10
194.8148816470981
 20
63.36068940431714
 30
0.0
 10
194.4189993607406
 20
63.58925214891298
 30
0.0
 10
194.0190045473792
 20
63.82018926208163
 30
0.0
 10
193.6115004373015
 20
64.05546186973096
 30
0.0
 10
193.6073107038326
 20
64.05788081347707
 30
0.0
  0
ARC
  5
180
330
1F
100
AcDbEntity
  8
0
  6
Continuous
 62
     7
370
    25
100
AcDbCircle
 10
186.1918983009
 20
57.3695160459
 30
0.0
 40
10.5
100
AcDbArc
 50
25.2087652968
 51
34.7912347032
  0
SPLINE
  5
181
330
1F
100
AcDbEntity
  8
0
  6
Continuous
 62
     7
370
    25
100
AcDbSpline
210
0.0
220
0.0
230
1.0
 70
    24
 71
     3
 72
     9
 73
     5
 74
     0
 42
0.00000001
 43
0.00000001
 40
0.0
 40
0.0
 40
0.0
 40
0.0
 40
0.7283530775677654
 40
1.0
 40
1.0
 40
1.0
 40
1.0
 10
195.6918983008907
 20
52.89738009086515
 30
0.0
 10
195.6918983008907
 20
53.23415684976353
 30
0.0
 10
195.6918983008907
 20
53.69653803448096
 30
0.0
 10
195.6918983008907
 20
54.16671841181245
 30
0.0
 10
195.6918983008907
 20
54.29444146430257
 30
0.0
  0
SPLINE
  5
182
330
1F
100
AcDbEntity
  8
0
  6
Continuous
 62
     7
370
    25
100
AcDbSpline
210
0.0
220
0.0
230
1.0
 70
    24
 71
     3
 72
     9
 73
     5
 74
     0
 42
0.00000001
 43
0.00000001
 40
0.0
 40
0.0
 40
0.0
 40
0.0
 40
0.1284127556283113
 40
0.9999999999999999
 40
0.9999999999999999
 40
0.9999999999999999
 40
0.9999999999999999
 10
195.6918983008907
 20
60.43776032388865
 30
0.0
 10
195.6918983008907
 20
60.49849074441443
 30
0.0
 10
195.6918983008907
 20
60.9714221150453
 30
0.0
 10
195.6918983008907
 20
61.43639102762793
 30
0.0
 10
195.6918983008907
 20
61.84165200086434
 30
0.0
  0
ARC
  5
183
330
1F
100
AcDbEntity
  8
0
  6
Continuous
 62
     7
370
    25
100
AcDbCircle
 10
186.1918983009
 20
57.3695160459
 30
0.0
 40
10.50000000000002
100
AcDbArc
 50
325.2087652968
 51
334.7912347032
  0
SPLINE
  5
184
330
1F
100
AcDbEntity
  8
0
  6
Continuous
 62
     7
370
    25
100
AcDbSpline
210
0.0
220
0.0
230
1.0
 70
    24
 71
     3
 72
     9
 73
     5
 74
     0
 42
0.00000001
 43
0.00000001
 40
0.0
 40
0.0
 40
0.0
 40
0.0
 40
0.9639920334327767
 40
1.0
 40
1.0
 40
1.0
 40
1.0
 10
187.0689149546832
 20
46.90620673241281
 30
0.0
 10
187.4648609749696
 20
47.13480627380973
 30
0.0
 10
187.8755967555097
 20
47.37194468727034
 30
0.0
 10
188.2940422369534
 20
47.61353429862307
 30
0.0
 10
188.3091096078594
 20
47.62223344927163
 30
0.0
  0
LINE
  5
185
330
1F
100
AcDbEntity
  8
0
  6
Continuous
 62
     7
370
    25
100
AcDbLine
 10
193.6166070771
 20
50.6865185419
 30
0.0
 11
194.8148816471
 21
51.3783426874
 31
0.0
  0
LINE
  5
186
330
1F
100
AcDbEntity
  8
0
  6
Continuous
 62
     7
370
    25
100
AcDbLine
 10
187.4418983009
 20
84.4695160459
 30
0.0
 11
187.6918983009
 21
84.4695160459
 31
0.0
  0
LINE
  5
187
330
1F
100
AcDbEntity
  8
0
  6
Continuous
 62
     7
370
    25
100
AcDbLine
 10
187.4418983009
 20
84.4695160459
 30
0.0
 11
187.4418983009
 21
84.7195160459
 31
0.0
  0
ARC
  5
188
330
1F
100
AcDbEntity
  8
0
  6
Continuous
 62
     7
370
    25
100
AcDbCircle
 10
187.4418983009
 20
84.4695160459
 30
0.0
 40
0.25
100
AcDbArc
 50
0.0
 51
90.0
  0
LINE
  5
189
330
1F
100
AcDbEntity
  8
0
  6
Continuous
 62
     7
370
    25
100
AcDbLine
 10
187.4418983009
 20
83.8695160459
 30
0.0
 11
187.4418983009
 21
84.4695160459
 31
0.0
  0
LINE
  5
18A
330
1F
100
AcDbEntity
  8
0
  6
Continuous
 62
     7
370
    25
100
AcDbLine
 10
187.6918983009
 20
84.4695160459
 30
0.0
 11
187.6918983009
 21
83.8695160459
 31
0.0
  0
LINE
  5
18B
330
1F
100
AcDbEntity
  8
0
  6
Continuous
 62
     7
370
    25
100
AcDbLine
 10
187.6918983009
 20
83.8695160459
 30
0.0
 11
187.4418983009
 21
83.8695160459
 31
0.0
  0
LINE
  5
18C
330
1F
100
AcDbEntity
  8
0
  6
Continuous
 62
     7
370
    25
100
AcDbLine
 10
187.4418983009
 20
84.4695160459
 30
0.0
 11
184.9418983009
 21
84.4695160459
 31
0.0
  0
LINE
  5
18D
330
1F
100
AcDbEntity
  8
0
  6
Continuous
 62
     7
370
    25
100
AcDbLine
 10
184.9418983009
 20
84.7195160459
 30
0.0
 11
184.9418983009
 21
84.4695160459
 31
0.0
  0
LINE
  5
18E
330
1F
100
AcDbEntity
  8
0
  6
Continuous
 62
     7
370
    25
100
AcDbLine
 10
184.9418983009
 20
84.7195160459
 30
0.0
 11
187.4418983009
 21
84.7195160459
 31
0.0
  0
LINE
  5
18F
330
1F
100
AcDbEntity
  8
0
  6
Continuous
 62
     7
370
    25
100
AcDbLine
 10
184.9418983009
 20
84.4695160459
 30
0.0
 11
184.9418983009
 21
83.8695160459
 31
0.0
  0
LINE
  5
190
330
1F
100
AcDbEntity
  8
0
  6
Continuous
 62
     7
370
    25
100
AcDbLine
 10
184.9418983009
 20
83.8695160459
 30
0.0
 11
187.4418983009
 21
83.8695160459
 31
0.0
  0
LINE
  5
191
330
1F
100
AcDbEntity
  8
0
  6
Continuous
 62
     7
370
    25
100
AcDbLine
 10
184.6918983009
 20
83.8695160459
 30
0.0
 11
184.6918983009
 21
84.4695160459
 31
0.0
  0
LINE
  5
192
330
1F
100
AcDbEntity
  8
0
  6
Continuous
 62
     7
370
    25
100
AcDbLine
 10
184.6918983009
 20
84.4695160459
 30
0.0
 11
184.9418983009
 21
84.4695160459
 31
0.0
  0
LINE
  5
193
330
1F
100
AcDbEntity
  8
0
  6
Continuous
 62
     7
370
    25
100
AcDbLine
 10
184.9418983009
 20
83.8695160459
 30
0.0
 11
184.6918983009
 21
83.8695160459
 31
0.0
  0
ARC
  5
194
330
1F
100
AcDbEntity
  8
0
  6
Continuous
 62
     7
370
    25
100
AcDbCircle
 10
184.9418983009
 20
84.4695160459
 30
0.0
 40
0.25
100
AcDbArc
 50
90.0
 51
180.0
  0
SPLINE
  5
195
330
1F
100
AcDbEntity
  8
0
  6
Continuous
 62
     7
370
    25
100
AcDbSpline
210
0.0
220
0.0
230
1.0
 70
     8
 71
     3
 72
    15
 73
    11
 74
     0
 42
0.00000001
 43
0.00000001
 40
0.0
 40
0.0
 40
0.0
 40
0.0
 40
0.0090459071881971
 40
0.1032433785236876
 40
0.1542564497735193
 40
0.3133169026715103
 40
0.524372039941443
 40
0.6678060008509185
 40
0.9918332554187027
 40
0.9999999999999999
 40
0.9999999999999999
 40
0.9999999999999999
 40
0.9999999999999999
 10
184.5179852574124
 20
84.46951604586478
 30
0.0
 10
184.5180029031369
 20
84.4711971444492
 30
0.0
 10
184.5182042985494
 20
84.49038397600472
 30
0.0
 10
184.5243939192156
 20
84.51907825552469
 30
0.0
 10
184.5485958510598
 20
84.56975429549664
 30
0.0
 10
184.6016148430614
 20
84.62763059507353
 30
0.0
 10
184.682985730258
 20
84.67249610980821
 30
0.0
 10
184.7975648022805
 20
84.70985849306278
 30
0.0
 10
184.8819899799997
 20
84.71940450533205
 30
0.0
 10
184.9404608379517
 20
84.71951336951899
 30
0.0
 10
184.9418983008907
 20
84.71951604586478
 30
0.0
  0
LINE
  5
196
330
1F
100
AcDbEntity
  8
0
  6
Continuous
 62
     7
370
    25
100
AcDbLine
 10
184.5179852574
 20
84.4695160459
 30
0.0
 11
184.6918983009
 21
84.4695160459
 31
0.0
  0
LINE
  5
197
330
1F
100
AcDbEntity
  8
0
  6
Continuous
 62
     7
370
    25
100
AcDbLine
 10
187.6918983009
 20
84.4695160459
 30
0.0
 11
187.8658113444
 21
84.4695160459
 31
0.0
  0
SPLINE
  5
198
330
1F
100
AcDbEntity
  8
0
  6
Continuous
 62
     7
370
    25
100
AcDbSpline
210
0.0
220
0.0
230
1.0
 70
     8
 71
     3
 72
    15
 73
    11
 74
     0
 42
0.00000001
 43
0.00000001
 40
0.0
 40
0.0
 40
0.0
 40
0.0
 40
0.0081667445812695
 40
0.3321939991490083
 40
0.4756279600585602
 40
0.6866830973284899
 40
0.8457435502264811
 40
0.8967566214763185
 40
0.9909540928118029
 40
1.0
 40
1.0
 40
1.0
 40
1.0
 10
187.4418983008907
 20
84.71951604586478
 30
0.0
 10
187.4433357638297
 20
84.71951336951899
 30
0.0
 10
187.5018066217814
 20
84.71940450533215
 30
0.0
 10
187.5862317995009
 20
84.70985849306275
 30
0.0
 10
187.7008108715233
 20
84.67249610980821
 30
0.0
 10
187.7821817587199
 20
84.62763059507353
 30
0.0
 10
187.8352007507216
 20
84.56975429549662
 30
0.0
 10
187.8594026825657
 20
84.5190782555247
 30
0.0
 10
187.8655923032319
 20
84.49038397600467
 30
0.0
 10
187.8657936986445
 20
84.4711971444492
 30
0.0
 10
187.865811344369
 20
84.46951604586478
 30
0.0
  0
LINE
  5
199
330
1F
100
AcDbEntity
  8
0
  6
Continuous
 62
     7
370
    25
100
AcDbLine
 10
187.8658113444
 20
84.4695160459
 30
0.0
 11
187.8658113444
 21
83.8695160459
 31
0.0
  0
LINE
  5
19A
330
1F
100
AcDbEntity
  8
0
  6
Continuous
 62
     7
370
    25
100
AcDbLine
 10
187.8658113444
 20
83.8695160459
 30
0.0
 11
187.6918983009
 21
83.8695160459
 31
0.0
  0
LINE
  5
19B
330
1F
100
AcDbEntity
  8
0
  6
Continuous
 62
     7
370
    25
100
AcDbLine
 10
184.5179852574
 20
83.8695160459
 30
0.0
 11
184.5179852574
 21
84.4695160459
 31
0.0
  0
LINE
  5
19C
330
1F
100
AcDbEntity
  8
0
  6
Continuous
 62
     7
370
    25
100
AcDbLine
 10
184.6918983009
 20
83.8695160459
 30
0.0
 11
184.5179852574
 21
83.8695160459
 31
0.0
  0
LINE
  5
19D
330
1F
100
AcDbEntity
  8
0
  6
Continuous
 62
     7
370
    25
100
AcDbLine
 10
187.4418983009
 20
84.7195160459
 30
0.0
 11
191.4418983009
 21
84.7195160459
 31
0.0
  0
LINE
  5
19E
330
1F
100
AcDbEntity
  8
0
  6
Continuous
 62
     7
370
    25
100
AcDbLine
 10
180.9418983009
 20
84.7195160459
 30
0.0
 11
184.9418983009
 21
84.7195160459
 31
0.0
  0
LINE
  5
19F
330
1F
100
AcDbEntity
  8
0
  6
Continuous
 62
     7
370
    25
100
AcDbLine
 10
187.8658113444
 20
83.8695160459
 30
0.0
 11
191.6918983009
 21
83.8695160459
 31
0.0
  0
LINE
  5
1A0
330
1F
100
AcDbEntity
  8
0
  6
Continuous
 62
     7
370
    25
100
AcDbLine
 10
180.6918983009
 20
83.8695160459
 30
0.0
 11
184.5179852574
 21
83.8695160459
 31
0.0
  0
LINE
  5
1A1
330
1F
100
AcDbEntity
  8
0
  6
Continuous
 62
     7
370
    25
100
AcDbLine
 10
185.5918983009
 20
84.7195160459
 30
0.0
 11
185.5918983009
 21
84.7295160459
 31
0.0
  0
LINE
  5
1A2
330
1F
100
AcDbEntity
  8
0
  6
Continuous
 62
     7
370
    25
100
AcDbLine
 10
185.5918983009
 20
84.7295160459
 30
0.0
 11
186.7918983009
 21
84.7295160459
 31
0.0
  0
LINE
  5
1A3
330
1F
100
AcDbEntity
  8
0
  6
Continuous
 62
     7
370
    25
100
AcDbLine
 10
186.7918983009
 20
84.7195160459
 30
0.0
 11
186.7918983009
 21
84.7295160459
 31
0.0
  0
LINE
  5
1A4
330
1F
100
AcDbEntity
  8
0
  6
Continuous
 62
     7
370
    25
100
AcDbLine
 10
179.1918983009
 20
67.8695160459
 30
0.0
 11
193.1918983009
 21
67.8695160459
 31
0.0
  0
LINE
  5
1A5
330
1F
100
AcDbEntity
  8
0
  6
Continuous
 62
     7
370
    25
100
AcDbLine
 10
178.7418983009
 20
75.8695160458
 30
0.0
 11
193.6418983009
 21
75.8695160458
 31
0.0
  0
LINE
  5
1A6
330
1F
100
AcDbEntity
  8
0
  6
Continuous
 62
     7
370
    25
100
AcDbLine
 10
189.4635975649
 20
85.8695160459
 30
0.0
 11
189.4635975649
 21
84.7195160459
 31
0.0
  0
LINE
  5
1A7
330
1F
100
AcDbEntity
  8
0
  6
Continuous
 62
     7
370
    25
100
AcDbLine
 10
189.4635975649
 20
85.8695160459
 30
0.0
 11
189.6918983009
 21
85.8695160459
 31
0.0
  0
LINE
  5
1A8
330
1F
100
AcDbEntity
  8
0
  6
Continuous
 62
     7
370
    25
100
AcDbLine
 10
189.6918983009
 20
84.7195160459
 30
0.0
 11
189.6918983009
 21
85.8695160459
 31
0.0
  0
LINE
  5
1A9
330
1F
100
AcDbEntity
  8
0
  6
Continuous
 62
     7
370
    25
100
AcDbLine
 10
182.6918983009
 20
85.8695160459
 30
0.0
 11
182.6918983009
 21
84.7195160459
 31
0.0
  0
LINE
  5
1AA
330
1F
100
AcDbEntity
  8
0
  6
Continuous
 62
     7
370
    25
100
AcDbLine
 10
182.6918983009
 20
85.8695160459
 30
0.0
 11
182.9201990368
 21
85.8695160459
 31
0.0
  0
LINE
  5
1AB
330
1F
100
AcDbEntity
  8
0
  6
Continuous
 62
     7
370
    25
100
AcDbLine
 10
182.9201990368
 20
85.8695160459
 30
0.0
 11
182.9201990368
 21
84.7195160459
 31
0.0
  0
LINE
  5
1AC
330
1F
100
AcDbEntity
  8
0
  6
Continuous
 62
     7
370
    25
100
AcDbLine
 10
182.9201990368
 20
85.8695160459
 30
0.0
 11
189.4635975649
 21
85.8695160459
 31
0.0
  0
CIRCLE
  5
1AD
330
1F
100
AcDbEntity
  8
0
  6
Continuous
 62
     7
370
    25
100
AcDbCircle
 10
186.1918983009
 20
57.3695160459
 30
0.0
 40
4.782279626857616
  0
CIRCLE
  5
1AE
330
1F
100
AcDbEntity
  8
0
  6
Continuous
 62
     7
370
    25
100
AcDbCircle
 10
186.1918983009
 20
57.3695160459
 30
0.0
 40
4.0
  0
CIRCLE
  5
1AF
330
1F
100
AcDbEntity
  8
0
  6
Continuous
 62
     7
370
    25
100
AcDbCircle
 10
186.1918983009
 20
57.3695160459
 30
0.0
 40
3.200000000000017
  0
CIRCLE
  5
1B0
330
1F
100
AcDbEntity
  8
0
  6
Continuous
 62
     7
370
    25
100
AcDbCircle
 10
186.1918983009
 20
57.3695160459
 30
0.0
 40
3.0
  0
CIRCLE
  5
1B1
330
1F
100
AcDbEntity
  8
0
  6
Continuous
 62
     7
370
    25
100
AcDbCircle
 10
186.1918983009
 20
57.3695160459
 30
0.0
 40
5.052437499999996
  0
CIRCLE
  5
1B2
330
1F
100
AcDbEntity
  8
0
  6
Continuous
 62
     7
370
    25
100
AcDbCircle
 10
186.1918983009
 20
57.3695160459
 30
0.0
 40
9.999999999999972
  0
CIRCLE
  5
1B3
330
1F
100
AcDbEntity
  8
0
  6
Continuous
 62
     7
370
    25
100
AcDbCircle
 10
186.1918983009
 20
57.3695160459
 30
0.0
 40
9.499999999999972
  0
SPLINE
  5
1B4
330
1F
100
AcDbEntity
  8
0
  6
Continuous
 62
     7
370
    25
100
AcDbSpline
210
0.0
220
0.0
230
1.0
 70
     8
 71
     3
 72
    13
 73
     9
 74
     0
 42
0.00000001
 43
0.00000001
 40
0.0
 40
0.0
 40
0.0
 40
0.0
 40
0.0742931466200761
 40
0.3010942407473241
 40
0.530072705035311
 40
0.7614972344732689
 40
0.9918492627674992
 40
1.0
 40
1.0
 40
1.0
 40
1.0
 10
180.3742101147504
 20
65.47518376995384
 30
0.0
 10
180.3741289335292
 20
65.51150512621786
 30
0.0
 10
180.3737999233949
 20
65.65870781832015
 30
0.0
 10
180.3546474432673
 20
65.90012173459883
 30
0.0
 10
180.3252920736184
 20
66.15956715547644
 30
0.0
 10
180.300585900569
 20
66.3187132043272
 30
0.0
 10
180.2890461328173
 20
66.38676640245573
 30
0.0
 10
180.2921089510452
 20
66.36824275449652
 30
0.0
 10
180.292213621641
 20
66.36760971618867
 30
0.0
  0
SPLINE
  5
1B5
330
1F
100
AcDbEntity
  8
0
  6
Continuous
 62
     7
370
    25
100
AcDbSpline
210
0.0
220
0.0
230
1.0
 70
    24
 71
     3
 72
    14
 73
    10
 74
     0
 42
0.00000001
 43
0.00000001
 40
0.0
 40
0.0
 40
0.0
 40
0.0
 40
0.0686782875714484
 40
0.293216909137959
 40
0.2935197863693179
 40
0.5073359099559678
 40
0.7069537562193142
 40
0.9001971037285486
 40
1.0
 40
1.0
 40
1.0
 40
1.0
 10
179.9918983008907
 20
65.36951604586562
 30
0.0
 10
179.9918983008907
 20
65.38836814709323
 30
0.0
 10
179.9918983008907
 20
65.46885580990755
 30
0.0
 10
179.9918983008906
 20
65.54854481625058
 30
0.0
 10
179.9918983008907
 20
65.65775653902689
 30
0.0
 10
179.9918983008907
 20
65.75445261953715
 30
0.0
 10
179.9918983008907
 20
65.8560351618273
 30
0.0
 10
179.9918983008907
 20
65.90958723128162
 30
0.0
 10
179.9918983008907
 20
65.90538043001676
 30
0.0
 10
179.9918983008907
 20
65.90394771774291
 30
0.0
  0
SPLINE
  5
1B6
330
1F
100
AcDbEntity
  8
0
  6
Continuous
 62
     7
370
    25
100
AcDbSpline
210
0.0
220
0.0
230
1.0
 70
    24
 71
     3
 72
     9
 73
     5
 74
     0
 42
0.00000001
 43
0.00000001
 40
0.0
 40
0.0
 40
0.0
 40
0.0
 40
0.3032708280230745
 40
1.0
 40
1.0
 40
1.0
 40
1.0
 10
179.9918983008907
 20
65.18688317540575
 30
0.0
 10
179.9918983008907
 20
65.20415607387261
 30
0.0
 10
179.9918983008907
 20
65.2611114314962
 30
0.0
 10
179.9918983008907
 20
65.32500177779296
 30
0.0
 10
179.9918983008907
 20
65.36951604586562
 30
0.0
  0
LINE
  5
1B7
330
1F
100
AcDbEntity
  8
0
  6
Continuous
 62
     7
370
    25
100
AcDbLine
 10
191.6918983009
 20
84.4695160459
 30
0.0
 11
187.8658113444
 21
84.4695160459
 31
0.0
  0
LINE
  5
1B8
330
1F
100
AcDbEntity
  8
0
  6
Continuous
 62
     7
370
    25
100
AcDbLine
 10
184.5179852574
 20
84.4695160459
 30
0.0
 11
180.6918983009
 21
84.4695160459
 31
0.0
  0
INSERT
  5
1C4
330
1F
100
AcDbEntity
  8
FORMAT
100
AcDbBlockReference
  2
SW_CENTERMARKSYMBOL_0
 10
186.1918983009
 20
57.3695160459
 30
0.0
  0
LINE
  5
1C5
330
1F
100
AcDbEntity
  8
0
  6
Continuous
 62
     7
370
    25
100
AcDbLine
 10
97.2898694417
 20
129.6992967388
 30
0.0
 11
92.1548739456
 21
128.2268604743
 31
0.0
  0
LINE
  5
1C6
330
1F
100
AcDbEntity
  8
0
  6
Continuous
 62
     7
370
    25
100
AcDbLine
 10
92.1548739456
 20
112.1717330032
 30
0.0
 11
97.2898694417
 21
110.6992967388
 31
0.0
  0
LINE
  5
1C7
330
1F
100
AcDbEntity
  8
0
  6
Continuous
 62
     7
370
    25
100
AcDbLine
 10
111.9144102087
 20
110.6992967388
 30
0.0
 11
112.058747776
 21
110.9492967388
 31
0.0
  0
LINE
  5
1C8
330
1F
100
AcDbEntity
  8
0
  6
Continuous
 62
     7
370
    25
100
AcDbLine
 10
112.058747776
 20
129.4492967388
 30
0.0
 11
111.9144102087
 21
129.6992967388
 31
0.0
  0
LINE
  5
1C9
330
1F
100
AcDbEntity
  8
0
  6
Continuous
 62
     7
370
    25
100
AcDbLine
 10
92.1548739456
 20
128.2268604743
 30
0.0
 11
92.058747776
 21
128.0534442739
 31
0.0
  0
LINE
  5
1CA
330
1F
100
AcDbEntity
  8
0
  6
Continuous
 62
     7
370
    25
100
AcDbLine
 10
92.058747776
 20
112.3451492037
 30
0.0
 11
92.1548739456
 21
112.1717330032
 31
0.0
  0
LINE
  5
1CB
330
1F
100
AcDbEntity
  8
0
  6
Continuous
 62
     7
370
    25
100
AcDbLine
 10
117.9144102087
 20
110.6992967388
 30
0.0
 11
118.058747776
 21
110.9492967388
 31
0.0
  0
LINE
  5
1CC
330
1F
100
AcDbEntity
  8
0
  6
Continuous
 62
     7
370
    25
100
AcDbLine
 10
118.058747776
 20
129.4492967388
 30
0.0
 11
117.9144102087
 21
129.6992967388
 31
0.0
  0
LINE
  5
1CD
330
1F
100
AcDbEntity
  8
0
  6
Continuous
 62
     7
370
    25
100
AcDbLine
 10
112.2030853433
 20
129.6992967388
 30
0.0
 11
112.058747776
 21
129.4492967388
 31
0.0
  0
LINE
  5
1CE
330
1F
100
AcDbEntity
  8
0
  6
Continuous
 62
     7
370
    25
100
AcDbLine
 10
112.058747776
 20
110.9492967388
 30
0.0
 11
112.2030853433
 21
110.6992967388
 31
0.0
  0
ARC
  5
1CF
330
1F
100
AcDbEntity
  8
0
  6
Continuous
 62
     7
370
    25
100
AcDbCircle
 10
137.058747776
 20
129.1992967388
 30
0.0
 40
1.500000000000014
100
AcDbArc
 50
138.1896851042
 51
180.0
  0
ARC
  5
1D0
330
1F
100
AcDbEntity
  8
0
  6
Continuous
 62
     7
370
    25
100
AcDbCircle
 10
137.058747776
 20
111.1992967388
 30
0.0
 40
1.500000000000014
100
AcDbArc
 50
180.0
 51
221.8103148958
  0
LINE
  5
1D1
330
1F
100
AcDbEntity
  8
0
  6
Continuous
 62
     7
370
    25
100
AcDbLine
 10
137.558747776
 20
110.1992967388
 30
0.0
 11
138.058747776
 21
110.6992967388
 31
0.0
  0
LINE
  5
1D2
330
1F
100
AcDbEntity
  8
0
  6
Continuous
 62
     7
370
    25
100
AcDbLine
 10
138.058747776
 20
129.6992967388
 30
0.0
 11
137.558747776
 21
130.1992967388
 31
0.0
  0
LINE
  5
1D3
330
1F
100
AcDbEntity
  8
0
  6
Continuous
 62
     7
370
    25
100
AcDbLine
 10
137.558747776
 20
130.1992967388
 30
0.0
 11
135.9407137872
 21
130.1992967388
 31
0.0
  0
LINE
  5
1D4
330
1F
100
AcDbEntity
  8
0
  6
Continuous
 62
     7
370
    25
100
AcDbLine
 10
135.9407137872
 20
110.1992967388
 30
0.0
 11
137.558747776
 21
110.1992967388
 31
0.0
  0
LINE
  5
1D5
330
1F
100
AcDbEntity
  8
0
  6
Continuous
 62
     7
370
    25
100
AcDbLine
 10
118.308747776
 20
130.1992967388
 30
0.0
 11
118.058747776
 21
129.9492967388
 31
0.0
  0
LINE
  5
1D6
330
1F
100
AcDbEntity
  8
0
  6
Continuous
 62
     7
370
    25
100
AcDbLine
 10
118.058747776
 20
110.4492967388
 30
0.0
 11
118.308747776
 21
110.1992967388
 31
0.0
  0
ARC
  5
1D7
330
1F
100
AcDbEntity
  8
0
  6
Continuous
 62
     7
370
    25
100
AcDbCircle
 10
119.058747776
 20
111.1992967388
 30
0.0
 40
1.500000000000004
100
AcDbArc
 50
318.1896851042
 51
0.0
  0
ARC
  5
1D8
330
1F
100
AcDbEntity
  8
0
  6
Continuous
 62
     7
370
    25
100
AcDbCircle
 10
119.058747776
 20
129.1992967388
 30
0.0
 40
1.500000000000004
100
AcDbArc
 50
0.0
 51
41.8103148958
  0
LINE
  5
1D9
330
1F
100
AcDbEntity
  8
0
  6
Continuous
 62
     7
370
    25
100
AcDbLine
 10
118.308747776
 20
110.1992967388
 30
0.0
 11
120.1767817647
 21
110.1992967388
 31
0.0
  0
LINE
  5
1DA
330
1F
100
AcDbEntity
  8
0
  6
Continuous
 62
     7
370
    25
100
AcDbLine
 10
120.1767817647
 20
130.1992967388
 30
0.0
 11
118.308747776
 21
130.1992967388
 31
0.0
  0
LINE
  5
1DB
330
1F
100
AcDbEntity
  8
0
  6
Continuous
 62
     7
370
    25
100
AcDbLine
 10
138.058747776
 20
115.1468592388
 30
0.0
 11
146.7037997165
 21
115.4170171119
 31
0.0
  0
LINE
  5
1DC
330
1F
100
AcDbEntity
  8
0
  6
Continuous
 62
     7
370
    25
100
AcDbLine
 10
146.7037997165
 20
124.9815763656
 30
0.0
 11
138.058747776
 21
125.2517342388
 31
0.0
  0
LINE
  5
1DD
330
1F
100
AcDbEntity
  8
0
  6
Continuous
 62
     7
370
    25
100
AcDbLine
 10
146.7037997165
 20
115.4170171119
 30
0.0
 11
148.058747776
 21
116.1992967388
 31
0.0
  0
LINE
  5
1DE
330
1F
100
AcDbEntity
  8
0
  6
Continuous
 62
     7
370
    25
100
AcDbLine
 10
148.058747776
 20
124.1992967388
 30
0.0
 11
146.7037997165
 21
124.9815763656
 31
0.0
  0
SPLINE
  5
1DF
330
1F
100
AcDbEntity
  8
0
  6
Continuous
 62
     7
370
    25
100
AcDbSpline
210
0.0
220
0.0
230
1.0
 70
    24
 71
     3
 72
    14
 73
    10
 74
     0
 42
0.00000001
 43
0.00000001
 40
0.0
 40
0.0
 40
0.0
 40
0.0
 40
0.2251274061536467
 40
0.4521087331364482
 40
0.5714036579591286
 40
0.6920651863465991
 40
0.7896686376460963
 40
0.8896421072670374
 40
1.0
 40
1.0
 40
1.0
 40
1.0
 10
100.7772838855601
 20
129.699296738759
 30
0.0
 10
100.4153022307993
 20
129.699296738759
 30
0.0
 10
99.68835800775409
 20
129.699296738759
 30
0.0
 10
98.84214040381787
 20
129.699296738759
 30
0.0
 10
98.22420933097577
 20
129.699296738759
 30
0.0
 10
97.83266471733151
 20
129.699296738759
 30
0.0
 10
97.53946419031118
 20
129.699296738759
 30
0.0
 10
97.3327656894515
 20
129.699296738759
 30
0.0
 10
97.30721264539164
 20
129.699296738759
 30
0.0
 10
97.29380532437304
 20
129.699296738759
 30
0.0
  0
LINE
  5
1E0
330
1F
100
AcDbEntity
  8
0
  6
Continuous
 62
     7
370
    25
100
AcDbLine
 10
100.7772838856
 20
129.6992967388
 30
0.0
 11
100.7772838856
 21
128.822280085
 31
0.0
  0
SPLINE
  5
1E1
330
1F
100
AcDbEntity
  8
0
  6
Continuous
 62
     7
370
    25
100
AcDbSpline
210
0.0
220
0.0
230
1.0
 70
     8
 71
     3
 72
    17
 73
    13
 74
     0
 42
0.00000001
 43
0.00000001
 40
0.0
 40
0.0
 40
0.0
 40
0.0
 40
0.0807852605643115
 40
0.1647798906494397
 40
0.2394314030639641
 40
0.3141389246859598
 40
0.3983167995245648
 40
0.4826742538336678
 40
0.5858108241973536
 40
0.6893596673877708
 40
0.7928223816615954
 40
1.0
 40
1.0
 40
1.0
 40
1.0
 10
97.6723870751964
 20
123.699296738759
 30
0.0
 10
97.58704030968958
 20
123.8554052222069
 30
0.0
 10
97.41295619348746
 20
124.1738239368623
 30
0.0
 10
97.28680267801515
 20
124.6783578704634
 30
0.0
 10
97.28571917368978
 20
125.1791015400316
 30
0.0
 10
97.39705540698765
 20
125.6711056680814
 30
0.0
 10
97.62529661874756
 20
126.1541076214535
 30
0.0
 10
97.9728168692554
 20
126.6512903907916
 30
0.0
 10
98.4217150897059
 20
127.1375832319276
 30
0.0
 10
98.9607490351746
 20
127.6075619467568
 30
0.0
 10
99.73261871755959
 20
128.1867861154224
 30
0.0
 10
100.3593160629497
 20
128.5680205969806
 30
0.0
 10
100.7772838855601
 20
128.8222800849663
 30
0.0
  0
SPLINE
  5
1E2
330
1F
100
AcDbEntity
  8
0
  6
Continuous
 62
     7
370
    25
100
AcDbSpline
210
0.0
220
0.0
230
1.0
 70
     8
 71
     3
 72
    18
 73
    14
 74
     0
 42
0.00000001
 43
0.00000001
 40
0.0
 40
0.0
 40
0.0
 40
0.0
 40
0.1411269591729473
 40
0.28232810112334
 40
0.4230144282440382
 40
0.5060097567136774
 40
0.5889055213032536
 40
0.6730786862231605
 40
0.757051045492834
 40
0.831682764379432
 40
0.9063704776229008
 40
0.9905260330594925
 40
0.9999999999999999
 40
0.9999999999999999
 40
0.9999999999999999
 40
0.9999999999999999
 10
100.7772838855601
 20
111.5763133925516
 30
0.0
 10
100.4910515732173
 20
111.7474643969616
 30
0.0
 10
99.91843649175101
 20
112.0898563705688
 30
0.0
 10
99.11041254853599
 20
112.6619179538167
 30
0.0
 10
98.47133566302928
 20
113.2122606509488
 30
0.0
 10
97.99712529022753
 20
113.7227086773445
 30
0.0
 10
97.66694891238517
 20
114.1750927959992
 30
0.0
 10
97.41894416020506
 20
114.668629448078
 30
0.0
 10
97.28612801028308
 20
115.1777363786868
 30
0.0
 10
97.28489136710917
 20
115.679757793348
 30
0.0
 10
97.40125541050021
 20
116.1689350540247
 30
0.0
 10
97.54370545986143
 20
116.5110636796734
 30
0.0
 10
97.66323661764982
 20
116.6820003912668
 30
0.0
 10
97.67533145919657
 20
116.6992967387589
 30
0.0
  0
LINE
  5
1E3
330
1F
100
AcDbEntity
  8
0
  6
Continuous
 62
     7
370
    25
100
AcDbLine
 10
100.7772838856
 20
111.5763133926
 30
0.0
 11
100.7772838856
 21
110.6992967388
 31
0.0
  0
SPLINE
  5
1E4
330
1F
100
AcDbEntity
  8
0
  6
Continuous
 62
     7
370
    25
100
AcDbSpline
210
0.0
220
0.0
230
1.0
 70
    24
 71
     3
 72
    16
 73
    12
 74
     0
 42
0.00000001
 43
0.00000001
 40
0.0
 40
0.0
 40
0.0
 40
0.0
 40
0.0829425854878132
 40
0.174788793993743
 40
0.291010409144598
 40
0.4104532561381883
 40
0.5523210528439334
 40
0.6943438909112909
 40
0.8400919531766442
 40
0.9858796848602034
 40
1.0
 40
1.0
 40
1.0
 40
1.0
 10
97.29287819064103
 20
110.699296738759
 30
0.0
 10
97.30017581985253
 20
110.699296738759
 30
0.0
 10
97.31555445558455
 20
110.699296738759
 30
0.0
 10
97.47651361945641
 20
110.699296738759
 30
0.0
 10
97.75764317211707
 20
110.699296738759
 30
0.0
 10
98.18411947482717
 20
110.699296738759
 30
0.0
 10
98.71509703684063
 20
110.699296738759
 30
0.0
 10
99.3385684210558
 20
110.699296738759
 30
0.0
 10
100.0050117321076
 20
110.699296738759
 30
0.0
 10
100.4943301323301
 20
110.699296738759
 30
0.0
 10
100.7543255808302
 20
110.699296738759
 30
0.0
 10
100.7772838855601
 20
110.699296738759
 30
0.0
  0
LINE
  5
1E5
330
1F
100
AcDbEntity
  8
0
  6
Continuous
 62
     7
370
    25
100
AcDbLine
 10
92.1548739456
 20
128.2268604743
 30
0.0
 11
92.1548739456
 21
123.6992967388
 31
0.0
  0
LINE
  5
1E6
330
1F
100
AcDbEntity
  8
0
  6
Continuous
 62
     7
370
    25
100
AcDbLine
 10
92.1548739456
 20
116.6992967388
 30
0.0
 11
92.1548739456
 21
112.1717330032
 31
0.0
  0
LINE
  5
1E7
330
1F
100
AcDbEntity
  8
0
  6
Continuous
 62
     7
370
    25
100
AcDbLine
 10
111.3370599395
 20
111.5763133926
 30
0.0
 11
100.7772838856
 21
111.5763133926
 31
0.0
  0
SPLINE
  5
1E8
330
1F
100
AcDbEntity
  8
0
  6
Continuous
 62
     7
370
    25
100
AcDbSpline
210
0.0
220
0.0
230
1.0
 70
     8
 71
     3
 72
    11
 73
     7
 74
     0
 42
0.00000001
 43
0.00000001
 40
0.0
 40
0.0
 40
0.0
 40
0.0
 40
0.1506303936468832
 40
0.4077585953422159
 40
0.7027468318949814
 40
1.0
 40
1.0
 40
1.0
 40
1.0
 10
111.8625830707656
 20
116.4003628699609
 30
0.0
 10
111.8829059844678
 20
116.1565671381316
 30
0.0
 10
111.937920397853
 20
115.4966086612639
 30
0.0
 10
111.8852466510101
 20
114.3552818624489
 30
0.0
 10
111.7038616964633
 20
112.9846242049448
 30
0.0
 10
111.45963852249
 20
112.0469456633705
 30
0.0
 10
111.3370599394708
 20
111.5763133925516
 30
0.0
  0
LINE
  5
1E9
330
1F
100
AcDbEntity
  8
0
  6
Continuous
 62
     7
370
    25
100
AcDbLine
 10
100.7772838856
 20
128.822280085
 30
0.0
 11
111.3370599395
 21
128.822280085
 31
0.0
  0
SPLINE
  5
1EA
330
1F
100
AcDbEntity
  8
0
  6
Continuous
 62
     7
370
    25
100
AcDbSpline
210
0.0
220
0.0
230
1.0
 70
     8
 71
     3
 72
    11
 73
     7
 74
     0
 42
0.00000001
 43
0.00000001
 40
0.0
 40
0.0
 40
0.0
 40
0.0
 40
0.2512929405657803
 40
0.5025190775942187
 40
0.7598545875453054
 40
1.0
 40
1.0
 40
1.0
 40
1.0
 10
111.3370599394708
 20
128.8222800849663
 30
0.0
 10
111.4417404480261
 20
128.4250493019055
 30
0.0
 10
111.6510736369445
 20
127.6306933353337
 30
0.0
 10
111.8459615292296
 20
126.4095389099559
 30
0.0
 10
111.9374590453233
 20
125.1964975608891
 30
0.0
 10
111.8947840493703
 20
124.3905557596191
 30
0.0
 10
111.8741838533767
 20
124.0015092302678
 30
0.0
  0
LINE
  5
1EB
330
1F
100
AcDbEntity
  8
0
  6
Continuous
 62
     7
370
    25
100
AcDbLine
 10
112.058747776
 20
129.4492967388
 30
0.0
 11
112.058747776
 21
123.9933157202
 31
0.0
  0
LINE
  5
1EC
330
1F
100
AcDbEntity
  8
0
  6
Continuous
 62
     7
370
    25
100
AcDbLine
 10
112.058747776
 20
116.4052777573
 30
0.0
 11
112.058747776
 21
110.9492967388
 31
0.0
  0
SPLINE
  5
1ED
330
1F
100
AcDbEntity
  8
0
  6
Continuous
 62
     7
370
    25
100
AcDbSpline
210
0.0
220
0.0
230
1.0
 70
    24
 71
     3
 72
    11
 73
     7
 74
     0
 42
0.00000001
 43
0.00000001
 40
0.0
 40
0.0
 40
0.0
 40
0.0
 40
0.2797550292743921
 40
0.5605306138018747
 40
0.8614847543347248
 40
1.0
 40
1.0
 40
1.0
 40
1.0
 10
111.3370599394708
 20
110.699296738759
 30
0.0
 10
111.4318281755091
 20
110.699296738759
 30
0.0
 10
111.6217103651278
 20
110.699296738759
 30
0.0
 10
111.8116298006603
 20
110.699296738759
 30
0.0
 10
111.9125976599096
 20
110.699296738759
 30
0.0
 10
111.9031893483093
 20
110.699296738759
 30
0.0
 10
111.9002239663429
 20
110.699296738759
 30
0.0
  0
LINE
  5
1EE
330
1F
100
AcDbEntity
  8
0
  6
Continuous
 62
     7
370
    25
100
AcDbLine
 10
111.3370599395
 20
110.6992967388
 30
0.0
 11
111.3370599395
 21
111.5763133926
 31
0.0
  0
LINE
  5
1EF
330
1F
100
AcDbEntity
  8
0
  6
Continuous
 62
     7
370
    25
100
AcDbLine
 10
111.3370599395
 20
128.822280085
 30
0.0
 11
111.3370599395
 21
129.6992967388
 31
0.0
  0
SPLINE
  5
1F0
330
1F
100
AcDbEntity
  8
0
  6
Continuous
 62
     7
370
    25
100
AcDbSpline
210
0.0
220
0.0
230
1.0
 70
    24
 71
     3
 72
    11
 73
     7
 74
     0
 42
0.00000001
 43
0.00000001
 40
0.0
 40
0.0
 40
0.0
 40
0.0
 40
0.1307315392775144
 40
0.4394619458159251
 40
0.7191659981866161
 40
1.0
 40
1.0
 40
1.0
 40
1.0
 10
111.8997045002276
 20
129.699296738759
 30
0.0
 10
111.9030629798805
 20
129.699296738759
 30
0.0
 10
111.9143527115812
 20
129.699296738759
 30
0.0
 10
111.813226808087
 20
129.699296738759
 30
0.0
 10
111.6220770141435
 20
129.699296738759
 30
0.0
 10
111.4321932221784
 20
129.699296738759
 30
0.0
 10
111.3370599394708
 20
129.699296738759
 30
0.0
  0
LINE
  5
1F1
330
1F
100
AcDbEntity
  8
0
  6
Continuous
 62
     7
370
    25
100
AcDbLine
 10
92.058747776
 20
112.3451492037
 30
0.0
 11
92.058747776
 21
116.6992967388
 31
0.0
  0
LINE
  5
1F2
330
1F
100
AcDbEntity
  8
0
  6
Continuous
 62
     7
370
    25
100
AcDbLine
 10
92.058747776
 20
123.6992967388
 30
0.0
 11
92.058747776
 21
128.0534442739
 31
0.0
  0
LINE
  5
1F3
330
1F
100
AcDbEntity
  8
0
  6
Continuous
 62
     7
370
    25
100
AcDbLine
 10
111.3370599395
 20
129.6992967388
 30
0.0
 11
100.7772838856
 21
129.6992967388
 31
0.0
  0
LINE
  5
1F4
330
1F
100
AcDbEntity
  8
0
  6
Continuous
 62
     7
370
    25
100
AcDbLine
 10
100.7772838856
 20
110.6992967388
 30
0.0
 11
111.3370599395
 21
110.6992967388
 31
0.0
  0
SPLINE
  5
1F5
330
1F
100
AcDbEntity
  8
0
  6
Continuous
 62
     7
370
    25
100
AcDbSpline
210
0.0
220
0.0
230
1.0
 70
    24
 71
     3
 72
    11
 73
     7
 74
     0
 42
0.00000001
 43
0.00000001
 40
0.0
 40
0.0
 40
0.0
 40
0.0
 40
0.2756213602209203
 40
0.5522148162453973
 40
0.8527228045072875
 40
1.0
 40
1.0
 40
1.0
 40
1.0
 10
117.3370599394709
 20
110.6992967387591
 30
0.0
 10
117.4305009690641
 20
110.6992967387591
 30
0.0
 10
117.6177125877326
 20
110.6992967387591
 30
0.0
 10
117.8078546348137
 20
110.699296738759
 30
0.0
 10
117.9111335508752
 20
110.699296738759
 30
0.0
 10
117.9029043548473
 20
110.699296738759
 30
0.0
 10
117.9001977603548
 20
110.699296738759
 30
0.0
  0
LINE
  5
1F6
330
1F
100
AcDbEntity
  8
0
  6
Continuous
 62
     7
370
    25
100
AcDbLine
 10
117.3370599395
 20
110.6992967388
 30
0.0
 11
117.3370599395
 21
111.5763133926
 31
0.0
  0
SPLINE
  5
1F7
330
1F
100
AcDbEntity
  8
0
  6
Continuous
 62
     7
370
    25
100
AcDbSpline
210
0.0
220
0.0
230
1.0
 70
     8
 71
     3
 72
    10
 73
     6
 74
     0
 42
0.00000001
 43
0.00000001
 40
0.0
 40
0.0
 40
0.0
 40
0.0
 40
0.2829212242161419
 40
0.6400894361551991
 40
1.0
 40
1.0
 40
1.0
 40
1.0
 10
117.9081885834342
 20
115.5545510007779
 30
0.0
 10
117.9031898008636
 20
115.1754116495392
 30
0.0
 10
117.8918804057274
 20
114.3176354461774
 30
0.0
 10
117.7006463330063
 20
112.9845651900687
 30
0.0
 10
117.4585640055638
 20
112.046925941655
 30
0.0
 10
117.3370599394708
 20
111.5763133925517
 30
0.0
  0
SPLINE
  5
1F8
330
1F
100
AcDbEntity
  8
0
  6
Continuous
 62
     7
370
    25
100
AcDbSpline
210
0.0
220
0.0
230
1.0
 70
     8
 71
     3
 72
    11
 73
     7
 74
     0
 42
0.00000001
 43
0.00000001
 40
0.0
 40
0.0
 40
0.0
 40
0.0
 40
0.3033115225028868
 40
0.6065424128854516
 40
0.9171473393174748
 40
1.0
 40
1.0
 40
1.0
 40
1.0
 10
117.3370599394709
 20
128.8222800849664
 30
0.0
 10
117.4420897041987
 20
128.4250490737256
 30
0.0
 10
117.6521213126162
 20
127.6306926508545
 30
0.0
 10
117.8417296778545
 20
126.409541674757
 30
0.0
 10
117.9277427106344
 20
125.4743548514072
 30
0.0
 10
117.9057346617049
 20
124.9462504903055
 30
0.0
 10
117.9011002983835
 20
124.8350444725078
 30
0.0
  0
LINE
  5
1F9
330
1F
100
AcDbEntity
  8
0
  6
Continuous
 62
     7
370
    25
100
AcDbLine
 10
117.3370599395
 20
128.822280085
 30
0.0
 11
117.3370599395
 21
129.6992967388
 31
0.0
  0
SPLINE
  5
1FA
330
1F
100
AcDbEntity
  8
0
  6
Continuous
 62
     7
370
    25
100
AcDbSpline
210
0.0
220
0.0
230
1.0
 70
    24
 71
     3
 72
    11
 73
     7
 74
     0
 42
0.00000001
 43
0.00000001
 40
0.0
 40
0.0
 40
0.0
 40
0.0
 40
0.1395080913719206
 40
0.4477773912092013
 40
0.7233511212270443
 40
1.0
 40
1.0
 40
1.0
 40
1.0
 10
117.8995512124865
 20
129.699296738759
 30
0.0
 10
117.9027172702487
 20
129.699296738759
 30
0.0
 10
117.9128793265939
 20
129.699296738759
 30
0.0
 10
117.809476256123
 20
129.699296738759
 30
0.0
 10
117.6180623157202
 20
129.699296738759
 30
0.0
 10
117.4308488964905
 20
129.699296738759
 30
0.0
 10
117.3370599394709
 20
129.699296738759
 30
0.0
  0
SPLINE
  5
1FB
330
1F
100
AcDbEntity
  8
0
  6
Continuous
 62
     7
370
    25
100
AcDbSpline
210
0.0
220
0.0
230
1.0
 70
    24
 71
     3
 72
    11
 73
     7
 74
     0
 42
0.00000001
 43
0.00000001
 40
0.0
 40
0.0
 40
0.0
 40
0.0
 40
0.2754631920626698
 40
0.5518966585730684
 40
0.8523877454571082
 40
1.0
 40
1.0
 40
1.0
 40
1.0
 10
112.7804356124449
 20
129.699296738759
 30
0.0
 10
112.6870454093943
 20
129.699296738759
 30
0.0
 10
112.4999360514393
 20
129.699296738759
 30
0.0
 10
112.3097867084704
 20
129.699296738759
 30
0.0
 10
112.2064184814742
 20
129.699296738759
 30
0.0
 10
112.2146012717703
 20
129.699296738759
 30
0.0
 10
112.2172968109739
 20
129.699296738759
 30
0.0
  0
LINE
  5
1FC
330
1F
100
AcDbEntity
  8
0
  6
Continuous
 62
     7
370
    25
100
AcDbLine
 10
112.7804356124
 20
129.6992967388
 30
0.0
 11
112.7804356124
 21
128.822280085
 31
0.0
  0
SPLINE
  5
1FD
330
1F
100
AcDbEntity
  8
0
  6
Continuous
 62
     7
370
    25
100
AcDbSpline
210
0.0
220
0.0
230
1.0
 70
     8
 71
     3
 72
    11
 73
     7
 74
     0
 42
0.00000001
 43
0.00000001
 40
0.0
 40
0.0
 40
0.0
 40
0.0
 40
0.1438937604759033
 40
0.4030613315573996
 40
0.7003892180394148
 40
1.0
 40
1.0
 40
1.0
 40
1.0
 10
112.2523375508497
 20
124.0364544789862
 30
0.0
 10
112.2331942331621
 20
124.2675174792383
 30
0.0
 10
112.179571816929
 20
124.9147488827908
 30
0.0
 10
112.2324751480975
 20
126.0433176421832
 30
0.0
 10
112.4135735650438
 20
127.4139676664664
 30
0.0
 10
112.6578368814501
 20
128.3516472774154
 30
0.0
 10
112.7804356124449
 20
128.8222800849664
 30
0.0
  0
SPLINE
  5
1FE
330
1F
100
AcDbEntity
  8
0
  6
Continuous
 62
     7
370
    25
100
AcDbSpline
210
0.0
220
0.0
230
1.0
 70
     8
 71
     3
 72
    11
 73
     7
 74
     0
 42
0.00000001
 43
0.00000001
 40
0.0
 40
0.0
 40
0.0
 40
0.0
 40
0.2527842326913451
 40
0.5055012654013055
 40
0.764363926965781
 40
1.0
 40
1.0
 40
1.0
 40
1.0
 10
112.7804356124449
 20
111.5763133925517
 30
0.0
 10
112.675747444486
 20
111.9735441806167
 30
0.0
 10
112.4663989387967
 20
112.7679001571953
 30
0.0
 10
112.2716268298008
 20
113.9890545069283
 30
0.0
 10
112.1804135455747
 20
115.1925379345783
 30
0.0
 10
112.2223855263206
 20
115.9889224594309
 30
0.0
 10
112.2423858054486
 20
116.3684116450074
 30
0.0
  0
LINE
  5
1FF
330
1F
100
AcDbEntity
  8
0
  6
Continuous
 62
     7
370
    25
100
AcDbLine
 10
112.7804356124
 20
111.5763133926
 30
0.0
 11
112.7804356124
 21
110.6992967388
 31
0.0
  0
SPLINE
  5
200
330
1F
100
AcDbEntity
  8
0
  6
Continuous
 62
     7
370
    25
100
AcDbSpline
210
0.0
220
0.0
230
1.0
 70
    24
 71
     3
 72
    11
 73
     7
 74
     0
 42
0.00000001
 43
0.00000001
 40
0.0
 40
0.0
 40
0.0
 40
0.0
 40
0.1398438779634455
 40
0.448095636823628
 40
0.7235112734182116
 40
1.0
 40
1.0
 40
1.0
 40
1.0
 10
112.2179482103318
 20
110.699296738759
 30
0.0
 10
112.2147906546983
 20
110.699296738759
 30
0.0
 10
112.204673036945
 20
110.699296738759
 30
0.0
 10
112.3081641618743
 20
110.699296738759
 30
0.0
 10
112.4995869601191
 20
110.699296738759
 30
0.0
 10
112.6866981257326
 20
110.6992967387591
 30
0.0
 10
112.7804356124449
 20
110.6992967387591
 30
0.0
  0
LINE
  5
201
330
1F
100
AcDbEntity
  8
0
  6
Continuous
 62
     7
370
    25
100
AcDbLine
 10
112.7804356124
 20
128.822280085
 30
0.0
 11
117.3370599395
 21
128.822280085
 31
0.0
  0
LINE
  5
202
330
1F
100
AcDbEntity
  8
0
  6
Continuous
 62
     7
370
    25
100
AcDbLine
 10
117.3370599395
 20
111.5763133926
 30
0.0
 11
112.7804356124
 21
111.5763133926
 31
0.0
  0
LINE
  5
203
330
1F
100
AcDbEntity
  8
0
  6
Continuous
 62
     7
370
    25
100
AcDbLine
 10
112.7804356124
 20
110.6992967388
 30
0.0
 11
117.3370599395
 21
110.6992967388
 31
0.0
  0
LINE
  5
204
330
1F
100
AcDbEntity
  8
0
  6
Continuous
 62
     7
370
    25
100
AcDbLine
 10
117.3370599395
 20
129.6992967388
 30
0.0
 11
112.7804356124
 21
129.6992967388
 31
0.0
  0
SPLINE
  5
205
330
1F
100
AcDbEntity
  8
0
  6
Continuous
 62
     7
370
    25
100
AcDbSpline
210
0.0
220
0.0
230
1.0
 70
     8
 71
     3
 72
    15
 73
    11
 74
     0
 42
0.00000001
 43
0.00000001
 40
0.0
 40
0.0
 40
0.0
 40
0.0
 40
0.0081667445812695
 40
0.3321939991490083
 40
0.4756279600585602
 40
0.6866830973284899
 40
0.8457435502264811
 40
0.8967566214763185
 40
0.9909540928118029
 40
1.0
 40
1.0
 40
1.0
 40
1.0
 10
133.1577672895507
 20
121.449296738759
 30
0.0
 10
133.1582548236936
 20
121.450734201698
 30
0.0
 10
133.1780859712256
 20
121.5092050596497
 30
0.0
 10
133.2063667512349
 20
121.5936302373692
 30
0.0
 10
133.2441960497237
 20
121.7082093093917
 30
0.0
 10
133.2707799462912
 20
121.7895801965882
 30
0.0
 10
133.2879497700462
 20
121.8425991885899
 30
0.0
 10
133.2957667662627
 20
121.8668011204341
 30
0.0
 10
133.2977624526985
 20
121.8729907411003
 30
0.0
 10
133.2978274166493
 20
121.8731921365128
 30
0.0
 10
133.297833108616
 20
121.8732097822373
 30
0.0
  0
ARC
  5
206
330
1F
100
AcDbEntity
  8
0
  6
Continuous
 62
     7
370
    25
100
AcDbCircle
 10
128.058747776
 20
120.1992967388
 30
0.0
 40
5.250000000000012
100
AcDbArc
 50
13.774146998
 51
166.225853002
  0
SPLINE
  5
207
330
1F
100
AcDbEntity
  8
0
  6
Continuous
 62
     7
370
    25
100
AcDbSpline
210
0.0
220
0.0
230
1.0
 70
     8
 71
     3
 72
    15
 73
    11
 74
     0
 42
0.00000001
 43
0.00000001
 40
0.0
 40
0.0
 40
0.0
 40
0.0
 40
0.0090459071881971
 40
0.1032433785236875
 40
0.1542564497735192
 40
0.3133169026715104
 40
0.5243720399414421
 40
0.66780600085099
 40
0.9918332554187291
 40
1.0
 40
1.0
 40
1.0
 40
1.0
 10
122.8196624432998
 20
121.8732097822373
 30
0.0
 10
122.8196681352664
 20
121.8731921365128
 30
0.0
 10
122.8197330992172
 20
121.8729907411003
 30
0.0
 10
122.8217287856531
 20
121.8668011204341
 30
0.0
 10
122.8295457818696
 20
121.8425991885899
 30
0.0
 10
122.8467156056246
 20
121.7895801965882
 30
0.0
 10
122.873299502192
 20
121.7082093093917
 30
0.0
 10
122.9111288006809
 20
121.5936302373692
 30
0.0
 10
122.9394095806902
 20
121.5092050596498
 30
0.0
 10
122.9592407282222
 20
121.450734201698
 30
0.0
 10
122.9597282623651
 20
121.449296738759
 30
0.0
  0
ARC
  5
208
330
1F
100
AcDbEntity
  8
0
  6
Continuous
 62
     7
370
    25
100
AcDbCircle
 10
128.058747776
 20
120.1992967388
 30
0.0
 40
5.500000000000025
100
AcDbArc
 50
17.7189318734
 51
162.2810681266
  0
SPLINE
  5
209
330
1F
100
AcDbEntity
  8
0
  6
Continuous
 62
     7
370
    25
100
AcDbSpline
210
0.0
220
0.0
230
1.0
 70
     8
 71
     3
 72
    15
 73
    11
 74
     0
 42
0.00000001
 43
0.00000001
 40
0.0
 40
0.0
 40
0.0
 40
0.0
 40
0.0089557228015919
 40
0.099900335960821
 40
0.1531632460581752
 40
0.3125636920784863
 40
0.5249666935695052
 40
0.6689893599351772
 40
0.991915253381045
 40
1.0
 40
1.0
 40
1.0
 40
1.0
 10
122.5815222009062
 20
118.699296738759
 30
0.0
 10
122.5815379564848
 20
118.6993075231222
 30
0.0
 10
122.5817137086414
 20
118.6994278217877
 30
0.0
 10
122.5871427246609
 20
118.7031462727058
 30
0.0
 10
122.6086782083682
 20
118.7178573137721
 30
0.0
 10
122.6563836366331
 20
118.7503061752306
 30
0.0
 10
122.728774581625
 20
118.798890215574
 30
0.0
 10
122.8306936936426
 20
118.8662606878424
 30
0.0
 10
122.9060487850977
 20
118.9150742525763
 30
0.0
 10
122.958448430821
 20
118.9484808027707
 30
0.0
 10
122.9597282623651
 20
118.949296738759
 30
0.0
  0
SPLINE
  5
20A
330
1F
100
AcDbEntity
  8
0
  6
Continuous
 62
     7
370
    25
100
AcDbSpline
210
0.0
220
0.0
230
1.0
 70
     8
 71
     3
 72
    15
 73
    11
 74
     0
 42
0.00000001
 43
0.00000001
 40
0.0
 40
0.0
 40
0.0
 40
0.0
 40
0.0081667445812973
 40
0.3321939991490806
 40
0.4756279600585563
 40
0.6866830973284899
 40
0.8457435502264806
 40
0.8967566214763123
 40
0.9909540928118028
 40
1.0
 40
1.0
 40
1.0
 40
1.0
 10
122.9597282623651
 20
118.949296738759
 30
0.0
 10
122.9592407282222
 20
118.94785927582
 30
0.0
 10
122.9394095806909
 20
118.889388417868
 30
0.0
 10
122.9111288006807
 20
118.8049632401488
 30
0.0
 10
122.8732995021921
 20
118.6903841681263
 30
0.0
 10
122.8467156056246
 20
118.6090132809298
 30
0.0
 10
122.8295457818696
 20
118.5559942889281
 30
0.0
 10
122.8217287856531
 20
118.5317923570839
 30
0.0
 10
122.8197330992172
 20
118.5256027364178
 30
0.0
 10
122.8196681352664
 20
118.5254013410052
 30
0.0
 10
122.8196624432998
 20
118.5253836952808
 30
0.0
  0
ARC
  5
20B
330
1F
100
AcDbEntity
  8
0
  6
Continuous
 62
     7
370
    25
100
AcDbCircle
 10
122.5815222009
 20
118.4492967388
 30
0.0
 40
0.25
100
AcDbArc
 50
17.7189318734
 51
90.0
  0
ARC
  5
20C
330
1F
100
AcDbEntity
  8
0
  6
Continuous
 62
     7
370
    25
100
AcDbCircle
 10
122.5815222009
 20
121.9492967388
 30
0.0
 40
0.25
100
AcDbArc
 50
270.0
 51
342.2810681266
  0
SPLINE
  5
20D
330
1F
100
AcDbEntity
  8
0
  6
Continuous
 62
     7
370
    25
100
AcDbSpline
210
0.0
220
0.0
230
1.0
 70
     8
 71
     3
 72
    15
 73
    11
 74
     0
 42
0.00000001
 43
0.00000001
 40
0.0
 40
0.0
 40
0.0
 40
0.0
 40
0.0080847466189818
 40
0.3310106400647572
 40
0.4750333064304998
 40
0.6874363079215141
 40
0.8468367539418309
 40
0.9000996640391852
 40
0.991044277198408
 40
1.0
 40
1.0
 40
1.0
 40
1.0
 10
122.9597282623651
 20
121.449296738759
 30
0.0
 10
122.958448430821
 20
121.4501126747473
 30
0.0
 10
122.9060487850972
 20
121.4835192249409
 30
0.0
 10
122.8306936936427
 20
121.5323327896758
 30
0.0
 10
122.728774581625
 20
121.5997032619439
 30
0.0
 10
122.6563836366331
 20
121.6482873022874
 30
0.0
 10
122.6086782083682
 20
121.680736163746
 30
0.0
 10
122.5871427246609
 20
121.6954472048122
 30
0.0
 10
122.5817137086414
 20
121.6991656557304
 30
0.0
 10
122.5815379564848
 20
121.6992859543959
 30
0.0
 10
122.5815222009062
 20
121.699296738759
 30
0.0
  0
SPLINE
  5
20E
330
1F
100
AcDbEntity
  8
0
  6
Continuous
 62
     7
370
    25
100
AcDbSpline
210
0.0
220
0.0
230
1.0
 70
     8
 71
     3
 72
    15
 73
    11
 74
     0
 42
0.00000001
 43
0.00000001
 40
0.0
 40
0.0
 40
0.0
 40
0.0
 40
0.0090459071881971
 40
0.1032433785236876
 40
0.1542564497735193
 40
0.3133169026715103
 40
0.524372039941443
 40
0.6678060008509185
 40
0.9918332554187027
 40
0.9999999999999999
 40
0.9999999999999999
 40
0.9999999999999999
 40
0.9999999999999999
 10
133.297833108616
 20
118.5253836952808
 30
0.0
 10
133.2978274166493
 20
118.5254013410052
 30
0.0
 10
133.2977624526985
 20
118.5256027364178
 30
0.0
 10
133.2957667662627
 20
118.531792357084
 30
0.0
 10
133.2879497700462
 20
118.5559942889281
 30
0.0
 10
133.2707799462912
 20
118.6090132809298
 30
0.0
 10
133.2441960497237
 20
118.6903841681263
 30
0.0
 10
133.2063667512351
 20
118.8049632401488
 30
0.0
 10
133.1780859712248
 20
118.889388417868
 30
0.0
 10
133.1582548236935
 20
118.94785927582
 30
0.0
 10
133.1577672895507
 20
118.949296738759
 30
0.0
  0
SPLINE
  5
20F
330
1F
100
AcDbEntity
  8
0
  6
Continuous
 62
     7
370
    25
100
AcDbSpline
210
0.0
220
0.0
230
1.0
 70
     8
 71
     3
 72
    15
 73
    11
 74
     0
 42
0.00000001
 43
0.00000001
 40
0.0
 40
0.0
 40
0.0
 40
0.0
 40
0.0080847466189581
 40
0.3310106400648243
 40
0.4750333064304945
 40
0.6874363079215134
 40
0.8468367539418247
 40
0.9000996640391788
 40
0.991044277198408
 40
1.0
 40
1.0
 40
1.0
 40
1.0
 10
133.1577672895507
 20
118.949296738759
 30
0.0
 10
133.1590471210948
 20
118.9484808027707
 30
0.0
 10
133.211446766818
 20
118.9150742525762
 30
0.0
 10
133.2868018582732
 20
118.8662606878424
 30
0.0
 10
133.3887209702908
 20
118.798890215574
 30
0.0
 10
133.4611119152827
 20
118.7503061752306
 30
0.0
 10
133.5088173435475
 20
118.7178573137721
 30
0.0
 10
133.5303528272549
 20
118.7031462727058
 30
0.0
 10
133.5357818432744
 20
118.6994278217877
 30
0.0
 10
133.5359575954309
 20
118.6993075231222
 30
0.0
 10
133.5359733510095
 20
118.699296738759
 30
0.0
  0
ARC
  5
210
330
1F
100
AcDbEntity
  8
0
  6
Continuous
 62
     7
370
    25
100
AcDbCircle
 10
133.535973351
 20
118.4492967388
 30
0.0
 40
0.25
100
AcDbArc
 50
90.0
 51
162.2810681266
  0
ARC
  5
211
330
1F
100
AcDbEntity
  8
0
  6
Continuous
 62
     7
370
    25
100
AcDbCircle
 10
128.058747776
 20
120.1992967388
 30
0.0
 40
5.50000000000002
100
AcDbArc
 50
197.7189318734
 51
342.2810681266
  0
ARC
  5
212
330
1F
100
AcDbEntity
  8
0
  6
Continuous
 62
     7
370
    25
100
AcDbCircle
 10
128.058747776
 20
120.1992967388
 30
0.0
 40
5.250000000000009
100
AcDbArc
 50
193.774146998
 51
346.225853002
  0
ARC
  5
213
330
1F
100
AcDbEntity
  8
0
  6
Continuous
 62
     7
370
    25
100
AcDbCircle
 10
133.535973351
 20
121.9492967388
 30
0.0
 40
0.25
100
AcDbArc
 50
197.7189318734
 51
270.0
  0
SPLINE
  5
214
330
1F
100
AcDbEntity
  8
0
  6
Continuous
 62
     7
370
    25
100
AcDbSpline
210
0.0
220
0.0
230
1.0
 70
     8
 71
     3
 72
    15
 73
    11
 74
     0
 42
0.00000001
 43
0.00000001
 40
0.0
 40
0.0
 40
0.0
 40
0.0
 40
0.0089557228015919
 40
0.0999003359608148
 40
0.153163246058169
 40
0.3125636920784848
 40
0.5249666935694999
 40
0.6689893599352451
 40
0.9919152533810159
 40
1.0
 40
1.0
 40
1.0
 40
1.0
 10
133.5359733510095
 20
121.699296738759
 30
0.0
 10
133.5359575954309
 20
121.6992859543959
 30
0.0
 10
133.5357818432744
 20
121.6991656557304
 30
0.0
 10
133.5303528272549
 20
121.6954472048122
 30
0.0
 10
133.5088173435475
 20
121.680736163746
 30
0.0
 10
133.4611119152827
 20
121.6482873022874
 30
0.0
 10
133.3887209702908
 20
121.5997032619439
 30
0.0
 10
133.286801858273
 20
121.5323327896758
 30
0.0
 10
133.2114467668186
 20
121.483519224941
 30
0.0
 10
133.1590471210948
 20
121.4501126747473
 30
0.0
 10
133.1577672895507
 20
121.449296738759
 30
0.0
  0
LINE
  5
215
330
1F
100
AcDbEntity
  8
0
  6
Continuous
 62
     7
370
    25
100
AcDbLine
 10
123.058747776
 20
119.5992967388
 30
0.0
 11
133.058747776
 21
119.5992967388
 31
0.0
  0
LINE
  5
216
330
1F
100
AcDbEntity
  8
0
  6
Continuous
 62
     7
370
    25
100
AcDbLine
 10
133.058747776
 20
119.5992967388
 30
0.0
 11
133.058747776
 21
120.7992967388
 31
0.0
  0
LINE
  5
217
330
1F
100
AcDbEntity
  8
0
  6
Continuous
 62
     7
370
    25
100
AcDbLine
 10
123.058747776
 20
120.7992967388
 30
0.0
 11
123.058747776
 21
119.5992967388
 31
0.0
  0
LINE
  5
218
330
1F
100
AcDbEntity
  8
0
  6
Continuous
 62
     7
370
    25
100
AcDbLine
 10
133.058747776
 20
120.7992967388
 30
0.0
 11
123.058747776
 21
120.7992967388
 31
0.0
  0
LINE
  5
219
330
1F
100
AcDbEntity
  8
0
  6
Continuous
 62
     7
370
    25
100
AcDbLine
 10
133.808747776
 20
121.4492967388
 30
0.0
 11
133.1577672896
 21
121.4492967388
 31
0.0
  0
LINE
  5
21A
330
1F
100
AcDbEntity
  8
0
  6
Continuous
 62
     7
370
    25
100
AcDbLine
 10
133.808747776
 20
118.9492967388
 30
0.0
 11
133.808747776
 21
121.4492967388
 31
0.0
  0
LINE
  5
21B
330
1F
100
AcDbEntity
  8
0
  6
Continuous
 62
     7
370
    25
100
AcDbLine
 10
133.1577672896
 20
118.9492967388
 30
0.0
 11
133.808747776
 21
118.9492967388
 31
0.0
  0
LINE
  5
21C
330
1F
100
AcDbEntity
  8
0
  6
Continuous
 62
     7
370
    25
100
AcDbLine
 10
122.308747776
 20
118.9492967388
 30
0.0
 11
122.9597282624
 21
118.9492967388
 31
0.0
  0
LINE
  5
21D
330
1F
100
AcDbEntity
  8
0
  6
Continuous
 62
     7
370
    25
100
AcDbLine
 10
122.308747776
 20
121.4492967388
 30
0.0
 11
122.308747776
 21
118.9492967388
 31
0.0
  0
LINE
  5
21E
330
1F
100
AcDbEntity
  8
0
  6
Continuous
 62
     7
370
    25
100
AcDbLine
 10
122.9597282624
 20
121.4492967388
 30
0.0
 11
122.308747776
 21
121.4492967388
 31
0.0
  0
ARC
  5
21F
330
1F
100
AcDbEntity
  8
0
  6
Continuous
 62
     7
370
    25
100
AcDbCircle
 10
133.808747776
 20
121.4492967388
 30
0.0
 40
0.25
100
AcDbArc
 50
0.0
 51
90.0
  0
LINE
  5
220
330
1F
100
AcDbEntity
  8
0
  6
Continuous
 62
     7
370
    25
100
AcDbLine
 10
134.058747776
 20
121.4492967388
 30
0.0
 11
133.808747776
 21
121.4492967388
 31
0.0
  0
LINE
  5
221
330
1F
100
AcDbEntity
  8
0
  6
Continuous
 62
     7
370
    25
100
AcDbLine
 10
133.808747776
 20
121.4492967388
 30
0.0
 11
133.808747776
 21
121.6992967388
 31
0.0
  0
LINE
  5
222
330
1F
100
AcDbEntity
  8
0
  6
Continuous
 62
     7
370
    25
100
AcDbLine
 10
122.308747776
 20
121.6992967388
 30
0.0
 11
122.308747776
 21
121.4492967388
 31
0.0
  0
LINE
  5
223
330
1F
100
AcDbEntity
  8
0
  6
Continuous
 62
     7
370
    25
100
AcDbLine
 10
122.308747776
 20
121.6992967388
 30
0.0
 11
122.5815222009
 21
121.6992967388
 31
0.0
  0
LINE
  5
224
330
1F
100
AcDbEntity
  8
0
  6
Continuous
 62
     7
370
    25
100
AcDbLine
 10
122.308747776
 20
121.4492967388
 30
0.0
 11
122.058747776
 21
121.4492967388
 31
0.0
  0
ARC
  5
225
330
1F
100
AcDbEntity
  8
0
  6
Continuous
 62
     7
370
    25
100
AcDbCircle
 10
122.308747776
 20
121.4492967388
 30
0.0
 40
0.25
100
AcDbArc
 50
90.0
 51
180.0
  0
LINE
  5
226
330
1F
100
AcDbEntity
  8
0
  6
Continuous
 62
     7
370
    25
100
AcDbLine
 10
133.535973351
 20
121.6992967388
 30
0.0
 11
133.808747776
 21
121.6992967388
 31
0.0
  0
LINE
  5
227
330
1F
100
AcDbEntity
  8
0
  6
Continuous
 62
     7
370
    25
100
AcDbLine
 10
134.058747776
 20
121.4492967388
 30
0.0
 11
134.058747776
 21
118.9492967388
 31
0.0
  0
LINE
  5
228
330
1F
100
AcDbEntity
  8
0
  6
Continuous
 62
     7
370
    25
100
AcDbLine
 10
133.808747776
 20
118.9492967388
 30
0.0
 11
134.058747776
 21
118.9492967388
 31
0.0
  0
LINE
  5
229
330
1F
100
AcDbEntity
  8
0
  6
Continuous
 62
     7
370
    25
100
AcDbLine
 10
122.058747776
 20
118.9492967388
 30
0.0
 11
122.308747776
 21
118.9492967388
 31
0.0
  0
LINE
  5
22A
330
1F
100
AcDbEntity
  8
0
  6
Continuous
 62
     7
370
    25
100
AcDbLine
 10
122.058747776
 20
118.9492967388
 30
0.0
 11
122.058747776
 21
121.4492967388
 31
0.0
  0
ARC
  5
22B
330
1F
100
AcDbEntity
  8
0
  6
Continuous
 62
     7
370
    25
100
AcDbCircle
 10
133.808747776
 20
118.9492967388
 30
0.0
 40
0.25
100
AcDbArc
 50
270.0
 51
0.0
  0
LINE
  5
22C
330
1F
100
AcDbEntity
  8
0
  6
Continuous
 62
     7
370
    25
100
AcDbLine
 10
133.808747776
 20
118.6992967388
 30
0.0
 11
133.808747776
 21
118.9492967388
 31
0.0
  0
LINE
  5
22D
330
1F
100
AcDbEntity
  8
0
  6
Continuous
 62
     7
370
    25
100
AcDbLine
 10
133.808747776
 20
118.6992967388
 30
0.0
 11
133.535973351
 21
118.6992967388
 31
0.0
  0
LINE
  5
22E
330
1F
100
AcDbEntity
  8
0
  6
Continuous
 62
     7
370
    25
100
AcDbLine
 10
122.308747776
 20
118.9492967388
 30
0.0
 11
122.308747776
 21
118.6992967388
 31
0.0
  0
ARC
  5
22F
330
1F
100
AcDbEntity
  8
0
  6
Continuous
 62
     7
370
    25
100
AcDbCircle
 10
122.308747776
 20
118.9492967388
 30
0.0
 40
0.25
100
AcDbArc
 50
180.0
 51
270.0
  0
LINE
  5
230
330
1F
100
AcDbEntity
  8
0
  6
Continuous
 62
     7
370
    25
100
AcDbLine
 10
122.5815222009
 20
118.6992967388
 30
0.0
 11
122.308747776
 21
118.6992967388
 31
0.0
  0
LINE
  5
231
330
1F
100
AcDbEntity
  8
0
  6
Continuous
 62
     7
370
    25
100
AcDbLine
 10
108.058747776
 20
123.4709960028
 30
0.0
 11
105.8833109144
 21
123.6992967388
 31
0.0
  0
LINE
  5
232
330
1F
100
AcDbEntity
  8
0
  6
Continuous
 62
     7
370
    25
100
AcDbLine
 10
108.058747776
 20
116.9275974747
 30
0.0
 11
108.058747776
 21
123.4709960028
 31
0.0
  0
LINE
  5
233
330
1F
100
AcDbEntity
  8
0
  6
Continuous
 62
     7
370
    25
100
AcDbLine
 10
105.8833109144
 20
116.6992967388
 30
0.0
 11
108.058747776
 21
116.9275974747
 31
0.0
  0
LINE
  5
234
330
1F
100
AcDbEntity
  8
0
  6
Continuous
 62
     7
370
    25
100
AcDbLine
 10
88.058747776
 20
116.6992967388
 30
0.0
 11
105.8833109144
 21
116.6992967388
 31
0.0
  0
LINE
  5
235
330
1F
100
AcDbEntity
  8
0
  6
Continuous
 62
     7
370
    25
100
AcDbLine
 10
88.058747776
 20
123.6992967388
 30
0.0
 11
88.058747776
 21
116.6992967388
 31
0.0
  0
LINE
  5
236
330
1F
100
AcDbEntity
  8
0
  6
Continuous
 62
     7
370
    25
100
AcDbLine
 10
105.8833109144
 20
123.6992967388
 30
0.0
 11
88.058747776
 21
123.6992967388
 31
0.0
  0
LINE
  5
237
330
1F
100
AcDbEntity
  8
0
  6
Continuous
 62
     7
370
    25
100
AcDbLine
 10
122.8349456016
 20
121.9203112196
 30
0.0
 11
122.7065365629
 21
121.7361695861
 31
0.0
  0
LINE
  5
238
330
1F
100
AcDbEntity
  8
0
  6
Continuous
 62
     7
370
    25
100
AcDbLine
 10
122.7161039037
 20
118.6540790714
 30
0.0
 11
122.8349456016
 21
118.4782822579
 31
0.0
  0
LINE
  5
239
330
1F
100
AcDbEntity
  8
0
  6
Continuous
 62
     7
370
    25
100
AcDbLine
 10
114.6421781224
 20
122.7800993743
 30
0.0
 11
114.6421781224
 21
117.6184941032
 31
0.0
  0
LINE
  5
23A
330
1F
100
AcDbEntity
  8
0
  6
Continuous
 62
     7
370
    25
100
AcDbLine
 10
122.8349456016
 20
118.4782822579
 30
0.0
 11
114.6421781224
 21
117.6184941032
 31
0.0
  0
LINE
  5
23B
330
1F
100
AcDbEntity
  8
0
  6
Continuous
 62
     7
370
    25
100
AcDbLine
 10
114.6421781224
 20
122.7800993743
 30
0.0
 11
122.8349456016
 21
121.9203112196
 31
0.0
  0
LINE
  5
23C
330
1F
100
AcDbEntity
  8
0
  6
Continuous
 62
     7
370
    25
100
AcDbLine
 10
114.6421781224
 20
117.6184941032
 30
0.0
 11
108.058747776
 21
116.9275974747
 31
0.0
  0
LINE
  5
23D
330
1F
100
AcDbEntity
  8
0
  6
Continuous
 62
     7
370
    25
100
AcDbLine
 10
108.058747776
 20
123.4709960028
 30
0.0
 11
114.6421781224
 21
122.7800993743
 31
0.0
  0
ARC
  5
23E
330
1F
100
AcDbEntity
  8
0
  6
Continuous
 62
     7
370
    25
100
AcDbCircle
 10
128.058747776
 20
120.1992967388
 30
0.0
 40
7.450000000000656
100
AcDbArc
 50
233.0863788866
 51
126.9136211134
  0
ARC
  5
23F
330
1F
100
AcDbEntity
  8
0
  6
Continuous
 62
     7
370
    25
100
AcDbCircle
 10
128.058747776
 20
120.1992967388
 30
0.0
 40
7.207531252870771
100
AcDbArc
 50
195.3041237151
 51
238.9797515565
  0
ARC
  5
240
330
1F
100
AcDbEntity
  8
0
  6
Continuous
 62
     7
370
    25
100
AcDbCircle
 10
128.058747776
 20
120.1992967388
 30
0.0
 40
7.207531252872419
100
AcDbArc
 50
121.0202484435
 51
164.6958762849
  0
ARC
  5
241
330
1F
100
AcDbEntity
  8
0
  6
Continuous
 62
     7
370
    25
100
AcDbCircle
 10
105.8833109144
 20
188.6992967388
 30
0.0
 40
64.99999999999997
100
AcDbArc
 50
270.0
 51
286.5000949923
  0
ARC
  5
242
330
1F
100
AcDbEntity
  8
0
  6
Continuous
 62
     7
370
    25
100
AcDbCircle
 10
105.8833109144
 20
51.6992967388
 30
0.0
 40
65.0
100
AcDbArc
 50
73.4999050077
 51
90.0
  0
LINE
  5
243
330
1F
100
AcDbEntity
  8
0
  6
Continuous
 62
     7
370
    25
100
AcDbLine
 10
135.9407137872
 20
110.1992967388
 30
0.0
 11
135.9407137872
 21
130.1992967388
 31
0.0
  0
SPLINE
  5
244
330
1F
100
AcDbEntity
  8
0
  6
Continuous
 62
     7
370
    25
100
AcDbSpline
210
0.0
220
0.0
230
1.0
 70
     8
 71
     3
 72
    12
 73
     8
 74
     0
 42
0.00000001
 43
0.00000001
 40
0.0
 40
0.0
 40
0.0
 40
0.0
 40
0.25
 40
0.25
 40
0.5
 40
0.5
 40
1.0
 40
1.0
 40
1.0
 40
1.0
 10
135.7878338430599
 20
111.4368355590092
 30
0.0
 10
135.7067172409553
 20
111.4023304211491
 30
0.0
 10
135.659687317787
 20
111.3694853498487
 30
0.0
 10
135.5968237162551
 20
111.311132821602
 30
0.0
 10
135.5813740453379
 20
111.2854784579734
 30
0.0
 10
135.5541903809587
 20
111.2223792052336
 30
0.0
 10
135.5587477759579
 20
111.199296738759
 30
0.0
 10
135.5587477759579
 20
111.199296738759
 30
0.0
  0
SPLINE
  5
245
330
1F
100
AcDbEntity
  8
0
  6
Continuous
 62
     7
370
    25
100
AcDbSpline
210
0.0
220
0.0
230
1.0
 70
     8
 71
     3
 72
    14
 73
    10
 74
     0
 42
0.00000001
 43
0.00000001
 40
0.0
 40
0.0
 40
0.0
 40
0.0
 40
0.25
 40
0.25
 40
0.5
 40
0.5
 40
0.75
 40
0.75
 40
1.0
 40
1.0
 40
1.0
 40
1.0
 10
135.7878338430599
 20
111.4368355590092
 30
0.0
 10
135.815354830805
 20
111.4485423545548
 30
0.0
 10
135.8352747526414
 20
111.4805843076363
 30
0.0
 10
135.8509417944595
 20
111.5799080583013
 30
0.0
 10
135.8464499626472
 20
111.6477315010821
 30
0.0
 10
135.8151936173636
 20
111.8101731184949
 30
0.0
 10
135.7888210339818
 20
111.9046185152307
 30
0.0
 10
135.7259844828375
 20
112.1128476228272
 30
0.0
 10
135.6899449039774
 20
112.2254460157103
 30
0.0
 10
135.6559489006118
 20
112.3452024093104
 30
0.0
  0
SPLINE
  5
246
330
1F
100
AcDbEntity
  8
0
  6
Continuous
 62
     7
370
    25
100
AcDbSpline
210
0.0
220
0.0
230
1.0
 70
     8
 71
     3
 72
     8
 73
     4
 74
     0
 42
0.00000001
 43
0.00000001
 40
0.0
 40
0.0
 40
0.0
 40
0.0
 40
1.0
 40
1.0
 40
1.0
 40
1.0
 10
135.5587477759579
 20
113.0753933143715
 30
0.0
 10
135.5587477759579
 20
112.8279638575765
 30
0.0
 10
135.5881124830357
 20
112.5841671086692
 30
0.0
 10
135.6559489006118
 20
112.3452024093104
 30
0.0
  0
LINE
  5
247
330
1F
100
AcDbEntity
  8
0
  6
Continuous
 62
     7
370
    25
100
AcDbLine
 10
135.558747776
 20
113.0753933144
 30
0.0
 11
135.558747776
 21
127.3232001631
 31
0.0
  0
SPLINE
  5
248
330
1F
100
AcDbEntity
  8
0
  6
Continuous
 62
     7
370
    25
100
AcDbSpline
210
0.0
220
0.0
230
1.0
 70
     8
 71
     3
 72
     8
 73
     4
 74
     0
 42
0.00000001
 43
0.00000001
 40
0.0
 40
0.0
 40
0.0
 40
0.0
 40
1.0
 40
1.0
 40
1.0
 40
1.0
 10
135.6559489006118
 20
128.0533910682076
 30
0.0
 10
135.5881124830357
 20
127.8144263688488
 30
0.0
 10
135.5587477759579
 20
127.5706296199415
 30
0.0
 10
135.5587477759579
 20
127.3232001631465
 30
0.0
  0
SPLINE
  5
249
330
1F
100
AcDbEntity
  8
0
  6
Continuous
 62
     7
370
    25
100
AcDbSpline
210
0.0
220
0.0
230
1.0
 70
     8
 71
     3
 72
    12
 73
     8
 74
     0
 42
0.00000001
 43
0.00000001
 40
0.0
 40
0.0
 40
0.0
 40
0.0
 40
0.4999999999999992
 40
0.4999999999999992
 40
0.7499999999999996
 40
0.7499999999999996
 40
1.0
 40
1.0
 40
1.0
 40
1.0
 10
135.6559489006118
 20
128.0533910682076
 30
0.0
 10
135.7238186606216
 20
128.2924732216557
 30
0.0
 10
135.7998532118754
 20
128.5082433288325
 30
0.0
 10
135.8464978102523
 20
128.7513379215364
 30
0.0
 10
135.850936806775
 20
128.8190031970126
 30
0.0
 10
135.8352061929822
 20
128.9181563131692
 30
0.0
 10
135.8153257630398
 20
128.9500634877224
 30
0.0
 10
135.7878338430599
 20
128.9617579185088
 30
0.0
  0
SPLINE
  5
24A
330
1F
100
AcDbEntity
  8
0
  6
Continuous
 62
     7
370
    25
100
AcDbSpline
210
0.0
220
0.0
230
1.0
 70
     8
 71
     3
 72
    12
 73
     8
 74
     0
 42
0.00000001
 43
0.00000001
 40
0.0
 40
0.0
 40
0.0
 40
0.0
 40
0.5000000000000002
 40
0.5000000000000002
 40
0.7500000000000001
 40
0.7500000000000001
 40
1.0
 40
1.0
 40
1.0
 40
1.0
 10
135.5587477759579
 20
129.199296738759
 30
0.0
 10
135.5587477759579
 20
129.199296738759
 30
0.0
 10
135.5541903809587
 20
129.1762142722844
 30
0.0
 10
135.5813740453379
 20
129.1131150195446
 30
0.0
 10
135.5968237162551
 20
129.087460655916
 30
0.0
 10
135.659687317787
 20
129.0291081276694
 30
0.0
 10
135.7067172409553
 20
128.9962630563689
 30
0.0
 10
135.7878338430599
 20
128.9617579185088
 30
0.0
  0
LINE
  5
24B
330
1F
100
AcDbEntity
  8
0
  6
Continuous
 62
     7
370
    25
100
AcDbLine
 10
137.558747776
 20
110.1992967388
 30
0.0
 11
137.558747776
 21
130.1992967388
 31
0.0
  0
LINE
  5
24C
330
1F
100
AcDbEntity
  8
0
  6
Continuous
 62
     7
370
    25
100
AcDbLine
 10
138.058747776
 20
129.6992967388
 30
0.0
 11
138.058747776
 21
110.6992967388
 31
0.0
  0
LINE
  5
24D
330
1F
100
AcDbEntity
  8
0
  6
Continuous
 62
     7
370
    25
100
AcDbLine
 10
118.058747776
 20
110.4492967388
 30
0.0
 11
118.058747776
 21
115.5487974199
 31
0.0
  0
LINE
  5
24E
330
1F
100
AcDbEntity
  8
0
  6
Continuous
 62
     7
370
    25
100
AcDbLine
 10
118.058747776
 20
124.8497960576
 30
0.0
 11
118.058747776
 21
129.9492967388
 31
0.0
  0
LINE
  5
24F
330
1F
100
AcDbEntity
  8
0
  6
Continuous
 62
     7
370
    25
100
AcDbLine
 10
118.308747776
 20
130.1992967388
 30
0.0
 11
118.308747776
 21
124.8979760722
 31
0.0
  0
LINE
  5
250
330
1F
100
AcDbEntity
  8
0
  6
Continuous
 62
     7
370
    25
100
AcDbLine
 10
118.308747776
 20
115.5006174053
 30
0.0
 11
118.308747776
 21
110.1992967388
 31
0.0
  0
LINE
  5
251
330
1F
100
AcDbEntity
  8
0
  6
Continuous
 62
     7
370
    25
100
AcDbLine
 10
120.1767817647
 20
130.1992967388
 30
0.0
 11
120.1767817647
 21
125.290332932
 31
0.0
  0
LINE
  5
252
330
1F
100
AcDbEntity
  8
0
  6
Continuous
 62
     7
370
    25
100
AcDbLine
 10
120.1767817647
 20
115.1082605456
 30
0.0
 11
120.1767817647
 21
110.1992967388
 31
0.0
  0
SPLINE
  5
253
330
1F
100
AcDbEntity
  8
0
  6
Continuous
 62
     7
370
    25
100
AcDbSpline
210
0.0
220
0.0
230
1.0
 70
     8
 71
     3
 72
    12
 73
     8
 74
     0
 42
0.00000001
 43
0.00000001
 40
0.0
 40
0.0
 40
0.0
 40
0.0
 40
0.2500000000000001
 40
0.2500000000000001
 40
0.5000000000000001
 40
0.5000000000000001
 40
1.0
 40
1.0
 40
1.0
 40
1.0
 10
120.3296617088559
 20
128.9617579185088
 30
0.0
 10
120.4107783109605
 20
128.9962630563689
 30
0.0
 10
120.4578082341288
 20
129.0291081276694
 30
0.0
 10
120.5206718356607
 20
129.087460655916
 30
0.0
 10
120.5361215065778
 20
129.1131150195446
 30
0.0
 10
120.5633051709571
 20
129.1762142722844
 30
0.0
 10
120.5587477759579
 20
129.199296738759
 30
0.0
 10
120.5587477759579
 20
129.199296738759
 30
0.0
  0
SPLINE
  5
254
330
1F
100
AcDbEntity
  8
0
  6
Continuous
 62
     7
370
    25
100
AcDbSpline
210
0.0
220
0.0
230
1.0
 70
     8
 71
     3
 72
    14
 73
    10
 74
     0
 42
0.00000001
 43
0.00000001
 40
0.0
 40
0.0
 40
0.0
 40
0.0
 40
0.25
 40
0.25
 40
0.5
 40
0.5
 40
0.75
 40
0.75
 40
1.0
 40
1.0
 40
1.0
 40
1.0
 10
120.3296617088559
 20
128.9617579185088
 30
0.0
 10
120.3021407211108
 20
128.9500511229633
 30
0.0
 10
120.2822207992744
 20
128.9180091698817
 30
0.0
 10
120.2665537574563
 20
128.8186854192167
 30
0.0
 10
120.2710455892686
 20
128.7508619764359
 30
0.0
 10
120.3023019345522
 20
128.5884203590231
 30
0.0
 10
120.328674517934
 20
128.4939749622874
 30
0.0
 10
120.3915110690783
 20
128.2857458546908
 30
0.0
 10
120.4275506479384
 20
128.1731474618077
 30
0.0
 10
120.461546651304
 20
128.0533910682076
 30
0.0
  0
SPLINE
  5
255
330
1F
100
AcDbEntity
  8
0
  6
Continuous
 62
     7
370
    25
100
AcDbSpline
210
0.0
220
0.0
230
1.0
 70
     8
 71
     3
 72
     8
 73
     4
 74
     0
 42
0.00000001
 43
0.00000001
 40
0.0
 40
0.0
 40
0.0
 40
0.0
 40
1.0
 40
1.0
 40
1.0
 40
1.0
 10
120.5587477759579
 20
127.3232001631465
 30
0.0
 10
120.5587477759579
 20
127.5706296199415
 30
0.0
 10
120.52938306888
 20
127.8144263688488
 30
0.0
 10
120.461546651304
 20
128.0533910682076
 30
0.0
  0
LINE
  5
256
330
1F
100
AcDbEntity
  8
0
  6
Continuous
 62
     7
370
    25
100
AcDbLine
 10
120.558747776
 20
127.3232001631
 30
0.0
 11
120.558747776
 21
125.3776452053
 31
0.0
  0
LINE
  5
257
330
1F
100
AcDbEntity
  8
0
  6
Continuous
 62
     7
370
    25
100
AcDbLine
 10
120.558747776
 20
115.0209482722
 30
0.0
 11
120.558747776
 21
113.0753933144
 31
0.0
  0
SPLINE
  5
258
330
1F
100
AcDbEntity
  8
0
  6
Continuous
 62
     7
370
    25
100
AcDbSpline
210
0.0
220
0.0
230
1.0
 70
     8
 71
     3
 72
     8
 73
     4
 74
     0
 42
0.00000001
 43
0.00000001
 40
0.0
 40
0.0
 40
0.0
 40
0.0
 40
1.0
 40
1.0
 40
1.0
 40
1.0
 10
120.461546651304
 20
112.3452024093104
 30
0.0
 10
120.52938306888
 20
112.5841671086692
 30
0.0
 10
120.5587477759579
 20
112.8279638575765
 30
0.0
 10
120.5587477759579
 20
113.0753933143715
 30
0.0
  0
SPLINE
  5
259
330
1F
100
AcDbEntity
  8
0
  6
Continuous
 62
     7
370
    25
100
AcDbSpline
210
0.0
220
0.0
230
1.0
 70
     8
 71
     3
 72
    12
 73
     8
 74
     0
 42
0.00000001
 43
0.00000001
 40
0.0
 40
0.0
 40
0.0
 40
0.0
 40
0.4999999999999992
 40
0.4999999999999992
 40
0.7499999999999996
 40
0.7499999999999996
 40
1.0
 40
1.0
 40
1.0
 40
1.0
 10
120.461546651304
 20
112.3452024093104
 30
0.0
 10
120.3936768912942
 20
112.1061202558623
 30
0.0
 10
120.3176423400404
 20
111.8903501486855
 30
0.0
 10
120.2709977416634
 20
111.6472555559816
 30
0.0
 10
120.2665587451408
 20
111.5795902805055
 30
0.0
 10
120.2822893589336
 20
111.4804371643489
 30
0.0
 10
120.302169788876
 20
111.4485299897956
 30
0.0
 10
120.3296617088559
 20
111.4368355590092
 30
0.0
  0
SPLINE
  5
25A
330
1F
100
AcDbEntity
  8
0
  6
Continuous
 62
     7
370
    25
100
AcDbSpline
210
0.0
220
0.0
230
1.0
 70
     8
 71
     3
 72
    12
 73
     8
 74
     0
 42
0.00000001
 43
0.00000001
 40
0.0
 40
0.0
 40
0.0
 40
0.0
 40
0.4999999999999998
 40
0.4999999999999998
 40
0.7499999999999999
 40
0.7499999999999999
 40
1.0
 40
1.0
 40
1.0
 40
1.0
 10
120.5587477759579
 20
111.199296738759
 30
0.0
 10
120.5587477759579
 20
111.199296738759
 30
0.0
 10
120.5633051709571
 20
111.2223792052336
 30
0.0
 10
120.5361215065778
 20
111.2854784579734
 30
0.0
 10
120.5206718356607
 20
111.311132821602
 30
0.0
 10
120.4578082341288
 20
111.3694853498487
 30
0.0
 10
120.4107783109605
 20
111.4023304211491
 30
0.0
 10
120.3296617088559
 20
111.4368355590092
 30
0.0
  0
ARC
  5
25B
330
1F
100
AcDbEntity
  8
0
  6
Continuous
 62
     7
370
    25
100
AcDbCircle
 10
135.1054298747
 20
127.3821761015
 30
0.0
 40
0.4571381420089263
100
AcDbArc
 50
264.138844256
 51
352.5875431534
  0
ARC
  5
25C
330
1F
100
AcDbEntity
  8
0
  6
Continuous
 62
     7
370
    25
100
AcDbCircle
 10
135.1054298747
 20
113.0164173761
 30
0.0
 40
0.4571381420089546
100
AcDbArc
 50
7.4124568466
 51
95.861155744
  0
ARC
  5
25D
330
1F
100
AcDbEntity
  8
0
  6
Continuous
 62
     7
370
    25
100
AcDbCircle
 10
121.0120656772
 20
127.3821761015
 30
0.0
 40
0.4571381420089263
100
AcDbArc
 50
187.4124568466
 51
275.861155744
  0
ARC
  5
25E
330
1F
100
AcDbEntity
  8
0
  6
Continuous
 62
     7
370
    25
100
AcDbCircle
 10
121.0120656772
 20
113.0164173761
 30
0.0
 40
0.4571381420089531
100
AcDbArc
 50
84.138844256
 51
172.5875431534
  0
LINE
  5
25F
330
1F
100
AcDbEntity
  8
0
  6
Continuous
 62
     7
370
    25
100
AcDbLine
 10
120.4615466513
 20
128.0533910682
 30
0.0
 11
120.9291462764
 21
128.1992967388
 31
0.0
  0
SPLINE
  5
260
330
1F
100
AcDbEntity
  8
0
  6
Continuous
 62
     7
370
    25
100
AcDbSpline
210
0.0
220
0.0
230
1.0
 70
     8
 71
     3
 72
     8
 73
     4
 74
     0
 42
0.00000001
 43
0.00000001
 40
0.0
 40
0.0
 40
0.0
 40
0.0
 40
1.0
 40
1.0
 40
1.0
 40
1.0
 10
120.9291462764193
 20
128.199296738759
 30
0.0
 10
121.0181549718077
 20
127.9140409811292
 30
0.0
 10
121.0587477759579
 20
127.6216230312473
 30
0.0
 10
121.0587477759579
 20
127.3232001631465
 30
0.0
  0
LINE
  5
261
330
1F
100
AcDbEntity
  8
0
  6
Continuous
 62
     7
370
    25
100
AcDbLine
 10
120.558747776
 20
127.3232001631
 30
0.0
 11
121.058747776
 21
127.3232001631
 31
0.0
  0
SPLINE
  5
262
330
1F
100
AcDbEntity
  8
0
  6
Continuous
 62
     7
370
    25
100
AcDbSpline
210
0.0
220
0.0
230
1.0
 70
     8
 71
     3
 72
     8
 73
     4
 74
     0
 42
0.00000001
 43
0.00000001
 40
0.0
 40
0.0
 40
0.0
 40
0.0
 40
1.0
 40
1.0
 40
1.0
 40
1.0
 10
135.0587477759579
 20
127.3232001631465
 30
0.0
 10
135.0587477759579
 20
127.6216230312473
 30
0.0
 10
135.099340580108
 20
127.9140409811292
 30
0.0
 10
135.1883492754964
 20
128.199296738759
 30
0.0
  0
LINE
  5
263
330
1F
100
AcDbEntity
  8
0
  6
Continuous
 62
     7
370
    25
100
AcDbLine
 10
135.1883492755
 20
128.1992967388
 30
0.0
 11
135.6559489006
 21
128.0533910682
 31
0.0
  0
LINE
  5
264
330
1F
100
AcDbEntity
  8
0
  6
Continuous
 62
     7
370
    25
100
AcDbLine
 10
135.058747776
 20
127.3232001631
 30
0.0
 11
135.558747776
 21
127.3232001631
 31
0.0
  0
SPLINE
  5
265
330
1F
100
AcDbEntity
  8
0
  6
Continuous
 62
     7
370
    25
100
AcDbSpline
210
0.0
220
0.0
230
1.0
 70
     8
 71
     3
 72
     8
 73
     4
 74
     0
 42
0.00000001
 43
0.00000001
 40
0.0
 40
0.0
 40
0.0
 40
0.0
 40
1.0
 40
1.0
 40
1.0
 40
1.0
 10
121.0587477759579
 20
113.0753933143715
 30
0.0
 10
121.0587477759579
 20
112.7769704462708
 30
0.0
 10
121.0181549718077
 20
112.4845524963888
 30
0.0
 10
120.9291462764193
 20
112.199296738759
 30
0.0
  0
LINE
  5
266
330
1F
100
AcDbEntity
  8
0
  6
Continuous
 62
     7
370
    25
100
AcDbLine
 10
120.9291462764
 20
112.1992967388
 30
0.0
 11
120.4615466513
 21
112.3452024093
 31
0.0
  0
LINE
  5
267
330
1F
100
AcDbEntity
  8
0
  6
Continuous
 62
     7
370
    25
100
AcDbLine
 10
120.558747776
 20
113.0753933144
 30
0.0
 11
121.058747776
 21
113.0753933144
 31
0.0
  0
LINE
  5
268
330
1F
100
AcDbEntity
  8
0
  6
Continuous
 62
     7
370
    25
100
AcDbLine
 10
135.6559489006
 20
112.3452024093
 30
0.0
 11
135.1883492755
 21
112.1992967388
 31
0.0
  0
SPLINE
  5
269
330
1F
100
AcDbEntity
  8
0
  6
Continuous
 62
     7
370
    25
100
AcDbSpline
210
0.0
220
0.0
230
1.0
 70
     8
 71
     3
 72
     8
 73
     4
 74
     0
 42
0.00000001
 43
0.00000001
 40
0.0
 40
0.0
 40
0.0
 40
0.0
 40
1.0
 40
1.0
 40
1.0
 40
1.0
 10
135.1883492754964
 20
112.199296738759
 30
0.0
 10
135.099340580108
 20
112.4845524963888
 30
0.0
 10
135.0587477759579
 20
112.7769704462708
 30
0.0
 10
135.0587477759579
 20
113.0753933143715
 30
0.0
  0
LINE
  5
26A
330
1F
100
AcDbEntity
  8
0
  6
Continuous
 62
     7
370
    25
100
AcDbLine
 10
135.558747776
 20
113.0753933144
 30
0.0
 11
135.058747776
 21
113.0753933144
 31
0.0
  0
LINE
  5
26B
330
1F
100
AcDbEntity
  8
0
  6
Continuous
 62
     7
370
    25
100
AcDbLine
 10
121.058747776
 20
126.9274277507
 30
0.0
 11
121.058747776
 21
127.3232001631
 31
0.0
  0
LINE
  5
26C
330
1F
100
AcDbEntity
  8
0
  6
Continuous
 62
     7
370
    25
100
AcDbLine
 10
135.058747776
 20
126.9274277507
 30
0.0
 11
135.058747776
 21
127.3232001631
 31
0.0
  0
LINE
  5
26D
330
1F
100
AcDbEntity
  8
0
  6
Continuous
 62
     7
370
    25
100
AcDbLine
 10
121.058747776
 20
113.0753933144
 30
0.0
 11
121.058747776
 21
113.4711657268
 31
0.0
  0
LINE
  5
26E
330
1F
100
AcDbEntity
  8
0
  6
Continuous
 62
     7
370
    25
100
AcDbLine
 10
135.058747776
 20
113.0753933144
 30
0.0
 11
135.058747776
 21
113.4711657268
 31
0.0
  0
ARC
  5
26F
330
1F
100
AcDbEntity
  8
0
  6
Continuous
 62
     7
370
    25
100
AcDbCircle
 10
120.7571294995
 20
129.1786055563
 30
0.0
 40
0.4793241179195559
100
AcDbArc
 50
206.8979585986
 51
269.5422002632
  0
SPLINE
  5
270
330
1F
100
AcDbEntity
  8
0
  6
Continuous
 62
     7
370
    25
100
AcDbSpline
210
0.0
220
0.0
230
1.0
 70
     8
 71
     3
 72
    14
 73
    10
 74
     0
 42
0.00000001
 43
0.00000001
 40
0.0
 40
0.0
 40
0.0
 40
0.0
 40
0.25
 40
0.25
 40
0.5
 40
0.5
 40
0.75
 40
0.75
 40
1.0
 40
1.0
 40
1.0
 40
1.0
 10
120.9291462764193
 20
128.199296738759
 30
0.0
 10
120.8906707927977
 20
128.2609500029865
 30
0.0
 10
120.8495818713277
 20
128.3191339482594
 30
0.0
 10
120.7702990238871
 20
128.4327992697264
 30
0.0
 10
120.7330161227767
 20
128.4864758684261
 30
0.0
 10
120.6802103634649
 20
128.5864659008728
 30
0.0
 10
120.6682411033713
 20
128.6308704010957
 30
0.0
 10
120.6882428917434
 20
128.6869302565895
 30
0.0
 10
120.7176993472957
 20
128.699296738759
 30
0.0
 10
120.7532996864885
 20
128.699296738759
 30
0.0
  0
ARC
  5
271
330
1F
100
AcDbEntity
  8
0
  6
Continuous
 62
     7
370
    25
100
AcDbCircle
 10
135.3603660524
 20
111.2199879212
 30
0.0
 40
0.4793241179195565
100
AcDbArc
 50
26.8979585986
 51
89.5422002632
  0
SPLINE
  5
272
330
1F
100
AcDbEntity
  8
0
  6
Continuous
 62
     7
370
    25
100
AcDbSpline
210
0.0
220
0.0
230
1.0
 70
     8
 71
     3
 72
    14
 73
    10
 74
     0
 42
0.00000001
 43
0.00000001
 40
0.0
 40
0.0
 40
0.0
 40
0.0
 40
0.25
 40
0.25
 40
0.5
 40
0.5
 40
0.75
 40
0.75
 40
1.0
 40
1.0
 40
1.0
 40
1.0
 10
135.1883492754964
 20
112.199296738759
 30
0.0
 10
135.226824759118
 20
112.1376434745315
 30
0.0
 10
135.267913680588
 20
112.0794595292586
 30
0.0
 10
135.3471965280286
 20
111.9657942077917
 30
0.0
 10
135.3844794291391
 20
111.9121176090919
 30
0.0
 10
135.4372851884509
 20
111.8121275766453
 30
0.0
 10
135.4492544485445
 20
111.7677230764223
 30
0.0
 10
135.4292526601723
 20
111.7116632209285
 30
0.0
 10
135.39979620462
 20
111.699296738759
 30
0.0
 10
135.3641958654273
 20
111.699296738759
 30
0.0
  0
SPLINE
  5
273
330
1F
100
AcDbEntity
  8
0
  6
Continuous
 62
     7
370
    25
100
AcDbSpline
210
0.0
220
0.0
230
1.0
 70
     8
 71
     3
 72
    16
 73
    12
 74
     0
 42
0.00000001
 43
0.00000001
 40
0.0
 40
0.0
 40
0.0
 40
0.0
 40
0.2500000000000011
 40
0.2500000000000011
 40
0.3749999999999992
 40
0.3749999999999992
 40
0.4999999999999974
 40
0.4999999999999974
 40
0.7499999999999987
 40
0.7499999999999987
 40
1.0
 40
1.0
 40
1.0
 40
1.0
 10
135.3641958654273
 20
128.699296738759
 30
0.0
 10
135.3997497948759
 20
128.699296738759
 30
0.0
 10
135.4290219361046
 20
128.6871649883432
 30
0.0
 10
135.4442344863255
 20
128.6451432820638
 30
0.0
 10
135.444295154499
 20
128.6269289125572
 30
0.0
 10
135.4340845700217
 20
128.5849919000307
 30
0.0
 10
135.4243012404965
 20
128.5619643365364
 30
0.0
 10
135.3851366919645
 20
128.4875556577644
 30
0.0
 10
135.3472636186913
 20
128.4328977815819
 30
0.0
 10
135.2681906456997
 20
128.3195287084032
 30
0.0
 10
135.2268035131089
 20
128.260915958299
 30
0.0
 10
135.1883492754964
 20
128.199296738759
 30
0.0
  0
ARC
  5
274
330
1F
100
AcDbEntity
  8
0
  6
Continuous
 62
     7
370
    25
100
AcDbCircle
 10
135.3603660524
 20
129.1786055563
 30
0.0
 40
0.4793241179195563
100
AcDbArc
 50
270.4577997368
 51
333.1020414014
  0
SPLINE
  5
275
330
1F
100
AcDbEntity
  8
0
  6
Continuous
 62
     7
370
    25
100
AcDbSpline
210
0.0
220
0.0
230
1.0
 70
     8
 71
     3
 72
    16
 73
    12
 74
     0
 42
0.00000001
 43
0.00000001
 40
0.0
 40
0.0
 40
0.0
 40
0.0
 40
0.2500000000000049
 40
0.2500000000000049
 40
0.3750000000000051
 40
0.3750000000000051
 40
0.5000000000000052
 40
0.5000000000000052
 40
0.7500000000000026
 40
0.7500000000000026
 40
1.0
 40
1.0
 40
1.0
 40
1.0
 10
120.7532996864885
 20
111.699296738759
 30
0.0
 10
120.7177457570399
 20
111.699296738759
 30
0.0
 10
120.6884736158112
 20
111.7114284891748
 30
0.0
 10
120.6732610655903
 20
111.7534501954542
 30
0.0
 10
120.6732003974167
 20
111.7716645649608
 30
0.0
 10
120.6834109818941
 20
111.8136015774873
 30
0.0
 10
120.6931943114193
 20
111.8366291409816
 30
0.0
 10
120.7323588599512
 20
111.9110378197536
 30
0.0
 10
120.7702319332245
 20
111.9656956959361
 30
0.0
 10
120.8493049062161
 20
112.0790647691149
 30
0.0
 10
120.8906920388069
 20
112.1376775192191
 30
0.0
 10
120.9291462764193
 20
112.199296738759
 30
0.0
  0
ARC
  5
276
330
1F
100
AcDbEntity
  8
0
  6
Continuous
 62
     7
370
    25
100
AcDbCircle
 10
120.7571294995
 20
111.2199879212
 30
0.0
 40
0.4793241179195563
100
AcDbArc
 50
90.4577997368
 51
153.1020414014
  0
LINE
  5
277
330
1F
100
AcDbEntity
  8
0
  6
Continuous
 62
     7
370
    25
100
AcDbLine
 10
146.7037997165
 20
124.9815763656
 30
0.0
 11
146.7037997165
 21
115.4170171119
 31
0.0
  0
LINE
  5
278
330
1F
100
AcDbEntity
  8
0
  6
Continuous
 62
     7
370
    25
100
AcDbLine
 10
135.1883492755
 20
128.1992967388
 30
0.0
 11
120.9291462764
 21
128.1992967388
 31
0.0
  0
LINE
  5
279
330
1F
100
AcDbEntity
  8
0
  6
Continuous
 62
     7
370
    25
100
AcDbLine
 10
120.7532996865
 20
128.6992967388
 30
0.0
 11
135.3641958654
 21
128.6992967388
 31
0.0
  0
LINE
  5
27A
330
1F
100
AcDbEntity
  8
0
  6
Continuous
 62
     7
370
    25
100
AcDbLine
 10
120.9291462764
 20
112.1992967388
 30
0.0
 11
135.1883492755
 21
112.1992967388
 31
0.0
  0
LINE
  5
27B
330
1F
100
AcDbEntity
  8
0
  6
Continuous
 62
     7
370
    25
100
AcDbLine
 10
135.3641958654
 20
111.6992967388
 30
0.0
 11
120.7532996865
 21
111.6992967388
 31
0.0
  0
LINE
  5
27C
330
1F
100
AcDbEntity
  8
0
  6
Continuous
 62
     7
370
    25
100
AcDbLine
 10
148.058747776
 20
124.1992967388
 30
0.0
 11
148.058747776
 21
116.1992967388
 31
0.0
  0
ARC
  5
27D
330
1F
100
AcDbEntity
  8
0
  6
Continuous
 62
     7
370
    25
100
AcDbCircle
 10
135.058747776
 20
129.1992967388
 30
0.0
 40
0.5
100
AcDbArc
 50
270.0
 51
0.0
  0
ARC
  5
27E
330
1F
100
AcDbEntity
  8
0
  6
Continuous
 62
     7
370
    25
100
AcDbCircle
 10
121.058747776
 20
129.1992967388
 30
0.0
 40
0.5
100
AcDbArc
 50
180.0
 51
270.0
  0
ARC
  5
27F
330
1F
100
AcDbEntity
  8
0
  6
Continuous
 62
     7
370
    25
100
AcDbCircle
 10
135.058747776
 20
111.1992967388
 30
0.0
 40
0.5
100
AcDbArc
 50
0.0
 51
90.0
  0
ARC
  5
280
330
1F
100
AcDbEntity
  8
0
  6
Continuous
 62
     7
370
    25
100
AcDbCircle
 10
121.058747776
 20
111.1992967388
 30
0.0
 40
0.5
100
AcDbArc
 50
90.0
 51
180.0
  0
LINE
  5
281
330
1F
100
AcDbEntity
  8
0
  6
Continuous
 62
     7
370
    25
100
AcDbLine
 10
135.058747776
 20
113.4711657268
 30
0.0
 11
135.058747776
 21
117.6492967387
 31
0.0
  0
LINE
  5
282
330
1F
100
AcDbEntity
  8
0
  6
Continuous
 62
     7
370
    25
100
AcDbLine
 10
135.058747776
 20
122.7492967388
 30
0.0
 11
135.058747776
 21
126.9274277507
 31
0.0
  0
LINE
  5
283
330
1F
100
AcDbEntity
  8
0
  6
Continuous
 62
     7
370
    25
100
AcDbLine
 10
121.058747776
 20
126.9274277507
 30
0.0
 11
121.058747776
 21
125.4956092193
 31
0.0
  0
LINE
  5
284
330
1F
100
AcDbEntity
  8
0
  6
Continuous
 62
     7
370
    25
100
AcDbLine
 10
121.058747776
 20
114.9029842583
 30
0.0
 11
121.058747776
 21
113.4711657268
 31
0.0
  0
LINE
  5
285
330
1F
100
AcDbEntity
  8
0
  6
Continuous
 62
     7
370
    25
100
AcDbLine
 10
135.058747776
 20
126.9274277507
 30
0.0
 11
131.2579278407
 21
126.9274277507
 31
0.0
  0
LINE
  5
286
330
1F
100
AcDbEntity
  8
0
  6
Continuous
 62
     7
370
    25
100
AcDbLine
 10
124.8595677112
 20
126.9274277507
 30
0.0
 11
121.058747776
 21
126.9274277507
 31
0.0
  0
LINE
  5
287
330
1F
100
AcDbEntity
  8
0
  6
Continuous
 62
     7
370
    25
100
AcDbLine
 10
121.058747776
 20
113.4711657268
 30
0.0
 11
124.8595677112
 21
113.4711657268
 31
0.0
  0
LINE
  5
288
330
1F
100
AcDbEntity
  8
0
  6
Continuous
 62
     7
370
    25
100
AcDbLine
 10
131.2579278407
 20
113.4711657268
 30
0.0
 11
135.058747776
 21
113.4711657268
 31
0.0
  0
LINE
  5
289
330
1F
100
AcDbEntity
  8
0
  6
Continuous
 62
     7
370
    25
100
AcDbLine
 10
121.058747776
 20
127.3232001631
 30
0.0
 11
125.8787248403
 21
127.3232001631
 31
0.0
  0
LINE
  5
28A
330
1F
100
AcDbEntity
  8
0
  6
Continuous
 62
     7
370
    25
100
AcDbLine
 10
130.2387707116
 20
127.3232001631
 30
0.0
 11
135.058747776
 21
127.3232001631
 31
0.0
  0
LINE
  5
28B
330
1F
100
AcDbEntity
  8
0
  6
Continuous
 62
     7
370
    25
100
AcDbLine
 10
135.058747776
 20
113.0753933144
 30
0.0
 11
130.2387707116
 21
113.0753933144
 31
0.0
  0
LINE
  5
28C
330
1F
100
AcDbEntity
  8
0
  6
Continuous
 62
     7
370
    25
100
AcDbLine
 10
125.8787248403
 20
113.0753933144
 30
0.0
 11
121.058747776
 21
113.0753933144
 31
0.0
  0
INSERT
  5
298
330
1F
100
AcDbEntity
  8
FORMAT
100
AcDbBlockReference
  2
SW_CENTERMARKSYMBOL_1
 10
128.058747776
 20
120.1992967388
 30
0.0
  0
LINE
  5
299
330
1F
100
AcDbEntity
  8
FORMAT
100
AcDbLine
 10
147.6784918324
 20
115.9797558674
 30
0.0
 11
138.558747776
 21
115.6947638656
 31
0.0
  0
LINE
  5
29A
330
1F
100
AcDbEntity
  8
FORMAT
100
AcDbLine
 10
147.6784918324
 20
124.4188376101
 30
0.0
 11
138.558747776
 21
124.7038296119
 31
0.0
  0
LINE
  5
29B
330
1F
100
AcDbEntity
  8
FORMAT
100
AcDbLine
 10
138.558747776
 20
125.2361092388
 30
0.0
 11
138.558747776
 21
115.1624842388
 31
0.0
  0
LINE
  5
29C
330
1F
100
AcDbEntity
  8
FORMAT
  6
CENTERX2
370
    18
100
AcDbLine
 10
123.0904310574
 20
112.1992967388
 30
0.0
 11
136.0057289455
 21
112.1992967388
 31
0.0
  0
LINE
  5
29D
330
1F
100
AcDbEntity
  8
FORMAT
  6
CENTERX2
370
    18
100
AcDbLine
 10
123.0835325691
 20
128.1992967388
 30
0.0
 11
135.9988304572
 21
128.1992967388
 31
0.0
  0
ENDSEC
  0
SECTION
  2
OBJECTS
  0
DICTIONARY
  5
C
330
0
100
AcDbDictionary
281
     1
  3
ACAD_GROUP
350
D
  3
ACAD_LAYOUT
350
1A
  3
ACAD_MLINESTYLE
350
17
  3
ACAD_PLOTSETTINGS
350
19
  3
ACAD_PLOTSTYLENAME
350
E
  3
ACAD_SCALELIST
350
47
  3
DWGPROPS
350
29E
  0
DICTIONARY
  5
D
102
{ACAD_REACTORS
330
C
102
}
330
C
100
AcDbDictionary
281
     1
  0
DICTIONARY
  5
1A
102
{ACAD_REACTORS
330
C
102
}
330
C
100
AcDbDictionary
281
     1
  3
Layout1
350
1E
  3
Layout2
350
26
  3
Model
350
22
  0
DICTIONARY
  5
17
102
{ACAD_REACTORS
330
C
102
}
330
C
100
AcDbDictionary
281
     1
  3
Standard
350
18
  0
DICTIONARY
  5
19
102
{ACAD_REACTORS
330
C
102
}
330
C
100
AcDbDictionary
281
     1
  0
ACDBDICTIONARYWDFLT
  5
E
102
{ACAD_REACTORS
330
C
102
}
330
C
100
AcDbDictionary
281
     1
  3
Normal
350
F
100
AcDbDictionaryWithDefault
340
F
  0
DICTIONARY
  5
47
102
{ACAD_REACTORS
330
C
102
}
330
C
100
AcDbDictionary
281
     1
  3
A0
350
48
  3
A1
350
49
  3
A2
350
4A
  3
A3
350
4B
  3
A4
350
4C
  3
A5
350
4D
  3
A6
350
4E
  3
A7
350
4F
  3
A8
350
50
  3
A9
350
51
  3
B0
350
52
  3
B1
350
53
  3
B2
350
54
  3
B3
350
55
  3
B4
350
56
  3
B5
350
57
  3
B6
350
58
  0
XRECORD
  5
29E
102
{ACAD_REACTORS
330
C
102
}
330
C
100
AcDbXrecord
280
     1
  1
DWGPROPS COOKIE
  2

  3

  4

  6

  7

  8
user28
  9

300
=
301
=
302
=
303
=
304
=
305
=
306
=
307
=
308
=
309
=
 40
0.0
 41
2460406.332885359
 42
2460406.332886088
  1

 90
        0
  0
LAYOUT
  5
1E
102
{ACAD_REACTORS
330
1A
102
}
330
1A
100
AcDbPlotSettings
  1

  2
none_device
  4

  6

 40
0.0
 41
0.0
 42
0.0
 43
0.0
 44
0.0
 45
0.0
 46
0.0
 47
0.0
 48
0.0
 49
0.0
140
0.0
141
0.0
142
1.0
143
1.0
 70
   688
 72
     1
 73
     0
 74
     5
  7

 75
    16
147
1.0
148
0.0
149
0.0
100
AcDbLayout
  1
Layout1
 70
     1
 71
     1
 10
0.0
 20
0.0
 11
420.0
 21
297.0
 12
0.0
 22
0.0
 32
0.0
 14
1.0000000000E+20
 24
1.0000000000E+20
 34
1.0000000000E+20
 15
-1.0000000000E+20
 25
-1.0000000000E+20
 35
-1.0000000000E+20
146
0.0
 13
0.0
 23
0.0
 33
0.0
 16
1.0
 26
0.0
 36
0.0
 17
0.0
 27
1.0
 37
0.0
 76
     0
330
1B
  0
LAYOUT
  5
26
102
{ACAD_REACTORS
330
1A
102
}
330
1A
100
AcDbPlotSettings
  1

  2
none_device
  4

  6

 40
0.0
 41
0.0
 42
0.0
 43
0.0
 44
0.0
 45
0.0
 46
0.0
 47
0.0
 48
0.0
 49
0.0
140
0.0
141
0.0
142
1.0
143
1.0
 70
   688
 72
     1
 73
     0
 74
     5
  7

 75
    16
147
1.0
148
0.0
149
0.0
100
AcDbLayout
  1
Layout2
 70
     1
 71
     2
 10
0.0
 20
0.0
 11
0.0
 21
0.0
 12
0.0
 22
0.0
 32
0.0
 14
0.0
 24
0.0
 34
0.0
 15
0.0
 25
0.0
 35
0.0
146
0.0
 13
0.0
 23
0.0
 33
0.0
 16
1.0
 26
0.0
 36
0.0
 17
0.0
 27
1.0
 37
0.0
 76
     0
330
23
  0
LAYOUT
  5
22
102
{ACAD_REACTORS
330
1A
102
}
330
1A
100
AcDbPlotSettings
  1

  2
none_device
  4
Letter_(8.50_x_11.00_Inches)
  6

 40
6.35
 41
6.35
 42
6.35000508
 43
6.35000508
 44
215.9
 45
279.4
 46
0.0
 47
0.0
 48
0.0
 49
0.0
140
0.0
141
0.0
142
1.0
143
1.0
 70
  1712
 72
     1
 73
     0
 74
     0
  7

 75
     0
147
1.0
148
0.0
149
0.0
100
AcDbLayout
  1
Model
 70
     1
 71
     0
 10
0.0
 20
0.0
 11
297.0
 21
210.0
 12
0.0
 22
0.0
 32
0.0
 14
0.0
 24
0.0
 34
0.0
 15
297.0
 25
210.0
 35
0.0
146
0.0
 13
0.0
 23
0.0
 33
0.0
 16
1.0
 26
0.0
 36
0.0
 17
0.0
 27
1.0
 37
0.0
 76
     0
330
1F
331
29
  0
MLINESTYLE
  5
18
102
{ACAD_REACTORS
330
17
102
}
330
17
100
AcDbMlineStyle
  2
Standard
 70
     0
  3

 62
   256
 51
90.0
 52
90.0
 71
     2
 49
0.5
 62
   256
  6
BYLAYER
 49
-0.5
 62
   256
  6
BYLAYER
  0
ACDBPLACEHOLDER
  5
F
102
{ACAD_REACTORS
330
E
102
}
330
E
  0
SCALE
  5
48
102
{ACAD_REACTORS
330
47
102
}
330
47
100
AcDbScale
 70
     0
300
1:1
140
1.0
141
1.0
290
     1
  0
SCALE
  5
49
102
{ACAD_REACTORS
330
47
102
}
330
47
100
AcDbScale
 70
     0
300
1:2
140
1.0
141
2.0
290
     0
  0
SCALE
  5
4A
102
{ACAD_REACTORS
330
47
102
}
330
47
100
AcDbScale
 70
     0
300
1:4
140
1.0
141
4.0
290
     0
  0
SCALE
  5
4B
102
{ACAD_REACTORS
330
47
102
}
330
47
100
AcDbScale
 70
     0
300
1:5
140
1.0
141
5.0
290
     0
  0
SCALE
  5
4C
102
{ACAD_REACTORS
330
47
102
}
330
47
100
AcDbScale
 70
     0
300
1:8
140
1.0
141
8.0
290
     0
  0
SCALE
  5
4D
102
{ACAD_REACTORS
330
47
102
}
330
47
100
AcDbScale
 70
     0
300
1:10
140
1.0
141
10.0
290
     0
  0
SCALE
  5
4E
102
{ACAD_REACTORS
330
47
102
}
330
47
100
AcDbScale
 70
     0
300
1:16
140
1.0
141
16.0
290
     0
  0
SCALE
  5
4F
102
{ACAD_REACTORS
330
47
102
}
330
47
100
AcDbScale
 70
     0
300
1:20
140
1.0
141
20.0
290
     0
  0
SCALE
  5
50
102
{ACAD_REACTORS
330
47
102
}
330
47
100
AcDbScale
 70
     0
300
1:30
140
1.0
141
30.0
290
     0
  0
SCALE
  5
51
102
{ACAD_REACTORS
330
47
102
}
330
47
100
AcDbScale
 70
     0
300
1:40
140
1.0
141
40.0
290
     0
  0
SCALE
  5
52
102
{ACAD_REACTORS
330
47
102
}
330
47
100
AcDbScale
 70
     0
300
1:50
140
1.0
141
50.0
290
     0
  0
SCALE
  5
53
102
{ACAD_REACTORS
330
47
102
}
330
47
100
AcDbScale
 70
     0
300
1:100
140
1.0
141
100.0
290
     0
  0
SCALE
  5
54
102
{ACAD_REACTORS
330
47
102
}
330
47
100
AcDbScale
 70
     0
300
2:1
140
2.0
141
1.0
290
     0
  0
SCALE
  5
55
102
{ACAD_REACTORS
330
47
102
}
330
47
100
AcDbScale
 70
     0
300
4:1
140
4.0
141
1.0
290
     0
  0
SCALE
  5
56
102
{ACAD_REACTORS
330
47
102
}
330
47
100
AcDbScale
 70
     0
300
8:1
140
8.0
141
1.0
290
     0
  0
SCALE
  5
57
102
{ACAD_REACTORS
330
47
102
}
330
47
100
AcDbScale
 70
     0
300
10:1
140
10.0
141
1.0
290
     0
  0
SCALE
  5
58
102
{ACAD_REACTORS
330
47
102
}
330
47
100
AcDbScale
 70
     0
300
100:1
140
100.0
141
1.0
290
     0
  0
ENDSEC
  0
EOF
