  0
SECTION
  2
HEADER
  9
$ACADVER
  1
AC1015
  9
$ACADMAINTVER
 70
     6
  9
$DWGCODEPAGE
  3
DOS932
  9
$INSBASE
 10
0.0
 20
0.0
 30
0.0
  9
$EXTMIN
 10
0.0
 20
0.0
 30
0.0
  9
$EXTMAX
 10
297.0
 20
210.0
 30
0.0
  9
$LIMMIN
 10
0.0
 20
0.0
  9
$LIMMAX
 10
297.0
 20
210.0
  9
$ORTHOMODE
 70
     0
  9
$REGENMODE
 70
     1
  9
$FILLMODE
 70
     1
  9
$QTEXTMODE
 70
     0
  9
$MIRRTEXT
 70
     1
  9
$LTSCALE
 40
1.0
  9
$ATTMODE
 70
     1
  9
$TEXTSIZE
 40
3.5277777778
  9
$TRACEWID
 40
1.0
  9
$TEXTSTYLE
  7
Standard
  9
$CLAYER
  8
0
  9
$CELTYPE
  6
ByLayer
  9
$CECOLOR
 62
   256
  9
$CELTSCALE
 40
1.0
  9
$DISPSILH
 70
     0
  9
$DIMSCALE
 40
1.0
  9
$DIMASZ
 40
2.728515625
  9
$DIMEXO
 40
1.0
  9
$DIMDLI
 40
3.75
  9
$DIMRND
 40
0.0
  9
$DIMDLE
 40
0.0
  9
$DIMEXE
 40
1.0
  9
$DIMTP
 40
0.0
  9
$DIMTM
 40
0.0
  9
$DIMTXT
 40
3.5277777778
  9
$DIMCEN
 40
2.5
  9
$DIMTSZ
 40
0.0
  9
$DIMTOL
 70
     0
  9
$DIMLIM
 70
     0
  9
$DIMTIH
 70
     1
  9
$DIMTOH
 70
     1
  9
$DIMSE1
 70
     0
  9
$DIMSE2
 70
     0
  9
$DIMTAD
 70
     1
  9
$DIMZIN
 70
     0
  9
$DIMBLK
  1

  9
$DIMASO
 70
     1
  9
$DIMSHO
 70
     1
  9
$DIMPOST
  1

  9
$DIMAPOST
  1

  9
$DIMALT
 70
     0
  9
$DIMALTD
 70
     3
  9
$DIMALTF
 40
0.0393700787
  9
$DIMLFAC
 40
1.0
  9
$DIMTOFL
 70
     1
  9
$DIMTVP
 40
0.0
  9
$DIMTIX
 70
     0
  9
$DIMSOXD
 70
     0
  9
$DIMSAH
 70
     0
  9
$DIMBLK1
  1

  9
$DIMBLK2
  1

  9
$DIMSTYLE
  2
ISO-25
  9
$DIMCLRD
 70
     0
  9
$DIMCLRE
 70
     0
  9
$DIMCLRT
 70
     0
  9
$DIMTFAC
 40
1.0
  9
$DIMGAP
 40
1.524
  9
$DIMJUST
 70
     0
  9
$DIMSD1
 70
     0
  9
$DIMSD2
 70
     0
  9
$DIMTOLJ
 70
     0
  9
$DIMTZIN
 70
     0
  9
$DIMALTZ
 70
     0
  9
$DIMALTTZ
 70
     0
  9
$DIMUPT
 70
     0
  9
$DIMDEC
 70
     2
  9
$DIMTDEC
 70
     2
  9
$DIMALTU
 70
     2
  9
$DIMALTTD
 70
     3
  9
$DIMTXSTY
  7
Standard
  9
$DIMAUNIT
 70
     0
  9
$DIMADEC
 70
     2
  9
$DIMALTRND
 40
0.0
  9
$DIMAZIN
 70
     0
  9
$DIMDSEP
 70
    44
  9
$DIMATFIT
 70
     3
  9
$DIMFRAC
 70
     0
  9
$DIMLDRBLK
  1

  9
$DIMLUNIT
 70
     2
  9
$DIMLWD
 70
    -2
  9
$DIMLWE
 70
    -2
  9
$DIMTMOVE
 70
     0
  9
$LUNITS
 70
     2
  9
$LUPREC
 70
     2
  9
$SKETCHINC
 40
1.0
  9
$FILLETRAD
 40
0.0
  9
$AUNITS
 70
     0
  9
$AUPREC
 70
     2
  9
$MENU
  1
.
  9
$ELEVATION
 40
0.0
  9
$PELEVATION
 40
0.0
  9
$THICKNESS
 40
0.0
  9
$LIMCHECK
 70
     0
  9
$CHAMFERA
 40
0.0
  9
$CHAMFERB
 40
0.0
  9
$CHAMFERC
 40
0.0
  9
$CHAMFERD
 40
0.0
  9
$SKPOLY
 70
     0
  9
$TDCREATE
 40
2460406.706191887
  9
$TDUCREATE
 40
2460406.331191887
  9
$TDUPDATE
 40
2460406.706192778
  9
$TDUUPDATE
 40
2460406.331192778
  9
$TDINDWG
 40
0.0000000116
  9
$TDUSRTIMER
 40
0.0000000116
  9
$USRTIMER
 70
     1
  9
$ANGBASE
 50
0.0
  9
$ANGDIR
 70
     0
  9
$PDMODE
 70
     0
  9
$PDSIZE
 40
-1.0
  9
$PLINEWID
 40
0.0
  9
$SPLFRAME
 70
     0
  9
$SPLINETYPE
 70
     6
  9
$SPLINESEGS
 70
     8
  9
$HANDSEED
  5
28E
  9
$SURFTAB1
 70
     6
  9
$SURFTAB2
 70
     6
  9
$SURFTYPE
 70
     6
  9
$SURFU
 70
     6
  9
$SURFV
 70
     6
  9
$UCSBASE
  2

  9
$UCSNAME
  2

  9
$UCSORG
 10
0.0
 20
0.0
 30
0.0
  9
$UCSXDIR
 10
1.0
 20
0.0
 30
0.0
  9
$UCSYDIR
 10
0.0
 20
1.0
 30
0.0
  9
$UCSORTHOREF
  2

  9
$UCSORTHOVIEW
 70
     0
  9
$UCSORGTOP
 10
0.0
 20
0.0
 30
0.0
  9
$UCSORGBOTTOM
 10
0.0
 20
0.0
 30
0.0
  9
$UCSORGLEFT
 10
0.0
 20
0.0
 30
0.0
  9
$UCSORGRIGHT
 10
0.0
 20
0.0
 30
0.0
  9
$UCSORGFRONT
 10
0.0
 20
0.0
 30
0.0
  9
$UCSORGBACK
 10
0.0
 20
0.0
 30
0.0
  9
$PUCSBASE
  2

  9
$PUCSNAME
  2

  9
$PUCSORG
 10
0.0
 20
0.0
 30
0.0
  9
$PUCSXDIR
 10
1.0
 20
0.0
 30
0.0
  9
$PUCSYDIR
 10
0.0
 20
1.0
 30
0.0
  9
$PUCSORTHOREF
  2

  9
$PUCSORTHOVIEW
 70
     0
  9
$PUCSORGTOP
 10
0.0
 20
0.0
 30
0.0
  9
$PUCSORGBOTTOM
 10
0.0
 20
0.0
 30
0.0
  9
$PUCSORGLEFT
 10
0.0
 20
0.0
 30
0.0
  9
$PUCSORGRIGHT
 10
0.0
 20
0.0
 30
0.0
  9
$PUCSORGFRONT
 10
0.0
 20
0.0
 30
0.0
  9
$PUCSORGBACK
 10
0.0
 20
0.0
 30
0.0
  9
$USERI1
 70
     0
  9
$USERI2
 70
     0
  9
$USERI3
 70
     0
  9
$USERI4
 70
     0
  9
$USERI5
 70
     0
  9
$USERR1
 40
0.0
  9
$USERR2
 40
0.0
  9
$USERR3
 40
0.0
  9
$USERR4
 40
0.0
  9
$USERR5
 40
0.0
  9
$WORLDVIEW
 70
     1
  9
$SHADEDGE
 70
     3
  9
$SHADEDIF
 70
    70
  9
$TILEMODE
 70
     1
  9
$MAXACTVP
 70
    64
  9
$PINSBASE
 10
0.0
 20
0.0
 30
0.0
  9
$PLIMCHECK
 70
     0
  9
$PEXTMIN
 10
1.0000000000E+20
 20
1.0000000000E+20
 30
1.0000000000E+20
  9
$PEXTMAX
 10
-1.0000000000E+20
 20
-1.0000000000E+20
 30
-1.0000000000E+20
  9
$PLIMMIN
 10
0.0
 20
0.0
  9
$PLIMMAX
 10
420.0
 20
297.0
  9
$UNITMODE
 70
     0
  9
$VISRETAIN
 70
     1
  9
$PLINEGEN
 70
     0
  9
$PSLTSCALE
 70
     1
  9
$TREEDEPTH
 70
  3020
  9
$CMLSTYLE
  2
Standard
  9
$CMLJUST
 70
     0
  9
$CMLSCALE
 40
20.0
  9
$PROXYGRAPHICS
 70
     1
  9
$MEASUREMENT
 70
     1
  9
$CELWEIGHT
370
    -1
  9
$ENDCAPS
280
     0
  9
$JOINSTYLE
280
     0
  9
$LWDISPLAY
290
     1
  9
$INSUNITS
 70
     4
  9
$HYPERLINKBASE
  1

  9
$STYLESHEET
  1

  9
$XEDIT
290
     1
  9
$CEPSNTYPE
380
     0
  9
$PSTYLEMODE
290
     1
  9
$FINGERPRINTGUID
  2
{cf634d9b-7d60-4b20-bac4-163d76abcab9}
  9
$VERSIONGUID
  2
{FAEB1C32-E019-11D5-929B-00C0DF256EC4}
  9
$EXTNAMES
290
     1
  9
$PSVPSCALE
 40
0.0
  9
$OLESTARTUP
290
     0
  0
ENDSEC
  0
SECTION
  2
CLASSES
  0
CLASS
  1
ACDBDICTIONARYWDFLT
  2
AcDbDictionaryWithDefault
  3
ObjectDBX Classes
 90
        0
280
     0
281
     0
  0
CLASS
  1
VISUALSTYLE
  2
AcDbVisualStyle
  3
ObjectDBX Classes
 90
     4095
280
     0
281
     0
  0
CLASS
  1
MATERIAL
  2
AcDbMaterial
  3
ObjectDBX Classes
 90
     1153
280
     0
281
     0
  0
CLASS
  1
SCALE
  2
AcDbScale
  3
ObjectDBX Classes
 90
     1153
280
     0
281
     0
  0
CLASS
  1
TABLESTYLE
  2
AcDbTableStyle
  3
ObjectDBX Classes
 90
     4095
280
     0
281
     0
  0
CLASS
  1
MLEADERSTYLE
  2
AcDbMLeaderStyle
  3
ACDB_MLEADERSTYLE_CLASS
 90
     4095
280
     0
281
     0
  0
CLASS
  1
SUN
  2
AcDbSun
  3
SCENEOE
 90
     1153
280
     0
281
     0
  0
CLASS
  1
ACDBPLACEHOLDER
  2
AcDbPlaceHolder
  3
ObjectDBX Classes
 90
        0
280
     0
281
     0
  0
CLASS
  1
LAYOUT
  2
AcDbLayout
  3
ObjectDBX Classes
 90
        0
280
     0
281
     0
  0
ENDSEC
  0
SECTION
  2
TABLES
  0
TABLE
  2
VPORT
  5
8
330
0
100
AcDbSymbolTable
 70
     1
  0
VPORT
  5
29
330
8
100
AcDbSymbolTableRecord
100
AcDbViewportTableRecord
  2
*Active
 70
     0
 10
0.0
 20
0.0
 11
1.0
 21
1.0
 12
148.5
 22
105.0
 13
0.0
 23
0.0
 14
10.0
 24
10.0
 15
10.0
 25
10.0
 16
0.0
 26
0.0
 36
1.0
 17
0.0
 27
0.0
 37
0.0
 40
210.0
 41
1.4142857143
 42
50.0
 43
0.0
 44
0.0
 50
0.0
 51
0.0
 71
     0
 72
  2000
 73
     1
 74
     3
 75
     0
 76
     0
 77
     0
 78
     0
281
     0
 65
     1
110
0.0
120
0.0
130
0.0
111
1.0
121
0.0
131
0.0
112
0.0
122
1.0
132
0.0
 79
     0
146
0.0
  0
ENDTAB
  0
TABLE
  2
LTYPE
  5
5
330
0
100
AcDbSymbolTable
 70
     6
  0
LTYPE
  5
14
330
5
100
AcDbSymbolTableRecord
100
AcDbLinetypeTableRecord
  2
ByBlock
 70
     0
  3

 72
    65
 73
     0
 40
0.0
  0
LTYPE
  5
15
330
5
100
AcDbSymbolTableRecord
100
AcDbLinetypeTableRecord
  2
ByLayer
 70
     0
  3

 72
    65
 73
     0
 40
0.0
  0
LTYPE
  5
16
330
5
100
AcDbSymbolTableRecord
100
AcDbLinetypeTableRecord
  2
Continuous
 70
     0
  3
Solid line
 72
    65
 73
     0
 40
0.0
  0
LTYPE
  5
5E
330
5
100
AcDbSymbolTableRecord
100
AcDbLinetypeTableRecord
  2
HIDDEN
 70
     0
  3
Hidden __ __ __ __ __ __ __ __ __ __ __ __ __ __
 72
    65
 73
     2
 40
1.905
 49
1.27
 74
     0
 49
-0.635
 74
     0
  0
LTYPE
  5
5F
330
5
100
AcDbSymbolTableRecord
100
AcDbLinetypeTableRecord
  2
PHANTOM
 70
     0
  3
Phantom ______  __  __  ______  __  __  ______
 72
    65
 73
     6
 40
12.7
 49
6.35
 74
     0
 49
-1.27
 74
     0
 49
1.27
 74
     0
 49
-1.27
 74
     0
 49
1.27
 74
     0
 49
-1.27
 74
     0
  0
LTYPE
  5
60
330
5
100
AcDbSymbolTableRecord
100
AcDbLinetypeTableRecord
  2
CENTER
 70
     0
  3
Center ____ _ ____ _ ____ _ ____ _ ____ _ ____
 72
    65
 73
     4
 40
10.16
 49
6.35
 74
     0
 49
-1.27
 74
     0
 49
1.27
 74
     0
 49
-1.27
 74
     0
  0
LTYPE
  5
61
330
5
100
AcDbSymbolTableRecord
100
AcDbLinetypeTableRecord
  2
CENTERX2
 70
     0
  3
Center (2x) ________  __  ________  __  _____
 72
    65
 73
     4
 40
20.32
 49
12.7
 74
     0
 49
-2.54
 74
     0
 49
2.54
 74
     0
 49
-2.54
 74
     0
  0
LTYPE
  5
62
330
5
100
AcDbSymbolTableRecord
100
AcDbLinetypeTableRecord
  2
DOT2
 70
     0
  3
Dot (.5x) ........................................
 72
    65
 73
     2
 40
0.635
 49
0.0
 74
     0
 49
-0.635
 74
     0
  0
ENDTAB
  0
TABLE
  2
LAYER
  5
2
330
0
100
AcDbSymbolTable
 70
     2
  0
LAYER
  5
10
330
2
100
AcDbSymbolTableRecord
100
AcDbLayerTableRecord
  2
0
 70
     0
 62
     7
  6
Continuous
370
    -3
390
F
  0
LAYER
  5
63
330
2
100
AcDbSymbolTableRecord
100
AcDbLayerTableRecord
  2
FORMAT
 70
     0
 62
     7
  6
Continuous
370
    -3
390
F
  0
ENDTAB
  0
TABLE
  2
STYLE
  5
3
330
0
100
AcDbSymbolTable
 70
     2
  0
STYLE
  5
11
330
3
100
AcDbSymbolTableRecord
100
AcDbTextStyleTableRecord
  2
Standard
 70
     0
 40
0.0
 41
1.0
 50
0.0
 71
     0
 42
3.5277777778
  3
txt
  4
bigfont
  0
STYLE
  5
64
330
3
100
AcDbSymbolTableRecord
100
AcDbTextStyleTableRecord
  2
SLDTEXTSTYLE0
 70
     0
 40
0.0
 41
0.7
 50
0.0
 71
     0
 42
3.5277777778
  3
TXT
  4
bigfont
  0
ENDTAB
  0
TABLE
  2
VIEW
  5
6
330
0
100
AcDbSymbolTable
 70
     0
  0
ENDTAB
  0
TABLE
  2
UCS
  5
7
330
0
100
AcDbSymbolTable
 70
     0
  0
ENDTAB
  0
TABLE
  2
APPID
  5
9
330
0
100
AcDbSymbolTable
 70
     1
  0
APPID
  5
12
330
9
100
AcDbSymbolTableRecord
100
AcDbRegAppTableRecord
  2
ACAD
 70
     0
  0
ENDTAB
  0
TABLE
  2
DIMSTYLE
  5
A
330
0
100
AcDbSymbolTable
 70
     1
100
AcDbDimStyleTable
  0
DIMSTYLE
105
27
330
A
100
AcDbSymbolTableRecord
100
AcDbDimStyleTableRecord
  2
ISO-25
 70
     0
 41
2.5
 42
0.625
 43
3.75
 44
1.25
 73
     0
 74
     0
 77
     1
 78
     8
140
2.5
141
2.5
143
0.0393700787
147
0.625
171
     3
172
     1
178
     0
271
     2
272
     2
274
     3
278
    44
283
     0
284
     8
340
11
  0
ENDTAB
  0
TABLE
  2
BLOCK_RECORD
  5
1
330
0
100
AcDbSymbolTable
 70
     3
  0
BLOCK_RECORD
  5
1F
330
1
100
AcDbSymbolTableRecord
100
AcDbBlockTableRecord
  2
*Model_Space
340
22
  0
BLOCK_RECORD
  5
1B
330
1
100
AcDbSymbolTableRecord
100
AcDbBlockTableRecord
  2
*Paper_Space
340
1E
  0
BLOCK_RECORD
  5
23
330
1
100
AcDbSymbolTableRecord
100
AcDbBlockTableRecord
  2
*Paper_Space0
340
26
  0
BLOCK_RECORD
  5
1AA
330
1
100
AcDbSymbolTableRecord
100
AcDbBlockTableRecord
  2
SW_CENTERMARKSYMBOL_0
340
0
102
{BLKREFS
331
1B5
102
}
  0
BLOCK_RECORD
  5
27E
330
1
100
AcDbSymbolTableRecord
100
AcDbBlockTableRecord
  2
SW_CENTERMARKSYMBOL_1
340
0
102
{BLKREFS
331
289
102
}
  0
ENDTAB
  0
ENDSEC
  0
SECTION
  2
BLOCKS
  0
BLOCK
  5
20
330
1F
100
AcDbEntity
  8
0
100
AcDbBlockBegin
  2
*Model_Space
 70
     0
 10
0.0
 20
0.0
 30
0.0
  3
*Model_Space
  1

  0
ENDBLK
  5
21
330
1F
100
AcDbEntity
  8
0
100
AcDbBlockEnd
  0
BLOCK
  5
1C
330
1B
100
AcDbEntity
 67
     1
  8
0
100
AcDbBlockBegin
  2
*Paper_Space
 70
     0
 10
0.0
 20
0.0
 30
0.0
  3
*Paper_Space
  1

  0
ENDBLK
  5
1D
330
1B
100
AcDbEntity
 67
     1
  8
0
100
AcDbBlockEnd
  0
BLOCK
  5
24
330
23
100
AcDbEntity
  8
0
100
AcDbBlockBegin
  2
*Paper_Space0
 70
     0
 10
0.0
 20
0.0
 30
0.0
  3
*Paper_Space0
  1

  0
ENDBLK
  5
25
330
23
100
AcDbEntity
  8
0
100
AcDbBlockEnd
  0
BLOCK
  5
1AB
330
1AA
100
AcDbEntity
  8
0
100
AcDbBlockBegin
  2
SW_CENTERMARKSYMBOL_0
 70
     0
 10
0.0
 20
0.0
 30
0.0
  3
SW_CENTERMARKSYMBOL_0
  1

  0
LINE
  5
1AD
330
1AA
100
AcDbEntity
  8
FORMAT
 62
     0
100
AcDbLine
 10
0.0
 20
0.0
 30
0.0
 11
0.0
 21
2.5
 31
0.0
  0
LINE
  5
1AE
330
1AA
100
AcDbEntity
  8
FORMAT
 62
     0
100
AcDbLine
 10
0.0
 20
0.0
 30
0.0
 11
-2.5
 21
0.0
 31
0.0
  0
LINE
  5
1AF
330
1AA
100
AcDbEntity
  8
FORMAT
 62
     0
100
AcDbLine
 10
0.0
 20
0.0
 30
0.0
 11
0.0
 21
-2.5
 31
0.0
  0
LINE
  5
1B0
330
1AA
100
AcDbEntity
  8
FORMAT
 62
     0
100
AcDbLine
 10
0.0
 20
0.0
 30
0.0
 11
2.5
 21
0.0
 31
0.0
  0
LINE
  5
1B1
330
1AA
100
AcDbEntity
  8
FORMAT
 62
     0
100
AcDbLine
 10
0.0
 20
5.0
 30
0.0
 11
0.0
 21
31.3670009741
 31
0.0
  0
LINE
  5
1B2
330
1AA
100
AcDbEntity
  8
FORMAT
 62
     0
100
AcDbLine
 10
-5.0
 20
0.0
 30
0.0
 11
-12.5
 21
0.0
 31
0.0
  0
LINE
  5
1B3
330
1AA
100
AcDbEntity
  8
FORMAT
 62
     0
100
AcDbLine
 10
0.0
 20
-5.0
 30
0.0
 11
0.0
 21
-12.5
 31
0.0
  0
LINE
  5
1B4
330
1AA
100
AcDbEntity
  8
FORMAT
 62
     0
100
AcDbLine
 10
5.0
 20
0.0
 30
0.0
 11
12.5
 21
0.0
 31
0.0
  0
ENDBLK
  5
1AC
330
1AA
100
AcDbEntity
  8
0
100
AcDbBlockEnd
  0
BLOCK
  5
27F
330
27E
100
AcDbEntity
  8
0
100
AcDbBlockBegin
  2
SW_CENTERMARKSYMBOL_1
 70
     0
 10
0.0
 20
0.0
 30
0.0
  3
SW_CENTERMARKSYMBOL_1
  1

  0
LINE
  5
281
330
27E
100
AcDbEntity
  8
FORMAT
 62
     0
100
AcDbLine
 10
0.0
 20
0.0
 30
0.0
 11
0.0
 21
2.5
 31
0.0
  0
LINE
  5
282
330
27E
100
AcDbEntity
  8
FORMAT
 62
     0
100
AcDbLine
 10
0.0
 20
0.0
 30
0.0
 11
-2.5
 21
0.0
 31
0.0
  0
LINE
  5
283
330
27E
100
AcDbEntity
  8
FORMAT
 62
     0
100
AcDbLine
 10
0.0
 20
0.0
 30
0.0
 11
0.0
 21
-2.5
 31
0.0
  0
LINE
  5
284
330
27E
100
AcDbEntity
  8
FORMAT
 62
     0
100
AcDbLine
 10
0.0
 20
0.0
 30
0.0
 11
2.5
 21
0.0
 31
0.0
  0
LINE
  5
285
330
27E
100
AcDbEntity
  8
FORMAT
 62
     0
100
AcDbLine
 10
0.0
 20
5.0
 30
0.0
 11
0.0
 21
9.95
 31
0.0
  0
LINE
  5
286
330
27E
100
AcDbEntity
  8
FORMAT
 62
     0
100
AcDbLine
 10
-5.0
 20
0.0
 30
0.0
 11
-41.7121249013
 21
0.0
 31
0.0
  0
LINE
  5
287
330
27E
100
AcDbEntity
  8
FORMAT
 62
     0
100
AcDbLine
 10
0.0
 20
-5.0
 30
0.0
 11
0.0
 21
-9.95
 31
0.0
  0
LINE
  5
288
330
27E
100
AcDbEntity
  8
FORMAT
 62
     0
100
AcDbLine
 10
5.0
 20
0.0
 30
0.0
 11
21.5610295435
 21
0.0
 31
0.0
  0
ENDBLK
  5
280
330
27E
100
AcDbEntity
  8
0
100
AcDbBlockEnd
  0
ENDSEC
  0
SECTION
  2
ENTITIES
  0
MTEXT
  5
65
330
1F
100
AcDbEntity
  8
FORMAT
100
AcDbMText
 10
145.8753617047
 20
100.4366064577
 30
0.0
 40
3.7041666667
 41
0.0
 71
     1
 72
     1
  1
エースボール　BU-1165R
  7
SLDTEXTSTYLE0
 73
     1
 44
1.0
  0
LINE
  5
66
330
1F
100
AcDbEntity
  8
0
  6
Continuous
 62
     7
370
    25
100
AcDbLine
 10
134.4488467648
 20
75.169630485
 30
0.0
 11
132.4988467648
 21
83.169630485
 31
0.0
  0
LINE
  5
67
330
1F
100
AcDbEntity
  8
0
  6
Continuous
 62
     7
370
    25
100
AcDbLine
 10
133.9988467648
 20
67.169630485
 30
0.0
 11
134.4488467648
 21
75.169630485
 31
0.0
  0
LINE
  5
68
330
1F
100
AcDbEntity
  8
0
  6
Continuous
 62
     7
370
    25
100
AcDbLine
 10
119.9281901391
 20
68.4257482763
 30
0.0
 11
119.9988467648
 21
67.169630485
 31
0.0
  0
LINE
  5
69
330
1F
100
AcDbEntity
  8
0
  6
Continuous
 62
     7
370
    25
100
AcDbLine
 10
121.4988467648
 20
83.169630485
 30
0.0
 11
121.2448699245
 21
82.1276742171
 31
0.0
  0
LINE
  5
6A
330
1F
100
AcDbEntity
  8
0
  6
Continuous
 62
     7
370
    25
100
AcDbLine
 10
100.4236347235
 20
65.419630485
 30
0.0
 11
93.6469772901
 21
63.2177610103
 31
0.0
  0
LINE
  5
6B
330
1F
100
AcDbEntity
  8
0
  6
Continuous
 62
     7
370
    25
100
AcDbLine
 10
93.6469772901
 20
50.1214999597
 30
0.0
 11
100.4236347235
 21
47.919630485
 31
0.0
  0
LINE
  5
6C
330
1F
100
AcDbEntity
  8
0
  6
Continuous
 62
     7
370
    25
100
AcDbLine
 10
110.4214964956
 20
47.919630485
 30
0.0
 11
110.9988467648
 21
48.919630485
 31
0.0
  0
LINE
  5
6D
330
1F
100
AcDbEntity
  8
0
  6
Continuous
 62
     7
370
    25
100
AcDbLine
 10
110.9988467648
 20
64.419630485
 30
0.0
 11
110.4214964956
 21
65.419630485
 31
0.0
  0
LINE
  5
6E
330
1F
100
AcDbEntity
  8
0
  6
Continuous
 62
     7
370
    25
100
AcDbLine
 10
93.6469772901
 20
63.2177610103
 30
0.0
 11
93.4988467648
 21
63.069630485
 31
0.0
  0
LINE
  5
6F
330
1F
100
AcDbEntity
  8
0
  6
Continuous
 62
     7
370
    25
100
AcDbLine
 10
93.4988467648
 20
50.269630485
 30
0.0
 11
93.6469772901
 21
50.1214999597
 31
0.0
  0
LINE
  5
70
330
1F
100
AcDbEntity
  8
0
  6
Continuous
 62
     7
370
    25
100
AcDbLine
 10
110.4214964956
 20
65.419630485
 30
0.0
 11
100.4236347235
 21
65.419630485
 31
0.0
  0
LINE
  5
71
330
1F
100
AcDbEntity
  8
0
  6
Continuous
 62
     7
370
    25
100
AcDbLine
 10
100.4236347235
 20
47.919630485
 30
0.0
 11
110.4214964956
 21
47.919630485
 31
0.0
  0
LINE
  5
72
330
1F
100
AcDbEntity
  8
0
  6
Continuous
 62
     7
370
    25
100
AcDbLine
 10
116.2771589283
 20
47.169630485
 30
0.0
 11
116.9988467648
 21
48.419630485
 31
0.0
  0
LINE
  5
73
330
1F
100
AcDbEntity
  8
0
  6
Continuous
 62
     7
370
    25
100
AcDbLine
 10
116.9988467648
 20
64.919630485
 30
0.0
 11
116.2771589283
 21
66.169630485
 31
0.0
  0
LINE
  5
74
330
1F
100
AcDbEntity
  8
0
  6
Continuous
 62
     7
370
    25
100
AcDbLine
 10
111.7205346013
 20
66.169630485
 30
0.0
 11
110.9988467648
 21
64.919630485
 31
0.0
  0
LINE
  5
75
330
1F
100
AcDbEntity
  8
0
  6
Continuous
 62
     7
370
    25
100
AcDbLine
 10
110.9988467648
 20
48.419630485
 30
0.0
 11
111.7205346013
 21
47.169630485
 31
0.0
  0
LINE
  5
76
330
1F
100
AcDbEntity
  8
0
  6
Continuous
 62
     7
370
    25
100
AcDbLine
 10
111.7205346013
 20
47.169630485
 30
0.0
 11
116.2771589283
 21
47.169630485
 31
0.0
  0
LINE
  5
77
330
1F
100
AcDbEntity
  8
0
  6
Continuous
 62
     7
370
    25
100
AcDbLine
 10
116.2771589283
 20
66.169630485
 30
0.0
 11
111.7205346013
 21
66.169630485
 31
0.0
  0
LINE
  5
78
330
1F
100
AcDbEntity
  8
0
  6
Continuous
 62
     7
370
    25
100
AcDbLine
 10
136.4988467648
 20
46.669630485
 30
0.0
 11
136.9988467648
 21
47.169630485
 31
0.0
  0
LINE
  5
79
330
1F
100
AcDbEntity
  8
0
  6
Continuous
 62
     7
370
    25
100
AcDbLine
 10
136.9988467648
 20
66.169630485
 30
0.0
 11
136.4988467648
 21
66.669630485
 31
0.0
  0
LINE
  5
7A
330
1F
100
AcDbEntity
  8
0
  6
Continuous
 62
     7
370
    25
100
AcDbLine
 10
136.4988467648
 20
66.669630485
 30
0.0
 11
134.8808127761
 21
66.669630485
 31
0.0
  0
LINE
  5
7B
330
1F
100
AcDbEntity
  8
0
  6
Continuous
 62
     7
370
    25
100
AcDbLine
 10
134.8808127761
 20
46.669630485
 30
0.0
 11
136.4988467648
 21
46.669630485
 31
0.0
  0
ARC
  5
7C
330
1F
100
AcDbEntity
  8
0
  6
Continuous
 62
     7
370
    25
100
AcDbCircle
 10
135.9988467648
 20
65.669630485
 30
0.0
 40
1.500000000000014
100
AcDbArc
 50
138.1896851042
 51
180.0
  0
ARC
  5
7D
330
1F
100
AcDbEntity
  8
0
  6
Continuous
 62
     7
370
    25
100
AcDbCircle
 10
135.9988467648
 20
47.669630485
 30
0.0
 40
1.500000000000019
100
AcDbArc
 50
180.0
 51
221.8103148958
  0
LINE
  5
7E
330
1F
100
AcDbEntity
  8
0
  6
Continuous
 62
     7
370
    25
100
AcDbLine
 10
117.2488467648
 20
66.669630485
 30
0.0
 11
116.9988467648
 21
66.419630485
 31
0.0
  0
LINE
  5
7F
330
1F
100
AcDbEntity
  8
0
  6
Continuous
 62
     7
370
    25
100
AcDbLine
 10
116.9988467648
 20
46.919630485
 30
0.0
 11
117.2488467648
 21
46.669630485
 31
0.0
  0
ARC
  5
80
330
1F
100
AcDbEntity
  8
0
  6
Continuous
 62
     7
370
    25
100
AcDbCircle
 10
117.9988467648
 20
47.669630485
 30
0.0
 40
1.500000000000009
100
AcDbArc
 50
318.1896851042
 51
0.0
  0
ARC
  5
81
330
1F
100
AcDbEntity
  8
0
  6
Continuous
 62
     7
370
    25
100
AcDbCircle
 10
117.9988467648
 20
65.669630485
 30
0.0
 40
1.500000000000004
100
AcDbArc
 50
0.0
 51
41.8103148958
  0
LINE
  5
82
330
1F
100
AcDbEntity
  8
0
  6
Continuous
 62
     7
370
    25
100
AcDbLine
 10
117.2488467648
 20
46.669630485
 30
0.0
 11
119.1168807536
 21
46.669630485
 31
0.0
  0
LINE
  5
83
330
1F
100
AcDbEntity
  8
0
  6
Continuous
 62
     7
370
    25
100
AcDbLine
 10
119.1168807536
 20
66.669630485
 30
0.0
 11
117.2488467648
 21
66.669630485
 31
0.0
  0
ARC
  5
84
330
1F
100
AcDbEntity
  8
0
  6
Continuous
 62
     7
370
    25
100
AcDbCircle
 10
133.9988467648
 20
65.669630485
 30
0.0
 40
0.5
100
AcDbArc
 50
270.0
 51
0.0
  0
ARC
  5
85
330
1F
100
AcDbEntity
  8
0
  6
Continuous
 62
     7
370
    25
100
AcDbCircle
 10
119.9988467648
 20
47.669630485
 30
0.0
 40
0.5
100
AcDbArc
 50
90.0
 51
180.0
  0
ARC
  5
86
330
1F
100
AcDbEntity
  8
0
  6
Continuous
 62
     7
370
    25
100
AcDbCircle
 10
119.9988467648
 20
65.669630485
 30
0.0
 40
0.5
100
AcDbArc
 50
180.0
 51
270.0
  0
ARC
  5
87
330
1F
100
AcDbEntity
  8
0
  6
Continuous
 62
     7
370
    25
100
AcDbCircle
 10
133.9988467648
 20
47.669630485
 30
0.0
 40
0.5
100
AcDbArc
 50
0.0
 51
90.0
  0
LINE
  5
88
330
1F
100
AcDbEntity
  8
0
  6
Continuous
 62
     7
370
    25
100
AcDbLine
 10
120.6165258899
 20
65.169630485
 30
0.0
 11
119.9988467648
 21
65.169630485
 31
0.0
  0
LINE
  5
89
330
1F
100
AcDbEntity
  8
0
  6
Continuous
 62
     7
370
    25
100
AcDbLine
 10
133.9988467648
 20
65.169630485
 30
0.0
 11
133.3988467648
 21
65.169630485
 31
0.0
  0
LINE
  5
8A
330
1F
100
AcDbEntity
  8
0
  6
Continuous
 62
     7
370
    25
100
AcDbLine
 10
119.9988467648
 20
48.169630485
 30
0.0
 11
133.9988467648
 21
48.169630485
 31
0.0
  0
SPLINE
  5
8B
330
1F
100
AcDbEntity
  8
0
  6
Continuous
 62
     7
370
    25
100
AcDbSpline
210
0.0
220
0.0
230
1.0
 70
     8
 71
     3
 72
    13
 73
     9
 74
     0
 42
0.00000001
 43
0.00000001
 40
0.0
 40
0.0
 40
0.0
 40
0.0
 40
0.165764899896795
 40
0.3288516425826941
 40
0.5079757807363257
 40
0.6908230418498799
 40
0.8659232900010464
 40
1.0
 40
1.0
 40
1.0
 40
1.0
 10
133.3991547119995
 20
65.17296385656753
 30
0.0
 10
133.3554605457016
 20
65.1748462736762
 30
0.0
 10
133.2687781517369
 20
65.17858069488719
 30
0.0
 10
133.1445943270431
 20
65.23273878474504
 30
0.0
 10
133.0342268654288
 20
65.31717421886427
 30
0.0
 10
132.9514143949424
 20
65.43296907587995
 30
0.0
 10
132.9049813260124
 20
65.55573153017433
 30
0.0
 10
132.9016946478669
 20
65.63696605797603
 30
0.0
 10
132.9002693573304
 20
65.67219396852647
 30
0.0
  0
SPLINE
  5
8C
330
1F
100
AcDbEntity
  8
0
  6
Continuous
 62
     7
370
    25
100
AcDbSpline
210
0.0
220
0.0
230
1.0
 70
     8
 71
     3
 72
    13
 73
     9
 74
     0
 42
0.00000001
 43
0.00000001
 40
0.0
 40
0.0
 40
0.0
 40
0.0
 40
0.1607063118263824
 40
0.3468543103567522
 40
0.5363367921114146
 40
0.7155426209746675
 40
0.8707860443064335
 40
1.0
 40
1.0
 40
1.0
 40
1.0
 10
121.0977466882142
 20
65.66051866929547
 30
0.0
 10
121.0945224595828
 20
65.61981240766576
 30
0.0
 10
121.0875635692589
 20
65.53195560761658
 30
0.0
 10
121.0310778384796
 20
65.40576650632356
 30
0.0
 10
120.9412692084499
 20
65.29593451680697
 30
0.0
 10
120.8304368565071
 20
65.22076818947724
 30
0.0
 10
120.7192896457376
 20
65.17900366535515
 30
0.0
 10
120.6473974198111
 20
65.17310821445793
 30
0.0
 10
120.6147405805777
 20
65.17043022264897
 30
0.0
  0
LINE
  5
8D
330
1F
100
AcDbEntity
  8
0
  6
Continuous
 62
     7
370
    25
100
AcDbLine
 10
132.8988467648
 20
65.669630485
 30
0.0
 11
132.8988467648
 21
67.169630485
 31
0.0
  0
LINE
  5
8E
330
1F
100
AcDbEntity
  8
0
  6
Continuous
 62
     7
370
    25
100
AcDbLine
 10
121.0988467648
 20
67.169630485
 30
0.0
 11
121.0988467648
 21
65.658359745
 31
0.0
  0
LINE
  5
8F
330
1F
100
AcDbEntity
  8
0
  6
Continuous
 62
     7
370
    25
100
AcDbLine
 10
136.9988467648
 20
51.617192985
 30
0.0
 11
145.6438987054
 21
51.8873508581
 31
0.0
  0
LINE
  5
90
330
1F
100
AcDbEntity
  8
0
  6
Continuous
 62
     7
370
    25
100
AcDbLine
 10
145.6438987054
 20
61.4519101118
 30
0.0
 11
136.9988467648
 21
61.722067985
 31
0.0
  0
LINE
  5
91
330
1F
100
AcDbEntity
  8
0
  6
Continuous
 62
     7
370
    25
100
AcDbLine
 10
145.6438987054
 20
51.8873508581
 30
0.0
 11
146.9988467648
 21
52.669630485
 31
0.0
  0
LINE
  5
92
330
1F
100
AcDbEntity
  8
0
  6
Continuous
 62
     7
370
    25
100
AcDbLine
 10
146.9988467648
 20
60.669630485
 30
0.0
 11
145.6438987054
 21
61.4519101118
 31
0.0
  0
LINE
  5
93
330
1F
100
AcDbEntity
  8
0
  6
Continuous
 62
     7
370
    25
100
AcDbLine
 10
132.2379320975
 20
83.169630485
 30
0.0
 11
132.2379320975
 21
83.769630485
 31
0.0
  0
LINE
  5
94
330
1F
100
AcDbEntity
  8
0
  6
Continuous
 62
     7
370
    25
100
AcDbLine
 10
121.7597614322
 20
83.769630485
 30
0.0
 11
121.7597614322
 21
83.169630485
 31
0.0
  0
LINE
  5
95
330
1F
100
AcDbEntity
  8
0
  6
Continuous
 62
     7
370
    25
100
AcDbLine
 10
132.2379320975
 20
83.769630485
 30
0.0
 11
121.7597614322
 21
83.769630485
 31
0.0
  0
LINE
  5
96
330
1F
100
AcDbEntity
  8
0
  6
Continuous
 62
     7
370
    25
100
AcDbLine
 10
121.7597614322
 20
83.169630485
 30
0.0
 11
132.2379320975
 21
83.169630485
 31
0.0
  0
SPLINE
  5
97
330
1F
100
AcDbEntity
  8
0
  6
Continuous
 62
     7
370
    25
100
AcDbSpline
210
0.0
220
0.0
230
1.0
 70
     8
 71
     3
 72
    15
 73
    11
 74
     0
 42
0.00000001
 43
0.00000001
 40
0.0
 40
0.0
 40
0.0
 40
0.0
 40
0.0090459071881971
 40
0.1032433785236876
 40
0.1542564497735193
 40
0.3133169026715104
 40
0.524372039941443
 40
0.6678060008509185
 40
0.9918332554187027
 40
1.0
 40
1.0
 40
1.0
 40
1.0
 10
132.2379320974755
 20
83.76963048498844
 30
0.0
 10
132.2379264055088
 20
83.77131158357285
 30
0.0
 10
132.237861441558
 20
83.79049841512838
 30
0.0
 10
132.2358657551221
 20
83.81919269464835
 30
0.0
 10
132.2280487589057
 20
83.86986873462031
 30
0.0
 10
132.2108789351507
 20
83.92774503419722
 30
0.0
 10
132.1842950385832
 20
83.97261054893187
 30
0.0
 10
132.1464657400946
 20
84.00997293218641
 30
0.0
 10
132.1181849600843
 20
84.01951894445594
 30
0.0
 10
132.098353812553
 20
84.01962780864267
 30
0.0
 10
132.0978662784102
 20
84.01963048498844
 30
0.0
  0
SPLINE
  5
98
330
1F
100
AcDbEntity
  8
0
  6
Continuous
 62
     7
370
    25
100
AcDbSpline
210
0.0
220
0.0
230
1.0
 70
     8
 71
     3
 72
    15
 73
    11
 74
     0
 42
0.00000001
 43
0.00000001
 40
0.0
 40
0.0
 40
0.0
 40
0.0
 40
0.0081667445812973
 40
0.3321939991490807
 40
0.4756279600585564
 40
0.6866830973284901
 40
0.8457435502264805
 40
0.8967566214763123
 40
0.9909540928118028
 40
0.9999999999999999
 40
0.9999999999999999
 40
0.9999999999999999
 40
0.9999999999999999
 10
121.8998272512246
 20
84.01963048498844
 30
0.0
 10
121.8993397170817
 20
84.01962780864267
 30
0.0
 10
121.8795085695505
 20
84.01951894445577
 30
0.0
 10
121.8512277895402
 20
84.00997293218644
 30
0.0
 10
121.8133984910516
 20
83.97261054893187
 30
0.0
 10
121.786814594484
 20
83.9277450341972
 30
0.0
 10
121.7696447707291
 20
83.8698687346203
 30
0.0
 10
121.7618277745126
 20
83.81919269464836
 30
0.0
 10
121.7598320880767
 20
83.79049841512834
 30
0.0
 10
121.7597671241259
 20
83.77131158357287
 30
0.0
 10
121.7597614321593
 20
83.76963048498844
 30
0.0
  0
LINE
  5
99
330
1F
100
AcDbEntity
  8
0
  6
Continuous
 62
     7
370
    25
100
AcDbLine
 10
121.8998272512
 20
84.019630485
 30
0.0
 11
132.0978662784
 21
84.019630485
 31
0.0
  0
SPLINE
  5
9A
330
1F
100
AcDbEntity
  8
0
  6
Continuous
 62
     7
370
    25
100
AcDbSpline
210
0.0
220
0.0
230
1.0
 70
     8
 71
     3
 72
    15
 73
    11
 74
     0
 42
0.00000001
 43
0.00000001
 40
0.0
 40
0.0
 40
0.0
 40
0.0
 40
0.0089557228015919
 40
0.0999003359608211
 40
0.1531632460581754
 40
0.3125636920784866
 40
0.524966693569506
 40
0.6689893599351767
 40
0.991915253381045
 40
1.0
 40
1.0
 40
1.0
 40
1.0
 10
121.5216211897657
 20
83.76963048498844
 30
0.0
 10
121.5216369453443
 20
83.77131161056134
 30
0.0
 10
121.5218126975009
 20
83.7900644251858
 30
0.0
 10
121.5272417135204
 20
83.81882665429326
 30
0.0
 10
121.5487771972277
 20
83.8697137277616
 30
0.0
 10
121.5964826254926
 20
83.92784937789425
 30
0.0
 10
121.6688735704845
 20
83.97255725107767
 30
0.0
 10
121.7707926825021
 20
84.00983907453939
 30
0.0
 10
121.8461477739572
 20
84.01951822937704
 30
0.0
 10
121.8985474196805
 20
84.01962780857876
 30
0.0
 10
121.8998272512246
 20
84.01963048498844
 30
0.0
  0
LINE
  5
9B
330
1F
100
AcDbEntity
  8
0
  6
Continuous
 62
     7
370
    25
100
AcDbLine
 10
121.5216211898
 20
83.769630485
 30
0.0
 11
121.7597614322
 21
83.769630485
 31
0.0
  0
SPLINE
  5
9C
330
1F
100
AcDbEntity
  8
0
  6
Continuous
 62
     7
370
    25
100
AcDbSpline
210
0.0
220
0.0
230
1.0
 70
     8
 71
     3
 72
    15
 73
    11
 74
     0
 42
0.00000001
 43
0.00000001
 40
0.0
 40
0.0
 40
0.0
 40
0.0
 40
0.0080847466189581
 40
0.3310106400648237
 40
0.4750333064304949
 40
0.6874363079215136
 40
0.8468367539418247
 40
0.900099664039179
 40
0.991044277198408
 40
1.0
 40
1.0
 40
1.0
 40
1.0
 10
132.0978662784102
 20
84.01963048498844
 30
0.0
 10
132.0991461099543
 20
84.01962780857876
 30
0.0
 10
132.1515457556775
 20
84.01951822937701
 30
0.0
 10
132.2269008471326
 20
84.0098390745394
 30
0.0
 10
132.3288199591503
 20
83.97255725107765
 30
0.0
 10
132.4012109041422
 20
83.92784937789425
 30
0.0
 10
132.448916332407
 20
83.8697137277616
 30
0.0
 10
132.4704518161143
 20
83.81882665429329
 30
0.0
 10
132.4758808321339
 20
83.79006442518579
 30
0.0
 10
132.4760565842904
 20
83.77131161056134
 30
0.0
 10
132.4760723398691
 20
83.76963048498844
 30
0.0
  0
LINE
  5
9D
330
1F
100
AcDbEntity
  8
0
  6
Continuous
 62
     7
370
    25
100
AcDbLine
 10
132.2379320975
 20
83.769630485
 30
0.0
 11
132.4760723399
 21
83.769630485
 31
0.0
  0
LINE
  5
9E
330
1F
100
AcDbEntity
  8
0
  6
Continuous
 62
     7
370
    25
100
AcDbLine
 10
121.5216211898
 20
83.169630485
 30
0.0
 11
121.5216211898
 21
83.769630485
 31
0.0
  0
LINE
  5
9F
330
1F
100
AcDbEntity
  8
0
  6
Continuous
 62
     7
370
    25
100
AcDbLine
 10
121.7597614322
 20
83.169630485
 30
0.0
 11
121.5216211898
 21
83.169630485
 31
0.0
  0
LINE
  5
A0
330
1F
100
AcDbEntity
  8
0
  6
Continuous
 62
     7
370
    25
100
AcDbLine
 10
132.4760723399
 20
83.769630485
 30
0.0
 11
132.4760723399
 21
83.169630485
 31
0.0
  0
LINE
  5
A1
330
1F
100
AcDbEntity
  8
0
  6
Continuous
 62
     7
370
    25
100
AcDbLine
 10
132.4760723399
 20
83.169630485
 30
0.0
 11
132.2379320975
 21
83.169630485
 31
0.0
  0
LINE
  5
A2
330
1F
100
AcDbEntity
  8
0
  6
Continuous
 62
     7
370
    25
100
AcDbLine
 10
120.9988467648
 20
83.169630485
 30
0.0
 11
120.9988467648
 21
83.769630485
 31
0.0
  0
LINE
  5
A3
330
1F
100
AcDbEntity
  8
0
  6
Continuous
 62
     7
370
    25
100
AcDbLine
 10
120.9988467648
 20
83.769630485
 30
0.0
 11
121.2488467648
 21
83.769630485
 31
0.0
  0
LINE
  5
A4
330
1F
100
AcDbEntity
  8
0
  6
Continuous
 62
     7
370
    25
100
AcDbLine
 10
121.2488467648
 20
83.769630485
 30
0.0
 11
121.2488467648
 21
83.169630485
 31
0.0
  0
LINE
  5
A5
330
1F
100
AcDbEntity
  8
0
  6
Continuous
 62
     7
370
    25
100
AcDbLine
 10
121.2488467648
 20
83.169630485
 30
0.0
 11
120.9988467648
 21
83.169630485
 31
0.0
  0
ARC
  5
A6
330
1F
100
AcDbEntity
  8
0
  6
Continuous
 62
     7
370
    25
100
AcDbCircle
 10
121.2488467648
 20
83.769630485
 30
0.0
 40
0.25
100
AcDbArc
 50
90.0
 51
180.0
  0
LINE
  5
A7
330
1F
100
AcDbEntity
  8
0
  6
Continuous
 62
     7
370
    25
100
AcDbLine
 10
121.2488467648
 20
84.019630485
 30
0.0
 11
121.2488467648
 21
83.769630485
 31
0.0
  0
LINE
  5
A8
330
1F
100
AcDbEntity
  8
0
  6
Continuous
 62
     7
370
    25
100
AcDbLine
 10
121.5216211898
 20
83.769630485
 30
0.0
 11
121.2488467648
 21
83.769630485
 31
0.0
  0
LINE
  5
A9
330
1F
100
AcDbEntity
  8
0
  6
Continuous
 62
     7
370
    25
100
AcDbLine
 10
121.2488467648
 20
83.169630485
 30
0.0
 11
121.5216211898
 21
83.169630485
 31
0.0
  0
LINE
  5
AA
330
1F
100
AcDbEntity
  8
0
  6
Continuous
 62
     7
370
    25
100
AcDbLine
 10
121.2488467648
 20
84.019630485
 30
0.0
 11
121.8998272512
 21
84.019630485
 31
0.0
  0
LINE
  5
AB
330
1F
100
AcDbEntity
  8
0
  6
Continuous
 62
     7
370
    25
100
AcDbLine
 10
132.7488467648
 20
83.769630485
 30
0.0
 11
132.7488467648
 21
84.019630485
 31
0.0
  0
LINE
  5
AC
330
1F
100
AcDbEntity
  8
0
  6
Continuous
 62
     7
370
    25
100
AcDbLine
 10
132.7488467648
 20
83.769630485
 30
0.0
 11
132.4760723399
 21
83.769630485
 31
0.0
  0
LINE
  5
AD
330
1F
100
AcDbEntity
  8
0
  6
Continuous
 62
     7
370
    25
100
AcDbLine
 10
132.0978662784
 20
84.019630485
 30
0.0
 11
132.7488467648
 21
84.019630485
 31
0.0
  0
LINE
  5
AE
330
1F
100
AcDbEntity
  8
0
  6
Continuous
 62
     7
370
    25
100
AcDbLine
 10
132.7488467648
 20
83.169630485
 30
0.0
 11
132.7488467648
 21
83.769630485
 31
0.0
  0
LINE
  5
AF
330
1F
100
AcDbEntity
  8
0
  6
Continuous
 62
     7
370
    25
100
AcDbLine
 10
132.4760723399
 20
83.169630485
 30
0.0
 11
132.7488467648
 21
83.169630485
 31
0.0
  0
LINE
  5
B0
330
1F
100
AcDbEntity
  8
0
  6
Continuous
 62
     7
370
    25
100
AcDbLine
 10
132.7488467648
 20
83.769630485
 30
0.0
 11
132.9988467648
 21
83.769630485
 31
0.0
  0
LINE
  5
B1
330
1F
100
AcDbEntity
  8
0
  6
Continuous
 62
     7
370
    25
100
AcDbLine
 10
132.9988467648
 20
83.769630485
 30
0.0
 11
132.9988467648
 21
83.169630485
 31
0.0
  0
LINE
  5
B2
330
1F
100
AcDbEntity
  8
0
  6
Continuous
 62
     7
370
    25
100
AcDbLine
 10
132.9988467648
 20
83.169630485
 30
0.0
 11
132.7488467648
 21
83.169630485
 31
0.0
  0
ARC
  5
B3
330
1F
100
AcDbEntity
  8
0
  6
Continuous
 62
     7
370
    25
100
AcDbCircle
 10
132.7488467648
 20
83.769630485
 30
0.0
 40
0.25
100
AcDbArc
 50
0.0
 51
90.0
  0
LINE
  5
B4
330
1F
100
AcDbEntity
  8
0
  6
Continuous
 62
     7
370
    25
100
AcDbLine
 10
131.9988467648
 20
84.019630485
 30
0.0
 11
131.9988467648
 21
84.029630485
 31
0.0
  0
LINE
  5
B5
330
1F
100
AcDbEntity
  8
0
  6
Continuous
 62
     7
370
    25
100
AcDbLine
 10
121.9988467648
 20
84.029630485
 30
0.0
 11
131.9988467648
 21
84.029630485
 31
0.0
  0
LINE
  5
B6
330
1F
100
AcDbEntity
  8
0
  6
Continuous
 62
     7
370
    25
100
AcDbLine
 10
121.9988467648
 20
84.019630485
 30
0.0
 11
121.9988467648
 21
84.029630485
 31
0.0
  0
LINE
  5
B7
330
1F
100
AcDbEntity
  8
0
  6
Continuous
 62
     7
370
    25
100
AcDbLine
 10
122.5242998807
 20
75.169630485
 30
0.0
 11
134.4488467648
 21
75.169630485
 31
0.0
  0
SPLINE
  5
B8
330
1F
100
AcDbEntity
  8
0
  6
Continuous
 62
     7
370
    25
100
AcDbSpline
210
0.0
220
0.0
230
1.0
 70
     8
 71
     3
 72
     9
 73
     5
 74
     0
 42
0.00000001
 43
0.00000001
 40
0.0
 40
0.0
 40
0.0
 40
0.0
 40
0.4978401817595076
 40
0.9999999999999999
 40
0.9999999999999999
 40
0.9999999999999999
 40
0.9999999999999999
 10
123.284510636497
 20
76.16437406295537
 30
0.0
 10
123.1481887281263
 20
76.00786288026278
 30
0.0
 10
122.8743620798055
 20
75.69348250594376
 30
0.0
 10
122.6413228287088
 20
75.34474995791749
 30
0.0
 10
122.5242998807352
 20
75.16963048498609
 30
0.0
  0
LINE
  5
B9
330
1F
100
AcDbEntity
  8
0
  6
Continuous
 62
     7
370
    25
100
AcDbLine
 10
121.7750445905
 20
83.169630485
 30
0.0
 11
120.0469059265
 21
76.164374063
 31
0.0
  0
LINE
  5
BA
330
1F
100
AcDbEntity
  8
0
  6
Continuous
 62
     7
370
    25
100
AcDbLine
 10
132.2379320975
 20
83.169630485
 30
0.0
 11
121.7750445905
 21
83.169630485
 31
0.0
  0
LINE
  5
BB
330
1F
100
AcDbEntity
  8
0
  6
Continuous
 62
     7
370
    25
100
AcDbLine
 10
124.9988467648
 20
67.169630485
 30
0.0
 11
133.9988467648
 21
67.169630485
 31
0.0
  0
LINE
  5
BC
330
1F
100
AcDbEntity
  8
0
  6
Continuous
 62
     7
370
    25
100
AcDbLine
 10
124.9988467648
 20
67.2074474088
 30
0.0
 11
124.9988467648
 21
67.169630485
 31
0.0
  0
SPLINE
  5
BD
330
1F
100
AcDbEntity
  8
0
  6
Continuous
 62
     7
370
    25
100
AcDbSpline
210
0.0
220
0.0
230
1.0
 70
     8
 71
     3
 72
     9
 73
     5
 74
     0
 42
0.00000001
 43
0.00000001
 40
0.0
 40
0.0
 40
0.0
 40
0.0
 40
0.487514102367712
 40
1.0
 40
1.0
 40
1.0
 40
1.0
 10
124.8429015143902
 20
67.1696304849885
 30
0.0
 10
124.8692080883128
 20
67.1713578309602
 30
0.0
 10
124.923168730261
 20
67.17490100225169
 30
0.0
 10
124.9732042609558
 20
67.196419488201
 30
0.0
 10
124.9988467648174
 20
67.20744740878843
 30
0.0
  0
SPLINE
  5
BE
330
1F
100
AcDbEntity
  8
0
  6
Continuous
 62
     7
370
    25
100
AcDbSpline
210
0.0
220
0.0
230
1.0
 70
     8
 71
     3
 72
    17
 73
    13
 74
     0
 42
0.00000001
 43
0.00000001
 40
0.0
 40
0.0
 40
0.0
 40
0.0
 40
0.3241697628029873
 40
0.5422758463620719
 40
0.689509052693928
 40
0.7894036290694505
 40
0.8577090008137825
 40
0.9049823971474137
 40
0.9551712229700868
 40
0.9753097783197817
 40
0.9919572060138848
 40
1.0
 40
1.0
 40
1.0
 40
1.0
 10
122.5242998807352
 20
75.16963048498609
 30
0.0
 10
122.6670152407524
 20
74.25701698238039
 30
0.0
 10
122.9057515496944
 20
72.73038397611906
 30
0.0
 10
123.285338744146
 20
70.80361107383808
 30
0.0
 10
123.5944729524931
 20
69.51597560290531
 30
0.0
 10
123.8505864806932
 20
68.65682363618357
 30
0.0
 10
124.0648974835882
 20
68.08335574780618
 30
0.0
 10
124.2681317046161
 20
67.6618235937762
 30
0.0
 10
124.4526769691587
 20
67.38133105098078
 30
0.0
 10
124.6387480555269
 20
67.22578238240011
 30
0.0
 10
124.7539586547828
 20
67.17517178320261
 30
0.0
 10
124.8210474602557
 20
67.17099203139799
 30
0.0
 10
124.8429015143902
 20
67.1696304849885
 30
0.0
  0
SPLINE
  5
BF
330
1F
100
AcDbEntity
  8
0
  6
Continuous
 62
     7
370
    25
100
AcDbSpline
210
0.0
220
0.0
230
1.0
 70
     8
 71
     3
 72
    14
 73
    10
 74
     0
 42
0.00000001
 43
0.00000001
 40
0.0
 40
0.0
 40
0.0
 40
0.0
 40
0.1576095309202818
 40
0.3152382602707095
 40
0.4726926441579497
 40
0.6301650083177254
 40
0.7907313191165901
 40
0.9513050385928075
 40
1.0
 40
1.0
 40
1.0
 40
1.0
 10
120.4988467648174
 20
67.16963048498845
 30
0.0
 10
120.4322757500354
 20
67.38313227346585
 30
0.0
 10
120.2991256114504
 20
67.81016185709134
 30
0.0
 10
119.9705586496997
 20
68.39540893594767
 30
0.0
 10
119.5571690089677
 20
68.91756347677008
 30
0.0
 10
119.0614940900231
 20
69.36654160418995
 30
0.0
 10
118.4952043847386
 20
69.72582333599634
 30
0.0
 10
118.0189537283455
 20
69.93038951509752
 30
0.0
 10
117.7387591601528
 20
70.01118406344882
 30
0.0
 10
117.6735603753797
 20
70.02998423649561
 30
0.0
  0
LINE
  5
C0
330
1F
100
AcDbEntity
  8
0
  6
Continuous
 62
     7
370
    25
100
AcDbLine
 10
117.6735603754
 20
70.0299842365
 30
0.0
 11
111.8938035255
 21
71.598605677
 31
0.0
  0
SPLINE
  5
C1
330
1F
100
AcDbEntity
  8
0
  6
Continuous
 62
     7
370
    25
100
AcDbSpline
210
0.0
220
0.0
230
1.0
 70
     8
 71
     3
 72
    11
 73
     7
 74
     0
 42
0.00000001
 43
0.00000001
 40
0.0
 40
0.0
 40
0.0
 40
0.0
 40
0.2488466353289361
 40
0.4976946020535203
 40
0.7488461225871277
 40
1.0
 40
1.0
 40
1.0
 40
1.0
 10
104.8234099032807
 20
72.92180617796399
 30
0.0
 10
105.417845952417
 20
72.85228180147035
 30
0.0
 10
106.6067212310804
 20
72.71323267650916
 30
0.0
 10
108.3814459017894
 20
72.4129039383839
 30
0.0
 10
110.1480265435318
 20
72.05099432012875
 30
0.0
 10
111.3118760445515
 20
71.74940236306419
 30
0.0
 10
111.8938035255245
 20
71.59860567697847
 30
0.0
  0
LINE
  5
C2
330
1F
100
AcDbEntity
  8
0
  6
Continuous
 62
     7
370
    25
100
AcDbLine
 10
104.8234099033
 20
72.921806178
 30
0.0
 11
104.8234099033
 21
76.164374063
 31
0.0
  0
LINE
  5
C3
330
1F
100
AcDbEntity
  8
0
  6
Continuous
 62
     7
370
    25
100
AcDbLine
 10
104.8234099033
 20
76.164374063
 30
0.0
 11
123.2845106365
 21
76.164374063
 31
0.0
  0
LINE
  5
C4
330
1F
100
AcDbEntity
  8
0
  6
Continuous
 62
     7
370
    25
100
AcDbLine
 10
124.8429015144
 20
67.169630485
 30
0.0
 11
120.4988467648
 21
67.169630485
 31
0.0
  0
LINE
  5
C5
330
1F
100
AcDbEntity
  8
0
  6
Continuous
 62
     7
370
    25
100
AcDbLine
 10
124.9988467648
 20
67.2074474088
 30
0.0
 11
124.9920474069
 21
67.169630485
 31
0.0
  0
LINE
  5
C6
330
1F
100
AcDbEntity
  8
0
  6
Continuous
 62
     7
370
    25
100
AcDbLine
 10
124.9920474069
 20
67.169630485
 30
0.0
 11
124.8429015144
 21
67.169630485
 31
0.0
  0
LINE
  5
C7
330
1F
100
AcDbEntity
  8
0
  6
Continuous
 62
     7
370
    25
100
AcDbLine
 10
124.9988467648
 20
67.169630485
 30
0.0
 11
124.9920474069
 21
67.169630485
 31
0.0
  0
LINE
  5
C8
330
1F
100
AcDbEntity
  8
0
  6
Continuous
 62
     7
370
    25
100
AcDbLine
 10
86.9988467648
 20
85.169630485
 30
0.0
 11
104.8234099033
 21
85.169630485
 31
0.0
  0
LINE
  5
C9
330
1F
100
AcDbEntity
  8
0
  6
Continuous
 62
     7
370
    25
100
AcDbLine
 10
104.8234099033
 20
85.169630485
 30
0.0
 11
104.8234099033
 21
76.164374063
 31
0.0
  0
LINE
  5
CA
330
1F
100
AcDbEntity
  8
0
  6
Continuous
 62
     7
370
    25
100
AcDbLine
 10
100.1071789071
 20
73.169630485
 30
0.0
 11
91.9988467648
 21
73.169630485
 31
0.0
  0
ARC
  5
CB
330
1F
100
AcDbEntity
  8
0
  6
Continuous
 62
     7
370
    25
100
AcDbCircle
 10
91.9988467648
 20
78.169630485
 30
0.0
 40
5.0
100
AcDbArc
 50
180.0
 51
270.0
  0
LINE
  5
CC
330
1F
100
AcDbEntity
  8
0
  6
Continuous
 62
     7
370
    25
100
AcDbLine
 10
86.9988467648
 20
78.169630485
 30
0.0
 11
86.9988467648
 21
85.169630485
 31
0.0
  0
ARC
  5
CD
330
1F
100
AcDbEntity
  8
0
  6
Continuous
 62
     7
370
    25
100
AcDbCircle
 10
100.1071789071
 20
28.1695012308
 30
0.0
 40
45.00012925418373
100
AcDbArc
 50
83.9840777705
 51
90.0
  0
LINE
  5
CE
330
1F
100
AcDbEntity
  8
0
  6
Continuous
 62
     7
370
    25
100
AcDbLine
 10
106.9988467648
 20
85.169630485
 30
0.0
 11
106.9988467648
 21
83.1885860084
 31
0.0
  0
ARC
  5
CF
330
1F
100
AcDbEntity
  8
0
  6
Continuous
 62
     7
370
    25
100
AcDbCircle
 10
112.9988467648
 20
83.1885860084
 30
0.0
 40
6.0
100
AcDbArc
 50
180.0
 51
275.5801667845
  0
ARC
  5
D0
330
1F
100
AcDbEntity
  8
0
  6
Continuous
 62
     7
370
    25
100
AcDbCircle
 10
112.6098932006
 20
87.169630485
 30
0.0
 40
10.00000000000846
100
AcDbArc
 50
275.5801667845
 51
336.4218215217
  0
LINE
  5
D1
330
1F
100
AcDbEntity
  8
0
  6
Continuous
 62
     7
370
    25
100
AcDbLine
 10
104.8234099033
 20
85.169630485
 30
0.0
 11
106.9988467648
 21
85.169630485
 31
0.0
  0
LINE
  5
D2
330
1F
100
AcDbEntity
  8
0
  6
Continuous
 62
     7
370
    25
100
AcDbLine
 10
120.4988467648
 20
67.169630485
 30
0.0
 11
119.9988467648
 21
67.169630485
 31
0.0
  0
LINE
  5
D3
330
1F
100
AcDbEntity
  8
0
  6
Continuous
 62
     7
370
    25
100
AcDbLine
 10
121.7597614322
 20
83.169630485
 30
0.0
 11
121.7750445905
 21
83.169630485
 31
0.0
  0
LINE
  5
D4
330
1F
100
AcDbEntity
  8
0
  6
Continuous
 62
     7
370
    25
100
AcDbLine
 10
110.4214964956
 20
53.1252687653
 30
0.0
 11
100.4236347235
 21
53.1252687653
 31
0.0
  0
SPLINE
  5
D5
330
1F
100
AcDbEntity
  8
0
  6
Continuous
 62
     7
370
    25
100
AcDbSpline
210
0.0
220
0.0
230
1.0
 70
     8
 71
     3
 72
    21
 73
    17
 74
     0
 42
0.00000001
 43
0.00000001
 40
0.0
 40
0.0
 40
0.0
 40
0.0
 40
0.1026314353760766
 40
0.2051536271313487
 40
0.2714537892224376
 40
0.3376739344363227
 40
0.4049098244621335
 40
0.4719894983518814
 40
0.5316983844354848
 40
0.5914558444154814
 40
0.6604398118326982
 40
0.7295754946862759
 40
0.8160656878680143
 40
0.9029007960743888
 40
0.9896696912087789
 40
1.0
 40
1.0
 40
1.0
 40
1.0
 10
100.4236347234616
 20
53.12526876529896
 30
0.0
 10
100.1937208834988
 20
53.31635109613353
 30
0.0
 10
99.73413792995997
 20
53.69831236470374
 30
0.0
 10
99.18336396950842
 20
54.26816546241307
 30
0.0
 10
98.76025529689059
 20
54.80715164935897
 30
0.0
 10
98.45464481103397
 20
55.30408661587479
 30
0.0
 10
98.22743668675585
 20
55.84485723379643
 30
0.0
 10
98.10847075619996
 20
56.40172204574843
 30
0.0
 10
98.11458564172071
 20
56.94859380660795
 30
0.0
 10
98.22505211158155
 20
57.48925274663545
 30
0.0
 10
98.44836642867863
 20
58.02403395478675
 30
0.0
 10
98.79146751529474
 20
58.58283916377847
 30
0.0
 10
99.23654024504424
 20
59.13327462585582
 30
0.0
 10
99.77307133681664
 20
59.669047905349
 30
0.0
 10
100.1800782170156
 20
60.01773916616091
 30
0.0
 10
100.4002145863311
 20
60.19512071920031
 30
0.0
 10
100.4236347234616
 20
60.21399220467785
 30
0.0
  0
LINE
  5
D6
330
1F
100
AcDbEntity
  8
0
  6
Continuous
 62
     7
370
    25
100
AcDbLine
 10
100.4236347235
 20
60.2139922047
 30
0.0
 11
110.4214964956
 21
60.2139922047
 31
0.0
  0
SPLINE
  5
D7
330
1F
100
AcDbEntity
  8
0
  6
Continuous
 62
     7
370
    25
100
AcDbSpline
210
0.0
220
0.0
230
1.0
 70
     8
 71
     3
 72
    14
 73
    10
 74
     0
 42
0.00000001
 43
0.00000001
 40
0.0
 40
0.0
 40
0.0
 40
0.0
 40
0.1256601379075848
 40
0.2516558464791769
 40
0.4109471086771707
 40
0.5702234655241285
 40
0.7336736946401574
 40
0.8971597489228158
 40
1.0
 40
1.0
 40
1.0
 40
1.0
 10
110.4214964956276
 20
60.21399220467785
 30
0.0
 10
110.4858855338591
 20
59.92118680188681
 30
0.0
 10
110.614835558823
 20
59.3347940705081
 30
0.0
 10
110.7630061756103
 20
58.36510975794528
 30
0.0
 10
110.8548817953145
 20
57.30768698426207
 30
0.0
 10
110.8614872706846
 20
56.15651919862397
 30
0.0
 10
110.7690393159458
 20
54.9992648629664
 30
0.0
 10
110.6125307304311
 20
53.98497903169261
 30
0.0
 10
110.4747136907635
 20
53.3647618019999
 30
0.0
 10
110.4214964956277
 20
53.12526876529887
 30
0.0
  0
LINE
  5
D8
330
1F
100
AcDbEntity
  8
0
  6
Continuous
 62
     7
370
    25
100
AcDbLine
 10
100.4236347235
 20
53.1252687653
 30
0.0
 11
100.4236347235
 21
51.5136081146
 31
0.0
  0
SPLINE
  5
D9
330
1F
100
AcDbEntity
  8
0
  6
Continuous
 62
     7
370
    25
100
AcDbSpline
210
0.0
220
0.0
230
1.0
 70
     8
 71
     3
 72
    20
 73
    16
 74
     0
 42
0.00000001
 43
0.00000001
 40
0.0
 40
0.0
 40
0.0
 40
0.0
 40
0.1188966968645917
 40
0.2375634126013242
 40
0.3060808789618322
 40
0.3744793202719439
 40
0.4287309583942546
 40
0.4829210320810352
 40
0.5373512983533264
 40
0.5918209520241774
 40
0.6609321545076218
 40
0.7301958280296453
 40
0.8199012595053334
 40
0.9099846956429744
 40
1.0
 40
1.0
 40
1.0
 40
1.0
 10
100.4236347234616
 20
47.96924639486826
 30
0.0
 10
100.1577116907275
 20
48.08023801268197
 30
0.0
 10
99.62637999849755
 20
48.30200655792586
 30
0.0
 10
99.02118057852074
 20
48.63181727123555
 30
0.0
 10
98.59261897454545
 20
48.93682013687385
 30
0.0
 10
98.33631507048713
 20
49.18531518047669
 30
0.0
 10
98.17663749275283
 20
49.43108865785003
 30
0.0
 10
98.10455454941669
 20
49.6667539326905
 30
0.0
 10
98.12280653484746
 20
49.90538657122938
 30
0.0
 10
98.23213616666624
 20
50.15994983784697
 30
0.0
 10
98.45019081597215
 20
50.42047785166427
 30
0.0
 10
98.7992258818676
 20
50.70404457954551
 30
0.0
 10
99.25866852540476
 20
50.9858392014406
 30
0.0
 10
99.81698283764682
 20
51.26310216492759
 30
0.0
 10
100.2214684341435
 20
51.43012719333574
 30
0.0
 10
100.4236347234616
 20
51.51360811455765
 30
0.0
  0
LINE
  5
DA
330
1F
100
AcDbEntity
  8
0
  6
Continuous
 62
     7
370
    25
100
AcDbLine
 10
100.4236347235
 20
47.9692463949
 30
0.0
 11
100.4236347235
 21
47.919630485
 31
0.0
  0
LINE
  5
DB
330
1F
100
AcDbEntity
  8
0
  6
Continuous
 62
     7
370
    25
100
AcDbLine
 10
100.4236347235
 20
65.419630485
 30
0.0
 11
100.4236347235
 21
65.3700145751
 31
0.0
  0
SPLINE
  5
DC
330
1F
100
AcDbEntity
  8
0
  6
Continuous
 62
     7
370
    25
100
AcDbSpline
210
0.0
220
0.0
230
1.0
 70
     8
 71
     3
 72
    20
 73
    16
 74
     0
 42
0.00000001
 43
0.00000001
 40
0.0
 40
0.0
 40
0.0
 40
0.0
 40
0.1188966968645922
 40
0.2375634126013251
 40
0.3060808789618339
 40
0.3744793202719463
 40
0.4287309583942573
 40
0.4829210320810378
 40
0.5373512983533291
 40
0.5918209520241803
 40
0.6609321545076241
 40
0.7301958280296473
 40
0.8199012595053345
 40
0.9099846956429751
 40
1.0
 40
1.0
 40
1.0
 40
1.0
 10
100.4236347234616
 20
61.82565285541919
 30
0.0
 10
100.1577116907275
 20
61.9366444732329
 30
0.0
 10
99.62637999849755
 20
62.15841301847681
 30
0.0
 10
99.02118057852074
 20
62.4882237317865
 30
0.0
 10
98.59261897454545
 20
62.79322659742481
 30
0.0
 10
98.33631507048712
 20
63.04172164102767
 30
0.0
 10
98.17663749275285
 20
63.28749511840101
 30
0.0
 10
98.10455454941669
 20
63.52316039324149
 30
0.0
 10
98.12280653484747
 20
63.76179303178036
 30
0.0
 10
98.23213616666625
 20
64.01635629839797
 30
0.0
 10
98.45019081597215
 20
64.27688431221524
 30
0.0
 10
98.7992258818676
 20
64.56045104009647
 30
0.0
 10
99.25866852540476
 20
64.8422456619916
 30
0.0
 10
99.81698283764683
 20
65.11950862547856
 30
0.0
 10
100.2214684341435
 20
65.28653365388672
 30
0.0
 10
100.4236347234616
 20
65.37001457510863
 30
0.0
  0
LINE
  5
DD
330
1F
100
AcDbEntity
  8
0
  6
Continuous
 62
     7
370
    25
100
AcDbLine
 10
100.4236347235
 20
61.8256528554
 30
0.0
 11
100.4236347235
 21
60.2139922047
 31
0.0
  0
LINE
  5
DE
330
1F
100
AcDbEntity
  8
0
  6
Continuous
 62
     7
370
    25
100
AcDbLine
 10
93.6469772901
 20
63.2177610103
 30
0.0
 11
93.6469772901
 21
50.1214999597
 31
0.0
  0
LINE
  5
DF
330
1F
100
AcDbEntity
  8
0
  6
Continuous
 62
     7
370
    25
100
AcDbLine
 10
110.4214964956
 20
51.5136081146
 30
0.0
 11
110.4214964956
 21
53.1252687653
 31
0.0
  0
LINE
  5
E0
330
1F
100
AcDbEntity
  8
0
  6
Continuous
 62
     7
370
    25
100
AcDbLine
 10
110.4214964956
 20
60.2139922047
 30
0.0
 11
110.4214964956
 21
61.8256528554
 31
0.0
  0
SPLINE
  5
E1
330
1F
100
AcDbEntity
  8
0
  6
Continuous
 62
     7
370
    25
100
AcDbSpline
210
0.0
220
0.0
230
1.0
 70
     8
 71
     3
 72
    13
 73
     9
 74
     0
 42
0.00000001
 43
0.00000001
 40
0.0
 40
0.0
 40
0.0
 40
0.0
 40
0.1643206824199774
 40
0.3285993354056133
 40
0.4969323449809471
 40
0.6652646969914853
 40
0.8321643671150454
 40
1.0
 40
1.0
 40
1.0
 40
1.0
 10
110.4214964956276
 20
65.37001457510863
 30
0.0
 10
110.5040632323031
 20
65.1783698180982
 30
0.0
 10
110.6691755869904
 20
64.7951293223787
 30
0.0
 10
110.8171924698438
 20
64.20631905916386
 30
0.0
 10
110.8717093537616
 20
63.60882669101658
 30
0.0
 10
110.8206358817601
 20
63.00813574147301
 30
0.0
 10
110.6738812880892
 20
62.41182418017113
 30
0.0
 10
110.5057814360172
 20
62.02140718230611
 30
0.0
 10
110.4214964956276
 20
61.82565285541919
 30
0.0
  0
LINE
  5
E2
330
1F
100
AcDbEntity
  8
0
  6
Continuous
 62
     7
370
    25
100
AcDbLine
 10
110.4214964956
 20
65.3700145751
 30
0.0
 11
110.4214964956
 21
65.419630485
 31
0.0
  0
LINE
  5
E3
330
1F
100
AcDbEntity
  8
0
  6
Continuous
 62
     7
370
    25
100
AcDbLine
 10
110.4214964956
 20
47.919630485
 30
0.0
 11
110.4214964956
 21
47.9692463949
 31
0.0
  0
SPLINE
  5
E4
330
1F
100
AcDbEntity
  8
0
  6
Continuous
 62
     7
370
    25
100
AcDbSpline
210
0.0
220
0.0
230
1.0
 70
     8
 71
     3
 72
    13
 73
     9
 74
     0
 42
0.00000001
 43
0.00000001
 40
0.0
 40
0.0
 40
0.0
 40
0.0
 40
0.1643206824199781
 40
0.328599335405615
 40
0.4969323449809498
 40
0.6652646969914885
 40
0.832164367115047
 40
1.0
 40
1.0
 40
1.0
 40
1.0
 10
110.4214964956276
 20
51.51360811455765
 30
0.0
 10
110.5040632323031
 20
51.32196335754723
 30
0.0
 10
110.6691755869904
 20
50.93872286182773
 30
0.0
 10
110.8171924698438
 20
50.34991259861292
 30
0.0
 10
110.8717093537616
 20
49.75242023046562
 30
0.0
 10
110.8206358817601
 20
49.15172928092203
 30
0.0
 10
110.6738812880892
 20
48.55541771962021
 30
0.0
 10
110.5057814360172
 20
48.16500072175518
 30
0.0
 10
110.4214964956276
 20
47.96924639486826
 30
0.0
  0
LINE
  5
E5
330
1F
100
AcDbEntity
  8
0
  6
Continuous
 62
     7
370
    25
100
AcDbLine
 10
110.4214964956
 20
61.8256528554
 30
0.0
 11
100.4236347235
 21
61.8256528554
 31
0.0
  0
LINE
  5
E6
330
1F
100
AcDbEntity
  8
0
  6
Continuous
 62
     7
370
    25
100
AcDbLine
 10
100.4236347235
 20
51.5136081146
 30
0.0
 11
110.4214964956
 21
51.5136081146
 31
0.0
  0
LINE
  5
E7
330
1F
100
AcDbEntity
  8
0
  6
Continuous
 62
     7
370
    25
100
AcDbLine
 10
100.4236347235
 20
65.3700145751
 30
0.0
 11
110.4214964956
 21
65.3700145751
 31
0.0
  0
LINE
  5
E8
330
1F
100
AcDbEntity
  8
0
  6
Continuous
 62
     7
370
    25
100
AcDbLine
 10
110.4214964956
 20
47.9692463949
 30
0.0
 11
100.4236347235
 21
47.9692463949
 31
0.0
  0
LINE
  5
E9
330
1F
100
AcDbEntity
  8
0
  6
Continuous
 62
     7
370
    25
100
AcDbLine
 10
93.4988467648
 20
50.269630485
 30
0.0
 11
93.4988467648
 21
63.069630485
 31
0.0
  0
LINE
  5
EA
330
1F
100
AcDbEntity
  8
0
  6
Continuous
 62
     7
370
    25
100
AcDbLine
 10
116.2771589283
 20
47.169630485
 30
0.0
 11
116.2771589283
 21
47.1870942093
 31
0.0
  0
SPLINE
  5
EB
330
1F
100
AcDbEntity
  8
0
  6
Continuous
 62
     7
370
    25
100
AcDbSpline
210
0.0
220
0.0
230
1.0
 70
     8
 71
     3
 72
    13
 73
     9
 74
     0
 42
0.00000001
 43
0.00000001
 40
0.0
 40
0.0
 40
0.0
 40
0.0
 40
0.1486836725407958
 40
0.2973266681306995
 40
0.449519031478865
 40
0.6016998281953444
 40
0.7998469953576066
 40
1.0
 40
1.0
 40
1.0
 40
1.0
 10
116.2771589283303
 20
51.42973489638042
 30
0.0
 10
116.3766176877805
 20
51.22283986047342
 30
0.0
 10
116.5755079967054
 20
50.80910639110319
 30
0.0
 10
116.7710552595769
 20
50.17265615093221
 30
0.0
 10
116.8670535230007
 20
49.52554775893196
 30
0.0
 10
116.8449815563573
 20
48.80590235567783
 30
0.0
 10
116.6686032442959
 20
48.02117507306685
 30
0.0
 10
116.4080777020527
 20
47.46605302772132
 30
0.0
 10
116.2771589283303
 20
47.18709420926108
 30
0.0
  0
LINE
  5
EC
330
1F
100
AcDbEntity
  8
0
  6
Continuous
 62
     7
370
    25
100
AcDbLine
 10
116.2771589283
 20
51.4297348964
 30
0.0
 11
116.2771589283
 21
52.4269897979
 31
0.0
  0
SPLINE
  5
ED
330
1F
100
AcDbEntity
  8
0
  6
Continuous
 62
     7
370
    25
100
AcDbSpline
210
0.0
220
0.0
230
1.0
 70
     8
 71
     3
 72
    14
 73
    10
 74
     0
 42
0.00000001
 43
0.00000001
 40
0.0
 40
0.0
 40
0.0
 40
0.0
 40
0.1534448797333578
 40
0.3076296752908595
 40
0.4501946411985858
 40
0.5927507509938784
 40
0.7390826097178613
 40
0.885450073448215
 40
1.0
 40
1.0
 40
1.0
 40
1.0
 10
116.2771589283303
 20
60.91227117210782
 30
0.0
 10
116.3796571673597
 20
60.48514964798977
 30
0.0
 10
116.585147895009
 20
59.62884700692089
 30
0.0
 10
116.7758858619513
 20
58.35291426909771
 30
0.0
 10
116.8647127967273
 20
57.09780637369049
 30
0.0
 10
116.850105186311
 20
55.86167154247823
 30
0.0
 10
116.7289275680696
 20
54.62083293030348
 30
0.0
 10
116.5322682769959
 20
53.47089168364054
 30
0.0
 10
116.3549892902343
 20
52.7454699397647
 30
0.0
 10
116.2771589283303
 20
52.42698979786924
 30
0.0
  0
LINE
  5
EE
330
1F
100
AcDbEntity
  8
0
  6
Continuous
 62
     7
370
    25
100
AcDbLine
 10
116.2771589283
 20
60.9122711721
 30
0.0
 11
116.2771589283
 21
61.9095260736
 31
0.0
  0
SPLINE
  5
EF
330
1F
100
AcDbEntity
  8
0
  6
Continuous
 62
     7
370
    25
100
AcDbSpline
210
0.0
220
0.0
230
1.0
 70
     8
 71
     3
 72
    13
 73
     9
 74
     0
 42
0.00000001
 43
0.00000001
 40
0.0
 40
0.0
 40
0.0
 40
0.0
 40
0.1486836725407981
 40
0.2973266681307042
 40
0.4495190314788722
 40
0.601699828195354
 40
0.7998469953576114
 40
1.0
 40
1.0
 40
1.0
 40
1.0
 10
116.2771589283303
 20
66.15216676071582
 30
0.0
 10
116.3766176877805
 20
65.94527172480882
 30
0.0
 10
116.5755079967054
 20
65.53153825543859
 30
0.0
 10
116.7710552595769
 20
64.89508801526763
 30
0.0
 10
116.8670535230007
 20
64.24797962326741
 30
0.0
 10
116.8449815563573
 20
63.52833422001329
 30
0.0
 10
116.6686032442959
 20
62.74360693740235
 30
0.0
 10
116.4080777020527
 20
62.18848489205686
 30
0.0
 10
116.2771589283303
 20
61.90952607359664
 30
0.0
  0
LINE
  5
F0
330
1F
100
AcDbEntity
  8
0
  6
Continuous
 62
     7
370
    25
100
AcDbLine
 10
116.2771589283
 20
66.1521667607
 30
0.0
 11
116.2771589283
 21
66.169630485
 31
0.0
  0
LINE
  5
F1
330
1F
100
AcDbEntity
  8
0
  6
Continuous
 62
     7
370
    25
100
AcDbLine
 10
110.9988467648
 20
56.669630485
 30
0.0
 11
110.9988467648
 21
64.919630485
 31
0.0
  0
LINE
  5
F2
330
1F
100
AcDbEntity
  8
0
  6
Continuous
 62
     7
370
    25
100
AcDbLine
 10
110.9988467648
 20
48.419630485
 30
0.0
 11
110.9988467648
 21
56.669630485
 31
0.0
  0
LINE
  5
F3
330
1F
100
AcDbEntity
  8
0
  6
Continuous
 62
     7
370
    25
100
AcDbLine
 10
111.7205346013
 20
66.169630485
 30
0.0
 11
111.7205346013
 21
66.1521667607
 31
0.0
  0
SPLINE
  5
F4
330
1F
100
AcDbEntity
  8
0
  6
Continuous
 62
     7
370
    25
100
AcDbSpline
210
0.0
220
0.0
230
1.0
 70
     8
 71
     3
 72
    13
 73
     9
 74
     0
 42
0.00000001
 43
0.00000001
 40
0.0
 40
0.0
 40
0.0
 40
0.0
 40
0.1486836725407981
 40
0.2973266681307041
 40
0.4495190314788719
 40
0.6016998281953535
 40
0.7998469953576114
 40
1.0
 40
1.0
 40
1.0
 40
1.0
 10
111.7205346013044
 20
61.90952607359664
 30
0.0
 10
111.6210758418542
 20
62.11642110950364
 30
0.0
 10
111.4221855329293
 20
62.53015457887387
 30
0.0
 10
111.2266382700578
 20
63.16660481904482
 30
0.0
 10
111.130640006634
 20
63.81371321104505
 30
0.0
 10
111.1527119732775
 20
64.53335861429915
 30
0.0
 10
111.3290902853388
 20
65.3180858969101
 30
0.0
 10
111.5896158275821
 20
65.87320794225559
 30
0.0
 10
111.7205346013044
 20
66.15216676071582
 30
0.0
  0
LINE
  5
F5
330
1F
100
AcDbEntity
  8
0
  6
Continuous
 62
     7
370
    25
100
AcDbLine
 10
111.7205346013
 20
61.9095260736
 30
0.0
 11
111.7205346013
 21
60.9122711721
 31
0.0
  0
SPLINE
  5
F6
330
1F
100
AcDbEntity
  8
0
  6
Continuous
 62
     7
370
    25
100
AcDbSpline
210
0.0
220
0.0
230
1.0
 70
     8
 71
     3
 72
    14
 73
    10
 74
     0
 42
0.00000001
 43
0.00000001
 40
0.0
 40
0.0
 40
0.0
 40
0.0
 40
0.1192229419312328
 40
0.2616850747268373
 40
0.4041152230187641
 40
0.5501365448464931
 40
0.6961676515364528
 40
0.847683912725662
 40
1.0
 40
1.0
 40
1.0
 40
1.0
 10
111.7205346013044
 20
52.42698979786924
 30
0.0
 10
111.6396800550984
 20
52.75850689688151
 30
0.0
 10
111.4622106215884
 20
53.48616111697525
 30
0.0
 10
111.2686551322979
 20
54.62748325724755
 30
0.0
 10
111.1479733404473
 20
55.85579138956563
 30
0.0
 10
111.1322866959934
 20
57.10067679011486
 30
0.0
 10
111.2234624758968
 20
58.36792692847409
 30
0.0
 10
111.4156749732632
 20
59.64260101248011
 30
0.0
 10
111.6187365415653
 20
60.48830569137426
 30
0.0
 10
111.7205346013044
 20
60.91227117210782
 30
0.0
  0
LINE
  5
F7
330
1F
100
AcDbEntity
  8
0
  6
Continuous
 62
     7
370
    25
100
AcDbLine
 10
111.7205346013
 20
52.4269897979
 30
0.0
 11
111.7205346013
 21
51.4297348964
 31
0.0
  0
SPLINE
  5
F8
330
1F
100
AcDbEntity
  8
0
  6
Continuous
 62
     7
370
    25
100
AcDbSpline
210
0.0
220
0.0
230
1.0
 70
     8
 71
     3
 72
    13
 73
     9
 74
     0
 42
0.00000001
 43
0.00000001
 40
0.0
 40
0.0
 40
0.0
 40
0.0
 40
0.1486836725407957
 40
0.2973266681306994
 40
0.4495190314788648
 40
0.6016998281953441
 40
0.7998469953576065
 40
1.0
 40
1.0
 40
1.0
 40
1.0
 10
111.7205346013044
 20
47.18709420926108
 30
0.0
 10
111.6210758418542
 20
47.39398924516808
 30
0.0
 10
111.4221855329293
 20
47.80772271453831
 30
0.0
 10
111.2266382700578
 20
48.44417295470929
 30
0.0
 10
111.130640006634
 20
49.09128134670954
 30
0.0
 10
111.1527119732774
 20
49.81092674996366
 30
0.0
 10
111.3290902853388
 20
50.59565403257466
 30
0.0
 10
111.589615827582
 20
51.15077607792018
 30
0.0
 10
111.7205346013044
 20
51.42973489638042
 30
0.0
  0
LINE
  5
F9
330
1F
100
AcDbEntity
  8
0
  6
Continuous
 62
     7
370
    25
100
AcDbLine
 10
111.7205346013
 20
47.1870942093
 30
0.0
 11
111.7205346013
 21
47.169630485
 31
0.0
  0
LINE
  5
FA
330
1F
100
AcDbEntity
  8
0
  6
Continuous
 62
     7
370
    25
100
AcDbLine
 10
116.2771589283
 20
52.4269897979
 30
0.0
 11
111.7205346013
 21
52.4269897979
 31
0.0
  0
LINE
  5
FB
330
1F
100
AcDbEntity
  8
0
  6
Continuous
 62
     7
370
    25
100
AcDbLine
 10
111.7205346013
 20
60.9122711721
 30
0.0
 11
116.2771589283
 21
60.9122711721
 31
0.0
  0
LINE
  5
FC
330
1F
100
AcDbEntity
  8
0
  6
Continuous
 62
     7
370
    25
100
AcDbLine
 10
111.7205346013
 20
51.4297348964
 30
0.0
 11
116.2771589283
 21
51.4297348964
 31
0.0
  0
LINE
  5
FD
330
1F
100
AcDbEntity
  8
0
  6
Continuous
 62
     7
370
    25
100
AcDbLine
 10
116.2771589283
 20
61.9095260736
 30
0.0
 11
111.7205346013
 21
61.9095260736
 31
0.0
  0
LINE
  5
FE
330
1F
100
AcDbEntity
  8
0
  6
Continuous
 62
     7
370
    25
100
AcDbLine
 10
116.2771589283
 20
47.1870942093
 30
0.0
 11
111.7205346013
 21
47.1870942093
 31
0.0
  0
LINE
  5
FF
330
1F
100
AcDbEntity
  8
0
  6
Continuous
 62
     7
370
    25
100
AcDbLine
 10
111.7205346013
 20
66.1521667607
 30
0.0
 11
116.2771589283
 21
66.1521667607
 31
0.0
  0
LINE
  5
100
330
1F
100
AcDbEntity
  8
0
  6
Continuous
 62
     7
370
    25
100
AcDbLine
 10
136.4988467648
 20
46.669630485
 30
0.0
 11
136.4988467648
 21
66.669630485
 31
0.0
  0
LINE
  5
101
330
1F
100
AcDbEntity
  8
0
  6
Continuous
 62
     7
370
    25
100
AcDbLine
 10
136.9988467648
 20
66.169630485
 30
0.0
 11
136.9988467648
 21
47.169630485
 31
0.0
  0
LINE
  5
102
330
1F
100
AcDbEntity
  8
0
  6
Continuous
 62
     7
370
    25
100
AcDbLine
 10
134.8808127761
 20
46.669630485
 30
0.0
 11
134.8808127761
 21
66.669630485
 31
0.0
  0
SPLINE
  5
103
330
1F
100
AcDbEntity
  8
0
  6
Continuous
 62
     7
370
    25
100
AcDbSpline
210
0.0
220
0.0
230
1.0
 70
     8
 71
     3
 72
     8
 73
     4
 74
     0
 42
0.00000001
 43
0.00000001
 40
0.0
 40
0.0
 40
0.0
 40
0.0
 40
1.0
 40
1.0
 40
1.0
 40
1.0
 10
134.5960478894713
 20
51.26994063349255
 30
0.0
 10
134.5282114718952
 20
51.23857769248177
 30
0.0
 10
134.4988467648174
 20
51.20510953183221
 30
0.0
 10
134.4988467648174
 20
51.16963048498845
 30
0.0
  0
SPLINE
  5
104
330
1F
100
AcDbEntity
  8
0
  6
Continuous
 62
     7
370
    25
100
AcDbSpline
210
0.0
220
0.0
230
1.0
 70
     8
 71
     3
 72
    12
 73
     8
 74
     0
 42
0.00000001
 43
0.00000001
 40
0.0
 40
0.0
 40
0.0
 40
0.0
 40
0.5000000000000001
 40
0.5000000000000001
 40
0.75
 40
0.75
 40
1.0
 40
1.0
 40
1.0
 40
1.0
 10
134.5960478894713
 20
51.26994063349255
 30
0.0
 10
134.6639176494811
 20
51.30131898977464
 30
0.0
 10
134.7399522007348
 20
51.43502751027319
 30
0.0
 10
134.7865967991118
 20
51.71305361993898
 30
0.0
 10
134.7910357956345
 20
51.81989980394293
 30
0.0
 10
134.7753051818416
 20
52.04678127799868
 30
0.0
 10
134.7554247518993
 20
52.16695025030329
 30
0.0
 10
134.7279328319194
 20
52.28839989511354
 30
0.0
  0
SPLINE
  5
105
330
1F
100
AcDbEntity
  8
0
  6
Continuous
 62
     7
370
    25
100
AcDbSpline
210
0.0
220
0.0
230
1.0
 70
     8
 71
     3
 72
    12
 73
     8
 74
     0
 42
0.00000001
 43
0.00000001
 40
0.0
 40
0.0
 40
0.0
 40
0.0
 40
0.5
 40
0.5
 40
0.75
 40
0.75
 40
1.0
 40
1.0
 40
1.0
 40
1.0
 10
134.4988467648174
 20
56.66963048498845
 30
0.0
 10
134.4988467648174
 20
55.93567346283123
 30
0.0
 10
134.4942893698181
 20
55.20269501846843
 30
0.0
 10
134.5214730341974
 20
54.10587090552202
 30
0.0
 10
134.5369227051146
 20
53.74072331695158
 30
0.0
 10
134.5997863066465
 20
53.01193530308754
 30
0.0
 10
134.6468162298148
 20
52.64674454768922
 30
0.0
 10
134.7279328319194
 20
52.28839989511354
 30
0.0
  0
SPLINE
  5
106
330
1F
100
AcDbEntity
  8
0
  6
Continuous
 62
     7
370
    25
100
AcDbSpline
210
0.0
220
0.0
230
1.0
 70
     8
 71
     3
 72
    12
 73
     8
 74
     0
 42
0.00000001
 43
0.00000001
 40
0.0
 40
0.0
 40
0.0
 40
0.0
 40
0.25
 40
0.25
 40
0.5
 40
0.5
 40
1.0
 40
1.0
 40
1.0
 40
1.0
 10
134.7279328319194
 20
61.05086107486335
 30
0.0
 10
134.6468162298148
 20
60.69251642228767
 30
0.0
 10
134.5997863066465
 20
60.32732566688935
 30
0.0
 10
134.5369227051146
 20
59.59853765302531
 30
0.0
 10
134.5214730341974
 20
59.23339006445487
 30
0.0
 10
134.4942893698181
 20
58.13656595150847
 30
0.0
 10
134.4988467648174
 20
57.40358750714566
 30
0.0
 10
134.4988467648174
 20
56.66963048498844
 30
0.0
  0
SPLINE
  5
107
330
1F
100
AcDbEntity
  8
0
  6
Continuous
 62
     7
370
    25
100
AcDbSpline
210
0.0
220
0.0
230
1.0
 70
     8
 71
     3
 72
    14
 73
    10
 74
     0
 42
0.00000001
 43
0.00000001
 40
0.0
 40
0.0
 40
0.0
 40
0.0
 40
0.25
 40
0.25
 40
0.5
 40
0.5
 40
0.75
 40
0.75
 40
1.0
 40
1.0
 40
1.0
 40
1.0
 10
134.7279328319194
 20
61.05086107486335
 30
0.0
 10
134.7554538196645
 20
61.17243913084906
 30
0.0
 10
134.7753737415009
 20
61.29296386787419
 30
0.0
 10
134.791040783319
 20
61.51994012698229
 30
0.0
 10
134.7865489515066
 20
61.62691010454846
 30
0.0
 10
134.7552926062231
 20
61.81237565632819
 30
0.0
 10
134.7289200228413
 20
61.89126091744703
 30
0.0
 10
134.666083471697
 20
62.01189870862012
 30
0.0
 10
134.6300438928369
 20
62.05360289906273
 30
0.0
 10
134.5960478894713
 20
62.06932033648434
 30
0.0
  0
SPLINE
  5
108
330
1F
100
AcDbEntity
  8
0
  6
Continuous
 62
     7
370
    25
100
AcDbSpline
210
0.0
220
0.0
230
1.0
 70
     8
 71
     3
 72
     8
 73
     4
 74
     0
 42
0.00000001
 43
0.00000001
 40
0.0
 40
0.0
 40
0.0
 40
0.0
 40
1.0
 40
1.0
 40
1.0
 40
1.0
 10
134.4988467648174
 20
62.16963048498844
 30
0.0
 10
134.4988467648174
 20
62.13415143814467
 30
0.0
 10
134.5282114718952
 20
62.10068327749512
 30
0.0
 10
134.5960478894713
 20
62.06932033648434
 30
0.0
  0
LINE
  5
109
330
1F
100
AcDbEntity
  8
0
  6
Continuous
 62
     7
370
    25
100
AcDbLine
 10
134.4988467648
 20
62.169630485
 30
0.0
 11
134.4988467648
 21
65.669630485
 31
0.0
  0
LINE
  5
10A
330
1F
100
AcDbEntity
  8
0
  6
Continuous
 62
     7
370
    25
100
AcDbLine
 10
134.4988467648
 20
47.669630485
 30
0.0
 11
134.4988467648
 21
51.169630485
 31
0.0
  0
LINE
  5
10B
330
1F
100
AcDbEntity
  8
0
  6
Continuous
 62
     7
370
    25
100
AcDbLine
 10
116.9988467648
 20
56.669630485
 30
0.0
 11
116.9988467648
 21
66.419630485
 31
0.0
  0
LINE
  5
10C
330
1F
100
AcDbEntity
  8
0
  6
Continuous
 62
     7
370
    25
100
AcDbLine
 10
116.9988467648
 20
46.919630485
 30
0.0
 11
116.9988467648
 21
56.669630485
 31
0.0
  0
LINE
  5
10D
330
1F
100
AcDbEntity
  8
0
  6
Continuous
 62
     7
370
    25
100
AcDbLine
 10
117.2488467648
 20
56.669630485
 30
0.0
 11
117.2488467648
 21
46.669630485
 31
0.0
  0
LINE
  5
10E
330
1F
100
AcDbEntity
  8
0
  6
Continuous
 62
     7
370
    25
100
AcDbLine
 10
117.2488467648
 20
66.669630485
 30
0.0
 11
117.2488467648
 21
56.669630485
 31
0.0
  0
LINE
  5
10F
330
1F
100
AcDbEntity
  8
0
  6
Continuous
 62
     7
370
    25
100
AcDbLine
 10
119.1168807536
 20
56.669630485
 30
0.0
 11
119.1168807536
 21
46.669630485
 31
0.0
  0
LINE
  5
110
330
1F
100
AcDbEntity
  8
0
  6
Continuous
 62
     7
370
    25
100
AcDbLine
 10
119.1168807536
 20
66.669630485
 30
0.0
 11
119.1168807536
 21
56.669630485
 31
0.0
  0
LINE
  5
111
330
1F
100
AcDbEntity
  8
0
  6
Continuous
 62
     7
370
    25
100
AcDbLine
 10
119.4988467648
 20
65.669630485
 30
0.0
 11
119.4988467648
 21
62.169630485
 31
0.0
  0
SPLINE
  5
112
330
1F
100
AcDbEntity
  8
0
  6
Continuous
 62
     7
370
    25
100
AcDbSpline
210
0.0
220
0.0
230
1.0
 70
     8
 71
     3
 72
     8
 73
     4
 74
     0
 42
0.00000001
 43
0.00000001
 40
0.0
 40
0.0
 40
0.0
 40
0.0
 40
1.0
 40
1.0
 40
1.0
 40
1.0
 10
119.4016456401635
 20
62.06932033648434
 30
0.0
 10
119.4694820577395
 20
62.10068327749512
 30
0.0
 10
119.4988467648174
 20
62.13415143814467
 30
0.0
 10
119.4988467648174
 20
62.16963048498844
 30
0.0
  0
SPLINE
  5
113
330
1F
100
AcDbEntity
  8
0
  6
Continuous
 62
     7
370
    25
100
AcDbSpline
210
0.0
220
0.0
230
1.0
 70
     8
 71
     3
 72
    12
 73
     8
 74
     0
 42
0.00000001
 43
0.00000001
 40
0.0
 40
0.0
 40
0.0
 40
0.0
 40
0.4999999999999992
 40
0.4999999999999992
 40
0.7499999999999996
 40
0.7499999999999996
 40
1.0
 40
1.0
 40
1.0
 40
1.0
 10
119.4016456401635
 20
62.06932033648434
 30
0.0
 10
119.3337758801537
 20
62.03794198020225
 30
0.0
 10
119.2577413288999
 20
61.9042334597037
 30
0.0
 10
119.2110967305229
 20
61.62620735003791
 30
0.0
 10
119.2066577340003
 20
61.51936116603395
 30
0.0
 10
119.2223883477931
 20
61.29247969197821
 30
0.0
 10
119.2422687777355
 20
61.17231071967359
 30
0.0
 10
119.2697606977153
 20
61.05086107486335
 30
0.0
  0
SPLINE
  5
114
330
1F
100
AcDbEntity
  8
0
  6
Continuous
 62
     7
370
    25
100
AcDbSpline
210
0.0
220
0.0
230
1.0
 70
     8
 71
     3
 72
    12
 73
     8
 74
     0
 42
0.00000001
 43
0.00000001
 40
0.0
 40
0.0
 40
0.0
 40
0.0
 40
0.4999999999999998
 40
0.4999999999999998
 40
0.7499999999999999
 40
0.7499999999999999
 40
1.0
 40
1.0
 40
1.0
 40
1.0
 10
119.4988467648174
 20
56.66963048498843
 30
0.0
 10
119.4988467648174
 20
57.40358750714564
 30
0.0
 10
119.5034041598166
 20
58.13656595150847
 30
0.0
 10
119.4762204954373
 20
59.23339006445487
 30
0.0
 10
119.4607708245201
 20
59.5985376530253
 30
0.0
 10
119.3979072229883
 20
60.32732566688935
 30
0.0
 10
119.35087729982
 20
60.69251642228767
 30
0.0
 10
119.2697606977153
 20
61.05086107486335
 30
0.0
  0
SPLINE
  5
115
330
1F
100
AcDbEntity
  8
0
  6
Continuous
 62
     7
370
    25
100
AcDbSpline
210
0.0
220
0.0
230
1.0
 70
     8
 71
     3
 72
    12
 73
     8
 74
     0
 42
0.00000001
 43
0.00000001
 40
0.0
 40
0.0
 40
0.0
 40
0.0
 40
0.2500000000000001
 40
0.2500000000000001
 40
0.5000000000000002
 40
0.5000000000000002
 40
1.0
 40
1.0
 40
1.0
 40
1.0
 10
119.2697606977153
 20
52.28839989511354
 30
0.0
 10
119.35087729982
 20
52.64674454768921
 30
0.0
 10
119.3979072229883
 20
53.01193530308754
 30
0.0
 10
119.4607708245201
 20
53.74072331695158
 30
0.0
 10
119.4762204954373
 20
54.10587090552202
 30
0.0
 10
119.5034041598166
 20
55.20269501846843
 30
0.0
 10
119.4988467648174
 20
55.93567346283123
 30
0.0
 10
119.4988467648174
 20
56.66963048498845
 30
0.0
  0
SPLINE
  5
116
330
1F
100
AcDbEntity
  8
0
  6
Continuous
 62
     7
370
    25
100
AcDbSpline
210
0.0
220
0.0
230
1.0
 70
     8
 71
     3
 72
    14
 73
    10
 74
     0
 42
0.00000001
 43
0.00000001
 40
0.0
 40
0.0
 40
0.0
 40
0.0
 40
0.25
 40
0.25
 40
0.5
 40
0.5
 40
0.75
 40
0.75
 40
1.0
 40
1.0
 40
1.0
 40
1.0
 10
119.2697606977153
 20
52.28839989511354
 30
0.0
 10
119.2422397099703
 20
52.16682183912783
 30
0.0
 10
119.2223197881339
 20
52.0462971021027
 30
0.0
 10
119.2066527463158
 20
51.81932084299459
 30
0.0
 10
119.2111445781281
 20
51.71235086542841
 30
0.0
 10
119.2424009234117
 20
51.52688531364868
 30
0.0
 10
119.2687735067935
 20
51.44800005252986
 30
0.0
 10
119.3316100579378
 20
51.32736226135675
 30
0.0
 10
119.3676496367978
 20
51.28565807091415
 30
0.0
 10
119.4016456401635
 20
51.26994063349255
 30
0.0
  0
SPLINE
  5
117
330
1F
100
AcDbEntity
  8
0
  6
Continuous
 62
     7
370
    25
100
AcDbSpline
210
0.0
220
0.0
230
1.0
 70
     8
 71
     3
 72
     8
 73
     4
 74
     0
 42
0.00000001
 43
0.00000001
 40
0.0
 40
0.0
 40
0.0
 40
0.0
 40
1.0
 40
1.0
 40
1.0
 40
1.0
 10
119.4988467648174
 20
51.16963048498845
 30
0.0
 10
119.4988467648174
 20
51.20510953183221
 30
0.0
 10
119.4694820577395
 20
51.23857769248177
 30
0.0
 10
119.4016456401635
 20
51.26994063349255
 30
0.0
  0
LINE
  5
118
330
1F
100
AcDbEntity
  8
0
  6
Continuous
 62
     7
370
    25
100
AcDbLine
 10
119.4988467648
 20
51.169630485
 30
0.0
 11
119.4988467648
 21
47.669630485
 31
0.0
  0
LINE
  5
119
330
1F
100
AcDbEntity
  8
0
  6
Continuous
 62
     7
370
    25
100
AcDbLine
 10
134.7279328319
 20
52.2883998951
 30
0.0
 11
134.3042948543
 21
52.169630485
 31
0.0
  0
SPLINE
  5
11A
330
1F
100
AcDbEntity
  8
0
  6
Continuous
 62
     7
370
    25
100
AcDbSpline
210
0.0
220
0.0
230
1.0
 70
     8
 71
     3
 72
    14
 73
    10
 74
     0
 42
0.00000001
 43
0.00000001
 40
0.0
 40
0.0
 40
0.0
 40
0.0
 40
0.2500000000000002
 40
0.2500000000000002
 40
0.5000000000000003
 40
0.5000000000000003
 40
0.7500000000000002
 40
0.7500000000000002
 40
1.0
 40
1.0
 40
1.0
 40
1.0
 10
134.3042948542868
 20
52.16963048498845
 30
0.0
 10
134.2017343364627
 20
52.5354530508343
 30
0.0
 10
134.1384213503118
 20
52.91106096627575
 30
0.0
 10
134.0532036871265
 20
53.66006620554443
 30
0.0
 10
134.031285592448
 20
54.03554686319344
 30
0.0
 10
134.0055123366683
 20
54.78736200190858
 30
0.0
 10
134.0017488512036
 20
55.16370081642393
 30
0.0
 10
133.9984375030977
 20
55.91657771527252
 30
0.0
 10
133.9988467648174
 20
56.29311377290148
 30
0.0
 10
133.9988467648174
 20
56.66963048498845
 30
0.0
  0
LINE
  5
11B
330
1F
100
AcDbEntity
  8
0
  6
Continuous
 62
     7
370
    25
100
AcDbLine
 10
134.4988467648
 20
56.669630485
 30
0.0
 11
133.9988467648
 21
56.669630485
 31
0.0
  0
SPLINE
  5
11C
330
1F
100
AcDbEntity
  8
0
  6
Continuous
 62
     7
370
    25
100
AcDbSpline
210
0.0
220
0.0
230
1.0
 70
     8
 71
     3
 72
    14
 73
    10
 74
     0
 42
0.00000001
 43
0.00000001
 40
0.0
 40
0.0
 40
0.0
 40
0.0
 40
0.2499999999999999
 40
0.2499999999999999
 40
0.4999999999999999
 40
0.4999999999999999
 40
0.7499999999999999
 40
0.7499999999999999
 40
1.0
 40
1.0
 40
1.0
 40
1.0
 10
133.9988467648174
 20
56.66963048498844
 30
0.0
 10
133.9988467648174
 20
57.04614719707541
 30
0.0
 10
133.9984375030977
 20
57.42268325470437
 30
0.0
 10
134.0017488512036
 20
58.17556015355296
 30
0.0
 10
134.0055123366683
 20
58.5518989680683
 30
0.0
 10
134.031285592448
 20
59.30371410678345
 30
0.0
 10
134.0532036871265
 20
59.67919476443245
 30
0.0
 10
134.1384213503118
 20
60.42820000370114
 30
0.0
 10
134.2017343364627
 20
60.80380791914259
 30
0.0
 10
134.3042948542868
 20
61.16963048498844
 30
0.0
  0
LINE
  5
11D
330
1F
100
AcDbEntity
  8
0
  6
Continuous
 62
     7
370
    25
100
AcDbLine
 10
134.7279328319
 20
61.0508610749
 30
0.0
 11
134.3042948543
 21
61.169630485
 31
0.0
  0
SPLINE
  5
11E
330
1F
100
AcDbEntity
  8
0
  6
Continuous
 62
     7
370
    25
100
AcDbSpline
210
0.0
220
0.0
230
1.0
 70
     8
 71
     3
 72
    14
 73
    10
 74
     0
 42
0.00000001
 43
0.00000001
 40
0.0
 40
0.0
 40
0.0
 40
0.0
 40
0.2500000000000001
 40
0.2500000000000001
 40
0.5000000000000001
 40
0.5000000000000001
 40
0.7500000000000001
 40
0.7500000000000001
 40
1.0
 40
1.0
 40
1.0
 40
1.0
 10
119.9988467648174
 20
56.66963048498845
 30
0.0
 10
119.9988467648174
 20
56.29311377290148
 30
0.0
 10
119.999256026537
 20
55.9165777152725
 30
0.0
 10
119.9959446784311
 20
55.16370081642393
 30
0.0
 10
119.9921811929665
 20
54.78736200190858
 30
0.0
 10
119.9664079371868
 20
54.03554686319343
 30
0.0
 10
119.9444898425082
 20
53.66006620554442
 30
0.0
 10
119.859272179323
 20
52.91106096627575
 30
0.0
 10
119.7959591931721
 20
52.5354530508343
 30
0.0
 10
119.693398675348
 20
52.16963048498845
 30
0.0
  0
LINE
  5
11F
330
1F
100
AcDbEntity
  8
0
  6
Continuous
 62
     7
370
    25
100
AcDbLine
 10
119.6933986753
 20
52.169630485
 30
0.0
 11
119.2697606977
 21
52.2883998951
 31
0.0
  0
LINE
  5
120
330
1F
100
AcDbEntity
  8
0
  6
Continuous
 62
     7
370
    25
100
AcDbLine
 10
119.9988467648
 20
56.669630485
 30
0.0
 11
119.4988467648
 21
56.669630485
 31
0.0
  0
SPLINE
  5
121
330
1F
100
AcDbEntity
  8
0
  6
Continuous
 62
     7
370
    25
100
AcDbSpline
210
0.0
220
0.0
230
1.0
 70
     8
 71
     3
 72
    14
 73
    10
 74
     0
 42
0.00000001
 43
0.00000001
 40
0.0
 40
0.0
 40
0.0
 40
0.0
 40
0.2500000000000001
 40
0.2500000000000001
 40
0.5000000000000001
 40
0.5000000000000001
 40
0.75
 40
0.75
 40
1.0
 40
1.0
 40
1.0
 40
1.0
 10
119.693398675348
 20
61.16963048498844
 30
0.0
 10
119.7959591931721
 20
60.80380791914259
 30
0.0
 10
119.859272179323
 20
60.42820000370113
 30
0.0
 10
119.9444898425082
 20
59.67919476443245
 30
0.0
 10
119.9664079371868
 20
59.30371410678344
 30
0.0
 10
119.9921811929665
 20
58.5518989680683
 30
0.0
 10
119.9959446784311
 20
58.17556015355294
 30
0.0
 10
119.999256026537
 20
57.42268325470436
 30
0.0
 10
119.9988467648174
 20
57.04614719707541
 30
0.0
 10
119.9988467648174
 20
56.66963048498843
 30
0.0
  0
LINE
  5
122
330
1F
100
AcDbEntity
  8
0
  6
Continuous
 62
     7
370
    25
100
AcDbLine
 10
119.6933986753
 20
61.169630485
 30
0.0
 11
119.2697606977
 21
61.0508610749
 31
0.0
  0
SPLINE
  5
123
330
1F
100
AcDbEntity
  8
0
  6
Continuous
 62
     7
370
    25
100
AcDbSpline
210
0.0
220
0.0
230
1.0
 70
     8
 71
     3
 72
    14
 73
    10
 74
     0
 42
0.00000001
 43
0.00000001
 40
0.0
 40
0.0
 40
0.0
 40
0.0
 40
0.25
 40
0.25
 40
0.5
 40
0.5
 40
0.75
 40
0.75
 40
1.0
 40
1.0
 40
1.0
 40
1.0
 10
119.8692452652788
 20
51.66963048498845
 30
0.0
 10
119.8307697816572
 20
51.66963048498845
 30
0.0
 10
119.7896808601872
 20
51.68041705597167
 30
0.0
 10
119.7103980127466
 20
51.72334884303682
 30
0.0
 10
119.6731151116362
 20
51.75476635134169
 30
0.0
 10
119.6203093523244
 20
51.84608119691791
 30
0.0
 10
119.6083400922308
 20
51.90731167968217
 30
0.0
 10
119.6283418806029
 20
52.03817504033789
 30
0.0
 10
119.6577983361552
 20
52.10613915467547
 30
0.0
 10
119.693398675348
 20
52.16963048498845
 30
0.0
  0
ARC
  5
124
330
1F
100
AcDbEntity
  8
0
  6
Continuous
 62
     7
370
    25
100
AcDbCircle
 10
119.8777938488
 20
51.1862606743
 30
0.0
 40
0.4834453973192188
100
AcDbArc
 50
91.0131925738
 51
170.032425387
  0
SPLINE
  5
125
330
1F
100
AcDbEntity
  8
0
  6
Continuous
 62
     7
370
    25
100
AcDbSpline
210
0.0
220
0.0
230
1.0
 70
     8
 71
     3
 72
    14
 73
    10
 74
     0
 42
0.00000001
 43
0.00000001
 40
0.0
 40
0.0
 40
0.0
 40
0.0
 40
0.25
 40
0.25
 40
0.5
 40
0.5
 40
0.75
 40
0.75
 40
1.0
 40
1.0
 40
1.0
 40
1.0
 10
134.1284482643559
 20
61.66963048498844
 30
0.0
 10
134.1669237479775
 20
61.66963048498844
 30
0.0
 10
134.2080126694475
 20
61.65884391400522
 30
0.0
 10
134.2872955168881
 20
61.61591212694007
 30
0.0
 10
134.3245784179986
 20
61.5844946186352
 30
0.0
 10
134.3773841773103
 20
61.49317977305898
 30
0.0
 10
134.389353437404
 20
61.43194929029472
 30
0.0
 10
134.3693516490318
 20
61.30108592963899
 30
0.0
 10
134.3398951934795
 20
61.23312181530141
 30
0.0
 10
134.3042948542868
 20
61.16963048498844
 30
0.0
  0
ARC
  5
126
330
1F
100
AcDbEntity
  8
0
  6
Continuous
 62
     7
370
    25
100
AcDbCircle
 10
134.1198996808
 20
62.1530002957
 30
0.0
 40
0.4834453973191785
100
AcDbArc
 50
271.0131925738
 51
350.032425387
  0
SPLINE
  5
127
330
1F
100
AcDbEntity
  8
0
  6
Continuous
 62
     7
370
    25
100
AcDbSpline
210
0.0
220
0.0
230
1.0
 70
     8
 71
     3
 72
    16
 73
    12
 74
     0
 42
0.00000001
 43
0.00000001
 40
0.0
 40
0.0
 40
0.0
 40
0.0
 40
0.2500000000000049
 40
0.2500000000000049
 40
0.3750000000000051
 40
0.3750000000000051
 40
0.5000000000000052
 40
0.5000000000000052
 40
0.7500000000000026
 40
0.7500000000000026
 40
1.0
 40
1.0
 40
1.0
 40
1.0
 10
119.693398675348
 20
61.16963048498844
 30
0.0
 10
119.6578447458993
 20
61.23303904596663
 30
0.0
 10
119.6285726046706
 20
61.30030634628746
 30
0.0
 10
119.6133600544498
 20
61.39874565742979
 30
0.0
 10
119.6132993862762
 20
61.43122106378508
 30
0.0
 10
119.6235099707535
 20
61.48984627091128
 30
0.0
 10
119.6332933002788
 20
61.51546908246426
 30
0.0
 10
119.6724578488107
 20
61.58367792615972
 30
0.0
 10
119.710330922084
 20
61.61584068132549
 30
0.0
 10
119.7894038950756
 20
61.65872890044138
 30
0.0
 10
119.8307910276664
 20
61.66963048498844
 30
0.0
 10
119.8692452652788
 20
61.66963048498844
 30
0.0
  0
ARC
  5
128
330
1F
100
AcDbEntity
  8
0
  6
Continuous
 62
     7
370
    25
100
AcDbCircle
 10
119.8777938488
 20
62.1530002957
 30
0.0
 40
0.4834453973192188
100
AcDbArc
 50
189.967574613
 51
268.9868074262
  0
ARC
  5
129
330
1F
100
AcDbEntity
  8
0
  6
Continuous
 62
     7
370
    25
100
AcDbCircle
 10
134.1198996808
 20
51.1862606743
 30
0.0
 40
0.4834453973191714
100
AcDbArc
 50
9.967574613
 51
88.9868074262
  0
SPLINE
  5
12A
330
1F
100
AcDbEntity
  8
0
  6
Continuous
 62
     7
370
    25
100
AcDbSpline
210
0.0
220
0.0
230
1.0
 70
     8
 71
     3
 72
    16
 73
    12
 74
     0
 42
0.00000001
 43
0.00000001
 40
0.0
 40
0.0
 40
0.0
 40
0.0
 40
0.2499999999999999
 40
0.2499999999999999
 40
0.3750000000000003
 40
0.3750000000000003
 40
0.5000000000000007
 40
0.5000000000000007
 40
0.7500000000000003
 40
0.7500000000000003
 40
1.0
 40
1.0
 40
1.0
 40
1.0
 10
134.3042948542868
 20
52.16963048498845
 30
0.0
 10
134.3398487837354
 20
52.10622192401025
 30
0.0
 10
134.3691209249641
 20
52.03895462368943
 30
0.0
 10
134.384333475185
 20
51.94051531254709
 30
0.0
 10
134.3843941433585
 20
51.9080399061918
 30
0.0
 10
134.3741835588812
 20
51.8494146990656
 30
0.0
 10
134.364400229356
 20
51.82379188751261
 30
0.0
 10
134.325235680824
 20
51.75558304381717
 30
0.0
 10
134.2873626075508
 20
51.72342028865139
 30
0.0
 10
134.2082896345592
 20
51.6805320695355
 30
0.0
 10
134.1669025019684
 20
51.66963048498845
 30
0.0
 10
134.1284482643559
 20
51.66963048498845
 30
0.0
  0
LINE
  5
12B
330
1F
100
AcDbEntity
  8
0
  6
Continuous
 62
     7
370
    25
100
AcDbLine
 10
130.1979166517
 20
55.6105843445
 30
0.0
 11
131.738395502
 21
55.6105843445
 31
0.0
  0
LINE
  5
12C
330
1F
100
AcDbEntity
  8
0
  6
Continuous
 62
     7
370
    25
100
AcDbLine
 10
131.738395502
 20
55.6105843445
 30
0.0
 11
131.738395502
 21
56.1185843445
 31
0.0
  0
LINE
  5
12D
330
1F
100
AcDbEntity
  8
0
  6
Continuous
 62
     7
370
    25
100
AcDbLine
 10
131.738395502
 20
56.1185843445
 30
0.0
 11
130.1979166517
 21
56.1185843445
 31
0.0
  0
ELLIPSE
  5
12E
330
1F
100
AcDbEntity
  8
0
  6
Continuous
 62
     7
370
    25
100
AcDbEllipse
 10
125.5567526237
 20
54.6701824974
 30
0.0
 11
0.06784129479237322
 21
0.0
 31
0.0
210
0.0
220
0.0
230
1.0
 40
0.9533039403
 41
3.96259465055548
 42
5.81953769817475
  0
LINE
  5
12F
330
1F
100
AcDbEntity
  8
0
  6
Continuous
 62
     7
370
    25
100
AcDbLine
 10
125.6174317225
 20
54.6412596855
 30
0.0
 11
126.2544466501
 21
55.8557973666
 31
0.0
  0
ELLIPSE
  5
130
330
1F
100
AcDbEntity
  8
0
  6
Continuous
 62
     7
370
    25
100
AcDbEllipse
 10
125.942051851
 20
56.2804993997
 30
0.0
 11
0.5427303583402932
 21
3.552713678800501E-13
 31
0.0
210
0.0
220
0.0
230
1.0
 40
0.9533039404
 41
3.470145824142413
 42
5.2524691805279
  0
LINE
  5
131
330
1F
100
AcDbEntity
  8
0
  6
Continuous
 62
     7
370
    25
100
AcDbLine
 10
125.4283520374
 20
56.1135521077
 30
0.0
 11
124.420628328
 21
58.9315085911
 31
0.0
  0
LINE
  5
132
330
1F
100
AcDbEntity
  8
0
  6
Continuous
 62
     7
370
    25
100
AcDbLine
 10
123.4750569263
 20
58.9315085911
 30
0.0
 11
122.4675680534
 21
56.1142087948
 31
0.0
  0
ELLIPSE
  5
133
330
1F
100
AcDbEntity
  8
0
  6
Continuous
 62
     7
370
    25
100
AcDbEllipse
 10
122.3389326306
 20
54.6701824974
 30
0.0
 11
0.06784129479237322
 21
0.0
 31
0.0
210
0.0
220
0.0
230
1.0
 40
0.9533039403
 41
3.605240262580861
 42
5.462183310226846
  0
LINE
  5
134
330
1F
100
AcDbEntity
  8
0
  6
Continuous
 62
     7
370
    25
100
AcDbLine
 10
134.3042948543
 20
61.169630485
 30
0.0
 11
119.6933986753
 21
61.169630485
 31
0.0
  0
LINE
  5
135
330
1F
100
AcDbEntity
  8
0
  6
Continuous
 62
     7
370
    25
100
AcDbLine
 10
119.6933986753
 20
52.169630485
 30
0.0
 11
134.3042948543
 21
52.169630485
 31
0.0
  0
ELLIPSE
  5
136
330
1F
100
AcDbEntity
  8
0
  6
Continuous
 62
     7
370
    25
100
AcDbEllipse
 10
123.9478426271
 20
58.7216362362
 30
0.0
 11
0.5215299537176747
 21
0.0
 31
0.0
210
0.0
220
0.0
230
1.0
 40
0.9533039403
 41
0.4357918987553288
 42
2.705800754834445
  0
LINE
  5
137
330
1F
100
AcDbEntity
  8
0
  6
Continuous
 62
     7
370
    25
100
AcDbLine
 10
131.3651071935
 20
56.3674786873
 30
0.0
 11
131.738395502
 21
56.7407669958
 31
0.0
  0
ARC
  5
138
330
1F
100
AcDbEntity
  8
0
  6
Continuous
 62
     7
370
    25
100
AcDbCircle
 10
130.8622128507
 20
55.8645843445
 30
0.0
 40
0.7112000000000287
100
AcDbArc
 50
45.0
 51
159.0751675723
  0
ARC
  5
139
330
1F
100
AcDbEntity
  8
0
  6
Continuous
 62
     7
370
    25
100
AcDbCircle
 10
128.1884971736
 20
55.8645843445
 30
0.0
 40
1.239109388553836
100
AcDbArc
 50
45.0
 51
315.0
  0
LINE
  5
13A
330
1F
100
AcDbEntity
  8
0
  6
Continuous
 62
     7
370
    25
100
AcDbLine
 10
121.6825030606
 20
55.8330858106
 30
0.0
 11
121.6412386042
 21
55.8557973666
 31
0.0
  0
ELLIPSE
  5
13B
330
1F
100
AcDbEntity
  8
0
  6
Continuous
 62
     7
370
    25
100
AcDbEllipse
 10
121.9538682398
 20
56.2811560868
 30
0.0
 11
-0.5427303583406626
 21
3.552713678800501E-13
 31
0.0
210
0.0
220
0.0
230
1.0
 40
0.9533039403
 41
1.047197551196564
 42
2.813039483039274
  0
ARC
  5
13C
330
1F
100
AcDbEntity
  8
0
  6
Continuous
 62
     7
370
    25
100
AcDbCircle
 10
130.8622128507
 20
55.8645843445
 30
0.0
 40
1.239109388553836
100
AcDbArc
 50
45.0
 51
315.0
  0
LINE
  5
13D
330
1F
100
AcDbEntity
  8
0
  6
Continuous
 62
     7
370
    25
100
AcDbLine
 10
121.6412386042
 20
55.8557973666
 30
0.0
 11
122.2782535318
 21
54.6412596855
 31
0.0
  0
LINE
  5
13E
330
1F
100
AcDbEntity
  8
0
  6
Continuous
 62
     7
370
    25
100
AcDbLine
 10
128.6913915164
 20
56.3674786873
 30
0.0
 11
129.0646798249
 21
56.7407669958
 31
0.0
  0
ARC
  5
13F
330
1F
100
AcDbEntity
  8
0
  6
Continuous
 62
     7
370
    25
100
AcDbCircle
 10
128.1884971736
 20
55.8645843445
 30
0.0
 40
0.7111999999997675
100
AcDbArc
 50
45.0
 51
315.0
  0
LINE
  5
140
330
1F
100
AcDbEntity
  8
0
  6
Continuous
 62
     7
370
    25
100
AcDbLine
 10
126.2544466501
 20
55.8557973666
 30
0.0
 11
126.2211263946
 21
55.8367534227
 31
0.0
  0
LINE
  5
141
330
1F
100
AcDbEntity
  8
0
  6
Continuous
 62
     7
370
    25
100
AcDbLine
 10
129.0646798249
 20
54.9884016932
 30
0.0
 11
128.6913915164
 21
55.3616900017
 31
0.0
  0
LINE
  5
142
330
1F
100
AcDbEntity
  8
0
  6
Continuous
 62
     7
370
    25
100
AcDbLine
 10
131.738395502
 20
54.9884016932
 30
0.0
 11
131.3651071935
 21
55.3616900017
 31
0.0
  0
ELLIPSE
  5
143
330
1F
100
AcDbEntity
  8
0
  6
Continuous
 62
     7
370
    25
100
AcDbEllipse
 10
123.9478426271
 20
53.023103601
 30
0.0
 11
2.293035763987618
 21
-1.058708676282549E-12
 31
0.0
210
0.0
220
0.0
230
1.0
 40
0.9533039403
 41
0.8210019969645956
 42
2.32059065662511
  0
ARC
  5
144
330
1F
100
AcDbEntity
  8
0
  6
Continuous
 62
     7
370
    25
100
AcDbCircle
 10
130.8622128507
 20
55.8645843445
 30
0.0
 40
0.7112000000000739
100
AcDbArc
 50
200.9248324276
 51
315.0
  0
LINE
  5
145
330
1F
100
AcDbEntity
  8
0
  6
Continuous
 62
     7
370
    25
100
AcDbLine
 10
123.7049032838
 20
56.1144908612
 30
0.0
 11
124.1907819708
 21
56.1144908612
 31
0.0
  0
ELLIPSE
  5
146
330
1F
100
AcDbEntity
  8
0
  6
Continuous
 62
     7
370
    25
100
AcDbEllipse
 10
123.9478426288
 20
56.8276303284
 30
0.0
 11
0.06784129479270007
 21
0.0
 31
0.0
210
0.0
220
0.0
230
1.0
 40
0.9533039403
 41
0.3430239385579903
 42
2.798568711308906
  0
ELLIPSE
  5
147
330
1F
100
AcDbEntity
  8
0
  6
Continuous
 62
     7
370
    25
100
AcDbEllipse
 10
124.1907819708
 20
56.1791642348
 30
0.0
 11
-0.06784129479235901
 21
0.0
 31
0.0
210
0.0
220
0.0
230
1.0
 40
0.9533039403
 41
1.570796326794897
 42
3.484616592149519
  0
LINE
  5
148
330
1F
100
AcDbEntity
  8
0
  6
Continuous
 62
     7
370
    25
100
AcDbLine
 10
124.2546709615
 20
56.2009162442
 30
0.0
 11
124.0117316194
 21
56.8493823378
 31
0.0
  0
ELLIPSE
  5
149
330
1F
100
AcDbEntity
  8
0
  6
Continuous
 62
     7
370
    25
100
AcDbEllipse
 10
123.7049032838
 20
56.1791642348
 30
0.0
 11
0.06784129479235901
 21
0.0
 31
0.0
210
0.0
220
0.0
230
1.0
 40
0.9533039403
 41
2.798568711307287
 42
4.712388980384703
  0
LINE
  5
14A
330
1F
100
AcDbEntity
  8
0
  6
Continuous
 62
     7
370
    25
100
AcDbLine
 10
123.8839536382
 20
56.849382338
 30
0.0
 11
123.6410142932
 21
56.2009162444
 31
0.0
  0
LINE
  5
14B
330
1F
100
AcDbEntity
  8
0
  6
Continuous
 62
     7
370
    25
100
AcDbLine
 10
119.8692452653
 20
61.669630485
 30
0.0
 11
134.1284482644
 21
61.669630485
 31
0.0
  0
LINE
  5
14C
330
1F
100
AcDbEntity
  8
0
  6
Continuous
 62
     7
370
    25
100
AcDbLine
 10
134.1284482644
 20
51.669630485
 30
0.0
 11
119.8692452653
 21
51.669630485
 31
0.0
  0
ARC
  5
14D
330
1F
100
AcDbEntity
  8
0
  6
Continuous
 62
     7
370
    25
100
AcDbCircle
 10
119.9988467648
 20
51.169630485
 30
0.0
 40
0.5
100
AcDbArc
 50
90.0
 51
180.0
  0
ARC
  5
14E
330
1F
100
AcDbEntity
  8
0
  6
Continuous
 62
     7
370
    25
100
AcDbCircle
 10
133.9988467648
 20
51.169630485
 30
0.0
 40
0.5
100
AcDbArc
 50
0.0
 51
90.0
  0
ARC
  5
14F
330
1F
100
AcDbEntity
  8
0
  6
Continuous
 62
     7
370
    25
100
AcDbCircle
 10
119.9988467648
 20
62.169630485
 30
0.0
 40
0.5
100
AcDbArc
 50
180.0
 51
270.0
  0
ARC
  5
150
330
1F
100
AcDbEntity
  8
0
  6
Continuous
 62
     7
370
    25
100
AcDbCircle
 10
133.9988467648
 20
62.169630485
 30
0.0
 40
0.5
100
AcDbArc
 50
270.0
 51
0.0
  0
LWPOLYLINE
  5
151
330
1F
100
AcDbEntity
  8
0
  6
Continuous
 62
     7
370
    25
100
AcDbPolyline
 90
        9
 70
   128
 43
0.0
 10
133.9988467648
 20
61.8640749294
 10
134.0963919258
 20
61.8699460938
 10
134.190188481
 20
61.8873339612
 10
134.2766318813
 20
61.9155703257
 10
134.3524001554
 20
61.9535700796
 10
134.414581571
 20
61.9998729138
 10
134.4607865311
 20
62.0526994362
 10
134.489239405
 20
62.1100195533
 10
134.4988467648
 20
62.169630485
  0
LINE
  5
152
330
1F
100
AcDbEntity
  8
0
  6
Continuous
 62
     7
370
    25
100
AcDbLine
 10
133.9988467648
 20
61.669630485
 30
0.0
 11
133.9988467648
 21
61.8640749294
 31
0.0
  0
LWPOLYLINE
  5
153
330
1F
100
AcDbEntity
  8
0
  6
Continuous
 62
     7
370
    25
100
AcDbPolyline
 90
        9
 70
   128
 43
0.0
 10
119.9988467648
 20
51.4751860405
 10
119.9013016038
 20
51.4693148762
 10
119.8075050486
 20
51.4519270088
 10
119.7210616483
 20
51.4236906443
 10
119.6452933742
 20
51.3856908904
 10
119.5831119587
 20
51.3393880562
 10
119.5369069986
 20
51.2865615338
 10
119.5084541246
 20
51.2292414167
 10
119.4988467648
 20
51.169630485
  0
LINE
  5
154
330
1F
100
AcDbEntity
  8
0
  6
Continuous
 62
     7
370
    25
100
AcDbLine
 10
119.9988467648
 20
51.4751860405
 30
0.0
 11
119.9988467648
 21
51.669630485
 31
0.0
  0
LINE
  5
155
330
1F
100
AcDbEntity
  8
0
  6
Continuous
 62
     7
370
    25
100
AcDbLine
 10
133.9988467648
 20
51.4751860405
 30
0.0
 11
119.9988467648
 21
51.4751860405
 31
0.0
  0
LINE
  5
156
330
1F
100
AcDbEntity
  8
0
  6
Continuous
 62
     7
370
    25
100
AcDbLine
 10
133.9988467648
 20
51.4751860405
 30
0.0
 11
133.9988467648
 21
51.669630485
 31
0.0
  0
LWPOLYLINE
  5
157
330
1F
100
AcDbEntity
  8
0
  6
Continuous
 62
     7
370
    25
100
AcDbPolyline
 90
        9
 70
   128
 43
0.0
 10
119.4988467648
 20
62.169630485
 10
119.5084541246
 20
62.1100195533
 10
119.5369069986
 20
62.0526994362
 10
119.5831119587
 20
61.9998729138
 10
119.6452933742
 20
61.9535700796
 10
119.7210616483
 20
61.9155703257
 10
119.8075050486
 20
61.8873339612
 10
119.9013016038
 20
61.8699460938
 10
119.9988467648
 20
61.8640749294
  0
LINE
  5
158
330
1F
100
AcDbEntity
  8
0
  6
Continuous
 62
     7
370
    25
100
AcDbLine
 10
119.9988467648
 20
61.669630485
 30
0.0
 11
119.9988467648
 21
61.8640749294
 31
0.0
  0
LWPOLYLINE
  5
159
330
1F
100
AcDbEntity
  8
0
  6
Continuous
 62
     7
370
    25
100
AcDbPolyline
 90
        9
 70
   128
 43
0.0
 10
134.4988467648
 20
51.169630485
 10
134.489239405
 20
51.2292414167
 10
134.4607865311
 20
51.2865615338
 10
134.414581571
 20
51.3393880562
 10
134.3524001554
 20
51.3856908904
 10
134.2766318813
 20
51.4236906443
 10
134.190188481
 20
51.4519270088
 10
134.0963919258
 20
51.4693148762
 10
133.9988467648
 20
51.4751860405
  0
LINE
  5
15A
330
1F
100
AcDbEntity
  8
0
  6
Continuous
 62
     7
370
    25
100
AcDbLine
 10
119.9988467648
 20
61.8640749294
 30
0.0
 11
133.9988467648
 21
61.8640749294
 31
0.0
  0
SPLINE
  5
15B
330
1F
100
AcDbEntity
  8
0
  6
Continuous
 62
     7
370
    25
100
AcDbSpline
210
0.0
220
0.0
230
1.0
 70
    11
 71
     3
 72
    26
 73
    22
 74
     0
 42
0.00000001
 43
0.00000001
 40
0.0
 40
0.0
 40
0.0
 40
0.0
 40
0.125
 40
0.125
 40
0.1875
 40
0.1875
 40
0.25
 40
0.25
 40
0.3125
 40
0.3125
 40
0.375
 40
0.375
 40
0.5
 40
0.5
 40
0.625
 40
0.625
 40
0.75
 40
0.75
 40
0.875
 40
0.875
 40
1.0
 40
1.0
 40
1.0
 40
1.0
 10
127.5121657336658
 20
64.66963048498845
 30
0.0
 10
127.5121657336658
 20
64.80874951621726
 30
0.0
 10
127.4593697625168
 20
64.94447721919275
 30
0.0
 10
127.3179141726395
 20
65.09749595568852
 30
0.0
 10
127.2613602362676
 20
65.13899885670905
 30
0.0
 10
127.1358160848242
 20
65.19619875050275
 30
0.0
 10
127.0666644717162
 20
65.21148273924707
 30
0.0
 10
126.9295060969727
 20
65.21126186548342
 30
0.0
 10
126.8603915141666
 20
65.19570180419578
 30
0.0
 10
126.7356317455355
 20
65.13849596970175
 30
0.0
 10
126.679000657201
 20
65.0967445424348
 30
0.0
 10
126.5388870306781
 20
64.94490367415136
 30
0.0
 10
126.4855664967315
 20
64.8088513468835
 30
0.0
 10
126.4854891381554
 20
64.53071865318013
 30
0.0
 10
126.5391775201771
 20
64.39391664316014
 30
0.0
 10
126.7258723344848
 20
64.1918478394951
 30
0.0
 10
126.8617535438483
 20
64.12767807980954
 30
0.0
 10
127.1373846778868
 20
64.12809913261054
 30
0.0
 10
127.2723597163005
 20
64.19236781503386
 30
0.0
 10
127.4582071933665
 20
64.393645366258
 30
0.0
 10
127.5121657336658
 20
64.53051145375963
 30
0.0
 10
127.5121657336658
 20
64.66963048498845
 30
0.0
  0
SPLINE
  5
15C
330
1F
100
AcDbEntity
  8
0
  6
Continuous
 62
     7
370
    25
100
AcDbSpline
210
0.0
220
0.0
230
1.0
 70
    11
 71
     3
 72
    38
 73
    34
 74
     0
 42
0.00000001
 43
0.00000001
 40
0.0
 40
0.0
 40
0.0
 40
0.0
 40
0.0625
 40
0.0625
 40
0.125
 40
0.125
 40
0.1874999999999999
 40
0.1874999999999999
 40
0.2499999999999999
 40
0.2499999999999999
 40
0.3125
 40
0.3125
 40
0.375
 40
0.375
 40
0.4375000000000001
 40
0.4375000000000001
 40
0.5000000000000001
 40
0.5000000000000001
 40
0.5625000000000001
 40
0.5625000000000001
 40
0.6250000000000001
 40
0.6250000000000001
 40
0.6875000000000001
 40
0.6875000000000001
 40
0.75
 40
0.75
 40
0.8125
 40
0.8125
 40
0.875
 40
0.875
 40
0.9375
 40
0.9375
 40
1.0
 40
1.0
 40
1.0
 40
1.0
 10
125.9988467648174
 20
64.66963048498843
 30
0.0
 10
125.9988467648174
 20
64.53724457007813
 30
0.0
 10
126.0249953159602
 20
64.40735724359944
 30
0.0
 10
126.125460985418
 20
64.16527824901357
 30
0.0
 10
126.1997458518146
 20
64.05449689495754
 30
0.0
 10
126.3838950315493
 20
63.87038961485178
 30
0.0
 10
126.4952706541435
 20
63.79592094355578
 30
0.0
 10
126.7358191586774
 20
63.69609376742709
 30
0.0
 10
126.8675770546648
 20
63.66970584735378
 30
0.0
 10
127.1289657468288
 20
63.66955545366695
 30
0.0
 10
127.2601378174204
 20
63.69549527407699
 30
0.0
 10
127.5025755034201
 20
63.79586290650227
 30
0.0
 10
127.6126296715697
 20
63.8692518096475
 30
0.0
 10
127.7988829889806
 20
64.05540127647704
 30
0.0
 10
127.8723093168737
 20
64.16543979387704
 30
0.0
 10
127.9726740645026
 20
64.40732251096571
 30
0.0
 10
127.9987953287988
 20
64.53859702947703
 30
0.0
 10
127.9988980462841
 20
64.79987767884955
 30
0.0
 10
127.9726544181904
 20
64.93169308236247
 30
0.0
 10
127.8729860613922
 20
65.17248100044395
 30
0.0
 10
127.7987052694237
 20
65.28381320184194
 30
0.0
 10
127.6145185289901
 20
65.46834339703696
 30
0.0
 10
127.5040949549275
 20
65.54252972631072
 30
0.0
 10
127.2617102396875
 20
65.64335098528089
 30
0.0
 10
127.1317860601212
 20
65.66952521458593
 30
0.0
 10
126.8674959506042
 20
65.66973512457282
 30
0.0
 10
126.7372621919422
 20
65.64364740220965
 30
0.0
 10
126.4953695207715
 20
65.54349895823105
 30
0.0
 10
126.3843535953649
 20
65.46921266306589
 30
0.0
 10
126.2001858593849
 20
65.28532056362911
 30
0.0
 10
126.1255871878827
 20
65.17399041307509
 30
0.0
 10
126.0255363743376
 20
64.93350187326647
 30
0.0
 10
125.9988467648174
 20
64.80201639989875
 30
0.0
 10
125.9988467648174
 20
64.66963048498843
 30
0.0
  0
LINE
  5
15D
330
1F
100
AcDbEntity
  8
0
  6
Continuous
 62
     7
370
    25
100
AcDbLine
 10
145.6438987054
 20
56.669630485
 30
0.0
 11
145.6438987054
 21
51.8873508581
 31
0.0
  0
LINE
  5
15E
330
1F
100
AcDbEntity
  8
0
  6
Continuous
 62
     7
370
    25
100
AcDbLine
 10
145.6438987054
 20
61.4519101118
 30
0.0
 11
145.6438987054
 21
56.669630485
 31
0.0
  0
LINE
  5
15F
330
1F
100
AcDbEntity
  8
0
  6
Continuous
 62
     7
370
    25
100
AcDbLine
 10
146.9988467648
 20
60.669630485
 30
0.0
 11
146.9988467648
 21
52.669630485
 31
0.0
  0
LINE
  5
160
330
1F
100
AcDbEntity
  8
0
  6
Continuous
 62
     7
370
    25
100
AcDbLine
 10
133.9988467648
 20
61.8640749294
 30
0.0
 11
133.9988467648
 21
65.169630485
 31
0.0
  0
LINE
  5
161
330
1F
100
AcDbEntity
  8
0
  6
Continuous
 62
     7
370
    25
100
AcDbLine
 10
119.9988467648
 20
51.4751860405
 30
0.0
 11
119.9988467648
 21
48.169630485
 31
0.0
  0
LINE
  5
162
330
1F
100
AcDbEntity
  8
0
  6
Continuous
 62
     7
370
    25
100
AcDbLine
 10
119.9988467648
 20
65.169630485
 30
0.0
 11
119.9988467648
 21
61.8640749294
 31
0.0
  0
LINE
  5
163
330
1F
100
AcDbEntity
  8
0
  6
Continuous
 62
     7
370
    25
100
AcDbLine
 10
133.9988467648
 20
48.169630485
 30
0.0
 11
133.9988467648
 21
51.4751860405
 31
0.0
  0
SPLINE
  5
164
330
1F
100
AcDbEntity
  8
0
  6
Continuous
 62
     7
370
    25
100
AcDbSpline
210
0.0
220
0.0
230
1.0
 70
     8
 71
     3
 72
    32
 73
    28
 74
     0
 42
0.00000001
 43
0.00000001
 40
0.0
 40
0.0
 40
0.0
 40
0.0
 40
0.0401450235848357
 40
0.0814946510747366
 40
0.1230108374273918
 40
0.1655335881087852
 40
0.213102689944118
 40
0.2616869956899938
 40
0.3186512837064658
 40
0.3479268696243464
 40
0.3771976325562726
 40
0.4187548087056146
 40
0.4612652019558922
 40
0.5031787598671369
 40
0.5464778200637773
 40
0.5837150053189375
 40
0.6216789039917089
 40
0.649608003238977
 40
0.6775412817538382
 40
0.7348752066615024
 40
0.7907587055724206
 40
0.8195305177303107
 40
0.848297267517085
 40
0.8930422512982819
 40
0.939068727387773
 40
0.9835429316127413
 40
1.0
 40
1.0
 40
1.0
 40
1.0
 10
133.3988467648174
 20
65.16963048498845
 30
0.0
 10
133.387527954449
 20
65.1620118030062
 30
0.0
 10
133.3645506980127
 20
65.14654583053066
 30
0.0
 10
133.1798742655162
 20
65.02332655429375
 30
0.0
 10
132.8892944930699
 20
64.83330262123533
 30
0.0
 10
132.4783542042062
 20
64.57276788051635
 30
0.0
 10
131.9457222698316
 20
64.25096358621511
 30
0.0
 10
131.257277545945
 20
63.8651039512578
 30
0.0
 10
130.5653215932362
 20
63.52093543492149
 30
0.0
 10
129.9194029842641
 20
63.24689354709996
 30
0.0
 10
129.3292169584
 20
63.02980711895226
 30
0.0
 10
128.6213242107137
 20
62.82425797146431
 30
0.0
 10
127.7912272074755
 20
62.67482028543149
 30
0.0
 10
126.9244323494299
 20
62.62723740076909
 30
0.0
 10
126.0953545368393
 20
62.6907056417569
 30
0.0
 10
125.319612277593
 20
62.840931146006
 30
0.0
 10
124.6762954108501
 20
63.02834025907875
 30
0.0
 10
124.121443993342
 20
63.23027498060507
 30
0.0
 10
123.4847145679687
 20
63.4967064437384
 30
0.0
 10
122.7546137752953
 20
63.85613300106633
 30
0.0
 10
122.115735098756
 20
64.21509945276881
 30
0.0
 10
121.6721261626672
 20
64.48024234061594
 30
0.0
 10
121.3171956369399
 20
64.69999065252965
 30
0.0
 10
120.9738736546231
 20
64.9205411096758
 30
0.0
 10
120.7172159441334
 20
65.09015730117102
 30
0.0
 10
120.5941377712463
 20
65.17278723760016
 30
0.0
 10
120.6117649298351
 20
65.16096203342566
 30
0.0
 10
120.6165258898796
 20
65.15776813667202
 30
0.0
  0
SPLINE
  5
165
330
1F
100
AcDbEntity
  8
0
  6
Continuous
 62
     7
370
    25
100
AcDbSpline
210
0.0
220
0.0
230
1.0
 70
     8
 71
     3
 72
    32
 73
    28
 74
     0
 42
0.00000001
 43
0.00000001
 40
0.0
 40
0.0
 40
0.0
 40
0.0
 40
0.0148226906036682
 40
0.0619098642308409
 40
0.1074419255042471
 40
0.1543358594329049
 40
0.1825981532980893
 40
0.2108647534549358
 40
0.269025937927718
 40
0.3246070981579416
 40
0.3531531900241042
 40
0.3816927019323053
 40
0.417990153431658
 40
0.4550296659437938
 40
0.4953226362402816
 40
0.5372317715994346
 40
0.5776049808321277
 40
0.6191596213353763
 40
0.6475096399520572
 40
0.6758659597953307
 40
0.7341701314178916
 40
0.7822939425002002
 40
0.8313627427680195
 40
0.8736469360376942
 40
0.9168681617688612
 40
0.9578489936169663
 40
1.0
 40
1.0
 40
1.0
 40
1.0
 10
121.1133524670262
 20
65.65845145714344
 30
0.0
 10
121.1094084713504
 20
65.66149069678605
 30
0.0
 10
121.0929356026017
 20
65.67418467513787
 30
0.0
 10
121.2037094889665
 20
65.58873202351269
 30
0.0
 10
121.4411421958536
 20
65.40849241869554
 30
0.0
 10
121.7539602210401
 20
65.17749649337183
 30
0.0
 10
122.0790825642314
 20
64.94619830910665
 30
0.0
 10
122.4851714039295
 20
64.66694242403007
 30
0.0
 10
123.0673969891739
 20
64.2902466256705
 30
0.0
 10
123.7431881661788
 20
63.90713683860717
 30
0.0
 10
124.3297610157698
 20
63.62332159688154
 30
0.0
 10
124.8450223663407
 20
63.4071861033286
 30
0.0
 10
125.4425218162805
 20
63.20631870682784
 30
0.0
 10
126.1486107853117
 20
63.04783216190704
 30
0.0
 10
126.919984426462
 20
62.97773550398605
 30
0.0
 10
127.7168335627345
 20
63.0260363337157
 30
0.0
 10
128.4927735260968
 20
63.18573843277557
 30
0.0
 10
129.1416691614683
 20
63.40184028234511
 30
0.0
 10
129.6827168825378
 20
63.63010721481105
 30
0.0
 10
130.2804192367161
 20
63.92032328225692
 30
0.0
 10
130.9177656597505
 20
64.28422424336298
 30
0.0
 10
131.5571624708452
 20
64.69549150080128
 30
0.0
 10
132.0452059326878
 20
65.0340789825376
 30
0.0
 10
132.4270270564498
 20
65.31196267848432
 30
0.0
 10
132.6933463111814
 20
65.51197173747485
 30
0.0
 10
132.8661229477191
 20
65.64432688590163
 30
0.0
 10
132.8878369427812
 20
65.66111717121507
 30
0.0
 10
132.8988467648174
 20
65.66963048498845
 30
0.0
  0
LINE
  5
166
330
1F
100
AcDbEntity
  8
FORMAT
100
AcDbLine
 10
146.6185908213
 20
52.4500896136
 30
0.0
 11
137.4988467648
 21
52.1650976118
 31
0.0
  0
LINE
  5
167
330
1F
100
AcDbEntity
  8
FORMAT
100
AcDbLine
 10
146.6185908213
 20
60.8891713564
 30
0.0
 11
137.4988467648
 21
61.1741633581
 31
0.0
  0
LINE
  5
168
330
1F
100
AcDbEntity
  8
FORMAT
100
AcDbLine
 10
137.4988467648
 20
61.706442985
 30
0.0
 11
137.4988467648
 21
51.632817985
 31
0.0
  0
LINE
  5
169
330
1F
100
AcDbEntity
  8
FORMAT
  6
CENTERX2
370
    18
100
AcDbLine
 10
91.9463256253
 20
56.669630485
 30
0.0
 11
147.6438987054
 21
56.669630485
 31
0.0
  0
LINE
  5
16A
330
1F
100
AcDbEntity
  8
FORMAT
  6
CENTERX2
370
    18
100
AcDbLine
 10
126.9988467648
 20
85.5731383654
 30
0.0
 11
126.9988467648
 21
46.6681919611
 31
0.0
  0
ARC
  5
16B
330
1F
100
AcDbEntity
  8
0
  6
Continuous
 62
     7
370
    25
100
AcDbCircle
 10
180.0882880452
 20
83.769630485
 30
0.0
 40
0.25
100
AcDbArc
 50
90.0
 51
180.0
  0
ARC
  5
16C
330
1F
100
AcDbEntity
  8
0
  6
Continuous
 62
     7
370
    25
100
AcDbCircle
 10
190.5882880452
 20
83.769630485
 30
0.0
 40
0.25
100
AcDbArc
 50
0.0
 51
90.0
  0
LINE
  5
16D
330
1F
100
AcDbEntity
  8
0
  6
Continuous
 62
     7
370
    25
100
AcDbLine
 10
190.8382880452
 20
83.169630485
 30
0.0
 11
190.8382880452
 21
83.769630485
 31
0.0
  0
LINE
  5
16E
330
1F
100
AcDbEntity
  8
0
  6
Continuous
 62
     7
370
    25
100
AcDbLine
 10
179.8382880452
 20
83.769630485
 30
0.0
 11
179.8382880452
 21
83.169630485
 31
0.0
  0
LINE
  5
16F
330
1F
100
AcDbEntity
  8
0
  6
Continuous
 62
     7
370
    25
100
AcDbLine
 10
177.8882880452
 20
75.169630485
 30
0.0
 11
178.3382880452
 21
67.169630485
 31
0.0
  0
LINE
  5
170
330
1F
100
AcDbEntity
  8
0
  6
Continuous
 62
     7
370
    25
100
AcDbLine
 10
192.3382880452
 20
67.169630485
 30
0.0
 11
192.7882880452
 21
75.169630485
 31
0.0
  0
LINE
  5
171
330
1F
100
AcDbEntity
  8
0
  6
Continuous
 62
     7
370
    25
100
AcDbLine
 10
192.7882880452
 20
75.169630485
 30
0.0
 11
190.8382880452
 21
83.169630485
 31
0.0
  0
LINE
  5
172
330
1F
100
AcDbEntity
  8
0
  6
Continuous
 62
     7
370
    25
100
AcDbLine
 10
179.8382880452
 20
83.169630485
 30
0.0
 11
177.8882880452
 21
75.169630485
 31
0.0
  0
LINE
  5
173
330
1F
100
AcDbEntity
  8
0
  6
Continuous
 62
     7
370
    25
100
AcDbLine
 10
191.2382880452
 20
64.7436629348
 30
0.0
 11
191.2382880452
 21
67.169630485
 31
0.0
  0
LINE
  5
174
330
1F
100
AcDbEntity
  8
0
  6
Continuous
 62
     7
370
    25
100
AcDbLine
 10
179.4382880452
 20
67.169630485
 30
0.0
 11
179.4382880452
 21
65.6677241553
 31
0.0
  0
ARC
  5
175
330
1F
100
AcDbEntity
  8
0
  6
Continuous
 62
     7
370
    25
100
AcDbCircle
 10
179.6382880452
 20
65.2113729153
 30
0.0
 40
0.4999999999999851
100
AcDbArc
 50
113.6449780875
 51
180.007858636
  0
LINE
  5
176
330
1F
100
AcDbEntity
  8
0
  6
Continuous
 62
     7
370
    25
100
AcDbLine
 10
186.5882880452
 20
83.169630485
 30
0.0
 11
186.5882880452
 21
83.769630485
 31
0.0
  0
LINE
  5
177
330
1F
100
AcDbEntity
  8
0
  6
Continuous
 62
     7
370
    25
100
AcDbLine
 10
184.0882880452
 20
83.169630485
 30
0.0
 11
186.5882880452
 21
83.169630485
 31
0.0
  0
LINE
  5
178
330
1F
100
AcDbEntity
  8
0
  6
Continuous
 62
     7
370
    25
100
AcDbLine
 10
184.0882880452
 20
83.769630485
 30
0.0
 11
184.0882880452
 21
83.169630485
 31
0.0
  0
LINE
  5
179
330
1F
100
AcDbEntity
  8
0
  6
Continuous
 62
     7
370
    25
100
AcDbLine
 10
186.5882880452
 20
83.769630485
 30
0.0
 11
184.0882880452
 21
83.769630485
 31
0.0
  0
LINE
  5
17A
330
1F
100
AcDbEntity
  8
0
  6
Continuous
 62
     7
370
    25
100
AcDbLine
 10
186.5882880452
 20
83.769630485
 30
0.0
 11
186.8382880452
 21
83.769630485
 31
0.0
  0
LINE
  5
17B
330
1F
100
AcDbEntity
  8
0
  6
Continuous
 62
     7
370
    25
100
AcDbLine
 10
186.8382880452
 20
83.769630485
 30
0.0
 11
186.8382880452
 21
83.169630485
 31
0.0
  0
LINE
  5
17C
330
1F
100
AcDbEntity
  8
0
  6
Continuous
 62
     7
370
    25
100
AcDbLine
 10
186.8382880452
 20
83.169630485
 30
0.0
 11
186.5882880452
 21
83.169630485
 31
0.0
  0
LINE
  5
17D
330
1F
100
AcDbEntity
  8
0
  6
Continuous
 62
     7
370
    25
100
AcDbLine
 10
183.8382880452
 20
83.169630485
 30
0.0
 11
183.8382880452
 21
83.769630485
 31
0.0
  0
LINE
  5
17E
330
1F
100
AcDbEntity
  8
0
  6
Continuous
 62
     7
370
    25
100
AcDbLine
 10
183.8382880452
 20
83.769630485
 30
0.0
 11
184.0882880452
 21
83.769630485
 31
0.0
  0
LINE
  5
17F
330
1F
100
AcDbEntity
  8
0
  6
Continuous
 62
     7
370
    25
100
AcDbLine
 10
184.0882880452
 20
83.169630485
 30
0.0
 11
183.8382880452
 21
83.169630485
 31
0.0
  0
ARC
  5
180
330
1F
100
AcDbEntity
  8
0
  6
Continuous
 62
     7
370
    25
100
AcDbCircle
 10
184.0882880452
 20
83.769630485
 30
0.0
 40
0.25
100
AcDbArc
 50
90.0
 51
180.0
  0
LINE
  5
181
330
1F
100
AcDbEntity
  8
0
  6
Continuous
 62
     7
370
    25
100
AcDbLine
 10
184.0882880452
 20
84.019630485
 30
0.0
 11
184.0882880452
 21
83.769630485
 31
0.0
  0
LINE
  5
182
330
1F
100
AcDbEntity
  8
0
  6
Continuous
 62
     7
370
    25
100
AcDbLine
 10
186.5882880452
 20
83.769630485
 30
0.0
 11
186.5882880452
 21
84.019630485
 31
0.0
  0
LINE
  5
183
330
1F
100
AcDbEntity
  8
0
  6
Continuous
 62
     7
370
    25
100
AcDbLine
 10
184.0882880452
 20
84.019630485
 30
0.0
 11
186.5882880452
 21
84.019630485
 31
0.0
  0
ARC
  5
184
330
1F
100
AcDbEntity
  8
0
  6
Continuous
 62
     7
370
    25
100
AcDbCircle
 10
186.5882880452
 20
83.769630485
 30
0.0
 40
0.25
100
AcDbArc
 50
0.0
 51
90.0
  0
SPLINE
  5
185
330
1F
100
AcDbEntity
  8
0
  6
Continuous
 62
     7
370
    25
100
AcDbSpline
210
0.0
220
0.0
230
1.0
 70
     8
 71
     3
 72
    15
 73
    11
 74
     0
 42
0.00000001
 43
0.00000001
 40
0.0
 40
0.0
 40
0.0
 40
0.0
 40
0.0090459071881971
 40
0.1032433785236876
 40
0.1542564497735193
 40
0.3133169026715104
 40
0.524372039941443
 40
0.6678060008509185
 40
0.9918332554187027
 40
1.0
 40
1.0
 40
1.0
 40
1.0
 10
183.664375001732
 20
83.76963048498844
 30
0.0
 10
183.6643926474565
 20
83.77131158357285
 30
0.0
 10
183.664594042869
 20
83.79049841512838
 30
0.0
 10
183.6707836635352
 20
83.81919269464835
 30
0.0
 10
183.6949855953793
 20
83.86986873462031
 30
0.0
 10
183.748004587381
 20
83.92774503419722
 30
0.0
 10
183.8293754745776
 20
83.97261054893187
 30
0.0
 10
183.9439545466001
 20
84.00997293218641
 30
0.0
 10
184.0283797243192
 20
84.01951894445594
 30
0.0
 10
184.0868505822712
 20
84.01962780864267
 30
0.0
 10
184.0882880452102
 20
84.01963048498844
 30
0.0
  0
LINE
  5
186
330
1F
100
AcDbEntity
  8
0
  6
Continuous
 62
     7
370
    25
100
AcDbLine
 10
183.6643750017
 20
83.769630485
 30
0.0
 11
183.8382880452
 21
83.769630485
 31
0.0
  0
LINE
  5
187
330
1F
100
AcDbEntity
  8
0
  6
Continuous
 62
     7
370
    25
100
AcDbLine
 10
186.8382880452
 20
83.769630485
 30
0.0
 11
187.0122010887
 21
83.769630485
 31
0.0
  0
SPLINE
  5
188
330
1F
100
AcDbEntity
  8
0
  6
Continuous
 62
     7
370
    25
100
AcDbSpline
210
0.0
220
0.0
230
1.0
 70
     8
 71
     3
 72
    15
 73
    11
 74
     0
 42
0.00000001
 43
0.00000001
 40
0.0
 40
0.0
 40
0.0
 40
0.0
 40
0.0081667445812695
 40
0.3321939991490082
 40
0.4756279600585602
 40
0.6866830973284899
 40
0.845743550226481
 40
0.8967566214763184
 40
0.9909540928118028
 40
1.0
 40
1.0
 40
1.0
 40
1.0
 10
186.5882880452102
 20
84.01963048498844
 30
0.0
 10
186.5897255081493
 20
84.01962780864267
 30
0.0
 10
186.648196366101
 20
84.01951894445591
 30
0.0
 10
186.7326215438205
 20
84.00997293218643
 30
0.0
 10
186.8472006158429
 20
83.97261054893187
 30
0.0
 10
186.9285715030395
 20
83.92774503419722
 30
0.0
 10
186.9815904950412
 20
83.86986873462027
 30
0.0
 10
187.0057924268853
 20
83.81919269464838
 30
0.0
 10
187.0119820475515
 20
83.79049841512833
 30
0.0
 10
187.012183442964
 20
83.77131158357287
 30
0.0
 10
187.0122010886885
 20
83.76963048498845
 30
0.0
  0
LINE
  5
189
330
1F
100
AcDbEntity
  8
0
  6
Continuous
 62
     7
370
    25
100
AcDbLine
 10
187.0122010887
 20
83.769630485
 30
0.0
 11
187.0122010887
 21
83.169630485
 31
0.0
  0
LINE
  5
18A
330
1F
100
AcDbEntity
  8
0
  6
Continuous
 62
     7
370
    25
100
AcDbLine
 10
187.0122010887
 20
83.169630485
 30
0.0
 11
186.8382880452
 21
83.169630485
 31
0.0
  0
LINE
  5
18B
330
1F
100
AcDbEntity
  8
0
  6
Continuous
 62
     7
370
    25
100
AcDbLine
 10
183.6643750017
 20
83.169630485
 30
0.0
 11
183.6643750017
 21
83.769630485
 31
0.0
  0
LINE
  5
18C
330
1F
100
AcDbEntity
  8
0
  6
Continuous
 62
     7
370
    25
100
AcDbLine
 10
183.8382880452
 20
83.169630485
 30
0.0
 11
183.6643750017
 21
83.169630485
 31
0.0
  0
LINE
  5
18D
330
1F
100
AcDbEntity
  8
0
  6
Continuous
 62
     7
370
    25
100
AcDbLine
 10
180.0882880452
 20
84.019630485
 30
0.0
 11
184.0882880452
 21
84.019630485
 31
0.0
  0
LINE
  5
18E
330
1F
100
AcDbEntity
  8
0
  6
Continuous
 62
     7
370
    25
100
AcDbLine
 10
186.5882880452
 20
84.019630485
 30
0.0
 11
190.5882880452
 21
84.019630485
 31
0.0
  0
LINE
  5
18F
330
1F
100
AcDbEntity
  8
0
  6
Continuous
 62
     7
370
    25
100
AcDbLine
 10
187.0122010887
 20
83.169630485
 30
0.0
 11
190.8382880452
 21
83.169630485
 31
0.0
  0
LINE
  5
190
330
1F
100
AcDbEntity
  8
0
  6
Continuous
 62
     7
370
    25
100
AcDbLine
 10
179.8382880452
 20
83.169630485
 30
0.0
 11
183.6643750017
 21
83.169630485
 31
0.0
  0
LINE
  5
191
330
1F
100
AcDbEntity
  8
0
  6
Continuous
 62
     7
370
    25
100
AcDbLine
 10
184.7382880452
 20
84.029630485
 30
0.0
 11
185.9382880452
 21
84.029630485
 31
0.0
  0
LINE
  5
192
330
1F
100
AcDbEntity
  8
0
  6
Continuous
 62
     7
370
    25
100
AcDbLine
 10
185.9382880452
 20
84.019630485
 30
0.0
 11
185.9382880452
 21
84.029630485
 31
0.0
  0
LINE
  5
193
330
1F
100
AcDbEntity
  8
0
  6
Continuous
 62
     7
370
    25
100
AcDbLine
 10
184.7382880452
 20
84.019630485
 30
0.0
 11
184.7382880452
 21
84.029630485
 31
0.0
  0
LINE
  5
194
330
1F
100
AcDbEntity
  8
0
  6
Continuous
 62
     7
370
    25
100
AcDbLine
 10
178.3382880452
 20
67.169630485
 30
0.0
 11
192.3382880452
 21
67.169630485
 31
0.0
  0
LINE
  5
195
330
1F
100
AcDbEntity
  8
0
  6
Continuous
 62
     7
370
    25
100
AcDbLine
 10
177.8882880452
 20
75.169630485
 30
0.0
 11
192.7882880452
 21
75.169630485
 31
0.0
  0
LINE
  5
196
330
1F
100
AcDbEntity
  8
0
  6
Continuous
 62
     7
370
    25
100
AcDbLine
 10
181.8382880452
 20
85.169630485
 30
0.0
 11
181.8382880452
 21
84.019630485
 31
0.0
  0
LINE
  5
197
330
1F
100
AcDbEntity
  8
0
  6
Continuous
 62
     7
370
    25
100
AcDbLine
 10
181.8382880452
 20
85.169630485
 30
0.0
 11
182.0665887812
 21
85.169630485
 31
0.0
  0
LINE
  5
198
330
1F
100
AcDbEntity
  8
0
  6
Continuous
 62
     7
370
    25
100
AcDbLine
 10
182.0665887812
 20
85.169630485
 30
0.0
 11
182.0665887812
 21
84.019630485
 31
0.0
  0
LINE
  5
199
330
1F
100
AcDbEntity
  8
0
  6
Continuous
 62
     7
370
    25
100
AcDbLine
 10
188.6099873093
 20
85.169630485
 30
0.0
 11
188.6099873093
 21
84.019630485
 31
0.0
  0
LINE
  5
19A
330
1F
100
AcDbEntity
  8
0
  6
Continuous
 62
     7
370
    25
100
AcDbLine
 10
188.6099873093
 20
85.169630485
 30
0.0
 11
188.8382880452
 21
85.169630485
 31
0.0
  0
LINE
  5
19B
330
1F
100
AcDbEntity
  8
0
  6
Continuous
 62
     7
370
    25
100
AcDbLine
 10
188.8382880452
 20
84.019630485
 30
0.0
 11
188.8382880452
 21
85.169630485
 31
0.0
  0
LINE
  5
19C
330
1F
100
AcDbEntity
  8
0
  6
Continuous
 62
     7
370
    25
100
AcDbLine
 10
182.0665887812
 20
85.169630485
 30
0.0
 11
188.6099873093
 21
85.169630485
 31
0.0
  0
CIRCLE
  5
19D
330
1F
100
AcDbEntity
  8
0
  6
Continuous
 62
     7
370
    25
100
AcDbCircle
 10
185.3382880452
 20
56.669630485
 30
0.0
 40
2.900000000000006
  0
CIRCLE
  5
19E
330
1F
100
AcDbEntity
  8
0
  6
Continuous
 62
     7
370
    25
100
AcDbCircle
 10
185.3382880452
 20
56.669630485
 30
0.0
 40
4.782279626857616
  0
CIRCLE
  5
19F
330
1F
100
AcDbEntity
  8
0
  6
Continuous
 62
     7
370
    25
100
AcDbCircle
 10
185.3382880452
 20
56.669630485
 30
0.0
 40
4.0
  0
CIRCLE
  5
1A0
330
1F
100
AcDbEntity
  8
0
  6
Continuous
 62
     7
370
    25
100
AcDbCircle
 10
185.3382880452
 20
56.669630485
 30
0.0
 40
3.200000000000017
  0
CIRCLE
  5
1A1
330
1F
100
AcDbEntity
  8
0
  6
Continuous
 62
     7
370
    25
100
AcDbCircle
 10
185.3382880452
 20
56.669630485
 30
0.0
 40
3.0
  0
CIRCLE
  5
1A2
330
1F
100
AcDbEntity
  8
0
  6
Continuous
 62
     7
370
    25
100
AcDbCircle
 10
185.3382880452
 20
56.669630485
 30
0.0
 40
5.052437500000025
  0
CIRCLE
  5
1A3
330
1F
100
AcDbEntity
  8
0
  6
Continuous
 62
     7
370
    25
100
AcDbCircle
 10
185.3382880452
 20
56.669630485
 30
0.0
 40
9.999999999999972
  0
CIRCLE
  5
1A4
330
1F
100
AcDbEntity
  8
0
  6
Continuous
 62
     7
370
    25
100
AcDbCircle
 10
185.3382880452
 20
56.669630485
 30
0.0
 40
9.5
  0
SPLINE
  5
1A5
330
1F
100
AcDbEntity
  8
0
  6
Continuous
 62
     7
370
    25
100
AcDbSpline
210
0.0
220
0.0
230
1.0
 70
     8
 71
     3
 72
    13
 73
     9
 74
     0
 42
0.00000001
 43
0.00000001
 40
0.0
 40
0.0
 40
0.0
 40
0.0
 40
0.0709002556126979
 40
0.2985326187209611
 40
0.5283503324641392
 40
0.7606230766495086
 40
0.9918193887712565
 40
0.9999999999999999
 40
0.9999999999999999
 40
0.9999999999999999
 40
0.9999999999999999
 10
179.5205563155977
 20
64.78062408157592
 30
0.0
 10
179.5204717635877
 20
64.81515306931308
 30
0.0
 10
179.5201157488916
 20
64.96054082626655
 30
0.0
 10
179.5010150319442
 20
65.20021501848775
 30
0.0
 10
179.4716878767103
 20
65.45968737979683
 30
0.0
 10
179.4469739230015
 20
65.61882599931324
 30
0.0
 10
179.4354358876142
 20
65.68688085158375
 30
0.0
 10
179.4384986957109
 20
65.66835719395077
 30
0.0
 10
179.4386033659605
 20
65.66772415531234
 30
0.0
  0
SPLINE
  5
1A6
330
1F
100
AcDbEntity
  8
0
  6
Continuous
 62
     7
370
    25
100
AcDbSpline
210
0.0
220
0.0
230
1.0
 70
    24
 71
     3
 72
    14
 73
    10
 74
     0
 42
0.00000001
 43
0.00000001
 40
0.0
 40
0.0
 40
0.0
 40
0.0
 40
0.0686782875714484
 40
0.293216909137959
 40
0.2935197863693179
 40
0.5073359099559678
 40
0.7069537562193142
 40
0.9001971037285486
 40
1.0
 40
1.0
 40
1.0
 40
1.0
 10
179.1382880452102
 20
64.66963048498928
 30
0.0
 10
179.1382880452102
 20
64.6884825862169
 30
0.0
 10
179.1382880452102
 20
64.76897024903123
 30
0.0
 10
179.1382880452102
 20
64.84865925537426
 30
0.0
 10
179.1382880452103
 20
64.95787097815057
 30
0.0
 10
179.1382880452102
 20
65.05456705866082
 30
0.0
 10
179.1382880452102
 20
65.15614960095097
 30
0.0
 10
179.1382880452102
 20
65.2097016704053
 30
0.0
 10
179.1382880452102
 20
65.20549486914042
 30
0.0
 10
179.1382880452102
 20
65.20406215686658
 30
0.0
  0
SPLINE
  5
1A7
330
1F
100
AcDbEntity
  8
0
  6
Continuous
 62
     7
370
    25
100
AcDbSpline
210
0.0
220
0.0
230
1.0
 70
    24
 71
     3
 72
     9
 73
     5
 74
     0
 42
0.00000001
 43
0.00000001
 40
0.0
 40
0.0
 40
0.0
 40
0.0
 40
0.3143288738672229
 40
1.0
 40
1.0
 40
1.0
 40
1.0
 10
179.1382880452102
 20
64.48420808197906
 30
0.0
 10
179.1382880452102
 20
64.50239135379614
 30
0.0
 10
179.1382880452102
 20
64.56023927464844
 30
0.0
 10
179.1382880452102
 20
64.62513402703814
 30
0.0
 10
179.1382880452102
 20
64.66963048498928
 30
0.0
  0
LINE
  5
1A8
330
1F
100
AcDbEntity
  8
0
  6
Continuous
 62
     7
370
    25
100
AcDbLine
 10
183.6643750017
 20
83.769630485
 30
0.0
 11
179.8382880452
 21
83.769630485
 31
0.0
  0
LINE
  5
1A9
330
1F
100
AcDbEntity
  8
0
  6
Continuous
 62
     7
370
    25
100
AcDbLine
 10
190.8382880452
 20
83.769630485
 30
0.0
 11
187.0122010887
 21
83.769630485
 31
0.0
  0
INSERT
  5
1B5
330
1F
100
AcDbEntity
  8
FORMAT
100
AcDbBlockReference
  2
SW_CENTERMARKSYMBOL_0
 10
185.3382880452
 20
56.669630485
 30
0.0
  0
LINE
  5
1B6
330
1F
100
AcDbEntity
  8
0
  6
Continuous
 62
     7
370
    25
100
AcDbLine
 10
98.1153720706
 20
119.1836027714
 30
0.0
 11
93.6469772901
 21
117.7317332966
 31
0.0
  0
LINE
  5
1B7
330
1F
100
AcDbEntity
  8
0
  6
Continuous
 62
     7
370
    25
100
AcDbLine
 10
93.6469772901
 20
104.6354722461
 30
0.0
 11
98.1153720706
 21
103.1836027714
 31
0.0
  0
LINE
  5
1B8
330
1F
100
AcDbEntity
  8
0
  6
Continuous
 62
     7
370
    25
100
AcDbLine
 10
110.8545091975
 20
103.1836027714
 30
0.0
 11
110.9988467648
 21
103.4336027714
 31
0.0
  0
LINE
  5
1B9
330
1F
100
AcDbEntity
  8
0
  6
Continuous
 62
     7
370
    25
100
AcDbLine
 10
110.9988467648
 20
118.9336027714
 30
0.0
 11
110.8545091975
 21
119.1836027714
 31
0.0
  0
LINE
  5
1BA
330
1F
100
AcDbEntity
  8
0
  6
Continuous
 62
     7
370
    25
100
AcDbLine
 10
93.6469772901
 20
117.7317332966
 30
0.0
 11
93.4988467648
 21
117.5836027714
 31
0.0
  0
LINE
  5
1BB
330
1F
100
AcDbEntity
  8
0
  6
Continuous
 62
     7
370
    25
100
AcDbLine
 10
93.4988467648
 20
104.7836027714
 30
0.0
 11
93.6469772901
 21
104.6354722461
 31
0.0
  0
LINE
  5
1BC
330
1F
100
AcDbEntity
  8
0
  6
Continuous
 62
     7
370
    25
100
AcDbLine
 10
116.8545091975
 20
102.6836027714
 30
0.0
 11
116.9988467648
 21
102.9336027714
 31
0.0
  0
LINE
  5
1BD
330
1F
100
AcDbEntity
  8
0
  6
Continuous
 62
     7
370
    25
100
AcDbLine
 10
116.9988467648
 20
119.4336027714
 30
0.0
 11
116.8545091975
 21
119.6836027714
 31
0.0
  0
LINE
  5
1BE
330
1F
100
AcDbEntity
  8
0
  6
Continuous
 62
     7
370
    25
100
AcDbLine
 10
111.1431843321
 20
119.6836027714
 30
0.0
 11
110.9988467648
 21
119.4336027714
 31
0.0
  0
LINE
  5
1BF
330
1F
100
AcDbEntity
  8
0
  6
Continuous
 62
     7
370
    25
100
AcDbLine
 10
110.9988467648
 20
102.9336027714
 30
0.0
 11
111.1431843321
 21
102.6836027714
 31
0.0
  0
LINE
  5
1C0
330
1F
100
AcDbEntity
  8
0
  6
Continuous
 62
     7
370
    25
100
AcDbLine
 10
136.4988467648
 20
101.1836027714
 30
0.0
 11
136.9988467648
 21
101.6836027714
 31
0.0
  0
LINE
  5
1C1
330
1F
100
AcDbEntity
  8
0
  6
Continuous
 62
     7
370
    25
100
AcDbLine
 10
136.9988467648
 20
120.6836027714
 30
0.0
 11
136.4988467648
 21
121.1836027714
 31
0.0
  0
LINE
  5
1C2
330
1F
100
AcDbEntity
  8
0
  6
Continuous
 62
     7
370
    25
100
AcDbLine
 10
136.4988467648
 20
121.1836027714
 30
0.0
 11
134.8808127761
 21
121.1836027714
 31
0.0
  0
LINE
  5
1C3
330
1F
100
AcDbEntity
  8
0
  6
Continuous
 62
     7
370
    25
100
AcDbLine
 10
134.8808127761
 20
101.1836027714
 30
0.0
 11
136.4988467648
 21
101.1836027714
 31
0.0
  0
LINE
  5
1C4
330
1F
100
AcDbEntity
  8
0
  6
Continuous
 62
     7
370
    25
100
AcDbLine
 10
117.2488467648
 20
121.1836027714
 30
0.0
 11
116.9988467648
 21
120.9336027714
 31
0.0
  0
LINE
  5
1C5
330
1F
100
AcDbEntity
  8
0
  6
Continuous
 62
     7
370
    25
100
AcDbLine
 10
116.9988467648
 20
101.4336027714
 30
0.0
 11
117.2488467648
 21
101.1836027714
 31
0.0
  0
ARC
  5
1C6
330
1F
100
AcDbEntity
  8
0
  6
Continuous
 62
     7
370
    25
100
AcDbCircle
 10
135.9988467648
 20
120.1836027714
 30
0.0
 40
1.500000000000014
100
AcDbArc
 50
138.1896851042
 51
180.0
  0
ARC
  5
1C7
330
1F
100
AcDbEntity
  8
0
  6
Continuous
 62
     7
370
    25
100
AcDbCircle
 10
135.9988467648
 20
102.1836027714
 30
0.0
 40
1.500000000000014
100
AcDbArc
 50
180.0
 51
221.8103148958
  0
ARC
  5
1C8
330
1F
100
AcDbEntity
  8
0
  6
Continuous
 62
     7
370
    25
100
AcDbCircle
 10
117.9988467648
 20
102.1836027714
 30
0.0
 40
1.500000000000004
100
AcDbArc
 50
318.1896851042
 51
0.0
  0
ARC
  5
1C9
330
1F
100
AcDbEntity
  8
0
  6
Continuous
 62
     7
370
    25
100
AcDbCircle
 10
117.9988467648
 20
120.1836027714
 30
0.0
 40
1.500000000000004
100
AcDbArc
 50
0.0
 51
41.8103148958
  0
LINE
  5
1CA
330
1F
100
AcDbEntity
  8
0
  6
Continuous
 62
     7
370
    25
100
AcDbLine
 10
117.2488467648
 20
101.1836027714
 30
0.0
 11
119.1168807536
 21
101.1836027714
 31
0.0
  0
LINE
  5
1CB
330
1F
100
AcDbEntity
  8
0
  6
Continuous
 62
     7
370
    25
100
AcDbLine
 10
119.1168807536
 20
121.1836027714
 30
0.0
 11
117.2488467648
 21
121.1836027714
 31
0.0
  0
LINE
  5
1CC
330
1F
100
AcDbEntity
  8
0
  6
Continuous
 62
     7
370
    25
100
AcDbLine
 10
136.9988467648
 20
106.1311652714
 30
0.0
 11
145.6438987054
 21
106.4013231445
 31
0.0
  0
LINE
  5
1CD
330
1F
100
AcDbEntity
  8
0
  6
Continuous
 62
     7
370
    25
100
AcDbLine
 10
145.6438987054
 20
115.9658823982
 30
0.0
 11
136.9988467648
 21
116.2360402714
 31
0.0
  0
LINE
  5
1CE
330
1F
100
AcDbEntity
  8
0
  6
Continuous
 62
     7
370
    25
100
AcDbLine
 10
145.6438987054
 20
106.4013231445
 30
0.0
 11
146.9988467648
 21
107.1836027714
 31
0.0
  0
LINE
  5
1CF
330
1F
100
AcDbEntity
  8
0
  6
Continuous
 62
     7
370
    25
100
AcDbLine
 10
146.9988467648
 20
115.1836027714
 30
0.0
 11
145.6438987054
 21
115.9658823982
 31
0.0
  0
SPLINE
  5
1D0
330
1F
100
AcDbEntity
  8
0
  6
Continuous
 62
     7
370
    25
100
AcDbSpline
210
0.0
220
0.0
230
1.0
 70
     8
 71
     3
 72
    15
 73
    11
 74
     0
 42
0.00000001
 43
0.00000001
 40
0.0
 40
0.0
 40
0.0
 40
0.0
 40
0.0081667445812695
 40
0.3321939991490082
 40
0.4756279600585602
 40
0.6866830973284899
 40
0.845743550226481
 40
0.8967566214763184
 40
0.9909540928118028
 40
1.0
 40
1.0
 40
1.0
 40
1.0
 10
132.0978662784102
 20
112.4336027713626
 30
0.0
 10
132.0983538125531
 20
112.4350402343016
 30
0.0
 10
132.1181849600851
 20
112.4935110922533
 30
0.0
 10
132.1464657400944
 20
112.5779362699728
 30
0.0
 10
132.1842950385832
 20
112.6925153419953
 30
0.0
 10
132.2108789351507
 20
112.7738862291919
 30
0.0
 10
132.2280487589057
 20
112.8269052211935
 30
0.0
 10
132.2358657551221
 20
112.8511071530377
 30
0.0
 10
132.237861441558
 20
112.8572967737039
 30
0.0
 10
132.2379264055088
 20
112.8574981691164
 30
0.0
 10
132.2379320974755
 20
112.8575158148409
 30
0.0
  0
ARC
  5
1D1
330
1F
100
AcDbEntity
  8
0
  6
Continuous
 62
     7
370
    25
100
AcDbCircle
 10
126.9988467648
 20
111.1836027714
 30
0.0
 40
5.250000000000005
100
AcDbArc
 50
13.774146998
 51
166.225853002
  0
SPLINE
  5
1D2
330
1F
100
AcDbEntity
  8
0
  6
Continuous
 62
     7
370
    25
100
AcDbSpline
210
0.0
220
0.0
230
1.0
 70
     8
 71
     3
 72
    15
 73
    11
 74
     0
 42
0.00000001
 43
0.00000001
 40
0.0
 40
0.0
 40
0.0
 40
0.0
 40
0.0090459071881971
 40
0.1032433785236875
 40
0.1542564497735191
 40
0.3133169026715106
 40
0.5243720399414421
 40
0.6678060008509898
 40
0.9918332554187291
 40
1.0
 40
1.0
 40
1.0
 40
1.0
 10
121.7597614321593
 20
112.8575158148408
 30
0.0
 10
121.7597671241259
 20
112.8574981691164
 30
0.0
 10
121.7598320880767
 20
112.8572967737038
 30
0.0
 10
121.7618277745126
 20
112.8511071530376
 30
0.0
 10
121.7696447707291
 20
112.8269052211935
 30
0.0
 10
121.786814594484
 20
112.7738862291918
 30
0.0
 10
121.8133984910515
 20
112.6925153419952
 30
0.0
 10
121.8512277895404
 20
112.5779362699728
 30
0.0
 10
121.8795085695496
 20
112.4935110922533
 30
0.0
 10
121.8993397170817
 20
112.4350402343016
 30
0.0
 10
121.8998272512246
 20
112.4336027713626
 30
0.0
  0
ARC
  5
1D3
330
1F
100
AcDbEntity
  8
0
  6
Continuous
 62
     7
370
    25
100
AcDbCircle
 10
126.9988467648
 20
111.1836027714
 30
0.0
 40
5.499999999999993
100
AcDbArc
 50
17.7189318734
 51
162.2810681266
  0
SPLINE
  5
1D4
330
1F
100
AcDbEntity
  8
0
  6
Continuous
 62
     7
370
    25
100
AcDbSpline
210
0.0
220
0.0
230
1.0
 70
     8
 71
     3
 72
    15
 73
    11
 74
     0
 42
0.00000001
 43
0.00000001
 40
0.0
 40
0.0
 40
0.0
 40
0.0
 40
0.0089557228015919
 40
0.0999003359608211
 40
0.1531632460581754
 40
0.3125636920784866
 40
0.524966693569506
 40
0.6689893599351767
 40
0.991915253381045
 40
1.0
 40
1.0
 40
1.0
 40
1.0
 10
121.5216211897657
 20
109.6836027713626
 30
0.0
 10
121.5216369453443
 20
109.6836135557257
 30
0.0
 10
121.5218126975009
 20
109.6837338543912
 30
0.0
 10
121.5272417135204
 20
109.6874523053093
 30
0.0
 10
121.5487771972277
 20
109.7021633463756
 30
0.0
 10
121.5964826254926
 20
109.7346122078342
 30
0.0
 10
121.6688735704845
 20
109.7831962481776
 30
0.0
 10
121.7707926825021
 20
109.8505667204459
 30
0.0
 10
121.8461477739572
 20
109.8993802851798
 30
0.0
 10
121.8985474196805
 20
109.9327868353743
 30
0.0
 10
121.8998272512246
 20
109.9336027713626
 30
0.0
  0
SPLINE
  5
1D5
330
1F
100
AcDbEntity
  8
0
  6
Continuous
 62
     7
370
    25
100
AcDbSpline
210
0.0
220
0.0
230
1.0
 70
     8
 71
     3
 72
    15
 73
    11
 74
     0
 42
0.00000001
 43
0.00000001
 40
0.0
 40
0.0
 40
0.0
 40
0.0
 40
0.0081667445812973
 40
0.3321939991490807
 40
0.4756279600585564
 40
0.6866830973284901
 40
0.8457435502264805
 40
0.8967566214763123
 40
0.9909540928118028
 40
0.9999999999999999
 40
0.9999999999999999
 40
0.9999999999999999
 40
0.9999999999999999
 10
121.8998272512246
 20
109.9336027713626
 30
0.0
 10
121.8993397170817
 20
109.9321653084235
 30
0.0
 10
121.8795085695505
 20
109.8736944504716
 30
0.0
 10
121.8512277895402
 20
109.7892692727524
 30
0.0
 10
121.8133984910516
 20
109.6746902007299
 30
0.0
 10
121.786814594484
 20
109.5933193135333
 30
0.0
 10
121.7696447707291
 20
109.5403003215317
 30
0.0
 10
121.7618277745126
 20
109.5160983896875
 30
0.0
 10
121.7598320880767
 20
109.5099087690213
 30
0.0
 10
121.7597671241259
 20
109.5097073736088
 30
0.0
 10
121.7597614321593
 20
109.5096897278843
 30
0.0
  0
ARC
  5
1D6
330
1F
100
AcDbEntity
  8
0
  6
Continuous
 62
     7
370
    25
100
AcDbCircle
 10
121.5216211898
 20
109.4336027714
 30
0.0
 40
0.2500000000000213
100
AcDbArc
 50
17.7189318734
 51
90.0
  0
SPLINE
  5
1D7
330
1F
100
AcDbEntity
  8
0
  6
Continuous
 62
     7
370
    25
100
AcDbSpline
210
0.0
220
0.0
230
1.0
 70
     8
 71
     3
 72
    15
 73
    11
 74
     0
 42
0.00000001
 43
0.00000001
 40
0.0
 40
0.0
 40
0.0
 40
0.0
 40
0.0090459071881971
 40
0.1032433785236876
 40
0.1542564497735193
 40
0.3133169026715104
 40
0.524372039941443
 40
0.6678060008509185
 40
0.9918332554187027
 40
1.0
 40
1.0
 40
1.0
 40
1.0
 10
132.2379320974755
 20
109.5096897278844
 30
0.0
 10
132.2379264055088
 20
109.5097073736088
 30
0.0
 10
132.237861441558
 20
109.5099087690214
 30
0.0
 10
132.2358657551221
 20
109.5160983896876
 30
0.0
 10
132.2280487589057
 20
109.5403003215317
 30
0.0
 10
132.2108789351507
 20
109.5933193135334
 30
0.0
 10
132.1842950385832
 20
109.6746902007299
 30
0.0
 10
132.1464657400946
 20
109.7892692727524
 30
0.0
 10
132.1181849600843
 20
109.8736944504716
 30
0.0
 10
132.098353812553
 20
109.9321653084236
 30
0.0
 10
132.0978662784102
 20
109.9336027713626
 30
0.0
  0
SPLINE
  5
1D8
330
1F
100
AcDbEntity
  8
0
  6
Continuous
 62
     7
370
    25
100
AcDbSpline
210
0.0
220
0.0
230
1.0
 70
     8
 71
     3
 72
    15
 73
    11
 74
     0
 42
0.00000001
 43
0.00000001
 40
0.0
 40
0.0
 40
0.0
 40
0.0
 40
0.0080847466189581
 40
0.3310106400648237
 40
0.4750333064304949
 40
0.6874363079215136
 40
0.8468367539418247
 40
0.900099664039179
 40
0.991044277198408
 40
1.0
 40
1.0
 40
1.0
 40
1.0
 10
132.0978662784102
 20
109.9336027713626
 30
0.0
 10
132.0991461099543
 20
109.9327868353743
 30
0.0
 10
132.1515457556775
 20
109.8993802851798
 30
0.0
 10
132.2269008471326
 20
109.850566720446
 30
0.0
 10
132.3288199591503
 20
109.7831962481776
 30
0.0
 10
132.4012109041422
 20
109.7346122078342
 30
0.0
 10
132.448916332407
 20
109.7021633463757
 30
0.0
 10
132.4704518161143
 20
109.6874523053094
 30
0.0
 10
132.4758808321339
 20
109.6837338543913
 30
0.0
 10
132.4760565842904
 20
109.6836135557258
 30
0.0
 10
132.4760723398691
 20
109.6836027713626
 30
0.0
  0
ARC
  5
1D9
330
1F
100
AcDbEntity
  8
0
  6
Continuous
 62
     7
370
    25
100
AcDbCircle
 10
132.4760723399
 20
109.4336027714
 30
0.0
 40
0.2500000000000213
100
AcDbArc
 50
90.0
 51
162.2810681266
  0
ARC
  5
1DA
330
1F
100
AcDbEntity
  8
0
  6
Continuous
 62
     7
370
    25
100
AcDbCircle
 10
121.5216211898
 20
112.9336027714
 30
0.0
 40
0.2500000000000169
100
AcDbArc
 50
270.0
 51
342.2810681266
  0
SPLINE
  5
1DB
330
1F
100
AcDbEntity
  8
0
  6
Continuous
 62
     7
370
    25
100
AcDbSpline
210
0.0
220
0.0
230
1.0
 70
     8
 71
     3
 72
    15
 73
    11
 74
     0
 42
0.00000001
 43
0.00000001
 40
0.0
 40
0.0
 40
0.0
 40
0.0
 40
0.0080847466189818
 40
0.3310106400647566
 40
0.4750333064305005
 40
0.6874363079215143
 40
0.846836753941831
 40
0.9000996640391852
 40
0.991044277198408
 40
1.0
 40
1.0
 40
1.0
 40
1.0
 10
121.8998272512246
 20
112.4336027713626
 30
0.0
 10
121.8985474196804
 20
112.4344187073509
 30
0.0
 10
121.8461477739566
 20
112.4678252575445
 30
0.0
 10
121.7707926825022
 20
112.5166388222794
 30
0.0
 10
121.6688735704844
 20
112.5840092945475
 30
0.0
 10
121.5964826254925
 20
112.632593334891
 30
0.0
 10
121.5487771972277
 20
112.6650421963495
 30
0.0
 10
121.5272417135204
 20
112.6797532374158
 30
0.0
 10
121.5218126975009
 20
112.6834716883339
 30
0.0
 10
121.5216369453443
 20
112.6835919869994
 30
0.0
 10
121.5216211897657
 20
112.6836027713626
 30
0.0
  0
ARC
  5
1DC
330
1F
100
AcDbEntity
  8
0
  6
Continuous
 62
     7
370
    25
100
AcDbCircle
 10
132.4760723399
 20
112.9336027714
 30
0.0
 40
0.2500000000000169
100
AcDbArc
 50
197.7189318734
 51
270.0
  0
SPLINE
  5
1DD
330
1F
100
AcDbEntity
  8
0
  6
Continuous
 62
     7
370
    25
100
AcDbSpline
210
0.0
220
0.0
230
1.0
 70
     8
 71
     3
 72
    15
 73
    11
 74
     0
 42
0.00000001
 43
0.00000001
 40
0.0
 40
0.0
 40
0.0
 40
0.0
 40
0.0089557228015919
 40
0.0999003359608149
 40
0.153163246058169
 40
0.312563692078485
 40
0.5249666935695003
 40
0.6689893599352446
 40
0.9919152533810159
 40
1.0
 40
1.0
 40
1.0
 40
1.0
 10
132.476072339869
 20
112.6836027713626
 30
0.0
 10
132.4760565842904
 20
112.6835919869995
 30
0.0
 10
132.4758808321338
 20
112.683471688334
 30
0.0
 10
132.4704518161143
 20
112.6797532374158
 30
0.0
 10
132.448916332407
 20
112.6650421963496
 30
0.0
 10
132.4012109041422
 20
112.632593334891
 30
0.0
 10
132.3288199591503
 20
112.5840092945475
 30
0.0
 10
132.2269008471325
 20
112.5166388222794
 30
0.0
 10
132.1515457556781
 20
112.4678252575446
 30
0.0
 10
132.0991461099543
 20
112.4344187073509
 30
0.0
 10
132.0978662784102
 20
112.4336027713626
 30
0.0
  0
ARC
  5
1DE
330
1F
100
AcDbEntity
  8
0
  6
Continuous
 62
     7
370
    25
100
AcDbCircle
 10
126.9988467648
 20
111.1836027714
 30
0.0
 40
5.499999999999998
100
AcDbArc
 50
197.7189318734
 51
342.2810681266
  0
ARC
  5
1DF
330
1F
100
AcDbEntity
  8
0
  6
Continuous
 62
     7
370
    25
100
AcDbCircle
 10
126.9988467648
 20
111.1836027714
 30
0.0
 40
5.249999999999998
100
AcDbArc
 50
193.774146998
 51
346.225853002
  0
LINE
  5
1E0
330
1F
100
AcDbEntity
  8
0
  6
Continuous
 62
     7
370
    25
100
AcDbLine
 10
121.9988467648
 20
110.5836027714
 30
0.0
 11
131.9988467648
 21
110.5836027714
 31
0.0
  0
LINE
  5
1E1
330
1F
100
AcDbEntity
  8
0
  6
Continuous
 62
     7
370
    25
100
AcDbLine
 10
131.9988467648
 20
110.5836027714
 30
0.0
 11
131.9988467648
 21
111.7836027714
 31
0.0
  0
LINE
  5
1E2
330
1F
100
AcDbEntity
  8
0
  6
Continuous
 62
     7
370
    25
100
AcDbLine
 10
131.9988467648
 20
111.7836027714
 30
0.0
 11
121.9988467648
 21
111.7836027714
 31
0.0
  0
LINE
  5
1E3
330
1F
100
AcDbEntity
  8
0
  6
Continuous
 62
     7
370
    25
100
AcDbLine
 10
121.9988467648
 20
111.7836027714
 30
0.0
 11
121.9988467648
 21
110.5836027714
 31
0.0
  0
LINE
  5
1E4
330
1F
100
AcDbEntity
  8
0
  6
Continuous
 62
     7
370
    25
100
AcDbLine
 10
132.7488467648
 20
112.4336027714
 30
0.0
 11
132.0978662784
 21
112.4336027714
 31
0.0
  0
LINE
  5
1E5
330
1F
100
AcDbEntity
  8
0
  6
Continuous
 62
     7
370
    25
100
AcDbLine
 10
132.7488467648
 20
109.9336027714
 30
0.0
 11
132.7488467648
 21
112.4336027714
 31
0.0
  0
LINE
  5
1E6
330
1F
100
AcDbEntity
  8
0
  6
Continuous
 62
     7
370
    25
100
AcDbLine
 10
132.0978662784
 20
109.9336027714
 30
0.0
 11
132.7488467648
 21
109.9336027714
 31
0.0
  0
LINE
  5
1E7
330
1F
100
AcDbEntity
  8
0
  6
Continuous
 62
     7
370
    25
100
AcDbLine
 10
121.2488467648
 20
109.9336027714
 30
0.0
 11
121.8998272512
 21
109.9336027714
 31
0.0
  0
LINE
  5
1E8
330
1F
100
AcDbEntity
  8
0
  6
Continuous
 62
     7
370
    25
100
AcDbLine
 10
121.2488467648
 20
112.4336027714
 30
0.0
 11
121.2488467648
 21
109.9336027714
 31
0.0
  0
LINE
  5
1E9
330
1F
100
AcDbEntity
  8
0
  6
Continuous
 62
     7
370
    25
100
AcDbLine
 10
121.8998272512
 20
112.4336027714
 30
0.0
 11
121.2488467648
 21
112.4336027714
 31
0.0
  0
ARC
  5
1EA
330
1F
100
AcDbEntity
  8
0
  6
Continuous
 62
     7
370
    25
100
AcDbCircle
 10
132.7488467648
 20
112.4336027714
 30
0.0
 40
0.25
100
AcDbArc
 50
0.0
 51
90.0
  0
LINE
  5
1EB
330
1F
100
AcDbEntity
  8
0
  6
Continuous
 62
     7
370
    25
100
AcDbLine
 10
132.9988467648
 20
112.4336027714
 30
0.0
 11
132.7488467648
 21
112.4336027714
 31
0.0
  0
LINE
  5
1EC
330
1F
100
AcDbEntity
  8
0
  6
Continuous
 62
     7
370
    25
100
AcDbLine
 10
132.7488467648
 20
112.4336027714
 30
0.0
 11
132.7488467648
 21
112.6836027714
 31
0.0
  0
LINE
  5
1ED
330
1F
100
AcDbEntity
  8
0
  6
Continuous
 62
     7
370
    25
100
AcDbLine
 10
121.2488467648
 20
112.6836027714
 30
0.0
 11
121.2488467648
 21
112.4336027714
 31
0.0
  0
LINE
  5
1EE
330
1F
100
AcDbEntity
  8
0
  6
Continuous
 62
     7
370
    25
100
AcDbLine
 10
121.2488467648
 20
112.6836027714
 30
0.0
 11
121.5216211898
 21
112.6836027714
 31
0.0
  0
LINE
  5
1EF
330
1F
100
AcDbEntity
  8
0
  6
Continuous
 62
     7
370
    25
100
AcDbLine
 10
121.2488467648
 20
112.4336027714
 30
0.0
 11
120.9988467648
 21
112.4336027714
 31
0.0
  0
ARC
  5
1F0
330
1F
100
AcDbEntity
  8
0
  6
Continuous
 62
     7
370
    25
100
AcDbCircle
 10
121.2488467648
 20
112.4336027714
 30
0.0
 40
0.25
100
AcDbArc
 50
90.0
 51
180.0
  0
LINE
  5
1F1
330
1F
100
AcDbEntity
  8
0
  6
Continuous
 62
     7
370
    25
100
AcDbLine
 10
132.4760723399
 20
112.6836027714
 30
0.0
 11
132.7488467648
 21
112.6836027714
 31
0.0
  0
LINE
  5
1F2
330
1F
100
AcDbEntity
  8
0
  6
Continuous
 62
     7
370
    25
100
AcDbLine
 10
132.9988467648
 20
112.4336027714
 30
0.0
 11
132.9988467648
 21
109.9336027714
 31
0.0
  0
LINE
  5
1F3
330
1F
100
AcDbEntity
  8
0
  6
Continuous
 62
     7
370
    25
100
AcDbLine
 10
132.7488467648
 20
109.9336027714
 30
0.0
 11
132.9988467648
 21
109.9336027714
 31
0.0
  0
LINE
  5
1F4
330
1F
100
AcDbEntity
  8
0
  6
Continuous
 62
     7
370
    25
100
AcDbLine
 10
120.9988467648
 20
109.9336027714
 30
0.0
 11
121.2488467648
 21
109.9336027714
 31
0.0
  0
LINE
  5
1F5
330
1F
100
AcDbEntity
  8
0
  6
Continuous
 62
     7
370
    25
100
AcDbLine
 10
120.9988467648
 20
109.9336027714
 30
0.0
 11
120.9988467648
 21
112.4336027714
 31
0.0
  0
ARC
  5
1F6
330
1F
100
AcDbEntity
  8
0
  6
Continuous
 62
     7
370
    25
100
AcDbCircle
 10
132.7488467648
 20
109.9336027714
 30
0.0
 40
0.25
100
AcDbArc
 50
270.0
 51
0.0
  0
LINE
  5
1F7
330
1F
100
AcDbEntity
  8
0
  6
Continuous
 62
     7
370
    25
100
AcDbLine
 10
132.7488467648
 20
109.6836027714
 30
0.0
 11
132.7488467648
 21
109.9336027714
 31
0.0
  0
LINE
  5
1F8
330
1F
100
AcDbEntity
  8
0
  6
Continuous
 62
     7
370
    25
100
AcDbLine
 10
121.5216211898
 20
109.6836027714
 30
0.0
 11
121.2488467648
 21
109.6836027714
 31
0.0
  0
LINE
  5
1F9
330
1F
100
AcDbEntity
  8
0
  6
Continuous
 62
     7
370
    25
100
AcDbLine
 10
121.2488467648
 20
109.9336027714
 30
0.0
 11
121.2488467648
 21
109.6836027714
 31
0.0
  0
LINE
  5
1FA
330
1F
100
AcDbEntity
  8
0
  6
Continuous
 62
     7
370
    25
100
AcDbLine
 10
132.7488467648
 20
109.6836027714
 30
0.0
 11
132.4760723399
 21
109.6836027714
 31
0.0
  0
ARC
  5
1FB
330
1F
100
AcDbEntity
  8
0
  6
Continuous
 62
     7
370
    25
100
AcDbCircle
 10
121.2488467648
 20
109.9336027714
 30
0.0
 40
0.25
100
AcDbArc
 50
180.0
 51
270.0
  0
LINE
  5
1FC
330
1F
100
AcDbEntity
  8
0
  6
Continuous
 62
     7
370
    25
100
AcDbLine
 10
106.9988467648
 20
114.4553020354
 30
0.0
 11
104.8234099033
 21
114.6836027714
 31
0.0
  0
LINE
  5
1FD
330
1F
100
AcDbEntity
  8
0
  6
Continuous
 62
     7
370
    25
100
AcDbLine
 10
106.9988467648
 20
107.9119035073
 30
0.0
 11
106.9988467648
 21
114.4553020354
 31
0.0
  0
LINE
  5
1FE
330
1F
100
AcDbEntity
  8
0
  6
Continuous
 62
     7
370
    25
100
AcDbLine
 10
104.8234099033
 20
107.6836027714
 30
0.0
 11
106.9988467648
 21
107.9119035073
 31
0.0
  0
LINE
  5
1FF
330
1F
100
AcDbEntity
  8
0
  6
Continuous
 62
     7
370
    25
100
AcDbLine
 10
86.9988467648
 20
107.6836027714
 30
0.0
 11
104.8234099033
 21
107.6836027714
 31
0.0
  0
LINE
  5
200
330
1F
100
AcDbEntity
  8
0
  6
Continuous
 62
     7
370
    25
100
AcDbLine
 10
86.9988467648
 20
114.6836027714
 30
0.0
 11
86.9988467648
 21
107.6836027714
 31
0.0
  0
LINE
  5
201
330
1F
100
AcDbEntity
  8
0
  6
Continuous
 62
     7
370
    25
100
AcDbLine
 10
104.8234099033
 20
114.6836027714
 30
0.0
 11
86.9988467648
 21
114.6836027714
 31
0.0
  0
LINE
  5
202
330
1F
100
AcDbEntity
  8
0
  6
Continuous
 62
     7
370
    25
100
AcDbLine
 10
121.7750445905
 20
112.9046172522
 30
0.0
 11
121.6466355518
 21
112.7204756187
 31
0.0
  0
LINE
  5
203
330
1F
100
AcDbEntity
  8
0
  6
Continuous
 62
     7
370
    25
100
AcDbLine
 10
121.6562028925
 20
109.638385104
 30
0.0
 11
121.7750445905
 21
109.4625882906
 31
0.0
  0
LINE
  5
204
330
1F
100
AcDbEntity
  8
0
  6
Continuous
 62
     7
370
    25
100
AcDbLine
 10
113.5822771112
 20
113.7644054069
 30
0.0
 11
113.5822771112
 21
108.6028001358
 31
0.0
  0
LINE
  5
205
330
1F
100
AcDbEntity
  8
0
  6
Continuous
 62
     7
370
    25
100
AcDbLine
 10
121.7750445905
 20
109.4625882905
 30
0.0
 11
113.5822771112
 21
108.6028001358
 31
0.0
  0
LINE
  5
206
330
1F
100
AcDbEntity
  8
0
  6
Continuous
 62
     7
370
    25
100
AcDbLine
 10
113.5822771112
 20
113.7644054069
 30
0.0
 11
121.7750445905
 21
112.9046172522
 31
0.0
  0
LINE
  5
207
330
1F
100
AcDbEntity
  8
0
  6
Continuous
 62
     7
370
    25
100
AcDbLine
 10
113.5822771112
 20
108.6028001358
 30
0.0
 11
106.9988467648
 21
107.9119035073
 31
0.0
  0
LINE
  5
208
330
1F
100
AcDbEntity
  8
0
  6
Continuous
 62
     7
370
    25
100
AcDbLine
 10
106.9988467648
 20
114.4553020354
 30
0.0
 11
113.5822771112
 21
113.7644054069
 31
0.0
  0
ARC
  5
209
330
1F
100
AcDbEntity
  8
0
  6
Continuous
 62
     7
370
    25
100
AcDbCircle
 10
126.9988467648
 20
111.1836027714
 30
0.0
 40
7.45000000000065
100
AcDbArc
 50
233.0863788866
 51
126.9136211134
  0
ARC
  5
20A
330
1F
100
AcDbEntity
  8
0
  6
Continuous
 62
     7
370
    25
100
AcDbCircle
 10
126.9988467648
 20
111.1836027714
 30
0.0
 40
7.207531252870783
100
AcDbArc
 50
195.3041237151
 51
238.9797515565
  0
ARC
  5
20B
330
1F
100
AcDbEntity
  8
0
  6
Continuous
 62
     7
370
    25
100
AcDbCircle
 10
126.9988467648
 20
111.1836027714
 30
0.0
 40
7.20753125287244
100
AcDbArc
 50
121.0202484435
 51
164.6958762849
  0
ARC
  5
20C
330
1F
100
AcDbEntity
  8
0
  6
Continuous
 62
     7
370
    25
100
AcDbCircle
 10
104.8234099033
 20
179.6836027714
 30
0.0
 40
64.99999999999999
100
AcDbArc
 50
270.0
 51
286.5000949923
  0
ARC
  5
20D
330
1F
100
AcDbEntity
  8
0
  6
Continuous
 62
     7
370
    25
100
AcDbCircle
 10
104.8234099033
 20
42.6836027714
 30
0.0
 40
65.00000000000001
100
AcDbArc
 50
73.4999050077
 51
90.0
  0
SPLINE
  5
20E
330
1F
100
AcDbEntity
  8
0
  6
Continuous
 62
     7
370
    25
100
AcDbSpline
210
0.0
220
0.0
230
1.0
 70
    24
 71
     3
 72
    15
 73
    11
 74
     0
 42
0.00000001
 43
0.00000001
 40
0.0
 40
0.0
 40
0.0
 40
0.0
 40
0.0206596214305649
 40
0.2785281562775104
 40
0.4096920683650036
 40
0.5407696977388028
 40
0.6773125484361174
 40
0.8170001972328503
 40
0.9342620865565023
 40
1.0
 40
1.0
 40
1.0
 40
1.0
 10
100.4236347234616
 20
119.1836027713625
 30
0.0
 10
100.4002136435612
 20
119.1836027713625
 30
0.0
 10
100.0844561537823
 20
119.1836027713625
 30
0.0
 10
99.63672741267766
 20
119.1836027713625
 30
0.0
 10
99.11949399320532
 20
119.1836027713625
 30
0.0
 10
98.7611580639004
 20
119.1836027713625
 30
0.0
 10
98.44814838630269
 20
119.1836027713625
 30
0.0
 10
98.23120955212454
 20
119.1836027713625
 30
0.0
 10
98.12062215757533
 20
119.1836027713625
 30
0.0
 10
98.12668757352492
 20
119.1836027713625
 30
0.0
 10
98.12886641624857
 20
119.1836027713625
 30
0.0
  0
LINE
  5
20F
330
1F
100
AcDbEntity
  8
0
  6
Continuous
 62
     7
370
    25
100
AcDbLine
 10
100.4236347235
 20
119.1836027714
 30
0.0
 11
100.4236347235
 21
118.2531100608
 31
0.0
  0
SPLINE
  5
210
330
1F
100
AcDbEntity
  8
0
  6
Continuous
 62
     7
370
    25
100
AcDbSpline
210
0.0
220
0.0
230
1.0
 70
     8
 71
     3
 72
    15
 73
    11
 74
     0
 42
0.00000001
 43
0.00000001
 40
0.0
 40
0.0
 40
0.0
 40
0.0
 40
0.0874542671838253
 40
0.1835133032392486
 40
0.279641850539013
 40
0.4016099382566102
 40
0.5238471082696903
 40
0.6821600813016908
 40
0.8411401604483297
 40
1.0
 40
1.0
 40
1.0
 40
1.0
 10
98.18313818839377
 20
114.6836027713624
 30
0.0
 10
98.15662404064958
 20
114.8067783481933
 30
0.0
 10
98.10098697465158
 20
115.0652489490059
 30
0.0
 10
98.12393634616848
 20
115.467799834784
 30
0.0
 10
98.23174177474651
 20
115.9084314253616
 30
0.0
 10
98.45030614778271
 20
116.3597744652912
 30
0.0
 10
98.79918466085496
 20
116.8508971807306
 30
0.0
 10
99.25868074490185
 20
117.3389897728443
 30
0.0
 10
99.81697978012184
 20
117.8192204569107
 30
0.0
 10
100.2214674152256
 20
118.1085166733282
 30
0.0
 10
100.4236347234616
 20
118.2531100608146
 30
0.0
  0
SPLINE
  5
211
330
1F
100
AcDbEntity
  8
0
  6
Continuous
 62
     7
370
    25
100
AcDbSpline
210
0.0
220
0.0
230
1.0
 70
     8
 71
     3
 72
    15
 73
    11
 74
     0
 42
0.00000001
 43
0.00000001
 40
0.0
 40
0.0
 40
0.0
 40
0.0
 40
0.2097791930366204
 40
0.4191526115085282
 40
0.5400435965490202
 40
0.6607245759318129
 40
0.756445190266242
 40
0.8520571814181442
 40
0.9480929640469387
 40
1.0
 40
1.0
 40
1.0
 40
1.0
 10
100.4236347234616
 20
104.1140954819104
 30
0.0
 10
100.1577085554566
 20
104.3063391962739
 30
0.0
 10
99.62637059874949
 20
104.6904547692015
 30
0.0
 10
99.02121148824912
 20
105.2616960562336
 30
0.0
 10
98.59255609394351
 20
105.7899942581903
 30
0.0
 10
98.3365328572601
 20
106.2203472055909
 30
0.0
 10
98.17600892987967
 20
106.646199458616
 30
0.0
 10
98.10692020458794
 20
107.0538172751793
 30
0.0
 10
98.11285008110016
 20
107.4054561185114
 30
0.0
 10
98.16994658448495
 20
107.6113596949621
 30
0.0
 10
98.18997939366349
 20
107.6836027713624
 30
0.0
  0
LINE
  5
212
330
1F
100
AcDbEntity
  8
0
  6
Continuous
 62
     7
370
    25
100
AcDbLine
 10
100.4236347235
 20
104.1140954819
 30
0.0
 11
100.4236347235
 21
103.1836027714
 31
0.0
  0
SPLINE
  5
213
330
1F
100
AcDbEntity
  8
0
  6
Continuous
 62
     7
370
    25
100
AcDbSpline
210
0.0
220
0.0
230
1.0
 70
    24
 71
     3
 72
    15
 73
    11
 74
     0
 42
0.00000001
 43
0.00000001
 40
0.0
 40
0.0
 40
0.0
 40
0.0
 40
0.0611801621028028
 40
0.1829884326497987
 40
0.3192190903520833
 40
0.4592267643931799
 40
0.5878355380453881
 40
0.7165250885764818
 40
0.9793400797552639
 40
1.0
 40
1.0
 40
1.0
 40
1.0
 10
98.1279351173915
 20
103.1836027713627
 30
0.0
 10
98.12576622335864
 20
103.1836027713627
 30
0.0
 10
98.11927911207917
 20
103.1836027713627
 30
0.0
 10
98.2275842180561
 20
103.1836027713627
 30
0.0
 10
98.44568080525556
 20
103.1836027713626
 30
0.0
 10
98.75616229472269
 20
103.1836027713626
 30
0.0
 10
99.11267171813165
 20
103.1836027713626
 30
0.0
 10
99.62865823296451
 20
103.1836027713626
 30
0.0
 10
100.0788541228974
 20
103.1836027713627
 30
0.0
 10
100.4002137306391
 20
103.1836027713626
 30
0.0
 10
100.4236347234616
 20
103.1836027713626
 30
0.0
  0
LINE
  5
214
330
1F
100
AcDbEntity
  8
0
  6
Continuous
 62
     7
370
    25
100
AcDbLine
 10
93.6469772901
 20
117.7317332966
 30
0.0
 11
93.6469772901
 21
114.6836027714
 31
0.0
  0
LINE
  5
215
330
1F
100
AcDbEntity
  8
0
  6
Continuous
 62
     7
370
    25
100
AcDbLine
 10
93.6469772901
 20
107.6836027714
 30
0.0
 11
93.6469772901
 21
104.6354722461
 31
0.0
  0
LINE
  5
216
330
1F
100
AcDbEntity
  8
0
  6
Continuous
 62
     7
370
    25
100
AcDbLine
 10
110.4214964956
 20
104.1140954819
 30
0.0
 11
100.4236347235
 21
104.1140954819
 31
0.0
  0
SPLINE
  5
217
330
1F
100
AcDbEntity
  8
0
  6
Continuous
 62
     7
370
    25
100
AcDbSpline
210
0.0
220
0.0
230
1.0
 70
     8
 71
     3
 72
    11
 73
     7
 74
     0
 42
0.00000001
 43
0.00000001
 40
0.0
 40
0.0
 40
0.0
 40
0.0
 40
0.0543023767256246
 40
0.3707439201806939
 40
0.684492219810791
 40
0.9999999999999999
 40
0.9999999999999999
 40
0.9999999999999999
 40
0.9999999999999999
 10
110.8448554430067
 20
107.3814526303592
 30
0.0
 10
110.8482965551406
 20
107.3218478776899
 30
0.0
 10
110.8717903960964
 20
106.9149025283605
 30
0.0
 10
110.8148563893807
 20
106.1620642574825
 30
0.0
 10
110.6753304378942
 20
105.1294120260862
 30
0.0
 10
110.50626538556
 20
104.4531646214089
 30
0.0
 10
110.4214964956276
 20
104.1140954819104
 30
0.0
  0
LINE
  5
218
330
1F
100
AcDbEntity
  8
0
  6
Continuous
 62
     7
370
    25
100
AcDbLine
 10
100.4236347235
 20
118.2531100608
 30
0.0
 11
110.4214964956
 21
118.2531100608
 31
0.0
  0
SPLINE
  5
219
330
1F
100
AcDbEntity
  8
0
  6
Continuous
 62
     7
370
    25
100
AcDbSpline
210
0.0
220
0.0
230
1.0
 70
     8
 71
     3
 72
    11
 73
     7
 74
     0
 42
0.00000001
 43
0.00000001
 40
0.0
 40
0.0
 40
0.0
 40
0.0
 40
0.3091453350587549
 40
0.618211597882838
 40
0.9349055397544453
 40
1.0
 40
1.0
 40
1.0
 40
1.0
 10
110.4214964956276
 20
118.2531100608146
 30
0.0
 10
110.5045052448384
 20
117.9211609197347
 30
0.0
 10
110.6705015115397
 20
117.2573475424963
 30
0.0
 10
110.8118358327841
 20
116.2376597906411
 30
0.0
 10
110.8708568051198
 20
115.4785865423583
 30
0.0
 10
110.8477554088013
 20
115.0597930971957
 30
0.0
 10
110.843816648703
 20
114.988389321921
 30
0.0
  0
SPLINE
  5
21A
330
1F
100
AcDbEntity
  8
0
  6
Continuous
 62
     7
370
    25
100
AcDbSpline
210
0.0
220
0.0
230
1.0
 70
    24
 71
     3
 72
    11
 73
     7
 74
     0
 42
0.00000001
 43
0.00000001
 40
0.0
 40
0.0
 40
0.0
 40
0.0
 40
0.2513143413296904
 40
0.5032998081395755
 40
0.8218748097706018
 40
1.0
 40
1.0
 40
1.0
 40
1.0
 10
110.4214964956276
 20
103.1836027713626
 30
0.0
 10
110.4860463103101
 20
103.1836027713626
 30
0.0
 10
110.6153183175233
 20
103.1836027713626
 30
0.0
 10
110.76085578102
 20
103.1836027713627
 30
0.0
 10
110.8488538666133
 20
103.1836027713627
 30
0.0
 10
110.844405057444
 20
103.1836027713627
 30
0.0
 10
110.842809638331
 20
103.1836027713627
 30
0.0
  0
LINE
  5
21B
330
1F
100
AcDbEntity
  8
0
  6
Continuous
 62
     7
370
    25
100
AcDbLine
 10
110.4214964956
 20
103.1836027714
 30
0.0
 11
110.4214964956
 21
104.1140954819
 31
0.0
  0
LINE
  5
21C
330
1F
100
AcDbEntity
  8
0
  6
Continuous
 62
     7
370
    25
100
AcDbLine
 10
110.4214964956
 20
118.2531100608
 30
0.0
 11
110.4214964956
 21
119.1836027714
 31
0.0
  0
SPLINE
  5
21D
330
1F
100
AcDbEntity
  8
0
  6
Continuous
 62
     7
370
    25
100
AcDbSpline
210
0.0
220
0.0
230
1.0
 70
    24
 71
     3
 72
    11
 73
     7
 74
     0
 42
0.00000001
 43
0.00000001
 40
0.0
 40
0.0
 40
0.0
 40
0.0
 40
0.1699014571529348
 40
0.4966925879501171
 40
0.7479810017328703
 40
1.0
 40
1.0
 40
1.0
 40
1.0
 10
110.8420205508052
 20
119.1836027713625
 30
0.0
 10
110.844132874394
 20
119.1836027713625
 30
0.0
 10
110.8503080743451
 20
119.1836027713625
 30
0.0
 10
110.7622264875407
 20
119.1836027713625
 30
0.0
 10
110.6155069765132
 20
119.1836027713625
 30
0.0
 10
110.4862292077084
 20
119.1836027713625
 30
0.0
 10
110.4214964956276
 20
119.1836027713625
 30
0.0
  0
LINE
  5
21E
330
1F
100
AcDbEntity
  8
0
  6
Continuous
 62
     7
370
    25
100
AcDbLine
 10
93.4988467648
 20
104.7836027714
 30
0.0
 11
93.4988467648
 21
107.6836027714
 31
0.0
  0
LINE
  5
21F
330
1F
100
AcDbEntity
  8
0
  6
Continuous
 62
     7
370
    25
100
AcDbLine
 10
93.4988467648
 20
114.6836027714
 30
0.0
 11
93.4988467648
 21
117.5836027714
 31
0.0
  0
LINE
  5
220
330
1F
100
AcDbEntity
  8
0
  6
Continuous
 62
     7
370
    25
100
AcDbLine
 10
110.4214964956
 20
119.1836027714
 30
0.0
 11
100.4236347235
 21
119.1836027714
 31
0.0
  0
LINE
  5
221
330
1F
100
AcDbEntity
  8
0
  6
Continuous
 62
     7
370
    25
100
AcDbLine
 10
100.4236347235
 20
103.1836027714
 30
0.0
 11
110.4214964956
 21
103.1836027714
 31
0.0
  0
SPLINE
  5
222
330
1F
100
AcDbEntity
  8
0
  6
Continuous
 62
     7
370
    25
100
AcDbSpline
210
0.0
220
0.0
230
1.0
 70
    24
 71
     3
 72
    11
 73
     7
 74
     0
 42
0.00000001
 43
0.00000001
 40
0.0
 40
0.0
 40
0.0
 40
0.0
 40
0.3069006645077679
 40
0.6152812132482595
 40
0.9004212768896063
 40
1.0
 40
1.0
 40
1.0
 40
1.0
 10
116.2771589283303
 20
102.6836027713626
 30
0.0
 10
116.3800553890516
 20
102.6836027713626
 30
0.0
 10
116.586344480322
 20
102.6836027713626
 30
0.0
 10
116.7712237975557
 20
102.6836027713626
 30
0.0
 10
116.857604243388
 20
102.6836027713626
 30
0.0
 10
116.8457633121482
 20
102.6836027713626
 30
0.0
 10
116.8426984636046
 20
102.6836027713626
 30
0.0
  0
LINE
  5
223
330
1F
100
AcDbEntity
  8
0
  6
Continuous
 62
     7
370
    25
100
AcDbLine
 10
116.2771589283
 20
102.6836027714
 30
0.0
 11
116.2771589283
 21
103.2593681572
 31
0.0
  0
SPLINE
  5
224
330
1F
100
AcDbEntity
  8
0
  6
Continuous
 62
     7
370
    25
100
AcDbSpline
210
0.0
220
0.0
230
1.0
 70
     8
 71
     3
 72
    10
 73
     6
 74
     0
 42
0.00000001
 43
0.00000001
 40
0.0
 40
0.0
 40
0.0
 40
0.0
 40
0.1092991982330581
 40
0.5524068169408749
 40
1.0
 40
1.0
 40
1.0
 40
1.0
 10
116.8347817119448
 20
106.5412963031843
 30
0.0
 10
116.8339115417221
 20
106.4201624935893
 30
0.0
 10
116.8295136323989
 20
105.8079426121622
 30
0.0
 10
116.6621057884056
 20
104.7041176603597
 30
0.0
 10
116.4059046242411
 20
103.7425654487993
 30
0.0
 10
116.2771589283303
 20
103.2593681571879
 30
0.0
  0
SPLINE
  5
225
330
1F
100
AcDbEntity
  8
0
  6
Continuous
 62
     7
370
    25
100
AcDbSpline
210
0.0
220
0.0
230
1.0
 70
     8
 71
     3
 72
    10
 73
     6
 74
     0
 42
0.00000001
 43
0.00000001
 40
0.0
 40
0.0
 40
0.0
 40
0.0
 40
0.3318368326242561
 40
0.6635828811676906
 40
1.0
 40
1.0
 40
1.0
 40
1.0
 10
116.2771589283303
 20
119.1078373855374
 30
0.0
 10
116.3761910387398
 20
118.7494736735345
 30
0.0
 10
116.5742281663062
 20
118.0328442908461
 30
0.0
 10
116.7755694001275
 20
116.9342174704985
 30
0.0
 10
116.8228685430995
 20
116.1931198035903
 30
0.0
 10
116.8466834466722
 20
115.8199804956368
 30
0.0
  0
LINE
  5
226
330
1F
100
AcDbEntity
  8
0
  6
Continuous
 62
     7
370
    25
100
AcDbLine
 10
116.2771589283
 20
119.1078373855
 30
0.0
 11
116.2771589283
 21
119.6836027714
 31
0.0
  0
SPLINE
  5
227
330
1F
100
AcDbEntity
  8
0
  6
Continuous
 62
     7
370
    25
100
AcDbSpline
210
0.0
220
0.0
230
1.0
 70
    24
 71
     3
 72
    11
 73
     7
 74
     0
 42
0.00000001
 43
0.00000001
 40
0.0
 40
0.0
 40
0.0
 40
0.0
 40
0.0921969458703319
 40
0.3847109544559704
 40
0.6915213050714433
 40
0.9999999999999999
 40
0.9999999999999999
 40
0.9999999999999999
 40
0.9999999999999999
 10
116.8426632279066
 20
119.6836027713626
 30
0.0
 10
116.8458620594272
 20
119.6836027713626
 30
0.0
 10
116.8592098500277
 20
119.6836027713626
 30
0.0
 10
116.7726083577003
 20
119.6836027713626
 30
0.0
 10
116.5868603670285
 20
119.6836027713626
 30
0.0
 10
116.3805791837056
 20
119.6836027713626
 30
0.0
 10
116.2771589283303
 20
119.6836027713626
 30
0.0
  0
LINE
  5
228
330
1F
100
AcDbEntity
  8
0
  6
Continuous
 62
     7
370
    25
100
AcDbLine
 10
110.9988467648
 20
102.9336027714
 30
0.0
 11
110.9988467648
 21
107.3895837899
 31
0.0
  0
LINE
  5
229
330
1F
100
AcDbEntity
  8
0
  6
Continuous
 62
     7
370
    25
100
AcDbLine
 10
110.9988467648
 20
114.9776217528
 30
0.0
 11
110.9988467648
 21
119.4336027714
 31
0.0
  0
SPLINE
  5
22A
330
1F
100
AcDbEntity
  8
0
  6
Continuous
 62
     7
370
    25
100
AcDbSpline
210
0.0
220
0.0
230
1.0
 70
    24
 71
     3
 72
    11
 73
     7
 74
     0
 42
0.00000001
 43
0.00000001
 40
0.0
 40
0.0
 40
0.0
 40
0.0
 40
0.3031305053797863
 40
0.6076814122186762
 40
0.8923931906423693
 40
1.0
 40
1.0
 40
1.0
 40
1.0
 10
111.7205346013044
 20
119.6836027713626
 30
0.0
 10
111.6188366673414
 20
119.6836027713626
 30
0.0
 10
111.4149642657401
 20
119.6836027713626
 30
0.0
 10
111.2295954039611
 20
119.6836027713626
 30
0.0
 10
111.141293773512
 20
119.6836027713626
 30
0.0
 10
111.1523203683692
 20
119.6836027713626
 30
0.0
 10
111.1553447896625
 20
119.6836027713626
 30
0.0
  0
LINE
  5
22B
330
1F
100
AcDbEntity
  8
0
  6
Continuous
 62
     7
370
    25
100
AcDbLine
 10
111.7205346013
 20
119.6836027714
 30
0.0
 11
111.7205346013
 21
119.1078373855
 31
0.0
  0
SPLINE
  5
22C
330
1F
100
AcDbEntity
  8
0
  6
Continuous
 62
     7
370
    25
100
AcDbSpline
210
0.0
220
0.0
230
1.0
 70
     8
 71
     3
 72
    11
 73
     7
 74
     0
 42
0.00000001
 43
0.00000001
 40
0.0
 40
0.0
 40
0.0
 40
0.0
 40
0.0099002085798405
 40
0.2836138947985037
 40
0.6400030891514037
 40
0.9999999999999999
 40
0.9999999999999999
 40
0.9999999999999999
 40
0.9999999999999999
 10
111.1535225370144
 20
115.0172115585569
 30
0.0
 10
111.1523622650784
 20
115.0308148194969
 30
0.0
 10
111.1191236479186
 20
115.4205110350916
 30
0.0
 10
111.163357863876
 20
116.3044857177106
 30
0.0
 10
111.3261095320934
 20
117.6630251953236
 30
0.0
 10
111.5886189129667
 20
118.6246191282092
 30
0.0
 10
111.7205346013044
 20
119.1078373855374
 30
0.0
  0
SPLINE
  5
22D
330
1F
100
AcDbEntity
  8
0
  6
Continuous
 62
     7
370
    25
100
AcDbSpline
210
0.0
220
0.0
230
1.0
 70
     8
 71
     3
 72
    11
 73
     7
 74
     0
 42
0.00000001
 43
0.00000001
 40
0.0
 40
0.0
 40
0.0
 40
0.0
 40
0.2670789499265455
 40
0.5340848322650714
 40
0.8074664073584259
 40
1.0
 40
1.0
 40
1.0
 40
1.0
 10
111.7205346013044
 20
103.2593681571879
 30
0.0
 10
111.6208723631406
 20
103.6177240565572
 30
0.0
 10
111.4215751524563
 20
104.3343378161159
 30
0.0
 10
111.2291032958638
 20
105.4366538248292
 30
0.0
 10
111.1318722681527
 20
106.4463188135224
 30
0.0
 10
111.1541759669133
 20
107.0891164026732
 30
0.0
 10
111.1633926903621
 20
107.3547444348796
 30
0.0
  0
LINE
  5
22E
330
1F
100
AcDbEntity
  8
0
  6
Continuous
 62
     7
370
    25
100
AcDbLine
 10
111.7205346013
 20
103.2593681572
 30
0.0
 11
111.7205346013
 21
102.6836027714
 31
0.0
  0
SPLINE
  5
22F
330
1F
100
AcDbEntity
  8
0
  6
Continuous
 62
     7
370
    25
100
AcDbSpline
210
0.0
220
0.0
230
1.0
 70
    24
 71
     3
 72
    11
 73
     7
 74
     0
 42
0.00000001
 43
0.00000001
 40
0.0
 40
0.0
 40
0.0
 40
0.0
 40
0.1002367743294462
 40
0.3923107761146402
 40
0.69535552968909
 40
0.9999999999999999
 40
0.9999999999999999
 40
0.9999999999999999
 40
0.9999999999999999
 10
111.1554920409508
 20
102.6836027713626
 30
0.0
 10
111.1522778605071
 20
102.6836027713626
 30
0.0
 10
111.1396980699773
 20
102.6836027713626
 30
0.0
 10
111.2281851954757
 20
102.6836027713626
 30
0.0
 10
111.4144688353977
 20
102.6836027713626
 30
0.0
 10
111.6183337906491
 20
102.6836027713626
 30
0.0
 10
111.7205346013044
 20
102.6836027713626
 30
0.0
  0
LINE
  5
230
330
1F
100
AcDbEntity
  8
0
  6
Continuous
 62
     7
370
    25
100
AcDbLine
 10
111.7205346013
 20
119.1078373855
 30
0.0
 11
116.2771589283
 21
119.1078373855
 31
0.0
  0
LINE
  5
231
330
1F
100
AcDbEntity
  8
0
  6
Continuous
 62
     7
370
    25
100
AcDbLine
 10
116.2771589283
 20
103.2593681572
 30
0.0
 11
111.7205346013
 21
103.2593681572
 31
0.0
  0
LINE
  5
232
330
1F
100
AcDbEntity
  8
0
  6
Continuous
 62
     7
370
    25
100
AcDbLine
 10
111.7205346013
 20
102.6836027714
 30
0.0
 11
116.2771589283
 21
102.6836027714
 31
0.0
  0
LINE
  5
233
330
1F
100
AcDbEntity
  8
0
  6
Continuous
 62
     7
370
    25
100
AcDbLine
 10
116.2771589283
 20
119.6836027714
 30
0.0
 11
111.7205346013
 21
119.6836027714
 31
0.0
  0
LINE
  5
234
330
1F
100
AcDbEntity
  8
0
  6
Continuous
 62
     7
370
    25
100
AcDbLine
 10
136.4988467648
 20
101.1836027714
 30
0.0
 11
136.4988467648
 21
121.1836027714
 31
0.0
  0
LINE
  5
235
330
1F
100
AcDbEntity
  8
0
  6
Continuous
 62
     7
370
    25
100
AcDbLine
 10
136.9988467648
 20
120.6836027714
 30
0.0
 11
136.9988467648
 21
101.6836027714
 31
0.0
  0
LINE
  5
236
330
1F
100
AcDbEntity
  8
0
  6
Continuous
 62
     7
370
    25
100
AcDbLine
 10
134.8808127761
 20
101.1836027714
 30
0.0
 11
134.8808127761
 21
121.1836027714
 31
0.0
  0
LINE
  5
237
330
1F
100
AcDbEntity
  8
0
  6
Continuous
 62
     7
370
    25
100
AcDbLine
 10
116.9988467648
 20
101.4336027714
 30
0.0
 11
116.9988467648
 21
106.5331034525
 31
0.0
  0
LINE
  5
238
330
1F
100
AcDbEntity
  8
0
  6
Continuous
 62
     7
370
    25
100
AcDbLine
 10
116.9988467648
 20
115.8341020902
 30
0.0
 11
116.9988467648
 21
120.9336027714
 31
0.0
  0
LINE
  5
239
330
1F
100
AcDbEntity
  8
0
  6
Continuous
 62
     7
370
    25
100
AcDbLine
 10
117.2488467648
 20
121.1836027714
 30
0.0
 11
117.2488467648
 21
115.8822821048
 31
0.0
  0
LINE
  5
23A
330
1F
100
AcDbEntity
  8
0
  6
Continuous
 62
     7
370
    25
100
AcDbLine
 10
117.2488467648
 20
106.4849234379
 30
0.0
 11
117.2488467648
 21
101.1836027714
 31
0.0
  0
SPLINE
  5
23B
330
1F
100
AcDbEntity
  8
0
  6
Continuous
 62
     7
370
    25
100
AcDbSpline
210
0.0
220
0.0
230
1.0
 70
     8
 71
     3
 72
    12
 73
     8
 74
     0
 42
0.00000001
 43
0.00000001
 40
0.0
 40
0.0
 40
0.0
 40
0.0
 40
0.25
 40
0.25
 40
0.5
 40
0.5
 40
1.0
 40
1.0
 40
1.0
 40
1.0
 10
134.7279328319194
 20
102.4211415916128
 30
0.0
 10
134.6468162298148
 20
102.3866364537527
 30
0.0
 10
134.5997863066465
 20
102.3537913824522
 30
0.0
 10
134.5369227051146
 20
102.2954388542056
 30
0.0
 10
134.5214730341974
 20
102.269784490577
 30
0.0
 10
134.4942893698181
 20
102.2066852378372
 30
0.0
 10
134.4988467648174
 20
102.1836027713626
 30
0.0
 10
134.4988467648174
 20
102.1836027713626
 30
0.0
  0
SPLINE
  5
23C
330
1F
100
AcDbEntity
  8
0
  6
Continuous
 62
     7
370
    25
100
AcDbSpline
210
0.0
220
0.0
230
1.0
 70
     8
 71
     3
 72
    14
 73
    10
 74
     0
 42
0.00000001
 43
0.00000001
 40
0.0
 40
0.0
 40
0.0
 40
0.0
 40
0.25
 40
0.25
 40
0.5
 40
0.5
 40
0.75
 40
0.75
 40
1.0
 40
1.0
 40
1.0
 40
1.0
 10
134.7279328319194
 20
102.4211415916128
 30
0.0
 10
134.7554538196645
 20
102.4328483871583
 30
0.0
 10
134.7753737415009
 20
102.4648903402399
 30
0.0
 10
134.791040783319
 20
102.5642140909049
 30
0.0
 10
134.7865489515066
 20
102.6320375336857
 30
0.0
 10
134.7552926062231
 20
102.7944791510985
 30
0.0
 10
134.7289200228413
 20
102.8889245478342
 30
0.0
 10
134.666083471697
 20
103.0971536554308
 30
0.0
 10
134.6300438928369
 20
103.2097520483139
 30
0.0
 10
134.5960478894713
 20
103.329508441914
 30
0.0
  0
SPLINE
  5
23D
330
1F
100
AcDbEntity
  8
0
  6
Continuous
 62
     7
370
    25
100
AcDbSpline
210
0.0
220
0.0
230
1.0
 70
     8
 71
     3
 72
     8
 73
     4
 74
     0
 42
0.00000001
 43
0.00000001
 40
0.0
 40
0.0
 40
0.0
 40
0.0
 40
1.0
 40
1.0
 40
1.0
 40
1.0
 10
134.4988467648174
 20
104.0596993469751
 30
0.0
 10
134.4988467648174
 20
103.8122698901801
 30
0.0
 10
134.5282114718952
 20
103.5684731412727
 30
0.0
 10
134.5960478894713
 20
103.329508441914
 30
0.0
  0
LINE
  5
23E
330
1F
100
AcDbEntity
  8
0
  6
Continuous
 62
     7
370
    25
100
AcDbLine
 10
134.4988467648
 20
104.059699347
 30
0.0
 11
134.4988467648
 21
118.3075061958
 31
0.0
  0
SPLINE
  5
23F
330
1F
100
AcDbEntity
  8
0
  6
Continuous
 62
     7
370
    25
100
AcDbSpline
210
0.0
220
0.0
230
1.0
 70
     8
 71
     3
 72
     8
 73
     4
 74
     0
 42
0.00000001
 43
0.00000001
 40
0.0
 40
0.0
 40
0.0
 40
0.0
 40
1.0
 40
1.0
 40
1.0
 40
1.0
 10
134.5960478894713
 20
119.0376971008112
 30
0.0
 10
134.5282114718952
 20
118.7987324014524
 30
0.0
 10
134.4988467648174
 20
118.5549356525451
 30
0.0
 10
134.4988467648174
 20
118.3075061957501
 30
0.0
  0
SPLINE
  5
240
330
1F
100
AcDbEntity
  8
0
  6
Continuous
 62
     7
370
    25
100
AcDbSpline
210
0.0
220
0.0
230
1.0
 70
     8
 71
     3
 72
    12
 73
     8
 74
     0
 42
0.00000001
 43
0.00000001
 40
0.0
 40
0.0
 40
0.0
 40
0.0
 40
0.4999999999999992
 40
0.4999999999999992
 40
0.7499999999999996
 40
0.7499999999999996
 40
1.0
 40
1.0
 40
1.0
 40
1.0
 10
134.5960478894713
 20
119.0376971008112
 30
0.0
 10
134.6639176494811
 20
119.2767792542593
 30
0.0
 10
134.7399522007348
 20
119.4925493614361
 30
0.0
 10
134.7865967991118
 20
119.73564395414
 30
0.0
 10
134.7910357956345
 20
119.8033092296161
 30
0.0
 10
134.7753051818416
 20
119.9024623457727
 30
0.0
 10
134.7554247518993
 20
119.934369520326
 30
0.0
 10
134.7279328319194
 20
119.9460639511124
 30
0.0
  0
SPLINE
  5
241
330
1F
100
AcDbEntity
  8
0
  6
Continuous
 62
     7
370
    25
100
AcDbSpline
210
0.0
220
0.0
230
1.0
 70
     8
 71
     3
 72
    12
 73
     8
 74
     0
 42
0.00000001
 43
0.00000001
 40
0.0
 40
0.0
 40
0.0
 40
0.0
 40
0.5000000000000002
 40
0.5000000000000002
 40
0.7500000000000001
 40
0.7500000000000001
 40
1.0
 40
1.0
 40
1.0
 40
1.0
 10
134.4988467648174
 20
120.1836027713626
 30
0.0
 10
134.4988467648174
 20
120.1836027713626
 30
0.0
 10
134.4942893698181
 20
120.160520304888
 30
0.0
 10
134.5214730341974
 20
120.0974210521482
 30
0.0
 10
134.5369227051146
 20
120.0717666885196
 30
0.0
 10
134.5997863066465
 20
120.0134141602729
 30
0.0
 10
134.6468162298148
 20
119.9805690889725
 30
0.0
 10
134.7279328319194
 20
119.9460639511124
 30
0.0
  0
LINE
  5
242
330
1F
100
AcDbEntity
  8
0
  6
Continuous
 62
     7
370
    25
100
AcDbLine
 10
119.1168807536
 20
121.1836027714
 30
0.0
 11
119.1168807536
 21
116.2746389646
 31
0.0
  0
LINE
  5
243
330
1F
100
AcDbEntity
  8
0
  6
Continuous
 62
     7
370
    25
100
AcDbLine
 10
119.1168807536
 20
106.0925665782
 30
0.0
 11
119.1168807536
 21
101.1836027714
 31
0.0
  0
SPLINE
  5
244
330
1F
100
AcDbEntity
  8
0
  6
Continuous
 62
     7
370
    25
100
AcDbSpline
210
0.0
220
0.0
230
1.0
 70
     8
 71
     3
 72
    12
 73
     8
 74
     0
 42
0.00000001
 43
0.00000001
 40
0.0
 40
0.0
 40
0.0
 40
0.0
 40
0.2500000000000001
 40
0.2500000000000001
 40
0.5000000000000001
 40
0.5000000000000001
 40
1.0
 40
1.0
 40
1.0
 40
1.0
 10
119.2697606977153
 20
119.9460639511124
 30
0.0
 10
119.35087729982
 20
119.9805690889725
 30
0.0
 10
119.3979072229883
 20
120.0134141602729
 30
0.0
 10
119.4607708245201
 20
120.0717666885196
 30
0.0
 10
119.4762204954373
 20
120.0974210521482
 30
0.0
 10
119.5034041598166
 20
120.160520304888
 30
0.0
 10
119.4988467648174
 20
120.1836027713626
 30
0.0
 10
119.4988467648174
 20
120.1836027713626
 30
0.0
  0
SPLINE
  5
245
330
1F
100
AcDbEntity
  8
0
  6
Continuous
 62
     7
370
    25
100
AcDbSpline
210
0.0
220
0.0
230
1.0
 70
     8
 71
     3
 72
    14
 73
    10
 74
     0
 42
0.00000001
 43
0.00000001
 40
0.0
 40
0.0
 40
0.0
 40
0.0
 40
0.25
 40
0.25
 40
0.5
 40
0.5
 40
0.75
 40
0.75
 40
1.0
 40
1.0
 40
1.0
 40
1.0
 10
119.2697606977153
 20
119.9460639511124
 30
0.0
 10
119.2422397099703
 20
119.9343571555668
 30
0.0
 10
119.2223197881339
 20
119.9023152024853
 30
0.0
 10
119.2066527463158
 20
119.8029914518203
 30
0.0
 10
119.2111445781281
 20
119.7351680090395
 30
0.0
 10
119.2424009234117
 20
119.5727263916267
 30
0.0
 10
119.2687735067935
 20
119.478280994891
 30
0.0
 10
119.3316100579378
 20
119.2700518872944
 30
0.0
 10
119.3676496367978
 20
119.1574534944113
 30
0.0
 10
119.4016456401635
 20
119.0376971008112
 30
0.0
  0
SPLINE
  5
246
330
1F
100
AcDbEntity
  8
0
  6
Continuous
 62
     7
370
    25
100
AcDbSpline
210
0.0
220
0.0
230
1.0
 70
     8
 71
     3
 72
     8
 73
     4
 74
     0
 42
0.00000001
 43
0.00000001
 40
0.0
 40
0.0
 40
0.0
 40
0.0
 40
1.0
 40
1.0
 40
1.0
 40
1.0
 10
119.4988467648174
 20
118.3075061957501
 30
0.0
 10
119.4988467648174
 20
118.5549356525451
 30
0.0
 10
119.4694820577395
 20
118.7987324014524
 30
0.0
 10
119.4016456401635
 20
119.0376971008112
 30
0.0
  0
LINE
  5
247
330
1F
100
AcDbEntity
  8
0
  6
Continuous
 62
     7
370
    25
100
AcDbLine
 10
119.4988467648
 20
118.3075061958
 30
0.0
 11
119.4988467648
 21
116.3619512379
 31
0.0
  0
LINE
  5
248
330
1F
100
AcDbEntity
  8
0
  6
Continuous
 62
     7
370
    25
100
AcDbLine
 10
119.4988467648
 20
106.0052543048
 30
0.0
 11
119.4988467648
 21
104.059699347
 31
0.0
  0
SPLINE
  5
249
330
1F
100
AcDbEntity
  8
0
  6
Continuous
 62
     7
370
    25
100
AcDbSpline
210
0.0
220
0.0
230
1.0
 70
     8
 71
     3
 72
     8
 73
     4
 74
     0
 42
0.00000001
 43
0.00000001
 40
0.0
 40
0.0
 40
0.0
 40
0.0
 40
1.0
 40
1.0
 40
1.0
 40
1.0
 10
119.4016456401635
 20
103.329508441914
 30
0.0
 10
119.4694820577395
 20
103.5684731412727
 30
0.0
 10
119.4988467648174
 20
103.8122698901801
 30
0.0
 10
119.4988467648174
 20
104.0596993469751
 30
0.0
  0
SPLINE
  5
24A
330
1F
100
AcDbEntity
  8
0
  6
Continuous
 62
     7
370
    25
100
AcDbSpline
210
0.0
220
0.0
230
1.0
 70
     8
 71
     3
 72
    12
 73
     8
 74
     0
 42
0.00000001
 43
0.00000001
 40
0.0
 40
0.0
 40
0.0
 40
0.0
 40
0.4999999999999992
 40
0.4999999999999992
 40
0.7499999999999996
 40
0.7499999999999996
 40
1.0
 40
1.0
 40
1.0
 40
1.0
 10
119.4016456401635
 20
103.329508441914
 30
0.0
 10
119.3337758801537
 20
103.0904262884659
 30
0.0
 10
119.2577413288999
 20
102.8746561812891
 30
0.0
 10
119.2110967305229
 20
102.6315615885852
 30
0.0
 10
119.2066577340003
 20
102.5638963131091
 30
0.0
 10
119.2223883477931
 20
102.4647431969525
 30
0.0
 10
119.2422687777355
 20
102.4328360223992
 30
0.0
 10
119.2697606977153
 20
102.4211415916128
 30
0.0
  0
SPLINE
  5
24B
330
1F
100
AcDbEntity
  8
0
  6
Continuous
 62
     7
370
    25
100
AcDbSpline
210
0.0
220
0.0
230
1.0
 70
     8
 71
     3
 72
    12
 73
     8
 74
     0
 42
0.00000001
 43
0.00000001
 40
0.0
 40
0.0
 40
0.0
 40
0.0
 40
0.4999999999999998
 40
0.4999999999999998
 40
0.7499999999999999
 40
0.7499999999999999
 40
1.0
 40
1.0
 40
1.0
 40
1.0
 10
119.4988467648174
 20
102.1836027713626
 30
0.0
 10
119.4988467648174
 20
102.1836027713626
 30
0.0
 10
119.5034041598166
 20
102.2066852378372
 30
0.0
 10
119.4762204954373
 20
102.269784490577
 30
0.0
 10
119.4607708245201
 20
102.2954388542056
 30
0.0
 10
119.3979072229883
 20
102.3537913824522
 30
0.0
 10
119.35087729982
 20
102.3866364537527
 30
0.0
 10
119.2697606977153
 20
102.4211415916128
 30
0.0
  0
ARC
  5
24C
330
1F
100
AcDbEntity
  8
0
  6
Continuous
 62
     7
370
    25
100
AcDbCircle
 10
134.0455288636
 20
118.3664821341
 30
0.0
 40
0.4571381420089546
100
AcDbArc
 50
264.138844256
 51
352.5875431534
  0
ARC
  5
24D
330
1F
100
AcDbEntity
  8
0
  6
Continuous
 62
     7
370
    25
100
AcDbCircle
 10
134.0455288636
 20
104.0007234087
 30
0.0
 40
0.4571381420089151
100
AcDbArc
 50
7.4124568466
 51
95.861155744
  0
ARC
  5
24E
330
1F
100
AcDbEntity
  8
0
  6
Continuous
 62
     7
370
    25
100
AcDbCircle
 10
119.9521646661
 20
118.3664821341
 30
0.0
 40
0.4571381420089263
100
AcDbArc
 50
187.4124568466
 51
275.861155744
  0
ARC
  5
24F
330
1F
100
AcDbEntity
  8
0
  6
Continuous
 62
     7
370
    25
100
AcDbCircle
 10
119.9521646661
 20
104.0007234087
 30
0.0
 40
0.4571381420089069
100
AcDbArc
 50
84.138844256
 51
172.5875431534
  0
LINE
  5
250
330
1F
100
AcDbEntity
  8
0
  6
Continuous
 62
     7
370
    25
100
AcDbLine
 10
119.4016456402
 20
119.0376971008
 30
0.0
 11
119.8692452653
 21
119.1836027714
 31
0.0
  0
SPLINE
  5
251
330
1F
100
AcDbEntity
  8
0
  6
Continuous
 62
     7
370
    25
100
AcDbSpline
210
0.0
220
0.0
230
1.0
 70
     8
 71
     3
 72
     8
 73
     4
 74
     0
 42
0.00000001
 43
0.00000001
 40
0.0
 40
0.0
 40
0.0
 40
0.0
 40
1.0
 40
1.0
 40
1.0
 40
1.0
 10
119.8692452652788
 20
119.1836027713626
 30
0.0
 10
119.9582539606672
 20
118.8983470137328
 30
0.0
 10
119.9988467648174
 20
118.6059290638509
 30
0.0
 10
119.9988467648174
 20
118.3075061957501
 30
0.0
  0
LINE
  5
252
330
1F
100
AcDbEntity
  8
0
  6
Continuous
 62
     7
370
    25
100
AcDbLine
 10
119.4988467648
 20
118.3075061958
 30
0.0
 11
119.9988467648
 21
118.3075061958
 31
0.0
  0
SPLINE
  5
253
330
1F
100
AcDbEntity
  8
0
  6
Continuous
 62
     7
370
    25
100
AcDbSpline
210
0.0
220
0.0
230
1.0
 70
     8
 71
     3
 72
     8
 73
     4
 74
     0
 42
0.00000001
 43
0.00000001
 40
0.0
 40
0.0
 40
0.0
 40
0.0
 40
1.0
 40
1.0
 40
1.0
 40
1.0
 10
133.9988467648174
 20
118.3075061957501
 30
0.0
 10
133.9988467648174
 20
118.6059290638509
 30
0.0
 10
134.0394395689675
 20
118.8983470137328
 30
0.0
 10
134.1284482643559
 20
119.1836027713626
 30
0.0
  0
LINE
  5
254
330
1F
100
AcDbEntity
  8
0
  6
Continuous
 62
     7
370
    25
100
AcDbLine
 10
134.1284482644
 20
119.1836027714
 30
0.0
 11
134.5960478895
 21
119.0376971008
 31
0.0
  0
LINE
  5
255
330
1F
100
AcDbEntity
  8
0
  6
Continuous
 62
     7
370
    25
100
AcDbLine
 10
133.9988467648
 20
118.3075061958
 30
0.0
 11
134.4988467648
 21
118.3075061958
 31
0.0
  0
SPLINE
  5
256
330
1F
100
AcDbEntity
  8
0
  6
Continuous
 62
     7
370
    25
100
AcDbSpline
210
0.0
220
0.0
230
1.0
 70
     8
 71
     3
 72
     8
 73
     4
 74
     0
 42
0.00000001
 43
0.00000001
 40
0.0
 40
0.0
 40
0.0
 40
0.0
 40
1.0
 40
1.0
 40
1.0
 40
1.0
 10
119.9988467648174
 20
104.0596993469751
 30
0.0
 10
119.9988467648174
 20
103.7612764788743
 30
0.0
 10
119.9582539606672
 20
103.4688585289924
 30
0.0
 10
119.8692452652788
 20
103.1836027713626
 30
0.0
  0
LINE
  5
257
330
1F
100
AcDbEntity
  8
0
  6
Continuous
 62
     7
370
    25
100
AcDbLine
 10
119.8692452653
 20
103.1836027714
 30
0.0
 11
119.4016456402
 21
103.3295084419
 31
0.0
  0
LINE
  5
258
330
1F
100
AcDbEntity
  8
0
  6
Continuous
 62
     7
370
    25
100
AcDbLine
 10
119.4988467648
 20
104.059699347
 30
0.0
 11
119.9988467648
 21
104.059699347
 31
0.0
  0
LINE
  5
259
330
1F
100
AcDbEntity
  8
0
  6
Continuous
 62
     7
370
    25
100
AcDbLine
 10
134.5960478895
 20
103.3295084419
 30
0.0
 11
134.1284482644
 21
103.1836027714
 31
0.0
  0
SPLINE
  5
25A
330
1F
100
AcDbEntity
  8
0
  6
Continuous
 62
     7
370
    25
100
AcDbSpline
210
0.0
220
0.0
230
1.0
 70
     8
 71
     3
 72
     8
 73
     4
 74
     0
 42
0.00000001
 43
0.00000001
 40
0.0
 40
0.0
 40
0.0
 40
0.0
 40
1.0
 40
1.0
 40
1.0
 40
1.0
 10
134.1284482643559
 20
103.1836027713626
 30
0.0
 10
134.0394395689675
 20
103.4688585289924
 30
0.0
 10
133.9988467648174
 20
103.7612764788743
 30
0.0
 10
133.9988467648174
 20
104.0596993469751
 30
0.0
  0
LINE
  5
25B
330
1F
100
AcDbEntity
  8
0
  6
Continuous
 62
     7
370
    25
100
AcDbLine
 10
134.4988467648
 20
104.059699347
 30
0.0
 11
133.9988467648
 21
104.059699347
 31
0.0
  0
LINE
  5
25C
330
1F
100
AcDbEntity
  8
0
  6
Continuous
 62
     7
370
    25
100
AcDbLine
 10
133.9988467648
 20
117.9117337833
 30
0.0
 11
133.9988467648
 21
118.3075061958
 31
0.0
  0
LINE
  5
25D
330
1F
100
AcDbEntity
  8
0
  6
Continuous
 62
     7
370
    25
100
AcDbLine
 10
119.9988467648
 20
117.9117337833
 30
0.0
 11
119.9988467648
 21
118.3075061958
 31
0.0
  0
LINE
  5
25E
330
1F
100
AcDbEntity
  8
0
  6
Continuous
 62
     7
370
    25
100
AcDbLine
 10
119.9988467648
 20
104.059699347
 30
0.0
 11
119.9988467648
 21
104.4554717594
 31
0.0
  0
LINE
  5
25F
330
1F
100
AcDbEntity
  8
0
  6
Continuous
 62
     7
370
    25
100
AcDbLine
 10
133.9988467648
 20
104.059699347
 30
0.0
 11
133.9988467648
 21
104.4554717594
 31
0.0
  0
ARC
  5
260
330
1F
100
AcDbEntity
  8
0
  6
Continuous
 62
     7
370
    25
100
AcDbCircle
 10
119.6972284883
 20
120.1629115889
 30
0.0
 40
0.4793241179194861
100
AcDbArc
 50
206.8979585986
 51
269.5422002632
  0
SPLINE
  5
261
330
1F
100
AcDbEntity
  8
0
  6
Continuous
 62
     7
370
    25
100
AcDbSpline
210
0.0
220
0.0
230
1.0
 70
     8
 71
     3
 72
    14
 73
    10
 74
     0
 42
0.00000001
 43
0.00000001
 40
0.0
 40
0.0
 40
0.0
 40
0.0
 40
0.25
 40
0.25
 40
0.5
 40
0.5
 40
0.75
 40
0.75
 40
1.0
 40
1.0
 40
1.0
 40
1.0
 10
119.8692452652788
 20
119.1836027713626
 30
0.0
 10
119.8307697816572
 20
119.2452560355901
 30
0.0
 10
119.7896808601872
 20
119.303439980863
 30
0.0
 10
119.7103980127466
 20
119.4171053023299
 30
0.0
 10
119.6731151116362
 20
119.4707819010297
 30
0.0
 10
119.6203093523244
 20
119.5707719334764
 30
0.0
 10
119.6083400922308
 20
119.6151764336993
 30
0.0
 10
119.6283418806029
 20
119.6712362891931
 30
0.0
 10
119.6577983361552
 20
119.6836027713626
 30
0.0
 10
119.693398675348
 20
119.6836027713626
 30
0.0
  0
ARC
  5
262
330
1F
100
AcDbEntity
  8
0
  6
Continuous
 62
     7
370
    25
100
AcDbCircle
 10
134.3004650413
 20
102.2042939538
 30
0.0
 40
0.4793241179195558
100
AcDbArc
 50
26.8979585986
 51
89.5422002632
  0
SPLINE
  5
263
330
1F
100
AcDbEntity
  8
0
  6
Continuous
 62
     7
370
    25
100
AcDbSpline
210
0.0
220
0.0
230
1.0
 70
     8
 71
     3
 72
    14
 73
    10
 74
     0
 42
0.00000001
 43
0.00000001
 40
0.0
 40
0.0
 40
0.0
 40
0.0
 40
0.25
 40
0.25
 40
0.5
 40
0.5
 40
0.75
 40
0.75
 40
1.0
 40
1.0
 40
1.0
 40
1.0
 10
134.1284482643559
 20
103.1836027713626
 30
0.0
 10
134.1669237479775
 20
103.1219495071351
 30
0.0
 10
134.2080126694475
 20
103.0637655618622
 30
0.0
 10
134.2872955168881
 20
102.9501002403952
 30
0.0
 10
134.3245784179986
 20
102.8964236416955
 30
0.0
 10
134.3773841773103
 20
102.7964336092488
 30
0.0
 10
134.389353437404
 20
102.7520291090259
 30
0.0
 10
134.3693516490318
 20
102.6959692535321
 30
0.0
 10
134.3398951934795
 20
102.6836027713626
 30
0.0
 10
134.3042948542868
 20
102.6836027713626
 30
0.0
  0
SPLINE
  5
264
330
1F
100
AcDbEntity
  8
0
  6
Continuous
 62
     7
370
    25
100
AcDbSpline
210
0.0
220
0.0
230
1.0
 70
     8
 71
     3
 72
    16
 73
    12
 74
     0
 42
0.00000001
 43
0.00000001
 40
0.0
 40
0.0
 40
0.0
 40
0.0
 40
0.2500000000000011
 40
0.2500000000000011
 40
0.3749999999999992
 40
0.3749999999999992
 40
0.4999999999999974
 40
0.4999999999999974
 40
0.7499999999999987
 40
0.7499999999999987
 40
1.0
 40
1.0
 40
1.0
 40
1.0
 10
134.3042948542868
 20
119.6836027713626
 30
0.0
 10
134.3398487837354
 20
119.6836027713626
 30
0.0
 10
134.3691209249641
 20
119.6714710209468
 30
0.0
 10
134.384333475185
 20
119.6294493146674
 30
0.0
 10
134.3843941433585
 20
119.6112349451608
 30
0.0
 10
134.3741835588812
 20
119.5692979326343
 30
0.0
 10
134.364400229356
 20
119.54627036914
 30
0.0
 10
134.325235680824
 20
119.471861690368
 30
0.0
 10
134.2873626075508
 20
119.4172038141855
 30
0.0
 10
134.2082896345592
 20
119.3038347410067
 30
0.0
 10
134.1669025019684
 20
119.2452219909025
 30
0.0
 10
134.1284482643559
 20
119.1836027713626
 30
0.0
  0
ARC
  5
265
330
1F
100
AcDbEntity
  8
0
  6
Continuous
 62
     7
370
    25
100
AcDbCircle
 10
134.3004650413
 20
120.1629115889
 30
0.0
 40
0.4793241179194987
100
AcDbArc
 50
270.4577997368
 51
333.1020414014
  0
SPLINE
  5
266
330
1F
100
AcDbEntity
  8
0
  6
Continuous
 62
     7
370
    25
100
AcDbSpline
210
0.0
220
0.0
230
1.0
 70
     8
 71
     3
 72
    16
 73
    12
 74
     0
 42
0.00000001
 43
0.00000001
 40
0.0
 40
0.0
 40
0.0
 40
0.0
 40
0.2500000000000049
 40
0.2500000000000049
 40
0.3750000000000051
 40
0.3750000000000051
 40
0.5000000000000052
 40
0.5000000000000052
 40
0.7500000000000026
 40
0.7500000000000026
 40
1.0
 40
1.0
 40
1.0
 40
1.0
 10
119.693398675348
 20
102.6836027713626
 30
0.0
 10
119.6578447458993
 20
102.6836027713626
 30
0.0
 10
119.6285726046706
 20
102.6957345217784
 30
0.0
 10
119.6133600544498
 20
102.7377562280578
 30
0.0
 10
119.6132993862762
 20
102.7559705975644
 30
0.0
 10
119.6235099707535
 20
102.7979076100909
 30
0.0
 10
119.6332933002788
 20
102.8209351735852
 30
0.0
 10
119.6724578488107
 20
102.8953438523572
 30
0.0
 10
119.710330922084
 20
102.9500017285397
 30
0.0
 10
119.7894038950756
 20
103.0633708017185
 30
0.0
 10
119.8307910276664
 20
103.1219835518227
 30
0.0
 10
119.8692452652788
 20
103.1836027713626
 30
0.0
  0
ARC
  5
267
330
1F
100
AcDbEntity
  8
0
  6
Continuous
 62
     7
370
    25
100
AcDbCircle
 10
119.6972284883
 20
102.2042939538
 30
0.0
 40
0.4793241179195274
100
AcDbArc
 50
90.4577997368
 51
153.1020414014
  0
LINE
  5
268
330
1F
100
AcDbEntity
  8
0
  6
Continuous
 62
     7
370
    25
100
AcDbLine
 10
145.6438987054
 20
115.9658823982
 30
0.0
 11
145.6438987054
 21
106.4013231445
 31
0.0
  0
LINE
  5
269
330
1F
100
AcDbEntity
  8
0
  6
Continuous
 62
     7
370
    25
100
AcDbLine
 10
134.1284482644
 20
119.1836027714
 30
0.0
 11
119.8692452653
 21
119.1836027714
 31
0.0
  0
LINE
  5
26A
330
1F
100
AcDbEntity
  8
0
  6
Continuous
 62
     7
370
    25
100
AcDbLine
 10
119.6933986753
 20
119.6836027714
 30
0.0
 11
134.3042948543
 21
119.6836027714
 31
0.0
  0
LINE
  5
26B
330
1F
100
AcDbEntity
  8
0
  6
Continuous
 62
     7
370
    25
100
AcDbLine
 10
119.8692452653
 20
103.1836027714
 30
0.0
 11
134.1284482644
 21
103.1836027714
 31
0.0
  0
LINE
  5
26C
330
1F
100
AcDbEntity
  8
0
  6
Continuous
 62
     7
370
    25
100
AcDbLine
 10
134.3042948543
 20
102.6836027714
 30
0.0
 11
119.6933986753
 21
102.6836027714
 31
0.0
  0
LINE
  5
26D
330
1F
100
AcDbEntity
  8
0
  6
Continuous
 62
     7
370
    25
100
AcDbLine
 10
146.9988467648
 20
115.1836027714
 30
0.0
 11
146.9988467648
 21
107.1836027714
 31
0.0
  0
ARC
  5
26E
330
1F
100
AcDbEntity
  8
0
  6
Continuous
 62
     7
370
    25
100
AcDbCircle
 10
133.9988467648
 20
120.1836027714
 30
0.0
 40
0.5
100
AcDbArc
 50
270.0
 51
0.0
  0
ARC
  5
26F
330
1F
100
AcDbEntity
  8
0
  6
Continuous
 62
     7
370
    25
100
AcDbCircle
 10
119.9988467648
 20
120.1836027714
 30
0.0
 40
0.5
100
AcDbArc
 50
180.0
 51
270.0
  0
ARC
  5
270
330
1F
100
AcDbEntity
  8
0
  6
Continuous
 62
     7
370
    25
100
AcDbCircle
 10
133.9988467648
 20
102.1836027714
 30
0.0
 40
0.5
100
AcDbArc
 50
0.0
 51
90.0
  0
ARC
  5
271
330
1F
100
AcDbEntity
  8
0
  6
Continuous
 62
     7
370
    25
100
AcDbCircle
 10
119.9988467648
 20
102.1836027714
 30
0.0
 40
0.5
100
AcDbArc
 50
90.0
 51
180.0
  0
LINE
  5
272
330
1F
100
AcDbEntity
  8
0
  6
Continuous
 62
     7
370
    25
100
AcDbLine
 10
133.9988467648
 20
104.4554717594
 30
0.0
 11
133.9988467648
 21
108.6336027713
 31
0.0
  0
LINE
  5
273
330
1F
100
AcDbEntity
  8
0
  6
Continuous
 62
     7
370
    25
100
AcDbLine
 10
133.9988467648
 20
113.7336027714
 30
0.0
 11
133.9988467648
 21
117.9117337833
 31
0.0
  0
LINE
  5
274
330
1F
100
AcDbEntity
  8
0
  6
Continuous
 62
     7
370
    25
100
AcDbLine
 10
119.9988467648
 20
117.9117337833
 30
0.0
 11
119.9988467648
 21
116.4799152519
 31
0.0
  0
LINE
  5
275
330
1F
100
AcDbEntity
  8
0
  6
Continuous
 62
     7
370
    25
100
AcDbLine
 10
119.9988467648
 20
105.8872902909
 30
0.0
 11
119.9988467648
 21
104.4554717594
 31
0.0
  0
LINE
  5
276
330
1F
100
AcDbEntity
  8
0
  6
Continuous
 62
     7
370
    25
100
AcDbLine
 10
133.9988467648
 20
117.9117337833
 30
0.0
 11
130.1980268295
 21
117.9117337833
 31
0.0
  0
LINE
  5
277
330
1F
100
AcDbEntity
  8
0
  6
Continuous
 62
     7
370
    25
100
AcDbLine
 10
123.7996667001
 20
117.9117337833
 30
0.0
 11
119.9988467648
 21
117.9117337833
 31
0.0
  0
LINE
  5
278
330
1F
100
AcDbEntity
  8
0
  6
Continuous
 62
     7
370
    25
100
AcDbLine
 10
119.9988467648
 20
104.4554717594
 30
0.0
 11
123.7996667001
 21
104.4554717594
 31
0.0
  0
LINE
  5
279
330
1F
100
AcDbEntity
  8
0
  6
Continuous
 62
     7
370
    25
100
AcDbLine
 10
130.1980268295
 20
104.4554717594
 30
0.0
 11
133.9988467648
 21
104.4554717594
 31
0.0
  0
LINE
  5
27A
330
1F
100
AcDbEntity
  8
0
  6
Continuous
 62
     7
370
    25
100
AcDbLine
 10
119.9988467648
 20
118.3075061958
 30
0.0
 11
124.8188238291
 21
118.3075061958
 31
0.0
  0
LINE
  5
27B
330
1F
100
AcDbEntity
  8
0
  6
Continuous
 62
     7
370
    25
100
AcDbLine
 10
129.1788697005
 20
118.3075061958
 30
0.0
 11
133.9988467648
 21
118.3075061958
 31
0.0
  0
LINE
  5
27C
330
1F
100
AcDbEntity
  8
0
  6
Continuous
 62
     7
370
    25
100
AcDbLine
 10
133.9988467648
 20
104.059699347
 30
0.0
 11
129.1788697005
 21
104.059699347
 31
0.0
  0
LINE
  5
27D
330
1F
100
AcDbEntity
  8
0
  6
Continuous
 62
     7
370
    25
100
AcDbLine
 10
124.8188238291
 20
104.059699347
 30
0.0
 11
119.9988467648
 21
104.059699347
 31
0.0
  0
INSERT
  5
289
330
1F
100
AcDbEntity
  8
FORMAT
100
AcDbBlockReference
  2
SW_CENTERMARKSYMBOL_1
 10
126.9988467648
 20
111.1836027714
 30
0.0
  0
LINE
  5
28A
330
1F
100
AcDbEntity
  8
FORMAT
100
AcDbLine
 10
146.6185908213
 20
106.9640619
 30
0.0
 11
137.4988467648
 21
106.6790698982
 31
0.0
  0
LINE
  5
28B
330
1F
100
AcDbEntity
  8
FORMAT
100
AcDbLine
 10
146.6185908213
 20
115.4031436427
 30
0.0
 11
137.4988467648
 21
115.6881356445
 31
0.0
  0
LINE
  5
28C
330
1F
100
AcDbEntity
  8
FORMAT
100
AcDbLine
 10
137.4988467648
 20
116.2204152714
 30
0.0
 11
137.4988467648
 21
106.1467902714
 31
0.0
  0
ENDSEC
  0
SECTION
  2
OBJECTS
  0
DICTIONARY
  5
C
330
0
100
AcDbDictionary
281
     1
  3
ACAD_GROUP
350
D
  3
ACAD_LAYOUT
350
1A
  3
ACAD_MLINESTYLE
350
17
  3
ACAD_PLOTSETTINGS
350
19
  3
ACAD_PLOTSTYLENAME
350
E
  3
ACAD_SCALELIST
350
47
  3
DWGPROPS
350
28D
  0
DICTIONARY
  5
D
102
{ACAD_REACTORS
330
C
102
}
330
C
100
AcDbDictionary
281
     1
  0
DICTIONARY
  5
1A
102
{ACAD_REACTORS
330
C
102
}
330
C
100
AcDbDictionary
281
     1
  3
Layout1
350
1E
  3
Layout2
350
26
  3
Model
350
22
  0
DICTIONARY
  5
17
102
{ACAD_REACTORS
330
C
102
}
330
C
100
AcDbDictionary
281
     1
  3
Standard
350
18
  0
DICTIONARY
  5
19
102
{ACAD_REACTORS
330
C
102
}
330
C
100
AcDbDictionary
281
     1
  0
ACDBDICTIONARYWDFLT
  5
E
102
{ACAD_REACTORS
330
C
102
}
330
C
100
AcDbDictionary
281
     1
  3
Normal
350
F
100
AcDbDictionaryWithDefault
340
F
  0
DICTIONARY
  5
47
102
{ACAD_REACTORS
330
C
102
}
330
C
100
AcDbDictionary
281
     1
  3
A0
350
48
  3
A1
350
49
  3
A2
350
4A
  3
A3
350
4B
  3
A4
350
4C
  3
A5
350
4D
  3
A6
350
4E
  3
A7
350
4F
  3
A8
350
50
  3
A9
350
51
  3
B0
350
52
  3
B1
350
53
  3
B2
350
54
  3
B3
350
55
  3
B4
350
56
  3
B5
350
57
  3
B6
350
58
  0
XRECORD
  5
28D
102
{ACAD_REACTORS
330
C
102
}
330
C
100
AcDbXrecord
280
     1
  1
DWGPROPS COOKIE
  2

  3

  4

  6

  7

  8
user28
  9

300
=
301
=
302
=
303
=
304
=
305
=
306
=
307
=
308
=
309
=
 40
0.0
 41
2460406.331191887
 42
2460406.331192778
  1

 90
        0
  0
LAYOUT
  5
1E
102
{ACAD_REACTORS
330
1A
102
}
330
1A
100
AcDbPlotSettings
  1

  2
none_device
  4

  6

 40
0.0
 41
0.0
 42
0.0
 43
0.0
 44
0.0
 45
0.0
 46
0.0
 47
0.0
 48
0.0
 49
0.0
140
0.0
141
0.0
142
1.0
143
1.0
 70
   688
 72
     1
 73
     0
 74
     5
  7

 75
    16
147
1.0
148
0.0
149
0.0
100
AcDbLayout
  1
Layout1
 70
     1
 71
     1
 10
0.0
 20
0.0
 11
420.0
 21
297.0
 12
0.0
 22
0.0
 32
0.0
 14
1.0000000000E+20
 24
1.0000000000E+20
 34
1.0000000000E+20
 15
-1.0000000000E+20
 25
-1.0000000000E+20
 35
-1.0000000000E+20
146
0.0
 13
0.0
 23
0.0
 33
0.0
 16
1.0
 26
0.0
 36
0.0
 17
0.0
 27
1.0
 37
0.0
 76
     0
330
1B
  0
LAYOUT
  5
26
102
{ACAD_REACTORS
330
1A
102
}
330
1A
100
AcDbPlotSettings
  1

  2
none_device
  4

  6

 40
0.0
 41
0.0
 42
0.0
 43
0.0
 44
0.0
 45
0.0
 46
0.0
 47
0.0
 48
0.0
 49
0.0
140
0.0
141
0.0
142
1.0
143
1.0
 70
   688
 72
     1
 73
     0
 74
     5
  7

 75
    16
147
1.0
148
0.0
149
0.0
100
AcDbLayout
  1
Layout2
 70
     1
 71
     2
 10
0.0
 20
0.0
 11
0.0
 21
0.0
 12
0.0
 22
0.0
 32
0.0
 14
0.0
 24
0.0
 34
0.0
 15
0.0
 25
0.0
 35
0.0
146
0.0
 13
0.0
 23
0.0
 33
0.0
 16
1.0
 26
0.0
 36
0.0
 17
0.0
 27
1.0
 37
0.0
 76
     0
330
23
  0
LAYOUT
  5
22
102
{ACAD_REACTORS
330
1A
102
}
330
1A
100
AcDbPlotSettings
  1

  2
none_device
  4
Letter_(8.50_x_11.00_Inches)
  6

 40
6.35
 41
6.35
 42
6.35000508
 43
6.35000508
 44
215.9
 45
279.4
 46
0.0
 47
0.0
 48
0.0
 49
0.0
140
0.0
141
0.0
142
1.0
143
1.0
 70
  1712
 72
     1
 73
     0
 74
     0
  7

 75
     0
147
1.0
148
0.0
149
0.0
100
AcDbLayout
  1
Model
 70
     1
 71
     0
 10
0.0
 20
0.0
 11
297.0
 21
210.0
 12
0.0
 22
0.0
 32
0.0
 14
0.0
 24
0.0
 34
0.0
 15
297.0
 25
210.0
 35
0.0
146
0.0
 13
0.0
 23
0.0
 33
0.0
 16
1.0
 26
0.0
 36
0.0
 17
0.0
 27
1.0
 37
0.0
 76
     0
330
1F
331
29
  0
MLINESTYLE
  5
18
102
{ACAD_REACTORS
330
17
102
}
330
17
100
AcDbMlineStyle
  2
Standard
 70
     0
  3

 62
   256
 51
90.0
 52
90.0
 71
     2
 49
0.5
 62
   256
  6
BYLAYER
 49
-0.5
 62
   256
  6
BYLAYER
  0
ACDBPLACEHOLDER
  5
F
102
{ACAD_REACTORS
330
E
102
}
330
E
  0
SCALE
  5
48
102
{ACAD_REACTORS
330
47
102
}
330
47
100
AcDbScale
 70
     0
300
1:1
140
1.0
141
1.0
290
     1
  0
SCALE
  5
49
102
{ACAD_REACTORS
330
47
102
}
330
47
100
AcDbScale
 70
     0
300
1:2
140
1.0
141
2.0
290
     0
  0
SCALE
  5
4A
102
{ACAD_REACTORS
330
47
102
}
330
47
100
AcDbScale
 70
     0
300
1:4
140
1.0
141
4.0
290
     0
  0
SCALE
  5
4B
102
{ACAD_REACTORS
330
47
102
}
330
47
100
AcDbScale
 70
     0
300
1:5
140
1.0
141
5.0
290
     0
  0
SCALE
  5
4C
102
{ACAD_REACTORS
330
47
102
}
330
47
100
AcDbScale
 70
     0
300
1:8
140
1.0
141
8.0
290
     0
  0
SCALE
  5
4D
102
{ACAD_REACTORS
330
47
102
}
330
47
100
AcDbScale
 70
     0
300
1:10
140
1.0
141
10.0
290
     0
  0
SCALE
  5
4E
102
{ACAD_REACTORS
330
47
102
}
330
47
100
AcDbScale
 70
     0
300
1:16
140
1.0
141
16.0
290
     0
  0
SCALE
  5
4F
102
{ACAD_REACTORS
330
47
102
}
330
47
100
AcDbScale
 70
     0
300
1:20
140
1.0
141
20.0
290
     0
  0
SCALE
  5
50
102
{ACAD_REACTORS
330
47
102
}
330
47
100
AcDbScale
 70
     0
300
1:30
140
1.0
141
30.0
290
     0
  0
SCALE
  5
51
102
{ACAD_REACTORS
330
47
102
}
330
47
100
AcDbScale
 70
     0
300
1:40
140
1.0
141
40.0
290
     0
  0
SCALE
  5
52
102
{ACAD_REACTORS
330
47
102
}
330
47
100
AcDbScale
 70
     0
300
1:50
140
1.0
141
50.0
290
     0
  0
SCALE
  5
53
102
{ACAD_REACTORS
330
47
102
}
330
47
100
AcDbScale
 70
     0
300
1:100
140
1.0
141
100.0
290
     0
  0
SCALE
  5
54
102
{ACAD_REACTORS
330
47
102
}
330
47
100
AcDbScale
 70
     0
300
2:1
140
2.0
141
1.0
290
     0
  0
SCALE
  5
55
102
{ACAD_REACTORS
330
47
102
}
330
47
100
AcDbScale
 70
     0
300
4:1
140
4.0
141
1.0
290
     0
  0
SCALE
  5
56
102
{ACAD_REACTORS
330
47
102
}
330
47
100
AcDbScale
 70
     0
300
8:1
140
8.0
141
1.0
290
     0
  0
SCALE
  5
57
102
{ACAD_REACTORS
330
47
102
}
330
47
100
AcDbScale
 70
     0
300
10:1
140
10.0
141
1.0
290
     0
  0
SCALE
  5
58
102
{ACAD_REACTORS
330
47
102
}
330
47
100
AcDbScale
 70
     0
300
100:1
140
100.0
141
1.0
290
     0
  0
ENDSEC
  0
EOF
