  0
SECTION
  2
HEADER
  9
$ACADVER
  1
AC1015
  9
$ACADMAINTVER
 70
     6
  9
$DWGCODEPAGE
  3
DOS932
  9
$INSBASE
 10
0.0
 20
0.0
 30
0.0
  9
$EXTMIN
 10
0.0
 20
0.0
 30
0.0
  9
$EXTMAX
 10
431.8
 20
279.4
 30
0.0
  9
$LIMMIN
 10
0.0
 20
0.0
  9
$LIMMAX
 10
431.8
 20
279.4
  9
$ORTHOMODE
 70
     0
  9
$REGENMODE
 70
     1
  9
$FILLMODE
 70
     1
  9
$QTEXTMODE
 70
     0
  9
$MIRRTEXT
 70
     1
  9
$LTSCALE
 40
1.0
  9
$ATTMODE
 70
     1
  9
$TEXTSIZE
 40
3.5
  9
$TRACEWID
 40
1.0
  9
$TEXTSTYLE
  7
Standard
  9
$CLAYER
  8
0
  9
$CELTYPE
  6
ByLayer
  9
$CECOLOR
 62
   256
  9
$CELTSCALE
 40
1.0
  9
$DISPSILH
 70
     0
  9
$DIMSCALE
 40
1.0
  9
$DIMASZ
 40
3.556
  9
$DIMEXO
 40
1.0
  9
$DIMDLI
 40
3.75
  9
$DIMRND
 40
0.0
  9
$DIMDLE
 40
0.0
  9
$DIMEXE
 40
1.0
  9
$DIMTP
 40
0.0
  9
$DIMTM
 40
0.0
  9
$DIMTXT
 40
3.5
  9
$DIMCEN
 40
2.5
  9
$DIMTSZ
 40
0.0
  9
$DIMTOL
 70
     0
  9
$DIMLIM
 70
     0
  9
$DIMTIH
 70
     1
  9
$DIMTOH
 70
     1
  9
$DIMSE1
 70
     0
  9
$DIMSE2
 70
     0
  9
$DIMTAD
 70
     1
  9
$DIMZIN
 70
     0
  9
$DIMBLK
  1

  9
$DIMASO
 70
     1
  9
$DIMSHO
 70
     1
  9
$DIMPOST
  1

  9
$DIMAPOST
  1

  9
$DIMALT
 70
     0
  9
$DIMALTD
 70
     3
  9
$DIMALTF
 40
0.0393700787
  9
$DIMLFAC
 40
1.0
  9
$DIMTOFL
 70
     1
  9
$DIMTVP
 40
0.0
  9
$DIMTIX
 70
     0
  9
$DIMSOXD
 70
     0
  9
$DIMSAH
 70
     0
  9
$DIMBLK1
  1

  9
$DIMBLK2
  1

  9
$DIMSTYLE
  2
ISO-25
  9
$DIMCLRD
 70
     0
  9
$DIMCLRE
 70
     0
  9
$DIMCLRT
 70
     0
  9
$DIMTFAC
 40
1.0
  9
$DIMGAP
 40
1.524
  9
$DIMJUST
 70
     0
  9
$DIMSD1
 70
     0
  9
$DIMSD2
 70
     0
  9
$DIMTOLJ
 70
     0
  9
$DIMTZIN
 70
     0
  9
$DIMALTZ
 70
     0
  9
$DIMALTTZ
 70
     0
  9
$DIMUPT
 70
     0
  9
$DIMDEC
 70
     3
  9
$DIMTDEC
 70
     3
  9
$DIMALTU
 70
     2
  9
$DIMALTTD
 70
     3
  9
$DIMTXSTY
  7
Standard
  9
$DIMAUNIT
 70
     0
  9
$DIMADEC
 70
     2
  9
$DIMALTRND
 40
0.0
  9
$DIMAZIN
 70
     0
  9
$DIMDSEP
 70
    44
  9
$DIMATFIT
 70
     3
  9
$DIMFRAC
 70
     0
  9
$DIMLDRBLK
  1

  9
$DIMLUNIT
 70
     2
  9
$DIMLWD
 70
    -2
  9
$DIMLWE
 70
    -2
  9
$DIMTMOVE
 70
     0
  9
$LUNITS
 70
     2
  9
$LUPREC
 70
     3
  9
$SKETCHINC
 40
1.0
  9
$FILLETRAD
 40
0.0
  9
$AUNITS
 70
     0
  9
$AUPREC
 70
     2
  9
$MENU
  1
.
  9
$ELEVATION
 40
0.0
  9
$PELEVATION
 40
0.0
  9
$THICKNESS
 40
0.0
  9
$LIMCHECK
 70
     0
  9
$CHAMFERA
 40
0.0
  9
$CHAMFERB
 40
0.0
  9
$CHAMFERC
 40
0.0
  9
$CHAMFERD
 40
0.0
  9
$SKPOLY
 70
     0
  9
$TDCREATE
 40
2460398.405948982
  9
$TDUCREATE
 40
2460398.030948982
  9
$TDUPDATE
 40
2460398.405949757
  9
$TDUUPDATE
 40
2460398.030949757
  9
$TDINDWG
 40
0.0000000116
  9
$TDUSRTIMER
 40
0.0000000116
  9
$USRTIMER
 70
     1
  9
$ANGBASE
 50
0.0
  9
$ANGDIR
 70
     0
  9
$PDMODE
 70
     0
  9
$PDSIZE
 40
-1.0
  9
$PLINEWID
 40
0.0
  9
$SPLFRAME
 70
     0
  9
$SPLINETYPE
 70
     6
  9
$SPLINESEGS
 70
     8
  9
$HANDSEED
  5
2F6
  9
$SURFTAB1
 70
     6
  9
$SURFTAB2
 70
     6
  9
$SURFTYPE
 70
     6
  9
$SURFU
 70
     6
  9
$SURFV
 70
     6
  9
$UCSBASE
  2

  9
$UCSNAME
  2

  9
$UCSORG
 10
0.0
 20
0.0
 30
0.0
  9
$UCSXDIR
 10
1.0
 20
0.0
 30
0.0
  9
$UCSYDIR
 10
0.0
 20
1.0
 30
0.0
  9
$UCSORTHOREF
  2

  9
$UCSORTHOVIEW
 70
     0
  9
$UCSORGTOP
 10
0.0
 20
0.0
 30
0.0
  9
$UCSORGBOTTOM
 10
0.0
 20
0.0
 30
0.0
  9
$UCSORGLEFT
 10
0.0
 20
0.0
 30
0.0
  9
$UCSORGRIGHT
 10
0.0
 20
0.0
 30
0.0
  9
$UCSORGFRONT
 10
0.0
 20
0.0
 30
0.0
  9
$UCSORGBACK
 10
0.0
 20
0.0
 30
0.0
  9
$PUCSBASE
  2

  9
$PUCSNAME
  2

  9
$PUCSORG
 10
0.0
 20
0.0
 30
0.0
  9
$PUCSXDIR
 10
1.0
 20
0.0
 30
0.0
  9
$PUCSYDIR
 10
0.0
 20
1.0
 30
0.0
  9
$PUCSORTHOREF
  2

  9
$PUCSORTHOVIEW
 70
     0
  9
$PUCSORGTOP
 10
0.0
 20
0.0
 30
0.0
  9
$PUCSORGBOTTOM
 10
0.0
 20
0.0
 30
0.0
  9
$PUCSORGLEFT
 10
0.0
 20
0.0
 30
0.0
  9
$PUCSORGRIGHT
 10
0.0
 20
0.0
 30
0.0
  9
$PUCSORGFRONT
 10
0.0
 20
0.0
 30
0.0
  9
$PUCSORGBACK
 10
0.0
 20
0.0
 30
0.0
  9
$USERI1
 70
     0
  9
$USERI2
 70
     0
  9
$USERI3
 70
     0
  9
$USERI4
 70
     0
  9
$USERI5
 70
     0
  9
$USERR1
 40
0.0
  9
$USERR2
 40
0.0
  9
$USERR3
 40
0.0
  9
$USERR4
 40
0.0
  9
$USERR5
 40
0.0
  9
$WORLDVIEW
 70
     1
  9
$SHADEDGE
 70
     3
  9
$SHADEDIF
 70
    70
  9
$TILEMODE
 70
     1
  9
$MAXACTVP
 70
    64
  9
$PINSBASE
 10
0.0
 20
0.0
 30
0.0
  9
$PLIMCHECK
 70
     0
  9
$PEXTMIN
 10
1.0000000000E+20
 20
1.0000000000E+20
 30
1.0000000000E+20
  9
$PEXTMAX
 10
-1.0000000000E+20
 20
-1.0000000000E+20
 30
-1.0000000000E+20
  9
$PLIMMIN
 10
0.0
 20
0.0
  9
$PLIMMAX
 10
420.0
 20
297.0
  9
$UNITMODE
 70
     0
  9
$VISRETAIN
 70
     1
  9
$PLINEGEN
 70
     0
  9
$PSLTSCALE
 70
     1
  9
$TREEDEPTH
 70
  3020
  9
$CMLSTYLE
  2
Standard
  9
$CMLJUST
 70
     0
  9
$CMLSCALE
 40
20.0
  9
$PROXYGRAPHICS
 70
     1
  9
$MEASUREMENT
 70
     1
  9
$CELWEIGHT
370
    -1
  9
$ENDCAPS
280
     0
  9
$JOINSTYLE
280
     0
  9
$LWDISPLAY
290
     1
  9
$INSUNITS
 70
     4
  9
$HYPERLINKBASE
  1

  9
$STYLESHEET
  1

  9
$XEDIT
290
     1
  9
$CEPSNTYPE
380
     0
  9
$PSTYLEMODE
290
     1
  9
$FINGERPRINTGUID
  2
{99427a56-c93f-49a8-bac6-95f9b13fb08a}
  9
$VERSIONGUID
  2
{FAEB1C32-E019-11D5-929B-00C0DF256EC4}
  9
$EXTNAMES
290
     1
  9
$PSVPSCALE
 40
0.0
  9
$OLESTARTUP
290
     0
  0
ENDSEC
  0
SECTION
  2
CLASSES
  0
CLASS
  1
ACDBDICTIONARYWDFLT
  2
AcDbDictionaryWithDefault
  3
ObjectDBX Classes
 90
        0
280
     0
281
     0
  0
CLASS
  1
VISUALSTYLE
  2
AcDbVisualStyle
  3
ObjectDBX Classes
 90
     4095
280
     0
281
     0
  0
CLASS
  1
MATERIAL
  2
AcDbMaterial
  3
ObjectDBX Classes
 90
     1153
280
     0
281
     0
  0
CLASS
  1
SCALE
  2
AcDbScale
  3
ObjectDBX Classes
 90
     1153
280
     0
281
     0
  0
CLASS
  1
TABLESTYLE
  2
AcDbTableStyle
  3
ObjectDBX Classes
 90
     4095
280
     0
281
     0
  0
CLASS
  1
MLEADERSTYLE
  2
AcDbMLeaderStyle
  3
ACDB_MLEADERSTYLE_CLASS
 90
     4095
280
     0
281
     0
  0
CLASS
  1
SUN
  2
AcDbSun
  3
SCENEOE
 90
     1153
280
     0
281
     0
  0
CLASS
  1
ACDBPLACEHOLDER
  2
AcDbPlaceHolder
  3
ObjectDBX Classes
 90
        0
280
     0
281
     0
  0
CLASS
  1
LAYOUT
  2
AcDbLayout
  3
ObjectDBX Classes
 90
        0
280
     0
281
     0
  0
ENDSEC
  0
SECTION
  2
TABLES
  0
TABLE
  2
VPORT
  5
8
330
0
100
AcDbSymbolTable
 70
     1
  0
VPORT
  5
29
330
8
100
AcDbSymbolTableRecord
100
AcDbViewportTableRecord
  2
*Active
 70
     0
 10
0.0
 20
0.0
 11
1.0
 21
1.0
 12
215.9
 22
139.7
 13
0.0
 23
0.0
 14
10.0
 24
10.0
 15
10.0
 25
10.0
 16
0.0
 26
0.0
 36
1.0
 17
0.0
 27
0.0
 37
0.0
 40
279.4
 41
1.5454545455
 42
50.0
 43
0.0
 44
0.0
 50
0.0
 51
0.0
 71
     0
 72
  2000
 73
     1
 74
     3
 75
     0
 76
     0
 77
     0
 78
     0
281
     0
 65
     1
110
0.0
120
0.0
130
0.0
111
1.0
121
0.0
131
0.0
112
0.0
122
1.0
132
0.0
 79
     0
146
0.0
  0
ENDTAB
  0
TABLE
  2
LTYPE
  5
5
330
0
100
AcDbSymbolTable
 70
     6
  0
LTYPE
  5
14
330
5
100
AcDbSymbolTableRecord
100
AcDbLinetypeTableRecord
  2
ByBlock
 70
     0
  3

 72
    65
 73
     0
 40
0.0
  0
LTYPE
  5
15
330
5
100
AcDbSymbolTableRecord
100
AcDbLinetypeTableRecord
  2
ByLayer
 70
     0
  3

 72
    65
 73
     0
 40
0.0
  0
LTYPE
  5
16
330
5
100
AcDbSymbolTableRecord
100
AcDbLinetypeTableRecord
  2
Continuous
 70
     0
  3
Solid line
 72
    65
 73
     0
 40
0.0
  0
LTYPE
  5
5E
330
5
100
AcDbSymbolTableRecord
100
AcDbLinetypeTableRecord
  2
HIDDEN
 70
     0
  3
Hidden __ __ __ __ __ __ __ __ __ __ __ __ __ __
 72
    65
 73
     2
 40
1.905
 49
1.27
 74
     0
 49
-0.635
 74
     0
  0
LTYPE
  5
5F
330
5
100
AcDbSymbolTableRecord
100
AcDbLinetypeTableRecord
  2
PHANTOM
 70
     0
  3
Phantom ______  __  __  ______  __  __  ______
 72
    65
 73
     6
 40
12.7
 49
6.35
 74
     0
 49
-1.27
 74
     0
 49
1.27
 74
     0
 49
-1.27
 74
     0
 49
1.27
 74
     0
 49
-1.27
 74
     0
  0
LTYPE
  5
60
330
5
100
AcDbSymbolTableRecord
100
AcDbLinetypeTableRecord
  2
CENTER
 70
     0
  3
Center ____ _ ____ _ ____ _ ____ _ ____ _ ____
 72
    65
 73
     4
 40
10.16
 49
6.35
 74
     0
 49
-1.27
 74
     0
 49
1.27
 74
     0
 49
-1.27
 74
     0
  0
LTYPE
  5
61
330
5
100
AcDbSymbolTableRecord
100
AcDbLinetypeTableRecord
  2
CENTERX2
 70
     0
  3
Center (2x) ________  __  ________  __  _____
 72
    65
 73
     4
 40
20.32
 49
12.7
 74
     0
 49
-2.54
 74
     0
 49
2.54
 74
     0
 49
-2.54
 74
     0
  0
LTYPE
  5
62
330
5
100
AcDbSymbolTableRecord
100
AcDbLinetypeTableRecord
  2
DOT2
 70
     0
  3
Dot (.5x) ........................................
 72
    65
 73
     2
 40
0.635
 49
0.0
 74
     0
 49
-0.635
 74
     0
  0
ENDTAB
  0
TABLE
  2
LAYER
  5
2
330
0
100
AcDbSymbolTable
 70
     1
  0
LAYER
  5
10
330
2
100
AcDbSymbolTableRecord
100
AcDbLayerTableRecord
  2
0
 70
     0
 62
     7
  6
Continuous
370
    -3
390
F
  0
ENDTAB
  0
TABLE
  2
STYLE
  5
3
330
0
100
AcDbSymbolTable
 70
     2
  0
STYLE
  5
11
330
3
100
AcDbSymbolTableRecord
100
AcDbTextStyleTableRecord
  2
Standard
 70
     0
 40
0.0
 41
1.0
 50
0.0
 71
     0
 42
3.5
  3
txt
  4
bigfont
  0
STYLE
  5
63
330
3
100
AcDbSymbolTableRecord
100
AcDbTextStyleTableRecord
  2
SLDTEXTSTYLE0
 70
     0
 40
0.0
 41
0.75
 50
0.0
 71
     0
 42
3.5
  3
TXT
  4
bigfont
  0
ENDTAB
  0
TABLE
  2
VIEW
  5
6
330
0
100
AcDbSymbolTable
 70
     0
  0
ENDTAB
  0
TABLE
  2
UCS
  5
7
330
0
100
AcDbSymbolTable
 70
     0
  0
ENDTAB
  0
TABLE
  2
APPID
  5
9
330
0
100
AcDbSymbolTable
 70
     1
  0
APPID
  5
12
330
9
100
AcDbSymbolTableRecord
100
AcDbRegAppTableRecord
  2
ACAD
 70
     0
  0
ENDTAB
  0
TABLE
  2
DIMSTYLE
  5
A
330
0
100
AcDbSymbolTable
 70
     1
100
AcDbDimStyleTable
  0
DIMSTYLE
105
27
330
A
100
AcDbSymbolTableRecord
100
AcDbDimStyleTableRecord
  2
ISO-25
 70
     0
 41
2.5
 42
0.625
 43
3.75
 44
1.25
 73
     0
 74
     0
 77
     1
 78
     8
140
2.5
141
2.5
143
0.0393700787
147
0.625
171
     3
172
     1
178
     0
271
     2
272
     2
274
     3
278
    44
283
     0
284
     8
340
11
  0
ENDTAB
  0
TABLE
  2
BLOCK_RECORD
  5
1
330
0
100
AcDbSymbolTable
 70
     3
  0
BLOCK_RECORD
  5
1F
330
1
100
AcDbSymbolTableRecord
100
AcDbBlockTableRecord
  2
*Model_Space
340
22
  0
BLOCK_RECORD
  5
1B
330
1
100
AcDbSymbolTableRecord
100
AcDbBlockTableRecord
  2
*Paper_Space
340
1E
  0
BLOCK_RECORD
  5
23
330
1
100
AcDbSymbolTableRecord
100
AcDbBlockTableRecord
  2
*Paper_Space0
340
26
  0
BLOCK_RECORD
  5
272
330
1
100
AcDbSymbolTableRecord
100
AcDbBlockTableRecord
  2
SW_CENTERMARKSYMBOL_0
340
0
102
{BLKREFS
331
27D
102
}
  0
BLOCK_RECORD
  5
2E9
330
1
100
AcDbSymbolTableRecord
100
AcDbBlockTableRecord
  2
SW_CENTERMARKSYMBOL_1
340
0
102
{BLKREFS
331
2F4
102
}
  0
ENDTAB
  0
ENDSEC
  0
SECTION
  2
BLOCKS
  0
BLOCK
  5
20
330
1F
100
AcDbEntity
  8
0
100
AcDbBlockBegin
  2
*Model_Space
 70
     0
 10
0.0
 20
0.0
 30
0.0
  3
*Model_Space
  1

  0
ENDBLK
  5
21
330
1F
100
AcDbEntity
  8
0
100
AcDbBlockEnd
  0
BLOCK
  5
1C
330
1B
100
AcDbEntity
 67
     1
  8
0
100
AcDbBlockBegin
  2
*Paper_Space
 70
     0
 10
0.0
 20
0.0
 30
0.0
  3
*Paper_Space
  1

  0
ENDBLK
  5
1D
330
1B
100
AcDbEntity
 67
     1
  8
0
100
AcDbBlockEnd
  0
BLOCK
  5
24
330
23
100
AcDbEntity
  8
0
100
AcDbBlockBegin
  2
*Paper_Space0
 70
     0
 10
0.0
 20
0.0
 30
0.0
  3
*Paper_Space0
  1

  0
ENDBLK
  5
25
330
23
100
AcDbEntity
  8
0
100
AcDbBlockEnd
  0
BLOCK
  5
273
330
272
100
AcDbEntity
  8
0
100
AcDbBlockBegin
  2
SW_CENTERMARKSYMBOL_0
 70
     0
 10
0.0
 20
0.0
 30
0.0
  3
SW_CENTERMARKSYMBOL_0
  1

  0
LINE
  5
275
330
272
100
AcDbEntity
  8
0
  6
Continuous
 62
     0
370
    18
100
AcDbLine
 10
0.0
 20
0.0
 30
0.0
 11
0.0
 21
2.5
 31
0.0
  0
LINE
  5
276
330
272
100
AcDbEntity
  8
0
  6
Continuous
 62
     0
370
    18
100
AcDbLine
 10
0.0
 20
0.0
 30
0.0
 11
-2.5
 21
0.0
 31
0.0
  0
LINE
  5
277
330
272
100
AcDbEntity
  8
0
  6
Continuous
 62
     0
370
    18
100
AcDbLine
 10
0.0
 20
0.0
 30
0.0
 11
0.0
 21
-2.5
 31
0.0
  0
LINE
  5
278
330
272
100
AcDbEntity
  8
0
  6
Continuous
 62
     0
370
    18
100
AcDbLine
 10
0.0
 20
0.0
 30
0.0
 11
2.5
 21
0.0
 31
0.0
  0
LINE
  5
279
330
272
100
AcDbEntity
  8
0
  6
Continuous
 62
     0
370
    18
100
AcDbLine
 10
0.0
 20
5.0
 30
0.0
 11
0.0
 21
12.3181871482
 31
0.0
  0
LINE
  5
27A
330
272
100
AcDbEntity
  8
0
  6
Continuous
 62
     0
370
    18
100
AcDbLine
 10
-5.0
 20
0.0
 30
0.0
 11
-29.0740620263
 21
0.0
 31
0.0
  0
LINE
  5
27B
330
272
100
AcDbEntity
  8
0
  6
Continuous
 62
     0
370
    18
100
AcDbLine
 10
0.0
 20
-5.0
 30
0.0
 11
0.0
 21
-13.5620103693
 31
0.0
  0
LINE
  5
27C
330
272
100
AcDbEntity
  8
0
  6
Continuous
 62
     0
370
    18
100
AcDbLine
 10
5.0
 20
0.0
 30
0.0
 11
43.8714504458
 21
0.0
 31
0.0
  0
ENDBLK
  5
274
330
272
100
AcDbEntity
  8
0
100
AcDbBlockEnd
  0
BLOCK
  5
2EA
330
2E9
100
AcDbEntity
  8
0
100
AcDbBlockBegin
  2
SW_CENTERMARKSYMBOL_1
 70
     0
 10
0.0
 20
0.0
 30
0.0
  3
SW_CENTERMARKSYMBOL_1
  1

  0
LINE
  5
2EC
330
2E9
100
AcDbEntity
  8
0
  6
Continuous
 62
     0
370
    18
100
AcDbLine
 10
0.0
 20
0.0
 30
0.0
 11
0.0
 21
2.5
 31
0.0
  0
LINE
  5
2ED
330
2E9
100
AcDbEntity
  8
0
  6
Continuous
 62
     0
370
    18
100
AcDbLine
 10
0.0
 20
0.0
 30
0.0
 11
-2.5
 21
0.0
 31
0.0
  0
LINE
  5
2EE
330
2E9
100
AcDbEntity
  8
0
  6
Continuous
 62
     0
370
    18
100
AcDbLine
 10
0.0
 20
0.0
 30
0.0
 11
0.0
 21
-2.5
 31
0.0
  0
LINE
  5
2EF
330
2E9
100
AcDbEntity
  8
0
  6
Continuous
 62
     0
370
    18
100
AcDbLine
 10
0.0
 20
0.0
 30
0.0
 11
2.5
 21
0.0
 31
0.0
  0
LINE
  5
2F0
330
2E9
100
AcDbEntity
  8
0
  6
Continuous
 62
     0
370
    18
100
AcDbLine
 10
0.0
 20
5.0
 30
0.0
 11
0.0
 21
32.6339566169
 31
0.0
  0
LINE
  5
2F1
330
2E9
100
AcDbEntity
  8
0
  6
Continuous
 62
     0
370
    18
100
AcDbLine
 10
-5.0
 20
0.0
 30
0.0
 11
-14.0402217215
 21
0.0
 31
0.0
  0
LINE
  5
2F2
330
2E9
100
AcDbEntity
  8
0
  6
Continuous
 62
     0
370
    18
100
AcDbLine
 10
0.0
 20
-5.0
 30
0.0
 11
0.0
 21
-15.3439744954
 31
0.0
  0
LINE
  5
2F3
330
2E9
100
AcDbEntity
  8
0
  6
Continuous
 62
     0
370
    18
100
AcDbLine
 10
5.0
 20
0.0
 30
0.0
 11
14.7472944773
 21
0.0
 31
0.0
  0
ENDBLK
  5
2EB
330
2E9
100
AcDbEntity
  8
0
100
AcDbBlockEnd
  0
ENDSEC
  0
SECTION
  2
ENTITIES
  0
MTEXT
  5
64
330
1F
100
AcDbEntity
  8
0
  6
Continuous
 62
     7
370
     0
100
AcDbMText
 10
56.680723306
 20
62.6867719425
 30
0.0
 40
2.9104166667
 41
0.0
 71
     1
 72
     1
  1
エースボール　ストレート　BS-9044R
  7
SLDTEXTSTYLE0
 73
     1
 44
1.0
  0
LINE
  5
65
330
1F
100
AcDbEntity
  8
0
  6
Continuous
 62
     7
370
    25
100
AcDbLine
 10
65.7858654041
 20
10.9716883518
 30
0.0
 11
77.0894741311
 21
11.3249261245
 31
0.0
  0
LINE
  5
66
330
1F
100
AcDbEntity
  8
0
  6
Continuous
 62
     7
370
    25
100
AcDbLine
 10
77.0894741311
 20
31.938450579
 30
0.0
 11
65.7858654041
 21
32.2916883518
 31
0.0
  0
LINE
  5
67
330
1F
100
AcDbEntity
  8
0
  6
Continuous
 62
     7
370
    25
100
AcDbLine
 10
77.0894741311
 20
11.3249261245
 30
0.0
 11
79.7858654041
 21
12.8816883518
 31
0.0
  0
LINE
  5
68
330
1F
100
AcDbEntity
  8
0
  6
Continuous
 62
     7
370
    25
100
AcDbLine
 10
79.7858654041
 20
30.3816883518
 30
0.0
 11
77.0894741311
 21
31.938450579
 31
0.0
  0
LINE
  5
69
330
1F
100
AcDbEntity
  8
0
  6
Continuous
 62
     7
370
    25
100
AcDbLine
 10
65.7858654041
 20
32.6316883518
 30
0.0
 11
64.8033850318
 21
34.3333942739
 31
0.0
  0
LINE
  5
6A
330
1F
100
AcDbEntity
  8
0
  6
Continuous
 62
     7
370
    25
100
AcDbLine
 10
56.7683457763
 20
34.3333942739
 30
0.0
 11
55.7858654041
 21
32.6316883518
 31
0.0
  0
LINE
  5
6B
330
1F
100
AcDbEntity
  8
0
  6
Continuous
 62
     7
370
    25
100
AcDbLine
 10
55.7858654041
 20
10.6316883518
 30
0.0
 11
56.7683457763
 21
8.9299824296
 31
0.0
  0
LINE
  5
6C
330
1F
100
AcDbEntity
  8
0
  6
Continuous
 62
     7
370
    25
100
AcDbLine
 10
64.8033850318
 20
8.9299824296
 30
0.0
 11
65.7858654041
 21
10.6316883518
 31
0.0
  0
LINE
  5
6D
330
1F
100
AcDbEntity
  8
0
  6
Continuous
 62
     7
370
    25
100
AcDbLine
 10
55.5358654041
 20
33.6316883518
 30
0.0
 11
52.7787586229
 21
33.6316883518
 31
0.0
  0
LINE
  5
6E
330
1F
100
AcDbEntity
  8
0
  6
Continuous
 62
     7
370
    25
100
AcDbLine
 10
52.7787586229
 20
9.6316883518
 30
0.0
 11
55.5358654041
 21
9.6316883518
 31
0.0
  0
LINE
  5
6F
330
1F
100
AcDbEntity
  8
0
  6
Continuous
 62
     7
370
    25
100
AcDbLine
 10
30.5358654041
 20
9.6316883518
 30
0.0
 11
33.2929721853
 21
9.6316883518
 31
0.0
  0
LINE
  5
70
330
1F
100
AcDbEntity
  8
0
  6
Continuous
 62
     7
370
    25
100
AcDbLine
 10
33.2929721853
 20
33.6316883518
 30
0.0
 11
30.5358654041
 21
33.6316883518
 31
0.0
  0
LINE
  5
71
330
1F
100
AcDbEntity
  8
0
  6
Continuous
 62
     7
370
    25
100
AcDbLine
 10
55.5358654041
 20
9.6316883518
 30
0.0
 11
55.7858654041
 21
9.8816883518
 31
0.0
  0
LINE
  5
72
330
1F
100
AcDbEntity
  8
0
  6
Continuous
 62
     7
370
    25
100
AcDbLine
 10
55.7858654041
 20
33.3816883518
 30
0.0
 11
55.5358654041
 21
33.6316883518
 31
0.0
  0
LINE
  5
73
330
1F
100
AcDbEntity
  8
0
  6
Continuous
 62
     7
370
    25
100
AcDbLine
 10
30.5358654041
 20
33.6316883518
 30
0.0
 11
30.2858654041
 21
33.3816883518
 31
0.0
  0
LINE
  5
74
330
1F
100
AcDbEntity
  8
0
  6
Continuous
 62
     7
370
    25
100
AcDbLine
 10
30.2858654041
 20
9.8816883518
 30
0.0
 11
30.5358654041
 21
9.6316883518
 31
0.0
  0
LINE
  5
75
330
1F
100
AcDbEntity
  8
0
  6
Continuous
 62
     7
370
    25
100
AcDbLine
 10
33.2929721853
 20
9.6316883518
 30
0.0
 11
33.5358314095
 21
9.874547576
 31
0.0
  0
LINE
  5
76
330
1F
100
AcDbEntity
  8
0
  6
Continuous
 62
     7
370
    25
100
AcDbLine
 10
52.7787586229
 20
33.6316883518
 30
0.0
 11
52.5358993986
 21
33.3888291275
 31
0.0
  0
LINE
  5
77
330
1F
100
AcDbEntity
  8
0
  6
Continuous
 62
     7
370
    25
100
AcDbLine
 10
33.5358314095
 20
33.3888291275
 30
0.0
 11
33.2929721853
 21
33.6316883518
 31
0.0
  0
LINE
  5
78
330
1F
100
AcDbEntity
  8
0
  6
Continuous
 62
     7
370
    25
100
AcDbLine
 10
52.5358993986
 20
9.874547576
 30
0.0
 11
52.7787586229
 21
9.6316883518
 31
0.0
  0
LINE
  5
79
330
1F
100
AcDbEntity
  8
0
  6
Continuous
 62
     7
370
    25
100
AcDbLine
 10
30.2858654041
 20
32.2916883518
 30
0.0
 11
18.982256677
 21
31.938450579
 31
0.0
  0
LINE
  5
7A
330
1F
100
AcDbEntity
  8
0
  6
Continuous
 62
     7
370
    25
100
AcDbLine
 10
18.982256677
 20
11.3249261245
 30
0.0
 11
30.2858654041
 21
10.9716883518
 31
0.0
  0
ARC
  5
7B
330
1F
100
AcDbEntity
  8
0
  6
Continuous
 62
     7
370
    25
100
AcDbCircle
 10
32.7858654041
 20
33.3816883518
 30
0.0
 40
0.75
100
AcDbArc
 50
0.0
 51
0.5455233255
  0
ARC
  5
7C
330
1F
100
AcDbEntity
  8
0
  6
Continuous
 62
     7
370
    25
100
AcDbCircle
 10
53.2858654041
 20
9.8816883518
 30
0.0
 40
0.75
100
AcDbArc
 50
180.0
 51
180.5455233255
  0
ARC
  5
7D
330
1F
100
AcDbEntity
  8
0
  6
Continuous
 62
     7
370
    25
100
AcDbCircle
 10
53.2858654041
 20
33.3816883518
 30
0.0
 40
0.75
100
AcDbArc
 50
179.4544766745
 51
180.0
  0
ARC
  5
7E
330
1F
100
AcDbEntity
  8
0
  6
Continuous
 62
     7
370
    25
100
AcDbCircle
 10
32.7858654041
 20
9.8816883518
 30
0.0
 40
0.75
100
AcDbArc
 50
359.4544766745
 51
0.0
  0
LINE
  5
7F
330
1F
100
AcDbEntity
  8
0
  6
Continuous
 62
     7
370
    25
100
AcDbLine
 10
18.982256677
 20
31.938450579
 30
0.0
 11
16.2858654041
 21
30.3816883518
 31
0.0
  0
LINE
  5
80
330
1F
100
AcDbEntity
  8
0
  6
Continuous
 62
     7
370
    25
100
AcDbLine
 10
16.2858654041
 20
12.8816883518
 30
0.0
 11
18.982256677
 21
11.3249261245
 31
0.0
  0
ARC
  5
81
330
1F
100
AcDbEntity
  8
0
  6
Continuous
 62
     7
370
    25
100
AcDbCircle
 10
52.1358654041
 20
33.0316883518
 30
0.0
 40
0.3999999999999986
100
AcDbArc
 50
270.0
 51
0.0
  0
ARC
  5
82
330
1F
100
AcDbEntity
  8
0
  6
Continuous
 62
     7
370
    25
100
AcDbCircle
 10
33.9358654041
 20
10.2316883518
 30
0.0
 40
0.3999999999999986
100
AcDbArc
 50
90.0
 51
180.0
  0
ARC
  5
83
330
1F
100
AcDbEntity
  8
0
  6
Continuous
 62
     7
370
    25
100
AcDbCircle
 10
33.9358654041
 20
33.0316883518
 30
0.0
 40
0.3999999999999986
100
AcDbArc
 50
180.0
 51
270.0
  0
ARC
  5
84
330
1F
100
AcDbEntity
  8
0
  6
Continuous
 62
     7
370
    25
100
AcDbCircle
 10
52.1358654041
 20
10.2316883518
 30
0.0
 40
0.3999999999999986
100
AcDbArc
 50
0.0
 51
90.0
  0
LINE
  5
85
330
1F
100
AcDbEntity
  8
0
  6
Continuous
 62
     7
370
    25
100
AcDbLine
 10
36.6358654041
 20
32.6316883518
 30
0.0
 11
33.9358654041
 21
32.6316883518
 31
0.0
  0
LINE
  5
86
330
1F
100
AcDbEntity
  8
0
  6
Continuous
 62
     7
370
    25
100
AcDbLine
 10
52.1358654041
 20
32.6316883518
 30
0.0
 11
49.4114250963
 21
32.6316883518
 31
0.0
  0
LINE
  5
87
330
1F
100
AcDbEntity
  8
0
  6
Continuous
 62
     7
370
    25
100
AcDbLine
 10
33.9358654041
 20
10.6316883518
 30
0.0
 11
52.1358654041
 21
10.6316883518
 31
0.0
  0
SPLINE
  5
88
330
1F
100
AcDbEntity
  8
0
  6
Continuous
 62
     7
370
    25
100
AcDbSpline
210
0.0
220
0.0
230
1.0
 70
     8
 71
     3
 72
    13
 73
     9
 74
     0
 42
0.00000001
 43
0.00000001
 40
0.0
 40
0.0
 40
0.0
 40
0.0
 40
0.0275264756182349
 40
0.2659629254831279
 40
0.4954420816764454
 40
0.7362576538837284
 40
0.9705751254036075
 40
1.0
 40
1.0
 40
1.0
 40
1.0
 10
49.41085270005284
 20
32.62984623652201
 30
0.0
 10
49.40411125844678
 20
32.62944929416581
 30
0.0
 10
49.33897493092025
 20
32.62561400657697
 30
0.0
 10
49.21557039289045
 20
32.66739877960353
 30
0.0
 10
49.06734473812454
 20
32.7683985562621
 30
0.0
 10
48.96909619091969
 20
32.91784229361913
 30
0.0
 10
48.92811722593353
 20
33.04336589724709
 30
0.0
 10
48.93408939765817
 20
33.10913294198458
 30
0.0
 10
48.93475569340724
 20
33.11647035697489
 30
0.0
  0
SPLINE
  5
89
330
1F
100
AcDbEntity
  8
0
  6
Continuous
 62
     7
370
    25
100
AcDbSpline
210
0.0
220
0.0
230
1.0
 70
     8
 71
     3
 72
    14
 73
    10
 74
     0
 42
0.00000001
 43
0.00000001
 40
0.0
 40
0.0
 40
0.0
 40
0.0
 40
0.005669591428022
 40
0.2286027590219653
 40
0.4567285499612971
 40
0.6625834169438357
 40
0.8300375043401321
 40
0.9716894279864764
 40
1.0
 40
1.0
 40
1.0
 40
1.0
 10
37.13774287293877
 20
33.13035429393268
 30
0.0
 10
37.13799939140779
 20
33.12888023983972
 30
0.0
 10
37.14834243472959
 20
33.06944512235727
 30
0.0
 10
37.11171437715662
 20
32.94650698094343
 30
0.0
 10
37.02606527108809
 20
32.79525888599913
 30
0.0
 10
36.89920106587519
 20
32.69233550157845
 30
0.0
 10
36.77246599283934
 20
32.64219569251365
 30
0.0
 10
36.68299413396925
 20
32.62567156264696
 30
0.0
 10
36.63915612370712
 20
32.62901336129257
 30
0.0
 10
36.63185404720114
 20
32.62957000310254
 30
0.0
  0
LINE
  5
8A
330
1F
100
AcDbEntity
  8
0
  6
Continuous
 62
     7
370
    25
100
AcDbLine
 10
48.9358654041
 20
33.1181047488
 30
0.0
 11
48.9358654041
 21
34.1316883518
 31
0.0
  0
LINE
  5
8B
330
1F
100
AcDbEntity
  8
0
  6
Continuous
 62
     7
370
    25
100
AcDbLine
 10
37.1358654041
 20
34.1316883518
 30
0.0
 11
37.1358654041
 21
33.1316883518
 31
0.0
  0
LINE
  5
8C
330
1F
100
AcDbEntity
  8
0
  6
Continuous
 62
     7
370
    25
100
AcDbLine
 10
37.5358654041
 20
50.1316883518
 30
0.0
 11
35.5858654041
 21
42.1316883518
 31
0.0
  0
LINE
  5
8D
330
1F
100
AcDbEntity
  8
0
  6
Continuous
 62
     7
370
    25
100
AcDbLine
 10
35.5858654041
 20
42.1316883518
 30
0.0
 11
36.0358654041
 21
34.1316883518
 31
0.0
  0
LINE
  5
8E
330
1F
100
AcDbEntity
  8
0
  6
Continuous
 62
     7
370
    25
100
AcDbLine
 10
50.0358654041
 20
34.1316883518
 30
0.0
 11
50.1046108217
 21
35.353829109
 31
0.0
  0
LINE
  5
8F
330
1F
100
AcDbEntity
  8
0
  6
Continuous
 62
     7
370
    25
100
AcDbLine
 10
48.7890969386
 20
49.0927897486
 30
0.0
 11
48.5358654041
 21
50.1316883518
 31
0.0
  0
SPLINE
  5
90
330
1F
100
AcDbEntity
  8
0
  6
Continuous
 62
     7
370
    25
100
AcDbSpline
210
0.0
220
0.0
230
1.0
 70
     8
 71
     3
 72
    10
 73
     6
 74
     0
 42
0.00000001
 43
0.00000001
 40
0.0
 40
0.0
 40
0.0
 40
0.0
 40
0.2383189652402307
 40
0.6170494709505401
 40
1.0
 40
1.0
 40
1.0
 40
1.0
 10
65.78586540408732
 20
21.6316883517691
 30
0.0
 10
65.7731631558783
 20
21.11963217234034
 30
0.0
 10
65.74027481428381
 20
19.79382919105022
 30
0.0
 10
65.43252655245222
 20
17.65918827360996
 30
0.0
 10
65.01387204424033
 20
16.07654251914301
 30
0.0
 10
64.80338503183988
 20
15.2808353906832
 30
0.0
  0
LINE
  5
91
330
1F
100
AcDbEntity
  8
0
  6
Continuous
 62
     7
370
    25
100
AcDbLine
 10
64.8033850318
 20
15.2808353907
 30
0.0
 11
56.7683457763
 21
15.2808353907
 31
0.0
  0
SPLINE
  5
92
330
1F
100
AcDbEntity
  8
0
  6
Continuous
 62
     7
370
    25
100
AcDbSpline
210
0.0
220
0.0
230
1.0
 70
     8
 71
     3
 72
    10
 73
     6
 74
     0
 42
0.00000001
 43
0.00000001
 40
0.0
 40
0.0
 40
0.0
 40
0.0
 40
0.2383189652402307
 40
0.6170494709505401
 40
1.0
 40
1.0
 40
1.0
 40
1.0
 10
55.78586540408733
 20
21.6316883517691
 30
0.0
 10
55.79856765229636
 20
21.11963217234034
 30
0.0
 10
55.83145599389084
 20
19.79382919105022
 30
0.0
 10
56.13920425572244
 20
17.65918827360996
 30
0.0
 10
56.55785876393431
 20
16.07654251914301
 30
0.0
 10
56.76834577633478
 20
15.2808353906832
 30
0.0
  0
SPLINE
  5
93
330
1F
100
AcDbEntity
  8
0
  6
Continuous
 62
     7
370
    25
100
AcDbSpline
210
0.0
220
0.0
230
1.0
 70
     8
 71
     3
 72
    10
 73
     6
 74
     0
 42
0.00000001
 43
0.00000001
 40
0.0
 40
0.0
 40
0.0
 40
0.0
 40
0.2192241705361767
 40
0.6070735784377262
 40
1.0
 40
1.0
 40
1.0
 40
1.0
 10
56.76834577633478
 20
27.982541312855
 30
0.0
 10
56.64403307314153
 20
27.52835812842462
 30
0.0
 10
56.29978746651788
 20
26.27063818648559
 30
0.0
 10
55.88586269145591
 20
24.15434568105961
 30
0.0
 10
55.81934201730616
 20
22.47621149753234
 30
0.0
 10
55.78586540408733
 20
21.6316883517691
 30
0.0
  0
LINE
  5
94
330
1F
100
AcDbEntity
  8
0
  6
Continuous
 62
     7
370
    25
100
AcDbLine
 10
64.8033850318
 20
27.9825413129
 30
0.0
 11
56.7683457763
 21
27.9825413129
 31
0.0
  0
SPLINE
  5
95
330
1F
100
AcDbEntity
  8
0
  6
Continuous
 62
     7
370
    25
100
AcDbSpline
210
0.0
220
0.0
230
1.0
 70
     8
 71
     3
 72
    10
 73
     6
 74
     0
 42
0.00000001
 43
0.00000001
 40
0.0
 40
0.0
 40
0.0
 40
0.0
 40
0.2192241705361767
 40
0.6070735784377262
 40
1.0
 40
1.0
 40
1.0
 40
1.0
 10
64.80338503183988
 20
27.982541312855
 30
0.0
 10
64.92769773503312
 20
27.52835812842462
 30
0.0
 10
65.27194334165678
 20
26.27063818648559
 30
0.0
 10
65.68586811671872
 20
24.15434568105961
 30
0.0
 10
65.7523887908685
 20
22.47621149753234
 30
0.0
 10
65.78586540408732
 20
21.6316883517691
 30
0.0
  0
SPLINE
  5
96
330
1F
100
AcDbEntity
  8
0
  6
Continuous
 62
     7
370
    25
100
AcDbSpline
210
0.0
220
0.0
230
1.0
 70
     8
 71
     3
 72
    11
 73
     7
 74
     0
 42
0.00000001
 43
0.00000001
 40
0.0
 40
0.0
 40
0.0
 40
0.0
 40
0.2477111816679855
 40
0.4953654927331215
 40
0.7477052806358121
 40
1.0
 40
1.0
 40
1.0
 40
1.0
 10
56.76834577633478
 20
15.2808353906832
 30
0.0
 10
56.62770212299618
 20
15.02405349977808
 30
0.0
 10
56.3464471058963
 20
14.51054867106329
 30
0.0
 10
56.03712603199339
 20
13.72161149923886
 30
0.0
 10
55.82687238874845
 20
12.91893853223545
 30
0.0
 10
55.79953358510486
 20
12.37656930463914
 30
0.0
 10
55.78586540408733
 20
12.10540891014036
 30
0.0
  0
SPLINE
  5
97
330
1F
100
AcDbEntity
  8
0
  6
Continuous
 62
     7
370
    25
100
AcDbSpline
210
0.0
220
0.0
230
1.0
 70
     8
 71
     3
 72
    12
 73
     8
 74
     0
 42
0.00000001
 43
0.00000001
 40
0.0
 40
0.0
 40
0.0
 40
0.0
 40
0.070062091225424
 40
0.3004295246571893
 40
0.5308328928489247
 40
0.7653937685833793
 40
1.0
 40
1.0
 40
1.0
 40
1.0
 10
65.78586540408732
 20
31.15796779339799
 30
0.0
 10
65.7847591674611
 20
31.08268579586593
 30
0.0
 10
65.78001557305846
 20
30.75987306878028
 30
0.0
 10
65.70559670112382
 20
30.18997336507919
 30
0.0
 10
65.50267302234533
 20
29.4493069334308
 30
0.0
 10
65.20364993568523
 20
28.71194901152495
 30
0.0
 10
64.9368152650036
 20
28.2256928816534
 30
0.0
 10
64.80338503183988
 20
27.982541312855
 30
0.0
  0
SPLINE
  5
98
330
1F
100
AcDbEntity
  8
0
  6
Continuous
 62
     7
370
    25
100
AcDbSpline
210
0.0
220
0.0
230
1.0
 70
     8
 71
     3
 72
    12
 73
     8
 74
     0
 42
0.00000001
 43
0.00000001
 40
0.0
 40
0.0
 40
0.0
 40
0.0
 40
0.070062091225424
 40
0.3004295246571893
 40
0.5308328928489248
 40
0.7653937685833794
 40
1.0
 40
1.0
 40
1.0
 40
1.0
 10
55.78586540408733
 20
31.15796779339799
 30
0.0
 10
55.78697164071356
 20
31.08268579586593
 30
0.0
 10
55.7917152351162
 20
30.75987306878028
 30
0.0
 10
55.86613410705084
 20
30.18997336507919
 30
0.0
 10
56.06905778582932
 20
29.4493069334308
 30
0.0
 10
56.36808087248943
 20
28.71194901152495
 30
0.0
 10
56.63491554317106
 20
28.2256928816534
 30
0.0
 10
56.76834577633478
 20
27.982541312855
 30
0.0
  0
SPLINE
  5
99
330
1F
100
AcDbEntity
  8
0
  6
Continuous
 62
     7
370
    25
100
AcDbSpline
210
0.0
220
0.0
230
1.0
 70
     8
 71
     3
 72
    11
 73
     7
 74
     0
 42
0.00000001
 43
0.00000001
 40
0.0
 40
0.0
 40
0.0
 40
0.0
 40
0.2477111816679849
 40
0.4953654927331206
 40
0.7477052806358114
 40
1.0
 40
1.0
 40
1.0
 40
1.0
 10
56.76834577633478
 20
34.33339427394099
 30
0.0
 10
56.62770212299618
 20
34.07661238303587
 30
0.0
 10
56.34644710589629
 20
33.56310755432106
 30
0.0
 10
56.03712603199336
 20
32.77417038249661
 30
0.0
 10
55.82687238874844
 20
31.97149741549315
 30
0.0
 10
55.79953358510485
 20
31.4291281878968
 30
0.0
 10
55.78586540408733
 20
31.15796779339799
 30
0.0
  0
LINE
  5
9A
330
1F
100
AcDbEntity
  8
0
  6
Continuous
 62
     7
370
    25
100
AcDbLine
 10
64.8033850318
 20
34.3333942739
 30
0.0
 11
56.7683457763
 21
34.3333942739
 31
0.0
  0
SPLINE
  5
9B
330
1F
100
AcDbEntity
  8
0
  6
Continuous
 62
     7
370
    25
100
AcDbSpline
210
0.0
220
0.0
230
1.0
 70
     8
 71
     3
 72
    11
 73
     7
 74
     0
 42
0.00000001
 43
0.00000001
 40
0.0
 40
0.0
 40
0.0
 40
0.0
 40
0.2477111816679849
 40
0.4953654927331206
 40
0.7477052806358114
 40
1.0
 40
1.0
 40
1.0
 40
1.0
 10
64.80338503183988
 20
34.33339427394099
 30
0.0
 10
64.94402868517848
 20
34.07661238303587
 30
0.0
 10
65.22528370227838
 20
33.56310755432106
 30
0.0
 10
65.53460477618131
 20
32.77417038249661
 30
0.0
 10
65.74485841942622
 20
31.97149741549315
 30
0.0
 10
65.77219722306981
 20
31.4291281878968
 30
0.0
 10
65.78586540408732
 20
31.15796779339799
 30
0.0
  0
LINE
  5
9C
330
1F
100
AcDbEntity
  8
0
  6
Continuous
 62
     7
370
    25
100
AcDbLine
 10
65.7858654041
 20
31.1579677934
 30
0.0
 11
65.7858654041
 21
21.6316883518
 31
0.0
  0
LINE
  5
9D
330
1F
100
AcDbEntity
  8
0
  6
Continuous
 62
     7
370
    25
100
AcDbLine
 10
65.7858654041
 20
21.6316883518
 30
0.0
 11
65.7858654041
 21
12.1054089101
 31
0.0
  0
SPLINE
  5
9E
330
1F
100
AcDbEntity
  8
0
  6
Continuous
 62
     7
370
    25
100
AcDbSpline
210
0.0
220
0.0
230
1.0
 70
     8
 71
     3
 72
    11
 73
     7
 74
     0
 42
0.00000001
 43
0.00000001
 40
0.0
 40
0.0
 40
0.0
 40
0.0
 40
0.2477111816679855
 40
0.4953654927331215
 40
0.7477052806358121
 40
1.0
 40
1.0
 40
1.0
 40
1.0
 10
64.80338503183988
 20
15.2808353906832
 30
0.0
 10
64.94402868517847
 20
15.02405349977808
 30
0.0
 10
65.22528370227836
 20
14.51054867106329
 30
0.0
 10
65.53460477618128
 20
13.72161149923886
 30
0.0
 10
65.74485841942621
 20
12.91893853223545
 30
0.0
 10
65.77219722306981
 20
12.37656930463914
 30
0.0
 10
65.78586540408732
 20
12.10540891014036
 30
0.0
  0
SPLINE
  5
9F
330
1F
100
AcDbEntity
  8
0
  6
Continuous
 62
     7
370
    25
100
AcDbSpline
210
0.0
220
0.0
230
1.0
 70
     8
 71
     3
 72
    12
 73
     8
 74
     0
 42
0.00000001
 43
0.00000001
 40
0.0
 40
0.0
 40
0.0
 40
0.0
 40
0.0700620912254371
 40
0.3004295246571993
 40
0.5308328928489318
 40
0.7653937685833827
 40
1.0
 40
1.0
 40
1.0
 40
1.0
 10
65.78586540408732
 20
12.10540891014036
 30
0.0
 10
65.7847591674611
 20
12.03012691260827
 30
0.0
 10
65.7800155730584
 20
11.70731418552256
 30
0.0
 10
65.70559670112378
 20
11.13741448182153
 30
0.0
 10
65.5026730223453
 20
10.39674805017316
 30
0.0
 10
65.2036499356852
 20
9.659390128267352
 30
0.0
 10
64.93681526500359
 20
9.173133998395832
 30
0.0
 10
64.80338503183988
 20
8.929982429597437
 30
0.0
  0
LINE
  5
A0
330
1F
100
AcDbEntity
  8
0
  6
Continuous
 62
     7
370
    25
100
AcDbLine
 10
64.8033850318
 20
8.9299824296
 30
0.0
 11
56.7683457763
 21
8.9299824296
 31
0.0
  0
SPLINE
  5
A1
330
1F
100
AcDbEntity
  8
0
  6
Continuous
 62
     7
370
    25
100
AcDbSpline
210
0.0
220
0.0
230
1.0
 70
     8
 71
     3
 72
    12
 73
     8
 74
     0
 42
0.00000001
 43
0.00000001
 40
0.0
 40
0.0
 40
0.0
 40
0.0
 40
0.0700620912254371
 40
0.3004295246571992
 40
0.5308328928489318
 40
0.7653937685833827
 40
1.0
 40
1.0
 40
1.0
 40
1.0
 10
55.78586540408733
 20
12.10540891014036
 30
0.0
 10
55.78697164071356
 20
12.03012691260826
 30
0.0
 10
55.79171523511625
 20
11.70731418552256
 30
0.0
 10
55.86613410705086
 20
11.13741448182153
 30
0.0
 10
56.06905778582936
 20
10.39674805017316
 30
0.0
 10
56.36808087248944
 20
9.659390128267349
 30
0.0
 10
56.63491554317106
 20
9.173133998395832
 30
0.0
 10
56.76834577633478
 20
8.929982429597437
 30
0.0
  0
LINE
  5
A2
330
1F
100
AcDbEntity
  8
0
  6
Continuous
 62
     7
370
    25
100
AcDbLine
 10
77.0894741311
 20
31.938450579
 30
0.0
 11
77.0894741311
 21
11.3249261245
 31
0.0
  0
LINE
  5
A3
330
1F
100
AcDbEntity
  8
0
  6
Continuous
 62
     7
370
    25
100
AcDbLine
 10
79.7858654041
 20
21.6316883518
 30
0.0
 11
79.7858654041
 21
12.8816883518
 31
0.0
  0
LINE
  5
A4
330
1F
100
AcDbEntity
  8
0
  6
Continuous
 62
     7
370
    25
100
AcDbLine
 10
79.7858654041
 20
30.3816883518
 30
0.0
 11
79.7858654041
 21
21.6316883518
 31
0.0
  0
LINE
  5
A5
330
1F
100
AcDbEntity
  8
0
  6
Continuous
 62
     7
370
    25
100
AcDbLine
 10
65.7858654041
 20
32.6316883518
 30
0.0
 11
65.7858654041
 21
31.1579677934
 31
0.0
  0
LINE
  5
A6
330
1F
100
AcDbEntity
  8
0
  6
Continuous
 62
     7
370
    25
100
AcDbLine
 10
65.7858654041
 20
12.1054089101
 30
0.0
 11
65.7858654041
 21
10.6316883518
 31
0.0
  0
LINE
  5
A7
330
1F
100
AcDbEntity
  8
0
  6
Continuous
 62
     7
370
    25
100
AcDbLine
 10
55.5358654041
 20
9.6316883518
 30
0.0
 11
55.5358654041
 21
33.6316883518
 31
0.0
  0
SPLINE
  5
A8
330
1F
100
AcDbEntity
  8
0
  6
Continuous
 62
     7
370
    25
100
AcDbSpline
210
0.0
220
0.0
230
1.0
 70
     8
 71
     3
 72
    14
 73
    10
 74
     0
 42
0.00000001
 43
0.00000001
 40
0.0
 40
0.0
 40
0.0
 40
0.0
 40
0.0833728361875584
 40
0.1651391830232386
 40
0.2505782922900667
 40
0.3661552980541213
 40
0.5013015333865077
 40
0.751127781420452
 40
1.0
 40
1.0
 40
1.0
 40
1.0
 10
52.5128436855033
 20
16.89008913943431
 30
0.0
 10
52.506731207712
 20
16.88257695648763
 30
0.0
 10
52.49462403186359
 20
16.86769734088064
 30
0.0
 10
52.48484525668608
 20
16.84068709287742
 30
0.0
 10
52.48208185317177
 20
16.80899122425331
 30
0.0
 10
52.48891754912073
 20
16.77166210872057
 30
0.0
 10
52.51043288657606
 20
16.71934075305738
 30
0.0
 10
52.54974012294252
 20
16.65821475322768
 30
0.0
 10
52.58804355191192
 20
16.61534798185539
 30
0.0
 10
52.60715862842609
 20
16.59395559906503
 30
0.0
  0
SPLINE
  5
A9
330
1F
100
AcDbEntity
  8
0
  6
Continuous
 62
     7
370
    25
100
AcDbSpline
210
0.0
220
0.0
230
1.0
 70
     8
 71
     3
 72
    17
 73
    13
 74
     0
 42
0.00000001
 43
0.00000001
 40
0.0
 40
0.0
 40
0.0
 40
0.0
 40
0.1308472312971313
 40
0.2501712416478247
 40
0.5002181447817625
 40
0.5625722445347756
 40
0.6248529024619247
 40
0.7493346422976526
 40
0.8746411565565839
 40
0.9373094462329967
 40
0.9700546542885712
 40
1.0
 40
1.0
 40
1.0
 40
1.0
 10
52.7787586229008
 20
18.68156561508053
 30
0.0
 10
52.77850732508268
 20
18.59982017289294
 30
0.0
 10
52.77802686029518
 20
18.44352830054386
 30
0.0
 10
52.77192718168732
 20
18.13327103237551
 30
0.0
 10
52.76009866641916
 20
17.8677668009571
 30
0.0
 10
52.73967758858562
 20
17.64009212417946
 30
0.0
 10
52.72254705281252
 20
17.48955400674135
 30
0.0
 10
52.69287766908033
 20
17.30296841584791
 30
0.0
 10
52.64483743924446
 20
17.12015827363617
 30
0.0
 10
52.58984229471223
 20
16.99839931879522
 30
0.0
 10
52.54983505815507
 20
16.93335078422442
 30
0.0
 10
52.52480146265702
 20
16.90407383561126
 30
0.0
 10
52.5128436855033
 20
16.89008913943431
 30
0.0
  0
LINE
  5
AA
330
1F
100
AcDbEntity
  8
0
  6
Continuous
 62
     7
370
    25
100
AcDbLine
 10
52.7787586229
 20
24.5818110884
 30
0.0
 11
52.7787586229
 21
18.6815656151
 31
0.0
  0
SPLINE
  5
AB
330
1F
100
AcDbEntity
  8
0
  6
Continuous
 62
     7
370
    25
100
AcDbSpline
210
0.0
220
0.0
230
1.0
 70
     8
 71
     3
 72
    18
 73
    14
 74
     0
 42
0.00000001
 43
0.00000001
 40
0.0
 40
0.0
 40
0.0
 40
0.0
 40
0.0297375917713251
 40
0.0622585994666694
 40
0.1245690829005809
 40
0.1747355398269535
 40
0.2498061834274977
 40
0.3751803602811958
 40
0.437745418625877
 40
0.5002333231923135
 40
0.74993137206443
 40
0.8691943481444401
 40
1.0
 40
1.0
 40
1.0
 40
1.0
 10
52.5128436855033
 20
26.37328756410412
 30
0.0
 10
52.52472316258031
 20
26.35940155050701
 30
0.0
 10
52.54959402673428
 20
26.33032980302391
 30
0.0
 10
52.58942034483809
 20
26.26572781334518
 30
0.0
 10
52.62575267599968
 20
26.1858069857685
 30
0.0
 10
52.66152483572397
 20
26.07850951867153
 30
0.0
 10
52.6975958100949
 20
25.93161657223883
 30
0.0
 10
52.72248849000582
 20
25.77420978936951
 30
0.0
 10
52.73972411591764
 20
25.62288772683002
 30
0.0
 10
52.76011777470763
 20
25.39513764034991
 30
0.0
 10
52.77193519187193
 20
25.12978322273811
 30
0.0
 10
52.77802764950111
 20
24.8197781849064
 30
0.0
 10
52.77850758087169
 20
24.66353737668052
 30
0.0
 10
52.7787586229008
 20
24.58181108844059
 30
0.0
  0
SPLINE
  5
AC
330
1F
100
AcDbEntity
  8
0
  6
Continuous
 62
     7
370
    25
100
AcDbSpline
210
0.0
220
0.0
230
1.0
 70
     8
 71
     3
 72
    13
 73
     9
 74
     0
 42
0.00000001
 43
0.00000001
 40
0.0
 40
0.0
 40
0.0
 40
0.0
 40
0.2491824652871812
 40
0.498773852101127
 40
0.6338602399483602
 40
0.7494868859161712
 40
0.8759187542426342
 40
1.0
 40
1.0
 40
1.0
 40
1.0
 10
52.60715862843423
 20
26.66942110446877
 30
0.0
 10
52.58803304441884
 20
26.64801560976559
 30
0.0
 10
52.54975049029912
 20
26.60516949281697
 30
0.0
 10
52.51049731900321
 20
26.54413526919712
 30
0.0
 10
52.48893258159534
 20
26.49180148475108
 30
0.0
 10
52.48137952243682
 20
26.45020931286993
 30
0.0
 10
52.48650319451733
 20
26.40815635682289
 30
0.0
 10
52.50411861837526
 20
26.38483755978595
 30
0.0
 10
52.5128436855033
 20
26.37328756410413
 30
0.0
  0
SPLINE
  5
AD
330
1F
100
AcDbEntity
  8
0
  6
Continuous
 62
     7
370
    25
100
AcDbSpline
210
0.0
220
0.0
230
1.0
 70
     8
 71
     3
 72
    13
 73
     9
 74
     0
 42
0.00000001
 43
0.00000001
 40
0.0
 40
0.0
 40
0.0
 40
0.0
 40
0.1266963143627904
 40
0.2513113397887914
 40
0.5007108425293433
 40
0.7510525732451319
 40
0.8768673774687907
 40
1.0
 40
1.0
 40
1.0
 40
1.0
 10
52.77875862290072
 20
27.14144772204252
 30
0.0
 10
52.77830610826737
 20
27.12026068459757
 30
0.0
 10
52.77740851263207
 20
27.07823465729581
 30
0.0
 10
52.76751573901496
 20
26.99459360332959
 30
0.0
 10
52.74326148213624
 20
26.8911946868215
 30
0.0
 10
52.69882615264667
 20
26.79232696679934
 30
0.0
 10
52.65098193084656
 20
26.71897996740814
 30
0.0
 10
52.62166109413303
 20
26.68582164186994
 30
0.0
 10
52.60715862842609
 20
26.6694211044734
 30
0.0
  0
LINE
  5
AE
330
1F
100
AcDbEntity
  8
0
  6
Continuous
 62
     7
370
    25
100
AcDbLine
 10
52.7787586229
 20
33.6316883518
 30
0.0
 11
52.7787586229
 21
27.141447722
 31
0.0
  0
LINE
  5
AF
330
1F
100
AcDbEntity
  8
0
  6
Continuous
 62
     7
370
    25
100
AcDbLine
 10
52.7787586229
 20
16.1219289815
 30
0.0
 11
52.7787586229
 21
9.6316883518
 31
0.0
  0
SPLINE
  5
B0
330
1F
100
AcDbEntity
  8
0
  6
Continuous
 62
     7
370
    25
100
AcDbSpline
210
0.0
220
0.0
230
1.0
 70
     8
 71
     3
 72
    13
 73
     9
 74
     0
 42
0.00000001
 43
0.00000001
 40
0.0
 40
0.0
 40
0.0
 40
0.0
 40
0.1234092039680328
 40
0.2495635406296307
 40
0.5004511475232674
 40
0.7494830036087197
 40
0.8735723370995275
 40
1.0
 40
1.0
 40
1.0
 40
1.0
 10
52.60715862842609
 20
16.59395559906503
 30
0.0
 10
52.62169167034339
 20
16.57751674923751
 30
0.0
 10
52.6510810293246
 20
16.54427338136116
 30
0.0
 10
52.69900724585723
 20
16.47073941692033
 30
0.0
 10
52.74340153606939
 20
16.37176126149729
 30
0.0
 10
52.76757692077696
 20
16.26841219304655
 30
0.0
 10
52.77741051730323
 20
16.1849637831261
 30
0.0
 10
52.77830646676635
 20
16.14307092488576
 30
0.0
 10
52.77875862290078
 20
16.12192898148135
 30
0.0
  0
LINE
  5
B1
330
1F
100
AcDbEntity
  8
0
  6
Continuous
 62
     7
370
    25
100
AcDbLine
 10
52.5358993986
 20
18.7412709917
 30
0.0
 11
52.5358993986
 21
24.5221057118
 31
0.0
  0
LINE
  5
B2
330
1F
100
AcDbEntity
  8
0
  6
Continuous
 62
     7
370
    25
100
AcDbLine
 10
52.7787586229
 20
24.5818110884
 30
0.0
 11
52.5358993986
 21
24.5221057118
 31
0.0
  0
LINE
  5
B3
330
1F
100
AcDbEntity
  8
0
  6
Continuous
 62
     7
370
    25
100
AcDbLine
 10
52.5358993986
 20
18.7412709917
 30
0.0
 11
52.7787586229
 21
18.6815656151
 31
0.0
  0
LINE
  5
B4
330
1F
100
AcDbEntity
  8
0
  6
Continuous
 62
     7
370
    25
100
AcDbLine
 10
33.2929721853
 20
27.1414477221
 30
0.0
 11
33.2929721853
 21
33.6316883518
 31
0.0
  0
SPLINE
  5
B5
330
1F
100
AcDbEntity
  8
0
  6
Continuous
 62
     7
370
    25
100
AcDbSpline
210
0.0
220
0.0
230
1.0
 70
     8
 71
     3
 72
    13
 73
     9
 74
     0
 42
0.00000001
 43
0.00000001
 40
0.0
 40
0.0
 40
0.0
 40
0.0
 40
0.123409203982248
 40
0.2495635406298056
 40
0.5004511475234075
 40
0.7494830036088448
 40
0.8735723371263543
 40
1.0
 40
1.0
 40
1.0
 40
1.0
 10
33.46457217974857
 20
26.66942110447342
 30
0.0
 10
33.45003913782927
 20
26.68585995430263
 30
0.0
 10
33.42064977884738
 20
26.71910332217858
 30
0.0
 10
33.37272356231713
 20
26.79263728662073
 30
0.0
 10
33.32832927210535
 20
26.89161544204104
 30
0.0
 10
33.30415388739579
 20
26.99496451049623
 30
0.0
 10
33.29432029087269
 20
27.07841292041692
 30
0.0
 10
33.29342434140868
 20
27.12030577865718
 30
0.0
 10
33.29297218527389
 20
27.14144772205708
 30
0.0
  0
SPLINE
  5
B6
330
1F
100
AcDbEntity
  8
0
  6
Continuous
 62
     7
370
    25
100
AcDbSpline
210
0.0
220
0.0
230
1.0
 70
     8
 71
     3
 72
    14
 73
    10
 74
     0
 42
0.00000001
 43
0.00000001
 40
0.0
 40
0.0
 40
0.0
 40
0.0
 40
0.0833728361833459
 40
0.1651391830191044
 40
0.2505782922895461
 40
0.366155298038779
 40
0.5013015333860809
 40
0.7511277814202357
 40
0.9999999999999999
 40
0.9999999999999999
 40
0.9999999999999999
 40
0.9999999999999999
 10
33.55888712267138
 20
26.37328756410412
 30
0.0
 10
33.56499960046233
 20
26.38079974705045
 30
0.0
 10
33.57710677631034
 20
26.39567936265713
 30
0.0
 10
33.58688555148738
 20
26.42268961066029
 30
0.0
 10
33.58964895500336
 20
26.45438547928303
 30
0.0
 10
33.58281325905389
 20
26.49171459481613
 30
0.0
 10
33.56129792159987
 20
26.54403595047972
 30
0.0
 10
33.52199068523205
 20
26.60516195031072
 30
0.0
 10
33.48368725626273
 20
26.64802872168303
 30
0.0
 10
33.46457217974859
 20
26.66942110447341
 30
0.0
  0
SPLINE
  5
B7
330
1F
100
AcDbEntity
  8
0
  6
Continuous
 62
     7
370
    25
100
AcDbSpline
210
0.0
220
0.0
230
1.0
 70
     8
 71
     3
 72
    17
 73
    13
 74
     0
 42
0.00000001
 43
0.00000001
 40
0.0
 40
0.0
 40
0.0
 40
0.0
 40
0.1308472312969622
 40
0.2501712416478231
 40
0.5002181447817602
 40
0.5625722445347695
 40
0.6248529024619175
 40
0.7493346422976452
 40
0.8746411565565774
 40
0.9373094462329884
 40
0.9700546542881242
 40
0.9999999999999999
 40
0.9999999999999999
 40
0.9999999999999999
 40
0.9999999999999999
 10
33.29297218527388
 20
24.58181108845789
 30
0.0
 10
33.29322348309199
 20
24.66355653064538
 30
0.0
 10
33.29370394787949
 20
24.81984840299446
 30
0.0
 10
33.29980362648735
 20
25.13010567116281
 30
0.0
 10
33.31163214175552
 20
25.39560990258132
 30
0.0
 10
33.33205321958904
 20
25.62328457935896
 30
0.0
 10
33.34918375536216
 20
25.77382269679707
 30
0.0
 10
33.37885313909436
 20
25.96040828769051
 30
0.0
 10
33.42689336893015
 20
26.14321842990229
 30
0.0
 10
33.48188851346243
 20
26.26497738474291
 30
0.0
 10
33.5218957500193
 20
26.33002591931388
 30
0.0
 10
33.54692934551743
 20
26.35930286792698
 30
0.0
 10
33.55888712267138
 20
26.37328756410412
 30
0.0
  0
LINE
  5
B8
330
1F
100
AcDbEntity
  8
0
  6
Continuous
 62
     7
370
    25
100
AcDbLine
 10
33.2929721853
 20
18.6815656151
 30
0.0
 11
33.2929721853
 21
24.5818110885
 31
0.0
  0
SPLINE
  5
B9
330
1F
100
AcDbEntity
  8
0
  6
Continuous
 62
     7
370
    25
100
AcDbSpline
210
0.0
220
0.0
230
1.0
 70
     8
 71
     3
 72
    18
 73
    14
 74
     0
 42
0.00000001
 43
0.00000001
 40
0.0
 40
0.0
 40
0.0
 40
0.0
 40
0.0297375917731934
 40
0.0622585994666964
 40
0.1245690829006025
 40
0.1747355398269734
 40
0.2498061834275166
 40
0.3751803602812121
 40
0.4377454186258865
 40
0.5002333231923242
 40
0.749931372064435
 40
0.869194348109845
 40
0.9999999999999999
 40
0.9999999999999999
 40
0.9999999999999999
 40
0.9999999999999999
 10
33.55888712267138
 20
16.8900891394343
 30
0.0
 10
33.54700764559348
 20
16.90397515303219
 30
0.0
 10
33.52213678143917
 20
16.93304690051511
 30
0.0
 10
33.48231046333648
 20
16.99764889019446
 30
0.0
 10
33.4459781321749
 20
17.07756971776987
 30
0.0
 10
33.41020597245074
 20
17.1848671848669
 30
0.0
 10
33.37413499807975
 20
17.33176013129958
 30
0.0
 10
33.34924231816886
 20
17.4891669141689
 30
0.0
 10
33.33200669225703
 20
17.64048897670839
 30
0.0
 10
33.31161303346698
 20
17.8682390631885
 30
0.0
 10
33.29979561630446
 20
18.13359348077904
 30
0.0
 10
33.29370315867252
 20
18.44359851861045
 30
0.0
 10
33.29322322730268
 20
18.59983932683629
 30
0.0
 10
33.29297218527388
 20
18.68156561509781
 30
0.0
  0
SPLINE
  5
BA
330
1F
100
AcDbEntity
  8
0
  6
Continuous
 62
     7
370
    25
100
AcDbSpline
210
0.0
220
0.0
230
1.0
 70
     8
 71
     3
 72
    13
 73
     9
 74
     0
 42
0.00000001
 43
0.00000001
 40
0.0
 40
0.0
 40
0.0
 40
0.0
 40
0.2491824652872984
 40
0.4987738521013645
 40
0.6338602399594956
 40
0.7494868859160718
 40
0.8759187542425622
 40
1.0
 40
1.0
 40
1.0
 40
1.0
 10
33.46457217974043
 20
16.59395559906965
 30
0.0
 10
33.48369776375574
 20
16.61536109377286
 30
0.0
 10
33.52198031787529
 20
16.65820721072153
 30
0.0
 10
33.56123348917298
 20
16.71924143434209
 30
0.0
 10
33.58279822657823
 20
16.77157521878892
 30
0.0
 10
33.59035128573812
 20
16.81316739066972
 30
0.0
 10
33.58522761365723
 20
16.85522034671555
 30
0.0
 10
33.56761218979939
 20
16.87853914375249
 30
0.0
 10
33.55888712267138
 20
16.8900891394343
 30
0.0
  0
SPLINE
  5
BB
330
1F
100
AcDbEntity
  8
0
  6
Continuous
 62
     7
370
    25
100
AcDbSpline
210
0.0
220
0.0
230
1.0
 70
     8
 71
     3
 72
    13
 73
     9
 74
     0
 42
0.00000001
 43
0.00000001
 40
0.0
 40
0.0
 40
0.0
 40
0.0
 40
0.1266963143570005
 40
0.2513113397887465
 40
0.5007108425293041
 40
0.7510525732450671
 40
0.8768673774637943
 40
1.0
 40
1.0
 40
1.0
 40
1.0
 10
33.29297218527395
 20
16.12192898149591
 30
0.0
 10
33.29342469990738
 20
16.14311601893988
 30
0.0
 10
33.29432229554288
 20
16.18514204624163
 30
0.0
 10
33.30421506915929
 20
16.26878310020789
 30
0.0
 10
33.32846932603841
 20
16.37218201671697
 30
0.0
 10
33.37290465552789
 20
16.47104973673817
 30
0.0
 10
33.42074887732719
 20
16.54439673612982
 30
0.0
 10
33.45006971404094
 20
16.57755506166789
 30
0.0
 10
33.46457217974859
 20
16.59395559906502
 30
0.0
  0
LINE
  5
BC
330
1F
100
AcDbEntity
  8
0
  6
Continuous
 62
     7
370
    25
100
AcDbLine
 10
33.2929721853
 20
9.6316883518
 30
0.0
 11
33.2929721853
 21
16.1219289815
 31
0.0
  0
LINE
  5
BD
330
1F
100
AcDbEntity
  8
0
  6
Continuous
 62
     7
370
    25
100
AcDbLine
 10
30.5358654041
 20
21.6316883518
 30
0.0
 11
30.5358654041
 21
9.6316883518
 31
0.0
  0
LINE
  5
BE
330
1F
100
AcDbEntity
  8
0
  6
Continuous
 62
     7
370
    25
100
AcDbLine
 10
30.5358654041
 20
33.6316883518
 30
0.0
 11
30.5358654041
 21
21.6316883518
 31
0.0
  0
LINE
  5
BF
330
1F
100
AcDbEntity
  8
0
  6
Continuous
 62
     7
370
    25
100
AcDbLine
 10
33.5358314095
 20
24.5221057118
 30
0.0
 11
33.5358314095
 21
18.7412709917
 31
0.0
  0
LINE
  5
C0
330
1F
100
AcDbEntity
  8
0
  6
Continuous
 62
     7
370
    25
100
AcDbLine
 10
33.2929721853
 20
18.6815656151
 30
0.0
 11
33.5358314095
 21
18.7412709917
 31
0.0
  0
LINE
  5
C1
330
1F
100
AcDbEntity
  8
0
  6
Continuous
 62
     7
370
    25
100
AcDbLine
 10
33.5358314095
 20
24.5221057118
 30
0.0
 11
33.2929721853
 21
24.5818110885
 31
0.0
  0
LINE
  5
C2
330
1F
100
AcDbEntity
  8
0
  6
Continuous
 62
     7
370
    25
100
AcDbLine
 10
55.7858654041
 20
33.3816883518
 30
0.0
 11
55.7858654041
 21
9.8816883518
 31
0.0
  0
LINE
  5
C3
330
1F
100
AcDbEntity
  8
0
  6
Continuous
 62
     7
370
    25
100
AcDbLine
 10
30.2858654041
 20
21.6316883518
 30
0.0
 11
30.2858654041
 21
33.3816883518
 31
0.0
  0
LINE
  5
C4
330
1F
100
AcDbEntity
  8
0
  6
Continuous
 62
     7
370
    25
100
AcDbLine
 10
30.2858654041
 20
9.8816883518
 30
0.0
 11
30.2858654041
 21
21.6316883518
 31
0.0
  0
LINE
  5
C5
330
1F
100
AcDbEntity
  8
0
  6
Continuous
 62
     7
370
    25
100
AcDbLine
 10
52.5358654041
 20
18.7851992863
 30
0.0
 11
52.5358654041
 21
24.4781774173
 31
0.0
  0
SPLINE
  5
C6
330
1F
100
AcDbEntity
  8
0
  6
Continuous
 62
     7
370
    25
100
AcDbSpline
210
0.0
220
0.0
230
1.0
 70
     8
 71
     3
 72
     8
 73
     4
 74
     0
 42
0.00000001
 43
0.00000001
 40
0.0
 40
0.0
 40
0.0
 40
0.0
 40
1.0
 40
1.0
 40
1.0
 40
1.0
 10
52.53589939864319
 20
24.52210571183252
 30
0.0
 10
52.53587656078459
 20
24.50746483394335
 30
0.0
 10
52.53586540408733
 20
24.4928220561743
 30
0.0
 10
52.53586540408733
 20
24.47817741726727
 30
0.0
  0
SPLINE
  5
C7
330
1F
100
AcDbEntity
  8
0
  6
Continuous
 62
     7
370
    25
100
AcDbSpline
210
0.0
220
0.0
230
1.0
 70
     8
 71
     3
 72
     8
 73
     4
 74
     0
 42
0.00000001
 43
0.00000001
 40
0.0
 40
0.0
 40
0.0
 40
0.0
 40
1.0
 40
1.0
 40
1.0
 40
1.0
 10
52.53586540408733
 20
18.78519928627115
 30
0.0
 10
52.53586540408733
 20
18.77055552805319
 30
0.0
 10
52.53587655939344
 20
18.75591276143355
 30
0.0
 10
52.53589939864319
 20
18.74127099169978
 30
0.0
  0
LINE
  5
C8
330
1F
100
AcDbEntity
  8
0
  6
Continuous
 62
     7
370
    25
100
AcDbLine
 10
33.5358654041
 20
24.4781774173
 30
0.0
 11
33.5358654041
 21
18.7851992863
 31
0.0
  0
SPLINE
  5
C9
330
1F
100
AcDbEntity
  8
0
  6
Continuous
 62
     7
370
    25
100
AcDbSpline
210
0.0
220
0.0
230
1.0
 70
     8
 71
     3
 72
     8
 73
     4
 74
     0
 42
0.00000001
 43
0.00000001
 40
0.0
 40
0.0
 40
0.0
 40
0.0
 40
1.0
 40
1.0
 40
1.0
 40
1.0
 10
33.53583140953148
 20
18.74127099170589
 30
0.0
 10
33.53585424739007
 20
18.75591186959506
 30
0.0
 10
33.53586540408733
 20
18.77055464736411
 30
0.0
 10
33.53586540408733
 20
18.78519928627115
 30
0.0
  0
SPLINE
  5
CA
330
1F
100
AcDbEntity
  8
0
  6
Continuous
 62
     7
370
    25
100
AcDbSpline
210
0.0
220
0.0
230
1.0
 70
     8
 71
     3
 72
     8
 73
     4
 74
     0
 42
0.00000001
 43
0.00000001
 40
0.0
 40
0.0
 40
0.0
 40
0.0
 40
1.0
 40
1.0
 40
1.0
 40
1.0
 10
33.53586540408733
 20
24.47817741726726
 30
0.0
 10
33.53586540408733
 20
24.49282117548523
 30
0.0
 10
33.53585424878123
 20
24.50746394210487
 30
0.0
 10
33.53583140953148
 20
24.52210571183863
 30
0.0
  0
SPLINE
  5
CB
330
1F
100
AcDbEntity
  8
0
  6
Continuous
 62
     7
370
    25
100
AcDbSpline
210
0.0
220
0.0
230
1.0
 70
     8
 71
     3
 72
    16
 73
    12
 74
     0
 42
0.00000001
 43
0.00000001
 40
0.0
 40
0.0
 40
0.0
 40
0.0
 40
0.1358424562093261
 40
0.2585567702396716
 40
0.5157338482660032
 40
0.6432966940871808
 40
0.7692102787448635
 40
0.8342664723226236
 40
0.8905766424117051
 40
0.9515952839433239
 40
1.0
 40
1.0
 40
1.0
 40
1.0
 10
52.53589939864319
 20
24.52210571183252
 30
0.0
 10
52.53593778438933
 20
24.60363295375938
 30
0.0
 10
52.53601084619065
 20
24.7588084485743
 30
0.0
 10
52.53528029456398
 20
25.06751334997845
 30
0.0
 10
52.53321487229691
 20
25.37031714670729
 30
0.0
 10
52.52577507153741
 20
25.67368115241675
 30
0.0
 10
52.51642325319033
 20
25.86216310389566
 30
0.0
 10
52.5030953416714
 20
26.0077311267551
 30
0.0
 10
52.48757903506067
 20
26.11403006491535
 30
0.0
 10
52.4681599957257
 20
26.21024120560069
 30
0.0
 10
52.44127748462454
 20
26.26893841593076
 30
0.0
 10
52.42938568797874
 20
26.29490382095914
 30
0.0
  0
LINE
  5
CC
330
1F
100
AcDbEntity
  8
0
  6
Continuous
 62
     7
370
    25
100
AcDbLine
 10
52.5128436855
 20
26.3732875641
 30
0.0
 11
52.429385688
 21
26.294903821
 31
0.0
  0
SPLINE
  5
CD
330
1F
100
AcDbEntity
  8
0
  6
Continuous
 62
     7
370
    25
100
AcDbSpline
210
0.0
220
0.0
230
1.0
 70
     8
 71
     3
 72
    16
 73
    12
 74
     0
 42
0.00000001
 43
0.00000001
 40
0.0
 40
0.0
 40
0.0
 40
0.0
 40
0.1358424562487204
 40
0.2585567702382454
 40
0.5157338482631555
 40
0.6432966940836284
 40
0.7692102787406115
 40
0.8342664718801136
 40
0.8905766424056035
 40
0.9515952837334998
 40
0.9999999999999999
 40
0.9999999999999999
 40
0.9999999999999999
 40
0.9999999999999999
 10
33.53583140953148
 20
18.74127099170589
 30
0.0
 10
33.53579302378522
 20
18.65974374975485
 30
0.0
 10
33.53571996198369
 20
18.50456825493976
 30
0.0
 10
33.5364505136119
 20
18.19586335353645
 30
0.0
 10
33.53851593587135
 20
17.89305955682917
 30
0.0
 10
33.54595573664805
 20
17.58969555112495
 30
0.0
 10
33.5553075549392
 20
17.40121359989208
 30
0.0
 10
33.56863546653138
 20
17.25564557705809
 30
0.0
 10
33.58415177305913
 20
17.14934663900087
 30
0.0
 10
33.60357081230569
 20
17.0531354980062
 30
0.0
 10
33.63045332347091
 20
16.9944382877057
 30
0.0
 10
33.64234512019594
 20
16.96847288257928
 30
0.0
  0
LINE
  5
CE
330
1F
100
AcDbEntity
  8
0
  6
Continuous
 62
     7
370
    25
100
AcDbLine
 10
33.5588871227
 20
16.8900891394
 30
0.0
 11
33.6423451202
 21
16.9684728826
 31
0.0
  0
SPLINE
  5
CF
330
1F
100
AcDbEntity
  8
0
  6
Continuous
 62
     7
370
    25
100
AcDbSpline
210
0.0
220
0.0
230
1.0
 70
     8
 71
     3
 72
    18
 73
    14
 74
     0
 42
0.00000001
 43
0.00000001
 40
0.0
 40
0.0
 40
0.0
 40
0.0
 40
0.0228877262638668
 40
0.0487507054325337
 40
0.0778154834693631
 40
0.1102364830187699
 40
0.1666044227776677
 40
0.231774208581977
 40
0.3567811110126213
 40
0.4838932701851741
 40
0.7413824458069529
 40
0.8641064614131424
 40
1.0
 40
1.0
 40
1.0
 40
1.0
 10
52.42938568797673
 20
16.96847288257775
 30
0.0
 10
52.43554915390254
 20
16.98047533293252
 30
0.0
 10
52.44867729552432
 20
17.00604047273578
 30
0.0
 10
52.46353919915727
 20
17.0494558653857
 30
0.0
 10
52.47684203823314
 20
17.09910616050838
 30
0.0
 10
52.490524792904
 20
17.16718084371663
 30
0.0
 10
52.50314782705619
 20
17.25713259960147
 30
0.0
 10
52.51653886766677
 20
17.4022049823819
 30
0.0
 10
52.52575614464731
 20
17.59001198126427
 30
0.0
 10
52.53322526666537
 20
17.89276425638427
 30
0.0
 10
52.53527714117109
 20
18.19552474695752
 30
0.0
 10
52.53601130165631
 20
18.50447931702066
 30
0.0
 10
52.53593794482531
 20
18.65970558284573
 30
0.0
 10
52.53589939864319
 20
18.74127099169979
 30
0.0
  0
LINE
  5
D0
330
1F
100
AcDbEntity
  8
0
  6
Continuous
 62
     7
370
    25
100
AcDbLine
 10
52.429385688
 20
16.9684728826
 30
0.0
 11
52.5128436855
 21
16.8900891394
 31
0.0
  0
SPLINE
  5
D1
330
1F
100
AcDbEntity
  8
0
  6
Continuous
 62
     7
370
    25
100
AcDbSpline
210
0.0
220
0.0
230
1.0
 70
     8
 71
     3
 72
    18
 73
    14
 74
     0
 42
0.00000001
 43
0.00000001
 40
0.0
 40
0.0
 40
0.0
 40
0.0
 40
0.0228877262673261
 40
0.048750705436772
 40
0.0778154834714485
 40
0.1102364830156528
 40
0.1666044227785899
 40
0.23177420857927
 40
0.3567811110103338
 40
0.4838932701833289
 40
0.7413824458060223
 40
0.864106461387071
 40
1.0
 40
1.0
 40
1.0
 40
1.0
 10
33.64234512019587
 20
26.29490382095891
 30
0.0
 10
33.63618165427039
 20
26.2829013706016
 30
0.0
 10
33.62305351265017
 20
26.25733623079461
 30
0.0
 10
33.60819160901716
 20
26.21392083814365
 30
0.0
 10
33.59488876994176
 20
26.16427054302503
 30
0.0
 10
33.58120601526991
 20
26.09619585981933
 30
0.0
 10
33.56858298111671
 20
26.00624410393792
 30
0.0
 10
33.555191940509
 20
25.86117172115637
 30
0.0
 10
33.54597466352706
 20
25.67336472227639
 30
0.0
 10
33.53850554150952
 20
25.3706124471557
 30
0.0
 10
33.53645366700371
 20
25.06785195659712
 30
0.0
 10
33.53571950651826
 20
24.7588973865337
 30
0.0
 10
33.53579286334931
 20
24.60367112070824
 30
0.0
 10
33.53583140953148
 20
24.52210571183863
 30
0.0
  0
LINE
  5
D2
330
1F
100
AcDbEntity
  8
0
  6
Continuous
 62
     7
370
    25
100
AcDbLine
 10
33.6423451202
 20
26.294903821
 30
0.0
 11
33.5588871227
 21
26.3732875641
 31
0.0
  0
SPLINE
  5
D3
330
1F
100
AcDbEntity
  8
0
  6
Continuous
 62
     7
370
    25
100
AcDbSpline
210
0.0
220
0.0
230
1.0
 70
     8
 71
     3
 72
    10
 73
     6
 74
     0
 42
0.00000001
 43
0.00000001
 40
0.0
 40
0.0
 40
0.0
 40
0.0
 40
0.5
 40
0.5
 40
1.0
 40
1.0
 40
1.0
 40
1.0
 10
33.8171702695025
 20
26.13934500655663
 30
0.0
 10
33.86671233392671
 20
25.86626821110932
 30
0.0
 10
33.8953185271772
 20
25.59046878935267
 30
0.0
 10
33.93005883654032
 20
25.03594754208872
 30
0.0
 10
33.93586540408733
 20
24.75695539079677
 30
0.0
 10
33.93586540408733
 20
24.47817741726726
 30
0.0
  0
LINE
  5
D4
330
1F
100
AcDbEntity
  8
0
  6
Continuous
 62
     7
370
    25
100
AcDbLine
 10
33.5358654041
 20
24.4781774173
 30
0.0
 11
33.9358654041
 21
24.4781774173
 31
0.0
  0
SPLINE
  5
D5
330
1F
100
AcDbEntity
  8
0
  6
Continuous
 62
     7
370
    25
100
AcDbSpline
210
0.0
220
0.0
230
1.0
 70
     8
 71
     3
 72
     8
 73
     4
 74
     0
 42
0.00000001
 43
0.00000001
 40
0.0
 40
0.0
 40
0.0
 40
0.0
 40
1.0
 40
1.0
 40
1.0
 40
1.0
 10
33.81717026950589
 20
26.13934500656372
 30
0.0
 10
33.74477029934429
 20
26.1738549482458
 30
0.0
 10
33.69034008175405
 20
26.23336904960694
 30
0.0
 10
33.64234512019286
 20
26.29490382095821
 30
0.0
  0
SPLINE
  5
D6
330
1F
100
AcDbEntity
  8
0
  6
Continuous
 62
     7
370
    25
100
AcDbSpline
210
0.0
220
0.0
230
1.0
 70
     8
 71
     3
 72
    10
 73
     6
 74
     0
 42
0.00000001
 43
0.00000001
 40
0.0
 40
0.0
 40
0.0
 40
0.0
 40
0.5
 40
0.5
 40
1.0
 40
1.0
 40
1.0
 40
1.0
 10
52.25456053867215
 20
17.1240316969818
 30
0.0
 10
52.20501847424795
 20
17.3971084924291
 30
0.0
 10
52.17641228099747
 20
17.67290791418575
 30
0.0
 10
52.14167197163435
 20
18.2274291614497
 30
0.0
 10
52.13586540408733
 20
18.50642131274164
 30
0.0
 10
52.13586540408733
 20
18.78519928627115
 30
0.0
  0
LINE
  5
D7
330
1F
100
AcDbEntity
  8
0
  6
Continuous
 62
     7
370
    25
100
AcDbLine
 10
52.1358654041
 20
18.7851992863
 30
0.0
 11
52.5358654041
 21
18.7851992863
 31
0.0
  0
SPLINE
  5
D8
330
1F
100
AcDbEntity
  8
0
  6
Continuous
 62
     7
370
    25
100
AcDbSpline
210
0.0
220
0.0
230
1.0
 70
     8
 71
     3
 72
     8
 73
     4
 74
     0
 42
0.00000001
 43
0.00000001
 40
0.0
 40
0.0
 40
0.0
 40
0.0
 40
1.0
 40
1.0
 40
1.0
 40
1.0
 10
52.25456053866878
 20
17.1240316969747
 30
0.0
 10
52.3269605088303
 20
17.08952175529255
 30
0.0
 10
52.38139072642061
 20
17.03000765393149
 30
0.0
 10
52.42938568798181
 20
16.96847288258021
 30
0.0
  0
LINE
  5
D9
330
1F
100
AcDbEntity
  8
0
  6
Continuous
 62
     7
370
    25
100
AcDbLine
 10
33.5358654041
 20
18.7851992863
 30
0.0
 11
33.9358654041
 21
18.7851992863
 31
0.0
  0
SPLINE
  5
DA
330
1F
100
AcDbEntity
  8
0
  6
Continuous
 62
     7
370
    25
100
AcDbSpline
210
0.0
220
0.0
230
1.0
 70
     8
 71
     3
 72
    10
 73
     6
 74
     0
 42
0.00000001
 43
0.00000001
 40
0.0
 40
0.0
 40
0.0
 40
0.0
 40
0.5
 40
0.5
 40
1.0
 40
1.0
 40
1.0
 40
1.0
 10
33.93586540408733
 20
18.78519928627115
 30
0.0
 10
33.93586540408733
 20
18.50616752552273
 30
0.0
 10
33.93006678192238
 20
18.22777197714192
 30
0.0
 10
33.89537008812107
 20
17.67351530235519
 30
0.0
 10
33.86680471043462
 20
17.39761767348375
 30
0.0
 10
33.81717026950079
 20
17.12403169697228
 30
0.0
  0
SPLINE
  5
DB
330
1F
100
AcDbEntity
  8
0
  6
Continuous
 62
     7
370
    25
100
AcDbSpline
210
0.0
220
0.0
230
1.0
 70
     8
 71
     3
 72
     8
 73
     4
 74
     0
 42
0.00000001
 43
0.00000001
 40
0.0
 40
0.0
 40
0.0
 40
0.0
 40
1.0
 40
1.0
 40
1.0
 40
1.0
 10
33.81717026950081
 20
17.12403169697228
 30
0.0
 10
33.74477029934174
 20
17.08952175528949
 30
0.0
 10
33.69034008175279
 20
17.03000765392986
 30
0.0
 10
33.64234512019287
 20
16.96847288258023
 30
0.0
  0
LINE
  5
DC
330
1F
100
AcDbEntity
  8
0
  6
Continuous
 62
     7
370
    25
100
AcDbLine
 10
52.1358654041
 20
24.4781774173
 30
0.0
 11
52.5358654041
 21
24.4781774173
 31
0.0
  0
SPLINE
  5
DD
330
1F
100
AcDbEntity
  8
0
  6
Continuous
 62
     7
370
    25
100
AcDbSpline
210
0.0
220
0.0
230
1.0
 70
     8
 71
     3
 72
    10
 73
     6
 74
     0
 42
0.00000001
 43
0.00000001
 40
0.0
 40
0.0
 40
0.0
 40
0.0
 40
0.4999999999999997
 40
0.4999999999999997
 40
1.0
 40
1.0
 40
1.0
 40
1.0
 10
52.13586540408733
 20
24.47817741726727
 30
0.0
 10
52.13586540408733
 20
24.7572091780157
 30
0.0
 10
52.14166402625228
 20
25.03560472639651
 30
0.0
 10
52.1763607200536
 20
25.58986140118324
 30
0.0
 10
52.20492609774004
 20
25.86575903005468
 30
0.0
 10
52.25456053867389
 20
26.13934500656615
 30
0.0
  0
SPLINE
  5
DE
330
1F
100
AcDbEntity
  8
0
  6
Continuous
 62
     7
370
    25
100
AcDbSpline
210
0.0
220
0.0
230
1.0
 70
     8
 71
     3
 72
     8
 73
     4
 74
     0
 42
0.00000001
 43
0.00000001
 40
0.0
 40
0.0
 40
0.0
 40
0.0
 40
1.0
 40
1.0
 40
1.0
 40
1.0
 10
52.25456053867386
 20
26.13934500656615
 30
0.0
 10
52.32696050883293
 20
26.17385494824895
 30
0.0
 10
52.38139072642188
 20
26.23336904960857
 30
0.0
 10
52.4293856879818
 20
26.2949038209582
 30
0.0
  0
LINE
  5
DF
330
1F
100
AcDbEntity
  8
0
  6
Continuous
 62
     7
370
    25
100
AcDbLine
 10
33.9358654041
 20
24.4781774173
 30
0.0
 11
33.9358654041
 21
18.7851992863
 31
0.0
  0
LINE
  5
E0
330
1F
100
AcDbEntity
  8
0
  6
Continuous
 62
     7
370
    25
100
AcDbLine
 10
52.1358654041
 20
18.7851992863
 30
0.0
 11
52.1358654041
 21
24.4781774173
 31
0.0
  0
LINE
  5
E1
330
1F
100
AcDbEntity
  8
0
  6
Continuous
 62
     7
370
    25
100
AcDbLine
 10
33.8821763536
 20
16.6282853941
 30
0.0
 11
33.8171702695
 21
17.124031697
 31
0.0
  0
SPLINE
  5
E2
330
1F
100
AcDbEntity
  8
0
  6
Continuous
 62
     7
370
    25
100
AcDbSpline
210
0.0
220
0.0
230
1.0
 70
     8
 71
     3
 72
    10
 73
     6
 74
     0
 42
0.00000001
 43
0.00000001
 40
0.0
 40
0.0
 40
0.0
 40
0.0
 40
0.5
 40
0.5
 40
1.0
 40
1.0
 40
1.0
 40
1.0
 10
33.88217635357914
 20
16.62828539408168
 30
0.0
 10
33.82254762397839
 20
16.62049096828863
 30
0.0
 10
33.7723733321713
 20
16.60054396731825
 30
0.0
 10
33.69230822643095
 20
16.56104572059802
 30
0.0
 10
33.65959343701586
 20
16.54070013961647
 30
0.0
 10
33.62748419725657
 20
16.52113587861142
 30
0.0
  0
SPLINE
  5
E3
330
1F
100
AcDbEntity
  8
0
  6
Continuous
 62
     7
370
    25
100
AcDbSpline
210
0.0
220
0.0
230
1.0
 70
     8
 71
     3
 72
    16
 73
    12
 74
     0
 42
0.00000001
 43
0.00000001
 40
0.0
 40
0.0
 40
0.0
 40
0.0
 40
0.0761065007880289
 40
0.1494790931135397
 40
0.297491100121281
 40
0.4337219070412344
 40
0.5582000385578152
 40
0.6744773661177975
 40
0.7859690394750665
 40
0.8939353462300907
 40
1.0
 40
1.0
 40
1.0
 40
1.0
 10
33.64234512019521
 20
16.96847288257845
 30
0.0
 10
33.64976149122328
 20
16.95641380860527
 30
0.0
 10
33.66432782135264
 20
16.93272884841612
 30
0.0
 10
33.68654660966926
 20
16.88354473458829
 30
0.0
 10
33.70390011784215
 20
16.82320668023791
 30
0.0
 10
33.7102048557698
 20
16.75603217992306
 30
0.0
 10
33.70610944075802
 20
16.69720561807878
 30
0.0
 10
33.69458149140588
 20
16.64556078515168
 30
0.0
 10
33.6771585881796
 20
16.59966774776072
 30
0.0
 10
33.65514117995476
 20
16.55810360179893
 30
0.0
 10
33.6366484224544
 20
16.53338524594228
 30
0.0
 10
33.62748419725671
 20
16.52113587861119
 30
0.0
  0
LINE
  5
E4
330
1F
100
AcDbEntity
  8
0
  6
Continuous
 62
     7
370
    25
100
AcDbLine
 10
52.2545605387
 20
26.1393450066
 30
0.0
 11
52.1895544546
 21
26.6350913095
 31
0.0
  0
SPLINE
  5
E5
330
1F
100
AcDbEntity
  8
0
  6
Continuous
 62
     7
370
    25
100
AcDbSpline
210
0.0
220
0.0
230
1.0
 70
     8
 71
     3
 72
    10
 73
     6
 74
     0
 42
0.00000001
 43
0.00000001
 40
0.0
 40
0.0
 40
0.0
 40
0.0
 40
0.5
 40
0.5
 40
1.0
 40
1.0
 40
1.0
 40
1.0
 10
52.18955445459554
 20
26.63509130945674
 30
0.0
 10
52.24918318419704
 20
26.64288573524995
 30
0.0
 10
52.29935747600452
 20
26.66283273622064
 30
0.0
 10
52.37942258174542
 20
26.70233098294135
 30
0.0
 10
52.41213737116075
 20
26.72267656392314
 30
0.0
 10
52.44424661092036
 20
26.74224082492838
 30
0.0
  0
SPLINE
  5
E6
330
1F
100
AcDbEntity
  8
0
  6
Continuous
 62
     7
370
    25
100
AcDbSpline
210
0.0
220
0.0
230
1.0
 70
     8
 71
     3
 72
    16
 73
    12
 74
     0
 42
0.00000001
 43
0.00000001
 40
0.0
 40
0.0
 40
0.0
 40
0.0
 40
0.0761065009127368
 40
0.149479093119197
 40
0.2974911001276658
 40
0.4337219070480748
 40
0.5582000385649541
 40
0.6744773661246137
 40
0.7859690394832728
 40
0.8939353462389598
 40
1.0
 40
1.0
 40
1.0
 40
1.0
 10
52.42938568797745
 20
26.29490382095742
 30
0.0
 10
52.4219693169407
 20
26.30696289495263
 30
0.0
 10
52.40740298681757
 20
26.33064785514716
 30
0.0
 10
52.38518419849514
 20
26.3798319689704
 30
0.0
 10
52.36783069033316
 20
26.44017002330397
 30
0.0
 10
52.36152595240441
 20
26.50734452361804
 30
0.0
 10
52.36562136741764
 20
26.56617108546274
 30
0.0
 10
52.37714931676788
 20
26.61781591838893
 30
0.0
 10
52.39457221999728
 20
26.66370895578108
 30
0.0
 10
52.41658962821931
 20
26.70527310174031
 30
0.0
 10
52.43508238572169
 20
26.7299914575976
 30
0.0
 10
52.44424661091996
 20
26.74224082492846
 30
0.0
  0
LINE
  5
E7
330
1F
100
AcDbEntity
  8
0
  6
Continuous
 62
     7
370
    25
100
AcDbLine
 10
33.8171702695
 20
26.1393450066
 30
0.0
 11
33.8821763536
 21
26.6350913095
 31
0.0
  0
SPLINE
  5
E8
330
1F
100
AcDbEntity
  8
0
  6
Continuous
 62
     7
370
    25
100
AcDbSpline
210
0.0
220
0.0
230
1.0
 70
     8
 71
     3
 72
    20
 73
    16
 74
     0
 42
0.00000001
 43
0.00000001
 40
0.0
 40
0.0
 40
0.0
 40
0.0
 40
0.1060317657589072
 40
0.2138409733617611
 40
0.2689060619482261
 40
0.3251014539057803
 40
0.3827863485576709
 40
0.4420118601149838
 40
0.5669442188442908
 40
0.6333957081060815
 40
0.7030323386078302
 40
0.7761748201543358
 40
0.8511692721701356
 40
0.92638940867628
 40
1.0
 40
1.0
 40
1.0
 40
1.0
 10
33.62748419725671
 20
26.74224082492724
 30
0.0
 10
33.6366503919138
 20
26.72999169881101
 30
0.0
 10
33.65513643685954
 20
26.70528811085529
 30
0.0
 10
33.67331823491599
 20
26.67091981350506
 30
0.0
 10
33.6856183860976
 20
26.64151122057985
 30
0.0
 10
33.69357713397343
 20
26.61799150565777
 30
0.0
 10
33.70010388272662
 20
26.59305698169296
 30
0.0
 10
33.7067618138798
 20
26.55706771210022
 30
0.0
 10
33.70946329607587
 20
26.51790116820119
 30
0.0
 10
33.70720910475056
 20
26.47560408571473
 30
0.0
 10
33.70233301706246
 20
26.44100860957176
 30
0.0
 10
33.69372661777609
 20
26.40455327297384
 30
0.0
 10
33.68085279249863
 20
26.36717416052003
 30
0.0
 10
33.66408316232187
 20
26.33013336120414
 30
0.0
 10
33.64953870339109
 20
26.30656202951065
 30
0.0
 10
33.64234512019769
 20
26.29490382095691
 30
0.0
  0
SPLINE
  5
E9
330
1F
100
AcDbEntity
  8
0
  6
Continuous
 62
     7
370
    25
100
AcDbSpline
210
0.0
220
0.0
230
1.0
 70
     8
 71
     3
 72
    10
 73
     6
 74
     0
 42
0.00000001
 43
0.00000001
 40
0.0
 40
0.0
 40
0.0
 40
0.0
 40
0.5
 40
0.5
 40
1.0
 40
1.0
 40
1.0
 40
1.0
 10
33.88217635358047
 20
26.63509130945657
 30
0.0
 10
33.82254762397876
 20
26.64288573524958
 30
0.0
 10
33.77237333217198
 20
26.66283273621988
 30
0.0
 10
33.69230822643121
 20
26.70233098294023
 30
0.0
 10
33.65959343701599
 20
26.72267656392188
 30
0.0
 10
33.62748419725657
 20
26.742240824927
 30
0.0
  0
LINE
  5
EA
330
1F
100
AcDbEntity
  8
0
  6
Continuous
 62
     7
370
    25
100
AcDbLine
 10
52.1895544546
 20
16.6282853941
 30
0.0
 11
52.2545605387
 21
17.124031697
 31
0.0
  0
SPLINE
  5
EB
330
1F
100
AcDbEntity
  8
0
  6
Continuous
 62
     7
370
    25
100
AcDbSpline
210
0.0
220
0.0
230
1.0
 70
     8
 71
     3
 72
    20
 73
    16
 74
     0
 42
0.00000001
 43
0.00000001
 40
0.0
 40
0.0
 40
0.0
 40
0.0
 40
0.1060317657586715
 40
0.2138409733609931
 40
0.2689060619472262
 40
0.3251014539045434
 40
0.3827863485561693
 40
0.442011860113203
 40
0.5669442188418184
 40
0.6333957081032228
 40
0.7030323386044908
 40
0.7761748201505848
 40
0.8511692721659458
 40
0.9263894086719636
 40
1.0
 40
1.0
 40
1.0
 40
1.0
 10
52.44424661091796
 20
16.52113587861119
 30
0.0
 10
52.43508041626091
 20
16.53338500472736
 30
0.0
 10
52.41659437131528
 20
16.55808859268295
 30
0.0
 10
52.39841257325887
 20
16.592456890033
 30
0.0
 10
52.38611242207728
 20
16.62186548295801
 30
0.0
 10
52.37815367420144
 20
16.64538519787993
 30
0.0
 10
52.37162692544826
 20
16.67031972184456
 30
0.0
 10
52.364968994295
 20
16.70630899143704
 30
0.0
 10
52.36226751209884
 20
16.74547553533574
 30
0.0
 10
52.36452170342393
 20
16.78777261782184
 30
0.0
 10
52.36939779111184
 20
16.82236809396451
 30
0.0
 10
52.37800419039786
 20
16.85882343056217
 30
0.0
 10
52.39087801567514
 20
16.89620254301565
 30
0.0
 10
52.40764764585116
 20
16.93324334233266
 30
0.0
 10
52.42219210478397
 20
16.95681467402561
 30
0.0
 10
52.42938568797859
 20
16.96847288257944
 30
0.0
  0
SPLINE
  5
EC
330
1F
100
AcDbEntity
  8
0
  6
Continuous
 62
     7
370
    25
100
AcDbSpline
210
0.0
220
0.0
230
1.0
 70
     8
 71
     3
 72
    10
 73
     6
 74
     0
 42
0.00000001
 43
0.00000001
 40
0.0
 40
0.0
 40
0.0
 40
0.0
 40
0.5
 40
0.5
 40
1.0
 40
1.0
 40
1.0
 40
1.0
 10
52.18955445459178
 20
16.62828539408217
 30
0.0
 10
52.24918318419405
 20
16.62049096828945
 30
0.0
 10
52.29935747600145
 20
16.60054396731908
 30
0.0
 10
52.37942258174301
 20
16.56104572059848
 30
0.0
 10
52.41213737115845
 20
16.54070013961669
 30
0.0
 10
52.4442466109181
 20
16.52113587861142
 30
0.0
  0
LINE
  5
ED
330
1F
100
AcDbEntity
  8
0
  6
Continuous
 62
     7
370
    25
100
AcDbLine
 10
52.6071586284
 20
26.6694211045
 30
0.0
 11
52.4442466109
 21
26.7422408249
 31
0.0
  0
LINE
  5
EE
330
1F
100
AcDbEntity
  8
0
  6
Continuous
 62
     7
370
    25
100
AcDbLine
 10
33.4645721797
 20
16.5939555991
 30
0.0
 11
33.6274841973
 21
16.5211358786
 31
0.0
  0
LINE
  5
EF
330
1F
100
AcDbEntity
  8
0
  6
Continuous
 62
     7
370
    25
100
AcDbLine
 10
52.4442466109
 20
16.5211358786
 30
0.0
 11
52.6071586284
 21
16.5939555991
 31
0.0
  0
LINE
  5
F0
330
1F
100
AcDbEntity
  8
0
  6
Continuous
 62
     7
370
    25
100
AcDbLine
 10
33.6274841973
 20
26.7422408249
 30
0.0
 11
33.4645721797
 21
26.6694211045
 31
0.0
  0
SPLINE
  5
F1
330
1F
100
AcDbEntity
  8
0
  6
Continuous
 62
     7
370
    25
100
AcDbSpline
210
0.0
220
0.0
230
1.0
 70
     8
 71
     3
 72
     8
 73
     4
 74
     0
 42
0.00000001
 43
0.00000001
 40
0.0
 40
0.0
 40
0.0
 40
0.0
 40
0.0000524698222138
 40
0.0000524698222138
 40
0.0000524698222138
 40
0.0000524698222138
 10
33.93444192464593
 20
16.63168835176921
 30
0.0
 10
33.91697848967369
 20
16.63168835176921
 30
0.0
 10
33.89948266543364
 20
16.63054760500592
 30
0.0
 10
33.88217635357902
 20
16.62828539408166
 30
0.0
  0
SPLINE
  5
F2
330
1F
100
AcDbEntity
  8
0
  6
Continuous
 62
     7
370
    25
100
AcDbSpline
210
0.0
220
0.0
230
1.0
 70
     8
 71
     3
 72
     8
 73
     4
 74
     0
 42
0.00000001
 43
0.00000001
 40
0.0
 40
0.0
 40
0.0
 40
0.0
 40
0.0001175213404591
 40
0.0001175213404591
 40
0.0001175213404591
 40
0.0001175213404591
 10
33.81717026950081
 20
17.12403169697228
 30
0.0
 10
33.85601154510748
 20
17.12912486501624
 30
0.0
 10
33.8952681444935
 20
17.13168835176926
 30
0.0
 10
33.93444192464652
 20
17.13168835176922
 30
0.0
  0
LINE
  5
F3
330
1F
100
AcDbEntity
  8
0
  6
Continuous
 62
     7
370
    25
100
AcDbLine
 10
33.9344419246
 20
16.6316883518
 30
0.0
 11
33.9344419246
 21
17.1316883518
 31
0.0
  0
LINE
  5
F4
330
1F
100
AcDbEntity
  8
0
  6
Continuous
 62
     7
370
    25
100
AcDbLine
 10
52.1372888835
 20
26.1316883518
 30
0.0
 11
33.9344419246
 21
26.1316883518
 31
0.0
  0
LINE
  5
F5
330
1F
100
AcDbEntity
  8
0
  6
Continuous
 62
     7
370
    25
100
AcDbLine
 10
33.9344419246
 20
26.1316883518
 30
0.0
 11
33.9344419246
 21
26.6316883518
 31
0.0
  0
LINE
  5
F6
330
1F
100
AcDbEntity
  8
0
  6
Continuous
 62
     7
370
    25
100
AcDbLine
 10
33.9344419246
 20
26.6316883518
 30
0.0
 11
52.1372888835
 21
26.6316883518
 31
0.0
  0
LINE
  5
F7
330
1F
100
AcDbEntity
  8
0
  6
Continuous
 62
     7
370
    25
100
AcDbLine
 10
52.1372888835
 20
26.1316883518
 30
0.0
 11
52.1372888835
 21
26.6316883518
 31
0.0
  0
SPLINE
  5
F8
330
1F
100
AcDbEntity
  8
0
  6
Continuous
 62
     7
370
    25
100
AcDbSpline
210
0.0
220
0.0
230
1.0
 70
     8
 71
     3
 72
     8
 73
     4
 74
     0
 42
0.00000001
 43
0.00000001
 40
0.0
 40
0.0
 40
0.0
 40
0.0
 40
0.0001175213404538
 40
0.0001175213404538
 40
0.0001175213404538
 40
0.0001175213404538
 10
33.93444192464658
 20
26.13168835176921
 30
0.0
 10
33.89526814449533
 20
26.13168835176916
 30
0.0
 10
33.85601154511107
 20
26.13425183852194
 30
0.0
 10
33.81717026950611
 20
26.13934500656545
 30
0.0
  0
SPLINE
  5
F9
330
1F
100
AcDbEntity
  8
0
  6
Continuous
 62
     7
370
    25
100
AcDbSpline
210
0.0
220
0.0
230
1.0
 70
     8
 71
     3
 72
     8
 73
     4
 74
     0
 42
0.00000001
 43
0.00000001
 40
0.0
 40
0.0
 40
0.0
 40
0.0
 40
0.0000524698222113
 40
0.0000524698222113
 40
0.0000524698222113
 40
0.0000524698222113
 10
33.88217635358047
 20
26.63509130945657
 30
0.0
 10
33.89948266543507
 20
26.63282909853224
 30
0.0
 10
33.91697848967576
 20
26.63168835176909
 30
0.0
 10
33.93444192464797
 20
26.63168835176921
 30
0.0
  0
SPLINE
  5
FA
330
1F
100
AcDbEntity
  8
0
  6
Continuous
 62
     7
370
    25
100
AcDbSpline
210
0.0
220
0.0
230
1.0
 70
     8
 71
     3
 72
     8
 73
     4
 74
     0
 42
0.00000001
 43
0.00000001
 40
0.0
 40
0.0
 40
0.0
 40
0.0
 40
0.0001175213404591
 40
0.0001175213404591
 40
0.0001175213404591
 40
0.0001175213404591
 10
52.25456053867386
 20
26.13934500656615
 30
0.0
 10
52.21571926306719
 20
26.13425183852218
 30
0.0
 10
52.17646266368116
 20
26.13168835176916
 30
0.0
 10
52.13728888352814
 20
26.13168835176921
 30
0.0
  0
SPLINE
  5
FB
330
1F
100
AcDbEntity
  8
0
  6
Continuous
 62
     7
370
    25
100
AcDbSpline
210
0.0
220
0.0
230
1.0
 70
     8
 71
     3
 72
     8
 73
     4
 74
     0
 42
0.00000001
 43
0.00000001
 40
0.0
 40
0.0
 40
0.0
 40
0.0
 40
0.0000524698222138
 40
0.0000524698222138
 40
0.0000524698222138
 40
0.0000524698222138
 10
52.13728888352873
 20
26.63168835176921
 30
0.0
 10
52.15475231850098
 20
26.63168835176921
 30
0.0
 10
52.17224814274103
 20
26.63282909853251
 30
0.0
 10
52.18955445459566
 20
26.63509130945677
 30
0.0
  0
SPLINE
  5
FC
330
1F
100
AcDbEntity
  8
0
  6
Continuous
 62
     7
370
    25
100
AcDbSpline
210
0.0
220
0.0
230
1.0
 70
     8
 71
     3
 72
     8
 73
     4
 74
     0
 42
0.00000001
 43
0.00000001
 40
0.0
 40
0.0
 40
0.0
 40
0.0
 40
0.0001175213404538
 40
0.0001175213404538
 40
0.0001175213404538
 40
0.0001175213404538
 10
52.13728888352808
 20
17.13168835176921
 30
0.0
 10
52.17646266367934
 20
17.13168835176926
 30
0.0
 10
52.2157192630636
 20
17.12912486501648
 30
0.0
 10
52.25456053866855
 20
17.12403169697297
 30
0.0
  0
LINE
  5
FD
330
1F
100
AcDbEntity
  8
0
  6
Continuous
 62
     7
370
    25
100
AcDbLine
 10
33.9344419246
 20
17.1316883518
 30
0.0
 11
52.1372888835
 21
17.1316883518
 31
0.0
  0
SPLINE
  5
FE
330
1F
100
AcDbEntity
  8
0
  6
Continuous
 62
     7
370
    25
100
AcDbSpline
210
0.0
220
0.0
230
1.0
 70
     8
 71
     3
 72
     8
 73
     4
 74
     0
 42
0.00000001
 43
0.00000001
 40
0.0
 40
0.0
 40
0.0
 40
0.0
 40
0.0000524698222088
 40
0.0000524698222088
 40
0.0000524698222088
 40
0.0000524698222088
 10
52.18955445459178
 20
16.62828539408217
 30
0.0
 10
52.17224814273795
 20
16.63054760500616
 30
0.0
 10
52.1547523184981
 20
16.63168835176933
 30
0.0
 10
52.13728888352669
 20
16.63168835176921
 30
0.0
  0
LINE
  5
FF
330
1F
100
AcDbEntity
  8
0
  6
Continuous
 62
     7
370
    25
100
AcDbLine
 10
52.1372888835
 20
16.6316883518
 30
0.0
 11
52.1372888835
 21
17.1316883518
 31
0.0
  0
LINE
  5
100
330
1F
100
AcDbEntity
  8
0
  6
Continuous
 62
     7
370
    25
100
AcDbLine
 10
52.1372888835
 20
16.6316883518
 30
0.0
 11
33.9344419246
 21
16.6316883518
 31
0.0
  0
SPLINE
  5
101
330
1F
100
AcDbEntity
  8
0
  6
Continuous
 62
     7
370
    25
100
AcDbSpline
210
0.0
220
0.0
230
1.0
 70
     8
 71
     3
 72
    14
 73
    10
 74
     0
 42
0.00000001
 43
0.00000001
 40
0.0
 40
0.0
 40
0.0
 40
0.0
 40
0.1106414710202212
 40
0.2239563677549811
 40
0.4666597346533721
 40
0.5947565812544914
 40
0.7265559329283156
 40
0.8618634099915925
 40
0.9999999999999999
 40
0.9999999999999999
 40
0.9999999999999999
 40
0.9999999999999999
 10
52.44424661091802
 20
26.74224082492709
 30
0.0
 10
52.4529290088125
 20
26.75246540317489
 30
0.0
 10
52.47050359705614
 20
26.7731616157712
 30
0.0
 10
52.49773928602428
 20
26.81892863512041
 30
0.0
 10
52.51582165529656
 20
26.86706085047144
 30
0.0
 10
52.52685669987536
 20
26.91584289650422
 30
0.0
 10
52.53235321308897
 20
26.95360117110952
 30
0.0
 10
52.53549488525082
 20
26.99174289220814
 30
0.0
 10
52.53576363400104
 20
27.01711993290612
 30
0.0
 10
52.53589939864322
 20
27.0299397314999
 30
0.0
  0
LINE
  5
102
330
1F
100
AcDbEntity
  8
0
  6
Continuous
 62
     7
370
    25
100
AcDbLine
 10
52.7787586229
 20
27.141447722
 30
0.0
 11
52.5358993986
 21
27.0299397315
 31
0.0
  0
SPLINE
  5
103
330
1F
100
AcDbEntity
  8
0
  6
Continuous
 62
     7
370
    25
100
AcDbSpline
210
0.0
220
0.0
230
1.0
 70
     8
 71
     3
 72
    14
 73
    10
 74
     0
 42
0.00000001
 43
0.00000001
 40
0.0
 40
0.0
 40
0.0
 40
0.0
 40
0.1106414708992788
 40
0.223956367746778
 40
0.4666597346473029
 40
0.5947565812498034
 40
0.726555932925087
 40
0.8618634099899285
 40
1.0
 40
1.0
 40
1.0
 40
1.0
 10
33.62748419725661
 20
16.52113587861134
 30
0.0
 10
33.61880179936905
 20
16.5109113003736
 30
0.0
 10
33.60122721112084
 20
16.49021508777581
 30
0.0
 10
33.57399152216005
 20
16.44444806843497
 30
0.0
 10
33.55590915287802
 20
16.39631585306877
 30
0.0
 10
33.54487410829974
 20
16.34753380703594
 30
0.0
 10
33.53937759508577
 20
16.30977553242997
 30
0.0
 10
33.53623592292387
 20
16.27163381133084
 30
0.0
 10
33.53596717417363
 20
16.24625677063249
 30
0.0
 10
33.53583140953144
 20
16.23343697203852
 30
0.0
  0
LINE
  5
104
330
1F
100
AcDbEntity
  8
0
  6
Continuous
 62
     7
370
    25
100
AcDbLine
 10
33.2929721853
 20
16.1219289815
 30
0.0
 11
33.5358314095
 21
16.233436972
 31
0.0
  0
SPLINE
  5
105
330
1F
100
AcDbEntity
  8
0
  6
Continuous
 62
     7
370
    25
100
AcDbSpline
210
0.0
220
0.0
230
1.0
 70
     8
 71
     3
 72
    14
 73
    10
 74
     0
 42
0.00000001
 43
0.00000001
 40
0.0
 40
0.0
 40
0.0
 40
0.0
 40
0.13773271089855
 40
0.2725942885000562
 40
0.4041400602173022
 40
0.5321680644071745
 40
0.7754693061726239
 40
0.8890599100183086
 40
0.9999999999999999
 40
0.9999999999999999
 40
0.9999999999999999
 40
0.9999999999999999
 10
52.53589939864316
 20
16.23343697203665
 30
0.0
 10
52.53576456519309
 20
16.24621931252619
 30
0.0
 10
52.53549770898918
 20
16.27151753680696
 30
0.0
 10
52.53237588674396
 20
16.30955193518841
 30
0.0
 10
52.52690962278503
 20
16.34723450733354
 30
0.0
 10
52.51590976607408
 20
16.39603346032383
 30
0.0
 10
52.49784209349003
 20
16.4442456094765
 30
0.0
 10
52.47056864399424
 20
16.49013202610156
 30
0.0
 10
52.4529512995494
 20
16.51088291366411
 30
0.0
 10
52.44424661091805
 20
16.52113587861134
 30
0.0
  0
LINE
  5
106
330
1F
100
AcDbEntity
  8
0
  6
Continuous
 62
     7
370
    25
100
AcDbLine
 10
52.5358993986
 20
16.233436972
 30
0.0
 11
52.7787586229
 21
16.1219289815
 31
0.0
  0
SPLINE
  5
107
330
1F
100
AcDbEntity
  8
0
  6
Continuous
 62
     7
370
    25
100
AcDbSpline
210
0.0
220
0.0
230
1.0
 70
     8
 71
     3
 72
    14
 73
    10
 74
     0
 42
0.00000001
 43
0.00000001
 40
0.0
 40
0.0
 40
0.0
 40
0.0
 40
0.1377327108987162
 40
0.2725942885004416
 40
0.4041400602177524
 40
0.5321680644078574
 40
0.7754693061737634
 40
0.8890599099299614
 40
0.9999999999999999
 40
0.9999999999999999
 40
0.9999999999999999
 40
0.9999999999999999
 10
33.53583140953151
 20
27.02993973150177
 30
0.0
 10
33.53596624298157
 20
27.01715739101225
 30
0.0
 10
33.53623309918548
 20
26.99185916673149
 30
0.0
 10
33.53935492143073
 20
26.95382476835
 30
0.0
 10
33.54482118538952
 20
26.91614219620502
 30
0.0
 10
33.55582104210102
 20
26.86734324321431
 30
0.0
 10
33.57388871467867
 20
26.8191310940727
 30
0.0
 10
33.60116216417865
 20
26.77324467744288
 30
0.0
 10
33.61877950862002
 20
26.7524937898818
 30
0.0
 10
33.62748419725663
 20
26.74224082492708
 30
0.0
  0
LINE
  5
108
330
1F
100
AcDbEntity
  8
0
  6
Continuous
 62
     7
370
    25
100
AcDbLine
 10
33.5358314095
 20
27.0299397315
 30
0.0
 11
33.2929721853
 21
27.1414477221
 31
0.0
  0
ARC
  5
109
330
1F
100
AcDbEntity
  8
0
  6
Continuous
 62
     7
370
    25
100
AcDbCircle
 10
33.9358654041
 20
27.0316883518
 30
0.0
 40
0.3999999999999986
100
AcDbArc
 50
180.0
 51
270.0
  0
SPLINE
  5
10A
330
1F
100
AcDbEntity
  8
0
  6
Continuous
 62
     7
370
    25
100
AcDbSpline
210
0.0
220
0.0
230
1.0
 70
    24
 71
     3
 72
     8
 73
     4
 74
     0
 42
0.00000001
 43
0.00000001
 40
0.0
 40
0.0
 40
0.0
 40
0.0
 40
1.0
 40
1.0
 40
1.0
 40
1.0
 10
33.93586540408733
 20
26.63168835176921
 30
0.0
 10
33.93586540408733
 20
26.63168835176921
 30
0.0
 10
33.9353886246947
 20
26.63168835176921
 30
0.0
 10
33.93444192464549
 20
26.63168835176921
 30
0.0
  0
SPLINE
  5
10B
330
1F
100
AcDbEntity
  8
0
  6
Continuous
 62
     7
370
    25
100
AcDbSpline
210
0.0
220
0.0
230
1.0
 70
     8
 71
     3
 72
     8
 73
     4
 74
     0
 42
0.00000001
 43
0.00000001
 40
0.0
 40
0.0
 40
0.0
 40
0.0
 40
1.0
 40
1.0
 40
1.0
 40
1.0
 10
33.53583140953144
 20
27.02993973149993
 30
0.0
 10
33.53585406714228
 20
27.03052190965322
 30
0.0
 10
33.53586540408733
 20
27.03110478243322
 30
0.0
 10
33.53586540408733
 20
27.03168835176921
 30
0.0
  0
ARC
  5
10C
330
1F
100
AcDbEntity
  8
0
  6
Continuous
 62
     7
370
    25
100
AcDbCircle
 10
52.1358654041
 20
16.2316883518
 30
0.0
 40
0.4000000000000021
100
AcDbArc
 50
0.0
 51
90.0
  0
SPLINE
  5
10D
330
1F
100
AcDbEntity
  8
0
  6
Continuous
 62
     7
370
    25
100
AcDbSpline
210
0.0
220
0.0
230
1.0
 70
    24
 71
     3
 72
     8
 73
     4
 74
     0
 42
0.00000001
 43
0.00000001
 40
0.0
 40
0.0
 40
0.0
 40
0.0
 40
1.0
 40
1.0
 40
1.0
 40
1.0
 10
52.13586540408733
 20
16.63168835176921
 30
0.0
 10
52.13586540408733
 20
16.63168835176921
 30
0.0
 10
52.13634218347997
 20
16.63168835176921
 30
0.0
 10
52.13728888352918
 20
16.63168835176921
 30
0.0
  0
SPLINE
  5
10E
330
1F
100
AcDbEntity
  8
0
  6
Continuous
 62
     7
370
    25
100
AcDbSpline
210
0.0
220
0.0
230
1.0
 70
     8
 71
     3
 72
     8
 73
     4
 74
     0
 42
0.00000001
 43
0.00000001
 40
0.0
 40
0.0
 40
0.0
 40
0.0
 40
1.0
 40
1.0
 40
1.0
 40
1.0
 10
52.53589939864322
 20
16.23343697203849
 30
0.0
 10
52.53587674103238
 20
16.23285479388521
 30
0.0
 10
52.53586540408733
 20
16.2322719211052
 30
0.0
 10
52.53586540408733
 20
16.23168835176921
 30
0.0
  0
SPLINE
  5
10F
330
1F
100
AcDbEntity
  8
0
  6
Continuous
 62
     7
370
    25
100
AcDbSpline
210
0.0
220
0.0
230
1.0
 70
    24
 71
     3
 72
     8
 73
     4
 74
     0
 42
0.00000001
 43
0.00000001
 40
0.0
 40
0.0
 40
0.0
 40
0.0
 40
1.0
 40
1.0
 40
1.0
 40
1.0
 10
33.93444192464594
 20
16.63168835176921
 30
0.0
 10
33.93538862469484
 20
16.63168835176921
 30
0.0
 10
33.93586540408733
 20
16.63168835176921
 30
0.0
 10
33.93586540408733
 20
16.63168835176921
 30
0.0
  0
ARC
  5
110
330
1F
100
AcDbEntity
  8
0
  6
Continuous
 62
     7
370
    25
100
AcDbCircle
 10
33.9358654041
 20
16.2316883518
 30
0.0
 40
0.4000000000000021
100
AcDbArc
 50
90.0
 51
180.0
  0
SPLINE
  5
111
330
1F
100
AcDbEntity
  8
0
  6
Continuous
 62
     7
370
    25
100
AcDbSpline
210
0.0
220
0.0
230
1.0
 70
     8
 71
     3
 72
     8
 73
     4
 74
     0
 42
0.00000001
 43
0.00000001
 40
0.0
 40
0.0
 40
0.0
 40
0.0
 40
1.0
 40
1.0
 40
1.0
 40
1.0
 10
33.53586540408733
 20
16.23168835176921
 30
0.0
 10
33.53586540408733
 20
16.23227192110504
 30
0.0
 10
33.53585406714229
 20
16.23285479388489
 30
0.0
 10
33.53583140953146
 20
16.23343697203802
 30
0.0
  0
SPLINE
  5
112
330
1F
100
AcDbEntity
  8
0
  6
Continuous
 62
     7
370
    25
100
AcDbSpline
210
0.0
220
0.0
230
1.0
 70
    24
 71
     3
 72
     8
 73
     4
 74
     0
 42
0.00000001
 43
0.00000001
 40
0.0
 40
0.0
 40
0.0
 40
0.0
 40
1.0
 40
1.0
 40
1.0
 40
1.0
 10
52.13728888352873
 20
26.63168835176921
 30
0.0
 10
52.13634218347982
 20
26.63168835176921
 30
0.0
 10
52.13586540408733
 20
26.63168835176921
 30
0.0
 10
52.13586540408733
 20
26.63168835176921
 30
0.0
  0
ARC
  5
113
330
1F
100
AcDbEntity
  8
0
  6
Continuous
 62
     7
370
    25
100
AcDbCircle
 10
52.1358654041
 20
27.0316883518
 30
0.0
 40
0.3999999999999986
100
AcDbArc
 50
270.0
 51
0.0
  0
SPLINE
  5
114
330
1F
100
AcDbEntity
  8
0
  6
Continuous
 62
     7
370
    25
100
AcDbSpline
210
0.0
220
0.0
230
1.0
 70
     8
 71
     3
 72
     8
 73
     4
 74
     0
 42
0.00000001
 43
0.00000001
 40
0.0
 40
0.0
 40
0.0
 40
0.0
 40
1.0
 40
1.0
 40
1.0
 40
1.0
 10
52.53586540408733
 20
27.03168835176921
 30
0.0
 10
52.53586540408733
 20
27.03110478243322
 30
0.0
 10
52.53587674103238
 20
27.03052190965322
 30
0.0
 10
52.53589939864322
 20
27.02993973149994
 30
0.0
  0
LINE
  5
115
330
1F
100
AcDbEntity
  8
0
  6
Continuous
 62
     7
370
    25
100
AcDbLine
 10
33.5358314095
 20
16.233436972
 30
0.0
 11
33.5358314094
 21
9.874547576
 31
0.0
  0
LINE
  5
116
330
1F
100
AcDbEntity
  8
0
  6
Continuous
 62
     7
370
    25
100
AcDbLine
 10
52.5358993986
 20
27.0299397315
 30
0.0
 11
52.5358993984
 21
33.3888291275
 31
0.0
  0
LINE
  5
117
330
1F
100
AcDbEntity
  8
0
  6
Continuous
 62
     7
370
    25
100
AcDbLine
 10
33.5358314095
 20
33.3888291275
 30
0.0
 11
33.5358314095
 21
27.0299397315
 31
0.0
  0
LINE
  5
118
330
1F
100
AcDbEntity
  8
0
  6
Continuous
 62
     7
370
    25
100
AcDbLine
 10
52.5358993987
 20
9.874547576
 30
0.0
 11
52.5358993986
 21
16.233436972
 31
0.0
  0
LINE
  5
119
330
1F
100
AcDbEntity
  8
0
  6
Continuous
 62
     7
370
    25
100
AcDbLine
 10
18.982256677
 20
11.3249261245
 30
0.0
 11
18.982256677
 21
31.938450579
 31
0.0
  0
LINE
  5
11A
330
1F
100
AcDbEntity
  8
0
  6
Continuous
 62
     7
370
    25
100
AcDbLine
 10
33.5358654041
 20
33.3816883518
 30
0.0
 11
33.5358654041
 21
27.0316883518
 31
0.0
  0
LINE
  5
11B
330
1F
100
AcDbEntity
  8
0
  6
Continuous
 62
     7
370
    25
100
AcDbLine
 10
52.5358654041
 20
9.8816883518
 30
0.0
 11
52.5358654041
 21
16.2316883518
 31
0.0
  0
LINE
  5
11C
330
1F
100
AcDbEntity
  8
0
  6
Continuous
 62
     7
370
    25
100
AcDbLine
 10
52.5358654041
 20
27.0316883518
 30
0.0
 11
52.5358654041
 21
33.3816883518
 31
0.0
  0
LINE
  5
11D
330
1F
100
AcDbEntity
  8
0
  6
Continuous
 62
     7
370
    25
100
AcDbLine
 10
33.5358654041
 20
16.2316883518
 30
0.0
 11
33.5358654041
 21
9.8816883518
 31
0.0
  0
LINE
  5
11E
330
1F
100
AcDbEntity
  8
0
  6
Continuous
 62
     7
370
    25
100
AcDbLine
 10
16.2858654041
 20
21.6316883518
 30
0.0
 11
16.2858654041
 21
30.3816883518
 31
0.0
  0
LINE
  5
11F
330
1F
100
AcDbEntity
  8
0
  6
Continuous
 62
     7
370
    25
100
AcDbLine
 10
16.2858654041
 20
12.8816883518
 30
0.0
 11
16.2858654041
 21
21.6316883518
 31
0.0
  0
LWPOLYLINE
  5
120
330
1F
100
AcDbEntity
  8
0
  6
Continuous
 62
     7
370
    25
100
AcDbPolyline
 90
        9
 70
   128
 43
0.0
 10
33.5358654041
 20
27.0838622648
 10
33.5435512919
 20
27.046540638
 10
33.5663135911
 20
27.0106532604
 10
33.6032775592
 20
26.9775792637
 10
33.6530226916
 20
26.9485896632
 10
33.7136373109
 20
26.9247985129
 10
33.7827920311
 20
26.9071200934
 10
33.8578292753
 20
26.8962337764
 10
33.9358654041
 20
26.892557917
  0
LINE
  5
121
330
1F
100
AcDbEntity
  8
0
  6
Continuous
 62
     7
370
    25
100
AcDbLine
 10
33.9358654041
 20
26.892557917
 30
0.0
 11
33.9358654041
 21
26.6316883518
 31
0.0
  0
LINE
  5
122
330
1F
100
AcDbEntity
  8
0
  6
Continuous
 62
     7
370
    25
100
AcDbLine
 10
52.1358654041
 20
26.892557917
 30
0.0
 11
52.1358654041
 21
26.6316883518
 31
0.0
  0
LWPOLYLINE
  5
123
330
1F
100
AcDbEntity
  8
0
  6
Continuous
 62
     7
370
    25
100
AcDbPolyline
 90
        9
 70
   128
 43
0.0
 10
52.1358654041
 20
26.892557917
 10
52.2139015329
 20
26.8962337764
 10
52.288938777
 20
26.9071200934
 10
52.3580934973
 20
26.9247985129
 10
52.4187081166
 20
26.9485896632
 10
52.468453249
 20
26.9775792637
 10
52.5054172171
 20
27.0106532604
 10
52.5281795162
 20
27.046540638
 10
52.5358654041
 20
27.0838622648
  0
LINE
  5
124
330
1F
100
AcDbEntity
  8
0
  6
Continuous
 62
     7
370
    25
100
AcDbLine
 10
33.9358654041
 20
26.892557917
 30
0.0
 11
52.1358654041
 21
26.892557917
 31
0.0
  0
LINE
  5
125
330
1F
100
AcDbEntity
  8
0
  6
Continuous
 62
     7
370
    25
100
AcDbLine
 10
33.9358654041
 20
16.6316883518
 30
0.0
 11
33.9358654041
 21
16.3708187866
 31
0.0
  0
LWPOLYLINE
  5
126
330
1F
100
AcDbEntity
  8
0
  6
Continuous
 62
     7
370
    25
100
AcDbPolyline
 90
        9
 70
   128
 43
0.0
 10
33.9358654041
 20
16.3708187866
 10
33.8578292753
 20
16.3671429272
 10
33.7827920311
 20
16.3562566102
 10
33.7136373109
 20
16.3385781906
 10
33.6530226916
 20
16.3147870403
 10
33.6032775592
 20
16.2857974398
 10
33.5663135911
 20
16.2527234432
 10
33.5435512919
 20
16.2168360655
 10
33.5358654041
 20
16.1795144387
  0
LINE
  5
127
330
1F
100
AcDbEntity
  8
0
  6
Continuous
 62
     7
370
    25
100
AcDbLine
 10
52.1358654041
 20
16.6316883518
 30
0.0
 11
52.1358654041
 21
16.3708187866
 31
0.0
  0
LWPOLYLINE
  5
128
330
1F
100
AcDbEntity
  8
0
  6
Continuous
 62
     7
370
    25
100
AcDbPolyline
 90
        9
 70
   128
 43
0.0
 10
52.5358654041
 20
16.1795144387
 10
52.5281795162
 20
16.2168360655
 10
52.5054172171
 20
16.2527234432
 10
52.468453249
 20
16.2857974398
 10
52.4187081166
 20
16.3147870403
 10
52.3580934973
 20
16.3385781906
 10
52.288938777
 20
16.3562566102
 10
52.2139015329
 20
16.3671429272
 10
52.1358654041
 20
16.3708187866
  0
LINE
  5
129
330
1F
100
AcDbEntity
  8
0
  6
Continuous
 62
     7
370
    25
100
AcDbLine
 10
52.1358654041
 20
16.3708187866
 30
0.0
 11
33.9358654041
 21
16.3708187866
 31
0.0
  0
LINE
  5
12A
330
1F
100
AcDbEntity
  8
0
  6
Continuous
 62
     7
370
    25
100
AcDbLine
 10
36.6419728305
 20
32.6284492456
 30
0.0
 11
36.6358654041
 21
32.6316883518
 31
0.0
  0
LINE
  5
12B
330
1F
100
AcDbEntity
  8
0
  6
Continuous
 62
     7
370
    25
100
AcDbLine
 10
37.7967800714
 20
50.7316883518
 30
0.0
 11
37.7967800714
 21
50.1316883518
 31
0.0
  0
LINE
  5
12C
330
1F
100
AcDbEntity
  8
0
  6
Continuous
 62
     7
370
    25
100
AcDbLine
 10
48.2749507367
 20
50.7316883518
 30
0.0
 11
37.7967800714
 21
50.7316883518
 31
0.0
  0
LINE
  5
12D
330
1F
100
AcDbEntity
  8
0
  6
Continuous
 62
     7
370
    25
100
AcDbLine
 10
48.2749507367
 20
50.1316883518
 30
0.0
 11
48.2749507367
 21
50.7316883518
 31
0.0
  0
LINE
  5
12E
330
1F
100
AcDbEntity
  8
0
  6
Continuous
 62
     7
370
    25
100
AcDbLine
 10
37.7967800714
 20
50.1316883518
 30
0.0
 11
48.2749507367
 21
50.1316883518
 31
0.0
  0
SPLINE
  5
12F
330
1F
100
AcDbEntity
  8
0
  6
Continuous
 62
     7
370
    25
100
AcDbSpline
210
0.0
220
0.0
230
1.0
 70
     8
 71
     3
 72
    15
 73
    11
 74
     0
 42
0.00000001
 43
0.00000001
 40
0.0
 40
0.0
 40
0.0
 40
0.0
 40
0.0081667445812695
 40
0.3321939991490083
 40
0.4756279600585602
 40
0.6866830973284899
 40
0.8457435502264811
 40
0.8967566214763185
 40
0.9909540928118029
 40
1.0
 40
1.0
 40
1.0
 40
1.0
 10
37.93684589049455
 20
50.98168835176921
 30
0.0
 10
37.93635835635166
 20
50.98168567542343
 30
0.0
 10
37.91652720881959
 20
50.9815768112366
 30
0.0
 10
37.88824642881032
 20
50.9720307989672
 30
0.0
 10
37.85041713032149
 20
50.93466841571265
 30
0.0
 10
37.823833233754
 20
50.88980290097797
 30
0.0
 10
37.80666340999903
 20
50.83192660140107
 30
0.0
 10
37.79884641378257
 20
50.78125056142914
 30
0.0
 10
37.79685072734669
 20
50.75255628190914
 30
0.0
 10
37.79678576339589
 20
50.73336945035363
 30
0.0
 10
37.79678007142923
 20
50.73168835176921
 30
0.0
  0
LINE
  5
130
330
1F
100
AcDbEntity
  8
0
  6
Continuous
 62
     7
370
    25
100
AcDbLine
 10
37.9368458905
 20
50.9816883518
 30
0.0
 11
48.1348849177
 21
50.9816883518
 31
0.0
  0
SPLINE
  5
131
330
1F
100
AcDbEntity
  8
0
  6
Continuous
 62
     7
370
    25
100
AcDbSpline
210
0.0
220
0.0
230
1.0
 70
     8
 71
     3
 72
    15
 73
    11
 74
     0
 42
0.00000001
 43
0.00000001
 40
0.0
 40
0.0
 40
0.0
 40
0.0
 40
0.0090459071881971
 40
0.1032433785236875
 40
0.1542564497735192
 40
0.3133169026715104
 40
0.5243720399414423
 40
0.6678060008509901
 40
0.9918332554187292
 40
1.0
 40
1.0
 40
1.0
 40
1.0
 10
48.27495073674544
 20
50.73168835176921
 30
0.0
 10
48.27494504477878
 20
50.73336945035363
 30
0.0
 10
48.27488008082799
 20
50.75255628190919
 30
0.0
 10
48.2728843943921
 20
50.78125056142913
 30
0.0
 10
48.26506739817564
 20
50.83192660140108
 30
0.0
 10
48.24789757442066
 20
50.88980290097797
 30
0.0
 10
48.22131367785317
 20
50.93466841571266
 30
0.0
 10
48.18348437936434
 20
50.97203079896718
 30
0.0
 10
48.1552035993551
 20
50.98157681123674
 30
0.0
 10
48.135372451823
 20
50.98168567542344
 30
0.0
 10
48.13488491768012
 20
50.98168835176921
 30
0.0
  0
LINE
  5
132
330
1F
100
AcDbEntity
  8
0
  6
Continuous
 62
     7
370
    25
100
AcDbLine
 10
37.558639829
 20
50.7316883518
 30
0.0
 11
37.7967800714
 21
50.7316883518
 31
0.0
  0
SPLINE
  5
133
330
1F
100
AcDbEntity
  8
0
  6
Continuous
 62
     7
370
    25
100
AcDbSpline
210
0.0
220
0.0
230
1.0
 70
     8
 71
     3
 72
    15
 73
    11
 74
     0
 42
0.00000001
 43
0.00000001
 40
0.0
 40
0.0
 40
0.0
 40
0.0
 40
0.0089557228015919
 40
0.0999003359608148
 40
0.153163246058169
 40
0.3125636920784848
 40
0.5249666935694999
 40
0.6689893599352451
 40
0.9919152533810159
 40
1.0
 40
1.0
 40
1.0
 40
1.0
 10
37.55863982903567
 20
50.73168835176921
 30
0.0
 10
37.55865558461428
 20
50.73336947734212
 30
0.0
 10
37.55883133677084
 20
50.75212229196656
 30
0.0
 10
37.56426035279037
 20
50.78088452107403
 30
0.0
 10
37.58579583649767
 20
50.83177159454239
 30
0.0
 10
37.6335012647625
 20
50.88990724467502
 30
0.0
 10
37.7058922097544
 20
50.93461511785843
 30
0.0
 10
37.80781132177218
 20
50.97189694132017
 30
0.0
 10
37.88316641322665
 20
50.9815760961578
 30
0.0
 10
37.93556605895041
 20
50.98168567535953
 30
0.0
 10
37.93684589049455
 20
50.98168835176921
 30
0.0
  0
LINE
  5
134
330
1F
100
AcDbEntity
  8
0
  6
Continuous
 62
     7
370
    25
100
AcDbLine
 10
48.2749507367
 20
50.7316883518
 30
0.0
 11
48.5130909791
 21
50.7316883518
 31
0.0
  0
SPLINE
  5
135
330
1F
100
AcDbEntity
  8
0
  6
Continuous
 62
     7
370
    25
100
AcDbSpline
210
0.0
220
0.0
230
1.0
 70
     8
 71
     3
 72
    15
 73
    11
 74
     0
 42
0.00000001
 43
0.00000001
 40
0.0
 40
0.0
 40
0.0
 40
0.0
 40
0.0080847466189818
 40
0.3310106400647571
 40
0.4750333064305
 40
0.6874363079215142
 40
0.846836753941831
 40
0.9000996640391852
 40
0.9910442771984082
 40
1.0
 40
1.0
 40
1.0
 40
1.0
 10
48.13488491768012
 20
50.98168835176921
 30
0.0
 10
48.13616474922426
 20
50.98168567535952
 30
0.0
 10
48.18856439494805
 20
50.98157609615771
 30
0.0
 10
48.26391948640248
 20
50.9718969413202
 30
0.0
 10
48.36583859842027
 20
50.93461511785842
 30
0.0
 10
48.43822954341216
 20
50.88990724467503
 30
0.0
 10
48.48593497167699
 20
50.83177159454236
 30
0.0
 10
48.5074704553843
 20
50.78088452107405
 30
0.0
 10
48.51289947140383
 20
50.75212229196654
 30
0.0
 10
48.51307522356039
 20
50.73336947734212
 30
0.0
 10
48.51309097913899
 20
50.73168835176921
 30
0.0
  0
LINE
  5
136
330
1F
100
AcDbEntity
  8
0
  6
Continuous
 62
     7
370
    25
100
AcDbLine
 10
37.558639829
 20
50.1316883518
 30
0.0
 11
37.558639829
 21
50.7316883518
 31
0.0
  0
LINE
  5
137
330
1F
100
AcDbEntity
  8
0
  6
Continuous
 62
     7
370
    25
100
AcDbLine
 10
37.7967800714
 20
50.1316883518
 30
0.0
 11
37.558639829
 21
50.1316883518
 31
0.0
  0
LINE
  5
138
330
1F
100
AcDbEntity
  8
0
  6
Continuous
 62
     7
370
    25
100
AcDbLine
 10
48.5130909791
 20
50.7316883518
 30
0.0
 11
48.5130909791
 21
50.1316883518
 31
0.0
  0
LINE
  5
139
330
1F
100
AcDbEntity
  8
0
  6
Continuous
 62
     7
370
    25
100
AcDbLine
 10
48.5130909791
 20
50.1316883518
 30
0.0
 11
48.2749507367
 21
50.1316883518
 31
0.0
  0
LINE
  5
13A
330
1F
100
AcDbEntity
  8
0
  6
Continuous
 62
     7
370
    25
100
AcDbLine
 10
37.2858654041
 20
50.7316883518
 30
0.0
 11
37.2858654041
 21
50.1316883518
 31
0.0
  0
LINE
  5
13B
330
1F
100
AcDbEntity
  8
0
  6
Continuous
 62
     7
370
    25
100
AcDbLine
 10
37.558639829
 20
50.7316883518
 30
0.0
 11
37.2858654041
 21
50.7316883518
 31
0.0
  0
LINE
  5
13C
330
1F
100
AcDbEntity
  8
0
  6
Continuous
 62
     7
370
    25
100
AcDbLine
 10
37.558639829
 20
50.1316883518
 30
0.0
 11
37.2858654041
 21
50.1316883518
 31
0.0
  0
LINE
  5
13D
330
1F
100
AcDbEntity
  8
0
  6
Continuous
 62
     7
370
    25
100
AcDbLine
 10
37.2858654041
 20
50.9816883518
 30
0.0
 11
37.2858654041
 21
50.7316883518
 31
0.0
  0
LINE
  5
13E
330
1F
100
AcDbEntity
  8
0
  6
Continuous
 62
     7
370
    25
100
AcDbLine
 10
37.2858654041
 20
50.9816883518
 30
0.0
 11
37.9368458905
 21
50.9816883518
 31
0.0
  0
LINE
  5
13F
330
1F
100
AcDbEntity
  8
0
  6
Continuous
 62
     7
370
    25
100
AcDbLine
 10
37.0358654041
 20
50.7316883518
 30
0.0
 11
37.2858654041
 21
50.7316883518
 31
0.0
  0
ARC
  5
140
330
1F
100
AcDbEntity
  8
0
  6
Continuous
 62
     7
370
    25
100
AcDbCircle
 10
37.2858654041
 20
50.7316883518
 30
0.0
 40
0.25
100
AcDbArc
 50
90.0
 51
180.0
  0
LINE
  5
141
330
1F
100
AcDbEntity
  8
0
  6
Continuous
 62
     7
370
    25
100
AcDbLine
 10
37.0358654041
 20
50.1316883518
 30
0.0
 11
37.0358654041
 21
50.7316883518
 31
0.0
  0
LINE
  5
142
330
1F
100
AcDbEntity
  8
0
  6
Continuous
 62
     7
370
    25
100
AcDbLine
 10
37.2858654041
 20
50.1316883518
 30
0.0
 11
37.0358654041
 21
50.1316883518
 31
0.0
  0
LINE
  5
143
330
1F
100
AcDbEntity
  8
0
  6
Continuous
 62
     7
370
    25
100
AcDbLine
 10
48.7858654041
 20
50.7316883518
 30
0.0
 11
48.7858654041
 21
50.9816883518
 31
0.0
  0
LINE
  5
144
330
1F
100
AcDbEntity
  8
0
  6
Continuous
 62
     7
370
    25
100
AcDbLine
 10
48.7858654041
 20
50.7316883518
 30
0.0
 11
48.5130909791
 21
50.7316883518
 31
0.0
  0
LINE
  5
145
330
1F
100
AcDbEntity
  8
0
  6
Continuous
 62
     7
370
    25
100
AcDbLine
 10
48.1348849177
 20
50.9816883518
 30
0.0
 11
48.7858654041
 21
50.9816883518
 31
0.0
  0
ARC
  5
146
330
1F
100
AcDbEntity
  8
0
  6
Continuous
 62
     7
370
    25
100
AcDbCircle
 10
48.7858654041
 20
50.7316883518
 30
0.0
 40
0.25
100
AcDbArc
 50
0.0
 51
90.0
  0
LINE
  5
147
330
1F
100
AcDbEntity
  8
0
  6
Continuous
 62
     7
370
    25
100
AcDbLine
 10
48.7858654041
 20
50.7316883518
 30
0.0
 11
49.0358654041
 21
50.7316883518
 31
0.0
  0
LINE
  5
148
330
1F
100
AcDbEntity
  8
0
  6
Continuous
 62
     7
370
    25
100
AcDbLine
 10
48.7858654041
 20
50.1316883518
 30
0.0
 11
48.7858654041
 21
50.7316883518
 31
0.0
  0
LINE
  5
149
330
1F
100
AcDbEntity
  8
0
  6
Continuous
 62
     7
370
    25
100
AcDbLine
 10
49.0358654041
 20
50.7316883518
 30
0.0
 11
49.0358654041
 21
50.1316883518
 31
0.0
  0
LINE
  5
14A
330
1F
100
AcDbEntity
  8
0
  6
Continuous
 62
     7
370
    25
100
AcDbLine
 10
49.0358654041
 20
50.1316883518
 30
0.0
 11
48.7858654041
 21
50.1316883518
 31
0.0
  0
LINE
  5
14B
330
1F
100
AcDbEntity
  8
0
  6
Continuous
 62
     7
370
    25
100
AcDbLine
 10
48.7858654041
 20
50.1316883518
 30
0.0
 11
48.5130909791
 21
50.1316883518
 31
0.0
  0
LINE
  5
14C
330
1F
100
AcDbEntity
  8
0
  6
Continuous
 62
     7
370
    25
100
AcDbLine
 10
38.0358654041
 20
50.9916883518
 30
0.0
 11
48.0358654041
 21
50.9916883518
 31
0.0
  0
LINE
  5
14D
330
1F
100
AcDbEntity
  8
0
  6
Continuous
 62
     7
370
    25
100
AcDbLine
 10
48.0358654041
 20
50.9816883518
 30
0.0
 11
48.0358654041
 21
50.9916883518
 31
0.0
  0
LINE
  5
14E
330
1F
100
AcDbEntity
  8
0
  6
Continuous
 62
     7
370
    25
100
AcDbLine
 10
38.0358654041
 20
50.9816883518
 30
0.0
 11
38.0358654041
 21
50.9916883518
 31
0.0
  0
LINE
  5
14F
330
1F
100
AcDbEntity
  8
0
  6
Continuous
 62
     7
370
    25
100
AcDbLine
 10
35.5858654041
 20
42.1316883518
 30
0.0
 11
47.5104122882
 21
42.1316883518
 31
0.0
  0
LINE
  5
150
330
1F
100
AcDbEntity
  8
0
  6
Continuous
 62
     7
370
    25
100
AcDbLine
 10
48.2596675784
 20
50.1316883518
 30
0.0
 11
37.7967800714
 21
50.1316883517
 31
0.0
  0
LINE
  5
151
330
1F
100
AcDbEntity
  8
0
  6
Continuous
 62
     7
370
    25
100
AcDbLine
 10
49.9878062424
 20
43.1264319297
 30
0.0
 11
48.2596675784
 21
50.1316883518
 31
0.0
  0
LINE
  5
152
330
1F
100
AcDbEntity
  8
0
  6
Continuous
 62
     7
370
    25
100
AcDbLine
 10
47.5104122882
 20
42.1316883518
 30
0.0
 11
46.7502015324
 21
43.1264319297
 31
0.0
  0
LINE
  5
153
330
1F
100
AcDbEntity
  8
0
  6
Continuous
 62
     7
370
    25
100
AcDbLine
 10
45.0358654041
 20
34.1316883518
 30
0.0
 11
45.0358654986
 21
34.1695052297
 31
0.0
  0
LINE
  5
154
330
1F
100
AcDbEntity
  8
0
  6
Continuous
 62
     7
370
    25
100
AcDbLine
 10
36.0358654041
 20
34.1316883518
 30
0.0
 11
45.0358654041
 21
34.1316883518
 31
0.0
  0
SPLINE
  5
155
330
1F
100
AcDbEntity
  8
0
  6
Continuous
 62
     7
370
    25
100
AcDbSpline
210
0.0
220
0.0
230
1.0
 70
     8
 71
     3
 72
    16
 73
    12
 74
     0
 42
0.00000001
 43
0.00000001
 40
0.0
 40
0.0
 40
0.0
 40
0.0
 40
0.0155634360124117
 40
0.0359329243097674
 40
0.0739120889290614
 40
0.1570057548437684
 40
0.2406581385754913
 40
0.4592958294318594
 40
0.6783839187935412
 40
0.8974954344294845
 40
1.0
 40
1.0
 40
1.0
 40
1.0
 10
45.19181065451448
 20
34.1316883517693
 30
0.0
 10
45.23420264378311
 20
34.13688172354847
 30
0.0
 10
45.33207744087263
 20
34.14887220141625
 30
0.0
 10
45.50555611188548
 20
34.26719812541321
 30
0.0
 10
45.75388979088815
 20
34.57844943286216
 30
0.0
 10
46.00835433293407
 20
35.10409693422721
 30
0.0
 10
46.35203374462517
 20
36.14264309849737
 30
0.0
 10
46.73325376389187
 20
37.5777171408435
 30
0.0
 10
47.08335541989154
 20
39.41596924228293
 30
0.0
 10
47.32714726897977
 20
40.93715209110237
 30
0.0
 10
47.4661194641368
 20
41.84298413189888
 30
0.0
 10
47.51041228816946
 20
42.13168835176684
 30
0.0
  0
SPLINE
  5
156
330
1F
100
AcDbEntity
  8
0
  6
Continuous
 62
     7
370
    25
100
AcDbSpline
210
0.0
220
0.0
230
1.0
 70
     8
 71
     3
 72
     9
 73
     5
 74
     0
 42
0.00000001
 43
0.00000001
 40
0.0
 40
0.0
 40
0.0
 40
0.0
 40
0.5124861829376838
 40
0.9999999999999999
 40
0.9999999999999999
 40
0.9999999999999999
 40
0.9999999999999999
 10
45.0358654986187
 20
34.16950522970943
 30
0.0
 10
45.06150800279053
 20
34.15847731675825
 30
0.0
 10
45.11154350623542
 20
34.13695885768885
 30
0.0
 10
45.1655041130939
 20
34.13341569334369
 30
0.0
 10
45.19181065451448
 20
34.13168835176931
 30
0.0
  0
LINE
  5
157
330
1F
100
AcDbEntity
  8
0
  6
Continuous
 62
     7
370
    25
100
AcDbLine
 10
46.7502015324
 20
43.1264319297
 30
0.0
 11
65.2113022656
 21
43.1264319298
 31
0.0
  0
LINE
  5
158
330
1F
100
AcDbEntity
  8
0
  6
Continuous
 62
     7
370
    25
100
AcDbLine
 10
65.2113022656
 20
43.1264319298
 30
0.0
 11
65.2113022656
 21
39.8838640447
 31
0.0
  0
SPLINE
  5
159
330
1F
100
AcDbEntity
  8
0
  6
Continuous
 62
     7
370
    25
100
AcDbSpline
210
0.0
220
0.0
230
1.0
 70
     8
 71
     3
 72
     9
 73
     5
 74
     0
 42
0.00000001
 43
0.00000001
 40
0.0
 40
0.0
 40
0.0
 40
0.0
 40
0.4977232396629078
 40
1.0
 40
1.0
 40
1.0
 40
1.0
 10
58.14090864338027
 20
38.56066354375925
 30
0.0
 10
59.29822987531426
 20
38.85025594438341
 30
0.0
 10
61.62346032410304
 20
39.43209013966889
 30
0.0
 10
64.01172994009302
 20
39.73281628880701
 30
0.0
 10
65.21130226562398
 20
39.88386404474475
 30
0.0
  0
LINE
  5
15A
330
1F
100
AcDbEntity
  8
0
  6
Continuous
 62
     7
370
    25
100
AcDbLine
 10
58.1409086434
 20
38.5606635438
 30
0.0
 11
52.3611517935
 21
36.9920421033
 31
0.0
  0
SPLINE
  5
15B
330
1F
100
AcDbEntity
  8
0
  6
Continuous
 62
     7
370
    25
100
AcDbSpline
210
0.0
220
0.0
230
1.0
 70
     8
 71
     3
 72
    13
 73
     9
 74
     0
 42
0.00000001
 43
0.00000001
 40
0.0
 40
0.0
 40
0.0
 40
0.0
 40
0.1610294006389558
 40
0.3266880383557516
 40
0.4877296220820637
 40
0.6535536198224136
 40
0.8237602734841889
 40
1.0
 40
1.0
 40
1.0
 40
1.0
 10
52.36115179352498
 20
36.99204210327637
 30
0.0
 10
52.14728173949388
 20
36.92264520869912
 30
0.0
 10
51.71339334310648
 20
36.78185641319057
 30
0.0
 10
51.12207259444082
 20
36.43573159548293
 30
0.0
 10
50.58814124559013
 20
35.99652495243089
 30
0.0
 10
50.13445727378704
 20
35.46292311549129
 30
0.0
 10
49.76000356080156
 20
34.8390968087916
 30
0.0
 10
49.61144049004278
 20
34.37021291058961
 30
0.0
 10
49.53586540408733
 20
34.13168835176921
 30
0.0
  0
LINE
  5
15C
330
1F
100
AcDbEntity
  8
0
  6
Continuous
 62
     7
370
    25
100
AcDbLine
 10
49.5358654041
 20
34.1316883518
 30
0.0
 11
45.1918106545
 21
34.1316883518
 31
0.0
  0
LINE
  5
15D
330
1F
100
AcDbEntity
  8
0
  6
Continuous
 62
     7
370
    25
100
AcDbLine
 10
45.042664762
 20
34.1316883518
 30
0.0
 11
45.0358654986
 21
34.1695052297
 31
0.0
  0
LINE
  5
15E
330
1F
100
AcDbEntity
  8
0
  6
Continuous
 62
     7
370
    25
100
AcDbLine
 10
45.0358654041
 20
34.1316883518
 30
0.0
 11
45.042664762
 21
34.1316883518
 31
0.0
  0
LINE
  5
15F
330
1F
100
AcDbEntity
  8
0
  6
Continuous
 62
     7
370
    25
100
AcDbLine
 10
45.1918106545
 20
34.1316883518
 30
0.0
 11
45.042664762
 21
34.1316883518
 31
0.0
  0
LINE
  5
160
330
1F
100
AcDbEntity
  8
0
  6
Continuous
 62
     7
370
    25
100
AcDbLine
 10
65.2113022656
 20
43.1264319298
 30
0.0
 11
65.2113022656
 21
52.1316883518
 31
0.0
  0
LINE
  5
161
330
1F
100
AcDbEntity
  8
0
  6
Continuous
 62
     7
370
    25
100
AcDbLine
 10
65.2113022656
 20
52.1316883518
 30
0.0
 11
83.0358654041
 21
52.1316883518
 31
0.0
  0
LINE
  5
162
330
1F
100
AcDbEntity
  8
0
  6
Continuous
 62
     7
370
    25
100
AcDbLine
 10
83.0358654041
 20
52.1316883518
 30
0.0
 11
83.0358654041
 21
45.1316883518
 31
0.0
  0
ARC
  5
163
330
1F
100
AcDbEntity
  8
0
  6
Continuous
 62
     7
370
    25
100
AcDbCircle
 10
78.0358654041
 20
45.1316883518
 30
0.0
 40
5.000000000000007
100
AcDbArc
 50
270.0
 51
0.0
  0
LINE
  5
164
330
1F
100
AcDbEntity
  8
0
  6
Continuous
 62
     7
370
    25
100
AcDbLine
 10
78.0358654041
 20
40.1316883518
 30
0.0
 11
69.9275332618
 21
40.1316883518
 31
0.0
  0
ARC
  5
165
330
1F
100
AcDbEntity
  8
0
  6
Continuous
 62
     7
370
    25
100
AcDbCircle
 10
69.9275332618
 20
-4.8684409024
 30
0.0
 40
45.00012925418373
100
AcDbArc
 50
90.0
 51
96.0159222295
  0
ARC
  5
166
330
1F
100
AcDbEntity
  8
0
  6
Continuous
 62
     7
370
    25
100
AcDbCircle
 10
57.4248189684
 20
54.1316883518
 30
0.0
 40
10.00000000000847
100
AcDbArc
 50
203.5781784783
 51
264.4198332155
  0
ARC
  5
167
330
1F
100
AcDbEntity
  8
0
  6
Continuous
 62
     7
370
    25
100
AcDbCircle
 10
57.0358654041
 20
50.1506438751
 30
0.0
 40
6.0
100
AcDbArc
 50
264.4198332155
 51
0.0
  0
LINE
  5
168
330
1F
100
AcDbEntity
  8
0
  6
Continuous
 62
     7
370
    25
100
AcDbLine
 10
63.0358654041
 20
52.1316883518
 30
0.0
 11
63.0358654041
 21
50.1506438751
 31
0.0
  0
LINE
  5
169
330
1F
100
AcDbEntity
  8
0
  6
Continuous
 62
     7
370
    25
100
AcDbLine
 10
63.0358654041
 20
52.1316883518
 30
0.0
 11
65.2113022656
 21
52.1316883518
 31
0.0
  0
LINE
  5
16A
330
1F
100
AcDbEntity
  8
0
  6
Continuous
 62
     7
370
    25
100
AcDbLine
 10
50.0358654041
 20
34.1316883518
 30
0.0
 11
49.5358654041
 21
34.1316883518
 31
0.0
  0
LINE
  5
16B
330
1F
100
AcDbEntity
  8
0
  6
Continuous
 62
     7
370
    25
100
AcDbLine
 10
48.2596675784
 20
50.1316883518
 30
0.0
 11
48.2749507367
 21
50.1316883517
 31
0.0
  0
LINE
  5
16C
330
1F
100
AcDbEntity
  8
0
  6
Continuous
 62
     7
370
    25
100
AcDbLine
 10
43.0358654041
 20
30.8316883518
 30
0.0
 11
41.9625465601
 21
30.8316883518
 31
0.0
  0
LINE
  5
16D
330
1F
100
AcDbEntity
  8
0
  6
Continuous
 62
     7
370
    25
100
AcDbLine
 10
52.1358654041
 20
26.892557917
 30
0.0
 11
52.1358654041
 21
32.6316883518
 31
0.0
  0
LINE
  5
16E
330
1F
100
AcDbEntity
  8
0
  6
Continuous
 62
     7
370
    25
100
AcDbLine
 10
33.9358654041
 20
16.3708187866
 30
0.0
 11
33.9358654041
 21
10.6316883518
 31
0.0
  0
LINE
  5
16F
330
1F
100
AcDbEntity
  8
0
  6
Continuous
 62
     7
370
    25
100
AcDbLine
 10
33.9358654041
 20
32.6316883518
 30
0.0
 11
33.9358654041
 21
26.892557917
 31
0.0
  0
LINE
  5
170
330
1F
100
AcDbEntity
  8
0
  6
Continuous
 62
     7
370
    25
100
AcDbLine
 10
52.1358654041
 20
10.6316883518
 30
0.0
 11
52.1358654041
 21
16.3708187866
 31
0.0
  0
SPLINE
  5
171
330
1F
100
AcDbEntity
  8
0
  6
Continuous
 62
     7
370
    25
100
AcDbSpline
210
0.0
220
0.0
230
1.0
 70
     8
 71
     3
 72
    27
 73
    23
 74
     0
 42
0.00000001
 43
0.00000001
 40
0.0
 40
0.0
 40
0.0
 40
0.0
 40
0.0264984522890916
 40
0.0747012651415947
 40
0.1245399323205115
 40
0.1731808562778906
 40
0.2230779365888498
 40
0.2764560049492492
 40
0.3311887997866342
 40
0.3884360982769425
 40
0.4476811693538765
 40
0.4982752201669993
 40
0.5506193905004544
 40
0.5951005198900008
 40
0.6406025298496169
 40
0.6886422537815394
 40
0.7376929968920992
 40
0.7923317423732957
 40
0.8485223280585984
 40
0.9028011292225842
 40
0.9591920219573513
 40
1.0
 40
1.0
 40
1.0
 40
1.0
 10
49.4114250962725
 20
32.61869533487244
 30
0.0
 10
49.41631946854391
 20
32.62129295718185
 30
0.0
 10
49.43011709705289
 20
32.62861586309182
 30
0.0
 10
49.26423994905009
 20
32.54057983001791
 30
0.0
 10
48.94994994045382
 20
32.37843067141738
 30
0.0
 10
48.48468937920666
 20
32.14957157302706
 30
0.0
 10
47.88766269816306
 20
31.87647999506724
 30
0.0
 10
47.14953270381778
 20
31.57342992199008
 30
0.0
 10
46.2669856359667
 20
31.2666447332556
 30
0.0
 10
45.25168293676632
 20
30.99533214799168
 30
0.0
 10
44.17961693210646
 20
30.81671487208006
 30
0.0
 10
43.09895462315342
 20
30.75307903471985
 30
0.0
 10
42.1137079535753
 20
30.79816446270404
 30
0.0
 10
41.19170167074546
 20
30.92796770533895
 30
0.0
 10
40.34172423460375
 20
31.11680507096928
 30
0.0
 10
39.52599159537836
 20
31.35926021549033
 30
0.0
 10
38.73955668539823
 20
31.64496215350833
 30
0.0
 10
38.01597139107011
 20
31.94998524130117
 30
0.0
 10
37.40216435416129
 20
32.23827970939591
 30
0.0
 10
36.9460578653018
 20
32.46800682474885
 30
0.0
 10
36.68489042772743
 20
32.60554308602467
 30
0.0
 10
36.65466336276634
 20
32.62167600165351
 30
0.0
 10
36.64197283052702
 20
32.62844924563753
 30
0.0
  0
SPLINE
  5
172
330
1F
100
AcDbEntity
  8
0
  6
Continuous
 62
     7
370
    25
100
AcDbSpline
210
0.0
220
0.0
230
1.0
 70
     8
 71
     3
 72
    28
 73
    24
 74
     0
 42
0.00000001
 43
0.00000001
 40
0.0
 40
0.0
 40
0.0
 40
0.0
 40
0.0453301004832528
 40
0.0987597426596884
 40
0.1522324072271034
 40
0.1570560107621019
 40
0.2125534894313258
 40
0.2680774038467865
 40
0.3161000547799816
 40
0.3641038416274572
 40
0.4079955776756339
 40
0.4518560896259943
 40
0.5016879392477112
 40
0.5515224088631477
 40
0.6084375027969149
 40
0.665435465960547
 40
0.7191742293805834
 40
0.7729211449142294
 40
0.8224505515904624
 40
0.8719537191222889
 40
0.9214943412356092
 40
0.9710065044507082
 40
1.0
 40
1.0
 40
1.0
 40
1.0
 10
37.13586540408734
 20
33.13168835176922
 30
0.0
 10
37.14815171757562
 20
33.12426631479723
 30
0.0
 10
37.17491965202543
 20
33.10809607794466
 30
0.0
 10
37.40779241815545
 20
32.96863741802944
 30
0.0
 10
37.67770433530971
 20
32.81422752925873
 30
0.0
 10
38.00903090037455
 20
32.63161055457839
 30
0.0
 10
38.40316805164684
 20
32.42142976756669
 30
0.0
 10
39.06554799692283
 20
32.10436553042607
 30
0.0
 10
39.79434175021429
 20
31.80377869945433
 30
0.0
 10
40.54206973244183
 20
31.5506862540373
 30
0.0
 10
41.32977833696416
 20
31.35252204985103
 30
0.0
 10
42.17467501702102
 20
31.21537025543399
 30
0.0
 10
43.08860014891513
 20
31.1697839666314
 30
0.0
 10
44.08331695373037
 20
31.23229758819367
 30
0.0
 10
45.07766172386862
 20
31.42212939974642
 30
0.0
 10
46.01211482638866
 20
31.70336280348019
 30
0.0
 10
46.82818455803899
 20
32.02534736333901
 30
0.0
 10
47.50642845949874
 20
32.34114048462867
 30
0.0
 10
48.05769068333171
 20
32.62678325802277
 30
0.0
 10
48.48541663253217
 20
32.86561811177069
 30
0.0
 10
48.77588568815739
 20
33.03510297711626
 30
0.0
 10
48.93234306592702
 20
33.12958237608045
 30
0.0
 10
48.91843783619421
 20
33.12118625007002
 30
0.0
 10
48.913302394715
 20
33.11808541573595
 30
0.0
  0
LINE
  5
173
330
1F
100
AcDbEntity
  8
0
  6
Continuous
 62
     7
370
    18
100
AcDbLine
 10
29.7858654041
 20
31.2848011245
 30
0.0
 11
17.167091435
 21
30.890464438
 31
0.0
  0
LINE
  5
174
330
1F
100
AcDbEntity
  8
0
  6
Continuous
 62
     7
370
    18
100
AcDbLine
 10
17.167091435
 20
12.3729122656
 30
0.0
 11
29.7858654041
 21
11.978575579
 31
0.0
  0
LINE
  5
175
330
1F
100
AcDbEntity
  8
0
  6
Continuous
 62
     7
370
    18
100
AcDbLine
 10
66.2858654041
 20
11.9098133518
 30
0.0
 11
78.7787243514
 21
12.3002151939
 31
0.0
  0
LINE
  5
176
330
1F
100
AcDbEntity
  8
0
  6
Continuous
 62
     7
370
    18
100
AcDbLine
 10
78.7787243514
 20
30.9631615097
 30
0.0
 11
66.2858654041
 21
31.3535633518
 31
0.0
  0
LINE
  5
177
330
1F
100
AcDbEntity
  8
0
  6
Continuous
 62
     7
370
    18
100
AcDbLine
 10
66.2858654041
 20
11.9098133518
 30
0.0
 11
78.7787243514
 21
12.3002151939
 31
0.0
  0
LINE
  5
178
330
1F
100
AcDbEntity
  8
0
  6
Continuous
 62
     7
370
    18
100
AcDbLine
 10
78.7787243514
 20
30.9631615097
 30
0.0
 11
66.2858654041
 21
31.3535633518
 31
0.0
  0
LINE
  5
179
330
1F
100
AcDbEntity
  8
0
  6
CENTERX2
 62
     7
370
    18
100
AcDbLine
 10
12.7735095031
 20
21.6316883518
 30
0.0
 11
83.3876335733
 21
21.6316883518
 31
0.0
  0
LINE
  5
17A
330
1F
100
AcDbEntity
  8
0
  6
CENTERX2
 62
     7
370
    18
100
AcDbLine
 10
43.0358654041
 20
6.9446983398
 30
0.0
 11
43.0358654041
 21
53.4352369531
 31
0.0
  0
LINE
  5
17B
330
1F
100
AcDbEntity
  8
0
  6
Continuous
 62
     7
370
    25
100
AcDbLine
 10
65.7858654041
 20
72.1645914131
 30
0.0
 11
77.0894741311
 21
72.5178291858
 31
0.0
  0
LINE
  5
17C
330
1F
100
AcDbEntity
  8
0
  6
Continuous
 62
     7
370
    25
100
AcDbLine
 10
77.0894741311
 20
93.1313536404
 30
0.0
 11
65.7858654041
 21
93.4845914131
 31
0.0
  0
LINE
  5
17D
330
1F
100
AcDbEntity
  8
0
  6
Continuous
 62
     7
370
    25
100
AcDbLine
 10
77.0894741311
 20
72.5178291858
 30
0.0
 11
79.7858654041
 21
74.0745914131
 31
0.0
  0
LINE
  5
17E
330
1F
100
AcDbEntity
  8
0
  6
Continuous
 62
     7
370
    25
100
AcDbLine
 10
79.7858654041
 20
91.5745914131
 30
0.0
 11
77.0894741311
 21
93.1313536404
 31
0.0
  0
LINE
  5
17F
330
1F
100
AcDbEntity
  8
0
  6
Continuous
 62
     7
370
    25
100
AcDbLine
 10
55.5358654041
 20
94.8245914131
 30
0.0
 11
52.7787586229
 21
94.8245914131
 31
0.0
  0
LINE
  5
180
330
1F
100
AcDbEntity
  8
0
  6
Continuous
 62
     7
370
    25
100
AcDbLine
 10
52.7787586229
 20
70.8245914131
 30
0.0
 11
55.5358654041
 21
70.8245914131
 31
0.0
  0
LINE
  5
181
330
1F
100
AcDbEntity
  8
0
  6
Continuous
 62
     7
370
    25
100
AcDbLine
 10
30.5358654041
 20
70.8245914131
 30
0.0
 11
33.2929721853
 21
70.8245914131
 31
0.0
  0
LINE
  5
182
330
1F
100
AcDbEntity
  8
0
  6
Continuous
 62
     7
370
    25
100
AcDbLine
 10
33.2929721853
 20
94.8245914131
 30
0.0
 11
30.5358654041
 21
94.8245914131
 31
0.0
  0
LINE
  5
183
330
1F
100
AcDbEntity
  8
0
  6
Continuous
 62
     7
370
    25
100
AcDbLine
 10
55.5358654041
 20
70.8245914131
 30
0.0
 11
55.7858654041
 21
71.0745914131
 31
0.0
  0
LINE
  5
184
330
1F
100
AcDbEntity
  8
0
  6
Continuous
 62
     7
370
    25
100
AcDbLine
 10
55.7858654041
 20
94.5745914131
 30
0.0
 11
55.5358654041
 21
94.8245914131
 31
0.0
  0
LINE
  5
185
330
1F
100
AcDbEntity
  8
0
  6
Continuous
 62
     7
370
    25
100
AcDbLine
 10
30.5358654041
 20
94.8245914131
 30
0.0
 11
30.2858654041
 21
94.5745914131
 31
0.0
  0
LINE
  5
186
330
1F
100
AcDbEntity
  8
0
  6
Continuous
 62
     7
370
    25
100
AcDbLine
 10
30.2858654041
 20
71.0745914131
 30
0.0
 11
30.5358654041
 21
70.8245914131
 31
0.0
  0
LINE
  5
187
330
1F
100
AcDbEntity
  8
0
  6
Continuous
 62
     7
370
    25
100
AcDbLine
 10
30.2858654041
 20
93.4845914131
 30
0.0
 11
18.982256677
 21
93.1313536404
 31
0.0
  0
LINE
  5
188
330
1F
100
AcDbEntity
  8
0
  6
Continuous
 62
     7
370
    25
100
AcDbLine
 10
18.982256677
 20
72.5178291858
 30
0.0
 11
30.2858654041
 21
72.1645914131
 31
0.0
  0
LINE
  5
189
330
1F
100
AcDbEntity
  8
0
  6
Continuous
 62
     7
370
    25
100
AcDbLine
 10
18.982256677
 20
93.1313536404
 30
0.0
 11
16.2858654041
 21
91.5745914131
 31
0.0
  0
LINE
  5
18A
330
1F
100
AcDbEntity
  8
0
  6
Continuous
 62
     7
370
    25
100
AcDbLine
 10
16.2858654041
 20
74.0745914131
 30
0.0
 11
18.982256677
 21
72.5178291858
 31
0.0
  0
LINE
  5
18B
330
1F
100
AcDbEntity
  8
0
  6
Continuous
 62
     7
370
    25
100
AcDbLine
 10
52.7787586229
 20
94.8245914131
 30
0.0
 11
52.5358993986
 21
94.5817321888
 31
0.0
  0
LINE
  5
18C
330
1F
100
AcDbEntity
  8
0
  6
Continuous
 62
     7
370
    25
100
AcDbLine
 10
33.2929721853
 20
70.8245914131
 30
0.0
 11
33.5358314095
 21
71.0674506373
 31
0.0
  0
LINE
  5
18D
330
1F
100
AcDbEntity
  8
0
  6
Continuous
 62
     7
370
    25
100
AcDbLine
 10
33.5358314095
 20
94.5817321888
 30
0.0
 11
33.2929721853
 21
94.8245914131
 31
0.0
  0
LINE
  5
18E
330
1F
100
AcDbEntity
  8
0
  6
Continuous
 62
     7
370
    25
100
AcDbLine
 10
52.5358993986
 20
71.0674506373
 30
0.0
 11
52.7787586229
 21
70.8245914131
 31
0.0
  0
ARC
  5
18F
330
1F
100
AcDbEntity
  8
0
  6
Continuous
 62
     7
370
    25
100
AcDbCircle
 10
53.2858654041
 20
94.5745914131
 30
0.0
 40
0.75
100
AcDbArc
 50
179.4544766745
 51
180.0
  0
ARC
  5
190
330
1F
100
AcDbEntity
  8
0
  6
Continuous
 62
     7
370
    25
100
AcDbCircle
 10
32.7858654041
 20
71.0745914131
 30
0.0
 40
0.75
100
AcDbArc
 50
359.4544766745
 51
0.0
  0
ARC
  5
191
330
1F
100
AcDbEntity
  8
0
  6
Continuous
 62
     7
370
    25
100
AcDbCircle
 10
53.2858654041
 20
71.0745914131
 30
0.0
 40
0.75
100
AcDbArc
 50
180.0
 51
180.5455233255
  0
SPLINE
  5
192
330
1F
100
AcDbEntity
  8
0
  6
Continuous
 62
     7
370
    25
100
AcDbSpline
210
0.0
220
0.0
230
1.0
 70
     8
 71
     3
 72
    10
 73
     6
 74
     0
 42
0.00000001
 43
0.00000001
 40
0.0
 40
0.0
 40
0.0
 40
0.0
 40
0.1950530871355463
 40
0.8363967621592354
 40
1.0
 40
1.0
 40
1.0
 40
1.0
 10
65.78586540408732
 20
88.32459141308544
 30
0.0
 10
65.78452847703007
 20
88.19422533150309
 30
0.0
 10
65.77879567126747
 20
87.63520947519365
 30
0.0
 10
65.7424709611596
 20
86.96568725738081
 30
0.0
 10
65.654976625797
 20
86.43288250758026
 30
0.0
 10
65.6371936436782
 20
86.32459141308544
 30
0.0
  0
SPLINE
  5
193
330
1F
100
AcDbEntity
  8
0
  6
Continuous
 62
     7
370
    25
100
AcDbSpline
210
0.0
220
0.0
230
1.0
 70
     8
 71
     3
 72
     9
 73
     5
 74
     0
 42
0.00000001
 43
0.00000001
 40
0.0
 40
0.0
 40
0.0
 40
0.0
 40
0.2989187881855953
 40
0.9999999999999999
 40
0.9999999999999999
 40
0.9999999999999999
 40
0.9999999999999999
 10
55.78586540408733
 20
88.32459141308544
 30
0.0
 10
55.78651608986183
 20
88.19417137355818
 30
0.0
 10
55.78869288770868
 20
87.75786544471737
 30
0.0
 10
55.82891306525994
 20
87.32278053057186
 30
0.0
 10
55.85711067607696
 20
87.01775067172058
 30
0.0
  0
SPLINE
  5
194
330
1F
100
AcDbEntity
  8
0
  6
Continuous
 62
     7
370
    25
100
AcDbSpline
210
0.0
220
0.0
230
1.0
 70
     8
 71
     3
 72
    11
 73
     7
 74
     0
 42
0.00000001
 43
0.00000001
 40
0.0
 40
0.0
 40
0.0
 40
0.0
 40
0.2477111816679848
 40
0.4953654927331208
 40
0.7477052806358114
 40
1.0
 40
1.0
 40
1.0
 40
1.0
 10
56.76834577633478
 20
93.82459141308549
 30
0.0
 10
56.62770212299618
 20
93.37983213157419
 30
0.0
 10
56.34644710589629
 20
92.49041567830821
 30
0.0
 10
56.03712603199336
 20
91.12393641272858
 30
0.0
 10
55.82687238874844
 20
89.73366605201653
 30
0.0
 10
55.79953358510485
 20
88.79425499335777
 30
0.0
 10
55.78586540408733
 20
88.32459141308544
 30
0.0
  0
LINE
  5
195
330
1F
100
AcDbEntity
  8
0
  6
Continuous
 62
     7
370
    25
100
AcDbLine
 10
64.8033850318
 20
93.8245914131
 30
0.0
 11
56.7683457763
 21
93.8245914131
 31
0.0
  0
SPLINE
  5
196
330
1F
100
AcDbEntity
  8
0
  6
Continuous
 62
     7
370
    25
100
AcDbSpline
210
0.0
220
0.0
230
1.0
 70
     8
 71
     3
 72
    11
 73
     7
 74
     0
 42
0.00000001
 43
0.00000001
 40
0.0
 40
0.0
 40
0.0
 40
0.0
 40
0.2477111816679848
 40
0.4953654927331208
 40
0.7477052806358114
 40
1.0
 40
1.0
 40
1.0
 40
1.0
 10
64.80338503183988
 20
93.82459141308549
 30
0.0
 10
64.94402868517848
 20
93.37983213157419
 30
0.0
 10
65.22528370227838
 20
92.49041567830821
 30
0.0
 10
65.5346047761813
 20
91.12393641272858
 30
0.0
 10
65.74485841942622
 20
89.73366605201653
 30
0.0
 10
65.77219722306981
 20
88.79425499335777
 30
0.0
 10
65.78586540408732
 20
88.32459141308544
 30
0.0
  0
LINE
  5
197
330
1F
100
AcDbEntity
  8
0
  6
Continuous
 62
     7
370
    25
100
AcDbLine
 10
65.7858654041
 20
88.3245914131
 30
0.0
 11
65.7858654041
 21
86.3245914131
 31
0.0
  0
LINE
  5
198
330
1F
100
AcDbEntity
  8
0
  6
Continuous
 62
     7
370
    25
100
AcDbLine
 10
65.7858654041
 20
79.3245914131
 30
0.0
 11
65.7858654041
 21
77.3245914131
 31
0.0
  0
SPLINE
  5
199
330
1F
100
AcDbEntity
  8
0
  6
Continuous
 62
     7
370
    25
100
AcDbSpline
210
0.0
220
0.0
230
1.0
 70
     8
 71
     3
 72
     9
 73
     5
 74
     0
 42
0.00000001
 43
0.00000001
 40
0.0
 40
0.0
 40
0.0
 40
0.0
 40
0.2977604667438253
 40
1.0
 40
1.0
 40
1.0
 40
1.0
 10
65.6315524438466
 20
79.32459141308543
 30
0.0
 10
65.66260057325384
 20
79.12721853887841
 30
0.0
 10
65.76687274123756
 20
78.46436065057178
 30
0.0
 10
65.7780301973292
 20
77.79479023159196
 30
0.0
 10
65.78586540408732
 20
77.32459141308543
 30
0.0
  0
LINE
  5
19A
330
1F
100
AcDbEntity
  8
0
  6
Continuous
 62
     7
370
    25
100
AcDbLine
 10
55.850184465
 20
78.6283914294
 30
0.0
 11
55.7858654041
 21
77.3245914131
 31
0.0
  0
SPLINE
  5
19B
330
1F
100
AcDbEntity
  8
0
  6
Continuous
 62
     7
370
    25
100
AcDbSpline
210
0.0
220
0.0
230
1.0
 70
     8
 71
     3
 72
    12
 73
     8
 74
     0
 42
0.00000001
 43
0.00000001
 40
0.0
 40
0.0
 40
0.0
 40
0.0
 40
0.070062091225424
 40
0.3004295246571893
 40
0.5308328928489247
 40
0.7653937685833793
 40
1.0
 40
1.0
 40
1.0
 40
1.0
 10
65.78586540408732
 20
77.32459141308543
 30
0.0
 10
65.7847591674611
 20
77.19419916846462
 30
0.0
 10
65.78001557305846
 20
76.63507112382243
 30
0.0
 10
65.70559670112382
 20
75.6479758817937
 30
0.0
 10
65.50267302234533
 20
74.36510399071797
 30
0.0
 10
65.20364993568523
 20
73.08796260661366
 30
0.0
 10
64.9368152650036
 20
72.24574228418435
 30
0.0
 10
64.80338503183988
 20
71.82459141308543
 30
0.0
  0
LINE
  5
19C
330
1F
100
AcDbEntity
  8
0
  6
Continuous
 62
     7
370
    25
100
AcDbLine
 10
64.8033850318
 20
71.8245914131
 30
0.0
 11
56.7683457763
 21
71.8245914131
 31
0.0
  0
SPLINE
  5
19D
330
1F
100
AcDbEntity
  8
0
  6
Continuous
 62
     7
370
    25
100
AcDbSpline
210
0.0
220
0.0
230
1.0
 70
     8
 71
     3
 72
    12
 73
     8
 74
     0
 42
0.00000001
 43
0.00000001
 40
0.0
 40
0.0
 40
0.0
 40
0.0
 40
0.070062091225424
 40
0.3004295246571893
 40
0.5308328928489248
 40
0.7653937685833794
 40
1.0
 40
1.0
 40
1.0
 40
1.0
 10
55.78586540408733
 20
77.32459141308543
 30
0.0
 10
55.78697164071356
 20
77.1941991684646
 30
0.0
 10
55.7917152351162
 20
76.63507112382243
 30
0.0
 10
55.86613410705084
 20
75.6479758817937
 30
0.0
 10
56.06905778582932
 20
74.36510399071797
 30
0.0
 10
56.36808087248943
 20
73.08796260661364
 30
0.0
 10
56.63491554317106
 20
72.24574228418435
 30
0.0
 10
56.76834577633478
 20
71.82459141308543
 30
0.0
  0
LINE
  5
19E
330
1F
100
AcDbEntity
  8
0
  6
Continuous
 62
     7
370
    25
100
AcDbLine
 10
77.0894741311
 20
93.1313536404
 30
0.0
 11
77.0894741311
 21
86.3245914131
 31
0.0
  0
LINE
  5
19F
330
1F
100
AcDbEntity
  8
0
  6
Continuous
 62
     7
370
    25
100
AcDbLine
 10
77.0894741311
 20
79.3245914131
 30
0.0
 11
77.0894741311
 21
72.5178291858
 31
0.0
  0
LINE
  5
1A0
330
1F
100
AcDbEntity
  8
0
  6
Continuous
 62
     7
370
    25
100
AcDbLine
 10
79.7858654041
 20
91.5745914131
 30
0.0
 11
79.7858654041
 21
86.3245914131
 31
0.0
  0
LINE
  5
1A1
330
1F
100
AcDbEntity
  8
0
  6
Continuous
 62
     7
370
    25
100
AcDbLine
 10
79.7858654041
 20
79.3245914131
 30
0.0
 11
79.7858654041
 21
74.0745914131
 31
0.0
  0
SPLINE
  5
1A2
330
1F
100
AcDbEntity
  8
0
  6
Continuous
 62
     7
370
    25
100
AcDbSpline
210
0.0
220
0.0
230
1.0
 70
    24
 71
     3
 72
    10
 73
     6
 74
     0
 42
0.00000001
 43
0.00000001
 40
0.0
 40
0.0
 40
0.0
 40
0.0
 40
0.3875159004325608
 40
0.7807763460611348
 40
1.0
 40
1.0
 40
1.0
 40
1.0
 10
65.78586540408732
 20
93.8245914130855
 30
0.0
 10
65.75325899329127
 20
93.8245914130855
 30
0.0
 10
65.68756281346714
 20
93.8245914130855
 30
0.0
 10
65.27501350842704
 20
93.82459141308549
 30
0.0
 10
64.92769807028779
 20
93.82459141308549
 30
0.0
 10
64.80338503183988
 20
93.82459141308549
 30
0.0
  0
LINE
  5
1A3
330
1F
100
AcDbEntity
  8
0
  6
Continuous
 62
     7
370
    25
100
AcDbLine
 10
65.7858654041
 20
93.8245914131
 30
0.0
 11
65.7858654041
 21
88.3245914131
 31
0.0
  0
SPLINE
  5
1A4
330
1F
100
AcDbEntity
  8
0
  6
Continuous
 62
     7
370
    25
100
AcDbSpline
210
0.0
220
0.0
230
1.0
 70
    24
 71
     3
 72
    10
 73
     6
 74
     0
 42
0.00000001
 43
0.00000001
 40
0.0
 40
0.0
 40
0.0
 40
0.0
 40
0.387515900432561
 40
0.7807763460611348
 40
1.0
 40
1.0
 40
1.0
 40
1.0
 10
55.78586540408733
 20
93.8245914130855
 30
0.0
 10
55.8184718148834
 20
93.8245914130855
 30
0.0
 10
55.88416799470752
 20
93.8245914130855
 30
0.0
 10
56.29671729974762
 20
93.82459141308549
 30
0.0
 10
56.64403273788687
 20
93.82459141308549
 30
0.0
 10
56.76834577633478
 20
93.82459141308549
 30
0.0
  0
SPLINE
  5
1A5
330
1F
100
AcDbEntity
  8
0
  6
Continuous
 62
     7
370
    25
100
AcDbSpline
210
0.0
220
0.0
230
1.0
 70
    24
 71
     3
 72
    10
 73
     6
 74
     0
 42
0.00000001
 43
0.00000001
 40
0.0
 40
0.0
 40
0.0
 40
0.0
 40
0.2192241705361767
 40
0.6070735784377262
 40
1.0
 40
1.0
 40
1.0
 40
1.0
 10
64.80338503183988
 20
71.82459141308543
 30
0.0
 10
64.92769773503312
 20
71.82459141308544
 30
0.0
 10
65.27194334165678
 20
71.82459141308544
 30
0.0
 10
65.68586811671872
 20
71.82459141308547
 30
0.0
 10
65.7523887908685
 20
71.82459141308549
 30
0.0
 10
65.78586540408732
 20
71.8245914130855
 30
0.0
  0
LINE
  5
1A6
330
1F
100
AcDbEntity
  8
0
  6
Continuous
 62
     7
370
    25
100
AcDbLine
 10
65.7858654041
 20
77.3245914131
 30
0.0
 11
65.7858654041
 21
71.8245914131
 31
0.0
  0
SPLINE
  5
1A7
330
1F
100
AcDbEntity
  8
0
  6
Continuous
 62
     7
370
    25
100
AcDbSpline
210
0.0
220
0.0
230
1.0
 70
    24
 71
     3
 72
    10
 73
     6
 74
     0
 42
0.00000001
 43
0.00000001
 40
0.0
 40
0.0
 40
0.0
 40
0.0
 40
0.2192241705361767
 40
0.6070735784377262
 40
1.0
 40
1.0
 40
1.0
 40
1.0
 10
56.76834577633478
 20
71.82459141308543
 30
0.0
 10
56.64403307314153
 20
71.82459141308544
 30
0.0
 10
56.29978746651788
 20
71.82459141308544
 30
0.0
 10
55.88586269145591
 20
71.82459141308547
 30
0.0
 10
55.81934201730616
 20
71.82459141308549
 30
0.0
 10
55.78586540408733
 20
71.8245914130855
 30
0.0
  0
LINE
  5
1A8
330
1F
100
AcDbEntity
  8
0
  6
Continuous
 62
     7
370
    25
100
AcDbLine
 10
55.5358654041
 20
70.8245914131
 30
0.0
 11
55.5358654041
 21
78.6004494123
 31
0.0
  0
LINE
  5
1A9
330
1F
100
AcDbEntity
  8
0
  6
Continuous
 62
     7
370
    25
100
AcDbLine
 10
55.5358654041
 20
87.0487334138
 30
0.0
 11
55.5358654041
 21
94.8245914131
 31
0.0
  0
LINE
  5
1AA
330
1F
100
AcDbEntity
  8
0
  6
Continuous
 62
     7
370
    25
100
AcDbLine
 10
52.7787586229
 20
71.1928771869
 30
0.0
 11
52.7787586229
 21
70.8245914131
 31
0.0
  0
SPLINE
  5
1AB
330
1F
100
AcDbEntity
  8
0
  6
Continuous
 62
     7
370
    25
100
AcDbSpline
210
0.0
220
0.0
230
1.0
 70
     8
 71
     3
 72
    18
 73
    14
 74
     0
 42
0.00000001
 43
0.00000001
 40
0.0
 40
0.0
 40
0.0
 40
0.0
 40
0.0297375917713251
 40
0.0622585994666694
 40
0.1245690829005809
 40
0.1747355398269535
 40
0.2498061834274977
 40
0.3751803602811958
 40
0.437745418625877
 40
0.5002333231923135
 40
0.74993137206443
 40
0.8691943481444401
 40
1.0
 40
1.0
 40
1.0
 40
1.0
 10
52.5128436855033
 20
71.80110571619339
 30
0.0
 10
52.52472316258031
 20
71.79514999425591
 30
0.0
 10
52.54959402673428
 20
71.78268109934696
 30
0.0
 10
52.58942034483809
 20
71.75535969732803
 30
0.0
 10
52.62575267599968
 20
71.7221779844454
 30
0.0
 10
52.66152483572397
 20
71.67872261735208
 30
0.0
 10
52.6975958100949
 20
71.62088709585089
 30
0.0
 10
52.72248849000582
 20
71.56178313315087
 30
0.0
 10
52.73972411591764
 20
71.50756266479135
 30
0.0
 10
52.76011777470763
 20
71.42851303006952
 30
0.0
 10
52.77193519187193
 20
71.34397088848945
 30
0.0
 10
52.77802764950111
 20
71.25477339205594
 30
0.0
 10
52.77850758087169
 20
71.214134525355
 30
0.0
 10
52.7787586229008
 20
71.19287718694606
 30
0.0
  0
SPLINE
  5
1AC
330
1F
100
AcDbEntity
  8
0
  6
Continuous
 62
     7
370
    25
100
AcDbSpline
210
0.0
220
0.0
230
1.0
 70
     8
 71
     3
 72
    13
 73
     9
 74
     0
 42
0.00000001
 43
0.00000001
 40
0.0
 40
0.0
 40
0.0
 40
0.0
 40
0.2491824652871812
 40
0.498773852101127
 40
0.6338602399483602
 40
0.7494868859161712
 40
0.8759187542426342
 40
1.0
 40
1.0
 40
1.0
 40
1.0
 10
52.60715862843423
 20
71.93325317059308
 30
0.0
 10
52.58803304441884
 20
71.92339402493937
 30
0.0
 10
52.54975049029912
 20
71.9036595542556
 30
0.0
 10
52.51049731900321
 20
71.87610998978253
 30
0.0
 10
52.48893258159534
 20
71.85281105382566
 30
0.0
 10
52.48137952243682
 20
71.83448106651235
 30
0.0
 10
52.48650319451733
 20
71.81613619765525
 30
0.0
 10
52.50411861837526
 20
71.80608443734903
 30
0.0
 10
52.5128436855033
 20
71.80110571619339
 30
0.0
  0
SPLINE
  5
1AD
330
1F
100
AcDbEntity
  8
0
  6
Continuous
 62
     7
370
    25
100
AcDbSpline
210
0.0
220
0.0
230
1.0
 70
     8
 71
     3
 72
    13
 73
     9
 74
     0
 42
0.00000001
 43
0.00000001
 40
0.0
 40
0.0
 40
0.0
 40
0.0
 40
0.1266963143627904
 40
0.2513113397887914
 40
0.5007108425293433
 40
0.7510525732451319
 40
0.8768673774687907
 40
1.0
 40
1.0
 40
1.0
 40
1.0
 10
52.77875862290072
 20
72.16426535420317
 30
0.0
 10
52.77830610826737
 20
72.15336122876343
 30
0.0
 10
52.77740851263207
 20
72.13173210413359
 30
0.0
 10
52.76751573901496
 20
72.08947168779514
 30
0.0
 10
52.74326148213624
 20
72.03830932805468
 30
0.0
 10
52.69882615264667
 20
71.99081479790023
 30
0.0
 10
52.65098193084656
 20
71.95625126176856
 30
0.0
 10
52.62166109413303
 20
71.94086393952738
 30
0.0
 10
52.60715862842609
 20
71.93325317059521
 30
0.0
  0
LINE
  5
1AE
330
1F
100
AcDbEntity
  8
0
  6
Continuous
 62
     7
370
    25
100
AcDbLine
 10
52.7787586229
 20
93.484917472
 30
0.0
 11
52.7787586229
 21
87.5246552174
 31
0.0
  0
LINE
  5
1AF
330
1F
100
AcDbEntity
  8
0
  6
Continuous
 62
     7
370
    25
100
AcDbLine
 10
52.7787586229
 20
78.1245276088
 30
0.0
 11
52.7787586229
 21
72.1642653542
 31
0.0
  0
SPLINE
  5
1B0
330
1F
100
AcDbEntity
  8
0
  6
Continuous
 62
     7
370
    25
100
AcDbSpline
210
0.0
220
0.0
230
1.0
 70
     8
 71
     3
 72
    13
 73
     9
 74
     0
 42
0.00000001
 43
0.00000001
 40
0.0
 40
0.0
 40
0.0
 40
0.0
 40
0.123409203972734
 40
0.2495635406297123
 40
0.5004511475233475
 40
0.749483003608821
 40
0.8735723371285005
 40
1.0
 40
1.0
 40
1.0
 40
1.0
 10
52.60715862842608
 20
93.71592965557579
 30
0.0
 10
52.62169167034406
 20
93.70830105007825
 30
0.0
 10
52.65108102932551
 20
93.6928741472481
 30
0.0
 10
52.69900724585739
 20
93.6582209125054
 30
0.0
 10
52.74340153606918
 20
93.61066868537196
 30
0.0
 10
52.76757692077909
 20
93.55952510463744
 30
0.0
 10
52.7774105173019
 20
93.51735929180916
 30
0.0
 10
52.77830646676597
 20
93.49579849484249
 30
0.0
 10
52.77875862290078
 20
93.48491747196017
 30
0.0
  0
SPLINE
  5
1B1
330
1F
100
AcDbEntity
  8
0
  6
Continuous
 62
     7
370
    25
100
AcDbSpline
210
0.0
220
0.0
230
1.0
 70
     8
 71
     3
 72
    14
 73
    10
 74
     0
 42
0.00000001
 43
0.00000001
 40
0.0
 40
0.0
 40
0.0
 40
0.0
 40
0.0833728361874164
 40
0.1651391830231223
 40
0.2505782922901014
 40
0.3661552980483097
 40
0.5013015333863843
 40
0.7511277814203854
 40
1.0
 40
1.0
 40
1.0
 40
1.0
 10
52.51284368550329
 20
93.84807710997761
 30
0.0
 10
52.506731207712
 20
93.84484115216001
 30
0.0
 10
52.49462403186362
 20
93.83843158934876
 30
0.0
 10
52.48484525668615
 20
93.826709681682
 30
0.0
 10
52.48208185317166
 20
93.81286039279897
 30
0.0
 10
52.48891754912126
 20
93.79641066475928
 30
0.0
 10
52.51043288657529
 20
93.77311724780203
 30
0.0
 10
52.54974012294264
 20
93.745527012662
 30
0.0
 10
52.58804355191195
 20
93.72578285082278
 30
0.0
 10
52.60715862842608
 20
93.71592965557579
 30
0.0
  0
SPLINE
  5
1B2
330
1F
100
AcDbEntity
  8
0
  6
Continuous
 62
     7
370
    25
100
AcDbSpline
210
0.0
220
0.0
230
1.0
 70
     8
 71
     3
 72
    17
 73
    13
 74
     0
 42
0.00000001
 43
0.00000001
 40
0.0
 40
0.0
 40
0.0
 40
0.0
 40
0.1308472312971285
 40
0.2501712416478232
 40
0.5002181447817603
 40
0.5625722445347702
 40
0.6248529024619178
 40
0.7493346422976469
 40
0.8746411565565786
 40
0.9373094462329892
 40
0.9700546542881243
 40
1.0
 40
1.0
 40
1.0
 40
1.0
 10
52.7787586229008
 20
94.45630563922056
 30
0.0
 10
52.77850732508269
 20
94.43504317669165
 30
0.0
 10
52.77802686029518
 20
94.39439075631853
 30
0.0
 10
52.77192718168733
 20
94.30511768805954
 30
0.0
 10
52.76009866641916
 20
94.22051578124011
 30
0.0
 10
52.73967758858562
 20
94.14147898299889
 30
0.0
 10
52.72254705281252
 20
94.0875344955468
 30
0.0
 10
52.6928776690803
 20
94.0174989641297
 30
0.0
 10
52.64483743924453
 20
93.94468006566677
 30
0.0
 10
52.58984229471226
 20
93.89413844839486
 30
0.0
 10
52.54983505815537
 20
93.86663172509755
 30
0.0
 10
52.52480146265724
 20
93.85407504779053
 30
0.0
 10
52.5128436855033
 20
93.84807710997761
 30
0.0
  0
LINE
  5
1B3
330
1F
100
AcDbEntity
  8
0
  6
Continuous
 62
     7
370
    25
100
AcDbLine
 10
52.7787586229
 20
94.8245914131
 30
0.0
 11
52.7787586229
 21
94.4563056392
 31
0.0
  0
LINE
  5
1B4
330
1F
100
AcDbEntity
  8
0
  6
Continuous
 62
     7
370
    25
100
AcDbLine
 10
33.2929721853
 20
94.4563056392
 30
0.0
 11
33.2929721853
 21
94.8245914131
 31
0.0
  0
SPLINE
  5
1B5
330
1F
100
AcDbEntity
  8
0
  6
Continuous
 62
     7
370
    25
100
AcDbSpline
210
0.0
220
0.0
230
1.0
 70
     8
 71
     3
 72
    18
 73
    14
 74
     0
 42
0.00000001
 43
0.00000001
 40
0.0
 40
0.0
 40
0.0
 40
0.0
 40
0.0297375917713133
 40
0.06225859946667
 40
0.1245690829005796
 40
0.1747355398269516
 40
0.2498061834274989
 40
0.3751803602811941
 40
0.4377454186258753
 40
0.5002333231923115
 40
0.7499313720644271
 40
0.8691943481067824
 40
0.9999999999999999
 40
0.9999999999999999
 40
0.9999999999999999
 40
0.9999999999999999
 10
33.55888712267138
 20
93.84807710997761
 30
0.0
 10
33.54700764559438
 20
93.8540328319151
 30
0.0
 10
33.52213678144041
 20
93.86650172682404
 30
0.0
 10
33.4823104633366
 20
93.89382312884297
 30
0.0
 10
33.44597813217499
 20
93.9270048417256
 30
0.0
 10
33.4102059724507
 20
93.97046020881893
 30
0.0
 10
33.37413499807977
 20
94.0282957303201
 30
0.0
 10
33.34924231816886
 20
94.08739969302013
 30
0.0
 10
33.33200669225702
 20
94.14162016137965
 30
0.0
 10
33.31161303346698
 20
94.22066979610148
 30
0.0
 10
33.29979561630461
 20
94.30521193767416
 30
0.0
 10
33.29370315867242
 20
94.39440943410858
 30
0.0
 10
33.29322322730265
 20
94.43504830080975
 30
0.0
 10
33.29297218527388
 20
94.45630563922494
 30
0.0
  0
SPLINE
  5
1B6
330
1F
100
AcDbEntity
  8
0
  6
Continuous
 62
     7
370
    25
100
AcDbSpline
210
0.0
220
0.0
230
1.0
 70
     8
 71
     3
 72
    13
 73
     9
 74
     0
 42
0.00000001
 43
0.00000001
 40
0.0
 40
0.0
 40
0.0
 40
0.0
 40
0.2491824652873909
 40
0.4987738521015305
 40
0.6338602399633625
 40
0.749486885916647
 40
0.8759187542469947
 40
1.0
 40
1.0
 40
1.0
 40
1.0
 10
33.46457217974044
 20
93.71592965557792
 30
0.0
 10
33.4836977637558
 20
93.72578880123164
 30
0.0
 10
33.52198031787546
 20
93.74552327191542
 30
0.0
 10
33.56123348917264
 20
93.77307283638905
 30
0.0
 10
33.58279822657938
 20
93.7963717723461
 30
0.0
 10
33.59035128573811
 20
93.81470175965957
 30
0.0
 10
33.58522761365615
 20
93.83304662851583
 30
0.0
 10
33.56761218979883
 20
93.84309838882213
 30
0.0
 10
33.55888712267138
 20
93.84807710997761
 30
0.0
  0
SPLINE
  5
1B7
330
1F
100
AcDbEntity
  8
0
  6
Continuous
 62
     7
370
    25
100
AcDbSpline
210
0.0
220
0.0
230
1.0
 70
     8
 71
     3
 72
    13
 73
     9
 74
     0
 42
0.00000001
 43
0.00000001
 40
0.0
 40
0.0
 40
0.0
 40
0.0
 40
0.1266963143628506
 40
0.2513113397887842
 40
0.5007108425293414
 40
0.7510525732451352
 40
0.8768673774688646
 40
1.0
 40
1.0
 40
1.0
 40
1.0
 10
33.29297218527395
 20
93.48491747196783
 30
0.0
 10
33.2934246999073
 20
93.49582159740758
 30
0.0
 10
33.29432229554261
 20
93.51745072203741
 30
0.0
 10
33.30421506915971
 20
93.55971113837587
 30
0.0
 10
33.32846932603842
 20
93.61087349811633
 30
0.0
 10
33.37290465552802
 20
93.65836802827077
 30
0.0
 10
33.42074887732813
 20
93.69293156440244
 30
0.0
 10
33.45006971404165
 20
93.70831888664364
 30
0.0
 10
33.46457217974859
 20
93.71592965557579
 30
0.0
  0
LINE
  5
1B8
330
1F
100
AcDbEntity
  8
0
  6
Continuous
 62
     7
370
    25
100
AcDbLine
 10
33.2929721853
 20
72.1642653542
 30
0.0
 11
33.2929721853
 21
93.484917472
 31
0.0
  0
SPLINE
  5
1B9
330
1F
100
AcDbEntity
  8
0
  6
Continuous
 62
     7
370
    25
100
AcDbSpline
210
0.0
220
0.0
230
1.0
 70
     8
 71
     3
 72
    13
 73
     9
 74
     0
 42
0.00000001
 43
0.00000001
 40
0.0
 40
0.0
 40
0.0
 40
0.0
 40
0.123409203982248
 40
0.2495635406298056
 40
0.5004511475234075
 40
0.7494830036088448
 40
0.8735723371263543
 40
1.0
 40
1.0
 40
1.0
 40
1.0
 10
33.46457217974857
 20
71.93325317059522
 30
0.0
 10
33.45003913782927
 20
71.94088177609329
 30
0.0
 10
33.42064977884738
 20
71.9563086789233
 30
0.0
 10
33.37272356231713
 20
71.99096191366641
 30
0.0
 10
33.32832927210535
 20
72.03851414079895
 30
0.0
 10
33.30415388739579
 20
72.08965772153331
 30
0.0
 10
33.29432029087269
 20
72.13182353436157
 30
0.0
 10
33.29342434140868
 20
72.15338433132821
 30
0.0
 10
33.29297218527389
 20
72.16426535421071
 30
0.0
  0
SPLINE
  5
1BA
330
1F
100
AcDbEntity
  8
0
  6
Continuous
 62
     7
370
    25
100
AcDbSpline
210
0.0
220
0.0
230
1.0
 70
     8
 71
     3
 72
    14
 73
    10
 74
     0
 42
0.00000001
 43
0.00000001
 40
0.0
 40
0.0
 40
0.0
 40
0.0
 40
0.0833728361833459
 40
0.1651391830191044
 40
0.2505782922895461
 40
0.366155298038779
 40
0.5013015333860809
 40
0.7511277814202357
 40
0.9999999999999999
 40
0.9999999999999999
 40
0.9999999999999999
 40
0.9999999999999999
 10
33.55888712267138
 20
71.80110571619339
 30
0.0
 10
33.56499960046233
 20
71.80434167401084
 30
0.0
 10
33.57710677631034
 20
71.81075123682197
 30
0.0
 10
33.58688555148738
 20
71.8224731444887
 30
0.0
 10
33.58964895500336
 20
71.83632243337142
 30
0.0
 10
33.58281325905389
 20
71.85277216141132
 30
0.0
 10
33.56129792159987
 20
71.87606557836857
 30
0.0
 10
33.52199068523205
 20
71.90365581350902
 30
0.0
 10
33.48368725626273
 20
71.92339997534823
 30
0.0
 10
33.46457217974859
 20
71.93325317059522
 30
0.0
  0
SPLINE
  5
1BB
330
1F
100
AcDbEntity
  8
0
  6
Continuous
 62
     7
370
    25
100
AcDbSpline
210
0.0
220
0.0
230
1.0
 70
     8
 71
     3
 72
    17
 73
    13
 74
     0
 42
0.00000001
 43
0.00000001
 40
0.0
 40
0.0
 40
0.0
 40
0.0
 40
0.1308472312969622
 40
0.2501712416478231
 40
0.5002181447817602
 40
0.5625722445347695
 40
0.6248529024619175
 40
0.7493346422976452
 40
0.8746411565565774
 40
0.9373094462329884
 40
0.9700546542881242
 40
0.9999999999999999
 40
0.9999999999999999
 40
0.9999999999999999
 40
0.9999999999999999
 10
33.29297218527388
 20
71.19287718695045
 30
0.0
 10
33.29322348309199
 20
71.21413964947934
 30
0.0
 10
33.29370394787949
 20
71.25479206985246
 30
0.0
 10
33.29980362648735
 20
71.34406513811145
 30
0.0
 10
33.31163214175552
 20
71.4286670449309
 30
0.0
 10
33.33205321958904
 20
71.50770384317212
 30
0.0
 10
33.34918375536216
 20
71.56164833062422
 30
0.0
 10
33.37885313909436
 20
71.6316838620413
 30
0.0
 10
33.42689336893015
 20
71.70450276050424
 30
0.0
 10
33.48188851346243
 20
71.75504437777616
 30
0.0
 10
33.5218957500193
 20
71.78255110107347
 30
0.0
 10
33.54692934551743
 20
71.79510777838048
 30
0.0
 10
33.55888712267138
 20
71.80110571619339
 30
0.0
  0
LINE
  5
1BC
330
1F
100
AcDbEntity
  8
0
  6
Continuous
 62
     7
370
    25
100
AcDbLine
 10
33.2929721853
 20
70.8245914131
 30
0.0
 11
33.2929721853
 21
71.192877187
 31
0.0
  0
LINE
  5
1BD
330
1F
100
AcDbEntity
  8
0
  6
Continuous
 62
     7
370
    25
100
AcDbLine
 10
30.5358654041
 20
94.8245914131
 30
0.0
 11
30.5358654041
 21
70.8245914131
 31
0.0
  0
LINE
  5
1BE
330
1F
100
AcDbEntity
  8
0
  6
Continuous
 62
     7
370
    25
100
AcDbLine
 10
52.7787586229
 20
72.1642653542
 30
0.0
 11
52.5358993986
 21
72.3800118973
 31
0.0
  0
LINE
  5
1BF
330
1F
100
AcDbEntity
  8
0
  6
Continuous
 62
     7
370
    25
100
AcDbLine
 10
52.5358993986
 20
72.3800118973
 30
0.0
 11
52.5358993982
 21
78.076722061
 31
0.0
  0
LINE
  5
1C0
330
1F
100
AcDbEntity
  8
0
  6
Continuous
 62
     7
370
    25
100
AcDbLine
 10
52.5358993982
 20
87.5724607652
 30
0.0
 11
52.5358993986
 21
93.2691709289
 31
0.0
  0
LINE
  5
1C1
330
1F
100
AcDbEntity
  8
0
  6
Continuous
 62
     7
370
    25
100
AcDbLine
 10
52.7787586229
 20
93.484917472
 30
0.0
 11
52.5358993986
 21
93.2691709289
 31
0.0
  0
LINE
  5
1C2
330
1F
100
AcDbEntity
  8
0
  6
Continuous
 62
     7
370
    25
100
AcDbLine
 10
33.5358314095
 20
93.2691709289
 30
0.0
 11
33.5358314095
 21
72.3800118973
 31
0.0
  0
LINE
  5
1C3
330
1F
100
AcDbEntity
  8
0
  6
Continuous
 62
     7
370
    25
100
AcDbLine
 10
33.5358314095
 20
72.3800118973
 30
0.0
 11
33.2929721853
 21
72.1642653542
 31
0.0
  0
LINE
  5
1C4
330
1F
100
AcDbEntity
  8
0
  6
Continuous
 62
     7
370
    25
100
AcDbLine
 10
33.5358314095
 20
93.2691709289
 30
0.0
 11
33.2929721853
 21
93.484917472
 31
0.0
  0
LINE
  5
1C5
330
1F
100
AcDbEntity
  8
0
  6
Continuous
 62
     7
370
    25
100
AcDbLine
 10
55.7858654041
 20
94.5745914131
 30
0.0
 11
55.7858654041
 21
87.0115978584
 31
0.0
  0
LINE
  5
1C6
330
1F
100
AcDbEntity
  8
0
  6
Continuous
 62
     7
370
    25
100
AcDbLine
 10
55.7858654041
 20
78.6375849678
 30
0.0
 11
55.7858654041
 21
71.0745914131
 31
0.0
  0
LINE
  5
1C7
330
1F
100
AcDbEntity
  8
0
  6
Continuous
 62
     7
370
    25
100
AcDbLine
 10
30.2858654041
 20
71.0745914131
 30
0.0
 11
30.2858654041
 21
94.5745914131
 31
0.0
  0
LINE
  5
1C8
330
1F
100
AcDbEntity
  8
0
  6
Continuous
 62
     7
370
    25
100
AcDbLine
 10
52.5358654041
 20
72.388955352
 30
0.0
 11
52.5358654041
 21
78.0767153022
 31
0.0
  0
LINE
  5
1C9
330
1F
100
AcDbEntity
  8
0
  6
Continuous
 62
     7
370
    25
100
AcDbLine
 10
52.5358654041
 20
87.572467524
 30
0.0
 11
52.5358654041
 21
93.2602274742
 31
0.0
  0
SPLINE
  5
1CA
330
1F
100
AcDbEntity
  8
0
  6
Continuous
 62
     7
370
    25
100
AcDbSpline
210
0.0
220
0.0
230
1.0
 70
     8
 71
     3
 72
     8
 73
     4
 74
     0
 42
0.00000001
 43
0.00000001
 40
0.0
 40
0.0
 40
0.0
 40
0.0
 40
1.0
 40
1.0
 40
1.0
 40
1.0
 10
52.53589939864334
 20
93.26917092890132
 30
0.0
 10
52.53587674103242
 20
93.26619135040828
 30
0.0
 10
52.53586540408733
 20
93.26321019953518
 30
0.0
 10
52.53586540408733
 20
93.2602274741984
 30
0.0
  0
SPLINE
  5
1CB
330
1F
100
AcDbEntity
  8
0
  6
Continuous
 62
     7
370
    25
100
AcDbSpline
210
0.0
220
0.0
230
1.0
 70
     8
 71
     3
 72
     8
 73
     4
 74
     0
 42
0.00000001
 43
0.00000001
 40
0.0
 40
0.0
 40
0.0
 40
0.0
 40
1.0
 40
1.0
 40
1.0
 40
1.0
 10
52.53586540408733
 20
72.3889553519726
 30
0.0
 10
52.53586540408733
 20
72.38597262664119
 30
0.0
 10
52.53587674103238
 20
72.38299147577344
 30
0.0
 10
52.53589939864322
 20
72.38001189728575
 30
0.0
  0
LINE
  5
1CC
330
1F
100
AcDbEntity
  8
0
  6
Continuous
 62
     7
370
    25
100
AcDbLine
 10
33.5358654041
 20
93.2602274742
 30
0.0
 11
33.5358654041
 21
72.388955352
 31
0.0
  0
SPLINE
  5
1CD
330
1F
100
AcDbEntity
  8
0
  6
Continuous
 62
     7
370
    25
100
AcDbSpline
210
0.0
220
0.0
230
1.0
 70
     8
 71
     3
 72
     8
 73
     4
 74
     0
 42
0.00000001
 43
0.00000001
 40
0.0
 40
0.0
 40
0.0
 40
0.0
 40
1.0
 40
1.0
 40
1.0
 40
1.0
 10
33.53583140953144
 20
72.38001189728571
 30
0.0
 10
33.53585406714228
 20
72.38299147577341
 30
0.0
 10
33.53586540408733
 20
72.38597262664118
 30
0.0
 10
33.53586540408733
 20
72.3889553519726
 30
0.0
  0
SPLINE
  5
1CE
330
1F
100
AcDbEntity
  8
0
  6
Continuous
 62
     7
370
    25
100
AcDbSpline
210
0.0
220
0.0
230
1.0
 70
     8
 71
     3
 72
     8
 73
     4
 74
     0
 42
0.00000001
 43
0.00000001
 40
0.0
 40
0.0
 40
0.0
 40
0.0
 40
1.0
 40
1.0
 40
1.0
 40
1.0
 10
33.53586540408733
 20
93.2602274741984
 30
0.0
 10
33.53586540408733
 20
93.26321019952981
 30
0.0
 10
33.53585406714228
 20
93.26619135039758
 30
0.0
 10
33.53583140953144
 20
93.26917092888526
 30
0.0
  0
ARC
  5
1CF
330
1F
100
AcDbEntity
  8
0
  6
Continuous
 62
     7
370
    25
100
AcDbCircle
 10
33.9129920582
 20
72.7868630714
 30
0.0
 40
0.3780249527301935
100
AcDbArc
 50
86.5310565283
 51
176.0493021852
  0
ARC
  5
1D0
330
1F
100
AcDbEntity
  8
0
  6
Continuous
 62
     7
370
    25
100
AcDbCircle
 10
33.9129920582
 20
92.8623197547
 30
0.0
 40
0.3780249527301864
100
AcDbArc
 50
183.9506978148
 51
273.4689434717
  0
LINE
  5
1D1
330
1F
100
AcDbEntity
  8
0
  6
Continuous
 62
     7
370
    25
100
AcDbLine
 10
33.9358654041
 20
92.4849874411
 30
0.0
 11
33.9358654041
 21
73.1641953851
 31
0.0
  0
ARC
  5
1D2
330
1F
100
AcDbEntity
  8
0
  6
Continuous
 62
     7
370
    25
100
AcDbCircle
 10
52.15873875
 20
92.8623197547
 30
0.0
 40
0.3780249527301793
100
AcDbArc
 50
266.5310565283
 51
356.0493021852
  0
ARC
  5
1D3
330
1F
100
AcDbEntity
  8
0
  6
Continuous
 62
     7
370
    25
100
AcDbCircle
 10
52.15873875
 20
72.7868630714
 30
0.0
 40
0.3780249527301783
100
AcDbArc
 50
3.9506978148
 51
93.4689434717
  0
LINE
  5
1D4
330
1F
100
AcDbEntity
  8
0
  6
Continuous
 62
     7
370
    25
100
AcDbLine
 10
33.9358654041
 20
73.1641953851
 30
0.0
 11
52.1358654041
 21
73.1641953851
 31
0.0
  0
LINE
  5
1D5
330
1F
100
AcDbEntity
  8
0
  6
Continuous
 62
     7
370
    25
100
AcDbLine
 10
52.1358654041
 20
92.4849874411
 30
0.0
 11
33.9358654041
 21
92.4849874411
 31
0.0
  0
LINE
  5
1D6
330
1F
100
AcDbEntity
  8
0
  6
Continuous
 62
     7
370
    25
100
AcDbLine
 10
18.982256677
 20
72.5178291858
 30
0.0
 11
18.982256677
 21
93.1313536404
 31
0.0
  0
LINE
  5
1D7
330
1F
100
AcDbEntity
  8
0
  6
Continuous
 62
     7
370
    25
100
AcDbLine
 10
16.2858654041
 20
74.0745914131
 30
0.0
 11
16.2858654041
 21
91.5745914131
 31
0.0
  0
SPLINE
  5
1D8
330
1F
100
AcDbEntity
  8
0
  6
Continuous
 62
     7
370
    25
100
AcDbSpline
210
0.0
220
0.0
230
1.0
 70
     8
 71
     3
 72
    14
 73
    10
 74
     0
 42
0.00000001
 43
0.00000001
 40
0.0
 40
0.0
 40
0.0
 40
0.0
 40
0.1377327108983413
 40
0.2725942884998932
 40
0.4041400602171393
 40
0.5321680644070492
 40
0.7754693061725265
 40
0.8890599100113705
 40
0.9999999999999999
 40
0.9999999999999999
 40
0.9999999999999999
 40
0.9999999999999999
 10
52.53589939864315
 20
93.26917092887572
 30
0.0
 10
52.5357645651931
 20
93.28290059078871
 30
0.0
 10
52.53549770898919
 20
93.31007371034836
 30
0.0
 10
52.53237588674398
 20
93.34976459010753
 30
0.0
 10
52.52690962278505
 20
93.38769726400591
 30
0.0
 10
52.51590976607412
 20
93.43450802380981
 30
0.0
 10
52.49784209349014
 20
93.47660713015993
 30
0.0
 10
52.47056864399497
 20
93.51190553794365
 30
0.0
 10
52.45295129955
 20
93.52595393283937
 30
0.0
 10
52.44424661091805
 20
93.53289521185721
 30
0.0
  0
LINE
  5
1D9
330
1F
100
AcDbEntity
  8
0
  6
Continuous
 62
     7
370
    25
100
AcDbLine
 10
52.6071586284
 20
93.7159296556
 30
0.0
 11
52.4442466109
 21
93.5328952119
 31
0.0
  0
SPLINE
  5
1DA
330
1F
100
AcDbEntity
  8
0
  6
Continuous
 62
     7
370
    25
100
AcDbSpline
210
0.0
220
0.0
230
1.0
 70
     8
 71
     3
 72
    14
 73
    10
 74
     0
 42
0.00000001
 43
0.00000001
 40
0.0
 40
0.0
 40
0.0
 40
0.0
 40
0.1377327108987162
 40
0.2725942885004416
 40
0.4041400602177524
 40
0.5321680644078574
 40
0.7754693061737634
 40
0.8890599099299614
 40
0.9999999999999999
 40
0.9999999999999999
 40
0.9999999999999999
 40
0.9999999999999999
 10
33.53583140953151
 20
72.38001189729512
 30
0.0
 10
33.53596624298157
 20
72.36628223538214
 30
0.0
 10
33.53623309918548
 20
72.33910911582255
 30
0.0
 10
33.53935492143073
 20
72.29941823606345
 30
0.0
 10
33.54482118538952
 20
72.26148556216484
 30
0.0
 10
33.55582104210102
 20
72.21467480236201
 30
0.0
 10
33.57388871467867
 20
72.17257569601315
 30
0.0
 10
33.60116216417865
 20
72.13727728824145
 30
0.0
 10
33.61877950862002
 20
72.12322889333976
 30
0.0
 10
33.62748419725663
 20
72.11628761431383
 30
0.0
  0
LINE
  5
1DB
330
1F
100
AcDbEntity
  8
0
  6
Continuous
 62
     7
370
    25
100
AcDbLine
 10
33.6274841973
 20
72.1162876143
 30
0.0
 11
33.4645721797
 21
71.9332531706
 31
0.0
  0
SPLINE
  5
1DC
330
1F
100
AcDbEntity
  8
0
  6
Continuous
 62
     7
370
    25
100
AcDbSpline
210
0.0
220
0.0
230
1.0
 70
     8
 71
     3
 72
    14
 73
    10
 74
     0
 42
0.00000001
 43
0.00000001
 40
0.0
 40
0.0
 40
0.0
 40
0.0
 40
0.1106414710656435
 40
0.2239563677554478
 40
0.4666597346536896
 40
0.5947565812547271
 40
0.726555932928469
 40
0.8618634099916662
 40
1.0
 40
1.0
 40
1.0
 40
1.0
 10
33.62748419725664
 20
93.53289521185708
 30
0.0
 10
33.61880179935824
 20
93.52597316041388
 30
0.0
 10
33.60122721111383
 20
93.51196180026383
 30
0.0
 10
33.57399152214986
 20
93.47677164282749
 30
0.0
 10
33.5559091528779
 20
93.43476236691768
 30
0.0
 10
33.54487410829935
 20
93.3879963687216
 30
0.0
 10
33.53937759508568
 20
93.34999441380614
 30
0.0
 10
33.53623592292384
 20
93.31019898240007
 30
0.0
 10
33.53596717417363
 20
93.28294095259697
 30
0.0
 10
33.53583140953144
 20
93.26917092888546
 30
0.0
  0
LINE
  5
1DD
330
1F
100
AcDbEntity
  8
0
  6
Continuous
 62
     7
370
    25
100
AcDbLine
 10
33.6274841973
 20
93.5328952119
 30
0.0
 11
33.4645721797
 21
93.7159296556
 31
0.0
  0
LINE
  5
1DE
330
1F
100
AcDbEntity
  8
0
  6
Continuous
 62
     7
370
    25
100
AcDbLine
 10
52.6071586284
 20
71.9332531706
 30
0.0
 11
52.4442466109
 21
72.1162876143
 31
0.0
  0
SPLINE
  5
1DF
330
1F
100
AcDbEntity
  8
0
  6
Continuous
 62
     7
370
    25
100
AcDbSpline
210
0.0
220
0.0
230
1.0
 70
     8
 71
     3
 72
    14
 73
    10
 74
     0
 42
0.00000001
 43
0.00000001
 40
0.0
 40
0.0
 40
0.0
 40
0.0
 40
0.1106414710202212
 40
0.2239563677549811
 40
0.4666597346533721
 40
0.5947565812544914
 40
0.7265559329283156
 40
0.8618634099915925
 40
0.9999999999999999
 40
0.9999999999999999
 40
0.9999999999999999
 40
0.9999999999999999
 10
52.44424661091802
 20
72.11628761431392
 30
0.0
 10
52.4529290088125
 20
72.12320966575518
 30
0.0
 10
52.47050359705614
 20
72.13722102590707
 30
0.0
 10
52.49773928602428
 20
72.17241118333766
 30
0.0
 10
52.51582165529656
 20
72.21442045925366
 30
0.0
 10
52.52685669987536
 20
72.26118645744934
 30
0.0
 10
52.53235321308897
 20
72.29918841236488
 30
0.0
 10
52.53549488525082
 20
72.33898384377095
 30
0.0
 10
52.53576363400104
 20
72.36624187357404
 30
0.0
 10
52.53589939864322
 20
72.38001189728556
 30
0.0
  0
LINE
  5
1E0
330
1F
100
AcDbEntity
  8
0
  6
Continuous
 62
     7
370
    25
100
AcDbLine
 10
33.5358654041
 20
92.9240963514
 30
0.0
 11
33.9358654041
 21
92.9240963514
 31
0.0
  0
LINE
  5
1E1
330
1F
100
AcDbEntity
  8
0
  6
Continuous
 62
     7
370
    25
100
AcDbLine
 10
33.9358654041
 20
92.9240963514
 30
0.0
 11
33.9358654041
 21
92.4849874411
 31
0.0
  0
LINE
  5
1E2
330
1F
100
AcDbEntity
  8
0
  6
Continuous
 62
     7
370
    25
100
AcDbLine
 10
52.1358654041
 20
92.9240963514
 30
0.0
 11
52.1358654041
 21
92.4849874411
 31
0.0
  0
LINE
  5
1E3
330
1F
100
AcDbEntity
  8
0
  6
Continuous
 62
     7
370
    25
100
AcDbLine
 10
52.1358654041
 20
92.9240963514
 30
0.0
 11
52.5358654041
 21
92.9240963514
 31
0.0
  0
LINE
  5
1E4
330
1F
100
AcDbEntity
  8
0
  6
Continuous
 62
     7
370
    25
100
AcDbLine
 10
52.5358654041
 20
72.7250864747
 30
0.0
 11
52.1358654041
 21
72.7250864747
 31
0.0
  0
LINE
  5
1E5
330
1F
100
AcDbEntity
  8
0
  6
Continuous
 62
     7
370
    25
100
AcDbLine
 10
52.1358654041
 20
73.1641953851
 30
0.0
 11
52.1358654041
 21
72.7250864747
 31
0.0
  0
LINE
  5
1E6
330
1F
100
AcDbEntity
  8
0
  6
Continuous
 62
     7
370
    25
100
AcDbLine
 10
33.9358654041
 20
73.1641953851
 30
0.0
 11
33.9358654041
 21
72.7250864747
 31
0.0
  0
LINE
  5
1E7
330
1F
100
AcDbEntity
  8
0
  6
Continuous
 62
     7
370
    25
100
AcDbLine
 10
33.9358654041
 20
72.7250864747
 30
0.0
 11
33.5358654041
 21
72.7250864747
 31
0.0
  0
LINE
  5
1E8
330
1F
100
AcDbEntity
  8
0
  6
Continuous
 62
     7
370
    25
100
AcDbLine
 10
52.5358654041
 20
93.2602274742
 30
0.0
 11
52.1358654041
 21
93.2602274742
 31
0.0
  0
SPLINE
  5
1E9
330
1F
100
AcDbEntity
  8
0
  6
Continuous
 62
     7
370
    25
100
AcDbSpline
210
0.0
220
0.0
230
1.0
 70
     8
 71
     3
 72
     8
 73
     4
 74
     0
 42
0.00000001
 43
0.00000001
 40
0.0
 40
0.0
 40
0.0
 40
0.0
 40
1.0
 40
1.0
 40
1.0
 40
1.0
 10
52.13586540408733
 20
93.2602274741984
 30
0.0
 10
52.13586540408733
 20
93.28176122300069
 30
0.0
 10
52.13634218347997
 20
93.30321548815742
 30
0.0
 10
52.13728888352918
 20
93.32459141308496
 30
0.0
  0
SPLINE
  5
1EA
330
1F
100
AcDbEntity
  8
0
  6
Continuous
 62
     7
370
    25
100
AcDbSpline
210
0.0
220
0.0
230
1.0
 70
     8
 71
     3
 72
     8
 73
     4
 74
     0
 42
0.00000001
 43
0.00000001
 40
0.0
 40
0.0
 40
0.0
 40
0.0
 40
0.0000524698222113
 40
0.0000524698222113
 40
0.0000524698222113
 40
0.0000524698222113
 10
52.18955445459419
 20
93.32772385671734
 30
0.0
 10
52.17224814273959
 20
93.32659602750124
 30
0.0
 10
52.15475231849891
 20
93.32555394411708
 30
0.0
 10
52.13728888352669
 20
93.32459141308537
 30
0.0
  0
SPLINE
  5
1EB
330
1F
100
AcDbEntity
  8
0
  6
Continuous
 62
     7
370
    25
100
AcDbSpline
210
0.0
220
0.0
230
1.0
 70
     8
 71
     3
 72
    10
 73
     6
 74
     0
 42
0.00000001
 43
0.00000001
 40
0.0
 40
0.0
 40
0.0
 40
0.0
 40
0.5
 40
0.5
 40
1.0
 40
1.0
 40
1.0
 40
1.0
 10
52.18955445459419
 20
93.32772385671734
 30
0.0
 10
52.2491831841959
 20
93.33160978133988
 30
0.0
 10
52.29935747600268
 20
93.36534543084441
 30
0.0
 10
52.37942258174346
 20
93.44295358511206
 30
0.0
 10
52.41213737115867
 20
93.48749570054629
 30
0.0
 10
52.44424661091809
 20
93.53289521185724
 30
0.0
  0
SPLINE
  5
1EC
330
1F
100
AcDbEntity
  8
0
  6
Continuous
 62
     7
370
    25
100
AcDbSpline
210
0.0
220
0.0
230
1.0
 70
     8
 71
     3
 72
     8
 73
     4
 74
     0
 42
0.00000001
 43
0.00000001
 40
0.0
 40
0.0
 40
0.0
 40
0.0
 40
0.0000524698222138
 40
0.0000524698222138
 40
0.0000524698222138
 40
0.0000524698222138
 10
33.93444192464593
 20
93.3245914130748
 30
0.0
 10
33.91697848967368
 20
93.32555394410632
 30
0.0
 10
33.89948266543363
 20
93.32659602750114
 30
0.0
 10
33.88217635357901
 20
93.32772385671738
 30
0.0
  0
SPLINE
  5
1ED
330
1F
100
AcDbEntity
  8
0
  6
Continuous
 62
     7
370
    25
100
AcDbSpline
210
0.0
220
0.0
230
1.0
 70
     8
 71
     3
 72
     8
 73
     4
 74
     0
 42
0.00000001
 43
0.00000001
 40
0.0
 40
0.0
 40
0.0
 40
0.0
 40
1.0
 40
1.0
 40
1.0
 40
1.0
 10
33.93444192464594
 20
93.3245914130748
 30
0.0
 10
33.93538862469484
 20
93.30321548815063
 30
0.0
 10
33.93586540408733
 20
93.28176122299728
 30
0.0
 10
33.93586540408733
 20
93.2602274741984
 30
0.0
  0
LINE
  5
1EE
330
1F
100
AcDbEntity
  8
0
  6
Continuous
 62
     7
370
    25
100
AcDbLine
 10
33.9358654041
 20
93.2602274742
 30
0.0
 11
33.5358654041
 21
93.2602274742
 31
0.0
  0
SPLINE
  5
1EF
330
1F
100
AcDbEntity
  8
0
  6
Continuous
 62
     7
370
    25
100
AcDbSpline
210
0.0
220
0.0
230
1.0
 70
     8
 71
     3
 72
    10
 73
     6
 74
     0
 42
0.00000001
 43
0.00000001
 40
0.0
 40
0.0
 40
0.0
 40
0.0
 40
0.5
 40
0.5
 40
1.0
 40
1.0
 40
1.0
 40
1.0
 10
33.88217635357912
 20
93.32772385671946
 30
0.0
 10
33.82254762397766
 20
93.33160978134262
 30
0.0
 10
33.77237333217013
 20
93.36534543084575
 30
0.0
 10
33.69230822642923
 20
93.44295358511444
 30
0.0
 10
33.6595934370139
 20
93.48749570054912
 30
0.0
 10
33.62748419725428
 20
93.53289521186046
 30
0.0
  0
SPLINE
  5
1F0
330
1F
100
AcDbEntity
  8
0
  6
Continuous
 62
     7
370
    25
100
AcDbSpline
210
0.0
220
0.0
230
1.0
 70
     8
 71
     3
 72
     8
 73
     4
 74
     0
 42
0.00000001
 43
0.00000001
 40
0.0
 40
0.0
 40
0.0
 40
0.0
 40
0.0000524698222138
 40
0.0000524698222138
 40
0.0000524698222138
 40
0.0000524698222138
 10
52.13728888352873
 20
72.32459141309621
 30
0.0
 10
52.15475231850098
 20
72.3236288820647
 30
0.0
 10
52.17224814274103
 20
72.32258679866987
 30
0.0
 10
52.18955445459566
 20
72.32145896945363
 30
0.0
  0
SPLINE
  5
1F1
330
1F
100
AcDbEntity
  8
0
  6
Continuous
 62
     7
370
    25
100
AcDbSpline
210
0.0
220
0.0
230
1.0
 70
     8
 71
     3
 72
     8
 73
     4
 74
     0
 42
0.00000001
 43
0.00000001
 40
0.0
 40
0.0
 40
0.0
 40
0.0
 40
1.0
 40
1.0
 40
1.0
 40
1.0
 10
52.13728888352873
 20
72.32459141309621
 30
0.0
 10
52.13634218347982
 20
72.34596733802037
 30
0.0
 10
52.13586540408733
 20
72.36742160317372
 30
0.0
 10
52.13586540408733
 20
72.3889553519726
 30
0.0
  0
LINE
  5
1F2
330
1F
100
AcDbEntity
  8
0
  6
Continuous
 62
     7
370
    25
100
AcDbLine
 10
52.5358654041
 20
72.388955352
 30
0.0
 11
52.1358654041
 21
72.388955352
 31
0.0
  0
SPLINE
  5
1F3
330
1F
100
AcDbEntity
  8
0
  6
Continuous
 62
     7
370
    25
100
AcDbSpline
210
0.0
220
0.0
230
1.0
 70
     8
 71
     3
 72
    10
 73
     6
 74
     0
 42
0.00000001
 43
0.00000001
 40
0.0
 40
0.0
 40
0.0
 40
0.0
 40
0.5
 40
0.5
 40
1.0
 40
1.0
 40
1.0
 40
1.0
 10
52.18955445459554
 20
72.32145896945156
 30
0.0
 10
52.24918318419704
 20
72.31757304482858
 30
0.0
 10
52.29935747600452
 20
72.28383739532526
 30
0.0
 10
52.37942258174542
 20
72.20622924105659
 30
0.0
 10
52.41213737116075
 20
72.16168712562192
 30
0.0
 10
52.44424661092036
 20
72.11628761431058
 30
0.0
  0
LINE
  5
1F4
330
1F
100
AcDbEntity
  8
0
  6
Continuous
 62
     7
370
    25
100
AcDbLine
 10
33.9358654041
 20
72.388955352
 30
0.0
 11
33.5358654041
 21
72.388955352
 31
0.0
  0
SPLINE
  5
1F5
330
1F
100
AcDbEntity
  8
0
  6
Continuous
 62
     7
370
    25
100
AcDbSpline
210
0.0
220
0.0
230
1.0
 70
     8
 71
     3
 72
     8
 73
     4
 74
     0
 42
0.00000001
 43
0.00000001
 40
0.0
 40
0.0
 40
0.0
 40
0.0
 40
1.0
 40
1.0
 40
1.0
 40
1.0
 10
33.93586540408733
 20
72.3889553519726
 30
0.0
 10
33.93586540408733
 20
72.3674216031703
 30
0.0
 10
33.9353886246947
 20
72.34596733801357
 30
0.0
 10
33.93444192464549
 20
72.32459141308605
 30
0.0
  0
SPLINE
  5
1F6
330
1F
100
AcDbEntity
  8
0
  6
Continuous
 62
     7
370
    25
100
AcDbSpline
210
0.0
220
0.0
230
1.0
 70
     8
 71
     3
 72
     8
 73
     4
 74
     0
 42
0.00000001
 43
0.00000001
 40
0.0
 40
0.0
 40
0.0
 40
0.0
 40
0.0000524698222113
 40
0.0000524698222113
 40
0.0000524698222113
 40
0.0000524698222113
 10
33.88217635358047
 20
72.32145896945366
 30
0.0
 10
33.89948266543507
 20
72.32258679866978
 30
0.0
 10
33.91697848967576
 20
72.32362888205392
 30
0.0
 10
33.93444192464797
 20
72.32459141308564
 30
0.0
  0
SPLINE
  5
1F7
330
1F
100
AcDbEntity
  8
0
  6
Continuous
 62
     7
370
    25
100
AcDbSpline
210
0.0
220
0.0
230
1.0
 70
     8
 71
     3
 72
    10
 73
     6
 74
     0
 42
0.00000001
 43
0.00000001
 40
0.0
 40
0.0
 40
0.0
 40
0.0
 40
0.5
 40
0.5
 40
1.0
 40
1.0
 40
1.0
 40
1.0
 10
33.88217635358047
 20
72.32145896945366
 30
0.0
 10
33.82254762397876
 20
72.31757304483114
 30
0.0
 10
33.77237333217198
 20
72.2838373953266
 30
0.0
 10
33.69230822643121
 20
72.20622924105895
 30
0.0
 10
33.65959343701599
 20
72.16168712562472
 30
0.0
 10
33.62748419725657
 20
72.11628761431376
 30
0.0
  0
LINE
  5
1F8
330
1F
100
AcDbEntity
  8
0
  6
Continuous
 62
     7
370
    25
100
AcDbLine
 10
33.9358654041
 20
93.2602274742
 30
0.0
 11
33.9358654041
 21
92.9240963514
 31
0.0
  0
LINE
  5
1F9
330
1F
100
AcDbEntity
  8
0
  6
Continuous
 62
     7
370
    25
100
AcDbLine
 10
52.1358654041
 20
92.9240963514
 30
0.0
 11
52.1358654041
 21
93.2602274742
 31
0.0
  0
LINE
  5
1FA
330
1F
100
AcDbEntity
  8
0
  6
Continuous
 62
     7
370
    25
100
AcDbLine
 10
52.1358654041
 20
72.388955352
 30
0.0
 11
52.1358654041
 21
72.7250864747
 31
0.0
  0
LINE
  5
1FB
330
1F
100
AcDbEntity
  8
0
  6
Continuous
 62
     7
370
    25
100
AcDbLine
 10
33.9358654041
 20
72.7250864747
 30
0.0
 11
33.9358654041
 21
72.388955352
 31
0.0
  0
LINE
  5
1FC
330
1F
100
AcDbEntity
  8
0
  6
Continuous
 62
     7
370
    25
100
AcDbLine
 10
33.9358654041
 20
92.9240963514
 30
0.0
 11
52.1358654041
 21
92.9240963514
 31
0.0
  0
LINE
  5
1FD
330
1F
100
AcDbEntity
  8
0
  6
Continuous
 62
     7
370
    25
100
AcDbLine
 10
52.1358654041
 20
72.7250864747
 30
0.0
 11
33.9358654041
 21
72.7250864747
 31
0.0
  0
ARC
  5
1FE
330
1F
100
AcDbEntity
  8
0
  6
Continuous
 62
     7
370
    25
100
AcDbCircle
 10
32.879938653
 20
93.4492854897
 30
0.0
 40
1.009582903481433
100
AcDbArc
 50
353.0843628813
 51
21.823186216
  0
SPLINE
  5
1FF
330
1F
100
AcDbEntity
  8
0
  6
Continuous
 62
     7
370
    25
100
AcDbSpline
210
0.0
220
0.0
230
1.0
 70
     8
 71
     3
 72
    16
 73
    12
 74
     0
 42
0.00000001
 43
0.00000001
 40
0.0
 40
0.0
 40
0.0
 40
0.0
 40
0.0761065009119658
 40
0.1494790931191914
 40
0.2974911001276648
 40
0.43372190704806
 40
0.5582000385649448
 40
0.6744773661246064
 40
0.7859690394832595
 40
0.8939353462389478
 40
1.0
 40
1.0
 40
1.0
 40
1.0
 10
33.64234512019723
 20
93.85018628963819
 30
0.0
 10
33.6497614912339
 20
93.84608944727162
 30
0.0
 10
33.66432782135698
 20
93.838042929901
 30
0.0
 10
33.68654660967953
 20
93.81762650874386
 30
0.0
 10
33.70390011784151
 20
93.78736219940113
 30
0.0
 10
33.71020485577026
 20
93.74539956941632
 30
0.0
 10
33.70610944075703
 20
93.70211928158906
 30
0.0
 10
33.69458149140681
 20
93.65893372875848
 30
0.0
 10
33.67715858817739
 20
93.61627186802883
 30
0.0
 10
33.65514117995536
 20
93.57420729394077
 30
0.0
 10
33.63664842245297
 20
93.54658409570102
 30
0.0
 10
33.62748419725471
 20
93.53289521185916
 30
0.0
  0
SPLINE
  5
200
330
1F
100
AcDbEntity
  8
0
  6
Continuous
 62
     7
370
    25
100
AcDbSpline
210
0.0
220
0.0
230
1.0
 70
     8
 71
     3
 72
     8
 73
     4
 74
     0
 42
0.00000001
 43
0.00000001
 40
0.0
 40
0.0
 40
0.0
 40
0.0
 40
1.0
 40
1.0
 40
1.0
 40
1.0
 10
33.81717026950081
 20
93.82459141308551
 30
0.0
 10
33.74477029934172
 20
93.8245914130855
 30
0.0
 10
33.69034008175296
 20
93.83757165660676
 30
0.0
 10
33.64234512019287
 20
93.85018628963245
 30
0.0
  0
ARC
  5
201
330
1F
100
AcDbEntity
  8
0
  6
Continuous
 62
     7
370
    25
100
AcDbCircle
 10
53.1917921551
 20
72.1998973364
 30
0.0
 40
1.009582903495384
100
AcDbArc
 50
173.0843628815
 51
201.8231862158
  0
SPLINE
  5
202
330
1F
100
AcDbEntity
  8
0
  6
Continuous
 62
     7
370
    25
100
AcDbSpline
210
0.0
220
0.0
230
1.0
 70
     8
 71
     3
 72
    16
 73
    12
 74
     0
 42
0.00000001
 43
0.00000001
 40
0.0
 40
0.0
 40
0.0
 40
0.0
 40
0.0761065009127368
 40
0.149479093119197
 40
0.2974911001276658
 40
0.4337219070480748
 40
0.5582000385649541
 40
0.6744773661246137
 40
0.7859690394832728
 40
0.8939353462389598
 40
1.0
 40
1.0
 40
1.0
 40
1.0
 10
52.42938568797745
 20
71.79899653653281
 30
0.0
 10
52.4219693169407
 20
71.80309337889942
 30
0.0
 10
52.40740298681757
 20
71.81113989627006
 30
0.0
 10
52.38518419849514
 20
71.83155631742721
 30
0.0
 10
52.36783069033316
 20
71.86182062676988
 30
0.0
 10
52.36152595240441
 20
71.90378325675469
 30
0.0
 10
52.36562136741764
 20
71.94706354458195
 30
0.0
 10
52.37714931676788
 20
71.99024909741252
 30
0.0
 10
52.39457221999728
 20
72.03291095814218
 30
0.0
 10
52.41658962821931
 20
72.07497553223023
 30
0.0
 10
52.43508238572169
 20
72.10259873046999
 30
0.0
 10
52.44424661091996
 20
72.11628761431184
 30
0.0
  0
SPLINE
  5
203
330
1F
100
AcDbEntity
  8
0
  6
Continuous
 62
     7
370
    25
100
AcDbSpline
210
0.0
220
0.0
230
1.0
 70
     8
 71
     3
 72
     8
 73
     4
 74
     0
 42
0.00000001
 43
0.00000001
 40
0.0
 40
0.0
 40
0.0
 40
0.0
 40
1.0
 40
1.0
 40
1.0
 40
1.0
 10
52.25456053867386
 20
71.8245914130855
 30
0.0
 10
52.32696050883293
 20
71.8245914130855
 30
0.0
 10
52.38139072642188
 20
71.8116111695642
 30
0.0
 10
52.4293856879818
 20
71.79899653653855
 30
0.0
  0
ARC
  5
204
330
1F
100
AcDbEntity
  8
0
  6
Continuous
 62
     7
370
    25
100
AcDbCircle
 10
53.1917921551
 20
93.4492854897
 30
0.0
 40
1.009582903458206
100
AcDbArc
 50
158.1768137837
 51
186.9156371192
  0
SPLINE
  5
205
330
1F
100
AcDbEntity
  8
0
  6
Continuous
 62
     7
370
    25
100
AcDbSpline
210
0.0
220
0.0
230
1.0
 70
     8
 71
     3
 72
     8
 73
     4
 74
     0
 42
0.00000001
 43
0.00000001
 40
0.0
 40
0.0
 40
0.0
 40
0.0
 40
1.0
 40
1.0
 40
1.0
 40
1.0
 10
52.25456053866878
 20
93.82459141308551
 30
0.0
 10
52.32696050883039
 20
93.82459141308446
 30
0.0
 10
52.38139072642062
 20
93.83757165660647
 30
0.0
 10
52.42938568798181
 20
93.85018628963246
 30
0.0
  0
SPLINE
  5
206
330
1F
100
AcDbEntity
  8
0
  6
Continuous
 62
     7
370
    25
100
AcDbSpline
210
0.0
220
0.0
230
1.0
 70
     8
 71
     3
 72
    20
 73
    16
 74
     0
 42
0.00000001
 43
0.00000001
 40
0.0
 40
0.0
 40
0.0
 40
0.0
 40
0.1060317657589631
 40
0.2138409733617976
 40
0.268906061948247
 40
0.3251014539057976
 40
0.382786348557697
 40
0.4420118601150135
 40
0.5669442188443142
 40
0.6333957081061092
 40
0.703032338607854
 40
0.7761748201543405
 40
0.8511692721701473
 40
0.9263894086762869
 40
1.0
 40
1.0
 40
1.0
 40
1.0
 10
52.44424661091796
 20
93.53289521185633
 30
0.0
 10
52.43508041626086
 20
93.54658559140921
 30
0.0
 10
52.41659437131511
 20
93.57419584639578
 30
0.0
 10
52.39841257325868
 20
93.60896540231946
 30
0.0
 10
52.38611242207705
 20
93.63691956816315
 30
0.0
 10
52.37815367420122
 20
93.65821202019416
 30
0.0
 10
52.37162692544806
 20
93.67963615470582
 30
0.0
 10
52.36496899429486
 20
93.70882855286068
 30
0.0
 10
52.36226751209879
 20
93.73762441496585
 30
0.0
 10
52.36452170342412
 20
93.76522361706687
 30
0.0
 10
52.36939779111221
 20
93.78579124163716
 30
0.0
 10
52.37800419039858
 20
93.805269091919
 30
0.0
 10
52.39087801567604
 20
93.82289744977737
 30
0.0
 10
52.4076476458528
 20
93.8382292367198
 30
0.0
 10
52.42219210478358
 20
93.8462294450233
 30
0.0
 10
52.42938568797698
 20
93.85018628963813
 30
0.0
  0
ARC
  5
207
330
1F
100
AcDbEntity
  8
0
  6
Continuous
 62
     7
370
    25
100
AcDbCircle
 10
32.879938653
 20
72.1998973364
 30
0.0
 40
1.009582903518073
100
AcDbArc
 50
338.1768137846
 51
6.9156371183
  0
SPLINE
  5
208
330
1F
100
AcDbEntity
  8
0
  6
Continuous
 62
     7
370
    25
100
AcDbSpline
210
0.0
220
0.0
230
1.0
 70
     8
 71
     3
 72
     8
 73
     4
 74
     0
 42
0.00000001
 43
0.00000001
 40
0.0
 40
0.0
 40
0.0
 40
0.0
 40
1.0
 40
1.0
 40
1.0
 40
1.0
 10
33.81717026950589
 20
71.8245914130855
 30
0.0
 10
33.74477029934429
 20
71.82459141308654
 30
0.0
 10
33.69034008175405
 20
71.81161116956454
 30
0.0
 10
33.64234512019286
 20
71.79899653653855
 30
0.0
  0
SPLINE
  5
209
330
1F
100
AcDbEntity
  8
0
  6
Continuous
 62
     7
370
    25
100
AcDbSpline
210
0.0
220
0.0
230
1.0
 70
     8
 71
     3
 72
    20
 73
    16
 74
     0
 42
0.00000001
 43
0.00000001
 40
0.0
 40
0.0
 40
0.0
 40
0.0
 40
0.1060317657589072
 40
0.2138409733617611
 40
0.2689060619482261
 40
0.3251014539057803
 40
0.3827863485576709
 40
0.4420118601149838
 40
0.5669442188442908
 40
0.6333957081060815
 40
0.7030323386078302
 40
0.7761748201543358
 40
0.8511692721701356
 40
0.92638940867628
 40
1.0
 40
1.0
 40
1.0
 40
1.0
 10
33.62748419725671
 20
72.11628761431467
 30
0.0
 10
33.6366503919138
 20
72.1025972347618
 30
0.0
 10
33.65513643685954
 20
72.07498697977525
 30
0.0
 10
33.67331823491599
 20
72.04021742385157
 30
0.0
 10
33.6856183860976
 20
72.01226325800786
 30
0.0
 10
33.69357713397343
 20
71.99097080597686
 30
0.0
 10
33.70010388272662
 20
71.96954667146522
 30
0.0
 10
33.7067618138798
 20
71.94035427331032
 30
0.0
 10
33.70946329607587
 20
71.91155841120516
 30
0.0
 10
33.70720910475056
 20
71.88395920910416
 30
0.0
 10
33.70233301706246
 20
71.86339158453386
 30
0.0
 10
33.69372661777609
 20
71.84391373425201
 30
0.0
 10
33.68085279249863
 20
71.82628537639364
 30
0.0
 10
33.66408316232187
 20
71.8109535894512
 30
0.0
 10
33.64953870339109
 20
71.8029533811477
 30
0.0
 10
33.64234512019769
 20
71.79899653653288
 30
0.0
  0
LINE
  5
20A
330
1F
100
AcDbEntity
  8
0
  6
Continuous
 62
     7
370
    25
100
AcDbLine
 10
33.6423451202
 20
93.8501862896
 30
0.0
 11
33.5588871227
 21
93.84807711
 31
0.0
  0
LINE
  5
20B
330
1F
100
AcDbEntity
  8
0
  6
Continuous
 62
     7
370
    25
100
AcDbLine
 10
52.5128436855
 20
71.8011057162
 30
0.0
 11
52.429385688
 21
71.7989965365
 31
0.0
  0
LINE
  5
20C
330
1F
100
AcDbEntity
  8
0
  6
Continuous
 62
     7
370
    25
100
AcDbLine
 10
52.5128436855
 20
93.84807711
 30
0.0
 11
52.429385688
 21
93.8501862896
 31
0.0
  0
LINE
  5
20D
330
1F
100
AcDbEntity
  8
0
  6
Continuous
 62
     7
370
    25
100
AcDbLine
 10
33.6423451202
 20
71.7989965365
 30
0.0
 11
33.5588871227
 21
71.8011057162
 31
0.0
  0
SPLINE
  5
20E
330
1F
100
AcDbEntity
  8
0
  6
Continuous
 62
     7
370
    25
100
AcDbSpline
210
0.0
220
0.0
230
1.0
 70
    24
 71
     3
 72
     8
 73
     4
 74
     0
 42
0.00000001
 43
0.00000001
 40
0.0
 40
0.0
 40
0.0
 40
0.0
 40
0.0001175213404591
 40
0.0001175213404591
 40
0.0001175213404591
 40
0.0001175213404591
 10
33.81717026950081
 20
93.82459141308551
 30
0.0
 10
33.85601154510747
 20
93.82459141308551
 30
0.0
 10
33.8952681444935
 20
93.82459141308551
 30
0.0
 10
33.93444192464652
 20
93.82459141308551
 30
0.0
  0
LINE
  5
20F
330
1F
100
AcDbEntity
  8
0
  6
Continuous
 62
     7
370
    25
100
AcDbLine
 10
33.9344419246
 20
93.3245914131
 30
0.0
 11
33.9344419246
 21
93.8245914131
 31
0.0
  0
SPLINE
  5
210
330
1F
100
AcDbEntity
  8
0
  6
Continuous
 62
     7
370
    25
100
AcDbSpline
210
0.0
220
0.0
230
1.0
 70
    24
 71
     3
 72
     8
 73
     4
 74
     0
 42
0.00000001
 43
0.00000001
 40
0.0
 40
0.0
 40
0.0
 40
0.0
 40
0.0001175213404591
 40
0.0001175213404591
 40
0.0001175213404591
 40
0.0001175213404591
 10
52.25456053867386
 20
71.8245914130855
 30
0.0
 10
52.21571926306719
 20
71.8245914130855
 30
0.0
 10
52.17646266368116
 20
71.8245914130855
 30
0.0
 10
52.13728888352814
 20
71.8245914130855
 30
0.0
  0
LINE
  5
211
330
1F
100
AcDbEntity
  8
0
  6
Continuous
 62
     7
370
    25
100
AcDbLine
 10
52.1372888835
 20
71.8245914131
 30
0.0
 11
52.1372888835
 21
72.3245914131
 31
0.0
  0
LINE
  5
212
330
1F
100
AcDbEntity
  8
0
  6
Continuous
 62
     7
370
    25
100
AcDbLine
 10
52.1372888835
 20
93.3245914131
 30
0.0
 11
52.1372888835
 21
93.8245914131
 31
0.0
  0
SPLINE
  5
213
330
1F
100
AcDbEntity
  8
0
  6
Continuous
 62
     7
370
    25
100
AcDbSpline
210
0.0
220
0.0
230
1.0
 70
    24
 71
     3
 72
     8
 73
     4
 74
     0
 42
0.00000001
 43
0.00000001
 40
0.0
 40
0.0
 40
0.0
 40
0.0
 40
0.0001175213404538
 40
0.0001175213404538
 40
0.0001175213404538
 40
0.0001175213404538
 10
52.13728888352808
 20
93.82459141308551
 30
0.0
 10
52.17646266367934
 20
93.82459141308551
 30
0.0
 10
52.2157192630636
 20
93.82459141308551
 30
0.0
 10
52.25456053866855
 20
93.82459141308551
 30
0.0
  0
SPLINE
  5
214
330
1F
100
AcDbEntity
  8
0
  6
Continuous
 62
     7
370
    25
100
AcDbSpline
210
0.0
220
0.0
230
1.0
 70
    24
 71
     3
 72
     8
 73
     4
 74
     0
 42
0.00000001
 43
0.00000001
 40
0.0
 40
0.0
 40
0.0
 40
0.0
 40
0.0001175213404538
 40
0.0001175213404538
 40
0.0001175213404538
 40
0.0001175213404538
 10
33.93444192464658
 20
71.8245914130855
 30
0.0
 10
33.89526814449533
 20
71.8245914130855
 30
0.0
 10
33.85601154511107
 20
71.8245914130855
 30
0.0
 10
33.81717026950611
 20
71.8245914130855
 30
0.0
  0
LINE
  5
215
330
1F
100
AcDbEntity
  8
0
  6
Continuous
 62
     7
370
    25
100
AcDbLine
 10
33.9344419246
 20
71.8245914131
 30
0.0
 11
33.9344419246
 21
72.3245914131
 31
0.0
  0
LINE
  5
216
330
1F
100
AcDbEntity
  8
0
  6
Continuous
 62
     7
370
    25
100
AcDbLine
 10
52.1372888835
 20
93.3245914131
 30
0.0
 11
33.9344419246
 21
93.3245914131
 31
0.0
  0
LINE
  5
217
330
1F
100
AcDbEntity
  8
0
  6
Continuous
 62
     7
370
    25
100
AcDbLine
 10
33.9344419246
 20
93.8245914131
 30
0.0
 11
52.1372888835
 21
93.8245914131
 31
0.0
  0
LINE
  5
218
330
1F
100
AcDbEntity
  8
0
  6
Continuous
 62
     7
370
    25
100
AcDbLine
 10
33.9344419246
 20
72.3245914131
 30
0.0
 11
52.1372888835
 21
72.3245914131
 31
0.0
  0
LINE
  5
219
330
1F
100
AcDbEntity
  8
0
  6
Continuous
 62
     7
370
    25
100
AcDbLine
 10
52.1372888835
 20
71.8245914131
 30
0.0
 11
33.9344419246
 21
71.8245914131
 31
0.0
  0
SPLINE
  5
21A
330
1F
100
AcDbEntity
  8
0
  6
Continuous
 62
     7
370
    25
100
AcDbSpline
210
0.0
220
0.0
230
1.0
 70
     8
 71
     3
 72
    18
 73
    14
 74
     0
 42
0.00000001
 43
0.00000001
 40
0.0
 40
0.0
 40
0.0
 40
0.0
 40
0.0228877262659284
 40
0.0487507054349101
 40
0.0778154834700411
 40
0.1102364830155919
 40
0.1666044227654431
 40
0.231774208579201
 40
0.3567811110102737
 40
0.4838932701832798
 40
0.741382445805996
 40
0.8641064613662746
 40
1.0
 40
1.0
 40
1.0
 40
1.0
 10
52.4293856879788
 20
93.85018628963857
 30
0.0
 10
52.43554915390384
 20
93.85363273255483
 30
0.0
 10
52.44867729552345
 20
93.86097363315181
 30
0.0
 10
52.46353919915601
 20
93.87293055463195
 30
0.0
 10
52.47684203823169
 20
93.88625246298682
 30
0.0
 10
52.49052479290372
 20
93.90402698388586
 30
0.0
 10
52.50314782705581
 20
93.92672427802204
 30
0.0
 10
52.51653886766606
 20
93.96193705698994
 30
0.0
 10
52.52575614464733
 20
94.00503972017324
 30
0.0
 10
52.53322526666532
 20
94.07008233434958
 30
0.0
 10
52.5352771411708
 20
94.12878823161044
 30
0.0
 10
52.53601130165648
 20
94.18311459352827
 30
0.0
 10
52.53593794482538
 20
94.20788433743046
 30
0.0
 10
52.53589939864319
 20
94.22089988140777
 30
0.0
  0
LINE
  5
21B
330
1F
100
AcDbEntity
  8
0
  6
Continuous
 62
     7
370
    25
100
AcDbLine
 10
52.7787586229
 20
94.4563056392
 30
0.0
 11
52.5358993986
 21
94.2208998814
 31
0.0
  0
SPLINE
  5
21C
330
1F
100
AcDbEntity
  8
0
  6
Continuous
 62
     7
370
    25
100
AcDbSpline
210
0.0
220
0.0
230
1.0
 70
     8
 71
     3
 72
    16
 73
    12
 74
     0
 42
0.00000001
 43
0.00000001
 40
0.0
 40
0.0
 40
0.0
 40
0.0
 40
0.1358424561507865
 40
0.2585567702396487
 40
0.5157338482659685
 40
0.6432966940871401
 40
0.769210278744815
 40
0.8342664723165241
 40
0.890576642411649
 40
0.9515952839414612
 40
1.0
 40
1.0
 40
1.0
 40
1.0
 10
33.53583140953148
 20
94.22089988140829
 30
0.0
 10
33.53579302378542
 20
94.20789036461493
 30
0.0
 10
33.53571996198423
 20
94.18312860205714
 30
0.0
 10
33.5364505136103
 20
94.12884944384776
 30
0.0
 10
33.53851593587778
 20
94.07014180556969
 30
0.0
 10
33.54595573663726
 20
94.00497614037587
 30
0.0
 10
33.55530755498411
 20
93.96170439551919
 30
0.0
 10
33.56863546650299
 20
93.92636233917042
 30
0.0
 10
33.58415177311336
 20
93.89949589669948
 30
0.0
 10
33.60357081244766
 20
93.87420571729847
 30
0.0
 10
33.63045332354942
 20
93.85755287245806
 30
0.0
 10
33.64234512019594
 20
93.85018628963853
 30
0.0
  0
LINE
  5
21D
330
1F
100
AcDbEntity
  8
0
  6
Continuous
 62
     7
370
    25
100
AcDbLine
 10
33.5358314095
 20
94.2208998814
 30
0.0
 11
33.2929721853
 21
94.4563056392
 31
0.0
  0
LINE
  5
21E
330
1F
100
AcDbEntity
  8
0
  6
Continuous
 62
     7
370
    25
100
AcDbLine
 10
52.7787586229
 20
71.1928771869
 30
0.0
 11
52.5358993986
 21
71.4282829448
 31
0.0
  0
SPLINE
  5
21F
330
1F
100
AcDbEntity
  8
0
  6
Continuous
 62
     7
370
    25
100
AcDbSpline
210
0.0
220
0.0
230
1.0
 70
     8
 71
     3
 72
    16
 73
    12
 74
     0
 42
0.00000001
 43
0.00000001
 40
0.0
 40
0.0
 40
0.0
 40
0.0
 40
0.1358424562093261
 40
0.2585567702396716
 40
0.5157338482660032
 40
0.6432966940871808
 40
0.7692102787448635
 40
0.8342664723226236
 40
0.8905766424117051
 40
0.9515952839433239
 40
1.0
 40
1.0
 40
1.0
 40
1.0
 10
52.53589939864319
 20
71.42828294476273
 30
0.0
 10
52.53593778438933
 20
71.4412924615611
 30
0.0
 10
52.53601084619065
 20
71.46605422411776
 30
0.0
 10
52.53528029456398
 20
71.52033338233124
 30
0.0
 10
52.53321487229691
 20
71.57904102060111
 30
0.0
 10
52.52577507153741
 20
71.64420668579517
 30
0.0
 10
52.51642325319033
 20
71.68747843065267
 30
0.0
 10
52.5030953416714
 20
71.72282048700134
 30
0.0
 10
52.48757903506067
 20
71.74968692947262
 30
0.0
 10
52.4681599957257
 20
71.77497710887333
 30
0.0
 10
52.44127748462454
 20
71.79162995371338
 30
0.0
 10
52.42938568797874
 20
71.79899653653247
 30
0.0
  0
SPLINE
  5
220
330
1F
100
AcDbEntity
  8
0
  6
Continuous
 62
     7
370
    25
100
AcDbSpline
210
0.0
220
0.0
230
1.0
 70
     8
 71
     3
 72
    18
 73
    14
 74
     0
 42
0.00000001
 43
0.00000001
 40
0.0
 40
0.0
 40
0.0
 40
0.0
 40
0.0228877262673261
 40
0.048750705436772
 40
0.0778154834714485
 40
0.1102364830156528
 40
0.1666044227785899
 40
0.23177420857927
 40
0.3567811110103338
 40
0.4838932701833289
 40
0.7413824458060223
 40
0.864106461387071
 40
1.0
 40
1.0
 40
1.0
 40
1.0
 10
33.64234512019587
 20
71.79899653653243
 30
0.0
 10
33.63618165427039
 20
71.79555009361593
 30
0.0
 10
33.62305351265017
 20
71.7882091930186
 30
0.0
 10
33.60819160901716
 20
71.77625227153801
 30
0.0
 10
33.59488876994176
 20
71.7629303631832
 30
0.0
 10
33.58120601526991
 20
71.74515584228335
 30
0.0
 10
33.56858298111671
 20
71.722458548146
 30
0.0
 10
33.555191940509
 20
71.68724576917995
 30
0.0
 10
33.54597466352706
 20
71.64414310599753
 30
0.0
 10
33.53850554150952
 20
71.57910049182163
 30
0.0
 10
33.53645366700371
 20
71.52039459455773
 30
0.0
 10
33.53571950651826
 20
71.46606823264138
 30
0.0
 10
33.53579286334931
 20
71.44129848873877
 30
0.0
 10
33.53583140953148
 20
71.42828294476324
 30
0.0
  0
LINE
  5
221
330
1F
100
AcDbEntity
  8
0
  6
Continuous
 62
     7
370
    25
100
AcDbLine
 10
33.5358314095
 20
71.4282829448
 30
0.0
 11
33.2929721853
 21
71.192877187
 31
0.0
  0
ARC
  5
222
330
1F
100
AcDbEntity
  8
0
  6
Continuous
 62
     7
370
    25
100
AcDbCircle
 10
52.1358654041
 20
94.2245914131
 30
0.0
 40
0.3999999999999986
100
AcDbArc
 50
270.0
 51
0.0
  0
SPLINE
  5
223
330
1F
100
AcDbEntity
  8
0
  6
Continuous
 62
     7
370
    25
100
AcDbSpline
210
0.0
220
0.0
230
1.0
 70
     8
 71
     3
 72
     8
 73
     4
 74
     0
 42
0.00000001
 43
0.00000001
 40
0.0
 40
0.0
 40
0.0
 40
0.0
 40
1.0
 40
1.0
 40
1.0
 40
1.0
 10
52.53586540408733
 20
94.2245914130855
 30
0.0
 10
52.53586540408733
 20
94.22336930308798
 30
0.0
 10
52.53587655939344
 20
94.222138777024
 30
0.0
 10
52.53589939864319
 20
94.22089988140777
 30
0.0
  0
ARC
  5
224
330
1F
100
AcDbEntity
  8
0
  6
Continuous
 62
     7
370
    25
100
AcDbCircle
 10
33.9358654041
 20
94.2245914131
 30
0.0
 40
0.3999999999999986
100
AcDbArc
 50
180.0
 51
270.0
  0
SPLINE
  5
225
330
1F
100
AcDbEntity
  8
0
  6
Continuous
 62
     7
370
    25
100
AcDbSpline
210
0.0
220
0.0
230
1.0
 70
     8
 71
     3
 72
     8
 73
     4
 74
     0
 42
0.00000001
 43
0.00000001
 40
0.0
 40
0.0
 40
0.0
 40
0.0
 40
1.0
 40
1.0
 40
1.0
 40
1.0
 10
33.53583140953148
 20
94.22089988140829
 30
0.0
 10
33.53585424739007
 20
94.22213870156217
 30
0.0
 10
33.53586540408733
 20
94.22336922958915
 30
0.0
 10
33.53586540408733
 20
94.2245914130855
 30
0.0
  0
ARC
  5
226
330
1F
100
AcDbEntity
  8
0
  6
Continuous
 62
     7
370
    25
100
AcDbCircle
 10
33.9358654041
 20
71.4245914131
 30
0.0
 40
0.3999999999999986
100
AcDbArc
 50
90.0
 51
180.0
  0
SPLINE
  5
227
330
1F
100
AcDbEntity
  8
0
  6
Continuous
 62
     7
370
    25
100
AcDbSpline
210
0.0
220
0.0
230
1.0
 70
     8
 71
     3
 72
     8
 73
     4
 74
     0
 42
0.00000001
 43
0.00000001
 40
0.0
 40
0.0
 40
0.0
 40
0.0
 40
1.0
 40
1.0
 40
1.0
 40
1.0
 10
33.53586540408733
 20
71.42459141308551
 30
0.0
 10
33.53586540408733
 20
71.42581352308302
 30
0.0
 10
33.53585424878123
 20
71.42704404914701
 30
0.0
 10
33.53583140953148
 20
71.42828294476324
 30
0.0
  0
ARC
  5
228
330
1F
100
AcDbEntity
  8
0
  6
Continuous
 62
     7
370
    25
100
AcDbCircle
 10
52.1358654041
 20
71.4245914131
 30
0.0
 40
0.3999999999999986
100
AcDbArc
 50
0.0
 51
90.0
  0
SPLINE
  5
229
330
1F
100
AcDbEntity
  8
0
  6
Continuous
 62
     7
370
    25
100
AcDbSpline
210
0.0
220
0.0
230
1.0
 70
     8
 71
     3
 72
     8
 73
     4
 74
     0
 42
0.00000001
 43
0.00000001
 40
0.0
 40
0.0
 40
0.0
 40
0.0
 40
1.0
 40
1.0
 40
1.0
 40
1.0
 10
52.53589939864319
 20
71.42828294476273
 30
0.0
 10
52.53587656078459
 20
71.42704412460884
 30
0.0
 10
52.53586540408733
 20
71.42581359658185
 30
0.0
 10
52.53586540408733
 20
71.42459141308551
 30
0.0
  0
LINE
  5
22A
330
1F
100
AcDbEntity
  8
0
  6
Continuous
 62
     7
370
    25
100
AcDbLine
 10
52.5358993986
 20
94.2208998814
 30
0.0
 11
52.5358993986
 21
94.5817321888
 31
0.0
  0
LINE
  5
22B
330
1F
100
AcDbEntity
  8
0
  6
Continuous
 62
     7
370
    25
100
AcDbLine
 10
33.5358314095
 20
71.4282829448
 30
0.0
 11
33.5358314095
 21
71.0674506373
 31
0.0
  0
LINE
  5
22C
330
1F
100
AcDbEntity
  8
0
  6
Continuous
 62
     7
370
    25
100
AcDbLine
 10
33.5358314095
 20
94.5817321888
 30
0.0
 11
33.5358314095
 21
94.2208998814
 31
0.0
  0
LINE
  5
22D
330
1F
100
AcDbEntity
  8
0
  6
Continuous
 62
     7
370
    25
100
AcDbLine
 10
52.5358993986
 20
71.0674506373
 30
0.0
 11
52.5358993986
 21
71.4282829448
 31
0.0
  0
LINE
  5
22E
330
1F
100
AcDbEntity
  8
0
  6
Continuous
 62
     7
370
    25
100
AcDbLine
 10
52.5358654041
 20
94.2245914131
 30
0.0
 11
52.5358654041
 21
94.5745914131
 31
0.0
  0
LINE
  5
22F
330
1F
100
AcDbEntity
  8
0
  6
Continuous
 62
     7
370
    25
100
AcDbLine
 10
33.5358654041
 20
71.4245914131
 30
0.0
 11
33.5358654041
 21
71.0745914131
 31
0.0
  0
LINE
  5
230
330
1F
100
AcDbEntity
  8
0
  6
Continuous
 62
     7
370
    25
100
AcDbLine
 10
33.5358654041
 20
94.5745914131
 30
0.0
 11
33.5358654041
 21
94.2245914131
 31
0.0
  0
LINE
  5
231
330
1F
100
AcDbEntity
  8
0
  6
Continuous
 62
     7
370
    25
100
AcDbLine
 10
52.5358654041
 20
71.0745914131
 30
0.0
 11
52.5358654041
 21
71.4245914131
 31
0.0
  0
SPLINE
  5
232
330
1F
100
AcDbEntity
  8
0
  6
Continuous
 62
     7
370
    25
100
AcDbSpline
210
0.0
220
0.0
230
1.0
 70
     8
 71
     3
 72
    15
 73
    11
 74
     0
 42
0.00000001
 43
0.00000001
 40
0.0
 40
0.0
 40
0.0
 40
0.0
 40
0.0090459071881971
 40
0.1032433785236876
 40
0.1542564497735193
 40
0.3133169026715103
 40
0.524372039941443
 40
0.6678060008509185
 40
0.9918332554187027
 40
0.9999999999999999
 40
0.9999999999999999
 40
0.9999999999999999
 40
0.9999999999999999
 10
37.79678007142923
 20
84.49850445656377
 30
0.0
 10
37.79678576339589
 20
84.4984868108393
 30
0.0
 10
37.79685072734667
 20
84.49828541542675
 30
0.0
 10
37.79884641378258
 20
84.49209579476057
 30
0.0
 10
37.80666340999903
 20
84.46789386291641
 30
0.0
 10
37.82383323375399
 20
84.41487487091474
 30
0.0
 10
37.85041713032153
 20
84.33350398371817
 30
0.0
 10
37.88824642881016
 20
84.21892491169568
 30
0.0
 10
37.91652720882042
 20
84.13449973397654
 30
0.0
 10
37.93635835635168
 20
84.07602887602452
 30
0.0
 10
37.93684589049455
 20
84.0745914130855
 30
0.0
  0
ARC
  5
233
330
1F
100
AcDbEntity
  8
0
  6
Continuous
 62
     7
370
    25
100
AcDbCircle
 10
43.0358654041
 20
82.8245914131
 30
0.0
 40
5.499999999999997
100
AcDbArc
 50
17.7189318734
 51
162.2810681266
  0
SPLINE
  5
234
330
1F
100
AcDbEntity
  8
0
  6
Continuous
 62
     7
370
    25
100
AcDbSpline
210
0.0
220
0.0
230
1.0
 70
     8
 71
     3
 72
    15
 73
    11
 74
     0
 42
0.00000001
 43
0.00000001
 40
0.0
 40
0.0
 40
0.0
 40
0.0
 40
0.0081667445812973
 40
0.3321939991490807
 40
0.4756279600585565
 40
0.6866830973284899
 40
0.8457435502264806
 40
0.8967566214763123
 40
0.9909540928118028
 40
0.9999999999999999
 40
0.9999999999999999
 40
0.9999999999999999
 40
0.9999999999999999
 10
48.13488491768012
 20
84.0745914130855
 30
0.0
 10
48.13537245182299
 20
84.07602887602452
 30
0.0
 10
48.15520359935426
 20
84.13449973397654
 30
0.0
 10
48.1834843793645
 20
84.21892491169568
 30
0.0
 10
48.22131367785314
 20
84.33350398371817
 30
0.0
 10
48.24789757442068
 20
84.41487487091474
 30
0.0
 10
48.26506739817563
 20
84.46789386291641
 30
0.0
 10
48.2728843943921
 20
84.49209579476057
 30
0.0
 10
48.27488008082798
 20
84.49828541542675
 30
0.0
 10
48.27494504477878
 20
84.4984868108393
 30
0.0
 10
48.27495073674544
 20
84.49850445656377
 30
0.0
  0
ARC
  5
235
330
1F
100
AcDbEntity
  8
0
  6
Continuous
 62
     7
370
    25
100
AcDbCircle
 10
43.0358654041
 20
82.8245914131
 30
0.0
 40
5.250000000000002
100
AcDbArc
 50
13.774146998
 51
166.225853002
  0
SPLINE
  5
236
330
1F
100
AcDbEntity
  8
0
  6
Continuous
 62
     7
370
    25
100
AcDbSpline
210
0.0
220
0.0
230
1.0
 70
     8
 71
     3
 72
    15
 73
    11
 74
     0
 42
0.00000001
 43
0.00000001
 40
0.0
 40
0.0
 40
0.0
 40
0.0
 40
0.0080847466189581
 40
0.3310106400648243
 40
0.4750333064304945
 40
0.6874363079215134
 40
0.8468367539418247
 40
0.9000996640391788
 40
0.991044277198408
 40
1.0
 40
1.0
 40
1.0
 40
1.0
 10
37.93684589049455
 20
84.0745914130855
 30
0.0
 10
37.93556605895043
 20
84.07540734907379
 30
0.0
 10
37.88316641322722
 20
84.10881389926831
 30
0.0
 10
37.80781132177207
 20
84.15762746400213
 30
0.0
 10
37.70589220975442
 20
84.22499793627047
 30
0.0
 10
37.63350126476249
 20
84.2735819766139
 30
0.0
 10
37.58579583649767
 20
84.30603083807245
 30
0.0
 10
37.56426035279036
 20
84.32074187913872
 30
0.0
 10
37.55883133677085
 20
84.32446033005685
 30
0.0
 10
37.55865558461428
 20
84.32458062872234
 30
0.0
 10
37.55863982903567
 20
84.3245914130855
 30
0.0
  0
ARC
  5
237
330
1F
100
AcDbEntity
  8
0
  6
Continuous
 62
     7
370
    25
100
AcDbCircle
 10
37.558639829
 20
84.5745914131
 30
0.0
 40
0.2500000000000034
100
AcDbArc
 50
270.0
 51
342.2810681266
  0
SPLINE
  5
238
330
1F
100
AcDbEntity
  8
0
  6
Continuous
 62
     7
370
    25
100
AcDbSpline
210
0.0
220
0.0
230
1.0
 70
     8
 71
     3
 72
    15
 73
    11
 74
     0
 42
0.00000001
 43
0.00000001
 40
0.0
 40
0.0
 40
0.0
 40
0.0
 40
0.0089557228015919
 40
0.099900335960821
 40
0.1531632460581753
 40
0.3125636920784863
 40
0.5249666935695054
 40
0.6689893599351772
 40
0.991915253381045
 40
1.0
 40
1.0
 40
1.0
 40
1.0
 10
48.51309097913899
 20
84.3245914130855
 30
0.0
 10
48.51307522356039
 20
84.32458062872234
 30
0.0
 10
48.51289947140383
 20
84.32446033005685
 30
0.0
 10
48.5074704553843
 20
84.32074187913872
 30
0.0
 10
48.48593497167699
 20
84.30603083807245
 30
0.0
 10
48.43822954341217
 20
84.2735819766139
 30
0.0
 10
48.36583859842025
 20
84.22499793627047
 30
0.0
 10
48.26391948640257
 20
84.15762746400215
 30
0.0
 10
48.18856439494755
 20
84.10881389926823
 30
0.0
 10
48.13616474922424
 20
84.07540734907379
 30
0.0
 10
48.13488491768012
 20
84.0745914130855
 30
0.0
  0
ARC
  5
239
330
1F
100
AcDbEntity
  8
0
  6
Continuous
 62
     7
370
    25
100
AcDbCircle
 10
48.5130909791
 20
84.5745914131
 30
0.0
 40
0.2500000000000034
100
AcDbArc
 50
197.7189318734
 51
270.0
  0
SPLINE
  5
23A
330
1F
100
AcDbEntity
  8
0
  6
Continuous
 62
     7
370
    25
100
AcDbSpline
210
0.0
220
0.0
230
1.0
 70
     8
 71
     3
 72
    15
 73
    11
 74
     0
 42
0.00000001
 43
0.00000001
 40
0.0
 40
0.0
 40
0.0
 40
0.0
 40
0.0081667445812695
 40
0.3321939991490083
 40
0.4756279600585602
 40
0.6866830973284899
 40
0.8457435502264811
 40
0.8967566214763185
 40
0.9909540928118029
 40
1.0
 40
1.0
 40
1.0
 40
1.0
 10
37.93684589049455
 20
81.5745914130855
 30
0.0
 10
37.93635835635166
 20
81.57315395014649
 30
0.0
 10
37.91652720881959
 20
81.51468309219479
 30
0.0
 10
37.88824642881032
 20
81.43025791447529
 30
0.0
 10
37.85041713032149
 20
81.31567884245284
 30
0.0
 10
37.823833233754
 20
81.23430795525626
 30
0.0
 10
37.80666340999903
 20
81.18128896325459
 30
0.0
 10
37.79884641378257
 20
81.15708703141044
 30
0.0
 10
37.79685072734669
 20
81.15089741074426
 30
0.0
 10
37.79678576339589
 20
81.1506960153317
 30
0.0
 10
37.79678007142923
 20
81.15067836960723
 30
0.0
  0
ARC
  5
23B
330
1F
100
AcDbEntity
  8
0
  6
Continuous
 62
     7
370
    25
100
AcDbCircle
 10
43.0358654041
 20
82.8245914131
 30
0.0
 40
5.250000000000002
100
AcDbArc
 50
193.774146998
 51
346.225853002
  0
SPLINE
  5
23C
330
1F
100
AcDbEntity
  8
0
  6
Continuous
 62
     7
370
    25
100
AcDbSpline
210
0.0
220
0.0
230
1.0
 70
     8
 71
     3
 72
    15
 73
    11
 74
     0
 42
0.00000001
 43
0.00000001
 40
0.0
 40
0.0
 40
0.0
 40
0.0
 40
0.0090459071881971
 40
0.1032433785236875
 40
0.1542564497735192
 40
0.3133169026715104
 40
0.5243720399414423
 40
0.6678060008509901
 40
0.9918332554187292
 40
1.0
 40
1.0
 40
1.0
 40
1.0
 10
48.27495073674544
 20
81.15067836960723
 30
0.0
 10
48.27494504477878
 20
81.1506960153317
 30
0.0
 10
48.27488008082799
 20
81.15089741074426
 30
0.0
 10
48.2728843943921
 20
81.15708703141044
 30
0.0
 10
48.26506739817564
 20
81.18128896325459
 30
0.0
 10
48.24789757442066
 20
81.23430795525626
 30
0.0
 10
48.22131367785317
 20
81.31567884245284
 30
0.0
 10
48.18348437936434
 20
81.43025791447529
 30
0.0
 10
48.1552035993551
 20
81.51468309219477
 30
0.0
 10
48.135372451823
 20
81.57315395014649
 30
0.0
 10
48.13488491768012
 20
81.5745914130855
 30
0.0
  0
ARC
  5
23D
330
1F
100
AcDbEntity
  8
0
  6
Continuous
 62
     7
370
    25
100
AcDbCircle
 10
43.0358654041
 20
82.8245914131
 30
0.0
 40
5.499999999999997
100
AcDbArc
 50
197.7189318734
 51
342.2810681266
  0
ARC
  5
23E
330
1F
100
AcDbEntity
  8
0
  6
Continuous
 62
     7
370
    25
100
AcDbCircle
 10
48.5130909791
 20
81.0745914131
 30
0.0
 40
0.2500000000000034
100
AcDbArc
 50
90.0
 51
162.2810681266
  0
SPLINE
  5
23F
330
1F
100
AcDbEntity
  8
0
  6
Continuous
 62
     7
370
    25
100
AcDbSpline
210
0.0
220
0.0
230
1.0
 70
     8
 71
     3
 72
    15
 73
    11
 74
     0
 42
0.00000001
 43
0.00000001
 40
0.0
 40
0.0
 40
0.0
 40
0.0
 40
0.0080847466189818
 40
0.3310106400647571
 40
0.4750333064305
 40
0.6874363079215142
 40
0.846836753941831
 40
0.9000996640391852
 40
0.9910442771984082
 40
1.0
 40
1.0
 40
1.0
 40
1.0
 10
48.13488491768012
 20
81.5745914130855
 30
0.0
 10
48.13616474922426
 20
81.57377547709724
 30
0.0
 10
48.18856439494805
 20
81.5403689269036
 30
0.0
 10
48.26391948640248
 20
81.49155536216873
 30
0.0
 10
48.36583859842027
 20
81.42418488990059
 30
0.0
 10
48.43822954341216
 20
81.3756008495571
 30
0.0
 10
48.48593497167699
 20
81.34315198809855
 30
0.0
 10
48.5074704553843
 20
81.32844094703228
 30
0.0
 10
48.51289947140383
 20
81.32472249611416
 30
0.0
 10
48.51307522356039
 20
81.32460219744866
 30
0.0
 10
48.51309097913899
 20
81.3245914130855
 30
0.0
  0
ARC
  5
240
330
1F
100
AcDbEntity
  8
0
  6
Continuous
 62
     7
370
    25
100
AcDbCircle
 10
37.558639829
 20
81.0745914131
 30
0.0
 40
0.2500000000000034
100
AcDbArc
 50
17.7189318734
 51
90.0
  0
SPLINE
  5
241
330
1F
100
AcDbEntity
  8
0
  6
Continuous
 62
     7
370
    25
100
AcDbSpline
210
0.0
220
0.0
230
1.0
 70
     8
 71
     3
 72
    15
 73
    11
 74
     0
 42
0.00000001
 43
0.00000001
 40
0.0
 40
0.0
 40
0.0
 40
0.0
 40
0.0089557228015919
 40
0.0999003359608148
 40
0.153163246058169
 40
0.3125636920784848
 40
0.5249666935694999
 40
0.6689893599352451
 40
0.9919152533810159
 40
1.0
 40
1.0
 40
1.0
 40
1.0
 10
37.55863982903567
 20
81.3245914130855
 30
0.0
 10
37.55865558461428
 20
81.32460219744866
 30
0.0
 10
37.55883133677084
 20
81.32472249611416
 30
0.0
 10
37.56426035279037
 20
81.32844094703228
 30
0.0
 10
37.58579583649767
 20
81.34315198809855
 30
0.0
 10
37.6335012647625
 20
81.3756008495571
 30
0.0
 10
37.7058922097544
 20
81.42418488990059
 30
0.0
 10
37.80781132177218
 20
81.49155536216874
 30
0.0
 10
37.88316641322665
 20
81.54036892690351
 30
0.0
 10
37.93556605895041
 20
81.57377547709723
 30
0.0
 10
37.93684589049455
 20
81.5745914130855
 30
0.0
  0
LINE
  5
242
330
1F
100
AcDbEntity
  8
0
  6
Continuous
 62
     7
370
    25
100
AcDbLine
 10
38.0358654041
 20
82.2245914131
 30
0.0
 11
48.0358654041
 21
82.2245914131
 31
0.0
  0
LINE
  5
243
330
1F
100
AcDbEntity
  8
0
  6
Continuous
 62
     7
370
    25
100
AcDbLine
 10
48.0358654041
 20
82.2245914131
 30
0.0
 11
48.0358654041
 21
83.4245914131
 31
0.0
  0
LINE
  5
244
330
1F
100
AcDbEntity
  8
0
  6
Continuous
 62
     7
370
    25
100
AcDbLine
 10
38.0358654041
 20
83.4245914131
 30
0.0
 11
38.0358654041
 21
82.2245914131
 31
0.0
  0
LINE
  5
245
330
1F
100
AcDbEntity
  8
0
  6
Continuous
 62
     7
370
    25
100
AcDbLine
 10
48.0358654041
 20
83.4245914131
 30
0.0
 11
38.0358654041
 21
83.4245914131
 31
0.0
  0
LINE
  5
246
330
1F
100
AcDbEntity
  8
0
  6
Continuous
 62
     7
370
    25
100
AcDbLine
 10
37.2858654041
 20
81.5745914131
 30
0.0
 11
37.9368458905
 21
81.5745914131
 31
0.0
  0
LINE
  5
247
330
1F
100
AcDbEntity
  8
0
  6
Continuous
 62
     7
370
    25
100
AcDbLine
 10
37.2858654041
 20
84.0745914131
 30
0.0
 11
37.2858654041
 21
81.5745914131
 31
0.0
  0
LINE
  5
248
330
1F
100
AcDbEntity
  8
0
  6
Continuous
 62
     7
370
    25
100
AcDbLine
 10
37.9368458905
 20
84.0745914131
 30
0.0
 11
37.2858654041
 21
84.0745914131
 31
0.0
  0
LINE
  5
249
330
1F
100
AcDbEntity
  8
0
  6
Continuous
 62
     7
370
    25
100
AcDbLine
 10
48.7858654041
 20
84.0745914131
 30
0.0
 11
48.1348849177
 21
84.0745914131
 31
0.0
  0
LINE
  5
24A
330
1F
100
AcDbEntity
  8
0
  6
Continuous
 62
     7
370
    25
100
AcDbLine
 10
48.7858654041
 20
81.5745914131
 30
0.0
 11
48.7858654041
 21
84.0745914131
 31
0.0
  0
LINE
  5
24B
330
1F
100
AcDbEntity
  8
0
  6
Continuous
 62
     7
370
    25
100
AcDbLine
 10
48.1348849177
 20
81.5745914131
 30
0.0
 11
48.7858654041
 21
81.5745914131
 31
0.0
  0
LINE
  5
24C
330
1F
100
AcDbEntity
  8
0
  6
Continuous
 62
     7
370
    25
100
AcDbLine
 10
37.2858654041
 20
84.3245914131
 30
0.0
 11
37.2858654041
 21
84.0745914131
 31
0.0
  0
LINE
  5
24D
330
1F
100
AcDbEntity
  8
0
  6
Continuous
 62
     7
370
    25
100
AcDbLine
 10
37.2858654041
 20
84.3245914131
 30
0.0
 11
37.558639829
 21
84.3245914131
 31
0.0
  0
LINE
  5
24E
330
1F
100
AcDbEntity
  8
0
  6
Continuous
 62
     7
370
    25
100
AcDbLine
 10
48.5130909791
 20
84.3245914131
 30
0.0
 11
48.7858654041
 21
84.3245914131
 31
0.0
  0
LINE
  5
24F
330
1F
100
AcDbEntity
  8
0
  6
Continuous
 62
     7
370
    25
100
AcDbLine
 10
48.7858654041
 20
84.0745914131
 30
0.0
 11
48.7858654041
 21
84.3245914131
 31
0.0
  0
LINE
  5
250
330
1F
100
AcDbEntity
  8
0
  6
Continuous
 62
     7
370
    25
100
AcDbLine
 10
49.0358654041
 20
84.0745914131
 30
0.0
 11
48.7858654041
 21
84.0745914131
 31
0.0
  0
ARC
  5
251
330
1F
100
AcDbEntity
  8
0
  6
Continuous
 62
     7
370
    25
100
AcDbCircle
 10
48.7858654041
 20
84.0745914131
 30
0.0
 40
0.25
100
AcDbArc
 50
0.0
 51
90.0
  0
ARC
  5
252
330
1F
100
AcDbEntity
  8
0
  6
Continuous
 62
     7
370
    25
100
AcDbCircle
 10
37.2858654041
 20
84.0745914131
 30
0.0
 40
0.25
100
AcDbArc
 50
90.0
 51
180.0
  0
LINE
  5
253
330
1F
100
AcDbEntity
  8
0
  6
Continuous
 62
     7
370
    25
100
AcDbLine
 10
37.2858654041
 20
84.0745914131
 30
0.0
 11
37.0358654041
 21
84.0745914131
 31
0.0
  0
LINE
  5
254
330
1F
100
AcDbEntity
  8
0
  6
Continuous
 62
     7
370
    25
100
AcDbLine
 10
37.0358654041
 20
81.5745914131
 30
0.0
 11
37.2858654041
 21
81.5745914131
 31
0.0
  0
LINE
  5
255
330
1F
100
AcDbEntity
  8
0
  6
Continuous
 62
     7
370
    25
100
AcDbLine
 10
37.0358654041
 20
81.5745914131
 30
0.0
 11
37.0358654041
 21
84.0745914131
 31
0.0
  0
LINE
  5
256
330
1F
100
AcDbEntity
  8
0
  6
Continuous
 62
     7
370
    25
100
AcDbLine
 10
49.0358654041
 20
84.0745914131
 30
0.0
 11
49.0358654041
 21
81.5745914131
 31
0.0
  0
LINE
  5
257
330
1F
100
AcDbEntity
  8
0
  6
Continuous
 62
     7
370
    25
100
AcDbLine
 10
48.7858654041
 20
81.5745914131
 30
0.0
 11
49.0358654041
 21
81.5745914131
 31
0.0
  0
LINE
  5
258
330
1F
100
AcDbEntity
  8
0
  6
Continuous
 62
     7
370
    25
100
AcDbLine
 10
48.7858654041
 20
81.3245914131
 30
0.0
 11
48.7858654041
 21
81.5745914131
 31
0.0
  0
ARC
  5
259
330
1F
100
AcDbEntity
  8
0
  6
Continuous
 62
     7
370
    25
100
AcDbCircle
 10
48.7858654041
 20
81.5745914131
 30
0.0
 40
0.25
100
AcDbArc
 50
270.0
 51
0.0
  0
ARC
  5
25A
330
1F
100
AcDbEntity
  8
0
  6
Continuous
 62
     7
370
    25
100
AcDbCircle
 10
37.2858654041
 20
81.5745914131
 30
0.0
 40
0.25
100
AcDbArc
 50
180.0
 51
270.0
  0
LINE
  5
25B
330
1F
100
AcDbEntity
  8
0
  6
Continuous
 62
     7
370
    25
100
AcDbLine
 10
37.2858654041
 20
81.5745914131
 30
0.0
 11
37.2858654041
 21
81.3245914131
 31
0.0
  0
LINE
  5
25C
330
1F
100
AcDbEntity
  8
0
  6
Continuous
 62
     7
370
    25
100
AcDbLine
 10
48.7858654041
 20
81.3245914131
 30
0.0
 11
48.5130909791
 21
81.3245914131
 31
0.0
  0
LINE
  5
25D
330
1F
100
AcDbEntity
  8
0
  6
Continuous
 62
     7
370
    25
100
AcDbLine
 10
37.558639829
 20
81.3245914131
 30
0.0
 11
37.2858654041
 21
81.3245914131
 31
0.0
  0
LINE
  5
25E
330
1F
100
AcDbEntity
  8
0
  6
Continuous
 62
     7
370
    25
100
AcDbLine
 10
63.0358654041
 20
79.552892149
 30
0.0
 11
65.2113022656
 21
79.3245914131
 31
0.0
  0
LINE
  5
25F
330
1F
100
AcDbEntity
  8
0
  6
Continuous
 62
     7
370
    25
100
AcDbLine
 10
63.0358654041
 20
86.0962906771
 30
0.0
 11
63.0358654041
 21
79.552892149
 31
0.0
  0
LINE
  5
260
330
1F
100
AcDbEntity
  8
0
  6
Continuous
 62
     7
370
    25
100
AcDbLine
 10
65.2113022656
 20
86.3245914131
 30
0.0
 11
63.0358654041
 21
86.0962906771
 31
0.0
  0
LINE
  5
261
330
1F
100
AcDbEntity
  8
0
  6
Continuous
 62
     7
370
    25
100
AcDbLine
 10
65.2113022656
 20
79.3245914131
 30
0.0
 11
83.0358654041
 21
79.3245914131
 31
0.0
  0
LINE
  5
262
330
1F
100
AcDbEntity
  8
0
  6
Continuous
 62
     7
370
    25
100
AcDbLine
 10
83.0358654041
 20
86.3245914131
 30
0.0
 11
65.2113022656
 21
86.3245914131
 31
0.0
  0
LINE
  5
263
330
1F
100
AcDbEntity
  8
0
  6
Continuous
 62
     7
370
    25
100
AcDbLine
 10
83.0358654041
 20
79.3245914131
 30
0.0
 11
83.0358654041
 21
86.3245914131
 31
0.0
  0
LINE
  5
264
330
1F
100
AcDbEntity
  8
0
  6
Continuous
 62
     7
370
    25
100
AcDbLine
 10
48.2596675784
 20
81.1035769323
 30
0.0
 11
48.3562318958
 21
81.2629762525
 31
0.0
  0
LINE
  5
265
330
1F
100
AcDbEntity
  8
0
  6
Continuous
 62
     7
370
    25
100
AcDbLine
 10
48.3785092764
 20
84.3698090804
 30
0.0
 11
48.2596675784
 21
84.5456058939
 31
0.0
  0
LINE
  5
266
330
1F
100
AcDbEntity
  8
0
  6
Continuous
 62
     7
370
    25
100
AcDbLine
 10
56.4524350577
 20
80.2437887775
 30
0.0
 11
56.4524350577
 21
85.4053940487
 31
0.0
  0
LINE
  5
267
330
1F
100
AcDbEntity
  8
0
  6
Continuous
 62
     7
370
    25
100
AcDbLine
 10
56.4524350577
 20
80.2437887775
 30
0.0
 11
48.2596675784
 21
81.1035769323
 31
0.0
  0
LINE
  5
268
330
1F
100
AcDbEntity
  8
0
  6
Continuous
 62
     7
370
    25
100
AcDbLine
 10
48.2596675784
 20
84.5456058939
 30
0.0
 11
56.4524350577
 21
85.4053940487
 31
0.0
  0
LINE
  5
269
330
1F
100
AcDbEntity
  8
0
  6
Continuous
 62
     7
370
    25
100
AcDbLine
 10
63.0358654041
 20
79.552892149
 30
0.0
 11
56.4524350577
 21
80.2437887775
 31
0.0
  0
LINE
  5
26A
330
1F
100
AcDbEntity
  8
0
  6
Continuous
 62
     7
370
    25
100
AcDbLine
 10
56.4524350577
 20
85.4053940487
 30
0.0
 11
63.0358654041
 21
86.0962906771
 31
0.0
  0
ARC
  5
26B
330
1F
100
AcDbEntity
  8
0
  6
Continuous
 62
     7
370
    25
100
AcDbCircle
 10
43.0358654041
 20
82.8245914131
 30
0.0
 40
7.450000000000653
100
AcDbArc
 50
53.0863788866
 51
306.9136211134
  0
ARC
  5
26C
330
1F
100
AcDbEntity
  8
0
  6
Continuous
 62
     7
370
    25
100
AcDbCircle
 10
43.0358654041
 20
82.8245914131
 30
0.0
 40
7.207531252870779
100
AcDbArc
 50
15.3041237151
 51
58.9797515565
  0
ARC
  5
26D
330
1F
100
AcDbEntity
  8
0
  6
Continuous
 62
     7
370
    25
100
AcDbCircle
 10
43.0358654041
 20
82.8245914131
 30
0.0
 40
7.207531252872437
100
AcDbArc
 50
301.0202484435
 51
344.6958762849
  0
ARC
  5
26E
330
1F
100
AcDbEntity
  8
0
  6
Continuous
 62
     7
370
    25
100
AcDbCircle
 10
65.2113022656
 20
151.3245914131
 30
0.0
 40
65.00000000000001
100
AcDbArc
 50
253.4999050078
 51
270.0
  0
ARC
  5
26F
330
1F
100
AcDbEntity
  8
0
  6
Continuous
 62
     7
370
    25
100
AcDbCircle
 10
65.2113022656
 20
14.3245914131
 30
0.0
 40
65.0
100
AcDbArc
 50
90.0
 51
106.5000949923
  0
LINE
  5
270
330
1F
100
AcDbEntity
  8
0
  6
Continuous
 62
     7
370
    25
100
AcDbLine
 10
52.1358654041
 20
73.1641953851
 30
0.0
 11
52.1358654041
 21
77.9958796903
 31
0.0
  0
LINE
  5
271
330
1F
100
AcDbEntity
  8
0
  6
Continuous
 62
     7
370
    25
100
AcDbLine
 10
52.1358654041
 20
87.6533031359
 30
0.0
 11
52.1358654041
 21
92.4849874411
 31
0.0
  0
INSERT
  5
27D
330
1F
100
AcDbEntity
  8
0
  6
Continuous
 62
     7
370
    18
100
AcDbBlockReference
  2
SW_CENTERMARKSYMBOL_0
 10
43.0358654041
 20
82.8245914131
 30
0.0
  0
LINE
  5
27E
330
1F
100
AcDbEntity
  8
0
  6
Continuous
 62
     7
370
    18
100
AcDbLine
 10
29.7858654041
 20
92.4777041858
 30
0.0
 11
17.167091435
 21
92.0833674993
 31
0.0
  0
LINE
  5
27F
330
1F
100
AcDbEntity
  8
0
  6
Continuous
 62
     7
370
    18
100
AcDbLine
 10
17.167091435
 20
73.5658153269
 30
0.0
 11
29.7858654041
 21
73.1714786404
 31
0.0
  0
LINE
  5
280
330
1F
100
AcDbEntity
  8
0
  6
Continuous
 62
     7
370
    18
100
AcDbLine
 10
66.2858654041
 20
73.1027164131
 30
0.0
 11
78.7787243514
 21
73.4931182552
 31
0.0
  0
LINE
  5
281
330
1F
100
AcDbEntity
  8
0
  6
Continuous
 62
     7
370
    18
100
AcDbLine
 10
78.7787243514
 20
92.156064571
 30
0.0
 11
66.2858654041
 21
92.5464664131
 31
0.0
  0
LINE
  5
282
330
1F
100
AcDbEntity
  8
0
  6
Continuous
 62
     7
370
    18
100
AcDbLine
 10
66.2858654041
 20
73.1027164131
 30
0.0
 11
78.7787243514
 21
73.4931182552
 31
0.0
  0
LINE
  5
283
330
1F
100
AcDbEntity
  8
0
  6
Continuous
 62
     7
370
    18
100
AcDbLine
 10
78.7787243514
 20
92.156064571
 30
0.0
 11
66.2858654041
 21
92.5464664131
 31
0.0
  0
LINE
  5
284
330
1F
100
AcDbEntity
  8
0
  6
Continuous
 62
     7
370
    25
100
AcDbLine
 10
112.5461414291
 20
33.6297820221
 30
0.0
 11
112.5461414291
 21
34.1316883518
 31
0.0
  0
LINE
  5
285
330
1F
100
AcDbEntity
  8
0
  6
Continuous
 62
     7
370
    25
100
AcDbLine
 10
100.7461414291
 20
34.1316883518
 30
0.0
 11
100.7461414291
 21
32.0810902485
 31
0.0
  0
ARC
  5
286
330
1F
100
AcDbEntity
  8
0
  6
Continuous
 62
     7
370
    25
100
AcDbCircle
 10
112.3461414291
 20
33.1734307821
 30
0.0
 40
0.5000000000000135
100
AcDbArc
 50
359.992141364
 51
66.3930114207
  0
ARC
  5
287
330
1F
100
AcDbEntity
  8
0
  6
Continuous
 62
     7
370
    25
100
AcDbCircle
 10
112.3461422522
 20
32.0899463395
 30
0.0
 40
0.4999991769725692
100
AcDbArc
 50
340.5137157893
 51
0.0032902054
  0
ARC
  5
288
330
1F
100
AcDbEntity
  8
0
  6
Continuous
 62
     7
370
    25
100
AcDbCircle
 10
111.8961414291
 20
50.7316883518
 30
0.0
 40
0.25
100
AcDbArc
 50
0.0
 51
90.0
  0
ARC
  5
289
330
1F
100
AcDbEntity
  8
0
  6
Continuous
 62
     7
370
    25
100
AcDbCircle
 10
101.3961414291
 20
50.7316883518
 30
0.0
 40
0.25
100
AcDbArc
 50
90.0
 51
180.0
  0
LINE
  5
28A
330
1F
100
AcDbEntity
  8
0
  6
Continuous
 62
     7
370
    25
100
AcDbLine
 10
101.1461414291
 20
50.7316883518
 30
0.0
 11
101.1461414291
 21
50.1316883518
 31
0.0
  0
LINE
  5
28B
330
1F
100
AcDbEntity
  8
0
  6
Continuous
 62
     7
370
    25
100
AcDbLine
 10
112.1461414291
 20
50.1316883518
 30
0.0
 11
112.1461414291
 21
50.7316883518
 31
0.0
  0
LINE
  5
28C
330
1F
100
AcDbEntity
  8
0
  6
Continuous
 62
     7
370
    25
100
AcDbLine
 10
114.0961414291
 20
42.1316883518
 30
0.0
 11
112.1461414291
 21
50.1316883518
 31
0.0
  0
LINE
  5
28D
330
1F
100
AcDbEntity
  8
0
  6
Continuous
 62
     7
370
    25
100
AcDbLine
 10
101.1461414291
 20
50.1316883518
 30
0.0
 11
99.1961414291
 21
42.1316883518
 31
0.0
  0
LINE
  5
28E
330
1F
100
AcDbEntity
  8
0
  6
Continuous
 62
     7
370
    25
100
AcDbLine
 10
99.1961414291
 20
42.1316883518
 30
0.0
 11
99.6461414291
 21
34.1316883518
 31
0.0
  0
LINE
  5
28F
330
1F
100
AcDbEntity
  8
0
  6
Continuous
 62
     7
370
    25
100
AcDbLine
 10
113.6461414291
 20
34.1316883518
 30
0.0
 11
114.0961414291
 21
42.1316883518
 31
0.0
  0
CIRCLE
  5
290
330
1F
100
AcDbEntity
  8
0
  6
Continuous
 62
     7
370
    25
100
AcDbCircle
 10
106.6461414291
 20
21.6316883518
 30
0.0
 40
8.750000000000014
  0
CIRCLE
  5
291
330
1F
100
AcDbEntity
  8
0
  6
Continuous
 62
     7
370
    25
100
AcDbCircle
 10
106.6461414291
 20
21.6316883518
 30
0.0
 40
6.5
  0
CIRCLE
  5
292
330
1F
100
AcDbEntity
  8
0
  6
Continuous
 62
     7
370
    25
100
AcDbCircle
 10
106.6461414291
 20
21.6316883518
 30
0.0
 40
10.30676222727978
  0
CIRCLE
  5
293
330
1F
100
AcDbEntity
  8
0
  6
Continuous
 62
     7
370
    25
100
AcDbCircle
 10
106.6461414291
 20
21.6316883518
 30
0.0
 40
5.999999999999986
  0
CIRCLE
  5
294
330
1F
100
AcDbEntity
  8
0
  6
Continuous
 62
     7
370
    25
100
AcDbCircle
 10
106.6461414291
 20
21.6316883518
 30
0.0
 40
10.66
  0
ARC
  5
295
330
1F
100
AcDbEntity
  8
0
  6
Continuous
 62
     7
370
    25
100
AcDbCircle
 10
106.6461414291
 20
21.6316883518
 30
0.0
 40
11.0
100
AcDbArc
 50
60.0
 51
120.0
  0
ARC
  5
296
330
1F
100
AcDbEntity
  8
0
  6
Continuous
 62
     7
370
    25
100
AcDbCircle
 10
106.6461414291
 20
21.6316883518
 30
0.0
 40
11.0
100
AcDbArc
 50
0.0
 51
60.0
  0
ARC
  5
297
330
1F
100
AcDbEntity
  8
0
  6
Continuous
 62
     7
370
    25
100
AcDbCircle
 10
106.6461414291
 20
21.6316883518
 30
0.0
 40
10.99999999999999
100
AcDbArc
 50
300.0
 51
0.0
  0
ARC
  5
298
330
1F
100
AcDbEntity
  8
0
  6
Continuous
 62
     7
370
    25
100
AcDbCircle
 10
106.6461414291
 20
21.6316883518
 30
0.0
 40
11.00000000000001
100
AcDbArc
 50
240.0
 51
300.0
  0
ARC
  5
299
330
1F
100
AcDbEntity
  8
0
  6
Continuous
 62
     7
370
    25
100
AcDbCircle
 10
106.6461414291
 20
21.6316883518
 30
0.0
 40
11.00000000000001
100
AcDbArc
 50
180.0
 51
240.0
  0
ARC
  5
29A
330
1F
100
AcDbEntity
  8
0
  6
Continuous
 62
     7
370
    25
100
AcDbCircle
 10
106.6461414291
 20
21.6316883518
 30
0.0
 40
11.0
100
AcDbArc
 50
120.0
 51
180.0
  0
SPLINE
  5
29B
330
1F
100
AcDbEntity
  8
0
  6
Continuous
 62
     7
370
    25
100
AcDbSpline
210
0.0
220
0.0
230
1.0
 70
    24
 71
     3
 72
    11
 73
     7
 74
     0
 42
0.00000001
 43
0.00000001
 40
0.0
 40
0.0
 40
0.0
 40
0.0
 40
0.2477111816679849
 40
0.4953654927331206
 40
0.7477052806358114
 40
1.0
 40
1.0
 40
1.0
 40
1.0
 10
106.6461414291229
 20
34.33339427394099
 30
0.0
 10
106.2013821476116
 20
34.07661238303587
 30
0.0
 10
105.3119656943456
 20
33.56310755432106
 30
0.0
 10
103.945486428766
 20
32.77417038249661
 30
0.0
 10
102.555216068054
 20
31.97149741549315
 30
0.0
 10
101.6158050093952
 20
31.4291281878968
 30
0.0
 10
101.1461414291229
 20
31.15796779339799
 30
0.0
  0
SPLINE
  5
29C
330
1F
100
AcDbEntity
  8
0
  6
Continuous
 62
     7
370
    25
100
AcDbSpline
210
0.0
220
0.0
230
1.0
 70
    24
 71
     3
 72
    12
 73
     8
 74
     0
 42
0.00000001
 43
0.00000001
 40
0.0
 40
0.0
 40
0.0
 40
0.0
 40
0.0700620912254238
 40
0.3004295246571891
 40
0.5308328928489245
 40
0.7653937685833792
 40
1.0
 40
1.0
 40
1.0
 40
1.0
 10
112.1461414291229
 20
31.15796779339807
 30
0.0
 10
112.0157491845021
 20
31.23324979093013
 30
0.0
 10
111.4566211398599
 20
31.55606251801578
 30
0.0
 10
110.4695258978312
 20
32.12596222171685
 30
0.0
 10
109.1866540067554
 20
32.86662865336523
 30
0.0
 10
107.9095126226511
 20
33.60398657527107
 30
0.0
 10
107.0672923002218
 20
34.09024270514259
 30
0.0
 10
106.6461414291229
 20
34.33339427394099
 30
0.0
  0
SPLINE
  5
29D
330
1F
100
AcDbEntity
  8
0
  6
Continuous
 62
     7
370
    25
100
AcDbSpline
210
0.0
220
0.0
230
1.0
 70
    24
 71
     3
 72
    10
 73
     6
 74
     0
 42
0.00000001
 43
0.00000001
 40
0.0
 40
0.0
 40
0.0
 40
0.0
 40
0.2383189652402307
 40
0.6170494709505401
 40
1.0
 40
1.0
 40
1.0
 40
1.0
 10
95.64614142912296
 20
21.6316883517691
 30
0.0
 10
95.64614142912296
 20
21.11963217234034
 30
0.0
 10
95.64614142912298
 20
19.79382919105022
 30
0.0
 10
95.646141429123
 20
17.65918827360996
 30
0.0
 10
95.64614142912302
 20
16.07654251914301
 30
0.0
 10
95.64614142912303
 20
15.2808353906832
 30
0.0
  0
SPLINE
  5
29E
330
1F
100
AcDbEntity
  8
0
  6
Continuous
 62
     7
370
    25
100
AcDbSpline
210
0.0
220
0.0
230
1.0
 70
    24
 71
     3
 72
    11
 73
     7
 74
     0
 42
0.00000001
 43
0.00000001
 40
0.0
 40
0.0
 40
0.0
 40
0.0
 40
0.2477111816679855
 40
0.4953654927331215
 40
0.7477052806358121
 40
1.0
 40
1.0
 40
1.0
 40
1.0
 10
95.64614142912303
 20
15.2808353906832
 30
0.0
 10
96.09090071063432
 20
15.02405349977808
 30
0.0
 10
96.9803171639003
 20
14.51054867106329
 30
0.0
 10
98.3467964294799
 20
13.72161149923886
 30
0.0
 10
99.73706679019193
 20
12.91893853223545
 30
0.0
 10
100.6764778488507
 20
12.37656930463914
 30
0.0
 10
101.146141429123
 20
12.10540891014036
 30
0.0
  0
SPLINE
  5
29F
330
1F
100
AcDbEntity
  8
0
  6
Continuous
 62
     7
370
    25
100
AcDbSpline
210
0.0
220
0.0
230
1.0
 70
    24
 71
     3
 72
    12
 73
     8
 74
     0
 42
0.00000001
 43
0.00000001
 40
0.0
 40
0.0
 40
0.0
 40
0.0
 40
0.070062091225424
 40
0.3004295246571893
 40
0.5308328928489247
 40
0.7653937685833793
 40
1.0
 40
1.0
 40
1.0
 40
1.0
 10
101.1461414291229
 20
31.15796779339799
 30
0.0
 10
101.0157491845021
 20
31.08268579586593
 30
0.0
 10
100.4566211398599
 20
30.75987306878028
 30
0.0
 10
99.46952589783115
 20
30.18997336507919
 30
0.0
 10
98.18665400675543
 20
29.4493069334308
 30
0.0
 10
96.9095126226511
 20
28.71194901152495
 30
0.0
 10
96.06729230022181
 20
28.2256928816534
 30
0.0
 10
95.64614142912289
 20
27.982541312855
 30
0.0
  0
SPLINE
  5
2A0
330
1F
100
AcDbEntity
  8
0
  6
Continuous
 62
     7
370
    25
100
AcDbSpline
210
0.0
220
0.0
230
1.0
 70
    24
 71
     3
 72
    10
 73
     6
 74
     0
 42
0.00000001
 43
0.00000001
 40
0.0
 40
0.0
 40
0.0
 40
0.0
 40
0.2192241705361767
 40
0.6070735784377262
 40
1.0
 40
1.0
 40
1.0
 40
1.0
 10
95.64614142912289
 20
27.982541312855
 30
0.0
 10
95.64614142912289
 20
27.52835812842462
 30
0.0
 10
95.6461414291229
 20
26.27063818648559
 30
0.0
 10
95.64614142912293
 20
24.15434568105961
 30
0.0
 10
95.64614142912295
 20
22.47621149753234
 30
0.0
 10
95.64614142912296
 20
21.6316883517691
 30
0.0
  0
SPLINE
  5
2A1
330
1F
100
AcDbEntity
  8
0
  6
Continuous
 62
     7
370
    25
100
AcDbSpline
210
0.0
220
0.0
230
1.0
 70
    24
 71
     3
 72
    11
 73
     7
 74
     0
 42
0.00000001
 43
0.00000001
 40
0.0
 40
0.0
 40
0.0
 40
0.0
 40
0.2477111816679848
 40
0.4953654927331208
 40
0.7477052806358114
 40
1.0
 40
1.0
 40
1.0
 40
1.0
 10
117.6461414291229
 20
27.98254131285515
 30
0.0
 10
117.2013821476117
 20
28.23932320376027
 30
0.0
 10
116.3119656943457
 20
28.75282803247507
 30
0.0
 10
114.945486428766
 20
29.54176520429949
 30
0.0
 10
113.555216068054
 20
30.34443817130294
 30
0.0
 10
112.6158050093952
 20
30.88680739889928
 30
0.0
 10
112.1461414291229
 20
31.15796779339807
 30
0.0
  0
SPLINE
  5
2A2
330
1F
100
AcDbEntity
  8
0
  6
Continuous
 62
     7
370
    25
100
AcDbSpline
210
0.0
220
0.0
230
1.0
 70
    24
 71
     3
 72
    10
 73
     6
 74
     0
 42
0.00000001
 43
0.00000001
 40
0.0
 40
0.0
 40
0.0
 40
0.0
 40
0.3875159004325608
 40
0.7807763460611348
 40
1.0
 40
1.0
 40
1.0
 40
1.0
 10
117.6461414291229
 20
21.63168835176926
 30
0.0
 10
117.6461414291229
 20
22.46457080169538
 30
0.0
 10
117.6461414291229
 20
24.14268237137776
 30
0.0
 10
117.6461414291229
 20
26.25943204571114
 30
0.0
 10
117.6461414291229
 20
27.5283597712178
 30
0.0
 10
117.6461414291229
 20
27.98254131285515
 30
0.0
  0
SPLINE
  5
2A3
330
1F
100
AcDbEntity
  8
0
  6
Continuous
 62
     7
370
    25
100
AcDbSpline
210
0.0
220
0.0
230
1.0
 70
    24
 71
     3
 72
    12
 73
     8
 74
     0
 42
0.00000001
 43
0.00000001
 40
0.0
 40
0.0
 40
0.0
 40
0.0
 40
0.0700620912254371
 40
0.3004295246571993
 40
0.5308328928489318
 40
0.7653937685833827
 40
1.0
 40
1.0
 40
1.0
 40
1.0
 10
101.146141429123
 20
12.10540891014036
 30
0.0
 10
101.2765336737438
 20
12.03012691260827
 30
0.0
 10
101.835661718386
 20
11.70731418552256
 30
0.0
 10
102.8227569604148
 20
11.13741448182153
 30
0.0
 10
104.1056288514905
 20
10.39674805017316
 30
0.0
 10
105.3827702355948
 20
9.659390128267352
 30
0.0
 10
106.2249905580241
 20
9.173133998395832
 30
0.0
 10
106.646141429123
 20
8.929982429597437
 30
0.0
  0
SPLINE
  5
2A4
330
1F
100
AcDbEntity
  8
0
  6
Continuous
 62
     7
370
    25
100
AcDbSpline
210
0.0
220
0.0
230
1.0
 70
    24
 71
     3
 72
    11
 73
     7
 74
     0
 42
0.00000001
 43
0.00000001
 40
0.0
 40
0.0
 40
0.0
 40
0.0
 40
0.247711181667985
 40
0.4953654927331207
 40
0.7477052806358114
 40
0.9999999999999999
 40
0.9999999999999999
 40
0.9999999999999999
 40
0.9999999999999999
 10
106.646141429123
 20
8.929982429597437
 30
0.0
 10
107.0909007106342
 20
9.186764320502562
 30
0.0
 10
107.9803171639002
 20
9.700269149217359
 30
0.0
 10
109.3467964294799
 20
10.4892063210418
 30
0.0
 10
110.7370667901919
 20
11.29187928804525
 30
0.0
 10
111.6764778488506
 20
11.8342485156416
 30
0.0
 10
112.146141429123
 20
12.1054089101404
 30
0.0
  0
SPLINE
  5
2A5
330
1F
100
AcDbEntity
  8
0
  6
Continuous
 62
     7
370
    25
100
AcDbSpline
210
0.0
220
0.0
230
1.0
 70
    24
 71
     3
 72
    10
 73
     6
 74
     0
 42
0.00000001
 43
0.00000001
 40
0.0
 40
0.0
 40
0.0
 40
0.0
 40
0.3790666956016618
 40
0.7616806217139085
 40
1.0
 40
1.0
 40
1.0
 40
1.0
 10
117.646141429123
 20
15.28083539068335
 30
0.0
 10
117.646141429123
 20
16.06841271429116
 30
0.0
 10
117.646141429123
 20
17.65093735297308
 30
0.0
 10
117.646141429123
 20
19.78548663361681
 30
0.0
 10
117.646141429123
 20
21.11963217257151
 30
0.0
 10
117.6461414291229
 20
21.63168835176926
 30
0.0
  0
SPLINE
  5
2A6
330
1F
100
AcDbEntity
  8
0
  6
Continuous
 62
     7
370
    25
100
AcDbSpline
210
0.0
220
0.0
230
1.0
 70
    24
 71
     3
 72
    12
 73
     8
 74
     0
 42
0.00000001
 43
0.00000001
 40
0.0
 40
0.0
 40
0.0
 40
0.0
 40
0.0700620912254238
 40
0.3004295246571889
 40
0.5308328928489242
 40
0.7653937685833792
 40
1.0
 40
1.0
 40
1.0
 40
1.0
 10
112.146141429123
 20
12.1054089101404
 30
0.0
 10
112.2765336737438
 20
12.18069090767246
 30
0.0
 10
112.835661718386
 20
12.5035036347581
 30
0.0
 10
113.8227569604147
 20
13.07340333845919
 30
0.0
 10
115.1056288514905
 20
13.81406977010757
 30
0.0
 10
116.3827702355948
 20
14.55142769201341
 30
0.0
 10
117.2249905580241
 20
15.03768382188495
 30
0.0
 10
117.646141429123
 20
15.28083539068335
 30
0.0
  0
CIRCLE
  5
2A7
330
1F
100
AcDbEntity
  8
0
  6
Continuous
 62
     7
370
    25
100
AcDbCircle
 10
106.6461414291
 20
21.6316883518
 30
0.0
 40
4.0
  0
ARC
  5
2A8
330
1F
100
AcDbEntity
  8
0
  6
Continuous
 62
     7
370
    25
100
AcDbCircle
 10
106.6461414291
 20
21.6316883518
 30
0.0
 40
11.74999999999999
100
AcDbArc
 50
0.0
 51
20.5595610191
  0
ARC
  5
2A9
330
1F
100
AcDbEntity
  8
0
  6
Continuous
 62
     7
370
    25
100
AcDbCircle
 10
106.6461414291
 20
21.6316883518
 30
0.0
 40
11.74999999999999
100
AcDbArc
 50
39.6757958615
 51
80.2545596488
  0
ARC
  5
2AA
330
1F
100
AcDbEntity
  8
0
  6
Continuous
 62
     7
370
    25
100
AcDbCircle
 10
106.6461414291
 20
21.6316883518
 30
0.0
 40
11.75000000000001
100
AcDbArc
 50
99.8612128328
 51
140.048086991
  0
ARC
  5
2AB
330
1F
100
AcDbEntity
  8
0
  6
Continuous
 62
     7
370
    25
100
AcDbCircle
 10
106.6461414291
 20
21.6316883518
 30
0.0
 40
11.75000000000001
100
AcDbArc
 50
159.986053993
 51
199.966813376
  0
ARC
  5
2AC
330
1F
100
AcDbEntity
  8
0
  6
Continuous
 62
     7
370
    25
100
AcDbCircle
 10
106.6461414291
 20
21.6316883518
 30
0.0
 40
11.75
100
AcDbArc
 50
220.0368077888
 51
259.9850681969
  0
ARC
  5
2AD
330
1F
100
AcDbEntity
  8
0
  6
Continuous
 62
     7
370
    25
100
AcDbCircle
 10
106.6461414291
 20
21.6316883518
 30
0.0
 40
11.75
100
AcDbArc
 50
279.9960161745
 51
320.0835124189
  0
ARC
  5
2AE
330
1F
100
AcDbEntity
  8
0
  6
Continuous
 62
     7
370
    25
100
AcDbCircle
 10
106.6461414291
 20
21.6316883518
 30
0.0
 40
11.74999999999999
100
AcDbArc
 50
339.8406878957
 51
0.0
  0
ARC
  5
2AF
330
1F
100
AcDbEntity
  8
0
  6
Continuous
 62
     7
370
    25
100
AcDbCircle
 10
106.6461414291
 20
21.6316883518
 30
0.0
 40
12.0
100
AcDbArc
 50
336.7821852591
 51
0.0
  0
ARC
  5
2B0
330
1F
100
AcDbEntity
  8
0
  6
Continuous
 62
     7
370
    25
100
AcDbCircle
 10
106.6461414291
 20
21.6316883518
 30
0.0
 40
12.0
100
AcDbArc
 50
276.7923280426
 51
323.0852398202
  0
ARC
  5
2B1
330
1F
100
AcDbEntity
  8
0
  6
Continuous
 62
     7
370
    25
100
AcDbCircle
 10
106.6461414291
 20
21.6316883518
 30
0.0
 40
12.00000000000001
100
AcDbArc
 50
216.7075679527
 51
263.0507863237
  0
ARC
  5
2B2
330
1F
100
AcDbEntity
  8
0
  6
Continuous
 62
     7
370
    25
100
AcDbCircle
 10
106.6461414291
 20
21.6316883518
 30
0.0
 40
12.00000000000001
100
AcDbArc
 50
156.6314693594
 51
203.2233151522
  0
ARC
  5
2B3
330
1F
100
AcDbEntity
  8
0
  6
Continuous
 62
     7
370
    25
100
AcDbCircle
 10
106.6461414291
 20
21.6316883518
 30
0.0
 40
12.00000000000001
100
AcDbArc
 50
96.4977693388
 51
143.0450177297
  0
ARC
  5
2B4
330
1F
100
AcDbEntity
  8
0
  6
Continuous
 62
     7
370
    25
100
AcDbCircle
 10
106.6461414291
 20
21.6316883518
 30
0.0
 40
12.0
100
AcDbArc
 50
36.5432658101
 51
83.0783259825
  0
ARC
  5
2B5
330
1F
100
AcDbEntity
  8
0
  6
Continuous
 62
     7
370
    25
100
AcDbCircle
 10
106.6461414291
 20
21.6316883518
 30
0.0
 40
12.00000000000001
100
AcDbArc
 50
0.0
 51
23.0248990302
  0
SPLINE
  5
2B6
330
1F
100
AcDbEntity
  8
0
  6
Continuous
 62
     7
370
    25
100
AcDbSpline
210
0.0
220
0.0
230
1.0
 70
     8
 71
     3
 72
     9
 73
     5
 74
     0
 42
0.00000001
 43
0.00000001
 40
0.0
 40
0.0
 40
0.0
 40
0.0
 40
0.5447033513746817
 40
1.0
 40
1.0
 40
1.0
 40
1.0
 10
112.4607781331656
 20
32.63168835176921
 30
0.0
 10
112.4625577613859
 20
32.51889995661044
 30
0.0
 10
112.4658249126083
 20
32.31183606600993
 30
0.0
 10
112.482310356254
 20
32.13869084476223
 30
0.0
 10
112.4898161234971
 20
32.05985840580266
 30
0.0
  0
SPLINE
  5
2B7
330
1F
100
AcDbEntity
  8
0
  6
Continuous
 62
     7
370
    25
100
AcDbSpline
210
0.0
220
0.0
230
1.0
 70
     8
 71
     3
 72
    12
 73
     8
 74
     0
 42
0.00000001
 43
0.00000001
 40
0.0
 40
0.0
 40
0.0
 40
0.0
 40
0.2044300411371469
 40
0.4162300311278426
 40
0.6305582772351073
 40
0.8463529442065274
 40
1.0
 40
1.0
 40
1.0
 40
1.0
 10
112.5458261083727
 20
33.62978202209311
 30
0.0
 10
112.5442070002387
 20
33.62047849757241
 30
0.0
 10
112.5409104131753
 20
33.60153604528259
 30
0.0
 10
112.51511608002
 20
33.43766027175838
 30
0.0
 10
112.4854608112407
 20
33.19038202196415
 30
0.0
 10
112.4641710013319
 20
32.90532463136432
 30
0.0
 10
112.4617747215571
 20
32.71206363497437
 30
0.0
 10
112.4607781331656
 20
32.63168835176921
 30
0.0
  0
SPLINE
  5
2B8
330
1F
100
AcDbEntity
  8
0
  6
Continuous
 62
     7
370
    25
100
AcDbSpline
210
0.0
220
0.0
230
1.0
 70
    24
 71
     3
 72
    18
 73
    14
 74
     0
 42
0.00000001
 43
0.00000001
 40
0.0
 40
0.0
 40
0.0
 40
0.0
 40
0.0507832104203953
 40
0.1595138550858204
 40
0.2728618603795274
 40
0.3864292883475073
 40
0.5000003561174516
 40
0.5686956843873998
 40
0.6799915352757258
 40
0.7847596270326935
 40
0.8830441795550471
 40
0.9801848974151682
 40
1.0
 40
1.0
 40
1.0
 40
1.0
 10
112.846141429123
 20
33.16612005957738
 30
0.0
 10
112.846141429123
 20
33.16747073148586
 30
0.0
 10
112.846141429123
 20
33.17171329278312
 30
0.0
 10
112.846141429123
 20
33.10860115905371
 30
0.0
 10
112.846141429123
 20
32.98669748473562
 30
0.0
 10
112.846141429123
 20
32.81942247741174
 30
0.0
 10
112.846141429123
 20
32.65627999195955
 30
0.0
 10
112.846141429123
 20
32.49503665006594
 30
0.0
 10
112.846141429123
 20
32.346687267273
 30
0.0
 10
112.846141429123
 20
32.21024115385823
 30
0.0
 10
112.846141429123
 20
32.12425204265666
 30
0.0
 10
112.846141429123
 20
32.08453248502659
 30
0.0
 10
112.846141429123
 20
32.0932106140138
 30
0.0
 10
112.846141429123
 20
32.09468089583023
 30
0.0
  0
SPLINE
  5
2B9
330
1F
100
AcDbEntity
  8
0
  6
Continuous
 62
     7
370
    25
100
AcDbSpline
210
0.0
220
0.0
230
1.0
 70
     8
 71
     3
 72
    13
 73
     9
 74
     0
 42
0.00000001
 43
0.00000001
 40
0.0
 40
0.0
 40
0.0
 40
0.0
 40
0.2491824652872984
 40
0.4987738521013645
 40
0.6338602399594956
 40
0.7494868859160718
 40
0.8759187542425622
 40
1.0
 40
1.0
 40
1.0
 40
1.0
 10
95.75480318663053
 20
16.59395559906965
 30
0.0
 10
95.74494404097682
 20
16.61536109377286
 30
0.0
 10
95.72520957029302
 20
16.65820721072153
 30
0.0
 10
95.69766000581964
 20
16.71924143434209
 30
0.0
 10
95.67436106986241
 20
16.77157521878892
 30
0.0
 10
95.65603108254929
 20
16.81316739066972
 30
0.0
 10
95.63768621369272
 20
16.85522034671555
 30
0.0
 10
95.62763445338648
 20
16.87853914375249
 30
0.0
 10
95.62265573223084
 20
16.8900891394343
 30
0.0
  0
SPLINE
  5
2BA
330
1F
100
AcDbEntity
  8
0
  6
Continuous
 62
     7
370
    25
100
AcDbSpline
210
0.0
220
0.0
230
1.0
 70
     8
 71
     3
 72
    14
 73
    10
 74
     0
 42
0.00000001
 43
0.00000001
 40
0.0
 40
0.0
 40
0.0
 40
0.0
 40
0.0833728361833459
 40
0.1651391830191044
 40
0.2505782922895461
 40
0.366155298038779
 40
0.5013015333860809
 40
0.7511277814202357
 40
0.9999999999999999
 40
0.9999999999999999
 40
0.9999999999999999
 40
0.9999999999999999
 10
95.62265573223084
 20
26.37328756410412
 30
0.0
 10
95.6258916900483
 20
26.38079974705045
 30
0.0
 10
95.63230125285943
 20
26.39567936265713
 30
0.0
 10
95.64402316052615
 20
26.42268961066029
 30
0.0
 10
95.65787244940886
 20
26.45438547928303
 30
0.0
 10
95.67432217744879
 20
26.49171459481613
 30
0.0
 10
95.69761559440603
 20
26.54403595047972
 30
0.0
 10
95.72520582954648
 20
26.60516195031072
 30
0.0
 10
95.74494999138568
 20
26.64802872168303
 30
0.0
 10
95.75480318663269
 20
26.66942110447341
 30
0.0
  0
LINE
  5
2BB
330
1F
100
AcDbEntity
  8
0
  6
Continuous
 62
     7
370
    25
100
AcDbLine
 10
110.1461414291
 20
50.9816883518
 30
0.0
 11
111.8961414291
 21
50.9816883518
 31
0.0
  0
LINE
  5
2BC
330
1F
100
AcDbEntity
  8
0
  6
Continuous
 62
     7
370
    25
100
AcDbLine
 10
101.3961414291
 20
50.9816883518
 30
0.0
 11
103.1461414291
 21
50.9816883518
 31
0.0
  0
LINE
  5
2BD
330
1F
100
AcDbEntity
  8
0
  6
Continuous
 62
     7
370
    25
100
AcDbLine
 10
101.1461414291
 20
50.1316883518
 30
0.0
 11
103.1461414291
 21
50.1316883518
 31
0.0
  0
LINE
  5
2BE
330
1F
100
AcDbEntity
  8
0
  6
Continuous
 62
     7
370
    25
100
AcDbLine
 10
110.1461414291
 20
50.1316883518
 30
0.0
 11
112.1461414291
 21
50.1316883518
 31
0.0
  0
LINE
  5
2BF
330
1F
100
AcDbEntity
  8
0
  6
Continuous
 62
     7
370
    25
100
AcDbLine
 10
110.1461414291
 20
40.1316883518
 30
0.0
 11
103.1461414291
 21
40.1316883518
 31
0.0
  0
LINE
  5
2C0
330
1F
100
AcDbEntity
  8
0
  6
Continuous
 62
     7
370
    25
100
AcDbLine
 10
103.1461414291
 20
45.1316883518
 30
0.0
 11
110.1461414291
 21
45.1316883518
 31
0.0
  0
LINE
  5
2C1
330
1F
100
AcDbEntity
  8
0
  6
Continuous
 62
     7
370
    25
100
AcDbLine
 10
110.1461414291
 20
45.1316883518
 30
0.0
 11
110.1461414291
 21
40.1316883518
 31
0.0
  0
LINE
  5
2C2
330
1F
100
AcDbEntity
  8
0
  6
Continuous
 62
     7
370
    25
100
AcDbLine
 10
103.1461414291
 20
40.1316883518
 30
0.0
 11
103.1461414291
 21
45.1316883518
 31
0.0
  0
LINE
  5
2C3
330
1F
100
AcDbEntity
  8
0
  6
Continuous
 62
     7
370
    25
100
AcDbLine
 10
103.1461414291
 20
52.1316883518
 30
0.0
 11
110.1461414291
 21
52.1316883518
 31
0.0
  0
LINE
  5
2C4
330
1F
100
AcDbEntity
  8
0
  6
Continuous
 62
     7
370
    25
100
AcDbLine
 10
110.1461414291
 20
45.1316883518
 30
0.0
 11
110.1461414291
 21
52.1316883518
 31
0.0
  0
LINE
  5
2C5
330
1F
100
AcDbEntity
  8
0
  6
Continuous
 62
     7
370
    25
100
AcDbLine
 10
103.1461414291
 20
52.1316883518
 30
0.0
 11
103.1461414291
 21
45.1316883518
 31
0.0
  0
SPLINE
  5
2C6
330
1F
100
AcDbEntity
  8
0
  6
Continuous
 62
     7
370
    25
100
AcDbSpline
210
0.0
220
0.0
230
1.0
 70
     8
 71
     3
 72
     9
 73
     5
 74
     0
 42
0.00000001
 43
0.00000001
 40
0.0
 40
0.0
 40
0.0
 40
0.0
 40
0.4976931370791441
 40
0.9999999999999999
 40
0.9999999999999999
 40
0.9999999999999999
 40
0.9999999999999999
 10
110.146141429123
 20
39.88386404474475
 30
0.0
 10
110.1628109423401
 20
39.73441716374432
 30
0.0
 10
110.1963044988617
 20
39.43413799598742
 30
0.0
 10
110.4196431825034
 20
38.85271586859999
 30
0.0
 10
110.5318277360523
 20
38.56066354375924
 30
0.0
  0
LINE
  5
2C7
330
1F
100
AcDbEntity
  8
0
  6
Continuous
 62
     7
370
    25
100
AcDbLine
 10
110.5318277361
 20
38.5606635438
 30
0.0
 11
102.7604551222
 21
38.5606635438
 31
0.0
  0
SPLINE
  5
2C8
330
1F
100
AcDbEntity
  8
0
  6
Continuous
 62
     7
370
    25
100
AcDbSpline
210
0.0
220
0.0
230
1.0
 70
     8
 71
     3
 72
     9
 73
     5
 74
     0
 42
0.00000001
 43
0.00000001
 40
0.0
 40
0.0
 40
0.0
 40
0.0
 40
0.4977232396629078
 40
1.0
 40
1.0
 40
1.0
 40
1.0
 10
102.7604551221936
 20
38.56066354375925
 30
0.0
 10
102.8717517983075
 20
38.85025594438341
 30
0.0
 10
103.0953633704521
 20
39.43209013966889
 30
0.0
 10
103.1291641054508
 20
39.73281628880701
 30
0.0
 10
103.1461414291229
 20
39.88386404474475
 30
0.0
  0
LINE
  5
2C9
330
1F
100
AcDbEntity
  8
0
  6
Continuous
 62
     7
370
    25
100
AcDbLine
 10
110.1461414291
 20
40.1316883518
 30
0.0
 11
110.1461414291
 21
39.8838640447
 31
0.0
  0
LINE
  5
2CA
330
1F
100
AcDbEntity
  8
0
  6
Continuous
 62
     7
370
    25
100
AcDbLine
 10
103.1461414291
 20
39.8838640447
 30
0.0
 11
103.1461414291
 21
40.1316883518
 31
0.0
  0
SPLINE
  5
2CB
330
1F
100
AcDbEntity
  8
0
  6
Continuous
 62
     7
370
    25
100
AcDbSpline
210
0.0
220
0.0
230
1.0
 70
     8
 71
     3
 72
    16
 73
    12
 74
     0
 42
0.00000001
 43
0.00000001
 40
0.0
 40
0.0
 40
0.0
 40
0.0
 40
0.0155634360124117
 40
0.0359329243097674
 40
0.0739120889290614
 40
0.1570057548437684
 40
0.2406581385754913
 40
0.4592958294318594
 40
0.6783839187935412
 40
0.8974954344294845
 40
1.0
 40
1.0
 40
1.0
 40
1.0
 10
99.9864192069007
 20
34.1316883517693
 30
0.0
 10
100.000112873914
 20
34.13688172354847
 30
0.0
 10
100.0317288679607
 20
34.14887220141625
 30
0.0
 10
100.0872085582708
 20
34.26719812541321
 30
0.0
 10
100.1658093687613
 20
34.57844943286216
 30
0.0
 10
100.2451495553903
 20
35.10409693422721
 30
0.0
 10
100.3503772634935
 20
36.14264309849737
 30
0.0
 10
100.4653706647128
 20
37.5777171408435
 30
0.0
 10
100.5677706651277
 20
39.41596924228293
 30
0.0
 10
100.6375195450081
 20
40.93715209110237
 30
0.0
 10
100.6769781644368
 20
41.84298413189888
 30
0.0
 10
100.6895543037499
 20
42.13168835176684
 30
0.0
  0
LINE
  5
2CC
330
1F
100
AcDbEntity
  8
0
  6
Continuous
 62
     7
370
    25
100
AcDbLine
 10
100.6895543037
 20
42.1316883518
 30
0.0
 11
100.4693935885
 21
43.1264319297
 31
0.0
  0
LINE
  5
2CD
330
1F
100
AcDbEntity
  8
0
  6
Continuous
 62
     7
370
    25
100
AcDbLine
 10
100.4693935885
 20
43.1264319297
 30
0.0
 11
103.1461414291
 21
43.1264319298
 31
0.0
  0
ELLIPSE
  5
2CE
330
1F
100
AcDbEntity
  8
0
  6
Continuous
 62
     7
370
    25
100
AcDbEllipse
 10
38.1461414291
 20
40.4795627841
 30
0.0
 11
65.0
 21
0.0
 31
0.0
210
0.0
220
0.0
230
1.0
 40
0.2713992096
 41
6.084179739699223
 42
6.174194364446292
  0
SPLINE
  5
2CF
330
1F
100
AcDbEntity
  8
0
  6
Continuous
 62
     7
370
    25
100
AcDbSpline
210
0.0
220
0.0
230
1.0
 70
     8
 71
     3
 72
    13
 73
     9
 74
     0
 42
0.00000001
 43
0.00000001
 40
0.0
 40
0.0
 40
0.0
 40
0.0
 40
0.1610294006389558
 40
0.3266880383557516
 40
0.4877296220820637
 40
0.6535536198224136
 40
0.8237602734841889
 40
1.0
 40
1.0
 40
1.0
 40
1.0
 10
101.8632790990184
 20
36.99204210327637
 30
0.0
 10
101.819475331586
 20
36.92264520869912
 30
0.0
 10
101.7306085358438
 20
36.78185641319057
 30
0.0
 10
101.6015885171718
 20
36.43573159548293
 30
0.0
 10
101.4805784214044
 20
35.99652495243089
 30
0.0
 10
101.3738974382798
 20
35.46292311549129
 30
0.0
 10
101.283230150924
 20
34.8390968087916
 30
0.0
 10
101.2464113420272
 20
34.37021291058961
 30
0.0
 10
101.2276813532559
 20
34.13168835176921
 30
0.0
  0
LINE
  5
2D0
330
1F
100
AcDbEntity
  8
0
  6
Continuous
 62
     7
370
    25
100
AcDbLine
 10
101.2276813533
 20
34.1316883518
 30
0.0
 11
99.9864192069
 21
34.1316883518
 31
0.0
  0
SPLINE
  5
2D1
330
1F
100
AcDbEntity
  8
0
  6
Continuous
 62
     7
370
    25
100
AcDbSpline
210
0.0
220
0.0
230
1.0
 70
     8
 71
     3
 72
    17
 73
    13
 74
     0
 42
0.00000001
 43
0.00000001
 40
0.0
 40
0.0
 40
0.0
 40
0.0
 40
0.3241697628029873
 40
0.5422758463620719
 40
0.689509052693928
 40
0.7894036290694505
 40
0.8577090008137825
 40
0.9049823971474137
 40
0.9551712229700868
 40
0.9753097783197817
 40
0.9919572060138848
 40
1.0
 40
1.0
 40
1.0
 40
1.0
 10
112.602728554496
 20
42.13168835176685
 30
0.0
 10
112.6433789932228
 20
41.21907484916117
 30
0.0
 10
112.7113796323785
 20
39.69244184289983
 30
0.0
 10
112.8228125316948
 20
37.76566894061886
 30
0.0
 10
112.9153171917534
 20
36.47803346968609
 30
0.0
 10
112.9932186480708
 20
35.61888150296434
 30
0.0
 10
113.0592711474931
 20
35.04541361458694
 30
0.0
 10
113.1226277548555
 20
34.62388146055698
 30
0.0
 10
113.1807542225494
 20
34.34338891776155
 30
0.0
 10
113.2400960508722
 20
34.18784024918088
 30
0.0
 10
113.2771021194949
 20
34.13722964998338
 30
0.0
 10
113.2987966863654
 20
34.13304989817875
 30
0.0
 10
113.3058636513452
 20
34.13168835176927
 30
0.0
  0
LINE
  5
2D2
330
1F
100
AcDbEntity
  8
0
  6
Continuous
 62
     7
370
    25
100
AcDbLine
 10
113.3058636513
 20
34.1316883518
 30
0.0
 11
112.064601505
 21
34.1316883518
 31
0.0
  0
SPLINE
  5
2D3
330
1F
100
AcDbEntity
  8
0
  6
Continuous
 62
     7
370
    25
100
AcDbSpline
210
0.0
220
0.0
230
1.0
 70
     8
 71
     3
 72
    14
 73
    10
 74
     0
 42
0.00000001
 43
0.00000001
 40
0.0
 40
0.0
 40
0.0
 40
0.0
 40
0.1576095309202822
 40
0.3152382602707094
 40
0.4726926441579498
 40
0.6301650083177254
 40
0.7907313191165901
 40
0.9513050385928076
 40
1.0
 40
1.0
 40
1.0
 40
1.0
 10
112.06460150499
 20
34.13168835176921
 30
0.0
 10
112.0480961681476
 20
34.34519014024661
 30
0.0
 10
112.0150834839462
 20
34.77221972387212
 30
0.0
 10
111.9352797940343
 20
35.35746680272844
 30
0.0
 10
111.8374923865481
 20
35.87962134355085
 30
0.0
 10
111.7239025468661
 20
36.32859947097072
 30
0.0
 10
111.5993604478343
 20
36.68788120277711
 30
0.0
 10
111.4990031070579
 20
36.89244738187828
 30
0.0
 10
111.4422173094428
 20
36.97324193022959
 30
0.0
 10
111.4290037592275
 20
36.99204210327637
 30
0.0
  0
ELLIPSE
  5
2D4
330
1F
100
AcDbEntity
  8
0
  6
Continuous
 62
     7
370
    25
100
AcDbEllipse
 10
175.1461414291
 20
40.4795627841
 30
0.0
 11
65.0
 21
0.0
 31
0.0
210
0.0
220
0.0
230
1.0
 40
0.2713992096
 41
3.25058359632319
 42
3.340598221070255
  0
LINE
  5
2D5
330
1F
100
AcDbEntity
  8
0
  6
Continuous
 62
     7
370
    25
100
AcDbLine
 10
110.1461414291
 20
43.1264319298
 30
0.0
 11
112.8228892698
 21
43.1264319297
 31
0.0
  0
LINE
  5
2D6
330
1F
100
AcDbEntity
  8
0
  6
Continuous
 62
     7
370
    25
100
AcDbLine
 10
112.8228892698
 20
43.1264319297
 30
0.0
 11
112.6027285545
 21
42.1316883518
 31
0.0
  0
LINE
  5
2D7
330
1F
100
AcDbEntity
  8
0
  6
Continuous
 62
     7
370
    25
100
AcDbLine
 10
101.863279099
 20
36.9920421033
 30
0.0
 11
111.4290037592
 21
36.9920421033
 31
0.0
  0
SPLINE
  5
2D8
330
1F
100
AcDbEntity
  8
0
  6
Continuous
 62
     7
370
    25
100
AcDbSpline
210
0.0
220
0.0
230
1.0
 70
     8
 71
     3
 72
    16
 73
    12
 74
     0
 42
0.00000001
 43
0.00000001
 40
0.0
 40
0.0
 40
0.0
 40
0.0
 40
0.1082397394540288
 40
0.2409347985297594
 40
0.3278143823752722
 40
0.4147786007912546
 40
0.5911316736061375
 40
0.6905102391473411
 40
0.7897210831517909
 40
0.9112972329116562
 40
1.0
 40
1.0
 40
1.0
 40
1.0
 10
109.2442176404763
 20
34.13168835176921
 30
0.0
 10
109.1261637572489
 20
34.31474554646007
 30
0.0
 10
108.8633832968145
 20
34.72221925754558
 30
0.0
 10
108.2867055357371
 20
35.06644892601953
 30
0.0
 10
107.701147943343
 20
35.2704314701373
 30
0.0
 10
106.994125930311
 20
35.40184550049937
 30
0.0
 10
106.2343029956956
 20
35.39882525644384
 30
0.0
 10
105.480334489445
 20
35.2440655217355
 30
0.0
 10
104.8799582868785
 20
35.0035191903923
 30
0.0
 10
104.3633041757407
 20
34.64307735196264
 30
0.0
 10
104.1415912408287
 20
34.28340874740832
 30
0.0
 10
104.0480652177696
 20
34.13168835176921
 30
0.0
  0
LINE
  5
2D9
330
1F
100
AcDbEntity
  8
0
  6
Continuous
 62
     7
370
    25
100
AcDbLine
 10
104.0480652178
 20
34.1316883518
 30
0.0
 11
101.2276813533
 21
34.1316883518
 31
0.0
  0
LINE
  5
2DA
330
1F
100
AcDbEntity
  8
0
  6
Continuous
 62
     7
370
    25
100
AcDbLine
 10
112.064601505
 20
34.1316883518
 30
0.0
 11
109.2442176405
 21
34.1316883518
 31
0.0
  0
LINE
  5
2DB
330
1F
100
AcDbEntity
  8
0
  6
Continuous
 62
     7
370
    25
100
AcDbLine
 10
109.2442176405
 20
34.1316883518
 30
0.0
 11
106.9972837779
 21
34.1316883518
 31
0.0
  0
LINE
  5
2DC
330
1F
100
AcDbEntity
  8
0
  6
Continuous
 62
     7
370
    25
100
AcDbLine
 10
106.2969001226
 20
34.1316883518
 30
0.0
 11
104.0480652178
 21
34.1316883518
 31
0.0
  0
LINE
  5
2DD
330
1F
100
AcDbEntity
  8
0
  6
Continuous
 62
     7
370
    25
100
AcDbLine
 10
112.6027285545
 20
42.1316883518
 30
0.0
 11
114.0961414291
 21
42.1316883518
 31
0.0
  0
LINE
  5
2DE
330
1F
100
AcDbEntity
  8
0
  6
Continuous
 62
     7
370
    25
100
AcDbLine
 10
99.1961414291
 20
42.1316883518
 30
0.0
 11
100.6895543037
 21
42.1316883518
 31
0.0
  0
SPLINE
  5
2DF
330
1F
100
AcDbEntity
  8
0
  6
Continuous
 62
     7
370
    25
100
AcDbSpline
210
0.0
220
0.0
230
1.0
 70
     8
 71
     3
 72
     9
 73
     5
 74
     0
 42
0.00000001
 43
0.00000001
 40
0.0
 40
0.0
 40
0.0
 40
0.0
 40
0.4875141023677128
 40
0.9999999999999999
 40
0.9999999999999999
 40
0.9999999999999999
 40
0.9999999999999999
 10
113.3058636513452
 20
34.13168835176927
 30
0.0
 10
113.3143897628809
 20
34.13341569774098
 30
0.0
 10
113.3318787165222
 20
34.13695886903245
 30
0.0
 10
113.3482004204086
 20
34.15847735498176
 30
0.0
 10
113.3565650634758
 20
34.16950527556919
 30
0.0
  0
SPLINE
  5
2E0
330
1F
100
AcDbEntity
  8
0
  6
Continuous
 62
     7
370
    25
100
AcDbSpline
210
0.0
220
0.0
230
1.0
 70
     8
 71
     3
 72
     9
 73
     5
 74
     0
 42
0.00000001
 43
0.00000001
 40
0.0
 40
0.0
 40
0.0
 40
0.0
 40
0.5124861829376838
 40
0.9999999999999999
 40
0.9999999999999999
 40
0.9999999999999999
 40
0.9999999999999999
 10
99.93571782563639
 20
34.16950522970943
 30
0.0
 10
99.94408246876002
 20
34.15847731675825
 30
0.0
 10
99.96040416367028
 20
34.13695885768885
 30
0.0
 10
99.97789310591205
 20
34.13341569334369
 30
0.0
 10
99.9864192069007
 20
34.13168835176931
 30
0.0
  0
LINE
  5
2E1
330
1F
100
AcDbEntity
  8
0
  6
Continuous
 62
     7
370
    25
100
AcDbLine
 10
113.3543453616
 20
34.1316883518
 30
0.0
 11
113.6461414291
 21
34.1316883518
 31
0.0
  0
LINE
  5
2E2
330
1F
100
AcDbEntity
  8
0
  6
Continuous
 62
     7
370
    25
100
AcDbLine
 10
99.6461414291
 20
34.1316883518
 30
0.0
 11
99.9379374966
 21
34.1316883518
 31
0.0
  0
LINE
  5
2E3
330
1F
100
AcDbEntity
  8
0
  6
Continuous
 62
     7
370
    25
100
AcDbLine
 10
113.3565650635
 20
34.1695052756
 30
0.0
 11
113.3543453616
 21
34.1316883518
 31
0.0
  0
LINE
  5
2E4
330
1F
100
AcDbEntity
  8
0
  6
Continuous
 62
     7
370
    25
100
AcDbLine
 10
113.3543453616
 20
34.1316883518
 30
0.0
 11
113.3058636513
 21
34.1316883518
 31
0.0
  0
LINE
  5
2E5
330
1F
100
AcDbEntity
  8
0
  6
Continuous
 62
     7
370
    25
100
AcDbLine
 10
99.9379374966
 20
34.1316883518
 30
0.0
 11
99.9357178256
 21
34.1695052297
 31
0.0
  0
LINE
  5
2E6
330
1F
100
AcDbEntity
  8
0
  6
Continuous
 62
     7
370
    25
100
AcDbLine
 10
99.9864192069
 20
34.1316883518
 30
0.0
 11
99.9379374966
 21
34.1316883518
 31
0.0
  0
LINE
  5
2E7
330
1F
100
AcDbEntity
  8
0
  6
Continuous
 62
     7
370
    25
100
AcDbLine
 10
112.1461414291
 20
50.7316883518
 30
0.0
 11
110.1461414291
 21
50.7316883518
 31
0.0
  0
LINE
  5
2E8
330
1F
100
AcDbEntity
  8
0
  6
Continuous
 62
     7
370
    25
100
AcDbLine
 10
103.1461414291
 20
50.7316883518
 30
0.0
 11
101.1461414291
 21
50.7316883518
 31
0.0
  0
INSERT
  5
2F4
330
1F
100
AcDbEntity
  8
0
  6
Continuous
 62
     7
370
    18
100
AcDbBlockReference
  2
SW_CENTERMARKSYMBOL_1
 10
106.6461414291
 20
21.6316883518
 30
0.0
  0
ENDSEC
  0
SECTION
  2
OBJECTS
  0
DICTIONARY
  5
C
330
0
100
AcDbDictionary
281
     1
  3
ACAD_GROUP
350
D
  3
ACAD_LAYOUT
350
1A
  3
ACAD_MLINESTYLE
350
17
  3
ACAD_PLOTSETTINGS
350
19
  3
ACAD_PLOTSTYLENAME
350
E
  3
ACAD_SCALELIST
350
47
  3
DWGPROPS
350
2F5
  0
DICTIONARY
  5
D
102
{ACAD_REACTORS
330
C
102
}
330
C
100
AcDbDictionary
281
     1
  0
DICTIONARY
  5
1A
102
{ACAD_REACTORS
330
C
102
}
330
C
100
AcDbDictionary
281
     1
  3
Layout1
350
1E
  3
Layout2
350
26
  3
Model
350
22
  0
DICTIONARY
  5
17
102
{ACAD_REACTORS
330
C
102
}
330
C
100
AcDbDictionary
281
     1
  3
Standard
350
18
  0
DICTIONARY
  5
19
102
{ACAD_REACTORS
330
C
102
}
330
C
100
AcDbDictionary
281
     1
  0
ACDBDICTIONARYWDFLT
  5
E
102
{ACAD_REACTORS
330
C
102
}
330
C
100
AcDbDictionary
281
     1
  3
Normal
350
F
100
AcDbDictionaryWithDefault
340
F
  0
DICTIONARY
  5
47
102
{ACAD_REACTORS
330
C
102
}
330
C
100
AcDbDictionary
281
     1
  3
A0
350
48
  3
A1
350
49
  3
A2
350
4A
  3
A3
350
4B
  3
A4
350
4C
  3
A5
350
4D
  3
A6
350
4E
  3
A7
350
4F
  3
A8
350
50
  3
A9
350
51
  3
B0
350
52
  3
B1
350
53
  3
B2
350
54
  3
B3
350
55
  3
B4
350
56
  3
B5
350
57
  3
B6
350
58
  0
XRECORD
  5
2F5
102
{ACAD_REACTORS
330
C
102
}
330
C
100
AcDbXrecord
280
     1
  1
DWGPROPS COOKIE
  2

  3

  4

  6

  7

  8
user52
  9

300
=
301
=
302
=
303
=
304
=
305
=
306
=
307
=
308
=
309
=
 40
0.0
 41
2460398.030948982
 42
2460398.030949757
  1

 90
        0
  0
LAYOUT
  5
1E
102
{ACAD_REACTORS
330
1A
102
}
330
1A
100
AcDbPlotSettings
  1

  2
none_device
  4

  6

 40
0.0
 41
0.0
 42
0.0
 43
0.0
 44
0.0
 45
0.0
 46
0.0
 47
0.0
 48
0.0
 49
0.0
140
0.0
141
0.0
142
1.0
143
1.0
 70
   688
 72
     1
 73
     0
 74
     5
  7

 75
    16
147
1.0
148
0.0
149
0.0
100
AcDbLayout
  1
Layout1
 70
     1
 71
     1
 10
0.0
 20
0.0
 11
420.0
 21
297.0
 12
0.0
 22
0.0
 32
0.0
 14
1.0000000000E+20
 24
1.0000000000E+20
 34
1.0000000000E+20
 15
-1.0000000000E+20
 25
-1.0000000000E+20
 35
-1.0000000000E+20
146
0.0
 13
0.0
 23
0.0
 33
0.0
 16
1.0
 26
0.0
 36
0.0
 17
0.0
 27
1.0
 37
0.0
 76
     0
330
1B
  0
LAYOUT
  5
26
102
{ACAD_REACTORS
330
1A
102
}
330
1A
100
AcDbPlotSettings
  1

  2
none_device
  4

  6

 40
0.0
 41
0.0
 42
0.0
 43
0.0
 44
0.0
 45
0.0
 46
0.0
 47
0.0
 48
0.0
 49
0.0
140
0.0
141
0.0
142
1.0
143
1.0
 70
   688
 72
     1
 73
     0
 74
     5
  7

 75
    16
147
1.0
148
0.0
149
0.0
100
AcDbLayout
  1
Layout2
 70
     1
 71
     2
 10
0.0
 20
0.0
 11
0.0
 21
0.0
 12
0.0
 22
0.0
 32
0.0
 14
0.0
 24
0.0
 34
0.0
 15
0.0
 25
0.0
 35
0.0
146
0.0
 13
0.0
 23
0.0
 33
0.0
 16
1.0
 26
0.0
 36
0.0
 17
0.0
 27
1.0
 37
0.0
 76
     0
330
23
  0
LAYOUT
  5
22
102
{ACAD_REACTORS
330
1A
102
}
330
1A
100
AcDbPlotSettings
  1

  2
none_device
  4
Letter_(8.50_x_11.00_Inches)
  6

 40
6.35
 41
6.35
 42
6.35000508
 43
6.35000508
 44
215.9
 45
279.4
 46
0.0
 47
0.0
 48
0.0
 49
0.0
140
0.0
141
0.0
142
1.0
143
1.0
 70
  1712
 72
     1
 73
     0
 74
     0
  7

 75
     0
147
1.0
148
0.0
149
0.0
100
AcDbLayout
  1
Model
 70
     1
 71
     0
 10
0.0
 20
0.0
 11
431.8
 21
279.4
 12
0.0
 22
0.0
 32
0.0
 14
0.0
 24
0.0
 34
0.0
 15
431.8
 25
279.4
 35
0.0
146
0.0
 13
0.0
 23
0.0
 33
0.0
 16
1.0
 26
0.0
 36
0.0
 17
0.0
 27
1.0
 37
0.0
 76
     0
330
1F
331
29
  0
MLINESTYLE
  5
18
102
{ACAD_REACTORS
330
17
102
}
330
17
100
AcDbMlineStyle
  2
Standard
 70
     0
  3

 62
   256
 51
90.0
 52
90.0
 71
     2
 49
0.5
 62
   256
  6
BYLAYER
 49
-0.5
 62
   256
  6
BYLAYER
  0
ACDBPLACEHOLDER
  5
F
102
{ACAD_REACTORS
330
E
102
}
330
E
  0
SCALE
  5
48
102
{ACAD_REACTORS
330
47
102
}
330
47
100
AcDbScale
 70
     0
300
1:1
140
1.0
141
1.0
290
     1
  0
SCALE
  5
49
102
{ACAD_REACTORS
330
47
102
}
330
47
100
AcDbScale
 70
     0
300
1:2
140
1.0
141
2.0
290
     0
  0
SCALE
  5
4A
102
{ACAD_REACTORS
330
47
102
}
330
47
100
AcDbScale
 70
     0
300
1:4
140
1.0
141
4.0
290
     0
  0
SCALE
  5
4B
102
{ACAD_REACTORS
330
47
102
}
330
47
100
AcDbScale
 70
     0
300
1:5
140
1.0
141
5.0
290
     0
  0
SCALE
  5
4C
102
{ACAD_REACTORS
330
47
102
}
330
47
100
AcDbScale
 70
     0
300
1:8
140
1.0
141
8.0
290
     0
  0
SCALE
  5
4D
102
{ACAD_REACTORS
330
47
102
}
330
47
100
AcDbScale
 70
     0
300
1:10
140
1.0
141
10.0
290
     0
  0
SCALE
  5
4E
102
{ACAD_REACTORS
330
47
102
}
330
47
100
AcDbScale
 70
     0
300
1:16
140
1.0
141
16.0
290
     0
  0
SCALE
  5
4F
102
{ACAD_REACTORS
330
47
102
}
330
47
100
AcDbScale
 70
     0
300
1:20
140
1.0
141
20.0
290
     0
  0
SCALE
  5
50
102
{ACAD_REACTORS
330
47
102
}
330
47
100
AcDbScale
 70
     0
300
1:30
140
1.0
141
30.0
290
     0
  0
SCALE
  5
51
102
{ACAD_REACTORS
330
47
102
}
330
47
100
AcDbScale
 70
     0
300
1:40
140
1.0
141
40.0
290
     0
  0
SCALE
  5
52
102
{ACAD_REACTORS
330
47
102
}
330
47
100
AcDbScale
 70
     0
300
1:50
140
1.0
141
50.0
290
     0
  0
SCALE
  5
53
102
{ACAD_REACTORS
330
47
102
}
330
47
100
AcDbScale
 70
     0
300
1:100
140
1.0
141
100.0
290
     0
  0
SCALE
  5
54
102
{ACAD_REACTORS
330
47
102
}
330
47
100
AcDbScale
 70
     0
300
2:1
140
2.0
141
1.0
290
     0
  0
SCALE
  5
55
102
{ACAD_REACTORS
330
47
102
}
330
47
100
AcDbScale
 70
     0
300
4:1
140
4.0
141
1.0
290
     0
  0
SCALE
  5
56
102
{ACAD_REACTORS
330
47
102
}
330
47
100
AcDbScale
 70
     0
300
8:1
140
8.0
141
1.0
290
     0
  0
SCALE
  5
57
102
{ACAD_REACTORS
330
47
102
}
330
47
100
AcDbScale
 70
     0
300
10:1
140
10.0
141
1.0
290
     0
  0
SCALE
  5
58
102
{ACAD_REACTORS
330
47
102
}
330
47
100
AcDbScale
 70
     0
300
100:1
140
100.0
141
1.0
290
     0
  0
ENDSEC
  0
EOF
