  0
SECTION
  2
HEADER
  9
$ACADVER
  1
AC1015
  9
$ACADMAINTVER
 70
     6
  9
$DWGCODEPAGE
  3
DOS932
  9
$INSBASE
 10
0.0
 20
0.0
 30
0.0
  9
$EXTMIN
 10
0.0
 20
0.0
 30
0.0
  9
$EXTMAX
 10
431.8
 20
279.4
 30
0.0
  9
$LIMMIN
 10
0.0
 20
0.0
  9
$LIMMAX
 10
431.8
 20
279.4
  9
$ORTHOMODE
 70
     0
  9
$REGENMODE
 70
     1
  9
$FILLMODE
 70
     1
  9
$QTEXTMODE
 70
     0
  9
$MIRRTEXT
 70
     1
  9
$LTSCALE
 40
1.0
  9
$ATTMODE
 70
     1
  9
$TEXTSIZE
 40
3.5
  9
$TRACEWID
 40
1.0
  9
$TEXTSTYLE
  7
Standard
  9
$CLAYER
  8
0
  9
$CELTYPE
  6
ByLayer
  9
$CECOLOR
 62
   256
  9
$CELTSCALE
 40
1.0
  9
$DISPSILH
 70
     0
  9
$DIMSCALE
 40
1.0
  9
$DIMASZ
 40
3.556
  9
$DIMEXO
 40
1.0
  9
$DIMDLI
 40
3.75
  9
$DIMRND
 40
0.0
  9
$DIMDLE
 40
0.0
  9
$DIMEXE
 40
1.0
  9
$DIMTP
 40
0.0
  9
$DIMTM
 40
0.0
  9
$DIMTXT
 40
3.5
  9
$DIMCEN
 40
2.5
  9
$DIMTSZ
 40
0.0
  9
$DIMTOL
 70
     0
  9
$DIMLIM
 70
     0
  9
$DIMTIH
 70
     1
  9
$DIMTOH
 70
     1
  9
$DIMSE1
 70
     0
  9
$DIMSE2
 70
     0
  9
$DIMTAD
 70
     1
  9
$DIMZIN
 70
     0
  9
$DIMBLK
  1

  9
$DIMASO
 70
     1
  9
$DIMSHO
 70
     1
  9
$DIMPOST
  1

  9
$DIMAPOST
  1

  9
$DIMALT
 70
     0
  9
$DIMALTD
 70
     3
  9
$DIMALTF
 40
0.0393700787
  9
$DIMLFAC
 40
1.0
  9
$DIMTOFL
 70
     1
  9
$DIMTVP
 40
0.0
  9
$DIMTIX
 70
     0
  9
$DIMSOXD
 70
     0
  9
$DIMSAH
 70
     0
  9
$DIMBLK1
  1

  9
$DIMBLK2
  1

  9
$DIMSTYLE
  2
ISO-25
  9
$DIMCLRD
 70
     0
  9
$DIMCLRE
 70
     0
  9
$DIMCLRT
 70
     0
  9
$DIMTFAC
 40
1.0
  9
$DIMGAP
 40
1.524
  9
$DIMJUST
 70
     0
  9
$DIMSD1
 70
     0
  9
$DIMSD2
 70
     0
  9
$DIMTOLJ
 70
     0
  9
$DIMTZIN
 70
     0
  9
$DIMALTZ
 70
     0
  9
$DIMALTTZ
 70
     0
  9
$DIMUPT
 70
     0
  9
$DIMDEC
 70
     3
  9
$DIMTDEC
 70
     3
  9
$DIMALTU
 70
     2
  9
$DIMALTTD
 70
     3
  9
$DIMTXSTY
  7
Standard
  9
$DIMAUNIT
 70
     0
  9
$DIMADEC
 70
     2
  9
$DIMALTRND
 40
0.0
  9
$DIMAZIN
 70
     0
  9
$DIMDSEP
 70
    44
  9
$DIMATFIT
 70
     3
  9
$DIMFRAC
 70
     0
  9
$DIMLDRBLK
  1

  9
$DIMLUNIT
 70
     2
  9
$DIMLWD
 70
    -2
  9
$DIMLWE
 70
    -2
  9
$DIMTMOVE
 70
     0
  9
$LUNITS
 70
     2
  9
$LUPREC
 70
     3
  9
$SKETCHINC
 40
1.0
  9
$FILLETRAD
 40
0.0
  9
$AUNITS
 70
     0
  9
$AUPREC
 70
     2
  9
$MENU
  1
.
  9
$ELEVATION
 40
0.0
  9
$PELEVATION
 40
0.0
  9
$THICKNESS
 40
0.0
  9
$LIMCHECK
 70
     0
  9
$CHAMFERA
 40
0.0
  9
$CHAMFERB
 40
0.0
  9
$CHAMFERC
 40
0.0
  9
$CHAMFERD
 40
0.0
  9
$SKPOLY
 70
     0
  9
$TDCREATE
 40
2460398.403921933
  9
$TDUCREATE
 40
2460398.028921933
  9
$TDUPDATE
 40
2460398.403922338
  9
$TDUUPDATE
 40
2460398.028922338
  9
$TDINDWG
 40
0.0000000116
  9
$TDUSRTIMER
 40
0.0000000116
  9
$USRTIMER
 70
     1
  9
$ANGBASE
 50
0.0
  9
$ANGDIR
 70
     0
  9
$PDMODE
 70
     0
  9
$PDSIZE
 40
-1.0
  9
$PLINEWID
 40
0.0
  9
$SPLFRAME
 70
     0
  9
$SPLINETYPE
 70
     6
  9
$SPLINESEGS
 70
     8
  9
$HANDSEED
  5
24B
  9
$SURFTAB1
 70
     6
  9
$SURFTAB2
 70
     6
  9
$SURFTYPE
 70
     6
  9
$SURFU
 70
     6
  9
$SURFV
 70
     6
  9
$UCSBASE
  2

  9
$UCSNAME
  2

  9
$UCSORG
 10
0.0
 20
0.0
 30
0.0
  9
$UCSXDIR
 10
1.0
 20
0.0
 30
0.0
  9
$UCSYDIR
 10
0.0
 20
1.0
 30
0.0
  9
$UCSORTHOREF
  2

  9
$UCSORTHOVIEW
 70
     0
  9
$UCSORGTOP
 10
0.0
 20
0.0
 30
0.0
  9
$UCSORGBOTTOM
 10
0.0
 20
0.0
 30
0.0
  9
$UCSORGLEFT
 10
0.0
 20
0.0
 30
0.0
  9
$UCSORGRIGHT
 10
0.0
 20
0.0
 30
0.0
  9
$UCSORGFRONT
 10
0.0
 20
0.0
 30
0.0
  9
$UCSORGBACK
 10
0.0
 20
0.0
 30
0.0
  9
$PUCSBASE
  2

  9
$PUCSNAME
  2

  9
$PUCSORG
 10
0.0
 20
0.0
 30
0.0
  9
$PUCSXDIR
 10
1.0
 20
0.0
 30
0.0
  9
$PUCSYDIR
 10
0.0
 20
1.0
 30
0.0
  9
$PUCSORTHOREF
  2

  9
$PUCSORTHOVIEW
 70
     0
  9
$PUCSORGTOP
 10
0.0
 20
0.0
 30
0.0
  9
$PUCSORGBOTTOM
 10
0.0
 20
0.0
 30
0.0
  9
$PUCSORGLEFT
 10
0.0
 20
0.0
 30
0.0
  9
$PUCSORGRIGHT
 10
0.0
 20
0.0
 30
0.0
  9
$PUCSORGFRONT
 10
0.0
 20
0.0
 30
0.0
  9
$PUCSORGBACK
 10
0.0
 20
0.0
 30
0.0
  9
$USERI1
 70
     0
  9
$USERI2
 70
     0
  9
$USERI3
 70
     0
  9
$USERI4
 70
     0
  9
$USERI5
 70
     0
  9
$USERR1
 40
0.0
  9
$USERR2
 40
0.0
  9
$USERR3
 40
0.0
  9
$USERR4
 40
0.0
  9
$USERR5
 40
0.0
  9
$WORLDVIEW
 70
     1
  9
$SHADEDGE
 70
     3
  9
$SHADEDIF
 70
    70
  9
$TILEMODE
 70
     1
  9
$MAXACTVP
 70
    64
  9
$PINSBASE
 10
0.0
 20
0.0
 30
0.0
  9
$PLIMCHECK
 70
     0
  9
$PEXTMIN
 10
1.0000000000E+20
 20
1.0000000000E+20
 30
1.0000000000E+20
  9
$PEXTMAX
 10
-1.0000000000E+20
 20
-1.0000000000E+20
 30
-1.0000000000E+20
  9
$PLIMMIN
 10
0.0
 20
0.0
  9
$PLIMMAX
 10
420.0
 20
297.0
  9
$UNITMODE
 70
     0
  9
$VISRETAIN
 70
     1
  9
$PLINEGEN
 70
     0
  9
$PSLTSCALE
 70
     1
  9
$TREEDEPTH
 70
  3020
  9
$CMLSTYLE
  2
Standard
  9
$CMLJUST
 70
     0
  9
$CMLSCALE
 40
20.0
  9
$PROXYGRAPHICS
 70
     1
  9
$MEASUREMENT
 70
     1
  9
$CELWEIGHT
370
    -1
  9
$ENDCAPS
280
     0
  9
$JOINSTYLE
280
     0
  9
$LWDISPLAY
290
     1
  9
$INSUNITS
 70
     4
  9
$HYPERLINKBASE
  1

  9
$STYLESHEET
  1

  9
$XEDIT
290
     1
  9
$CEPSNTYPE
380
     0
  9
$PSTYLEMODE
290
     1
  9
$FINGERPRINTGUID
  2
{8757f48d-0782-4000-a7dd-8b306255a1d1}
  9
$VERSIONGUID
  2
{FAEB1C32-E019-11D5-929B-00C0DF256EC4}
  9
$EXTNAMES
290
     1
  9
$PSVPSCALE
 40
0.0
  9
$OLESTARTUP
290
     0
  0
ENDSEC
  0
SECTION
  2
CLASSES
  0
CLASS
  1
ACDBDICTIONARYWDFLT
  2
AcDbDictionaryWithDefault
  3
ObjectDBX Classes
 90
        0
280
     0
281
     0
  0
CLASS
  1
VISUALSTYLE
  2
AcDbVisualStyle
  3
ObjectDBX Classes
 90
     4095
280
     0
281
     0
  0
CLASS
  1
MATERIAL
  2
AcDbMaterial
  3
ObjectDBX Classes
 90
     1153
280
     0
281
     0
  0
CLASS
  1
SCALE
  2
AcDbScale
  3
ObjectDBX Classes
 90
     1153
280
     0
281
     0
  0
CLASS
  1
TABLESTYLE
  2
AcDbTableStyle
  3
ObjectDBX Classes
 90
     4095
280
     0
281
     0
  0
CLASS
  1
MLEADERSTYLE
  2
AcDbMLeaderStyle
  3
ACDB_MLEADERSTYLE_CLASS
 90
     4095
280
     0
281
     0
  0
CLASS
  1
SUN
  2
AcDbSun
  3
SCENEOE
 90
     1153
280
     0
281
     0
  0
CLASS
  1
ACDBPLACEHOLDER
  2
AcDbPlaceHolder
  3
ObjectDBX Classes
 90
        0
280
     0
281
     0
  0
CLASS
  1
LAYOUT
  2
AcDbLayout
  3
ObjectDBX Classes
 90
        0
280
     0
281
     0
  0
ENDSEC
  0
SECTION
  2
TABLES
  0
TABLE
  2
VPORT
  5
8
330
0
100
AcDbSymbolTable
 70
     1
  0
VPORT
  5
29
330
8
100
AcDbSymbolTableRecord
100
AcDbViewportTableRecord
  2
*Active
 70
     0
 10
0.0
 20
0.0
 11
1.0
 21
1.0
 12
215.9
 22
139.7
 13
0.0
 23
0.0
 14
10.0
 24
10.0
 15
10.0
 25
10.0
 16
0.0
 26
0.0
 36
1.0
 17
0.0
 27
0.0
 37
0.0
 40
279.4
 41
1.5454545455
 42
50.0
 43
0.0
 44
0.0
 50
0.0
 51
0.0
 71
     0
 72
  2000
 73
     1
 74
     3
 75
     0
 76
     0
 77
     0
 78
     0
281
     0
 65
     1
110
0.0
120
0.0
130
0.0
111
1.0
121
0.0
131
0.0
112
0.0
122
1.0
132
0.0
 79
     0
146
0.0
  0
ENDTAB
  0
TABLE
  2
LTYPE
  5
5
330
0
100
AcDbSymbolTable
 70
     6
  0
LTYPE
  5
14
330
5
100
AcDbSymbolTableRecord
100
AcDbLinetypeTableRecord
  2
ByBlock
 70
     0
  3

 72
    65
 73
     0
 40
0.0
  0
LTYPE
  5
15
330
5
100
AcDbSymbolTableRecord
100
AcDbLinetypeTableRecord
  2
ByLayer
 70
     0
  3

 72
    65
 73
     0
 40
0.0
  0
LTYPE
  5
16
330
5
100
AcDbSymbolTableRecord
100
AcDbLinetypeTableRecord
  2
Continuous
 70
     0
  3
Solid line
 72
    65
 73
     0
 40
0.0
  0
LTYPE
  5
5E
330
5
100
AcDbSymbolTableRecord
100
AcDbLinetypeTableRecord
  2
HIDDEN
 70
     0
  3
Hidden __ __ __ __ __ __ __ __ __ __ __ __ __ __
 72
    65
 73
     2
 40
1.905
 49
1.27
 74
     0
 49
-0.635
 74
     0
  0
LTYPE
  5
5F
330
5
100
AcDbSymbolTableRecord
100
AcDbLinetypeTableRecord
  2
PHANTOM
 70
     0
  3
Phantom ______  __  __  ______  __  __  ______
 72
    65
 73
     6
 40
12.7
 49
6.35
 74
     0
 49
-1.27
 74
     0
 49
1.27
 74
     0
 49
-1.27
 74
     0
 49
1.27
 74
     0
 49
-1.27
 74
     0
  0
LTYPE
  5
60
330
5
100
AcDbSymbolTableRecord
100
AcDbLinetypeTableRecord
  2
CENTER
 70
     0
  3
Center ____ _ ____ _ ____ _ ____ _ ____ _ ____
 72
    65
 73
     4
 40
10.16
 49
6.35
 74
     0
 49
-1.27
 74
     0
 49
1.27
 74
     0
 49
-1.27
 74
     0
  0
LTYPE
  5
61
330
5
100
AcDbSymbolTableRecord
100
AcDbLinetypeTableRecord
  2
CENTERX2
 70
     0
  3
Center (2x) ________  __  ________  __  _____
 72
    65
 73
     4
 40
20.32
 49
12.7
 74
     0
 49
-2.54
 74
     0
 49
2.54
 74
     0
 49
-2.54
 74
     0
  0
LTYPE
  5
62
330
5
100
AcDbSymbolTableRecord
100
AcDbLinetypeTableRecord
  2
DOT2
 70
     0
  3
Dot (.5x) ........................................
 72
    65
 73
     2
 40
0.635
 49
0.0
 74
     0
 49
-0.635
 74
     0
  0
ENDTAB
  0
TABLE
  2
LAYER
  5
2
330
0
100
AcDbSymbolTable
 70
     1
  0
LAYER
  5
10
330
2
100
AcDbSymbolTableRecord
100
AcDbLayerTableRecord
  2
0
 70
     0
 62
     7
  6
Continuous
370
    -3
390
F
  0
ENDTAB
  0
TABLE
  2
STYLE
  5
3
330
0
100
AcDbSymbolTable
 70
     2
  0
STYLE
  5
11
330
3
100
AcDbSymbolTableRecord
100
AcDbTextStyleTableRecord
  2
Standard
 70
     0
 40
0.0
 41
1.0
 50
0.0
 71
     0
 42
3.5
  3
txt
  4
bigfont
  0
STYLE
  5
63
330
3
100
AcDbSymbolTableRecord
100
AcDbTextStyleTableRecord
  2
SLDTEXTSTYLE0
 70
     0
 40
0.0
 41
0.75
 50
0.0
 71
     0
 42
3.5
  3
TXT
  4
bigfont
  0
ENDTAB
  0
TABLE
  2
VIEW
  5
6
330
0
100
AcDbSymbolTable
 70
     0
  0
ENDTAB
  0
TABLE
  2
UCS
  5
7
330
0
100
AcDbSymbolTable
 70
     0
  0
ENDTAB
  0
TABLE
  2
APPID
  5
9
330
0
100
AcDbSymbolTable
 70
     1
  0
APPID
  5
12
330
9
100
AcDbSymbolTableRecord
100
AcDbRegAppTableRecord
  2
ACAD
 70
     0
  0
ENDTAB
  0
TABLE
  2
DIMSTYLE
  5
A
330
0
100
AcDbSymbolTable
 70
     1
100
AcDbDimStyleTable
  0
DIMSTYLE
105
27
330
A
100
AcDbSymbolTableRecord
100
AcDbDimStyleTableRecord
  2
ISO-25
 70
     0
 41
2.5
 42
0.625
 43
3.75
 44
1.25
 73
     0
 74
     0
 77
     1
 78
     8
140
2.5
141
2.5
143
0.0393700787
147
0.625
171
     3
172
     1
178
     0
271
     2
272
     2
274
     3
278
    44
283
     0
284
     8
340
11
  0
ENDTAB
  0
TABLE
  2
BLOCK_RECORD
  5
1
330
0
100
AcDbSymbolTable
 70
     3
  0
BLOCK_RECORD
  5
1F
330
1
100
AcDbSymbolTableRecord
100
AcDbBlockTableRecord
  2
*Model_Space
340
22
  0
BLOCK_RECORD
  5
1B
330
1
100
AcDbSymbolTableRecord
100
AcDbBlockTableRecord
  2
*Paper_Space
340
1E
  0
BLOCK_RECORD
  5
23
330
1
100
AcDbSymbolTableRecord
100
AcDbBlockTableRecord
  2
*Paper_Space0
340
26
  0
BLOCK_RECORD
  5
176
330
1
100
AcDbSymbolTableRecord
100
AcDbBlockTableRecord
  2
SW_CENTERMARKSYMBOL_0
340
0
102
{BLKREFS
331
181
102
}
  0
BLOCK_RECORD
  5
23A
330
1
100
AcDbSymbolTableRecord
100
AcDbBlockTableRecord
  2
SW_CENTERMARKSYMBOL_1
340
0
102
{BLKREFS
331
245
102
}
  0
ENDTAB
  0
ENDSEC
  0
SECTION
  2
BLOCKS
  0
BLOCK
  5
20
330
1F
100
AcDbEntity
  8
0
100
AcDbBlockBegin
  2
*Model_Space
 70
     0
 10
0.0
 20
0.0
 30
0.0
  3
*Model_Space
  1

  0
ENDBLK
  5
21
330
1F
100
AcDbEntity
  8
0
100
AcDbBlockEnd
  0
BLOCK
  5
1C
330
1B
100
AcDbEntity
 67
     1
  8
0
100
AcDbBlockBegin
  2
*Paper_Space
 70
     0
 10
0.0
 20
0.0
 30
0.0
  3
*Paper_Space
  1

  0
ENDBLK
  5
1D
330
1B
100
AcDbEntity
 67
     1
  8
0
100
AcDbBlockEnd
  0
BLOCK
  5
24
330
23
100
AcDbEntity
  8
0
100
AcDbBlockBegin
  2
*Paper_Space0
 70
     0
 10
0.0
 20
0.0
 30
0.0
  3
*Paper_Space0
  1

  0
ENDBLK
  5
25
330
23
100
AcDbEntity
  8
0
100
AcDbBlockEnd
  0
BLOCK
  5
177
330
176
100
AcDbEntity
  8
0
100
AcDbBlockBegin
  2
SW_CENTERMARKSYMBOL_0
 70
     0
 10
0.0
 20
0.0
 30
0.0
  3
SW_CENTERMARKSYMBOL_0
  1

  0
LINE
  5
179
330
176
100
AcDbEntity
  8
0
  6
Continuous
 62
     0
370
    18
100
AcDbLine
 10
0.0
 20
0.0
 30
0.0
 11
0.0
 21
2.5
 31
0.0
  0
LINE
  5
17A
330
176
100
AcDbEntity
  8
0
  6
Continuous
 62
     0
370
    18
100
AcDbLine
 10
0.0
 20
0.0
 30
0.0
 11
-2.5
 21
0.0
 31
0.0
  0
LINE
  5
17B
330
176
100
AcDbEntity
  8
0
  6
Continuous
 62
     0
370
    18
100
AcDbLine
 10
0.0
 20
0.0
 30
0.0
 11
0.0
 21
-2.5
 31
0.0
  0
LINE
  5
17C
330
176
100
AcDbEntity
  8
0
  6
Continuous
 62
     0
370
    18
100
AcDbLine
 10
0.0
 20
0.0
 30
0.0
 11
2.5
 21
0.0
 31
0.0
  0
LINE
  5
17D
330
176
100
AcDbEntity
  8
0
  6
Continuous
 62
     0
370
    18
100
AcDbLine
 10
0.0
 20
5.0
 30
0.0
 11
0.0
 21
31.1925281348
 31
0.0
  0
LINE
  5
17E
330
176
100
AcDbEntity
  8
0
  6
Continuous
 62
     0
370
    18
100
AcDbLine
 10
-5.0
 20
0.0
 30
0.0
 11
-12.5
 21
0.0
 31
0.0
  0
LINE
  5
17F
330
176
100
AcDbEntity
  8
0
  6
Continuous
 62
     0
370
    18
100
AcDbLine
 10
0.0
 20
-5.0
 30
0.0
 11
0.0
 21
-12.5
 31
0.0
  0
LINE
  5
180
330
176
100
AcDbEntity
  8
0
  6
Continuous
 62
     0
370
    18
100
AcDbLine
 10
5.0
 20
0.0
 30
0.0
 11
12.5
 21
0.0
 31
0.0
  0
ENDBLK
  5
178
330
176
100
AcDbEntity
  8
0
100
AcDbBlockEnd
  0
BLOCK
  5
23B
330
23A
100
AcDbEntity
  8
0
100
AcDbBlockBegin
  2
SW_CENTERMARKSYMBOL_1
 70
     0
 10
0.0
 20
0.0
 30
0.0
  3
SW_CENTERMARKSYMBOL_1
  1

  0
LINE
  5
23D
330
23A
100
AcDbEntity
  8
0
  6
Continuous
 62
     0
370
    18
100
AcDbLine
 10
0.0
 20
0.0
 30
0.0
 11
0.0
 21
2.5
 31
0.0
  0
LINE
  5
23E
330
23A
100
AcDbEntity
  8
0
  6
Continuous
 62
     0
370
    18
100
AcDbLine
 10
0.0
 20
0.0
 30
0.0
 11
-2.5
 21
0.0
 31
0.0
  0
LINE
  5
23F
330
23A
100
AcDbEntity
  8
0
  6
Continuous
 62
     0
370
    18
100
AcDbLine
 10
0.0
 20
0.0
 30
0.0
 11
0.0
 21
-2.5
 31
0.0
  0
LINE
  5
240
330
23A
100
AcDbEntity
  8
0
  6
Continuous
 62
     0
370
    18
100
AcDbLine
 10
0.0
 20
0.0
 30
0.0
 11
2.5
 21
0.0
 31
0.0
  0
LINE
  5
241
330
23A
100
AcDbEntity
  8
0
  6
Continuous
 62
     0
370
    18
100
AcDbLine
 10
0.0
 20
5.0
 30
0.0
 11
0.0
 21
10.7262025077
 31
0.0
  0
LINE
  5
242
330
23A
100
AcDbEntity
  8
0
  6
Continuous
 62
     0
370
    18
100
AcDbLine
 10
-5.0
 20
0.0
 30
0.0
 11
-22.7275375491
 21
0.0
 31
0.0
  0
LINE
  5
243
330
23A
100
AcDbEntity
  8
0
  6
Continuous
 62
     0
370
    18
100
AcDbLine
 10
0.0
 20
-5.0
 30
0.0
 11
0.0
 21
-10.8410595026
 31
0.0
  0
LINE
  5
244
330
23A
100
AcDbEntity
  8
0
  6
Continuous
 62
     0
370
    18
100
AcDbLine
 10
5.0
 20
0.0
 30
0.0
 11
43.4200984489
 21
0.0
 31
0.0
  0
ENDBLK
  5
23C
330
23A
100
AcDbEntity
  8
0
100
AcDbBlockEnd
  0
ENDSEC
  0
SECTION
  2
ENTITIES
  0
MTEXT
  5
64
330
1F
100
AcDbEntity
  8
0
  6
Continuous
 62
     7
370
     0
100
AcDbMText
 10
59.2665396084
 20
62.1238579734
 30
0.0
 40
2.6458333333
 41
0.0
 71
     1
 72
     1
  1
エースボール　ストレート　BS-9033R
  7
SLDTEXTSTYLE0
 73
     1
 44
1.0
  0
LINE
  5
65
330
1F
100
AcDbEntity
  8
0
  6
Continuous
 62
     7
370
    25
100
AcDbLine
 10
45.6798994972
 20
29.9067254608
 30
0.0
 11
44.7763725513
 21
28.3417708846
 31
0.0
  0
LINE
  5
66
330
1F
100
AcDbEntity
  8
0
  6
Continuous
 62
     7
370
    25
100
AcDbLine
 10
44.7763725513
 20
11.8417708846
 30
0.0
 11
45.6798994972
 21
10.2768163084
 31
0.0
  0
LINE
  5
67
330
1F
100
AcDbEntity
  8
0
  6
Continuous
 62
     7
370
    25
100
AcDbLine
 10
53.8728456055
 20
10.2768163084
 30
0.0
 11
54.7763725513
 21
11.8417708846
 31
0.0
  0
LINE
  5
68
330
1F
100
AcDbEntity
  8
0
  6
Continuous
 62
     7
370
    25
100
AcDbLine
 10
54.7763725513
 20
28.3417708846
 30
0.0
 11
53.8728456055
 21
29.9067254608
 31
0.0
  0
LINE
  5
69
330
1F
100
AcDbEntity
  8
0
  6
Continuous
 62
     7
370
    25
100
AcDbLine
 10
54.7763725513
 20
11.6467083846
 30
0.0
 11
62.7024631177
 21
11.8943987148
 31
0.0
  0
LINE
  5
6A
330
1F
100
AcDbEntity
  8
0
  6
Continuous
 62
     7
370
    25
100
AcDbLine
 10
62.7024631177
 20
28.2891430544
 30
0.0
 11
54.7763725513
 21
28.5368333846
 31
0.0
  0
LINE
  5
6B
330
1F
100
AcDbEntity
  8
0
  6
Continuous
 62
     7
370
    25
100
AcDbLine
 10
62.7024631177
 20
11.8943987148
 30
0.0
 11
64.7763725513
 21
13.0917708846
 31
0.0
  0
LINE
  5
6C
330
1F
100
AcDbEntity
  8
0
  6
Continuous
 62
     7
370
    25
100
AcDbLine
 10
64.7763725513
 20
27.0917708846
 30
0.0
 11
62.7024631177
 21
28.2891430544
 31
0.0
  0
LINE
  5
6D
330
1F
100
AcDbEntity
  8
0
  6
Continuous
 62
     7
370
    25
100
AcDbLine
 10
25.2763725513
 20
10.0917708846
 30
0.0
 11
26.8944065401
 21
10.0917708846
 31
0.0
  0
LINE
  5
6E
330
1F
100
AcDbEntity
  8
0
  6
Continuous
 62
     7
370
    25
100
AcDbLine
 10
26.8944065401
 20
30.0917708846
 30
0.0
 11
25.2763725513
 21
30.0917708846
 31
0.0
  0
ARC
  5
6F
330
1F
100
AcDbEntity
  8
0
  6
Continuous
 62
     7
370
    25
100
AcDbCircle
 10
25.7763725513
 20
11.0917708846
 30
0.0
 40
1.5
100
AcDbArc
 50
318.1896851042
 51
0.0
  0
ARC
  5
70
330
1F
100
AcDbEntity
  8
0
  6
Continuous
 62
     7
370
    25
100
AcDbCircle
 10
25.7763725513
 20
29.0917708846
 30
0.0
 40
1.5
100
AcDbArc
 50
0.0
 51
41.8103148958
  0
ARC
  5
71
330
1F
100
AcDbEntity
  8
0
  6
Continuous
 62
     7
370
    25
100
AcDbCircle
 10
43.7763725513
 20
29.0917708846
 30
0.0
 40
1.5
100
AcDbArc
 50
138.1896851042
 51
180.0
  0
ARC
  5
72
330
1F
100
AcDbEntity
  8
0
  6
Continuous
 62
     7
370
    25
100
AcDbCircle
 10
43.7763725513
 20
11.0917708846
 30
0.0
 40
1.5
100
AcDbArc
 50
180.0
 51
221.8103148958
  0
LINE
  5
73
330
1F
100
AcDbEntity
  8
0
  6
Continuous
 62
     7
370
    25
100
AcDbLine
 10
44.5263725513
 20
10.0917708846
 30
0.0
 11
44.7763725513
 21
10.3417708846
 31
0.0
  0
LINE
  5
74
330
1F
100
AcDbEntity
  8
0
  6
Continuous
 62
     7
370
    25
100
AcDbLine
 10
44.7763725513
 20
29.8417708846
 30
0.0
 11
44.5263725513
 21
30.0917708846
 31
0.0
  0
LINE
  5
75
330
1F
100
AcDbEntity
  8
0
  6
Continuous
 62
     7
370
    25
100
AcDbLine
 10
25.2763725513
 20
30.0917708846
 30
0.0
 11
24.7763725513
 21
29.5917708846
 31
0.0
  0
LINE
  5
76
330
1F
100
AcDbEntity
  8
0
  6
Continuous
 62
     7
370
    25
100
AcDbLine
 10
24.7763725513
 20
10.5917708846
 30
0.0
 11
25.2763725513
 21
10.0917708846
 31
0.0
  0
LINE
  5
77
330
1F
100
AcDbEntity
  8
0
  6
Continuous
 62
     7
370
    25
100
AcDbLine
 10
44.5263725513
 20
30.0917708846
 30
0.0
 11
42.6583385626
 21
30.0917708846
 31
0.0
  0
LINE
  5
78
330
1F
100
AcDbEntity
  8
0
  6
Continuous
 62
     7
370
    25
100
AcDbLine
 10
42.6583385626
 20
10.0917708846
 30
0.0
 11
44.5263725513
 21
10.0917708846
 31
0.0
  0
LINE
  5
79
330
1F
100
AcDbEntity
  8
0
  6
Continuous
 62
     7
370
    25
100
AcDbLine
 10
24.7763725513
 20
28.5368333846
 30
0.0
 11
16.850281985
 21
28.2891430544
 31
0.0
  0
LINE
  5
7A
330
1F
100
AcDbEntity
  8
0
  6
Continuous
 62
     7
370
    25
100
AcDbLine
 10
16.850281985
 20
11.8943987148
 30
0.0
 11
24.7763725513
 21
11.6467083846
 31
0.0
  0
LINE
  5
7B
330
1F
100
AcDbEntity
  8
0
  6
Continuous
 62
     7
370
    25
100
AcDbLine
 10
16.850281985
 20
28.2891430544
 30
0.0
 11
14.7763725513
 21
27.0917708846
 31
0.0
  0
LINE
  5
7C
330
1F
100
AcDbEntity
  8
0
  6
Continuous
 62
     7
370
    25
100
AcDbLine
 10
14.7763725513
 20
13.0917708846
 30
0.0
 11
16.850281985
 21
11.8943987148
 31
0.0
  0
ARC
  5
7D
330
1F
100
AcDbEntity
  8
0
  6
Continuous
 62
     7
370
    25
100
AcDbCircle
 10
41.7763725513
 20
11.0917708846
 30
0.0
 40
0.5000000000000071
100
AcDbArc
 50
0.0
 51
90.0
  0
ARC
  5
7E
330
1F
100
AcDbEntity
  8
0
  6
Continuous
 62
     7
370
    25
100
AcDbCircle
 10
27.7763725513
 20
11.0917708846
 30
0.0
 40
0.5
100
AcDbArc
 50
90.0
 51
180.0
  0
ARC
  5
7F
330
1F
100
AcDbEntity
  8
0
  6
Continuous
 62
     7
370
    25
100
AcDbCircle
 10
41.7763725513
 20
29.0917708846
 30
0.0
 40
0.5000000000000071
100
AcDbArc
 50
270.0
 51
0.0
  0
ARC
  5
80
330
1F
100
AcDbEntity
  8
0
  6
Continuous
 62
     7
370
    25
100
AcDbCircle
 10
27.7763725513
 20
29.0917708846
 30
0.0
 40
0.5
100
AcDbArc
 50
180.0
 51
270.0
  0
LINE
  5
81
330
1F
100
AcDbEntity
  8
0
  6
Continuous
 62
     7
370
    25
100
AcDbLine
 10
28.3763725513
 20
28.5917708846
 30
0.0
 11
27.7763725513
 21
28.5917708846
 31
0.0
  0
LINE
  5
82
330
1F
100
AcDbEntity
  8
0
  6
Continuous
 62
     7
370
    25
100
AcDbLine
 10
41.7763725513
 20
28.5917708846
 30
0.0
 11
41.1586934263
 21
28.5917708846
 31
0.0
  0
LINE
  5
83
330
1F
100
AcDbEntity
  8
0
  6
Continuous
 62
     7
370
    25
100
AcDbLine
 10
27.7763725513
 20
11.5917708846
 30
0.0
 11
41.7763725513
 21
11.5917708846
 31
0.0
  0
SPLINE
  5
84
330
1F
100
AcDbEntity
  8
0
  6
Continuous
 62
     7
370
    25
100
AcDbSpline
210
0.0
220
0.0
230
1.0
 70
     8
 71
     3
 72
    12
 73
     8
 74
     0
 42
0.00000001
 43
0.00000001
 40
0.0
 40
0.0
 40
0.0
 40
0.0
 40
0.1851356712752652
 40
0.4099436241550456
 40
0.6488777662214272
 40
0.8814791157769586
 40
1.0
 40
1.0
 40
1.0
 40
1.0
 10
41.16118962503783
 20
28.59525523197592
 30
0.0
 10
41.11434455980758
 20
28.59922360042516
 30
0.0
 10
41.01061611200503
 20
28.60801070953739
 30
0.0
 10
40.86276612016596
 20
28.68970163085273
 30
0.0
 10
40.7440931553293
 20
28.82148850825042
 30
0.0
 10
40.68274487637589
 20
28.96287967767901
 30
0.0
 10
40.68143053738711
 20
29.0517369833274
 30
0.0
 10
40.68098688385528
 20
29.08173065909606
 30
0.0
  0
SPLINE
  5
85
330
1F
100
AcDbEntity
  8
0
  6
Continuous
 62
     7
370
    25
100
AcDbSpline
210
0.0
220
0.0
230
1.0
 70
     8
 71
     3
 72
    13
 73
     9
 74
     0
 42
0.00000001
 43
0.00000001
 40
0.0
 40
0.0
 40
0.0
 40
0.0
 40
0.1148369917358001
 40
0.3408574558839146
 40
0.5696514681937401
 40
0.7702842044405298
 40
0.9346330271220702
 40
1.0
 40
1.0
 40
1.0
 40
1.0
 10
28.86799117840424
 20
29.09189455959017
 30
0.0
 10
28.86964343473503
 20
29.06154039755311
 30
0.0
 10
28.87454763747381
 20
28.9714436239347
 30
0.0
 10
28.8120724576198
 20
28.82849757039023
 30
0.0
 10
28.69837306691747
 20
28.69570135743404
 30
0.0
 10
28.55916440688008
 20
28.62012302147354
 30
0.0
 10
28.44758060421101
 20
28.59101874801446
 30
0.0
 10
28.38713834661177
 20
28.59394893377392
 30
0.0
 10
28.36993914877887
 20
28.59478273526588
 30
0.0
  0
LINE
  5
86
330
1F
100
AcDbEntity
  8
0
  6
Continuous
 62
     7
370
    25
100
AcDbLine
 10
40.6763725513
 20
29.0805001446
 30
0.0
 11
40.6763725513
 21
30.5917708846
 31
0.0
  0
LINE
  5
87
330
1F
100
AcDbEntity
  8
0
  6
Continuous
 62
     7
370
    25
100
AcDbLine
 10
28.8763725513
 20
30.5917708846
 30
0.0
 11
28.8763725513
 21
29.0917708846
 31
0.0
  0
LINE
  5
88
330
1F
100
AcDbEntity
  8
0
  6
Continuous
 62
     7
370
    25
100
AcDbLine
 10
29.2763725514
 20
46.5917708846
 30
0.0
 11
27.3263725513
 21
38.5917708846
 31
0.0
  0
LINE
  5
89
330
1F
100
AcDbEntity
  8
0
  6
Continuous
 62
     7
370
    25
100
AcDbLine
 10
27.3263725513
 20
38.5917708846
 30
0.0
 11
27.7763725513
 21
30.5917708846
 31
0.0
  0
LINE
  5
8A
330
1F
100
AcDbEntity
  8
0
  6
Continuous
 62
     7
370
    25
100
AcDbLine
 10
41.7763725513
 20
30.5917708846
 30
0.0
 11
41.8470291771
 21
31.8478886759
 31
0.0
  0
LINE
  5
8B
330
1F
100
AcDbEntity
  8
0
  6
Continuous
 62
     7
370
    25
100
AcDbLine
 10
40.5296040859
 20
45.5528722814
 30
0.0
 11
40.2763725513
 21
46.5917708846
 31
0.0
  0
SPLINE
  5
8C
330
1F
100
AcDbEntity
  8
0
  6
Continuous
 62
     7
370
    25
100
AcDbSpline
210
0.0
220
0.0
230
1.0
 70
     8
 71
     3
 72
    14
 73
    10
 74
     0
 42
0.00000001
 43
0.00000001
 40
0.0
 40
0.0
 40
0.0
 40
0.0
 40
0.132317364830439
 40
0.2645973188387831
 40
0.3998364273285066
 40
0.5350511314348787
 40
0.6502525552916443
 40
0.76547194948634
 40
1.0
 40
1.0
 40
1.0
 40
1.0
 10
45.67989949719674
 20
24.9992481726857
 30
0.0
 10
45.56433132099948
 20
25.21127044867503
 30
0.0
 10
45.33322764383608
 20
25.6352550544202
 30
0.0
 10
45.08453788650876
 20
26.28815868357058
 30
0.0
 10
44.93512923479928
 20
26.95334983994681
 30
0.0
 10
44.90514323822932
 20
27.59451649131713
 30
0.0
 10
44.98316917545829
 20
28.2008117024479
 30
0.0
 10
45.18781435828882
 20
28.9670096950819
 30
0.0
 10
45.48237663467969
 20
29.52952376678076
 30
0.0
 10
45.67989949719674
 20
29.90672546079755
 30
0.0
  0
SPLINE
  5
8D
330
1F
100
AcDbEntity
  8
0
  6
Continuous
 62
     7
370
    25
100
AcDbSpline
210
0.0
220
0.0
230
1.0
 70
     8
 71
     3
 72
    14
 73
    10
 74
     0
 42
0.00000001
 43
0.00000001
 40
0.0
 40
0.0
 40
0.0
 40
0.0
 40
0.1185009945920698
 40
0.2439073148360067
 40
0.3692815579563457
 40
0.4977503482751114
 40
0.62621864735826
 40
0.8121215201811401
 40
1.0
 40
1.0
 40
1.0
 40
1.0
 10
45.67989949719674
 20
15.18429359646204
 30
0.0
 10
45.57576902349989
 20
15.56387121768967
 30
0.0
 10
45.36144015377663
 20
16.34514532162588
 30
0.0
 10
45.12150709242321
 20
17.54892895614073
 30
0.0
 10
44.95922510606265
 20
18.79892859541664
 30
0.0
 10
44.90274502734279
 20
20.06900297830324
 30
0.0
 10
44.96480482373208
 20
21.53966496674646
 30
0.0
 10
45.20005982653462
 20
23.19572713021026
 30
0.0
 10
45.51939033725587
 20
24.39595989711655
 30
0.0
 10
45.67989949719674
 20
24.9992481726857
 30
0.0
  0
SPLINE
  5
8E
330
1F
100
AcDbEntity
  8
0
  6
Continuous
 62
     7
370
    25
100
AcDbSpline
210
0.0
220
0.0
230
1.0
 70
     8
 71
     3
 72
    14
 73
    10
 74
     0
 42
0.00000001
 43
0.00000001
 40
0.0
 40
0.0
 40
0.0
 40
0.0
 40
0.132317364830439
 40
0.2645973188387831
 40
0.3998364273285067
 40
0.5350511314348789
 40
0.6502525552916445
 40
0.7654719494863401
 40
1.0
 40
1.0
 40
1.0
 40
1.0
 10
45.67989949719674
 20
10.27681630835026
 30
0.0
 10
45.56433132099948
 20
10.48883858433958
 30
0.0
 10
45.33322764383607
 20
10.91282319008475
 30
0.0
 10
45.08453788650876
 20
11.56572681923511
 30
0.0
 10
44.93512923479928
 20
12.23091797561134
 30
0.0
 10
44.90514323822932
 20
12.87208462698165
 30
0.0
 10
44.98316917545829
 20
13.47837983811242
 30
0.0
 10
45.18781435828882
 20
14.2445778307464
 30
0.0
 10
45.48237663467969
 20
14.80709190244525
 30
0.0
 10
45.67989949719674
 20
15.18429359646204
 30
0.0
  0
SPLINE
  5
8F
330
1F
100
AcDbEntity
  8
0
  6
Continuous
 62
     7
370
    25
100
AcDbSpline
210
0.0
220
0.0
230
1.0
 70
     8
 71
     3
 72
    14
 73
    10
 74
     0
 42
0.00000001
 43
0.00000001
 40
0.0
 40
0.0
 40
0.0
 40
0.0
 40
0.1323173648304389
 40
0.2645973188387831
 40
0.3998364273285066
 40
0.5350511314348788
 40
0.6502525552916444
 40
0.76547194948634
 40
1.0
 40
1.0
 40
1.0
 40
1.0
 10
53.87284560549224
 20
15.18429359646204
 30
0.0
 10
53.9884137816895
 20
14.97227132047271
 30
0.0
 10
54.21951745885291
 20
14.54828671472755
 30
0.0
 10
54.46820721618022
 20
13.89538308557719
 30
0.0
 10
54.6176158678897
 20
13.23019192920096
 30
0.0
 10
54.64760186445966
 20
12.58902527783065
 30
0.0
 10
54.5695759272307
 20
11.98273006669988
 30
0.0
 10
54.36493074440016
 20
11.2165320740659
 30
0.0
 10
54.07036846800929
 20
10.65401800236705
 30
0.0
 10
53.87284560549224
 20
10.27681630835026
 30
0.0
  0
SPLINE
  5
90
330
1F
100
AcDbEntity
  8
0
  6
Continuous
 62
     7
370
    25
100
AcDbSpline
210
0.0
220
0.0
230
1.0
 70
     8
 71
     3
 72
    14
 73
    10
 74
     0
 42
0.00000001
 43
0.00000001
 40
0.0
 40
0.0
 40
0.0
 40
0.0
 40
0.1860584802655414
 40
0.3737803771913304
 40
0.4990317900313266
 40
0.6242830227419763
 40
0.7528733698393438
 40
0.881499071391519
 40
1.0
 40
1.0
 40
1.0
 40
1.0
 10
53.87284560549224
 20
24.9992481726857
 30
0.0
 10
54.03190679899182
 20
24.40184627002223
 30
0.0
 10
54.35145123909434
 20
23.20170151879301
 30
0.0
 10
54.58613766675491
 20
21.55629808790231
 30
0.0
 10
54.64915446114865
 20
20.10111823391393
 30
0.0
 10
54.59723492407889
 20
18.84164287846067
 30
0.0
 10
54.4372122199911
 20
17.58048302475514
 30
0.0
 10
54.19411138788465
 20
16.35546185567043
 30
0.0
 10
53.97696875658017
 20
15.56387255035759
 30
0.0
 10
53.87284560549224
 20
15.18429359646204
 30
0.0
  0
SPLINE
  5
91
330
1F
100
AcDbEntity
  8
0
  6
Continuous
 62
     7
370
    25
100
AcDbSpline
210
0.0
220
0.0
230
1.0
 70
     8
 71
     3
 72
    14
 73
    10
 74
     0
 42
0.00000001
 43
0.00000001
 40
0.0
 40
0.0
 40
0.0
 40
0.0
 40
0.1323173648304389
 40
0.2645973188387832
 40
0.3998364273285067
 40
0.5350511314348788
 40
0.6502525552916444
 40
0.7654719494863401
 40
1.0
 40
1.0
 40
1.0
 40
1.0
 10
53.87284560549224
 20
29.90672546079755
 30
0.0
 10
53.9884137816895
 20
29.69470318480822
 30
0.0
 10
54.2195174588529
 20
29.27071857906305
 30
0.0
 10
54.46820721618022
 20
28.61781494991267
 30
0.0
 10
54.6176158678897
 20
27.95262379353644
 30
0.0
 10
54.64760186445966
 20
27.31145714216612
 30
0.0
 10
54.5695759272307
 20
26.70516193103535
 30
0.0
 10
54.36493074440016
 20
25.93896393840136
 30
0.0
 10
54.07036846800929
 20
25.3764498667025
 30
0.0
 10
53.87284560549224
 20
24.9992481726857
 30
0.0
  0
LINE
  5
92
330
1F
100
AcDbEntity
  8
0
  6
Continuous
 62
     7
370
    25
100
AcDbLine
 10
53.8728456055
 20
29.9067254608
 30
0.0
 11
45.6798994972
 21
29.9067254608
 31
0.0
  0
LINE
  5
93
330
1F
100
AcDbEntity
  8
0
  6
Continuous
 62
     7
370
    25
100
AcDbLine
 10
53.8728456055
 20
24.9992481727
 30
0.0
 11
45.6798994972
 21
24.9992481727
 31
0.0
  0
LINE
  5
94
330
1F
100
AcDbEntity
  8
0
  6
Continuous
 62
     7
370
    25
100
AcDbLine
 10
53.8728456055
 20
15.1842935965
 30
0.0
 11
45.6798994972
 21
15.1842935965
 31
0.0
  0
LINE
  5
95
330
1F
100
AcDbEntity
  8
0
  6
Continuous
 62
     7
370
    25
100
AcDbLine
 10
53.8728456055
 20
10.2768163084
 30
0.0
 11
45.6798994972
 21
10.2768163084
 31
0.0
  0
LINE
  5
96
330
1F
100
AcDbEntity
  8
0
  6
Continuous
 62
     7
370
    25
100
AcDbLine
 10
62.7024631177
 20
28.2891430544
 30
0.0
 11
62.7024631177
 21
11.8943987148
 31
0.0
  0
LINE
  5
97
330
1F
100
AcDbEntity
  8
0
  6
Continuous
 62
     7
370
    25
100
AcDbLine
 10
54.7763725513
 20
11.6467083846
 30
0.0
 11
54.7763725513
 21
28.5368333846
 31
0.0
  0
LINE
  5
98
330
1F
100
AcDbEntity
  8
0
  6
Continuous
 62
     7
370
    25
100
AcDbLine
 10
64.7763725513
 20
27.0917708846
 30
0.0
 11
64.7763725513
 21
13.0917708846
 31
0.0
  0
LINE
  5
99
330
1F
100
AcDbEntity
  8
0
  6
Continuous
 62
     7
370
    25
100
AcDbLine
 10
26.8944065401
 20
20.0917708846
 30
0.0
 11
26.8944065401
 21
10.0917708846
 31
0.0
  0
LINE
  5
9A
330
1F
100
AcDbEntity
  8
0
  6
Continuous
 62
     7
370
    25
100
AcDbLine
 10
26.8944065401
 20
30.0917708846
 30
0.0
 11
26.8944065401
 21
20.0917708846
 31
0.0
  0
LINE
  5
9B
330
1F
100
AcDbEntity
  8
0
  6
Continuous
 62
     7
370
    25
100
AcDbLine
 10
25.2763725513
 20
20.0917708846
 30
0.0
 11
25.2763725513
 21
10.0917708846
 31
0.0
  0
LINE
  5
9C
330
1F
100
AcDbEntity
  8
0
  6
Continuous
 62
     7
370
    25
100
AcDbLine
 10
25.2763725513
 20
30.0917708846
 30
0.0
 11
25.2763725513
 21
20.0917708846
 31
0.0
  0
LINE
  5
9D
330
1F
100
AcDbEntity
  8
0
  6
Continuous
 62
     7
370
    25
100
AcDbLine
 10
27.2763725513
 20
29.0917708846
 30
0.0
 11
27.2763725513
 21
25.5917708846
 31
0.0
  0
SPLINE
  5
9E
330
1F
100
AcDbEntity
  8
0
  6
Continuous
 62
     7
370
    25
100
AcDbSpline
210
0.0
220
0.0
230
1.0
 70
     8
 71
     3
 72
     8
 73
     4
 74
     0
 42
0.00000001
 43
0.00000001
 40
0.0
 40
0.0
 40
0.0
 40
0.0
 40
1.0
 40
1.0
 40
1.0
 40
1.0
 10
27.17917142669057
 20
25.4914607360698
 30
0.0
 10
27.24700784426664
 20
25.52282367708058
 30
0.0
 10
27.27637255134449
 20
25.55629183773013
 30
0.0
 10
27.27637255134449
 20
25.5917708845739
 30
0.0
  0
SPLINE
  5
9F
330
1F
100
AcDbEntity
  8
0
  6
Continuous
 62
     7
370
    25
100
AcDbSpline
210
0.0
220
0.0
230
1.0
 70
     8
 71
     3
 72
    12
 73
     8
 74
     0
 42
0.00000001
 43
0.00000001
 40
0.0
 40
0.0
 40
0.0
 40
0.0
 40
0.4999999999999992
 40
0.4999999999999992
 40
0.7499999999999996
 40
0.7499999999999996
 40
1.0
 40
1.0
 40
1.0
 40
1.0
 10
27.17917142669057
 20
25.4914607360698
 30
0.0
 10
27.11130166668077
 20
25.4600823797877
 30
0.0
 10
27.03526711542703
 20
25.32637385928915
 30
0.0
 10
26.98862251705002
 20
25.04834774962337
 30
0.0
 10
26.98418352052738
 20
24.94150156561941
 30
0.0
 10
26.99991413432022
 20
24.71462009156367
 30
0.0
 10
27.01979456426259
 20
24.59445111925905
 30
0.0
 10
27.04728648424246
 20
24.47300147444881
 30
0.0
  0
SPLINE
  5
A0
330
1F
100
AcDbEntity
  8
0
  6
Continuous
 62
     7
370
    25
100
AcDbSpline
210
0.0
220
0.0
230
1.0
 70
     8
 71
     3
 72
    12
 73
     8
 74
     0
 42
0.00000001
 43
0.00000001
 40
0.0
 40
0.0
 40
0.0
 40
0.0
 40
0.5000000000000002
 40
0.5000000000000002
 40
0.7500000000000001
 40
0.7500000000000001
 40
1.0
 40
1.0
 40
1.0
 40
1.0
 10
27.27637255134449
 20
20.09177088457389
 30
0.0
 10
27.27637255134449
 20
20.82572790673111
 30
0.0
 10
27.28092994634372
 20
21.55870635109391
 30
0.0
 10
27.25374628196445
 20
22.65553046404032
 30
0.0
 10
27.23829661104725
 20
23.02067805261076
 30
0.0
 10
27.17543300951541
 20
23.7494660664748
 30
0.0
 10
27.12840308634709
 20
24.11465682187313
 30
0.0
 10
27.04728648424245
 20
24.47300147444881
 30
0.0
  0
LINE
  5
A1
330
1F
100
AcDbEntity
  8
0
  6
Continuous
 62
     7
370
    25
100
AcDbLine
 10
27.2750533702
 20
19.7945269347
 30
0.0
 11
27.2763725513
 21
20.0917708846
 31
0.0
  0
SPLINE
  5
A2
330
1F
100
AcDbEntity
  8
0
  6
Continuous
 62
     7
370
    25
100
AcDbSpline
210
0.0
220
0.0
230
1.0
 70
     8
 71
     3
 72
    14
 73
    10
 74
     0
 42
0.00000001
 43
0.00000001
 40
0.0
 40
0.0
 40
0.0
 40
0.0
 40
0.25
 40
0.25
 40
0.5
 40
0.5
 40
0.75
 40
0.75
 40
1.0
 40
1.0
 40
1.0
 40
1.0
 10
27.04728648424245
 20
15.710540294699
 30
0.0
 10
27.01976549649737
 20
15.58896223871328
 30
0.0
 10
26.99984557466097
 20
15.46843750168816
 30
0.0
 10
26.98417853284291
 20
15.24146124258005
 30
0.0
 10
26.98867036465522
 20
15.13449126501387
 30
0.0
 10
27.0199267099388
 20
14.94902571323415
 30
0.0
 10
27.04629929332057
 20
14.87014045211531
 30
0.0
 10
27.10913584446487
 20
14.74950266094222
 30
0.0
 10
27.14517542332496
 20
14.70779847049961
 30
0.0
 10
27.17917142669057
 20
14.692081033078
 30
0.0
  0
SPLINE
  5
A3
330
1F
100
AcDbEntity
  8
0
  6
Continuous
 62
     7
370
    25
100
AcDbSpline
210
0.0
220
0.0
230
1.0
 70
     8
 71
     3
 72
     8
 73
     4
 74
     0
 42
0.00000001
 43
0.00000001
 40
0.0
 40
0.0
 40
0.0
 40
0.0
 40
1.0
 40
1.0
 40
1.0
 40
1.0
 10
27.27637255134449
 20
14.5917708845739
 30
0.0
 10
27.27637255134449
 20
14.62724993141767
 30
0.0
 10
27.24700784426664
 20
14.66071809206722
 30
0.0
 10
27.17917142669057
 20
14.692081033078
 30
0.0
  0
LINE
  5
A4
330
1F
100
AcDbEntity
  8
0
  6
Continuous
 62
     7
370
    25
100
AcDbLine
 10
27.2763725513
 20
14.5917708846
 30
0.0
 11
27.2763725513
 21
11.0917708846
 31
0.0
  0
LINE
  5
A5
330
1F
100
AcDbEntity
  8
0
  6
Continuous
 62
     7
370
    25
100
AcDbLine
 10
42.6583385626
 20
10.0917708846
 30
0.0
 11
42.6583385626
 21
30.0917708846
 31
0.0
  0
SPLINE
  5
A6
330
1F
100
AcDbEntity
  8
0
  6
Continuous
 62
     7
370
    25
100
AcDbSpline
210
0.0
220
0.0
230
1.0
 70
     8
 71
     3
 72
    12
 73
     8
 74
     0
 42
0.00000001
 43
0.00000001
 40
0.0
 40
0.0
 40
0.0
 40
0.0
 40
0.5000000000000001
 40
0.5000000000000001
 40
0.75
 40
0.75
 40
1.0
 40
1.0
 40
1.0
 40
1.0
 10
42.27637255134449
 20
20.09177088457391
 30
0.0
 10
42.27637255134449
 20
19.35781386241669
 30
0.0
 10
42.27181515634526
 20
18.62483541805388
 30
0.0
 10
42.29899882072453
 20
17.52801130510747
 30
0.0
 10
42.31444849164173
 20
17.16286371653704
 30
0.0
 10
42.37731209317357
 20
16.43407570267299
 30
0.0
 10
42.42434201634189
 20
16.06888494727467
 30
0.0
 10
42.50545861844653
 20
15.710540294699
 30
0.0
  0
LINE
  5
A7
330
1F
100
AcDbEntity
  8
0
  6
Continuous
 62
     7
370
    25
100
AcDbLine
 10
42.2776917325
 20
20.3890148344
 30
0.0
 11
42.2763725513
 21
20.0917708846
 31
0.0
  0
SPLINE
  5
A8
330
1F
100
AcDbEntity
  8
0
  6
Continuous
 62
     7
370
    25
100
AcDbSpline
210
0.0
220
0.0
230
1.0
 70
     8
 71
     3
 72
    14
 73
    10
 74
     0
 42
0.00000001
 43
0.00000001
 40
0.0
 40
0.0
 40
0.0
 40
0.0
 40
0.25
 40
0.25
 40
0.5
 40
0.5
 40
0.75
 40
0.75
 40
1.0
 40
1.0
 40
1.0
 40
1.0
 10
42.50545861844653
 20
24.47300147444881
 30
0.0
 10
42.5329796061916
 20
24.59457953043452
 30
0.0
 10
42.55289952802801
 20
24.71510426745965
 30
0.0
 10
42.56856656984607
 20
24.94208052656775
 30
0.0
 10
42.56407473803375
 20
25.04905050413393
 30
0.0
 10
42.53281839275018
 20
25.23451605591366
 30
0.0
 10
42.50644580936841
 20
25.31340131703249
 30
0.0
 10
42.44360925822411
 20
25.43403910820559
 30
0.0
 10
42.40756967936402
 20
25.47574329864819
 30
0.0
 10
42.37357367599841
 20
25.4914607360698
 30
0.0
  0
SPLINE
  5
A9
330
1F
100
AcDbEntity
  8
0
  6
Continuous
 62
     7
370
    25
100
AcDbSpline
210
0.0
220
0.0
230
1.0
 70
     8
 71
     3
 72
     8
 73
     4
 74
     0
 42
0.00000001
 43
0.00000001
 40
0.0
 40
0.0
 40
0.0
 40
0.0
 40
1.0
 40
1.0
 40
1.0
 40
1.0
 10
42.27637255134449
 20
25.5917708845739
 30
0.0
 10
42.27637255134449
 20
25.55629183773013
 30
0.0
 10
42.30573725842235
 20
25.52282367708058
 30
0.0
 10
42.37357367599841
 20
25.4914607360698
 30
0.0
  0
LINE
  5
AA
330
1F
100
AcDbEntity
  8
0
  6
Continuous
 62
     7
370
    25
100
AcDbLine
 10
42.2763725513
 20
25.5917708846
 30
0.0
 11
42.2763725513
 21
29.0917708846
 31
0.0
  0
LINE
  5
AB
330
1F
100
AcDbEntity
  8
0
  6
Continuous
 62
     7
370
    25
100
AcDbLine
 10
42.2763725513
 20
11.0917708846
 30
0.0
 11
42.2763725513
 21
14.5917708846
 31
0.0
  0
SPLINE
  5
AC
330
1F
100
AcDbEntity
  8
0
  6
Continuous
 62
     7
370
    25
100
AcDbSpline
210
0.0
220
0.0
230
1.0
 70
     8
 71
     3
 72
     8
 73
     4
 74
     0
 42
0.00000001
 43
0.00000001
 40
0.0
 40
0.0
 40
0.0
 40
0.0
 40
1.0
 40
1.0
 40
1.0
 40
1.0
 10
42.37357367599841
 20
14.692081033078
 30
0.0
 10
42.30573725842235
 20
14.66071809206722
 30
0.0
 10
42.27637255134449
 20
14.62724993141767
 30
0.0
 10
42.27637255134449
 20
14.5917708845739
 30
0.0
  0
SPLINE
  5
AD
330
1F
100
AcDbEntity
  8
0
  6
Continuous
 62
     7
370
    25
100
AcDbSpline
210
0.0
220
0.0
230
1.0
 70
     8
 71
     3
 72
    12
 73
     8
 74
     0
 42
0.00000001
 43
0.00000001
 40
0.0
 40
0.0
 40
0.0
 40
0.0
 40
0.5000000000000001
 40
0.5000000000000001
 40
0.75
 40
0.75
 40
1.0
 40
1.0
 40
1.0
 40
1.0
 10
42.37357367599841
 20
14.692081033078
 30
0.0
 10
42.44144343600821
 20
14.7234593893601
 30
0.0
 10
42.51747798726196
 20
14.85716790985865
 30
0.0
 10
42.56412258563896
 20
15.13519401952444
 30
0.0
 10
42.5685615821616
 20
15.24204020352839
 30
0.0
 10
42.55283096836877
 20
15.46892167758414
 30
0.0
 10
42.53295053842638
 20
15.58909064988875
 30
0.0
 10
42.50545861844653
 20
15.710540294699
 30
0.0
  0
LINE
  5
AE
330
1F
100
AcDbEntity
  8
0
  6
Continuous
 62
     7
370
    25
100
AcDbLine
 10
44.7763725513
 20
29.8417708846
 30
0.0
 11
44.7763725513
 21
10.3417708846
 31
0.0
  0
LINE
  5
AF
330
1F
100
AcDbEntity
  8
0
  6
Continuous
 62
     7
370
    25
100
AcDbLine
 10
44.5263725513
 20
10.0917708846
 30
0.0
 11
44.5263725513
 21
30.0917708846
 31
0.0
  0
LINE
  5
B0
330
1F
100
AcDbEntity
  8
0
  6
Continuous
 62
     7
370
    25
100
AcDbLine
 10
24.7763725513
 20
20.0917708846
 30
0.0
 11
24.7763725513
 21
29.5917708846
 31
0.0
  0
LINE
  5
B1
330
1F
100
AcDbEntity
  8
0
  6
Continuous
 62
     7
370
    25
100
AcDbLine
 10
24.7763725513
 20
10.5917708846
 30
0.0
 11
24.7763725513
 21
20.0917708846
 31
0.0
  0
LINE
  5
B2
330
1F
100
AcDbEntity
  8
0
  6
Continuous
 62
     7
370
    25
100
AcDbLine
 10
42.2763725513
 20
20.0917708846
 30
0.0
 11
41.7763725513
 21
20.0917708846
 31
0.0
  0
SPLINE
  5
B3
330
1F
100
AcDbEntity
  8
0
  6
Continuous
 62
     7
370
    25
100
AcDbSpline
210
0.0
220
0.0
230
1.0
 70
     8
 71
     3
 72
    14
 73
    10
 74
     0
 42
0.00000001
 43
0.00000001
 40
0.0
 40
0.0
 40
0.0
 40
0.0
 40
0.25
 40
0.25
 40
0.5
 40
0.5
 40
0.75
 40
0.75
 40
1.0
 40
1.0
 40
1.0
 40
1.0
 10
41.77637255134449
 20
20.0917708845739
 30
0.0
 10
41.77637255134449
 20
20.46828759666087
 30
0.0
 10
41.77596328962485
 20
20.84482365428984
 30
0.0
 10
41.77927463773073
 20
21.59770055313841
 30
0.0
 10
41.78303812319539
 20
21.97403936765376
 30
0.0
 10
41.8088113789751
 20
22.7258545063689
 30
0.0
 10
41.83072947365361
 20
23.10133516401791
 30
0.0
 10
41.91594713683888
 20
23.85034040328659
 30
0.0
 10
41.97926012298978
 20
24.22594831872804
 30
0.0
 10
42.08182064081387
 20
24.5917708845739
 30
0.0
  0
LINE
  5
B4
330
1F
100
AcDbEntity
  8
0
  6
Continuous
 62
     7
370
    25
100
AcDbLine
 10
42.5054586184
 20
24.4730014744
 30
0.0
 11
42.0818206408
 21
24.5917708846
 31
0.0
  0
LINE
  5
B5
330
1F
100
AcDbEntity
  8
0
  6
Continuous
 62
     7
370
    25
100
AcDbLine
 10
42.5054586184
 20
15.7105402947
 30
0.0
 11
42.0818206408
 21
15.5917708846
 31
0.0
  0
SPLINE
  5
B6
330
1F
100
AcDbEntity
  8
0
  6
Continuous
 62
     7
370
    25
100
AcDbSpline
210
0.0
220
0.0
230
1.0
 70
     8
 71
     3
 72
    14
 73
    10
 74
     0
 42
0.00000001
 43
0.00000001
 40
0.0
 40
0.0
 40
0.0
 40
0.0
 40
0.25
 40
0.25
 40
0.5
 40
0.5
 40
0.75
 40
0.75
 40
1.0
 40
1.0
 40
1.0
 40
1.0
 10
42.08182064081387
 20
15.5917708845739
 30
0.0
 10
41.97926012298977
 20
15.95759345041976
 30
0.0
 10
41.91594713683888
 20
16.33320136586121
 30
0.0
 10
41.83072947365361
 20
17.08220660512989
 30
0.0
 10
41.8088113789751
 20
17.4576872627789
 30
0.0
 10
41.78303812319539
 20
18.20950240149405
 30
0.0
 10
41.77927463773073
 20
18.58584121600939
 30
0.0
 10
41.77596328962485
 20
19.33871811485798
 30
0.0
 10
41.77637255134449
 20
19.71525417248694
 30
0.0
 10
41.77637255134449
 20
20.09177088457391
 30
0.0
  0
SPLINE
  5
B7
330
1F
100
AcDbEntity
  8
0
  6
Continuous
 62
     7
370
    25
100
AcDbSpline
210
0.0
220
0.0
230
1.0
 70
     8
 71
     3
 72
    14
 73
    10
 74
     0
 42
0.00000001
 43
0.00000001
 40
0.0
 40
0.0
 40
0.0
 40
0.0
 40
0.2500000000000001
 40
0.2500000000000001
 40
0.5
 40
0.5
 40
0.75
 40
0.75
 40
1.0
 40
1.0
 40
1.0
 40
1.0
 10
27.77637255134449
 20
20.0917708845739
 30
0.0
 10
27.77637255134449
 20
19.71525417248693
 30
0.0
 10
27.77678181306414
 20
19.33871811485798
 30
0.0
 10
27.77347046495825
 20
18.58584121600939
 30
0.0
 10
27.76970697949359
 20
18.20950240149404
 30
0.0
 10
27.74393372371388
 20
17.45768726277889
 30
0.0
 10
27.72201562903537
 20
17.08220660512989
 30
0.0
 10
27.6367979658501
 20
16.33320136586121
 30
0.0
 10
27.57348497969921
 20
15.95759345041976
 30
0.0
 10
27.47092446187511
 20
15.5917708845739
 30
0.0
  0
LINE
  5
B8
330
1F
100
AcDbEntity
  8
0
  6
Continuous
 62
     7
370
    25
100
AcDbLine
 10
27.4709244619
 20
15.5917708846
 30
0.0
 11
27.0472864842
 21
15.7105402947
 31
0.0
  0
LINE
  5
B9
330
1F
100
AcDbEntity
  8
0
  6
Continuous
 62
     7
370
    25
100
AcDbLine
 10
27.7763725513
 20
20.0917708846
 30
0.0
 11
27.2763725513
 21
20.0917708846
 31
0.0
  0
SPLINE
  5
BA
330
1F
100
AcDbEntity
  8
0
  6
Continuous
 62
     7
370
    25
100
AcDbSpline
210
0.0
220
0.0
230
1.0
 70
     8
 71
     3
 72
    14
 73
    10
 74
     0
 42
0.00000001
 43
0.00000001
 40
0.0
 40
0.0
 40
0.0
 40
0.0
 40
0.2499999999999999
 40
0.2499999999999999
 40
0.4999999999999998
 40
0.4999999999999998
 40
0.7499999999999999
 40
0.7499999999999999
 40
1.0
 40
1.0
 40
1.0
 40
1.0
 10
27.47092446187511
 20
24.5917708845739
 30
0.0
 10
27.57348497969921
 20
24.22594831872804
 30
0.0
 10
27.6367979658501
 20
23.85034040328659
 30
0.0
 10
27.72201562903537
 20
23.10133516401791
 30
0.0
 10
27.74393372371388
 20
22.7258545063689
 30
0.0
 10
27.76970697949359
 20
21.97403936765376
 30
0.0
 10
27.77347046495825
 20
21.59770055313841
 30
0.0
 10
27.77678181306414
 20
20.84482365428983
 30
0.0
 10
27.77637255134449
 20
20.46828759666086
 30
0.0
 10
27.77637255134449
 20
20.09177088457389
 30
0.0
  0
LINE
  5
BB
330
1F
100
AcDbEntity
  8
0
  6
Continuous
 62
     7
370
    25
100
AcDbLine
 10
27.4709244619
 20
24.5917708846
 30
0.0
 11
27.0472864842
 21
24.4730014744
 31
0.0
  0
SPLINE
  5
BC
330
1F
100
AcDbEntity
  8
0
  6
Continuous
 62
     7
370
    25
100
AcDbSpline
210
0.0
220
0.0
230
1.0
 70
     8
 71
     3
 72
    14
 73
    10
 74
     0
 42
0.00000001
 43
0.00000001
 40
0.0
 40
0.0
 40
0.0
 40
0.0
 40
0.25
 40
0.25
 40
0.5
 40
0.5
 40
0.75
 40
0.75
 40
1.0
 40
1.0
 40
1.0
 40
1.0
 10
27.64677105180593
 20
15.0917708845739
 30
0.0
 10
27.60829556818433
 20
15.0917708845739
 30
0.0
 10
27.56720664671432
 20
15.10255745555712
 30
0.0
 10
27.48792379927375
 20
15.14548924262227
 30
0.0
 10
27.45064089816329
 20
15.17690675092715
 30
0.0
 10
27.39783513885152
 20
15.26822159650337
 30
0.0
 10
27.38586587875788
 20
15.32945207926762
 30
0.0
 10
27.40586766713004
 20
15.46031543992335
 30
0.0
 10
27.43532412268235
 20
15.52827955426094
 30
0.0
 10
27.47092446187511
 20
15.5917708845739
 30
0.0
  0
ARC
  5
BD
330
1F
100
AcDbEntity
  8
0
  6
Continuous
 62
     7
370
    25
100
AcDbCircle
 10
27.6553196354
 20
14.6084010739
 30
0.0
 40
0.4834453973191841
100
AcDbArc
 50
91.0131925738
 51
170.032425387
  0
SPLINE
  5
BE
330
1F
100
AcDbEntity
  8
0
  6
Continuous
 62
     7
370
    25
100
AcDbSpline
210
0.0
220
0.0
230
1.0
 70
     8
 71
     3
 72
    14
 73
    10
 74
     0
 42
0.00000001
 43
0.00000001
 40
0.0
 40
0.0
 40
0.0
 40
0.0
 40
0.25
 40
0.25
 40
0.5
 40
0.5
 40
0.75
 40
0.75
 40
1.0
 40
1.0
 40
1.0
 40
1.0
 10
41.90597405088305
 20
25.0917708845739
 30
0.0
 10
41.94444953450465
 20
25.0917708845739
 30
0.0
 10
41.98553845597466
 20
25.08098431359068
 30
0.0
 10
42.06482130341523
 20
25.03805252652553
 30
0.0
 10
42.10210420452569
 20
25.00663501822065
 30
0.0
 10
42.15490996383747
 20
24.91532017264444
 30
0.0
 10
42.16687922393109
 20
24.85408968988018
 30
0.0
 10
42.14687743555893
 20
24.72322632922445
 30
0.0
 10
42.11742098000664
 20
24.65526221488686
 30
0.0
 10
42.08182064081387
 20
24.5917708845739
 30
0.0
  0
ARC
  5
BF
330
1F
100
AcDbEntity
  8
0
  6
Continuous
 62
     7
370
    25
100
AcDbCircle
 10
41.8974254673
 20
25.5751406953
 30
0.0
 40
0.4834453973191788
100
AcDbArc
 50
271.0131925738
 51
350.032425387
  0
SPLINE
  5
C0
330
1F
100
AcDbEntity
  8
0
  6
Continuous
 62
     7
370
    25
100
AcDbSpline
210
0.0
220
0.0
230
1.0
 70
     8
 71
     3
 72
    16
 73
    12
 74
     0
 42
0.00000001
 43
0.00000001
 40
0.0
 40
0.0
 40
0.0
 40
0.0
 40
0.2500000000000011
 40
0.2500000000000011
 40
0.3749999999999992
 40
0.3749999999999992
 40
0.4999999999999974
 40
0.4999999999999974
 40
0.7499999999999987
 40
0.7499999999999987
 40
1.0
 40
1.0
 40
1.0
 40
1.0
 10
27.47092446187511
 20
24.5917708845739
 30
0.0
 10
27.43537053242645
 20
24.65517944555209
 30
0.0
 10
27.40609839119776
 20
24.72244674587292
 30
0.0
 10
27.39088584097687
 20
24.82088605701525
 30
0.0
 10
27.39082517280334
 20
24.85336146337054
 30
0.0
 10
27.40103575728066
 20
24.91198667049674
 30
0.0
 10
27.4108190868059
 20
24.93760948204973
 30
0.0
 10
27.44998363533784
 20
25.00581832574517
 30
0.0
 10
27.4878567086111
 20
25.03798108091095
 30
0.0
 10
27.56692968160269
 20
25.08086930002684
 30
0.0
 10
27.60831681419351
 20
25.0917708845739
 30
0.0
 10
27.64677105180592
 20
25.0917708845739
 30
0.0
  0
ARC
  5
C1
330
1F
100
AcDbEntity
  8
0
  6
Continuous
 62
     7
370
    25
100
AcDbCircle
 10
27.6553196354
 20
25.5751406953
 30
0.0
 40
0.4834453973191906
100
AcDbArc
 50
189.967574613
 51
268.9868074262
  0
ARC
  5
C2
330
1F
100
AcDbEntity
  8
0
  6
Continuous
 62
     7
370
    25
100
AcDbCircle
 10
41.8974254673
 20
14.6084010739
 30
0.0
 40
0.4834453973191792
100
AcDbArc
 50
9.967574613
 51
88.9868074262
  0
SPLINE
  5
C3
330
1F
100
AcDbEntity
  8
0
  6
Continuous
 62
     7
370
    25
100
AcDbSpline
210
0.0
220
0.0
230
1.0
 70
     8
 71
     3
 72
    16
 73
    12
 74
     0
 42
0.00000001
 43
0.00000001
 40
0.0
 40
0.0
 40
0.0
 40
0.0
 40
0.2500000000000008
 40
0.2500000000000008
 40
0.3750000000000017
 40
0.3750000000000017
 40
0.5000000000000026
 40
0.5000000000000026
 40
0.7500000000000012
 40
0.7500000000000012
 40
1.0
 40
1.0
 40
1.0
 40
1.0
 10
42.08182064081387
 20
15.5917708845739
 30
0.0
 10
42.11737457026253
 20
15.52836232359571
 30
0.0
 10
42.14664671149122
 20
15.46109502327489
 30
0.0
 10
42.1618592617121
 20
15.36265571213255
 30
0.0
 10
42.16191992988564
 20
15.33018030577726
 30
0.0
 10
42.15170934540831
 20
15.27155509865106
 30
0.0
 10
42.14192601588308
 20
15.24593228709807
 30
0.0
 10
42.10276146735114
 20
15.17772344340263
 30
0.0
 10
42.06488839407788
 20
15.14556068823685
 30
0.0
 10
41.98581542108629
 20
15.10267246912096
 30
0.0
 10
41.94442828849547
 20
15.0917708845739
 30
0.0
 10
41.90597405088305
 20
15.0917708845739
 30
0.0
  0
LINE
  5
C4
330
1F
100
AcDbEntity
  8
0
  6
Continuous
 62
     7
370
    25
100
AcDbLine
 10
27.4709244619
 20
15.5917708846
 30
0.0
 11
42.0818206408
 21
15.5917708846
 31
0.0
  0
LINE
  5
C5
330
1F
100
AcDbEntity
  8
0
  6
Continuous
 62
     7
370
    25
100
AcDbLine
 10
41.9059740509
 20
15.0917708846
 30
0.0
 11
27.6467710518
 21
15.0917708846
 31
0.0
  0
LINE
  5
C6
330
1F
100
AcDbEntity
  8
0
  6
Continuous
 62
     7
370
    25
100
AcDbLine
 10
27.6467710518
 20
25.0917708846
 30
0.0
 11
41.9059740509
 21
25.0917708846
 31
0.0
  0
LINE
  5
C7
330
1F
100
AcDbEntity
  8
0
  6
Continuous
 62
     7
370
    25
100
AcDbLine
 10
42.0818206408
 20
24.5917708846
 30
0.0
 11
27.4709244619
 21
24.5917708846
 31
0.0
  0
LINE
  5
C8
330
1F
100
AcDbEntity
  8
0
  6
Continuous
 62
     7
370
    25
100
AcDbLine
 10
16.850281985
 20
11.8943987148
 30
0.0
 11
16.850281985
 21
28.2891430544
 31
0.0
  0
LINE
  5
C9
330
1F
100
AcDbEntity
  8
0
  6
Continuous
 62
     7
370
    25
100
AcDbLine
 10
14.7763725513
 20
20.0917708846
 30
0.0
 11
14.7763725513
 21
27.0917708846
 31
0.0
  0
LINE
  5
CA
330
1F
100
AcDbEntity
  8
0
  6
Continuous
 62
     7
370
    25
100
AcDbLine
 10
14.7763725513
 20
13.0917708846
 30
0.0
 11
14.7763725513
 21
20.0917708846
 31
0.0
  0
ARC
  5
CB
330
1F
100
AcDbEntity
  8
0
  6
Continuous
 62
     7
370
    25
100
AcDbCircle
 10
27.7763725513
 20
14.5917708846
 30
0.0
 40
0.5
100
AcDbArc
 50
90.0
 51
180.0
  0
ARC
  5
CC
330
1F
100
AcDbEntity
  8
0
  6
Continuous
 62
     7
370
    25
100
AcDbCircle
 10
27.7763725513
 20
25.5917708846
 30
0.0
 40
0.5
100
AcDbArc
 50
180.0
 51
270.0
  0
ARC
  5
CD
330
1F
100
AcDbEntity
  8
0
  6
Continuous
 62
     7
370
    25
100
AcDbCircle
 10
41.7763725513
 20
14.5917708846
 30
0.0
 40
0.5000000000000071
100
AcDbArc
 50
0.0
 51
90.0
  0
ARC
  5
CE
330
1F
100
AcDbEntity
  8
0
  6
Continuous
 62
     7
370
    25
100
AcDbCircle
 10
41.7763725513
 20
25.5917708846
 30
0.0
 40
0.5000000000000071
100
AcDbArc
 50
270.0
 51
0.0
  0
LINE
  5
CF
330
1F
100
AcDbEntity
  8
0
  6
Continuous
 62
     7
370
    25
100
AcDbLine
 10
27.7763725513
 20
15.0917708846
 30
0.0
 11
27.7763725513
 21
14.8973264401
 31
0.0
  0
LWPOLYLINE
  5
D0
330
1F
100
AcDbEntity
  8
0
  6
Continuous
 62
     7
370
    25
100
AcDbPolyline
 90
        9
 70
   128
 43
0.0
 10
27.2763725513
 20
14.5917708846
 10
27.2859799111
 20
14.6513818163
 10
27.3144327851
 20
14.7087019334
 10
27.3606377452
 20
14.7615284558
 10
27.4228191608
 20
14.8078312899
 10
27.4985874348
 20
14.8458310439
 10
27.5850308352
 20
14.8740674084
 10
27.6788273903
 20
14.8914552758
 10
27.7763725513
 20
14.8973264401
  0
LWPOLYLINE
  5
D1
330
1F
100
AcDbEntity
  8
0
  6
Continuous
 62
     7
370
    25
100
AcDbPolyline
 90
        9
 70
   128
 43
0.0
 10
41.7763725513
 20
14.8973264401
 10
41.8739177124
 20
14.8914552758
 10
41.9677142675
 20
14.8740674084
 10
42.0541576679
 20
14.8458310439
 10
42.1299259419
 20
14.8078312899
 10
42.1921073575
 20
14.7615284558
 10
42.2383123176
 20
14.7087019334
 10
42.2667651915
 20
14.6513818163
 10
42.2763725513
 20
14.5917708846
  0
LINE
  5
D2
330
1F
100
AcDbEntity
  8
0
  6
Continuous
 62
     7
370
    25
100
AcDbLine
 10
41.7763725513
 20
15.0917708846
 30
0.0
 11
41.7763725513
 21
14.8973264401
 31
0.0
  0
LINE
  5
D3
330
1F
100
AcDbEntity
  8
0
  6
Continuous
 62
     7
370
    25
100
AcDbLine
 10
41.7763725513
 20
14.8973264401
 30
0.0
 11
27.7763725513
 21
14.8973264401
 31
0.0
  0
LINE
  5
D4
330
1F
100
AcDbEntity
  8
0
  6
Continuous
 62
     7
370
    25
100
AcDbLine
 10
41.7763725513
 20
25.286215329
 30
0.0
 11
41.7763725513
 21
25.0917708846
 31
0.0
  0
LWPOLYLINE
  5
D5
330
1F
100
AcDbEntity
  8
0
  6
Continuous
 62
     7
370
    25
100
AcDbPolyline
 90
        9
 70
   128
 43
0.0
 10
42.2763725513
 20
25.5917708846
 10
42.2667651915
 20
25.5321599528
 10
42.2383123176
 20
25.4748398358
 10
42.1921073575
 20
25.4220133134
 10
42.1299259419
 20
25.3757104792
 10
42.0541576679
 20
25.3377107253
 10
41.9677142675
 20
25.3094743608
 10
41.8739177124
 20
25.2920864933
 10
41.7763725513
 20
25.286215329
  0
LWPOLYLINE
  5
D6
330
1F
100
AcDbEntity
  8
0
  6
Continuous
 62
     7
370
    25
100
AcDbPolyline
 90
        9
 70
   128
 43
0.0
 10
27.7763725513
 20
25.286215329
 10
27.6788273903
 20
25.2920864933
 10
27.5850308352
 20
25.3094743608
 10
27.4985874348
 20
25.3377107253
 10
27.4228191608
 20
25.3757104792
 10
27.3606377452
 20
25.4220133134
 10
27.3144327851
 20
25.4748398358
 10
27.2859799111
 20
25.5321599528
 10
27.2763725513
 20
25.5917708846
  0
LINE
  5
D7
330
1F
100
AcDbEntity
  8
0
  6
Continuous
 62
     7
370
    25
100
AcDbLine
 10
27.7763725513
 20
25.286215329
 30
0.0
 11
27.7763725513
 21
25.0917708846
 31
0.0
  0
LINE
  5
D8
330
1F
100
AcDbEntity
  8
0
  6
Continuous
 62
     7
370
    25
100
AcDbLine
 10
27.7763725513
 20
25.286215329
 30
0.0
 11
41.7763725513
 21
25.286215329
 31
0.0
  0
SPLINE
  5
D9
330
1F
100
AcDbEntity
  8
0
  6
Continuous
 62
     7
370
    25
100
AcDbSpline
210
0.0
220
0.0
230
1.0
 70
     8
 71
     3
 72
    15
 73
    11
 74
     0
 42
0.00000001
 43
0.00000001
 40
0.0
 40
0.0
 40
0.0
 40
0.0
 40
0.0081667445812695
 40
0.3321939991490083
 40
0.4756279600585602
 40
0.6866830973284899
 40
0.8457435502264811
 40
0.8967566214763185
 40
0.9909540928118029
 40
1.0
 40
1.0
 40
1.0
 40
1.0
 10
29.67735303775171
 20
47.44177088457391
 30
0.0
 10
29.67686550360882
 20
47.44176820822813
 30
0.0
 10
29.65703435607674
 20
47.44165934404123
 30
0.0
 10
29.62875357606748
 20
47.4321133317719
 30
0.0
 10
29.59092427757865
 20
47.39475094851734
 30
0.0
 10
29.56434038101116
 20
47.34988543378267
 30
0.0
 10
29.54717055725618
 20
47.29200913420576
 30
0.0
 10
29.53935356103973
 20
47.24133309423383
 30
0.0
 10
29.53735787460385
 20
47.21263881471384
 30
0.0
 10
29.53729291065305
 20
47.19345198315833
 30
0.0
 10
29.53728721868638
 20
47.19177088457391
 30
0.0
  0
LINE
  5
DA
330
1F
100
AcDbEntity
  8
0
  6
Continuous
 62
     7
370
    25
100
AcDbLine
 10
29.6773530378
 20
47.4417708846
 30
0.0
 11
39.8753920649
 21
47.4417708846
 31
0.0
  0
SPLINE
  5
DB
330
1F
100
AcDbEntity
  8
0
  6
Continuous
 62
     7
370
    25
100
AcDbSpline
210
0.0
220
0.0
230
1.0
 70
     8
 71
     3
 72
    15
 73
    11
 74
     0
 42
0.00000001
 43
0.00000001
 40
0.0
 40
0.0
 40
0.0
 40
0.0
 40
0.0090459071881971
 40
0.1032433785236875
 40
0.1542564497735192
 40
0.3133169026715104
 40
0.5243720399414423
 40
0.6678060008509901
 40
0.9918332554187292
 40
1.0
 40
1.0
 40
1.0
 40
1.0
 10
40.0154578840026
 20
47.19177088457391
 30
0.0
 10
40.01545219203594
 20
47.19345198315833
 30
0.0
 10
40.01538722808515
 20
47.21263881471388
 30
0.0
 10
40.01339154164926
 20
47.24133309423381
 30
0.0
 10
40.0055745454328
 20
47.29200913420578
 30
0.0
 10
39.98840472167782
 20
47.34988543378266
 30
0.0
 10
39.96182082511034
 20
47.39475094851736
 30
0.0
 10
39.9239915266215
 20
47.43211333177187
 30
0.0
 10
39.89571074661227
 20
47.4416593440415
 30
0.0
 10
39.87587959908016
 20
47.44176820822813
 30
0.0
 10
39.87539206493727
 20
47.44177088457391
 30
0.0
  0
LINE
  5
DC
330
1F
100
AcDbEntity
  8
0
  6
Continuous
 62
     7
370
    25
100
AcDbLine
 10
40.015457884
 20
47.1917708846
 30
0.0
 11
29.5372872187
 21
47.1917708846
 31
0.0
  0
LINE
  5
DD
330
1F
100
AcDbEntity
  8
0
  6
Continuous
 62
     7
370
    25
100
AcDbLine
 10
29.5372872187
 20
47.1917708846
 30
0.0
 11
29.5372872187
 21
46.5917708846
 31
0.0
  0
LINE
  5
DE
330
1F
100
AcDbEntity
  8
0
  6
Continuous
 62
     7
370
    25
100
AcDbLine
 10
40.015457884
 20
46.5917708846
 30
0.0
 11
40.015457884
 21
47.1917708846
 31
0.0
  0
LINE
  5
DF
330
1F
100
AcDbEntity
  8
0
  6
Continuous
 62
     7
370
    25
100
AcDbLine
 10
29.5372872187
 20
46.5917708846
 30
0.0
 11
40.015457884
 21
46.5917708846
 31
0.0
  0
LINE
  5
E0
330
1F
100
AcDbEntity
  8
0
  6
Continuous
 62
     7
370
    25
100
AcDbLine
 10
29.2991469763
 20
47.1917708846
 30
0.0
 11
29.5372872187
 21
47.1917708846
 31
0.0
  0
SPLINE
  5
E1
330
1F
100
AcDbEntity
  8
0
  6
Continuous
 62
     7
370
    25
100
AcDbSpline
210
0.0
220
0.0
230
1.0
 70
     8
 71
     3
 72
    15
 73
    11
 74
     0
 42
0.00000001
 43
0.00000001
 40
0.0
 40
0.0
 40
0.0
 40
0.0
 40
0.0089557228015919
 40
0.0999003359608148
 40
0.153163246058169
 40
0.3125636920784848
 40
0.5249666935694999
 40
0.6689893599352451
 40
0.9919152533810159
 40
1.0
 40
1.0
 40
1.0
 40
1.0
 10
29.29914697629283
 20
47.19177088457391
 30
0.0
 10
29.29916273187143
 20
47.19345201014682
 30
0.0
 10
29.299338484028
 20
47.21220482477125
 30
0.0
 10
29.30476750004752
 20
47.24096705387873
 30
0.0
 10
29.32630298375483
 20
47.29185412734707
 30
0.0
 10
29.37400841201966
 20
47.34998977747971
 30
0.0
 10
29.44639935701156
 20
47.39469765066312
 30
0.0
 10
29.54831846902934
 20
47.43197947412488
 30
0.0
 10
29.62367356048382
 20
47.44165862896244
 30
0.0
 10
29.67607320620757
 20
47.44176820816422
 30
0.0
 10
29.67735303775171
 20
47.44177088457391
 30
0.0
  0
LINE
  5
E2
330
1F
100
AcDbEntity
  8
0
  6
Continuous
 62
     7
370
    25
100
AcDbLine
 10
40.015457884
 20
47.1917708846
 30
0.0
 11
40.2535981264
 21
47.1917708846
 31
0.0
  0
SPLINE
  5
E3
330
1F
100
AcDbEntity
  8
0
  6
Continuous
 62
     7
370
    25
100
AcDbSpline
210
0.0
220
0.0
230
1.0
 70
     8
 71
     3
 72
    15
 73
    11
 74
     0
 42
0.00000001
 43
0.00000001
 40
0.0
 40
0.0
 40
0.0
 40
0.0
 40
0.0080847466189818
 40
0.3310106400647571
 40
0.4750333064305
 40
0.6874363079215142
 40
0.846836753941831
 40
0.9000996640391852
 40
0.9910442771984082
 40
1.0
 40
1.0
 40
1.0
 40
1.0
 10
39.87539206493727
 20
47.44177088457391
 30
0.0
 10
39.87667189648142
 20
47.44176820816422
 30
0.0
 10
39.9290715422052
 20
47.44165862896241
 30
0.0
 10
40.00442663365963
 20
47.43197947412489
 30
0.0
 10
40.10634574567742
 20
47.39469765066313
 30
0.0
 10
40.17873669066932
 20
47.34998977747971
 30
0.0
 10
40.22644211893415
 20
47.29185412734706
 30
0.0
 10
40.24797760264146
 20
47.24096705387873
 30
0.0
 10
40.25340661866099
 20
47.21220482477127
 30
0.0
 10
40.25358237081755
 20
47.19345201014681
 30
0.0
 10
40.25359812639615
 20
47.19177088457391
 30
0.0
  0
LINE
  5
E4
330
1F
100
AcDbEntity
  8
0
  6
Continuous
 62
     7
370
    25
100
AcDbLine
 10
29.2991469763
 20
46.5917708846
 30
0.0
 11
29.2991469763
 21
47.1917708846
 31
0.0
  0
LINE
  5
E5
330
1F
100
AcDbEntity
  8
0
  6
Continuous
 62
     7
370
    25
100
AcDbLine
 10
29.5372872187
 20
46.5917708846
 30
0.0
 11
29.2991469763
 21
46.5917708846
 31
0.0
  0
LINE
  5
E6
330
1F
100
AcDbEntity
  8
0
  6
Continuous
 62
     7
370
    25
100
AcDbLine
 10
40.2535981264
 20
47.1917708846
 30
0.0
 11
40.2535981264
 21
46.5917708846
 31
0.0
  0
LINE
  5
E7
330
1F
100
AcDbEntity
  8
0
  6
Continuous
 62
     7
370
    25
100
AcDbLine
 10
40.2535981264
 20
46.5917708846
 30
0.0
 11
40.015457884
 21
46.5917708846
 31
0.0
  0
LINE
  5
E8
330
1F
100
AcDbEntity
  8
0
  6
Continuous
 62
     7
370
    25
100
AcDbLine
 10
29.0263725513
 20
47.1917708846
 30
0.0
 11
29.0263725513
 21
46.5917708846
 31
0.0
  0
LINE
  5
E9
330
1F
100
AcDbEntity
  8
0
  6
Continuous
 62
     7
370
    25
100
AcDbLine
 10
29.2991469763
 20
47.1917708846
 30
0.0
 11
29.0263725513
 21
47.1917708846
 31
0.0
  0
LINE
  5
EA
330
1F
100
AcDbEntity
  8
0
  6
Continuous
 62
     7
370
    25
100
AcDbLine
 10
29.2991469763
 20
46.5917708846
 30
0.0
 11
29.0263725513
 21
46.5917708846
 31
0.0
  0
LINE
  5
EB
330
1F
100
AcDbEntity
  8
0
  6
Continuous
 62
     7
370
    25
100
AcDbLine
 10
28.7763725513
 20
46.5917708846
 30
0.0
 11
28.7763725513
 21
47.1917708846
 31
0.0
  0
LINE
  5
EC
330
1F
100
AcDbEntity
  8
0
  6
Continuous
 62
     7
370
    25
100
AcDbLine
 10
28.7763725513
 20
47.1917708846
 30
0.0
 11
29.0263725513
 21
47.1917708846
 31
0.0
  0
LINE
  5
ED
330
1F
100
AcDbEntity
  8
0
  6
Continuous
 62
     7
370
    25
100
AcDbLine
 10
29.0263725513
 20
46.5917708846
 30
0.0
 11
28.7763725513
 21
46.5917708846
 31
0.0
  0
ARC
  5
EE
330
1F
100
AcDbEntity
  8
0
  6
Continuous
 62
     7
370
    25
100
AcDbCircle
 10
29.0263725513
 20
47.1917708846
 30
0.0
 40
0.25
100
AcDbArc
 50
90.0
 51
180.0
  0
LINE
  5
EF
330
1F
100
AcDbEntity
  8
0
  6
Continuous
 62
     7
370
    25
100
AcDbLine
 10
29.0263725513
 20
47.4417708846
 30
0.0
 11
29.0263725513
 21
47.1917708846
 31
0.0
  0
LINE
  5
F0
330
1F
100
AcDbEntity
  8
0
  6
Continuous
 62
     7
370
    25
100
AcDbLine
 10
29.0263725513
 20
47.4417708846
 30
0.0
 11
29.6773530378
 21
47.4417708846
 31
0.0
  0
LINE
  5
F1
330
1F
100
AcDbEntity
  8
0
  6
Continuous
 62
     7
370
    25
100
AcDbLine
 10
40.5263725513
 20
47.1917708846
 30
0.0
 11
40.5263725513
 21
47.4417708846
 31
0.0
  0
LINE
  5
F2
330
1F
100
AcDbEntity
  8
0
  6
Continuous
 62
     7
370
    25
100
AcDbLine
 10
40.5263725513
 20
47.1917708846
 30
0.0
 11
40.2535981264
 21
47.1917708846
 31
0.0
  0
LINE
  5
F3
330
1F
100
AcDbEntity
  8
0
  6
Continuous
 62
     7
370
    25
100
AcDbLine
 10
39.8753920649
 20
47.4417708846
 30
0.0
 11
40.5263725513
 21
47.4417708846
 31
0.0
  0
LINE
  5
F4
330
1F
100
AcDbEntity
  8
0
  6
Continuous
 62
     7
370
    25
100
AcDbLine
 10
40.5263725513
 20
46.5917708846
 30
0.0
 11
40.5263725513
 21
47.1917708846
 31
0.0
  0
LINE
  5
F5
330
1F
100
AcDbEntity
  8
0
  6
Continuous
 62
     7
370
    25
100
AcDbLine
 10
40.5263725513
 20
46.5917708846
 30
0.0
 11
40.2535981264
 21
46.5917708846
 31
0.0
  0
ARC
  5
F6
330
1F
100
AcDbEntity
  8
0
  6
Continuous
 62
     7
370
    25
100
AcDbCircle
 10
40.5263725513
 20
47.1917708846
 30
0.0
 40
0.25
100
AcDbArc
 50
0.0
 51
90.0
  0
LINE
  5
F7
330
1F
100
AcDbEntity
  8
0
  6
Continuous
 62
     7
370
    25
100
AcDbLine
 10
40.5263725513
 20
47.1917708846
 30
0.0
 11
40.7763725513
 21
47.1917708846
 31
0.0
  0
LINE
  5
F8
330
1F
100
AcDbEntity
  8
0
  6
Continuous
 62
     7
370
    25
100
AcDbLine
 10
40.7763725513
 20
47.1917708846
 30
0.0
 11
40.7763725513
 21
46.5917708846
 31
0.0
  0
LINE
  5
F9
330
1F
100
AcDbEntity
  8
0
  6
Continuous
 62
     7
370
    25
100
AcDbLine
 10
40.7763725513
 20
46.5917708846
 30
0.0
 11
40.5263725513
 21
46.5917708846
 31
0.0
  0
LINE
  5
FA
330
1F
100
AcDbEntity
  8
0
  6
Continuous
 62
     7
370
    25
100
AcDbLine
 10
29.7763725513
 20
47.4417708846
 30
0.0
 11
29.7763725513
 21
47.4517708846
 31
0.0
  0
LINE
  5
FB
330
1F
100
AcDbEntity
  8
0
  6
Continuous
 62
     7
370
    25
100
AcDbLine
 10
39.7763725513
 20
47.4417708846
 30
0.0
 11
39.7763725513
 21
47.4517708846
 31
0.0
  0
LINE
  5
FC
330
1F
100
AcDbEntity
  8
0
  6
Continuous
 62
     7
370
    25
100
AcDbLine
 10
29.7763725513
 20
47.4517708846
 30
0.0
 11
39.7763725513
 21
47.4517708846
 31
0.0
  0
LINE
  5
FD
330
1F
100
AcDbEntity
  8
0
  6
Continuous
 62
     7
370
    25
100
AcDbLine
 10
27.3263725513
 20
38.5917708846
 30
0.0
 11
39.2509194354
 21
38.5917708846
 31
0.0
  0
LINE
  5
FE
330
1F
100
AcDbEntity
  8
0
  6
Continuous
 62
     7
370
    25
100
AcDbLine
 10
40.0001747257
 20
46.5917708846
 30
0.0
 11
29.5372872187
 21
46.5917708845
 31
0.0
  0
LINE
  5
FF
330
1F
100
AcDbEntity
  8
0
  6
Continuous
 62
     7
370
    25
100
AcDbLine
 10
41.7283133897
 20
39.5865144625
 30
0.0
 11
40.0001747257
 21
46.5917708846
 31
0.0
  0
LINE
  5
100
330
1F
100
AcDbEntity
  8
0
  6
Continuous
 62
     7
370
    25
100
AcDbLine
 10
39.2509194354
 20
38.5917708846
 30
0.0
 11
38.4907086797
 21
39.5865144625
 31
0.0
  0
LINE
  5
101
330
1F
100
AcDbEntity
  8
0
  6
Continuous
 62
     7
370
    25
100
AcDbLine
 10
36.7763725513
 20
30.5917708846
 30
0.0
 11
36.7763726459
 21
30.6295877625
 31
0.0
  0
LINE
  5
102
330
1F
100
AcDbEntity
  8
0
  6
Continuous
 62
     7
370
    25
100
AcDbLine
 10
27.7763725513
 20
30.5917708846
 30
0.0
 11
36.7763725513
 21
30.5917708846
 31
0.0
  0
SPLINE
  5
103
330
1F
100
AcDbEntity
  8
0
  6
Continuous
 62
     7
370
    25
100
AcDbSpline
210
0.0
220
0.0
230
1.0
 70
     8
 71
     3
 72
    16
 73
    12
 74
     0
 42
0.00000001
 43
0.00000001
 40
0.0
 40
0.0
 40
0.0
 40
0.0
 40
0.0155634360124117
 40
0.0359329243097674
 40
0.0739120889290614
 40
0.1570057548437684
 40
0.2406581385754913
 40
0.4592958294318596
 40
0.6783839187935412
 40
0.8974954344294845
 40
1.0
 40
1.0
 40
1.0
 40
1.0
 10
36.93231780177163
 20
30.591770884574
 30
0.0
 10
36.97470979104027
 20
30.59696425635316
 30
0.0
 10
37.07258458812979
 20
30.60895473422094
 30
0.0
 10
37.24606325914263
 20
30.72728065821791
 30
0.0
 10
37.49439693814531
 20
31.03853196566685
 30
0.0
 10
37.74886148019123
 20
31.56417946703191
 30
0.0
 10
38.09254089188234
 20
32.60272563130206
 30
0.0
 10
38.47376091114903
 20
34.03779967364819
 30
0.0
 10
38.82386256714869
 20
35.87605177508761
 30
0.0
 10
39.06765441623692
 20
37.39723462390707
 30
0.0
 10
39.20662661139396
 20
38.30306666470357
 30
0.0
 10
39.25091943542662
 20
38.59177088457152
 30
0.0
  0
SPLINE
  5
104
330
1F
100
AcDbEntity
  8
0
  6
Continuous
 62
     7
370
    25
100
AcDbSpline
210
0.0
220
0.0
230
1.0
 70
     8
 71
     3
 72
     9
 73
     5
 74
     0
 42
0.00000001
 43
0.00000001
 40
0.0
 40
0.0
 40
0.0
 40
0.0
 40
0.5124861829376838
 40
0.9999999999999999
 40
0.9999999999999999
 40
0.9999999999999999
 40
0.9999999999999999
 10
36.77637264587585
 20
30.62958776251412
 30
0.0
 10
36.80201515004769
 20
30.61855984956295
 30
0.0
 10
36.85205065349258
 20
30.59704139049354
 30
0.0
 10
36.90601126035106
 20
30.59349822614838
 30
0.0
 10
36.93231780177163
 20
30.591770884574
 30
0.0
  0
LINE
  5
105
330
1F
100
AcDbEntity
  8
0
  6
Continuous
 62
     7
370
    25
100
AcDbLine
 10
38.4907086797
 20
39.5865144625
 30
0.0
 11
56.9518094129
 21
39.5865144626
 31
0.0
  0
LINE
  5
106
330
1F
100
AcDbEntity
  8
0
  6
Continuous
 62
     7
370
    25
100
AcDbLine
 10
56.9518094129
 20
39.5865144626
 30
0.0
 11
56.9518094129
 21
36.3439465775
 31
0.0
  0
SPLINE
  5
107
330
1F
100
AcDbEntity
  8
0
  6
Continuous
 62
     7
370
    25
100
AcDbSpline
210
0.0
220
0.0
230
1.0
 70
     8
 71
     3
 72
    11
 73
     7
 74
     0
 42
0.00000001
 43
0.00000001
 40
0.0
 40
0.0
 40
0.0
 40
0.0
 40
0.2488607147078904
 40
0.4977191536447658
 40
0.7488602698858828
 40
1.0
 40
1.0
 40
1.0
 40
1.0
 10
49.88141579063743
 20
35.02074607656394
 30
0.0
 10
50.45800874952014
 20
35.17022501345206
 30
0.0
 10
51.61118939448247
 20
35.46918152027959
 30
0.0
 10
53.37210371641306
 20
35.83098549373831
 30
0.0
 10
55.15208242999209
 20
36.13326013697782
 30
0.0
 10
56.35190152228448
 20
36.27371789323104
 30
0.0
 10
56.95180941288114
 20
36.34394657754945
 30
0.0
  0
LINE
  5
108
330
1F
100
AcDbEntity
  8
0
  6
Continuous
 62
     7
370
    25
100
AcDbLine
 10
49.8814157906
 20
35.0207460766
 30
0.0
 11
44.1016589408
 21
33.4521246361
 31
0.0
  0
SPLINE
  5
109
330
1F
100
AcDbEntity
  8
0
  6
Continuous
 62
     7
370
    25
100
AcDbSpline
210
0.0
220
0.0
230
1.0
 70
     8
 71
     3
 72
    13
 73
     9
 74
     0
 42
0.00000001
 43
0.00000001
 40
0.0
 40
0.0
 40
0.0
 40
0.0
 40
0.1610294006389558
 40
0.3266880383557516
 40
0.4877296220820637
 40
0.6535536198224136
 40
0.8237602734841889
 40
1.0
 40
1.0
 40
1.0
 40
1.0
 10
44.10165894078214
 20
33.45212463608106
 30
0.0
 10
43.88778888675104
 20
33.38272774150382
 30
0.0
 10
43.45390049036364
 20
33.24193894599527
 30
0.0
 10
42.86257974169798
 20
32.89581412828763
 30
0.0
 10
42.32864839284728
 20
32.45660748523559
 30
0.0
 10
41.8749644210442
 20
31.92300564829598
 30
0.0
 10
41.50051070805872
 20
31.2991793415963
 30
0.0
 10
41.35194763729994
 20
30.83029544339431
 30
0.0
 10
41.27637255134449
 20
30.5917708845739
 30
0.0
  0
LINE
  5
10A
330
1F
100
AcDbEntity
  8
0
  6
Continuous
 62
     7
370
    25
100
AcDbLine
 10
41.2763725513
 20
30.5917708846
 30
0.0
 11
36.9323178018
 21
30.5917708846
 31
0.0
  0
LINE
  5
10B
330
1F
100
AcDbEntity
  8
0
  6
Continuous
 62
     7
370
    25
100
AcDbLine
 10
36.7831719093
 20
30.5917708846
 30
0.0
 11
36.7763726459
 21
30.6295877625
 31
0.0
  0
LINE
  5
10C
330
1F
100
AcDbEntity
  8
0
  6
Continuous
 62
     7
370
    25
100
AcDbLine
 10
36.7763725513
 20
30.5917708846
 30
0.0
 11
36.7831719093
 21
30.5917708846
 31
0.0
  0
LINE
  5
10D
330
1F
100
AcDbEntity
  8
0
  6
Continuous
 62
     7
370
    25
100
AcDbLine
 10
36.9323178018
 20
30.5917708846
 30
0.0
 11
36.7831719093
 21
30.5917708846
 31
0.0
  0
LINE
  5
10E
330
1F
100
AcDbEntity
  8
0
  6
Continuous
 62
     7
370
    25
100
AcDbLine
 10
56.9518094129
 20
39.5865144626
 30
0.0
 11
56.9518094129
 21
48.5917708846
 31
0.0
  0
LINE
  5
10F
330
1F
100
AcDbEntity
  8
0
  6
Continuous
 62
     7
370
    25
100
AcDbLine
 10
56.9518094129
 20
48.5917708846
 30
0.0
 11
74.7763725513
 21
48.5917708846
 31
0.0
  0
LINE
  5
110
330
1F
100
AcDbEntity
  8
0
  6
Continuous
 62
     7
370
    25
100
AcDbLine
 10
74.7763725513
 20
48.5917708846
 30
0.0
 11
74.7763725513
 21
41.5917708846
 31
0.0
  0
ARC
  5
111
330
1F
100
AcDbEntity
  8
0
  6
Continuous
 62
     7
370
    25
100
AcDbCircle
 10
69.7763725513
 20
41.5917708846
 30
0.0
 40
4.999999999999986
100
AcDbArc
 50
270.0
 51
0.0
  0
LINE
  5
112
330
1F
100
AcDbEntity
  8
0
  6
Continuous
 62
     7
370
    25
100
AcDbLine
 10
69.7763725513
 20
36.5917708846
 30
0.0
 11
61.6680404091
 21
36.5917708846
 31
0.0
  0
ARC
  5
113
330
1F
100
AcDbEntity
  8
0
  6
Continuous
 62
     7
370
    25
100
AcDbCircle
 10
61.6680404091
 20
-8.4083583696
 30
0.0
 40
45.00012925418375
100
AcDbArc
 50
90.0
 51
96.0159222295
  0
ARC
  5
114
330
1F
100
AcDbEntity
  8
0
  6
Continuous
 62
     7
370
    25
100
AcDbCircle
 10
49.1653261156
 20
50.5917708846
 30
0.0
 40
10.00000000000848
100
AcDbArc
 50
203.5781784783
 51
264.4198332155
  0
ARC
  5
115
330
1F
100
AcDbEntity
  8
0
  6
Continuous
 62
     7
370
    25
100
AcDbCircle
 10
48.7763725513
 20
46.610726408
 30
0.0
 40
6.000000000000004
100
AcDbArc
 50
264.4198332155
 51
0.0
  0
LINE
  5
116
330
1F
100
AcDbEntity
  8
0
  6
Continuous
 62
     7
370
    25
100
AcDbLine
 10
54.7763725513
 20
48.5917708846
 30
0.0
 11
54.7763725513
 21
46.610726408
 31
0.0
  0
LINE
  5
117
330
1F
100
AcDbEntity
  8
0
  6
Continuous
 62
     7
370
    25
100
AcDbLine
 10
54.7763725513
 20
48.5917708846
 30
0.0
 11
56.9518094129
 21
48.5917708846
 31
0.0
  0
LINE
  5
118
330
1F
100
AcDbEntity
  8
0
  6
Continuous
 62
     7
370
    25
100
AcDbLine
 10
41.7763725513
 20
30.5917708846
 30
0.0
 11
41.2763725513
 21
30.5917708846
 31
0.0
  0
LINE
  5
119
330
1F
100
AcDbEntity
  8
0
  6
Continuous
 62
     7
370
    25
100
AcDbLine
 10
40.0001747257
 20
46.5917708846
 30
0.0
 11
40.015457884
 21
46.5917708845
 31
0.0
  0
SPLINE
  5
11A
330
1F
100
AcDbEntity
  8
0
  6
Continuous
 62
     7
370
    25
100
AcDbSpline
210
0.0
220
0.0
230
1.0
 70
     8
 71
     3
 72
    11
 73
     7
 74
     0
 42
0.00000001
 43
0.00000001
 40
0.0
 40
0.0
 40
0.0
 40
0.0
 40
0.1163060807267053
 40
0.3541961116216397
 40
0.5923258273050079
 40
1.0
 40
1.0
 40
1.0
 40
1.0
 10
27.04728648424245
 20
15.710540294699
 30
0.0
 10
27.0782693626001
 20
15.86602530838038
 30
0.0
 10
27.17262397392015
 20
16.33953612498842
 30
0.0
 10
27.24246460872024
 20
17.14634439356817
 30
0.0
 10
27.27835560902144
 20
18.35250722674422
 30
0.0
 10
27.27633126819756
 20
19.23649519851795
 30
0.0
 10
27.27505337023894
 20
19.79452693470044
 30
0.0
  0
SPLINE
  5
11B
330
1F
100
AcDbEntity
  8
0
  6
Continuous
 62
     7
370
    25
100
AcDbSpline
210
0.0
220
0.0
230
1.0
 70
     8
 71
     3
 72
    11
 73
     7
 74
     0
 42
0.00000001
 43
0.00000001
 40
0.0
 40
0.0
 40
0.0
 40
0.0
 40
0.1163060807267057
 40
0.3541961116216417
 40
0.5923258273050113
 40
1.0
 40
1.0
 40
1.0
 40
1.0
 10
42.50545861844653
 20
24.47300147444881
 30
0.0
 10
42.47447574008888
 20
24.31751646076742
 30
0.0
 10
42.38012112876883
 20
23.84400564415938
 30
0.0
 10
42.31028049396874
 20
23.03719737557963
 30
0.0
 10
42.27438949366754
 20
21.83103454240359
 30
0.0
 10
42.27641383449142
 20
20.94704657062987
 30
0.0
 10
42.27769173245004
 20
20.38901483444738
 30
0.0
  0
LINE
  5
11C
330
1F
100
AcDbEntity
  8
0
  6
Continuous
 62
     7
370
    25
100
AcDbLine
 10
41.7763725513
 20
11.5917708846
 30
0.0
 11
41.7763725513
 21
14.8973264401
 31
0.0
  0
LINE
  5
11D
330
1F
100
AcDbEntity
  8
0
  6
Continuous
 62
     7
370
    25
100
AcDbLine
 10
27.7763725513
 20
14.8973264401
 30
0.0
 11
27.7763725513
 21
11.5917708846
 31
0.0
  0
LINE
  5
11E
330
1F
100
AcDbEntity
  8
0
  6
Continuous
 62
     7
370
    25
100
AcDbLine
 10
41.7763725513
 20
25.286215329
 30
0.0
 11
41.7763725513
 21
28.5917708846
 31
0.0
  0
LINE
  5
11F
330
1F
100
AcDbEntity
  8
0
  6
Continuous
 62
     7
370
    25
100
AcDbLine
 10
27.7763725513
 20
28.5917708846
 30
0.0
 11
27.7763725513
 21
25.286215329
 31
0.0
  0
LWPOLYLINE
  5
120
330
1F
100
AcDbEntity
  8
0
  6
Continuous
 62
     7
370
    25
100
AcDbPolyline
 90
       26
 70
   128
 43
0.0
 10
41.1586934263
 20
28.5799085363
 10
41.1444696394
 20
28.5703711962
 10
41.107933643
 20
28.5459291194
 10
40.8882015211
 20
28.4004375297
 10
40.5172521727
 20
28.1609805696
 10
40.0346297587
 20
27.8620447846
 10
39.4364374443
 20
27.5136985212
 10
38.6576340663
 20
27.102589505
 10
37.755685051
 20
26.6972333544
 10
36.9454533639
 20
26.409314419
 10
36.0574137074
 20
26.1891869033
 10
35.3008393563
 20
26.0884402042
 10
34.5114883809
 20
26.0731817196
 10
33.749690168
 20
26.1461000598
 10
32.9945325592
 20
26.3003674825
 10
32.0604901681
 20
26.5951481998
 10
31.1834648547
 20
26.9641204011
 10
30.4063791776
 20
27.3545942317
 10
29.7139088666
 20
27.7451828655
 10
29.1752569629
 20
28.0728850307
 10
28.7488722282
 20
28.3453054215
 10
28.5166194303
 20
28.4980962404
 10
28.3923511695
 20
28.5810461961
 10
28.3768663493
 20
28.5914392538
 10
28.3763725513
 20
28.5917708846
 10
28.3763725513
 20
28.5917708846
  0
SPLINE
  5
121
330
1F
100
AcDbEntity
  8
0
  6
Continuous
 62
     7
370
    25
100
AcDbSpline
210
0.0
220
0.0
230
1.0
 70
     8
 71
     3
 72
    31
 73
    27
 74
     0
 42
0.00000001
 43
0.00000001
 40
0.0
 40
0.0
 40
0.0
 40
0.0
 40
0.0037711104489294
 40
0.0499918979131411
 40
0.0979362230846555
 40
0.1050759608840227
 40
0.1549310008429975
 40
0.2062485866952876
 40
0.2581667471461209
 40
0.3112112337700654
 40
0.361520933184044
 40
0.4131118219396707
 40
0.4497236830228036
 40
0.4873160206688177
 40
0.5237911208545064
 40
0.5614387345537603
 40
0.6059047694611533
 40
0.6516344669460699
 40
0.7059301691522325
 40
0.7615245644558745
 40
0.8094454199391334
 40
0.858395447882675
 40
0.9060522514693382
 40
0.955273269885777
 40
0.9694461554747011
 40
1.0
 40
1.0
 40
1.0
 40
1.0
 10
28.87637255134449
 20
29.0917708845739
 30
0.0
 10
28.87647112975163
 20
29.0916949422107
 30
0.0
 10
28.87777793890844
 20
29.09068820880419
 30
0.0
 10
28.93524452265173
 20
29.0462630341661
 30
0.0
 10
29.09186233354908
 20
28.92669162998921
 30
0.0
 10
29.30680107150488
 20
28.76552611842448
 30
0.0
 10
29.58436835870711
 20
28.56032564299768
 30
0.0
 10
30.09428479057467
 20
28.20095236763317
 30
0.0
 10
30.71976566057716
 20
27.79133857507556
 30
0.0
 10
31.4360396201373
 20
27.3718262869467
 30
0.0
 10
32.23905330311757
 20
26.9756156617827
 30
0.0
 10
33.03482146146393
 20
26.6777607990476
 30
0.0
 10
33.81114189212599
 20
26.4907474483413
 30
0.0
 10
34.52358101682872
 20
26.4091912125711
 30
0.0
 10
35.25094198777312
 20
26.42442764151628
 30
0.0
 10
36.00654525322889
 20
26.54131594225808
 30
0.0
 10
36.7783907898181
 20
26.76556086250624
 30
0.0
 10
37.58197126816608
 20
27.09875465762852
 30
0.0
 10
38.36254300599692
 20
27.50813915636262
 30
0.0
 10
39.05724151381811
 20
27.93422571636801
 30
0.0
 10
39.6331673325705
 20
28.32207500843049
 30
0.0
 10
40.08360278271805
 20
28.64453130848639
 30
0.0
 10
40.42704193984988
 20
28.9006471898064
 30
0.0
 10
40.58565749054288
 20
29.02197664634987
 30
0.0
 10
40.66468829597874
 20
29.08274009286914
 30
0.0
 10
40.66301259582408
 20
29.08146422820178
 30
0.0
 10
40.66186788701425
 20
29.08059265608859
 30
0.0
  0
LINE
  5
122
330
1F
100
AcDbEntity
  8
0
  6
Continuous
 62
     7
370
    18
100
AcDbLine
 10
24.2763725513
 20
27.7988362148
 30
0.0
 11
15.5274989531
 21
27.5254339148
 31
0.0
  0
LINE
  5
123
330
1F
100
AcDbEntity
  8
0
  6
Continuous
 62
     7
370
    18
100
AcDbLine
 10
15.5274989531
 20
12.6581078543
 30
0.0
 11
24.2763725513
 21
12.3847055544
 31
0.0
  0
LINE
  5
124
330
1F
100
AcDbEntity
  8
0
  6
Continuous
 62
     7
370
    18
100
AcDbLine
 10
54.7763725513
 20
12.3940805544
 30
0.0
 11
64.0710252883
 21
12.6845384524
 31
0.0
  0
LINE
  5
125
330
1F
100
AcDbEntity
  8
0
  6
Continuous
 62
     7
370
    18
100
AcDbLine
 10
64.0710252883
 20
27.4990033167
 30
0.0
 11
54.7763725513
 21
27.7894612148
 31
0.0
  0
LINE
  5
126
330
1F
100
AcDbEntity
  8
0
  6
CENTERX2
 62
     7
370
    18
100
AcDbLine
 10
13.0495055982
 20
20.0917708846
 30
0.0
 11
67.0001290098
 21
20.0917708846
 31
0.0
  0
LINE
  5
127
330
1F
100
AcDbEntity
  8
0
  6
CENTERX2
 62
     7
370
    18
100
AcDbLine
 10
34.7763725513
 20
8.0917708846
 30
0.0
 11
34.7763725513
 21
49.8063340592
 31
0.0
  0
LINE
  5
128
330
1F
100
AcDbEntity
  8
0
  6
Continuous
 62
     7
370
    25
100
AcDbLine
 10
103.6925135043
 20
29.0898645549
 30
0.0
 11
103.6925135043
 21
30.5917708846
 31
0.0
  0
LINE
  5
129
330
1F
100
AcDbEntity
  8
0
  6
Continuous
 62
     7
370
    25
100
AcDbLine
 10
91.8925135043
 20
30.5917708846
 30
0.0
 11
91.8925135043
 21
28.1658033343
 31
0.0
  0
ARC
  5
12A
330
1F
100
AcDbEntity
  8
0
  6
Continuous
 62
     7
370
    25
100
AcDbCircle
 10
103.4925135043
 20
28.6335133149
 30
0.0
 40
0.4999999999999851
100
AcDbArc
 50
359.992141364
 51
66.3930114207
  0
ARC
  5
12B
330
1F
100
AcDbEntity
  8
0
  6
Continuous
 62
     7
370
    25
100
AcDbCircle
 10
103.0425135043
 20
47.1917708846
 30
0.0
 40
0.25
100
AcDbArc
 50
0.0
 51
90.0
  0
ARC
  5
12C
330
1F
100
AcDbEntity
  8
0
  6
Continuous
 62
     7
370
    25
100
AcDbCircle
 10
92.5425135043
 20
47.1917708846
 30
0.0
 40
0.25
100
AcDbArc
 50
90.0
 51
180.0
  0
LINE
  5
12D
330
1F
100
AcDbEntity
  8
0
  6
Continuous
 62
     7
370
    25
100
AcDbLine
 10
103.2925135043
 20
46.5917708846
 30
0.0
 11
103.2925135043
 21
47.1917708846
 31
0.0
  0
LINE
  5
12E
330
1F
100
AcDbEntity
  8
0
  6
Continuous
 62
     7
370
    25
100
AcDbLine
 10
92.2925135043
 20
47.1917708846
 30
0.0
 11
92.2925135043
 21
46.5917708846
 31
0.0
  0
LINE
  5
12F
330
1F
100
AcDbEntity
  8
0
  6
Continuous
 62
     7
370
    25
100
AcDbLine
 10
105.2425135043
 20
38.5917708846
 30
0.0
 11
103.2925135043
 21
46.5917708846
 31
0.0
  0
LINE
  5
130
330
1F
100
AcDbEntity
  8
0
  6
Continuous
 62
     7
370
    25
100
AcDbLine
 10
92.2925135043
 20
46.5917708846
 30
0.0
 11
90.3425135043
 21
38.5917708846
 31
0.0
  0
LINE
  5
131
330
1F
100
AcDbEntity
  8
0
  6
Continuous
 62
     7
370
    25
100
AcDbLine
 10
90.3425135043
 20
38.5917708846
 30
0.0
 11
90.7925135043
 21
30.5917708846
 31
0.0
  0
LINE
  5
132
330
1F
100
AcDbEntity
  8
0
  6
Continuous
 62
     7
370
    25
100
AcDbLine
 10
104.7925135043
 20
30.5917708846
 30
0.0
 11
105.2425135043
 21
38.5917708846
 31
0.0
  0
CIRCLE
  5
133
330
1F
100
AcDbEntity
  8
0
  6
Continuous
 62
     7
370
    25
100
AcDbCircle
 10
97.7925135043
 20
20.0917708846
 30
0.0
 40
7.0
  0
CIRCLE
  5
134
330
1F
100
AcDbEntity
  8
0
  6
Continuous
 62
     7
370
    25
100
AcDbCircle
 10
97.7925135043
 20
20.0917708846
 30
0.0
 40
5.499999999999979
  0
CIRCLE
  5
135
330
1F
100
AcDbEntity
  8
0
  6
Continuous
 62
     7
370
    25
100
AcDbCircle
 10
97.7925135043
 20
20.0917708846
 30
0.0
 40
8.19737216980208
  0
CIRCLE
  5
136
330
1F
100
AcDbEntity
  8
0
  6
Continuous
 62
     7
370
    25
100
AcDbCircle
 10
97.7925135043
 20
20.0917708846
 30
0.0
 40
4.999999999999986
  0
CIRCLE
  5
137
330
1F
100
AcDbEntity
  8
0
  6
Continuous
 62
     7
370
    25
100
AcDbCircle
 10
97.7925135043
 20
20.0917708846
 30
0.0
 40
8.44506250000003
  0
SPLINE
  5
138
330
1F
100
AcDbEntity
  8
0
  6
Continuous
 62
     7
370
    25
100
AcDbSpline
210
0.0
220
0.0
230
1.0
 70
    24
 71
     3
 72
    14
 73
    10
 74
     0
 42
0.00000001
 43
0.00000001
 40
0.0
 40
0.0
 40
0.0
 40
0.0
 40
0.1185009945920698
 40
0.2439073148360066
 40
0.3692815579563455
 40
0.4977503482751113
 40
0.6262186473582599
 40
0.8121215201811404
 40
1.0
 40
1.0
 40
1.0
 40
1.0
 10
106.2925135043142
 20
15.18429359646216
 30
0.0
 10
106.2925135043142
 20
15.56387121768979
 30
0.0
 10
106.2925135043142
 20
16.345145321626
 30
0.0
 10
106.2925135043142
 20
17.54892895614084
 30
0.0
 10
106.2925135043142
 20
18.79892859541676
 30
0.0
 10
106.2925135043142
 20
20.06900297830336
 30
0.0
 10
106.2925135043141
 20
21.53966496674658
 30
0.0
 10
106.2925135043141
 20
23.19572713021038
 30
0.0
 10
106.2925135043141
 20
24.39595989711668
 30
0.0
 10
106.2925135043141
 20
24.99924817268582
 30
0.0
  0
SPLINE
  5
139
330
1F
100
AcDbEntity
  8
0
  6
Continuous
 62
     7
370
    25
100
AcDbSpline
210
0.0
220
0.0
230
1.0
 70
    24
 71
     3
 72
    14
 73
    10
 74
     0
 42
0.00000001
 43
0.00000001
 40
0.0
 40
0.0
 40
0.0
 40
0.0
 40
0.1323173648304389
 40
0.2645973188387832
 40
0.3998364273285067
 40
0.5350511314348789
 40
0.6502525552916445
 40
0.7654719494863401
 40
1.0
 40
1.0
 40
1.0
 40
1.0
 10
97.79251350431423
 20
10.27681630835026
 30
0.0
 10
98.15974685866414
 20
10.48883858433959
 30
0.0
 10
98.89410973744182
 20
10.91282319008476
 30
0.0
 10
100.0249719955764
 20
11.56572681923515
 30
0.0
 10
101.1771168751655
 20
12.23091797561139
 30
0.0
 10
102.2876500914577
 20
12.87208462698172
 30
0.0
 10
103.3377842015219
 20
13.4783798381125
 30
0.0
 10
104.6648780534212
 20
14.24457783074649
 30
0.0
 10
105.6391810055761
 20
14.80709190244536
 30
0.0
 10
106.2925135043142
 20
15.18429359646216
 30
0.0
  0
SPLINE
  5
13A
330
1F
100
AcDbEntity
  8
0
  6
Continuous
 62
     7
370
    25
100
AcDbSpline
210
0.0
220
0.0
230
1.0
 70
    24
 71
     3
 72
    14
 73
    10
 74
     0
 42
0.00000001
 43
0.00000001
 40
0.0
 40
0.0
 40
0.0
 40
0.0
 40
0.1323173648304389
 40
0.2645973188387831
 40
0.3998364273285066
 40
0.5350511314348788
 40
0.6502525552916444
 40
0.76547194948634
 40
1.0
 40
1.0
 40
1.0
 40
1.0
 10
89.29251350431417
 20
15.18429359646204
 30
0.0
 10
89.65974685866408
 20
14.97227132047271
 30
0.0
 10
90.39410973744178
 20
14.54828671472755
 30
0.0
 10
91.52497199557634
 20
13.89538308557719
 30
0.0
 10
92.67711687516547
 20
13.23019192920096
 30
0.0
 10
93.78765009145766
 20
12.58902527783065
 30
0.0
 10
94.83778420152186
 20
11.98273006669988
 30
0.0
 10
96.16487805342122
 20
11.2165320740659
 30
0.0
 10
97.1391810055761
 20
10.65401800236705
 30
0.0
 10
97.79251350431423
 20
10.27681630835026
 30
0.0
  0
SPLINE
  5
13B
330
1F
100
AcDbEntity
  8
0
  6
Continuous
 62
     7
370
    25
100
AcDbSpline
210
0.0
220
0.0
230
1.0
 70
    24
 71
     3
 72
    14
 73
    10
 74
     0
 42
0.00000001
 43
0.00000001
 40
0.0
 40
0.0
 40
0.0
 40
0.0
 40
0.1860584802655414
 40
0.3737803771913304
 40
0.4990317900313266
 40
0.6242830227419763
 40
0.7528733698393438
 40
0.881499071391519
 40
1.0
 40
1.0
 40
1.0
 40
1.0
 10
89.29251350431413
 20
24.9992481726857
 30
0.0
 10
89.29251350431414
 20
24.40184627002223
 30
0.0
 10
89.29251350431414
 20
23.20170151879301
 30
0.0
 10
89.29251350431414
 20
21.55629808790231
 30
0.0
 10
89.29251350431416
 20
20.10111823391393
 30
0.0
 10
89.29251350431416
 20
18.84164287846067
 30
0.0
 10
89.29251350431416
 20
17.58048302475514
 30
0.0
 10
89.29251350431416
 20
16.35546185567043
 30
0.0
 10
89.29251350431417
 20
15.56387255035759
 30
0.0
 10
89.29251350431417
 20
15.18429359646204
 30
0.0
  0
SPLINE
  5
13C
330
1F
100
AcDbEntity
  8
0
  6
Continuous
 62
     7
370
    25
100
AcDbSpline
210
0.0
220
0.0
230
1.0
 70
    24
 71
     3
 72
    14
 73
    10
 74
     0
 42
0.00000001
 43
0.00000001
 40
0.0
 40
0.0
 40
0.0
 40
0.0
 40
0.1323173648304389
 40
0.2645973188387832
 40
0.3998364273285067
 40
0.5350511314348788
 40
0.6502525552916444
 40
0.7654719494863401
 40
1.0
 40
1.0
 40
1.0
 40
1.0
 10
97.79251350431416
 20
29.90672546079755
 30
0.0
 10
97.42528014996425
 20
29.69470318480822
 30
0.0
 10
96.69091727118656
 20
29.27071857906305
 30
0.0
 10
95.56005501305201
 20
28.61781494991267
 30
0.0
 10
94.40791013346288
 20
27.95262379353644
 30
0.0
 10
93.2973769171707
 20
27.31145714216612
 30
0.0
 10
92.24724280710649
 20
26.70516193103535
 30
0.0
 10
90.92014895520714
 20
25.93896393840136
 30
0.0
 10
89.94584600305227
 20
25.3764498667025
 30
0.0
 10
89.29251350431413
 20
24.9992481726857
 30
0.0
  0
SPLINE
  5
13D
330
1F
100
AcDbEntity
  8
0
  6
Continuous
 62
     7
370
    25
100
AcDbSpline
210
0.0
220
0.0
230
1.0
 70
    24
 71
     3
 72
    14
 73
    10
 74
     0
 42
0.00000001
 43
0.00000001
 40
0.0
 40
0.0
 40
0.0
 40
0.0
 40
0.1323173648304407
 40
0.2645973188387865
 40
0.3998364273285118
 40
0.5350511314348857
 40
0.6502525552916495
 40
0.7654719494863436
 40
1.0
 40
1.0
 40
1.0
 40
1.0
 10
106.2925135043141
 20
24.99924817268582
 30
0.0
 10
105.9252801499642
 20
25.21127044867515
 30
0.0
 10
105.1909172711865
 20
25.63525505442031
 30
0.0
 10
104.060055013052
 20
26.28815868357068
 30
0.0
 10
102.9079101334628
 20
26.95334983994691
 30
0.0
 10
101.7973769171706
 20
27.59451649131721
 30
0.0
 10
100.7472428071064
 20
28.20081170244797
 30
0.0
 10
99.42014895520713
 20
28.96700969508193
 30
0.0
 10
98.44584600305227
 20
29.52952376678077
 30
0.0
 10
97.79251350431416
 20
29.90672546079755
 30
0.0
  0
CIRCLE
  5
13E
330
1F
100
AcDbEntity
  8
0
  6
Continuous
 62
     7
370
    25
100
AcDbCircle
 10
97.7925135043
 20
20.0917708846
 30
0.0
 40
2.999999999999986
  0
ARC
  5
13F
330
1F
100
AcDbEntity
  8
0
  6
Continuous
 62
     7
370
    25
100
AcDbCircle
 10
97.7925135043
 20
20.0917708846
 30
0.0
 40
9.75
100
AcDbArc
 50
0.0
 51
28.9820689673
  0
ARC
  5
140
330
1F
100
AcDbEntity
  8
0
  6
Continuous
 62
     7
370
    25
100
AcDbCircle
 10
97.7925135043
 20
20.0917708846
 30
0.0
 40
9.750000000000004
100
AcDbArc
 50
30.8132970805
 51
88.9179875663
  0
ARC
  5
141
330
1F
100
AcDbEntity
  8
0
  6
Continuous
 62
     7
370
    25
100
AcDbCircle
 10
97.7925135043
 20
20.0917708846
 30
0.0
 40
9.750000000000004
100
AcDbArc
 50
91.0921369765
 51
149.2204327616
  0
ARC
  5
142
330
1F
100
AcDbEntity
  8
0
  6
Continuous
 62
     7
370
    25
100
AcDbCircle
 10
97.7925135043
 20
20.0917708846
 30
0.0
 40
9.750000000000002
100
AcDbArc
 50
150.9925519419
 51
208.960039906
  0
ARC
  5
143
330
1F
100
AcDbEntity
  8
0
  6
Continuous
 62
     7
370
    25
100
AcDbCircle
 10
97.7925135043
 20
20.0917708846
 30
0.0
 40
9.75
100
AcDbArc
 50
210.8454993556
 51
268.930313056
  0
ARC
  5
144
330
1F
100
AcDbEntity
  8
0
  6
Continuous
 62
     7
370
    25
100
AcDbCircle
 10
97.7925135043
 20
20.0917708846
 30
0.0
 40
9.75
100
AcDbArc
 50
271.0999896975
 51
329.2556443681
  0
ARC
  5
145
330
1F
100
AcDbEntity
  8
0
  6
Continuous
 62
     7
370
    25
100
AcDbCircle
 10
97.7925135043
 20
20.0917708846
 30
0.0
 40
9.750000000000005
100
AcDbArc
 50
330.9637056521
 51
0.0
  0
CIRCLE
  5
146
330
1F
100
AcDbEntity
  8
0
  6
Continuous
 62
     7
370
    25
100
AcDbCircle
 10
97.7925135043
 20
20.0917708846
 30
0.0
 40
10.0
  0
SPLINE
  5
147
330
1F
100
AcDbEntity
  8
0
  6
Continuous
 62
     7
370
    25
100
AcDbSpline
210
0.0
220
0.0
230
1.0
 70
     8
 71
     3
 72
    12
 73
     8
 74
     0
 42
0.00000001
 43
0.00000001
 40
0.0
 40
0.0
 40
0.0
 40
0.0
 40
0.2188441512560765
 40
0.44557789737152
 40
0.6750181638247315
 40
0.9060282466689945
 40
1.0
 40
1.0
 40
1.0
 40
1.0
 10
103.6921981835639
 20
29.08986455489779
 30
0.0
 10
103.690584055347
 20
29.08055524845996
 30
0.0
 10
103.6872976076496
 20
29.06160102389079
 30
0.0
 10
103.6614248111942
 20
28.89781634993651
 30
0.0
 10
103.6320740040754
 20
28.65018460588043
 30
0.0
 10
103.6122659971167
 20
28.39835770048953
 30
0.0
 10
103.6099289458349
 20
28.23997886494793
 30
0.0
 10
103.6092531640461
 20
28.19418203814207
 30
0.0
  0
SPLINE
  5
148
330
1F
100
AcDbEntity
  8
0
  6
Continuous
 62
     7
370
    25
100
AcDbSpline
210
0.0
220
0.0
230
1.0
 70
    24
 71
     3
 72
    14
 73
    10
 74
     0
 42
0.00000001
 43
0.00000001
 40
0.0
 40
0.0
 40
0.0
 40
0.0
 40
0.0805635831209368
 40
0.25310900309608
 40
0.4329817449245464
 40
0.6132026901284424
 40
0.7934294113595155
 40
0.9024425079261881
 40
1.0
 40
1.0
 40
1.0
 40
1.0
 10
103.9925135043142
 20
28.62620255645203
 30
0.0
 10
103.9925135043142
 20
28.62755283546139
 30
0.0
 10
103.9925135043142
 20
28.63179504714962
 30
0.0
 10
103.9925135043142
 20
28.5686709162765
 30
0.0
 10
103.9925135043142
 20
28.44682695052494
 30
0.0
 10
103.9925135043142
 20
28.27933051031251
 30
0.0
 10
103.9925135043142
 20
28.11690474958791
 30
0.0
 10
103.9925135043142
 20
27.98137386681073
 30
0.0
 10
103.9925135043142
 20
27.91581619756234
 30
0.0
 10
103.9925135043142
 20
27.88485515010555
 30
0.0
  0
LINE
  5
149
330
1F
100
AcDbEntity
  8
0
  6
Continuous
 62
     7
370
    25
100
AcDbLine
 10
101.2925135043
 20
47.4417708846
 30
0.0
 11
103.0425135043
 21
47.4417708846
 31
0.0
  0
LINE
  5
14A
330
1F
100
AcDbEntity
  8
0
  6
Continuous
 62
     7
370
    25
100
AcDbLine
 10
92.5425135043
 20
47.4417708846
 30
0.0
 11
94.2925135043
 21
47.4417708846
 31
0.0
  0
LINE
  5
14B
330
1F
100
AcDbEntity
  8
0
  6
Continuous
 62
     7
370
    25
100
AcDbLine
 10
101.2925135043
 20
46.5917708846
 30
0.0
 11
103.2925135043
 21
46.5917708846
 31
0.0
  0
LINE
  5
14C
330
1F
100
AcDbEntity
  8
0
  6
Continuous
 62
     7
370
    25
100
AcDbLine
 10
92.2925135043
 20
46.5917708846
 30
0.0
 11
94.2925135043
 21
46.5917708846
 31
0.0
  0
LINE
  5
14D
330
1F
100
AcDbEntity
  8
0
  6
Continuous
 62
     7
370
    25
100
AcDbLine
 10
101.2925135043
 20
36.5917708846
 30
0.0
 11
94.2925135043
 21
36.5917708846
 31
0.0
  0
LINE
  5
14E
330
1F
100
AcDbEntity
  8
0
  6
Continuous
 62
     7
370
    25
100
AcDbLine
 10
94.2925135043
 20
36.5917708846
 30
0.0
 11
94.2925135043
 21
41.5917708846
 31
0.0
  0
LINE
  5
14F
330
1F
100
AcDbEntity
  8
0
  6
Continuous
 62
     7
370
    25
100
AcDbLine
 10
94.2925135043
 20
41.5917708846
 30
0.0
 11
101.2925135043
 21
41.5917708846
 31
0.0
  0
LINE
  5
150
330
1F
100
AcDbEntity
  8
0
  6
Continuous
 62
     7
370
    25
100
AcDbLine
 10
101.2925135043
 20
41.5917708846
 30
0.0
 11
101.2925135043
 21
36.5917708846
 31
0.0
  0
LINE
  5
151
330
1F
100
AcDbEntity
  8
0
  6
Continuous
 62
     7
370
    25
100
AcDbLine
 10
94.2925135043
 20
48.5917708846
 30
0.0
 11
94.2925135043
 21
41.5917708846
 31
0.0
  0
LINE
  5
152
330
1F
100
AcDbEntity
  8
0
  6
Continuous
 62
     7
370
    25
100
AcDbLine
 10
94.2925135043
 20
48.5917708846
 30
0.0
 11
101.2925135043
 21
48.5917708846
 31
0.0
  0
LINE
  5
153
330
1F
100
AcDbEntity
  8
0
  6
Continuous
 62
     7
370
    25
100
AcDbLine
 10
101.2925135043
 20
41.5917708846
 30
0.0
 11
101.2925135043
 21
48.5917708846
 31
0.0
  0
SPLINE
  5
154
330
1F
100
AcDbEntity
  8
0
  6
Continuous
 62
     7
370
    25
100
AcDbSpline
210
0.0
220
0.0
230
1.0
 70
     8
 71
     3
 72
    11
 73
     7
 74
     0
 42
0.00000001
 43
0.00000001
 40
0.0
 40
0.0
 40
0.0
 40
0.0
 40
0.2488466353289361
 40
0.4976946020535204
 40
0.7488461225871278
 40
1.0
 40
1.0
 40
1.0
 40
1.0
 10
101.2925135043142
 20
36.34394657754945
 30
0.0
 10
101.2972050402536
 20
36.27442220105581
 30
0.0
 10
101.3065881372334
 20
36.13537307609464
 30
0.0
 10
101.3830100207202
 20
35.83504433796936
 30
0.0
 10
101.5007361486839
 20
35.47313471971421
 30
0.0
 10
101.6190450720169
 20
35.17154276264966
 30
0.0
 10
101.6781998112435
 20
35.02074607656393
 30
0.0
  0
LINE
  5
155
330
1F
100
AcDbEntity
  8
0
  6
Continuous
 62
     7
370
    25
100
AcDbLine
 10
101.6781998112
 20
35.0207460766
 30
0.0
 11
93.9068271974
 21
35.0207460766
 31
0.0
  0
SPLINE
  5
156
330
1F
100
AcDbEntity
  8
0
  6
Continuous
 62
     7
370
    25
100
AcDbSpline
210
0.0
220
0.0
230
1.0
 70
     8
 71
     3
 72
    11
 73
     7
 74
     0
 42
0.00000001
 43
0.00000001
 40
0.0
 40
0.0
 40
0.0
 40
0.0
 40
0.2488607147078904
 40
0.4977191536447658
 40
0.7488602698858828
 40
1.0
 40
1.0
 40
1.0
 40
1.0
 10
93.90682719738477
 20
35.02074607656394
 30
0.0
 10
93.96548068907107
 20
35.17022501345206
 30
0.0
 10
94.08278713607169
 20
35.46918152027959
 30
0.0
 10
94.20082294260463
 20
35.83098549373831
 30
0.0
 10
94.27817762388487
 20
36.13326013697782
 30
0.0
 10
94.287734886296
 20
36.27371789323104
 30
0.0
 10
94.29251350431413
 20
36.34394657754945
 30
0.0
  0
LINE
  5
157
330
1F
100
AcDbEntity
  8
0
  6
Continuous
 62
     7
370
    25
100
AcDbLine
 10
94.2925135043
 20
36.3439465775
 30
0.0
 11
94.2925135043
 21
36.5917708846
 31
0.0
  0
LINE
  5
158
330
1F
100
AcDbEntity
  8
0
  6
Continuous
 62
     7
370
    25
100
AcDbLine
 10
101.2925135043
 20
36.5917708846
 30
0.0
 11
101.2925135043
 21
36.3439465775
 31
0.0
  0
SPLINE
  5
159
330
1F
100
AcDbEntity
  8
0
  6
Continuous
 62
     7
370
    25
100
AcDbSpline
210
0.0
220
0.0
230
1.0
 70
     8
 71
     3
 72
    16
 73
    12
 74
     0
 42
0.00000001
 43
0.00000001
 40
0.0
 40
0.0
 40
0.0
 40
0.0
 40
0.0155634360124117
 40
0.0359329243097674
 40
0.0739120889290614
 40
0.1570057548437684
 40
0.2406581385754913
 40
0.4592958294318596
 40
0.6783839187935412
 40
0.8974954344294845
 40
1.0
 40
1.0
 40
1.0
 40
1.0
 10
91.13279128209192
 20
30.591770884574
 30
0.0
 10
91.14648494910526
 20
30.59696425635316
 30
0.0
 10
91.17810094315188
 20
30.60895473422094
 30
0.0
 10
91.23358063346197
 20
30.72728065821791
 30
0.0
 10
91.31218144395248
 20
31.03853196566685
 30
0.0
 10
91.39152163058154
 20
31.56417946703191
 30
0.0
 10
91.49674933868472
 20
32.60272563130206
 30
0.0
 10
91.61174273990399
 20
34.03779967364819
 30
0.0
 10
91.71414274031889
 20
35.87605177508761
 30
0.0
 10
91.78389162019927
 20
37.39723462390707
 30
0.0
 10
91.82335023962804
 20
38.30306666470357
 30
0.0
 10
91.83592637894105
 20
38.59177088457152
 30
0.0
  0
LINE
  5
15A
330
1F
100
AcDbEntity
  8
0
  6
Continuous
 62
     7
370
    25
100
AcDbLine
 10
91.8359263789
 20
38.5917708846
 30
0.0
 11
91.6157656637
 21
39.5865144625
 31
0.0
  0
ELLIPSE
  5
15B
330
1F
100
AcDbEntity
  8
0
  6
Continuous
 62
     7
370
    25
100
AcDbEllipse
 10
29.2925135043
 20
36.9396453169
 30
0.0
 11
65.0
 21
0.0
 31
0.0
210
0.0
220
0.0
230
1.0
 40
0.2713992096
 41
6.084179739699223
 42
6.174194364446292
  0
SPLINE
  5
15C
330
1F
100
AcDbEntity
  8
0
  6
Continuous
 62
     7
370
    25
100
AcDbSpline
210
0.0
220
0.0
230
1.0
 70
     8
 71
     3
 72
    13
 73
     9
 74
     0
 42
0.00000001
 43
0.00000001
 40
0.0
 40
0.0
 40
0.0
 40
0.0
 40
0.1610294006389558
 40
0.3266880383557516
 40
0.4877296220820637
 40
0.6535536198224136
 40
0.8237602734841889
 40
1.0
 40
1.0
 40
1.0
 40
1.0
 10
93.00965117420961
 20
33.45212463608106
 30
0.0
 10
92.96584740677721
 20
33.38272774150382
 30
0.0
 10
92.87698061103495
 20
33.24193894599527
 30
0.0
 10
92.74796059236299
 20
32.89581412828763
 30
0.0
 10
92.62695049659564
 20
32.45660748523559
 30
0.0
 10
92.52026951347098
 20
31.92300564829598
 30
0.0
 10
92.42960222611518
 20
31.2991793415963
 30
0.0
 10
92.39278341721842
 20
30.83029544339431
 30
0.0
 10
92.37405342844707
 20
30.5917708845739
 30
0.0
  0
LINE
  5
15D
330
1F
100
AcDbEntity
  8
0
  6
Continuous
 62
     7
370
    25
100
AcDbLine
 10
92.3740534284
 20
30.5917708846
 30
0.0
 11
91.1327912821
 21
30.5917708846
 31
0.0
  0
LINE
  5
15E
330
1F
100
AcDbEntity
  8
0
  6
Continuous
 62
     7
370
    25
100
AcDbLine
 10
91.6157656637
 20
39.5865144625
 30
0.0
 11
94.2925135043
 21
39.5865144626
 31
0.0
  0
SPLINE
  5
15F
330
1F
100
AcDbEntity
  8
0
  6
Continuous
 62
     7
370
    25
100
AcDbSpline
210
0.0
220
0.0
230
1.0
 70
     8
 71
     3
 72
    17
 73
    13
 74
     0
 42
0.00000001
 43
0.00000001
 40
0.0
 40
0.0
 40
0.0
 40
0.0
 40
0.3241697628029873
 40
0.5422758463620719
 40
0.689509052693928
 40
0.7894036290694505
 40
0.8577090008137825
 40
0.9049823971474137
 40
0.9551712229700868
 40
0.9753097783197817
 40
0.9919572060138848
 40
1.0
 40
1.0
 40
1.0
 40
1.0
 10
103.7491006296872
 20
38.59177088457154
 30
0.0
 10
103.789751068414
 20
37.67915738196586
 30
0.0
 10
103.8577517075697
 20
36.15252437570452
 30
0.0
 10
103.969184606886
 20
34.22575147342355
 30
0.0
 10
104.0616892669446
 20
32.93811600249078
 30
0.0
 10
104.139590723262
 20
32.07896403576903
 30
0.0
 10
104.2056432226843
 20
31.50549614739164
 30
0.0
 10
104.2689998300467
 20
31.08396399336167
 30
0.0
 10
104.3271262977406
 20
30.80347145056624
 30
0.0
 10
104.3864681260634
 20
30.64792278198558
 30
0.0
 10
104.4234741946861
 20
30.59731218278808
 30
0.0
 10
104.4451687615566
 20
30.59313243098344
 30
0.0
 10
104.4522357265364
 20
30.59177088457397
 30
0.0
  0
LINE
  5
160
330
1F
100
AcDbEntity
  8
0
  6
Continuous
 62
     7
370
    25
100
AcDbLine
 10
104.4522357265
 20
30.5917708846
 30
0.0
 11
103.2109735802
 21
30.5917708846
 31
0.0
  0
SPLINE
  5
161
330
1F
100
AcDbEntity
  8
0
  6
Continuous
 62
     7
370
    25
100
AcDbSpline
210
0.0
220
0.0
230
1.0
 70
     8
 71
     3
 72
    14
 73
    10
 74
     0
 42
0.00000001
 43
0.00000001
 40
0.0
 40
0.0
 40
0.0
 40
0.0
 40
0.1576095309202822
 40
0.3152382602707094
 40
0.4726926441579498
 40
0.6301650083177254
 40
0.7907313191165901
 40
0.9513050385928076
 40
1.0
 40
1.0
 40
1.0
 40
1.0
 10
103.2109735801812
 20
30.5917708845739
 30
0.0
 10
103.1944682433388
 20
30.8052726730513
 30
0.0
 10
103.1614555591374
 20
31.23230225667681
 30
0.0
 10
103.0816518692255
 20
31.81754933553313
 30
0.0
 10
102.9838644617393
 20
32.33970387635555
 30
0.0
 10
102.8702746220573
 20
32.78868200377542
 30
0.0
 10
102.7457325230256
 20
33.1479637355818
 30
0.0
 10
102.6453751822491
 20
33.35252991468298
 30
0.0
 10
102.588589384634
 20
33.43332446303429
 30
0.0
 10
102.5753758344187
 20
33.45212463608106
 30
0.0
  0
ELLIPSE
  5
162
330
1F
100
AcDbEntity
  8
0
  6
Continuous
 62
     7
370
    25
100
AcDbEllipse
 10
166.2925135043
 20
36.9396453169
 30
0.0
 11
65.0
 21
0.0
 31
0.0
210
0.0
220
0.0
230
1.0
 40
0.2713992096
 41
3.25058359632319
 42
3.340598221070255
  0
LINE
  5
163
330
1F
100
AcDbEntity
  8
0
  6
Continuous
 62
     7
370
    25
100
AcDbLine
 10
101.2925135043
 20
39.5865144626
 30
0.0
 11
103.969261345
 21
39.5865144625
 31
0.0
  0
LINE
  5
164
330
1F
100
AcDbEntity
  8
0
  6
Continuous
 62
     7
370
    25
100
AcDbLine
 10
103.969261345
 20
39.5865144625
 30
0.0
 11
103.7491006297
 21
38.5917708846
 31
0.0
  0
LINE
  5
165
330
1F
100
AcDbEntity
  8
0
  6
Continuous
 62
     7
370
    25
100
AcDbLine
 10
93.0096511742
 20
33.4521246361
 30
0.0
 11
102.5753758344
 21
33.4521246361
 31
0.0
  0
SPLINE
  5
166
330
1F
100
AcDbEntity
  8
0
  6
Continuous
 62
     7
370
    25
100
AcDbSpline
210
0.0
220
0.0
230
1.0
 70
     8
 71
     3
 72
    17
 73
    13
 74
     0
 42
0.00000001
 43
0.00000001
 40
0.0
 40
0.0
 40
0.0
 40
0.0
 40
0.1081860012549414
 40
0.2408151807051437
 40
0.3276516311100471
 40
0.4145726740665699
 40
0.5029543110696525
 40
0.5913346660341969
 40
0.6906638927173525
 40
0.7898254811331098
 40
0.9113412715150513
 40
1.0
 40
1.0
 40
1.0
 40
1.0
 10
100.3905897156675
 20
30.5917708845739
 30
0.0
 10
100.2725390354741
 20
30.77482760383709
 30
0.0
 10
100.0097657047903
 20
31.18230025665077
 30
0.0
 10
99.43303286501624
 20
31.52653810047851
 30
0.0
 10
98.84762423971819
 20
31.73049853334839
 30
0.0
 10
98.31761967896887
 20
31.82899157900163
 30
0.0
 10
97.77355369969015
 20
31.86030241039567
 30
0.0
 10
97.20434254970489
 20
31.8226870762532
 30
0.0
 10
96.6265720129531
 20
31.70412786767628
 30
0.0
 10
96.02637575369911
 20
31.46360853332842
 30
0.0
 10
95.50966772926115
 20
31.10315860625632
 30
0.0
 10
95.28796078778548
 20
30.74349090090059
 30
0.0
 10
95.19443729296083
 20
30.5917708845739
 30
0.0
  0
LINE
  5
167
330
1F
100
AcDbEntity
  8
0
  6
Continuous
 62
     7
370
    25
100
AcDbLine
 10
95.194437293
 20
30.5917708846
 30
0.0
 11
92.3740534284
 21
30.5917708846
 31
0.0
  0
LINE
  5
168
330
1F
100
AcDbEntity
  8
0
  6
Continuous
 62
     7
370
    25
100
AcDbLine
 10
103.2109735802
 20
30.5917708846
 30
0.0
 11
100.3905897157
 21
30.5917708846
 31
0.0
  0
LINE
  5
169
330
1F
100
AcDbEntity
  8
0
  6
Continuous
 62
     7
370
    25
100
AcDbLine
 10
100.3905897157
 20
30.5917708846
 30
0.0
 11
95.194437293
 21
30.5917708846
 31
0.0
  0
LINE
  5
16A
330
1F
100
AcDbEntity
  8
0
  6
Continuous
 62
     7
370
    25
100
AcDbLine
 10
103.7491006297
 20
38.5917708846
 30
0.0
 11
105.2425135043
 21
38.5917708846
 31
0.0
  0
LINE
  5
16B
330
1F
100
AcDbEntity
  8
0
  6
Continuous
 62
     7
370
    25
100
AcDbLine
 10
90.3425135043
 20
38.5917708846
 30
0.0
 11
91.8359263789
 21
38.5917708846
 31
0.0
  0
SPLINE
  5
16C
330
1F
100
AcDbEntity
  8
0
  6
Continuous
 62
     7
370
    25
100
AcDbSpline
210
0.0
220
0.0
230
1.0
 70
     8
 71
     3
 72
     9
 73
     5
 74
     0
 42
0.00000001
 43
0.00000001
 40
0.0
 40
0.0
 40
0.0
 40
0.0
 40
0.4875141023677128
 40
0.9999999999999999
 40
0.9999999999999999
 40
0.9999999999999999
 40
0.9999999999999999
 10
104.4522357265364
 20
30.59177088457397
 30
0.0
 10
104.4607618380722
 20
30.59349823054567
 30
0.0
 10
104.4782507917134
 20
30.59704140183715
 30
0.0
 10
104.4945724955998
 20
30.61855988778646
 30
0.0
 10
104.502937138667
 20
30.62958780837388
 30
0.0
  0
SPLINE
  5
16D
330
1F
100
AcDbEntity
  8
0
  6
Continuous
 62
     7
370
    25
100
AcDbSpline
210
0.0
220
0.0
230
1.0
 70
     8
 71
     3
 72
     9
 73
     5
 74
     0
 42
0.00000001
 43
0.00000001
 40
0.0
 40
0.0
 40
0.0
 40
0.0
 40
0.5124861829376838
 40
0.9999999999999999
 40
0.9999999999999999
 40
0.9999999999999999
 40
0.9999999999999999
 10
91.08208990082758
 20
30.62958776251412
 30
0.0
 10
91.09045454395122
 20
30.61855984956295
 30
0.0
 10
91.10677623886147
 20
30.59704139049354
 30
0.0
 10
91.12426518110324
 20
30.59349822614838
 30
0.0
 10
91.13279128209192
 20
30.591770884574
 30
0.0
  0
LINE
  5
16E
330
1F
100
AcDbEntity
  8
0
  6
Continuous
 62
     7
370
    25
100
AcDbLine
 10
104.5007174368
 20
30.5917708846
 30
0.0
 11
104.7925135043
 21
30.5917708846
 31
0.0
  0
LINE
  5
16F
330
1F
100
AcDbEntity
  8
0
  6
Continuous
 62
     7
370
    25
100
AcDbLine
 10
90.7925135043
 20
30.5917708846
 30
0.0
 11
91.0843095718
 21
30.5917708846
 31
0.0
  0
LINE
  5
170
330
1F
100
AcDbEntity
  8
0
  6
Continuous
 62
     7
370
    25
100
AcDbLine
 10
104.5029371387
 20
30.6295878084
 30
0.0
 11
104.5007174368
 21
30.5917708846
 31
0.0
  0
LINE
  5
171
330
1F
100
AcDbEntity
  8
0
  6
Continuous
 62
     7
370
    25
100
AcDbLine
 10
104.5007174368
 20
30.5917708846
 30
0.0
 11
104.4522357265
 21
30.5917708846
 31
0.0
  0
LINE
  5
172
330
1F
100
AcDbEntity
  8
0
  6
Continuous
 62
     7
370
    25
100
AcDbLine
 10
91.0843095718
 20
30.5917708846
 30
0.0
 11
91.0820899008
 21
30.6295877625
 31
0.0
  0
LINE
  5
173
330
1F
100
AcDbEntity
  8
0
  6
Continuous
 62
     7
370
    25
100
AcDbLine
 10
91.1327912821
 20
30.5917708846
 30
0.0
 11
91.0843095718
 21
30.5917708846
 31
0.0
  0
LINE
  5
174
330
1F
100
AcDbEntity
  8
0
  6
Continuous
 62
     7
370
    25
100
AcDbLine
 10
103.2925135043
 20
47.1917708846
 30
0.0
 11
101.2925135043
 21
47.1917708846
 31
0.0
  0
LINE
  5
175
330
1F
100
AcDbEntity
  8
0
  6
Continuous
 62
     7
370
    25
100
AcDbLine
 10
94.2925135043
 20
47.1917708846
 30
0.0
 11
92.2925135043
 21
47.1917708846
 31
0.0
  0
INSERT
  5
181
330
1F
100
AcDbEntity
  8
0
  6
Continuous
 62
     7
370
    18
100
AcDbBlockReference
  2
SW_CENTERMARKSYMBOL_0
 10
97.7925135043
 20
20.0917708846
 30
0.0
  0
LINE
  5
182
330
1F
100
AcDbEntity
  8
0
  6
Continuous
 62
     7
370
    25
100
AcDbLine
 10
44.9207101186
 20
85.4407558603
 30
0.0
 11
44.7763725513
 21
85.1907558603
 31
0.0
  0
LINE
  5
183
330
1F
100
AcDbEntity
  8
0
  6
Continuous
 62
     7
370
    25
100
AcDbLine
 10
44.7763725513
 20
68.6907558603
 30
0.0
 11
44.9207101186
 21
68.4407558603
 31
0.0
  0
LINE
  5
184
330
1F
100
AcDbEntity
  8
0
  6
Continuous
 62
     7
370
    25
100
AcDbLine
 10
54.632034984
 20
68.4407558603
 30
0.0
 11
54.7763725513
 21
68.6907558603
 31
0.0
  0
LINE
  5
185
330
1F
100
AcDbEntity
  8
0
  6
Continuous
 62
     7
370
    25
100
AcDbLine
 10
54.7763725513
 20
85.1907558603
 30
0.0
 11
54.632034984
 21
85.4407558603
 31
0.0
  0
LINE
  5
186
330
1F
100
AcDbEntity
  8
0
  6
Continuous
 62
     7
370
    25
100
AcDbLine
 10
54.7763725513
 20
68.4956933603
 30
0.0
 11
62.7024631177
 21
68.7433836905
 31
0.0
  0
LINE
  5
187
330
1F
100
AcDbEntity
  8
0
  6
Continuous
 62
     7
370
    25
100
AcDbLine
 10
62.7024631177
 20
85.1381280301
 30
0.0
 11
54.7763725513
 21
85.3858183603
 31
0.0
  0
LINE
  5
188
330
1F
100
AcDbEntity
  8
0
  6
Continuous
 62
     7
370
    25
100
AcDbLine
 10
62.7024631177
 20
68.7433836905
 30
0.0
 11
64.7763725513
 21
69.9407558603
 31
0.0
  0
LINE
  5
189
330
1F
100
AcDbEntity
  8
0
  6
Continuous
 62
     7
370
    25
100
AcDbLine
 10
64.7763725513
 20
83.9407558603
 30
0.0
 11
62.7024631177
 21
85.1381280301
 31
0.0
  0
LINE
  5
18A
330
1F
100
AcDbEntity
  8
0
  6
Continuous
 62
     7
370
    25
100
AcDbLine
 10
25.2763725513
 20
86.9407558603
 30
0.0
 11
24.7763725513
 21
86.4407558603
 31
0.0
  0
LINE
  5
18B
330
1F
100
AcDbEntity
  8
0
  6
Continuous
 62
     7
370
    25
100
AcDbLine
 10
24.7763725513
 20
67.4407558603
 30
0.0
 11
25.2763725513
 21
66.9407558603
 31
0.0
  0
LINE
  5
18C
330
1F
100
AcDbEntity
  8
0
  6
Continuous
 62
     7
370
    25
100
AcDbLine
 10
44.5263725513
 20
66.9407558603
 30
0.0
 11
44.7763725513
 21
67.1907558603
 31
0.0
  0
LINE
  5
18D
330
1F
100
AcDbEntity
  8
0
  6
Continuous
 62
     7
370
    25
100
AcDbLine
 10
44.7763725513
 20
86.6907558603
 30
0.0
 11
44.5263725513
 21
86.9407558603
 31
0.0
  0
ARC
  5
18E
330
1F
100
AcDbEntity
  8
0
  6
Continuous
 62
     7
370
    25
100
AcDbCircle
 10
25.7763725513
 20
67.9407558603
 30
0.0
 40
1.5
100
AcDbArc
 50
318.1896851042
 51
0.0
  0
ARC
  5
18F
330
1F
100
AcDbEntity
  8
0
  6
Continuous
 62
     7
370
    25
100
AcDbCircle
 10
25.7763725513
 20
85.9407558603
 30
0.0
 40
1.500000000000008
100
AcDbArc
 50
0.0
 51
41.8103148958
  0
LINE
  5
190
330
1F
100
AcDbEntity
  8
0
  6
Continuous
 62
     7
370
    25
100
AcDbLine
 10
44.5263725513
 20
86.9407558603
 30
0.0
 11
42.6583385626
 21
86.9407558603
 31
0.0
  0
LINE
  5
191
330
1F
100
AcDbEntity
  8
0
  6
Continuous
 62
     7
370
    25
100
AcDbLine
 10
42.6583385626
 20
66.9407558603
 30
0.0
 11
44.5263725513
 21
66.9407558603
 31
0.0
  0
LINE
  5
192
330
1F
100
AcDbEntity
  8
0
  6
Continuous
 62
     7
370
    25
100
AcDbLine
 10
25.2763725513
 20
66.9407558603
 30
0.0
 11
26.8944065401
 21
66.9407558603
 31
0.0
  0
LINE
  5
193
330
1F
100
AcDbEntity
  8
0
  6
Continuous
 62
     7
370
    25
100
AcDbLine
 10
26.8944065401
 20
86.9407558603
 30
0.0
 11
25.2763725513
 21
86.9407558603
 31
0.0
  0
ARC
  5
194
330
1F
100
AcDbEntity
  8
0
  6
Continuous
 62
     7
370
    25
100
AcDbCircle
 10
43.7763725513
 20
85.9407558603
 30
0.0
 40
1.500000000000008
100
AcDbArc
 50
138.1896851042
 51
180.0
  0
ARC
  5
195
330
1F
100
AcDbEntity
  8
0
  6
Continuous
 62
     7
370
    25
100
AcDbCircle
 10
43.7763725513
 20
67.9407558603
 30
0.0
 40
1.5
100
AcDbArc
 50
180.0
 51
221.8103148958
  0
LINE
  5
196
330
1F
100
AcDbEntity
  8
0
  6
Continuous
 62
     7
370
    25
100
AcDbLine
 10
24.7763725513
 20
85.3858183603
 30
0.0
 11
16.850281985
 21
85.1381280301
 31
0.0
  0
LINE
  5
197
330
1F
100
AcDbEntity
  8
0
  6
Continuous
 62
     7
370
    25
100
AcDbLine
 10
16.850281985
 20
68.7433836905
 30
0.0
 11
24.7763725513
 21
68.4956933603
 31
0.0
  0
LINE
  5
198
330
1F
100
AcDbEntity
  8
0
  6
Continuous
 62
     7
370
    25
100
AcDbLine
 10
16.850281985
 20
85.1381280301
 30
0.0
 11
14.7763725513
 21
83.9407558603
 31
0.0
  0
LINE
  5
199
330
1F
100
AcDbEntity
  8
0
  6
Continuous
 62
     7
370
    25
100
AcDbLine
 10
14.7763725513
 20
69.9407558603
 30
0.0
 11
16.850281985
 21
68.7433836905
 31
0.0
  0
ARC
  5
19A
330
1F
100
AcDbEntity
  8
0
  6
Continuous
 62
     7
370
    25
100
AcDbCircle
 10
27.768430789
 20
85.9407067801
 30
0.0
 40
0.4999499223317144
100
AcDbArc
 50
185.4070207077
 51
271.7417304983
  0
ARC
  5
19B
330
1F
100
AcDbEntity
  8
0
  6
Continuous
 62
     7
370
    25
100
AcDbCircle
 10
27.7762606582
 20
85.9407557898
 30
0.0
 40
0.4999999295239426
100
AcDbArc
 50
181.8055459077
 51
270.0008318653
  0
ARC
  5
19C
330
1F
100
AcDbEntity
  8
0
  6
Continuous
 62
     7
370
    25
100
AcDbCircle
 10
41.7843142877
 20
85.9407068315
 30
0.0
 40
0.4999499729556542
100
AcDbArc
 50
268.2582726631
 51
354.6234834793
  0
ARC
  5
19D
330
1F
100
AcDbEntity
  8
0
  6
Continuous
 62
     7
370
    25
100
AcDbCircle
 10
41.7764844446
 20
85.9407557897
 30
0.0
 40
0.4999999293578475
100
AcDbArc
 50
269.9991681241
 51
358.1337188994
  0
ARC
  5
19E
330
1F
100
AcDbEntity
  8
0
  6
Continuous
 62
     7
370
    25
100
AcDbCircle
 10
27.768430815
 20
67.9408048891
 30
0.0
 40
0.4999499729556405
100
AcDbArc
 50
88.2582726631
 51
174.6234834793
  0
ARC
  5
19F
330
1F
100
AcDbEntity
  8
0
  6
Continuous
 62
     7
370
    25
100
AcDbCircle
 10
27.7762606581
 20
67.9407559309
 30
0.0
 40
0.4999999293578376
100
AcDbArc
 50
89.9991681241
 51
178.1337188994
  0
ARC
  5
1A0
330
1F
100
AcDbEntity
  8
0
  6
Continuous
 62
     7
370
    25
100
AcDbCircle
 10
41.7843143137
 20
67.9408049405
 30
0.0
 40
0.4999499223317245
100
AcDbArc
 50
5.4070207077
 51
91.7417304983
  0
ARC
  5
1A1
330
1F
100
AcDbEntity
  8
0
  6
Continuous
 62
     7
370
    25
100
AcDbCircle
 10
41.7764844445
 20
67.9407559308
 30
0.0
 40
0.4999999295239506
100
AcDbArc
 50
1.8055459077
 51
90.0008318653
  0
SPLINE
  5
1A2
330
1F
100
AcDbEntity
  8
0
  6
Continuous
 62
     7
370
    25
100
AcDbSpline
210
0.0
220
0.0
230
1.0
 70
     8
 71
     3
 72
    11
 73
     7
 74
     0
 42
0.00000001
 43
0.00000001
 40
0.0
 40
0.0
 40
0.0
 40
0.0
 40
0.2924563651336923
 40
0.5848300424579611
 40
0.8837442336792706
 40
1.0
 40
1.0
 40
1.0
 40
1.0
 10
45.67989949719674
 20
68.4407558602981
 30
0.0
 10
45.56394163766208
 20
68.80798061996477
 30
0.0
 10
45.3320587040012
 20
69.54232631180597
 30
0.0
 10
45.08925567068288
 20
70.6733184049203
 30
0.0
 10
44.95233342286496
 20
71.58871233215655
 30
0.0
 10
44.94522859566747
 20
72.12906693699465
 30
0.0
 10
44.94323910409802
 20
72.2803768705031
 30
0.0
  0
SPLINE
  5
1A3
330
1F
100
AcDbEntity
  8
0
  6
Continuous
 62
     7
370
    25
100
AcDbSpline
210
0.0
220
0.0
230
1.0
 70
    24
 71
     3
 72
    10
 73
     6
 74
     0
 42
0.00000001
 43
0.00000001
 40
0.0
 40
0.0
 40
0.0
 40
0.0
 40
0.2524428734626838
 40
0.6242458444784866
 40
1.0
 40
1.0
 40
1.0
 40
1.0
 10
44.92215862250447
 20
68.44075586029811
 30
0.0
 10
44.93252460665691
 20
68.44075586029811
 30
0.0
 10
44.95815782197539
 20
68.4407558602981
 30
0.0
 10
45.20230899396002
 20
68.4407558602981
 30
0.0
 10
45.52014269683781
 20
68.4407558602981
 30
0.0
 10
45.67989949719674
 20
68.4407558602981
 30
0.0
  0
SPLINE
  5
1A4
330
1F
100
AcDbEntity
  8
0
  6
Continuous
 62
     7
370
    25
100
AcDbSpline
210
0.0
220
0.0
230
1.0
 70
    24
 71
     3
 72
    11
 73
     7
 74
     0
 42
0.00000001
 43
0.00000001
 40
0.0
 40
0.0
 40
0.0
 40
0.0
 40
0.3721810190356624
 40
0.7476894440933902
 40
0.9982353928720534
 40
1.0
 40
1.0
 40
1.0
 40
1.0
 10
45.67989949719674
 20
85.44075586029807
 30
0.0
 10
45.51967522860791
 20
85.44075586029807
 30
0.0
 10
45.19779424009897
 20
85.44075586029808
 30
0.0
 10
44.97878903456461
 20
85.44075586029811
 30
0.0
 10
44.90409147205545
 20
85.44075586029808
 30
0.0
 10
44.92141323896244
 20
85.44075586029811
 30
0.0
 10
44.92153438376846
 20
85.44075586029811
 30
0.0
  0
SPLINE
  5
1A5
330
1F
100
AcDbEntity
  8
0
  6
Continuous
 62
     7
370
    25
100
AcDbSpline
210
0.0
220
0.0
230
1.0
 70
     8
 71
     3
 72
    10
 73
     6
 74
     0
 42
0.00000001
 43
0.00000001
 40
0.0
 40
0.0
 40
0.0
 40
0.0
 40
0.2266139283365143
 40
0.4813951311841516
 40
1.0
 40
1.0
 40
1.0
 40
1.0
 10
44.93272585737158
 20
81.6025035831942
 30
0.0
 10
44.94911079657408
 20
81.89696835027394
 30
0.0
 10
44.98391726241992
 20
82.52249876765829
 30
0.0
 10
45.19068665393379
 20
83.8130223812283
 30
0.0
 10
45.48352957349644
 20
84.78738401307214
 30
0.0
 10
45.67989949719674
 20
85.44075586029807
 30
0.0
  0
SPLINE
  5
1A6
330
1F
100
AcDbEntity
  8
0
  6
Continuous
 62
     7
370
    25
100
AcDbSpline
210
0.0
220
0.0
230
1.0
 70
    24
 71
     3
 72
    10
 73
     6
 74
     0
 42
0.00000001
 43
0.00000001
 40
0.0
 40
0.0
 40
0.0
 40
0.0
 40
0.2524428734627101
 40
0.6242458444785001
 40
1.0
 40
1.0
 40
1.0
 40
1.0
 10
54.63058648018451
 20
85.44075586029811
 30
0.0
 10
54.62022049603209
 20
85.44075586029811
 30
0.0
 10
54.5945872807136
 20
85.4407558602981
 30
0.0
 10
54.35043610872896
 20
85.44075586029808
 30
0.0
 10
54.03260240585117
 20
85.44075586029808
 30
0.0
 10
53.87284560549224
 20
85.44075586029807
 30
0.0
  0
SPLINE
  5
1A7
330
1F
100
AcDbEntity
  8
0
  6
Continuous
 62
     7
370
    25
100
AcDbSpline
210
0.0
220
0.0
230
1.0
 70
    24
 71
     3
 72
    11
 73
     7
 74
     0
 42
0.00000001
 43
0.00000001
 40
0.0
 40
0.0
 40
0.0
 40
0.0
 40
0.3721810190356756
 40
0.7476894440934169
 40
0.9982353928720888
 40
1.0
 40
1.0
 40
1.0
 40
1.0
 10
53.87284560549224
 20
68.4407558602981
 30
0.0
 10
54.03306987408107
 20
68.44075586029808
 30
0.0
 10
54.35495086258999
 20
68.44075586029808
 30
0.0
 10
54.57395606812444
 20
68.44075586029818
 30
0.0
 10
54.64865363063343
 20
68.44075586029801
 30
0.0
 10
54.63133186372654
 20
68.44075586029811
 30
0.0
 10
54.63121071892053
 20
68.44075586029811
 30
0.0
  0
SPLINE
  5
1A8
330
1F
100
AcDbEntity
  8
0
  6
Continuous
 62
     7
370
    25
100
AcDbSpline
210
0.0
220
0.0
230
1.0
 70
     8
 71
     3
 72
    11
 73
     7
 74
     0
 42
0.00000001
 43
0.00000001
 40
0.0
 40
0.0
 40
0.0
 40
0.0
 40
0.1944493496879245
 40
0.3940424408402623
 40
0.5936666666363958
 40
1.0
 40
1.0
 40
1.0
 40
1.0
 10
54.60291191012139
 20
73.35658289608027
 30
0.0
 10
54.61810035860371
 20
73.03385441133015
 30
0.0
 10
54.64887903347278
 20
72.37986035033842
 30
0.0
 10
54.5679462423417
 20
71.39541987717804
 30
0.0
 10
54.36585440201429
 20
70.06842831333212
 30
0.0
 10
54.07073922396491
 20
69.0941032116872
 30
0.0
 10
53.87284560549224
 20
68.4407558602981
 30
0.0
  0
SPLINE
  5
1A9
330
1F
100
AcDbEntity
  8
0
  6
Continuous
 62
     7
370
    25
100
AcDbSpline
210
0.0
220
0.0
230
1.0
 70
     8
 71
     3
 72
    12
 73
     8
 74
     0
 42
0.00000001
 43
0.00000001
 40
0.0
 40
0.0
 40
0.0
 40
0.0
 40
0.2292122187775419
 40
0.4583596311137699
 40
0.6926331609875689
 40
0.92686441536062
 40
1.0
 40
1.0
 40
1.0
 40
1.0
 10
53.87284560549224
 20
85.44075586029807
 30
0.0
 10
53.9883201938888
 20
85.07352689772266
 30
0.0
 10
54.21923672191136
 20
84.33917280125225
 30
0.0
 10
54.46934025678706
 20
83.20824419908419
 30
0.0
 10
54.61326097435814
 20
82.05635685059444
 30
0.0
 10
54.65344838736549
 20
81.15523892095821
 30
0.0
 10
54.61167972685675
 20
80.64613612373631
 30
0.0
 10
54.60174119407382
 20
80.52499901331802
 30
0.0
  0
LINE
  5
1AA
330
1F
100
AcDbEntity
  8
0
  6
Continuous
 62
     7
370
    25
100
AcDbLine
 10
53.8728456055
 20
85.4407558603
 30
0.0
 11
45.6798994972
 21
85.4407558603
 31
0.0
  0
LINE
  5
1AB
330
1F
100
AcDbEntity
  8
0
  6
Continuous
 62
     7
370
    25
100
AcDbLine
 10
53.8728456055
 20
68.4407558603
 30
0.0
 11
45.6798994972
 21
68.4407558603
 31
0.0
  0
LINE
  5
1AC
330
1F
100
AcDbEntity
  8
0
  6
Continuous
 62
     7
370
    25
100
AcDbLine
 10
62.7024631177
 20
73.4407558603
 30
0.0
 11
62.7024631177
 21
68.7433836905
 31
0.0
  0
LINE
  5
1AD
330
1F
100
AcDbEntity
  8
0
  6
Continuous
 62
     7
370
    25
100
AcDbLine
 10
62.7024631177
 20
85.1381280301
 30
0.0
 11
62.7024631177
 21
80.4407558603
 31
0.0
  0
LINE
  5
1AE
330
1F
100
AcDbEntity
  8
0
  6
Continuous
 62
     7
370
    25
100
AcDbLine
 10
54.7763725513
 20
80.4771701029
 30
0.0
 11
54.7763725513
 21
85.3858183603
 31
0.0
  0
LINE
  5
1AF
330
1F
100
AcDbEntity
  8
0
  6
Continuous
 62
     7
370
    25
100
AcDbLine
 10
54.7763725513
 20
68.4956933603
 30
0.0
 11
54.7763725513
 21
73.4043416177
 31
0.0
  0
LINE
  5
1B0
330
1F
100
AcDbEntity
  8
0
  6
Continuous
 62
     7
370
    25
100
AcDbLine
 10
64.7763725513
 20
83.9407558603
 30
0.0
 11
64.7763725513
 21
80.4407558603
 31
0.0
  0
LINE
  5
1B1
330
1F
100
AcDbEntity
  8
0
  6
Continuous
 62
     7
370
    25
100
AcDbLine
 10
64.7763725513
 20
73.4407558603
 30
0.0
 11
64.7763725513
 21
69.9407558603
 31
0.0
  0
LINE
  5
1B2
330
1F
100
AcDbEntity
  8
0
  6
Continuous
 62
     7
370
    25
100
AcDbLine
 10
25.2763725513
 20
86.9407558603
 30
0.0
 11
25.2763725513
 21
66.9407558603
 31
0.0
  0
LINE
  5
1B3
330
1F
100
AcDbEntity
  8
0
  6
Continuous
 62
     7
370
    25
100
AcDbLine
 10
24.7763725513
 20
67.4407558603
 30
0.0
 11
24.7763725513
 21
86.4407558603
 31
0.0
  0
LINE
  5
1B4
330
1F
100
AcDbEntity
  8
0
  6
Continuous
 62
     7
370
    25
100
AcDbLine
 10
44.7763725513
 20
86.6907558603
 30
0.0
 11
44.7763725513
 21
81.5912551792
 31
0.0
  0
LINE
  5
1B5
330
1F
100
AcDbEntity
  8
0
  6
Continuous
 62
     7
370
    25
100
AcDbLine
 10
44.7763725513
 20
72.2902565414
 30
0.0
 11
44.7763725513
 21
67.1907558603
 31
0.0
  0
LINE
  5
1B6
330
1F
100
AcDbEntity
  8
0
  6
Continuous
 62
     7
370
    25
100
AcDbLine
 10
44.5263725513
 20
66.9407558603
 30
0.0
 11
44.5263725513
 21
72.2420765269
 31
0.0
  0
LINE
  5
1B7
330
1F
100
AcDbEntity
  8
0
  6
Continuous
 62
     7
370
    25
100
AcDbLine
 10
44.5263725513
 20
81.6394351937
 30
0.0
 11
44.5263725513
 21
86.9407558603
 31
0.0
  0
LINE
  5
1B8
330
1F
100
AcDbEntity
  8
0
  6
Continuous
 62
     7
370
    25
100
AcDbLine
 10
26.8944065401
 20
86.9407558603
 30
0.0
 11
26.8944065401
 21
66.9407558603
 31
0.0
  0
LINE
  5
1B9
330
1F
100
AcDbEntity
  8
0
  6
Continuous
 62
     7
370
    25
100
AcDbLine
 10
27.2684189162
 20
85.8928683155
 30
0.0
 11
27.2736337976
 21
85.9242662688
 31
0.0
  0
SPLINE
  5
1BA
330
1F
100
AcDbEntity
  8
0
  6
Continuous
 62
     7
370
    25
100
AcDbSpline
210
0.0
220
0.0
230
1.0
 70
     8
 71
     3
 72
    14
 73
    10
 74
     0
 42
0.00000001
 43
0.00000001
 40
0.0
 40
0.0
 40
0.0
 40
0.0
 40
0.25
 40
0.25
 40
0.5
 40
0.5
 40
0.75
 40
0.75
 40
1.0
 40
1.0
 40
1.0
 40
1.0
 10
27.04728648424246
 20
85.70321704004792
 30
0.0
 10
27.01976549649737
 20
85.69151024450238
 30
0.0
 10
26.99984557466097
 20
85.6594682914208
 30
0.0
 10
26.98417853284291
 20
85.56014454075579
 30
0.0
 10
26.98867036465523
 20
85.49232109797504
 30
0.0
 10
27.0199267099388
 20
85.3298794805622
 30
0.0
 10
27.04629929332058
 20
85.23543408382648
 30
0.0
 10
27.10913584446488
 20
85.02720497622994
 30
0.0
 10
27.14517542332496
 20
84.9146065833468
 30
0.0
 10
27.17917142669057
 20
84.7948501897467
 30
0.0
  0
SPLINE
  5
1BB
330
1F
100
AcDbEntity
  8
0
  6
Continuous
 62
     7
370
    25
100
AcDbSpline
210
0.0
220
0.0
230
1.0
 70
     8
 71
     3
 72
     8
 73
     4
 74
     0
 42
0.00000001
 43
0.00000001
 40
0.0
 40
0.0
 40
0.0
 40
0.0
 40
1.0
 40
1.0
 40
1.0
 40
1.0
 10
27.27637255134449
 20
84.06465928468562
 30
0.0
 10
27.27637255134449
 20
84.31208874148064
 30
0.0
 10
27.24700784426664
 20
84.55588549038796
 30
0.0
 10
27.17917142669057
 20
84.7948501897467
 30
0.0
  0
LINE
  5
1BC
330
1F
100
AcDbEntity
  8
0
  6
Continuous
 62
     7
370
    25
100
AcDbLine
 10
27.2763725513
 20
84.0646592847
 30
0.0
 11
27.2763725513
 21
69.8168524359
 31
0.0
  0
SPLINE
  5
1BD
330
1F
100
AcDbEntity
  8
0
  6
Continuous
 62
     7
370
    25
100
AcDbSpline
210
0.0
220
0.0
230
1.0
 70
     8
 71
     3
 72
     8
 73
     4
 74
     0
 42
0.00000001
 43
0.00000001
 40
0.0
 40
0.0
 40
0.0
 40
0.0
 40
1.0
 40
1.0
 40
1.0
 40
1.0
 10
27.17917142669057
 20
69.08666153084954
 30
0.0
 10
27.24700784426664
 20
69.32562623020827
 30
0.0
 10
27.27637255134449
 20
69.5694229791156
 30
0.0
 10
27.27637255134449
 20
69.81685243591062
 30
0.0
  0
SPLINE
  5
1BE
330
1F
100
AcDbEntity
  8
0
  6
Continuous
 62
     7
370
    25
100
AcDbSpline
210
0.0
220
0.0
230
1.0
 70
     8
 71
     3
 72
    12
 73
     8
 74
     0
 42
0.00000001
 43
0.00000001
 40
0.0
 40
0.0
 40
0.0
 40
0.0
 40
0.4999999999999992
 40
0.4999999999999992
 40
0.7499999999999996
 40
0.7499999999999996
 40
1.0
 40
1.0
 40
1.0
 40
1.0
 10
27.17917142669057
 20
69.08666153084954
 30
0.0
 10
27.11130166668077
 20
68.84757937740143
 30
0.0
 10
27.03526711542703
 20
68.63180927022461
 30
0.0
 10
26.98862251705002
 20
68.38871467752071
 30
0.0
 10
26.98418352052738
 20
68.32104940204458
 30
0.0
 10
26.99991413432022
 20
68.22189628588796
 30
0.0
 10
27.01979456426259
 20
68.18998911133474
 30
0.0
 10
27.04728648424246
 20
68.1782946805483
 30
0.0
  0
LINE
  5
1BF
330
1F
100
AcDbEntity
  8
0
  6
Continuous
 62
     7
370
    25
100
AcDbLine
 10
27.273689559
 20
67.957138592
 30
0.0
 11
27.2685809464
 21
67.9883325051
 31
0.0
  0
LINE
  5
1C0
330
1F
100
AcDbEntity
  8
0
  6
Continuous
 62
     7
370
    25
100
AcDbLine
 10
42.6583385626
 20
66.9407558603
 30
0.0
 11
42.6583385626
 21
71.8497196671
 31
0.0
  0
LINE
  5
1C1
330
1F
100
AcDbEntity
  8
0
  6
Continuous
 62
     7
370
    25
100
AcDbLine
 10
42.6583385626
 20
82.0317920535
 30
0.0
 11
42.6583385626
 21
86.9407558603
 31
0.0
  0
LINE
  5
1C2
330
1F
100
AcDbEntity
  8
0
  6
Continuous
 62
     7
370
    25
100
AcDbLine
 10
42.2843261865
 20
67.9886434051
 30
0.0
 11
42.2791113051
 21
67.9572454518
 31
0.0
  0
SPLINE
  5
1C3
330
1F
100
AcDbEntity
  8
0
  6
Continuous
 62
     7
370
    25
100
AcDbSpline
210
0.0
220
0.0
230
1.0
 70
     8
 71
     3
 72
    14
 73
    10
 74
     0
 42
0.00000001
 43
0.00000001
 40
0.0
 40
0.0
 40
0.0
 40
0.0
 40
0.25
 40
0.25
 40
0.5
 40
0.5
 40
0.75
 40
0.75
 40
1.0
 40
1.0
 40
1.0
 40
1.0
 10
42.50545861844653
 20
68.1782946805483
 30
0.0
 10
42.5329796061916
 20
68.19000147609385
 30
0.0
 10
42.55289952802801
 20
68.22204342917543
 30
0.0
 10
42.56856656984607
 20
68.32136717984044
 30
0.0
 10
42.56407473803375
 20
68.3891906226212
 30
0.0
 10
42.53281839275018
 20
68.55163224003402
 30
0.0
 10
42.50644580936841
 20
68.64607763676976
 30
0.0
 10
42.44360925822411
 20
68.8543067443663
 30
0.0
 10
42.40756967936402
 20
68.96690513724944
 30
0.0
 10
42.37357367599841
 20
69.08666153084954
 30
0.0
  0
SPLINE
  5
1C4
330
1F
100
AcDbEntity
  8
0
  6
Continuous
 62
     7
370
    25
100
AcDbSpline
210
0.0
220
0.0
230
1.0
 70
     8
 71
     3
 72
     8
 73
     4
 74
     0
 42
0.00000001
 43
0.00000001
 40
0.0
 40
0.0
 40
0.0
 40
0.0
 40
1.0
 40
1.0
 40
1.0
 40
1.0
 10
42.27637255134449
 20
69.81685243591062
 30
0.0
 10
42.27637255134449
 20
69.5694229791156
 30
0.0
 10
42.30573725842235
 20
69.32562623020827
 30
0.0
 10
42.37357367599841
 20
69.08666153084954
 30
0.0
  0
LINE
  5
1C5
330
1F
100
AcDbEntity
  8
0
  6
Continuous
 62
     7
370
    25
100
AcDbLine
 10
42.2763725513
 20
69.8168524359
 30
0.0
 11
42.2763725513
 21
71.7624073937
 31
0.0
  0
LINE
  5
1C6
330
1F
100
AcDbEntity
  8
0
  6
Continuous
 62
     7
370
    25
100
AcDbLine
 10
42.2763725513
 20
82.1191043269
 30
0.0
 11
42.2763725513
 21
84.0646592847
 31
0.0
  0
SPLINE
  5
1C7
330
1F
100
AcDbEntity
  8
0
  6
Continuous
 62
     7
370
    25
100
AcDbSpline
210
0.0
220
0.0
230
1.0
 70
     8
 71
     3
 72
     8
 73
     4
 74
     0
 42
0.00000001
 43
0.00000001
 40
0.0
 40
0.0
 40
0.0
 40
0.0
 40
1.0
 40
1.0
 40
1.0
 40
1.0
 10
42.37357367599841
 20
84.7948501897467
 30
0.0
 10
42.30573725842235
 20
84.55588549038796
 30
0.0
 10
42.27637255134449
 20
84.31208874148064
 30
0.0
 10
42.27637255134449
 20
84.06465928468562
 30
0.0
  0
SPLINE
  5
1C8
330
1F
100
AcDbEntity
  8
0
  6
Continuous
 62
     7
370
    25
100
AcDbSpline
210
0.0
220
0.0
230
1.0
 70
     8
 71
     3
 72
    12
 73
     8
 74
     0
 42
0.00000001
 43
0.00000001
 40
0.0
 40
0.0
 40
0.0
 40
0.0
 40
0.4999999999999992
 40
0.4999999999999992
 40
0.7499999999999996
 40
0.7499999999999996
 40
1.0
 40
1.0
 40
1.0
 40
1.0
 10
42.37357367599841
 20
84.7948501897467
 30
0.0
 10
42.44144343600821
 20
85.03393234319478
 30
0.0
 10
42.51747798726195
 20
85.24970245037163
 30
0.0
 10
42.56412258563896
 20
85.49279704307553
 30
0.0
 10
42.56856158216159
 20
85.56046231855164
 30
0.0
 10
42.55283096836876
 20
85.65961543470826
 30
0.0
 10
42.53295053842638
 20
85.6915226092615
 30
0.0
 10
42.50545861844653
 20
85.70321704004792
 30
0.0
  0
LINE
  5
1C9
330
1F
100
AcDbEntity
  8
0
  6
Continuous
 62
     7
370
    25
100
AcDbLine
 10
42.2790555437
 20
85.9243731286
 30
0.0
 11
42.2841641563
 21
85.8931792155
 31
0.0
  0
ARC
  5
1CA
330
1F
100
AcDbEntity
  8
0
  6
Continuous
 62
     7
370
    25
100
AcDbCircle
 10
41.8230546501
 20
69.7578764976
 30
0.0
 40
0.4571381420089017
100
AcDbArc
 50
7.4124568466
 51
95.861155744
  0
ARC
  5
1CB
330
1F
100
AcDbEntity
  8
0
  6
Continuous
 62
     7
370
    25
100
AcDbCircle
 10
41.8230546501
 20
84.123635223
 30
0.0
 40
0.4571381420089228
100
AcDbArc
 50
264.138844256
 51
352.5875431534
  0
ARC
  5
1CC
330
1F
100
AcDbEntity
  8
0
  6
Continuous
 62
     7
370
    25
100
AcDbCircle
 10
27.7296904526
 20
69.7578764976
 30
0.0
 40
0.4571381420088928
100
AcDbArc
 50
84.138844256
 51
172.5875431534
  0
ARC
  5
1CD
330
1F
100
AcDbEntity
  8
0
  6
Continuous
 62
     7
370
    25
100
AcDbCircle
 10
27.7296904526
 20
84.123635223
 30
0.0
 40
0.4571381420089158
100
AcDbArc
 50
187.4124568466
 51
275.861155744
  0
LINE
  5
1CE
330
1F
100
AcDbEntity
  8
0
  6
Continuous
 62
     7
370
    25
100
AcDbLine
 10
16.850281985
 20
68.7433836905
 30
0.0
 11
16.850281985
 21
85.1381280301
 31
0.0
  0
LINE
  5
1CF
330
1F
100
AcDbEntity
  8
0
  6
Continuous
 62
     7
370
    25
100
AcDbLine
 10
14.7763725513
 20
69.9407558603
 30
0.0
 11
14.7763725513
 21
83.9407558603
 31
0.0
  0
SPLINE
  5
1D0
330
1F
100
AcDbEntity
  8
0
  6
Continuous
 62
     7
370
    25
100
AcDbSpline
210
0.0
220
0.0
230
1.0
 70
     8
 71
     3
 72
     8
 73
     4
 74
     0
 42
0.00000001
 43
0.00000001
 40
0.0
 40
0.0
 40
0.0
 40
0.0
 40
1.0
 40
1.0
 40
1.0
 40
1.0
 10
41.77637255134449
 20
84.06465928468562
 30
0.0
 10
41.77637255134449
 20
84.36308215278638
 30
0.0
 10
41.81696535549464
 20
84.65550010266831
 30
0.0
 10
41.90597405088305
 20
84.94075586029811
 30
0.0
  0
LINE
  5
1D1
330
1F
100
AcDbEntity
  8
0
  6
Continuous
 62
     7
370
    25
100
AcDbLine
 10
41.9059740509
 20
84.9407558603
 30
0.0
 11
42.373573676
 21
84.7948501897
 31
0.0
  0
LINE
  5
1D2
330
1F
100
AcDbEntity
  8
0
  6
Continuous
 62
     7
370
    25
100
AcDbLine
 10
42.2763725513
 20
84.0646592847
 30
0.0
 11
41.7763725513
 21
84.0646592847
 31
0.0
  0
LINE
  5
1D3
330
1F
100
AcDbEntity
  8
0
  6
Continuous
 62
     7
370
    25
100
AcDbLine
 10
27.1791714267
 20
84.7948501897
 30
0.0
 11
27.6467710518
 21
84.9407558603
 31
0.0
  0
SPLINE
  5
1D4
330
1F
100
AcDbEntity
  8
0
  6
Continuous
 62
     7
370
    25
100
AcDbSpline
210
0.0
220
0.0
230
1.0
 70
     8
 71
     3
 72
     8
 73
     4
 74
     0
 42
0.00000001
 43
0.00000001
 40
0.0
 40
0.0
 40
0.0
 40
0.0
 40
1.0
 40
1.0
 40
1.0
 40
1.0
 10
27.64677105180593
 20
84.94075586029811
 30
0.0
 10
27.73577974719434
 20
84.65550010266831
 30
0.0
 10
27.77637255134449
 20
84.36308215278638
 30
0.0
 10
27.77637255134449
 20
84.06465928468562
 30
0.0
  0
LINE
  5
1D5
330
1F
100
AcDbEntity
  8
0
  6
Continuous
 62
     7
370
    25
100
AcDbLine
 10
27.2763725513
 20
84.0646592847
 30
0.0
 11
27.7763725513
 21
84.0646592847
 31
0.0
  0
LINE
  5
1D6
330
1F
100
AcDbEntity
  8
0
  6
Continuous
 62
     7
370
    25
100
AcDbLine
 10
42.373573676
 20
69.0866615308
 30
0.0
 11
41.9059740509
 21
68.9407558603
 31
0.0
  0
SPLINE
  5
1D7
330
1F
100
AcDbEntity
  8
0
  6
Continuous
 62
     7
370
    25
100
AcDbSpline
210
0.0
220
0.0
230
1.0
 70
     8
 71
     3
 72
     8
 73
     4
 74
     0
 42
0.00000001
 43
0.00000001
 40
0.0
 40
0.0
 40
0.0
 40
0.0
 40
1.0
 40
1.0
 40
1.0
 40
1.0
 10
41.90597405088305
 20
68.94075586029811
 30
0.0
 10
41.81696535549464
 20
69.22601161792792
 30
0.0
 10
41.77637255134449
 20
69.51842956780986
 30
0.0
 10
41.77637255134449
 20
69.81685243591062
 30
0.0
  0
LINE
  5
1D8
330
1F
100
AcDbEntity
  8
0
  6
Continuous
 62
     7
370
    25
100
AcDbLine
 10
42.2763725513
 20
69.8168524359
 30
0.0
 11
41.7763725513
 21
69.8168524359
 31
0.0
  0
SPLINE
  5
1D9
330
1F
100
AcDbEntity
  8
0
  6
Continuous
 62
     7
370
    25
100
AcDbSpline
210
0.0
220
0.0
230
1.0
 70
     8
 71
     3
 72
     8
 73
     4
 74
     0
 42
0.00000001
 43
0.00000001
 40
0.0
 40
0.0
 40
0.0
 40
0.0
 40
1.0
 40
1.0
 40
1.0
 40
1.0
 10
27.77637255134449
 20
69.81685243591062
 30
0.0
 10
27.77637255134449
 20
69.51842956780986
 30
0.0
 10
27.73577974719434
 20
69.22601161792792
 30
0.0
 10
27.64677105180593
 20
68.94075586029811
 30
0.0
  0
LINE
  5
1DA
330
1F
100
AcDbEntity
  8
0
  6
Continuous
 62
     7
370
    25
100
AcDbLine
 10
27.6467710518
 20
68.9407558603
 30
0.0
 11
27.1791714267
 21
69.0866615308
 31
0.0
  0
LINE
  5
1DB
330
1F
100
AcDbEntity
  8
0
  6
Continuous
 62
     7
370
    25
100
AcDbLine
 10
27.7763725513
 20
69.8168524359
 30
0.0
 11
27.2763725513
 21
69.8168524359
 31
0.0
  0
LINE
  5
1DC
330
1F
100
AcDbEntity
  8
0
  6
Continuous
 62
     7
370
    25
100
AcDbLine
 10
41.7763725513
 20
84.0646592847
 30
0.0
 11
41.7763725513
 21
83.6688868722
 31
0.0
  0
LINE
  5
1DD
330
1F
100
AcDbEntity
  8
0
  6
Continuous
 62
     7
370
    25
100
AcDbLine
 10
27.7763725513
 20
84.0646592847
 30
0.0
 11
27.7763725513
 21
83.6688868722
 31
0.0
  0
LINE
  5
1DE
330
1F
100
AcDbEntity
  8
0
  6
Continuous
 62
     7
370
    25
100
AcDbLine
 10
41.7763725513
 20
70.2126248484
 30
0.0
 11
41.7763725513
 21
69.8168524359
 31
0.0
  0
LINE
  5
1DF
330
1F
100
AcDbEntity
  8
0
  6
Continuous
 62
     7
370
    25
100
AcDbLine
 10
27.7763725513
 20
70.2126248484
 30
0.0
 11
27.7763725513
 21
69.8168524359
 31
0.0
  0
ARC
  5
1E0
330
1F
100
AcDbEntity
  8
0
  6
Continuous
 62
     7
370
    25
100
AcDbCircle
 10
27.4747542749
 20
85.9200646778
 30
0.0
 40
0.479324117919556
100
AcDbArc
 50
206.8979585986
 51
269.5422002632
  0
SPLINE
  5
1E1
330
1F
100
AcDbEntity
  8
0
  6
Continuous
 62
     7
370
    25
100
AcDbSpline
210
0.0
220
0.0
230
1.0
 70
     8
 71
     3
 72
    14
 73
    10
 74
     0
 42
0.00000001
 43
0.00000001
 40
0.0
 40
0.0
 40
0.0
 40
0.0
 40
0.25
 40
0.25
 40
0.5
 40
0.5
 40
0.75
 40
0.75
 40
1.0
 40
1.0
 40
1.0
 40
1.0
 10
27.64677105180593
 20
84.94075586029811
 30
0.0
 10
27.60829556818434
 20
85.0024091245256
 30
0.0
 10
27.56720664671432
 20
85.0605930697985
 30
0.0
 10
27.48792379927375
 20
85.17425839126545
 30
0.0
 10
27.4506408981633
 20
85.2279349899652
 30
0.0
 10
27.39783513885152
 20
85.32792502241188
 30
0.0
 10
27.38586587875789
 20
85.37232952263481
 30
0.0
 10
27.40586766713005
 20
85.42838937812861
 30
0.0
 10
27.43532412268235
 20
85.44075586029811
 30
0.0
 10
27.47092446187511
 20
85.44075586029811
 30
0.0
  0
ARC
  5
1E2
330
1F
100
AcDbEntity
  8
0
  6
Continuous
 62
     7
370
    25
100
AcDbCircle
 10
42.0779908278
 20
67.9614470428
 30
0.0
 40
0.479324117919448
100
AcDbArc
 50
26.8979585986
 51
89.5422002632
  0
SPLINE
  5
1E3
330
1F
100
AcDbEntity
  8
0
  6
Continuous
 62
     7
370
    25
100
AcDbSpline
210
0.0
220
0.0
230
1.0
 70
     8
 71
     3
 72
    14
 73
    10
 74
     0
 42
0.00000001
 43
0.00000001
 40
0.0
 40
0.0
 40
0.0
 40
0.0
 40
0.25
 40
0.25
 40
0.5
 40
0.5
 40
0.75
 40
0.75
 40
1.0
 40
1.0
 40
1.0
 40
1.0
 10
41.90597405088305
 20
68.94075586029811
 30
0.0
 10
41.94444953450465
 20
68.87910259607064
 30
0.0
 10
41.98553845597466
 20
68.82091865079772
 30
0.0
 10
42.06482130341523
 20
68.70725332933077
 30
0.0
 10
42.10210420452569
 20
68.653576730631
 30
0.0
 10
42.15490996383747
 20
68.55358669818435
 30
0.0
 10
42.16687922393109
 20
68.50918219796141
 30
0.0
 10
42.14687743555893
 20
68.45312234246761
 30
0.0
 10
42.11742098000664
 20
68.44075586029811
 30
0.0
 10
42.08182064081387
 20
68.44075586029811
 30
0.0
  0
SPLINE
  5
1E4
330
1F
100
AcDbEntity
  8
0
  6
Continuous
 62
     7
370
    25
100
AcDbSpline
210
0.0
220
0.0
230
1.0
 70
     8
 71
     3
 72
    16
 73
    12
 74
     0
 42
0.00000001
 43
0.00000001
 40
0.0
 40
0.0
 40
0.0
 40
0.0
 40
0.2500000000000049
 40
0.2500000000000049
 40
0.3750000000000051
 40
0.3750000000000051
 40
0.5000000000000052
 40
0.5000000000000052
 40
0.7500000000000026
 40
0.7500000000000026
 40
1.0
 40
1.0
 40
1.0
 40
1.0
 10
42.08182064081387
 20
85.44075586029811
 30
0.0
 10
42.11737457026253
 20
85.44075586029811
 30
0.0
 10
42.14664671149122
 20
85.4286241098823
 30
0.0
 10
42.1618592617121
 20
85.38660240360288
 30
0.0
 10
42.16191992988563
 20
85.36838803409634
 30
0.0
 10
42.15170934540831
 20
85.32645102156978
 30
0.0
 10
42.14192601588308
 20
85.3034234580755
 30
0.0
 10
42.10276146735114
 20
85.22901477930348
 30
0.0
 10
42.06488839407788
 20
85.174356903121
 30
0.0
 10
41.98581542108629
 20
85.06098782994226
 30
0.0
 10
41.94442828849547
 20
85.00237507983806
 30
0.0
 10
41.90597405088305
 20
84.94075586029811
 30
0.0
  0
ARC
  5
1E5
330
1F
100
AcDbEntity
  8
0
  6
Continuous
 62
     7
370
    25
100
AcDbCircle
 10
42.0779908278
 20
85.9200646778
 30
0.0
 40
0.479324117919556
100
AcDbArc
 50
270.4577997368
 51
333.1020414014
  0
SPLINE
  5
1E6
330
1F
100
AcDbEntity
  8
0
  6
Continuous
 62
     7
370
    25
100
AcDbSpline
210
0.0
220
0.0
230
1.0
 70
     8
 71
     3
 72
    16
 73
    12
 74
     0
 42
0.00000001
 43
0.00000001
 40
0.0
 40
0.0
 40
0.0
 40
0.0
 40
0.2500000000000011
 40
0.2500000000000011
 40
0.3749999999999992
 40
0.3749999999999992
 40
0.4999999999999974
 40
0.4999999999999974
 40
0.7499999999999987
 40
0.7499999999999987
 40
1.0
 40
1.0
 40
1.0
 40
1.0
 10
27.47092446187511
 20
68.44075586029811
 30
0.0
 10
27.43537053242645
 20
68.44075586029811
 30
0.0
 10
27.40609839119776
 20
68.45288761071392
 30
0.0
 10
27.39088584097687
 20
68.49490931699334
 30
0.0
 10
27.39082517280334
 20
68.51312368649988
 30
0.0
 10
27.40103575728066
 20
68.55506069902646
 30
0.0
 10
27.4108190868059
 20
68.57808826252072
 30
0.0
 10
27.44998363533784
 20
68.65249694129274
 30
0.0
 10
27.4878567086111
 20
68.70715481747524
 30
0.0
 10
27.56692968160269
 20
68.82052389065397
 30
0.0
 10
27.60831681419351
 20
68.87913664075818
 30
0.0
 10
27.64677105180592
 20
68.94075586029811
 30
0.0
  0
ARC
  5
1E7
330
1F
100
AcDbEntity
  8
0
  6
Continuous
 62
     7
370
    25
100
AcDbCircle
 10
27.4747542749
 20
67.9614470428
 30
0.0
 40
0.4793241179194608
100
AcDbArc
 50
90.4577997368
 51
153.1020414014
  0
LINE
  5
1E8
330
1F
100
AcDbEntity
  8
0
  6
Continuous
 62
     7
370
    25
100
AcDbLine
 10
27.4709244619
 20
85.4407558603
 30
0.0
 11
42.0818206408
 21
85.4407558603
 31
0.0
  0
LINE
  5
1E9
330
1F
100
AcDbEntity
  8
0
  6
Continuous
 62
     7
370
    25
100
AcDbLine
 10
41.9059740509
 20
84.9407558603
 30
0.0
 11
27.6467710518
 21
84.9407558603
 31
0.0
  0
LINE
  5
1EA
330
1F
100
AcDbEntity
  8
0
  6
Continuous
 62
     7
370
    25
100
AcDbLine
 10
27.6467710518
 20
68.9407558603
 30
0.0
 11
41.9059740509
 21
68.9407558603
 31
0.0
  0
LINE
  5
1EB
330
1F
100
AcDbEntity
  8
0
  6
Continuous
 62
     7
370
    25
100
AcDbLine
 10
42.0818206408
 20
68.4407558603
 30
0.0
 11
27.4709244619
 21
68.4407558603
 31
0.0
  0
SPLINE
  5
1EC
330
1F
100
AcDbEntity
  8
0
  6
Continuous
 62
     7
370
    25
100
AcDbSpline
210
0.0
220
0.0
230
1.0
 70
     8
 71
     3
 72
    15
 73
    11
 74
     0
 42
0.00000001
 43
0.00000001
 40
0.0
 40
0.0
 40
0.0
 40
0.0
 40
0.0090459071881971
 40
0.1032433785236876
 40
0.1542564497735193
 40
0.3133169026715103
 40
0.524372039941443
 40
0.6678060008509185
 40
0.9918332554187027
 40
0.9999999999999999
 40
0.9999999999999999
 40
0.9999999999999999
 40
0.9999999999999999
 10
29.53728721868638
 20
78.61466890377638
 30
0.0
 10
29.53729291065305
 20
78.61465125805191
 30
0.0
 10
29.53735787460383
 20
78.61444986263936
 30
0.0
 10
29.53935356103973
 20
78.60826024197317
 30
0.0
 10
29.54717055725618
 20
78.58405831012904
 30
0.0
 10
29.56434038101115
 20
78.53103931812736
 30
0.0
 10
29.59092427757869
 20
78.44966843093079
 30
0.0
 10
29.62875357606731
 20
78.33508935890829
 30
0.0
 10
29.65703435607758
 20
78.25066418118915
 30
0.0
 10
29.67686550360883
 20
78.19219332323713
 30
0.0
 10
29.67735303775171
 20
78.19075586029811
 30
0.0
  0
ARC
  5
1ED
330
1F
100
AcDbEntity
  8
0
  6
Continuous
 62
     7
370
    25
100
AcDbCircle
 10
34.7763725513
 20
76.9407558603
 30
0.0
 40
5.500000000000004
100
AcDbArc
 50
17.7189318734
 51
162.2810681266
  0
SPLINE
  5
1EE
330
1F
100
AcDbEntity
  8
0
  6
Continuous
 62
     7
370
    25
100
AcDbSpline
210
0.0
220
0.0
230
1.0
 70
     8
 71
     3
 72
    15
 73
    11
 74
     0
 42
0.00000001
 43
0.00000001
 40
0.0
 40
0.0
 40
0.0
 40
0.0
 40
0.0081667445812973
 40
0.3321939991490807
 40
0.4756279600585565
 40
0.6866830973284899
 40
0.8457435502264806
 40
0.8967566214763123
 40
0.9909540928118028
 40
0.9999999999999999
 40
0.9999999999999999
 40
0.9999999999999999
 40
0.9999999999999999
 10
39.87539206493727
 20
78.19075586029811
 30
0.0
 10
39.87587959908015
 20
78.19219332323713
 30
0.0
 10
39.89571074661142
 20
78.25066418118915
 30
0.0
 10
39.92399152662166
 20
78.33508935890829
 30
0.0
 10
39.96182082511029
 20
78.44966843093079
 30
0.0
 10
39.98840472167783
 20
78.53103931812736
 30
0.0
 10
40.00557454543279
 20
78.58405831012902
 30
0.0
 10
40.01339154164926
 20
78.60826024197317
 30
0.0
 10
40.01538722808514
 20
78.61444986263936
 30
0.0
 10
40.01545219203594
 20
78.61465125805191
 30
0.0
 10
40.0154578840026
 20
78.61466890377638
 30
0.0
  0
ARC
  5
1EF
330
1F
100
AcDbEntity
  8
0
  6
Continuous
 62
     7
370
    25
100
AcDbCircle
 10
34.7763725513
 20
76.9407558603
 30
0.0
 40
5.250000000000002
100
AcDbArc
 50
13.774146998
 51
166.225853002
  0
SPLINE
  5
1F0
330
1F
100
AcDbEntity
  8
0
  6
Continuous
 62
     7
370
    25
100
AcDbSpline
210
0.0
220
0.0
230
1.0
 70
     8
 71
     3
 72
    15
 73
    11
 74
     0
 42
0.00000001
 43
0.00000001
 40
0.0
 40
0.0
 40
0.0
 40
0.0
 40
0.0089557228015919
 40
0.099900335960821
 40
0.1531632460581753
 40
0.3125636920784863
 40
0.5249666935695054
 40
0.6689893599351772
 40
0.991915253381045
 40
1.0
 40
1.0
 40
1.0
 40
1.0
 10
40.25359812639615
 20
78.44075586029811
 30
0.0
 10
40.25358237081755
 20
78.44074507593496
 30
0.0
 10
40.25340661866098
 20
78.44062477726946
 30
0.0
 10
40.24797760264146
 20
78.43690632635133
 30
0.0
 10
40.22644211893415
 20
78.42219528528506
 30
0.0
 10
40.17873669066933
 20
78.38974642382651
 30
0.0
 10
40.1063457456774
 20
78.34116238348308
 30
0.0
 10
40.00442663365973
 20
78.27379191121476
 30
0.0
 10
39.92907154220471
 20
78.22497834648084
 30
0.0
 10
39.8766718964814
 20
78.1915717962864
 30
0.0
 10
39.87539206493727
 20
78.19075586029811
 30
0.0
  0
ARC
  5
1F1
330
1F
100
AcDbEntity
  8
0
  6
Continuous
 62
     7
370
    25
100
AcDbCircle
 10
40.2535981264
 20
78.6907558603
 30
0.0
 40
0.25
100
AcDbArc
 50
197.7189318734
 51
270.0
  0
SPLINE
  5
1F2
330
1F
100
AcDbEntity
  8
0
  6
Continuous
 62
     7
370
    25
100
AcDbSpline
210
0.0
220
0.0
230
1.0
 70
     8
 71
     3
 72
    15
 73
    11
 74
     0
 42
0.00000001
 43
0.00000001
 40
0.0
 40
0.0
 40
0.0
 40
0.0
 40
0.0080847466189581
 40
0.3310106400648243
 40
0.4750333064304945
 40
0.6874363079215134
 40
0.8468367539418247
 40
0.9000996640391788
 40
0.991044277198408
 40
1.0
 40
1.0
 40
1.0
 40
1.0
 10
29.67735303775171
 20
78.19075586029811
 30
0.0
 10
29.67607320620758
 20
78.19157179628641
 30
0.0
 10
29.62367356048437
 20
78.22497834648092
 30
0.0
 10
29.54831846902923
 20
78.27379191121474
 30
0.0
 10
29.44639935701159
 20
78.3411623834831
 30
0.0
 10
29.37400841201966
 20
78.38974642382651
 30
0.0
 10
29.32630298375483
 20
78.42219528528506
 30
0.0
 10
29.30476750004751
 20
78.43690632635133
 30
0.0
 10
29.299338484028
 20
78.44062477726946
 30
0.0
 10
29.29916273187143
 20
78.44074507593496
 30
0.0
 10
29.29914697629283
 20
78.44075586029811
 30
0.0
  0
ARC
  5
1F3
330
1F
100
AcDbEntity
  8
0
  6
Continuous
 62
     7
370
    25
100
AcDbCircle
 10
29.2991469763
 20
78.6907558603
 30
0.0
 40
0.2500000000000001
100
AcDbArc
 50
270.0
 51
342.2810681266
  0
SPLINE
  5
1F4
330
1F
100
AcDbEntity
  8
0
  6
Continuous
 62
     7
370
    25
100
AcDbSpline
210
0.0
220
0.0
230
1.0
 70
     8
 71
     3
 72
    15
 73
    11
 74
     0
 42
0.00000001
 43
0.00000001
 40
0.0
 40
0.0
 40
0.0
 40
0.0
 40
0.0081667445812695
 40
0.3321939991490083
 40
0.4756279600585602
 40
0.6866830973284899
 40
0.8457435502264811
 40
0.8967566214763185
 40
0.9909540928118029
 40
1.0
 40
1.0
 40
1.0
 40
1.0
 10
29.67735303775171
 20
75.69075586029811
 30
0.0
 10
29.67686550360882
 20
75.6893183973591
 30
0.0
 10
29.65703435607674
 20
75.6308475394074
 30
0.0
 10
29.62875357606748
 20
75.5464223616879
 30
0.0
 10
29.59092427757865
 20
75.43184328966545
 30
0.0
 10
29.56434038101116
 20
75.35047240246887
 30
0.0
 10
29.54717055725618
 20
75.2974534104672
 30
0.0
 10
29.53935356103973
 20
75.27325147862305
 30
0.0
 10
29.53735787460385
 20
75.26706185795688
 30
0.0
 10
29.53729291065305
 20
75.26686046254432
 30
0.0
 10
29.53728721868638
 20
75.26684281681985
 30
0.0
  0
ARC
  5
1F5
330
1F
100
AcDbEntity
  8
0
  6
Continuous
 62
     7
370
    25
100
AcDbCircle
 10
34.7763725513
 20
76.9407558603
 30
0.0
 40
5.250000000000002
100
AcDbArc
 50
193.774146998
 51
346.225853002
  0
SPLINE
  5
1F6
330
1F
100
AcDbEntity
  8
0
  6
Continuous
 62
     7
370
    25
100
AcDbSpline
210
0.0
220
0.0
230
1.0
 70
     8
 71
     3
 72
    15
 73
    11
 74
     0
 42
0.00000001
 43
0.00000001
 40
0.0
 40
0.0
 40
0.0
 40
0.0
 40
0.0090459071881971
 40
0.1032433785236875
 40
0.1542564497735192
 40
0.3133169026715104
 40
0.5243720399414423
 40
0.6678060008509901
 40
0.9918332554187292
 40
1.0
 40
1.0
 40
1.0
 40
1.0
 10
40.0154578840026
 20
75.26684281681985
 30
0.0
 10
40.01545219203594
 20
75.26686046254432
 30
0.0
 10
40.01538722808515
 20
75.26706185795688
 30
0.0
 10
40.01339154164926
 20
75.27325147862305
 30
0.0
 10
40.0055745454328
 20
75.2974534104672
 30
0.0
 10
39.98840472167782
 20
75.35047240246887
 30
0.0
 10
39.96182082511034
 20
75.43184328966545
 30
0.0
 10
39.9239915266215
 20
75.5464223616879
 30
0.0
 10
39.89571074661227
 20
75.63084753940738
 30
0.0
 10
39.87587959908016
 20
75.6893183973591
 30
0.0
 10
39.87539206493727
 20
75.69075586029811
 30
0.0
  0
ARC
  5
1F7
330
1F
100
AcDbEntity
  8
0
  6
Continuous
 62
     7
370
    25
100
AcDbCircle
 10
34.7763725513
 20
76.9407558603
 30
0.0
 40
5.500000000000004
100
AcDbArc
 50
197.7189318734
 51
342.2810681266
  0
ARC
  5
1F8
330
1F
100
AcDbEntity
  8
0
  6
Continuous
 62
     7
370
    25
100
AcDbCircle
 10
29.2991469763
 20
75.1907558603
 30
0.0
 40
0.2500000000000001
100
AcDbArc
 50
17.7189318734
 51
90.0
  0
SPLINE
  5
1F9
330
1F
100
AcDbEntity
  8
0
  6
Continuous
 62
     7
370
    25
100
AcDbSpline
210
0.0
220
0.0
230
1.0
 70
     8
 71
     3
 72
    15
 73
    11
 74
     0
 42
0.00000001
 43
0.00000001
 40
0.0
 40
0.0
 40
0.0
 40
0.0
 40
0.0089557228015919
 40
0.0999003359608148
 40
0.153163246058169
 40
0.3125636920784848
 40
0.5249666935694999
 40
0.6689893599352451
 40
0.9919152533810159
 40
1.0
 40
1.0
 40
1.0
 40
1.0
 10
29.29914697629283
 20
75.44075586029811
 30
0.0
 10
29.29916273187143
 20
75.44076664466127
 30
0.0
 10
29.299338484028
 20
75.44088694332677
 30
0.0
 10
29.30476750004752
 20
75.4446053942449
 30
0.0
 10
29.32630298375483
 20
75.45931643531117
 30
0.0
 10
29.37400841201966
 20
75.49176529676971
 30
0.0
 10
29.44639935701156
 20
75.54034933711318
 30
0.0
 10
29.54831846902934
 20
75.60771980938134
 30
0.0
 10
29.62367356048382
 20
75.65653337411612
 30
0.0
 10
29.67607320620757
 20
75.68993992430984
 30
0.0
 10
29.67735303775171
 20
75.69075586029811
 30
0.0
  0
ARC
  5
1FA
330
1F
100
AcDbEntity
  8
0
  6
Continuous
 62
     7
370
    25
100
AcDbCircle
 10
40.2535981264
 20
75.1907558603
 30
0.0
 40
0.25
100
AcDbArc
 50
90.0
 51
162.2810681266
  0
SPLINE
  5
1FB
330
1F
100
AcDbEntity
  8
0
  6
Continuous
 62
     7
370
    25
100
AcDbSpline
210
0.0
220
0.0
230
1.0
 70
     8
 71
     3
 72
    15
 73
    11
 74
     0
 42
0.00000001
 43
0.00000001
 40
0.0
 40
0.0
 40
0.0
 40
0.0
 40
0.0080847466189818
 40
0.3310106400647571
 40
0.4750333064305
 40
0.6874363079215142
 40
0.846836753941831
 40
0.9000996640391852
 40
0.9910442771984082
 40
1.0
 40
1.0
 40
1.0
 40
1.0
 10
39.87539206493727
 20
75.69075586029811
 30
0.0
 10
39.87667189648142
 20
75.68993992430985
 30
0.0
 10
39.9290715422052
 20
75.65653337411621
 30
0.0
 10
40.00442663365963
 20
75.60771980938134
 30
0.0
 10
40.10634574567742
 20
75.54034933711318
 30
0.0
 10
40.17873669066932
 20
75.49176529676971
 30
0.0
 10
40.22644211893415
 20
75.45931643531117
 30
0.0
 10
40.24797760264146
 20
75.4446053942449
 30
0.0
 10
40.25340661866099
 20
75.44088694332677
 30
0.0
 10
40.25358237081755
 20
75.44076664466127
 30
0.0
 10
40.25359812639615
 20
75.44075586029811
 30
0.0
  0
LINE
  5
1FC
330
1F
100
AcDbEntity
  8
0
  6
Continuous
 62
     7
370
    25
100
AcDbLine
 10
29.7763725513
 20
76.3407558603
 30
0.0
 11
39.7763725513
 21
76.3407558603
 31
0.0
  0
LINE
  5
1FD
330
1F
100
AcDbEntity
  8
0
  6
Continuous
 62
     7
370
    25
100
AcDbLine
 10
29.7763725513
 20
77.5407558603
 30
0.0
 11
29.7763725513
 21
76.3407558603
 31
0.0
  0
LINE
  5
1FE
330
1F
100
AcDbEntity
  8
0
  6
Continuous
 62
     7
370
    25
100
AcDbLine
 10
39.7763725513
 20
77.5407558603
 30
0.0
 11
29.7763725513
 21
77.5407558603
 31
0.0
  0
LINE
  5
1FF
330
1F
100
AcDbEntity
  8
0
  6
Continuous
 62
     7
370
    25
100
AcDbLine
 10
39.7763725513
 20
76.3407558603
 30
0.0
 11
39.7763725513
 21
77.5407558603
 31
0.0
  0
LINE
  5
200
330
1F
100
AcDbEntity
  8
0
  6
Continuous
 62
     7
370
    25
100
AcDbLine
 10
29.0263725513
 20
75.6907558603
 30
0.0
 11
29.6773530378
 21
75.6907558603
 31
0.0
  0
LINE
  5
201
330
1F
100
AcDbEntity
  8
0
  6
Continuous
 62
     7
370
    25
100
AcDbLine
 10
29.0263725513
 20
78.1907558603
 30
0.0
 11
29.0263725513
 21
75.6907558603
 31
0.0
  0
LINE
  5
202
330
1F
100
AcDbEntity
  8
0
  6
Continuous
 62
     7
370
    25
100
AcDbLine
 10
29.6773530378
 20
78.1907558603
 30
0.0
 11
29.0263725513
 21
78.1907558603
 31
0.0
  0
LINE
  5
203
330
1F
100
AcDbEntity
  8
0
  6
Continuous
 62
     7
370
    25
100
AcDbLine
 10
40.5263725513
 20
78.1907558603
 30
0.0
 11
39.8753920649
 21
78.1907558603
 31
0.0
  0
LINE
  5
204
330
1F
100
AcDbEntity
  8
0
  6
Continuous
 62
     7
370
    25
100
AcDbLine
 10
40.5263725513
 20
75.6907558603
 30
0.0
 11
40.5263725513
 21
78.1907558603
 31
0.0
  0
LINE
  5
205
330
1F
100
AcDbEntity
  8
0
  6
Continuous
 62
     7
370
    25
100
AcDbLine
 10
39.8753920649
 20
75.6907558603
 30
0.0
 11
40.5263725513
 21
75.6907558603
 31
0.0
  0
ARC
  5
206
330
1F
100
AcDbEntity
  8
0
  6
Continuous
 62
     7
370
    25
100
AcDbCircle
 10
29.0263725513
 20
78.1907558603
 30
0.0
 40
0.25
100
AcDbArc
 50
90.0
 51
180.0
  0
LINE
  5
207
330
1F
100
AcDbEntity
  8
0
  6
Continuous
 62
     7
370
    25
100
AcDbLine
 10
29.0263725513
 20
78.4407558603
 30
0.0
 11
29.0263725513
 21
78.1907558603
 31
0.0
  0
LINE
  5
208
330
1F
100
AcDbEntity
  8
0
  6
Continuous
 62
     7
370
    25
100
AcDbLine
 10
29.0263725513
 20
78.1907558603
 30
0.0
 11
28.7763725513
 21
78.1907558603
 31
0.0
  0
LINE
  5
209
330
1F
100
AcDbEntity
  8
0
  6
Continuous
 62
     7
370
    25
100
AcDbLine
 10
29.0263725513
 20
78.4407558603
 30
0.0
 11
29.2991469763
 21
78.4407558603
 31
0.0
  0
LINE
  5
20A
330
1F
100
AcDbEntity
  8
0
  6
Continuous
 62
     7
370
    25
100
AcDbLine
 10
40.2535981264
 20
78.4407558603
 30
0.0
 11
40.5263725513
 21
78.4407558603
 31
0.0
  0
LINE
  5
20B
330
1F
100
AcDbEntity
  8
0
  6
Continuous
 62
     7
370
    25
100
AcDbLine
 10
40.5263725513
 20
78.1907558603
 30
0.0
 11
40.5263725513
 21
78.4407558603
 31
0.0
  0
LINE
  5
20C
330
1F
100
AcDbEntity
  8
0
  6
Continuous
 62
     7
370
    25
100
AcDbLine
 10
40.7763725513
 20
78.1907558603
 30
0.0
 11
40.5263725513
 21
78.1907558603
 31
0.0
  0
ARC
  5
20D
330
1F
100
AcDbEntity
  8
0
  6
Continuous
 62
     7
370
    25
100
AcDbCircle
 10
40.5263725513
 20
78.1907558603
 30
0.0
 40
0.25
100
AcDbArc
 50
0.0
 51
90.0
  0
LINE
  5
20E
330
1F
100
AcDbEntity
  8
0
  6
Continuous
 62
     7
370
    25
100
AcDbLine
 10
28.7763725513
 20
75.6907558603
 30
0.0
 11
29.0263725513
 21
75.6907558603
 31
0.0
  0
LINE
  5
20F
330
1F
100
AcDbEntity
  8
0
  6
Continuous
 62
     7
370
    25
100
AcDbLine
 10
28.7763725513
 20
75.6907558603
 30
0.0
 11
28.7763725513
 21
78.1907558603
 31
0.0
  0
LINE
  5
210
330
1F
100
AcDbEntity
  8
0
  6
Continuous
 62
     7
370
    25
100
AcDbLine
 10
40.7763725513
 20
78.1907558603
 30
0.0
 11
40.7763725513
 21
75.6907558603
 31
0.0
  0
LINE
  5
211
330
1F
100
AcDbEntity
  8
0
  6
Continuous
 62
     7
370
    25
100
AcDbLine
 10
40.5263725513
 20
75.6907558603
 30
0.0
 11
40.7763725513
 21
75.6907558603
 31
0.0
  0
LINE
  5
212
330
1F
100
AcDbEntity
  8
0
  6
Continuous
 62
     7
370
    25
100
AcDbLine
 10
29.0263725513
 20
75.6907558603
 30
0.0
 11
29.0263725513
 21
75.4407558603
 31
0.0
  0
LINE
  5
213
330
1F
100
AcDbEntity
  8
0
  6
Continuous
 62
     7
370
    25
100
AcDbLine
 10
29.2991469763
 20
75.4407558603
 30
0.0
 11
29.0263725513
 21
75.4407558603
 31
0.0
  0
LINE
  5
214
330
1F
100
AcDbEntity
  8
0
  6
Continuous
 62
     7
370
    25
100
AcDbLine
 10
40.5263725513
 20
75.4407558603
 30
0.0
 11
40.5263725513
 21
75.6907558603
 31
0.0
  0
LINE
  5
215
330
1F
100
AcDbEntity
  8
0
  6
Continuous
 62
     7
370
    25
100
AcDbLine
 10
40.5263725513
 20
75.4407558603
 30
0.0
 11
40.2535981264
 21
75.4407558603
 31
0.0
  0
ARC
  5
216
330
1F
100
AcDbEntity
  8
0
  6
Continuous
 62
     7
370
    25
100
AcDbCircle
 10
40.5263725513
 20
75.6907558603
 30
0.0
 40
0.25
100
AcDbArc
 50
270.0
 51
0.0
  0
ARC
  5
217
330
1F
100
AcDbEntity
  8
0
  6
Continuous
 62
     7
370
    25
100
AcDbCircle
 10
29.0263725513
 20
75.6907558603
 30
0.0
 40
0.25
100
AcDbArc
 50
180.0
 51
270.0
  0
LINE
  5
218
330
1F
100
AcDbEntity
  8
0
  6
Continuous
 62
     7
370
    25
100
AcDbLine
 10
54.7763725513
 20
73.6690565962
 30
0.0
 11
56.9518094129
 21
73.4407558603
 31
0.0
  0
LINE
  5
219
330
1F
100
AcDbEntity
  8
0
  6
Continuous
 62
     7
370
    25
100
AcDbLine
 10
54.7763725513
 20
80.2124551244
 30
0.0
 11
54.7763725513
 21
73.6690565962
 31
0.0
  0
LINE
  5
21A
330
1F
100
AcDbEntity
  8
0
  6
Continuous
 62
     7
370
    25
100
AcDbLine
 10
56.9518094129
 20
80.4407558603
 30
0.0
 11
54.7763725513
 21
80.2124551244
 31
0.0
  0
LINE
  5
21B
330
1F
100
AcDbEntity
  8
0
  6
Continuous
 62
     7
370
    25
100
AcDbLine
 10
74.7763725513
 20
73.4407558603
 30
0.0
 11
74.7763725513
 21
80.4407558603
 31
0.0
  0
LINE
  5
21C
330
1F
100
AcDbEntity
  8
0
  6
Continuous
 62
     7
370
    25
100
AcDbLine
 10
56.9518094129
 20
73.4407558603
 30
0.0
 11
74.7763725513
 21
73.4407558603
 31
0.0
  0
LINE
  5
21D
330
1F
100
AcDbEntity
  8
0
  6
Continuous
 62
     7
370
    25
100
AcDbLine
 10
74.7763725513
 20
80.4407558603
 30
0.0
 11
56.9518094129
 21
80.4407558603
 31
0.0
  0
LINE
  5
21E
330
1F
100
AcDbEntity
  8
0
  6
Continuous
 62
     7
370
    25
100
AcDbLine
 10
40.0001747257
 20
75.2197413795
 30
0.0
 11
40.096739043
 21
75.3791406997
 31
0.0
  0
LINE
  5
21F
330
1F
100
AcDbEntity
  8
0
  6
Continuous
 62
     7
370
    25
100
AcDbLine
 10
40.1190164236
 20
78.4859735277
 30
0.0
 11
40.0001747257
 21
78.6617703411
 31
0.0
  0
LINE
  5
220
330
1F
100
AcDbEntity
  8
0
  6
Continuous
 62
     7
370
    25
100
AcDbLine
 10
48.1929422049
 20
74.3599532247
 30
0.0
 11
48.1929422049
 21
79.5215584959
 31
0.0
  0
LINE
  5
221
330
1F
100
AcDbEntity
  8
0
  6
Continuous
 62
     7
370
    25
100
AcDbLine
 10
48.1929422049
 20
74.3599532247
 30
0.0
 11
40.0001747257
 21
75.2197413795
 31
0.0
  0
LINE
  5
222
330
1F
100
AcDbEntity
  8
0
  6
Continuous
 62
     7
370
    25
100
AcDbLine
 10
40.0001747257
 20
78.6617703411
 30
0.0
 11
48.1929422049
 21
79.5215584959
 31
0.0
  0
LINE
  5
223
330
1F
100
AcDbEntity
  8
0
  6
Continuous
 62
     7
370
    25
100
AcDbLine
 10
54.7763725513
 20
73.6690565962
 30
0.0
 11
48.1929422049
 21
74.3599532247
 31
0.0
  0
LINE
  5
224
330
1F
100
AcDbEntity
  8
0
  6
Continuous
 62
     7
370
    25
100
AcDbLine
 10
48.1929422049
 20
79.5215584959
 30
0.0
 11
54.7763725513
 21
80.2124551244
 31
0.0
  0
ARC
  5
225
330
1F
100
AcDbEntity
  8
0
  6
Continuous
 62
     7
370
    25
100
AcDbCircle
 10
34.7763725513
 20
76.9407558603
 30
0.0
 40
7.450000000000649
100
AcDbArc
 50
53.0863788866
 51
306.9136211134
  0
ARC
  5
226
330
1F
100
AcDbEntity
  8
0
  6
Continuous
 62
     7
370
    25
100
AcDbCircle
 10
34.7763725513
 20
76.9407558603
 30
0.0
 40
7.207531252870788
100
AcDbArc
 50
15.3041237151
 51
58.9797515565
  0
ARC
  5
227
330
1F
100
AcDbEntity
  8
0
  6
Continuous
 62
     7
370
    25
100
AcDbCircle
 10
34.7763725513
 20
76.9407558603
 30
0.0
 40
7.20753125287243
100
AcDbArc
 50
301.0202484435
 51
344.6958762849
  0
ARC
  5
228
330
1F
100
AcDbEntity
  8
0
  6
Continuous
 62
     7
370
    25
100
AcDbCircle
 10
56.9518094129
 20
145.4407558603
 30
0.0
 40
65.00000000000001
100
AcDbArc
 50
253.4999050078
 51
270.0
  0
ARC
  5
229
330
1F
100
AcDbEntity
  8
0
  6
Continuous
 62
     7
370
    25
100
AcDbCircle
 10
56.9518094129
 20
8.4407558603
 30
0.0
 40
65.0
100
AcDbArc
 50
90.0
 51
106.5000949923
  0
SPLINE
  5
22A
330
1F
100
AcDbEntity
  8
0
  6
Continuous
 62
     7
370
    25
100
AcDbSpline
210
0.0
220
0.0
230
1.0
 70
     8
 71
     3
 72
    11
 73
     7
 74
     0
 42
0.00000001
 43
0.00000001
 40
0.0
 40
0.0
 40
0.0
 40
0.0
 40
0.182945098365438
 40
0.5571371855744949
 40
0.9317062879569865
 40
1.0
 40
1.0
 40
1.0
 40
1.0
 10
27.04728648424245
 20
85.70321704004793
 30
0.0
 10
27.07831032833956
 20
85.7180151966811
 30
0.0
 10
27.17278969586784
 20
85.76308119414131
 30
0.0
 10
27.24093287937374
 20
85.82635325971238
 30
0.0
 10
27.26723059188071
 20
85.88224056392923
 30
0.0
 10
27.2682601486121
 20
85.89144838136416
 30
0.0
 10
27.26841891617771
 20
85.89286831551071
 30
0.0
  0
SPLINE
  5
22B
330
1F
100
AcDbEntity
  8
0
  6
Continuous
 62
     7
370
    25
100
AcDbSpline
210
0.0
220
0.0
230
1.0
 70
     8
 71
     3
 72
    11
 73
     7
 74
     0
 42
0.00000001
 43
0.00000001
 40
0.0
 40
0.0
 40
0.0
 40
0.0
 40
0.0631451044874329
 40
0.4402924664315869
 40
0.8170552935895093
 40
0.9999999999999999
 40
0.9999999999999999
 40
0.9999999999999999
 40
0.9999999999999999
 10
27.2685809463654
 20
67.98833250513046
 30
0.0
 10
27.26843088955084
 20
67.98964681487028
 30
0.0
 10
27.26738458698277
 20
67.99881111480607
 30
0.0
 10
27.24143408234136
 20
68.05468243337614
 30
0.0
 10
27.17321446110287
 20
68.11821976621769
 30
0.0
 10
27.07830754028377
 20
68.16349584608285
 30
0.0
 10
27.04728648424245
 20
68.1782946805483
 30
0.0
  0
SPLINE
  5
22C
330
1F
100
AcDbEntity
  8
0
  6
Continuous
 62
     7
370
    25
100
AcDbSpline
210
0.0
220
0.0
230
1.0
 70
     8
 71
     3
 72
    11
 73
     7
 74
     0
 42
0.00000001
 43
0.00000001
 40
0.0
 40
0.0
 40
0.0
 40
0.0
 40
0.1829450983654378
 40
0.5571371855744948
 40
0.9317062879569865
 40
1.0
 40
1.0
 40
1.0
 40
1.0
 10
42.50545861844653
 20
68.1782946805483
 30
0.0
 10
42.47443477434942
 20
68.16349652391514
 30
0.0
 10
42.37995540682114
 20
68.11843052645493
 30
0.0
 10
42.31181222331524
 20
68.05515846088386
 30
0.0
 10
42.28551451080828
 20
67.99927115666699
 30
0.0
 10
42.28448495407689
 20
67.99006333923208
 30
0.0
 10
42.28432618651127
 20
67.98864340508551
 30
0.0
  0
SPLINE
  5
22D
330
1F
100
AcDbEntity
  8
0
  6
Continuous
 62
     7
370
    25
100
AcDbSpline
210
0.0
220
0.0
230
1.0
 70
     8
 71
     3
 72
    11
 73
     7
 74
     0
 42
0.00000001
 43
0.00000001
 40
0.0
 40
0.0
 40
0.0
 40
0.0
 40
0.0631451044874329
 40
0.4402924664315868
 40
0.8170552935895091
 40
1.0
 40
1.0
 40
1.0
 40
1.0
 10
42.28416415632358
 20
85.89317921546576
 30
0.0
 10
42.28431421313815
 20
85.89186490572595
 30
0.0
 10
42.28536051570622
 20
85.88270060579018
 30
0.0
 10
42.31131102034762
 20
85.8268292872201
 30
0.0
 10
42.37953064158611
 20
85.76329195437854
 30
0.0
 10
42.47443756240521
 20
85.71801587451338
 30
0.0
 10
42.50545861844653
 20
85.70321704004792
 30
0.0
  0
LINE
  5
22E
330
1F
100
AcDbEntity
  8
0
  6
Continuous
 62
     7
370
    25
100
AcDbLine
 10
41.7763725513
 20
70.2126248484
 30
0.0
 11
41.7763725513
 21
71.6444433798
 31
0.0
  0
LINE
  5
22F
330
1F
100
AcDbEntity
  8
0
  6
Continuous
 62
     7
370
    25
100
AcDbLine
 10
41.7763725513
 20
82.2370683408
 30
0.0
 11
41.7763725513
 21
83.6688868722
 31
0.0
  0
LINE
  5
230
330
1F
100
AcDbEntity
  8
0
  6
Continuous
 62
     7
370
    25
100
AcDbLine
 10
27.7763725513
 20
83.6688868722
 30
0.0
 11
27.7763725513
 21
79.4907558603
 31
0.0
  0
LINE
  5
231
330
1F
100
AcDbEntity
  8
0
  6
Continuous
 62
     7
370
    25
100
AcDbLine
 10
27.7763725513
 20
74.3907558603
 30
0.0
 11
27.7763725513
 21
70.2126248484
 31
0.0
  0
LINE
  5
232
330
1F
100
AcDbEntity
  8
0
  6
Continuous
 62
     7
370
    25
100
AcDbLine
 10
27.7763725513
 20
70.2126248484
 30
0.0
 11
31.5771924866
 21
70.2126248484
 31
0.0
  0
LINE
  5
233
330
1F
100
AcDbEntity
  8
0
  6
Continuous
 62
     7
370
    25
100
AcDbLine
 10
37.9755526161
 20
70.2126248484
 30
0.0
 11
41.7763725513
 21
70.2126248484
 31
0.0
  0
LINE
  5
234
330
1F
100
AcDbEntity
  8
0
  6
Continuous
 62
     7
370
    25
100
AcDbLine
 10
41.7763725513
 20
83.6688868722
 30
0.0
 11
37.9755526161
 21
83.6688868722
 31
0.0
  0
LINE
  5
235
330
1F
100
AcDbEntity
  8
0
  6
Continuous
 62
     7
370
    25
100
AcDbLine
 10
31.5771924866
 20
83.6688868722
 30
0.0
 11
27.7763725513
 21
83.6688868722
 31
0.0
  0
LINE
  5
236
330
1F
100
AcDbEntity
  8
0
  6
Continuous
 62
     7
370
    25
100
AcDbLine
 10
27.7763725513
 20
84.0646592847
 30
0.0
 11
32.5963496157
 21
84.0646592847
 31
0.0
  0
LINE
  5
237
330
1F
100
AcDbEntity
  8
0
  6
Continuous
 62
     7
370
    25
100
AcDbLine
 10
36.956395487
 20
84.0646592847
 30
0.0
 11
41.7763725513
 21
84.0646592847
 31
0.0
  0
LINE
  5
238
330
1F
100
AcDbEntity
  8
0
  6
Continuous
 62
     7
370
    25
100
AcDbLine
 10
41.7763725513
 20
69.8168524359
 30
0.0
 11
36.956395487
 21
69.8168524359
 31
0.0
  0
LINE
  5
239
330
1F
100
AcDbEntity
  8
0
  6
Continuous
 62
     7
370
    25
100
AcDbLine
 10
32.5963496157
 20
69.8168524359
 30
0.0
 11
27.7763725513
 21
69.8168524359
 31
0.0
  0
INSERT
  5
245
330
1F
100
AcDbEntity
  8
0
  6
Continuous
 62
     7
370
    18
100
AcDbBlockReference
  2
SW_CENTERMARKSYMBOL_1
 10
34.7763725513
 20
76.9407558603
 30
0.0
  0
LINE
  5
246
330
1F
100
AcDbEntity
  8
0
  6
Continuous
 62
     7
370
    18
100
AcDbLine
 10
24.2763725513
 20
84.6478211905
 30
0.0
 11
15.5274989531
 21
84.3744188906
 31
0.0
  0
LINE
  5
247
330
1F
100
AcDbEntity
  8
0
  6
Continuous
 62
     7
370
    18
100
AcDbLine
 10
15.5274989531
 20
69.50709283
 30
0.0
 11
24.2763725513
 21
69.2336905301
 31
0.0
  0
LINE
  5
248
330
1F
100
AcDbEntity
  8
0
  6
Continuous
 62
     7
370
    18
100
AcDbLine
 10
54.7763725513
 20
69.2430655301
 30
0.0
 11
64.0710252883
 21
69.5335234281
 31
0.0
  0
LINE
  5
249
330
1F
100
AcDbEntity
  8
0
  6
Continuous
 62
     7
370
    18
100
AcDbLine
 10
64.0710252883
 20
84.3479882925
 30
0.0
 11
54.7763725513
 21
84.6384461905
 31
0.0
  0
ENDSEC
  0
SECTION
  2
OBJECTS
  0
DICTIONARY
  5
C
330
0
100
AcDbDictionary
281
     1
  3
ACAD_GROUP
350
D
  3
ACAD_LAYOUT
350
1A
  3
ACAD_MLINESTYLE
350
17
  3
ACAD_PLOTSETTINGS
350
19
  3
ACAD_PLOTSTYLENAME
350
E
  3
ACAD_SCALELIST
350
47
  3
DWGPROPS
350
24A
  0
DICTIONARY
  5
D
102
{ACAD_REACTORS
330
C
102
}
330
C
100
AcDbDictionary
281
     1
  0
DICTIONARY
  5
1A
102
{ACAD_REACTORS
330
C
102
}
330
C
100
AcDbDictionary
281
     1
  3
Layout1
350
1E
  3
Layout2
350
26
  3
Model
350
22
  0
DICTIONARY
  5
17
102
{ACAD_REACTORS
330
C
102
}
330
C
100
AcDbDictionary
281
     1
  3
Standard
350
18
  0
DICTIONARY
  5
19
102
{ACAD_REACTORS
330
C
102
}
330
C
100
AcDbDictionary
281
     1
  0
ACDBDICTIONARYWDFLT
  5
E
102
{ACAD_REACTORS
330
C
102
}
330
C
100
AcDbDictionary
281
     1
  3
Normal
350
F
100
AcDbDictionaryWithDefault
340
F
  0
DICTIONARY
  5
47
102
{ACAD_REACTORS
330
C
102
}
330
C
100
AcDbDictionary
281
     1
  3
A0
350
48
  3
A1
350
49
  3
A2
350
4A
  3
A3
350
4B
  3
A4
350
4C
  3
A5
350
4D
  3
A6
350
4E
  3
A7
350
4F
  3
A8
350
50
  3
A9
350
51
  3
B0
350
52
  3
B1
350
53
  3
B2
350
54
  3
B3
350
55
  3
B4
350
56
  3
B5
350
57
  3
B6
350
58
  0
XRECORD
  5
24A
102
{ACAD_REACTORS
330
C
102
}
330
C
100
AcDbXrecord
280
     1
  1
DWGPROPS COOKIE
  2

  3

  4

  6

  7

  8
user52
  9

300
=
301
=
302
=
303
=
304
=
305
=
306
=
307
=
308
=
309
=
 40
0.0
 41
2460398.028921933
 42
2460398.028922338
  1

 90
        0
  0
LAYOUT
  5
1E
102
{ACAD_REACTORS
330
1A
102
}
330
1A
100
AcDbPlotSettings
  1

  2
none_device
  4

  6

 40
0.0
 41
0.0
 42
0.0
 43
0.0
 44
0.0
 45
0.0
 46
0.0
 47
0.0
 48
0.0
 49
0.0
140
0.0
141
0.0
142
1.0
143
1.0
 70
   688
 72
     1
 73
     0
 74
     5
  7

 75
    16
147
1.0
148
0.0
149
0.0
100
AcDbLayout
  1
Layout1
 70
     1
 71
     1
 10
0.0
 20
0.0
 11
420.0
 21
297.0
 12
0.0
 22
0.0
 32
0.0
 14
1.0000000000E+20
 24
1.0000000000E+20
 34
1.0000000000E+20
 15
-1.0000000000E+20
 25
-1.0000000000E+20
 35
-1.0000000000E+20
146
0.0
 13
0.0
 23
0.0
 33
0.0
 16
1.0
 26
0.0
 36
0.0
 17
0.0
 27
1.0
 37
0.0
 76
     0
330
1B
  0
LAYOUT
  5
26
102
{ACAD_REACTORS
330
1A
102
}
330
1A
100
AcDbPlotSettings
  1

  2
none_device
  4

  6

 40
0.0
 41
0.0
 42
0.0
 43
0.0
 44
0.0
 45
0.0
 46
0.0
 47
0.0
 48
0.0
 49
0.0
140
0.0
141
0.0
142
1.0
143
1.0
 70
   688
 72
     1
 73
     0
 74
     5
  7

 75
    16
147
1.0
148
0.0
149
0.0
100
AcDbLayout
  1
Layout2
 70
     1
 71
     2
 10
0.0
 20
0.0
 11
0.0
 21
0.0
 12
0.0
 22
0.0
 32
0.0
 14
0.0
 24
0.0
 34
0.0
 15
0.0
 25
0.0
 35
0.0
146
0.0
 13
0.0
 23
0.0
 33
0.0
 16
1.0
 26
0.0
 36
0.0
 17
0.0
 27
1.0
 37
0.0
 76
     0
330
23
  0
LAYOUT
  5
22
102
{ACAD_REACTORS
330
1A
102
}
330
1A
100
AcDbPlotSettings
  1

  2
none_device
  4
Letter_(8.50_x_11.00_Inches)
  6

 40
6.35
 41
6.35
 42
6.35000508
 43
6.35000508
 44
215.9
 45
279.4
 46
0.0
 47
0.0
 48
0.0
 49
0.0
140
0.0
141
0.0
142
1.0
143
1.0
 70
  1712
 72
     1
 73
     0
 74
     0
  7

 75
     0
147
1.0
148
0.0
149
0.0
100
AcDbLayout
  1
Model
 70
     1
 71
     0
 10
0.0
 20
0.0
 11
431.8
 21
279.4
 12
0.0
 22
0.0
 32
0.0
 14
0.0
 24
0.0
 34
0.0
 15
431.8
 25
279.4
 35
0.0
146
0.0
 13
0.0
 23
0.0
 33
0.0
 16
1.0
 26
0.0
 36
0.0
 17
0.0
 27
1.0
 37
0.0
 76
     0
330
1F
331
29
  0
MLINESTYLE
  5
18
102
{ACAD_REACTORS
330
17
102
}
330
17
100
AcDbMlineStyle
  2
Standard
 70
     0
  3

 62
   256
 51
90.0
 52
90.0
 71
     2
 49
0.5
 62
   256
  6
BYLAYER
 49
-0.5
 62
   256
  6
BYLAYER
  0
ACDBPLACEHOLDER
  5
F
102
{ACAD_REACTORS
330
E
102
}
330
E
  0
SCALE
  5
48
102
{ACAD_REACTORS
330
47
102
}
330
47
100
AcDbScale
 70
     0
300
1:1
140
1.0
141
1.0
290
     1
  0
SCALE
  5
49
102
{ACAD_REACTORS
330
47
102
}
330
47
100
AcDbScale
 70
     0
300
1:2
140
1.0
141
2.0
290
     0
  0
SCALE
  5
4A
102
{ACAD_REACTORS
330
47
102
}
330
47
100
AcDbScale
 70
     0
300
1:4
140
1.0
141
4.0
290
     0
  0
SCALE
  5
4B
102
{ACAD_REACTORS
330
47
102
}
330
47
100
AcDbScale
 70
     0
300
1:5
140
1.0
141
5.0
290
     0
  0
SCALE
  5
4C
102
{ACAD_REACTORS
330
47
102
}
330
47
100
AcDbScale
 70
     0
300
1:8
140
1.0
141
8.0
290
     0
  0
SCALE
  5
4D
102
{ACAD_REACTORS
330
47
102
}
330
47
100
AcDbScale
 70
     0
300
1:10
140
1.0
141
10.0
290
     0
  0
SCALE
  5
4E
102
{ACAD_REACTORS
330
47
102
}
330
47
100
AcDbScale
 70
     0
300
1:16
140
1.0
141
16.0
290
     0
  0
SCALE
  5
4F
102
{ACAD_REACTORS
330
47
102
}
330
47
100
AcDbScale
 70
     0
300
1:20
140
1.0
141
20.0
290
     0
  0
SCALE
  5
50
102
{ACAD_REACTORS
330
47
102
}
330
47
100
AcDbScale
 70
     0
300
1:30
140
1.0
141
30.0
290
     0
  0
SCALE
  5
51
102
{ACAD_REACTORS
330
47
102
}
330
47
100
AcDbScale
 70
     0
300
1:40
140
1.0
141
40.0
290
     0
  0
SCALE
  5
52
102
{ACAD_REACTORS
330
47
102
}
330
47
100
AcDbScale
 70
     0
300
1:50
140
1.0
141
50.0
290
     0
  0
SCALE
  5
53
102
{ACAD_REACTORS
330
47
102
}
330
47
100
AcDbScale
 70
     0
300
1:100
140
1.0
141
100.0
290
     0
  0
SCALE
  5
54
102
{ACAD_REACTORS
330
47
102
}
330
47
100
AcDbScale
 70
     0
300
2:1
140
2.0
141
1.0
290
     0
  0
SCALE
  5
55
102
{ACAD_REACTORS
330
47
102
}
330
47
100
AcDbScale
 70
     0
300
4:1
140
4.0
141
1.0
290
     0
  0
SCALE
  5
56
102
{ACAD_REACTORS
330
47
102
}
330
47
100
AcDbScale
 70
     0
300
8:1
140
8.0
141
1.0
290
     0
  0
SCALE
  5
57
102
{ACAD_REACTORS
330
47
102
}
330
47
100
AcDbScale
 70
     0
300
10:1
140
10.0
141
1.0
290
     0
  0
SCALE
  5
58
102
{ACAD_REACTORS
330
47
102
}
330
47
100
AcDbScale
 70
     0
300
100:1
140
100.0
141
1.0
290
     0
  0
ENDSEC
  0
EOF
