  0
SECTION
  2
HEADER
  9
$ACADVER
  1
AC1015
  9
$ACADMAINTVER
 70
     6
  9
$DWGCODEPAGE
  3
DOS932
  9
$INSBASE
 10
0.0
 20
0.0
 30
0.0
  9
$EXTMIN
 10
0.0
 20
0.0
 30
0.0
  9
$EXTMAX
 10
431.8
 20
279.4
 30
0.0
  9
$LIMMIN
 10
0.0
 20
0.0
  9
$LIMMAX
 10
431.8
 20
279.4
  9
$ORTHOMODE
 70
     0
  9
$REGENMODE
 70
     1
  9
$FILLMODE
 70
     1
  9
$QTEXTMODE
 70
     0
  9
$MIRRTEXT
 70
     1
  9
$LTSCALE
 40
1.0
  9
$ATTMODE
 70
     1
  9
$TEXTSIZE
 40
3.5
  9
$TRACEWID
 40
1.0
  9
$TEXTSTYLE
  7
Standard
  9
$CLAYER
  8
0
  9
$CELTYPE
  6
ByLayer
  9
$CECOLOR
 62
   256
  9
$CELTSCALE
 40
1.0
  9
$DISPSILH
 70
     0
  9
$DIMSCALE
 40
1.0
  9
$DIMASZ
 40
3.556
  9
$DIMEXO
 40
1.0
  9
$DIMDLI
 40
3.75
  9
$DIMRND
 40
0.0
  9
$DIMDLE
 40
0.0
  9
$DIMEXE
 40
1.0
  9
$DIMTP
 40
0.0
  9
$DIMTM
 40
0.0
  9
$DIMTXT
 40
3.5
  9
$DIMCEN
 40
2.5
  9
$DIMTSZ
 40
0.0
  9
$DIMTOL
 70
     0
  9
$DIMLIM
 70
     0
  9
$DIMTIH
 70
     1
  9
$DIMTOH
 70
     1
  9
$DIMSE1
 70
     0
  9
$DIMSE2
 70
     0
  9
$DIMTAD
 70
     1
  9
$DIMZIN
 70
     0
  9
$DIMBLK
  1

  9
$DIMASO
 70
     1
  9
$DIMSHO
 70
     1
  9
$DIMPOST
  1

  9
$DIMAPOST
  1

  9
$DIMALT
 70
     0
  9
$DIMALTD
 70
     3
  9
$DIMALTF
 40
0.0393700787
  9
$DIMLFAC
 40
1.0
  9
$DIMTOFL
 70
     1
  9
$DIMTVP
 40
0.0
  9
$DIMTIX
 70
     0
  9
$DIMSOXD
 70
     0
  9
$DIMSAH
 70
     0
  9
$DIMBLK1
  1

  9
$DIMBLK2
  1

  9
$DIMSTYLE
  2
ISO-25
  9
$DIMCLRD
 70
     0
  9
$DIMCLRE
 70
     0
  9
$DIMCLRT
 70
     0
  9
$DIMTFAC
 40
1.0
  9
$DIMGAP
 40
1.524
  9
$DIMJUST
 70
     0
  9
$DIMSD1
 70
     0
  9
$DIMSD2
 70
     0
  9
$DIMTOLJ
 70
     0
  9
$DIMTZIN
 70
     0
  9
$DIMALTZ
 70
     0
  9
$DIMALTTZ
 70
     0
  9
$DIMUPT
 70
     0
  9
$DIMDEC
 70
     3
  9
$DIMTDEC
 70
     3
  9
$DIMALTU
 70
     2
  9
$DIMALTTD
 70
     3
  9
$DIMTXSTY
  7
Standard
  9
$DIMAUNIT
 70
     0
  9
$DIMADEC
 70
     2
  9
$DIMALTRND
 40
0.0
  9
$DIMAZIN
 70
     0
  9
$DIMDSEP
 70
    44
  9
$DIMATFIT
 70
     3
  9
$DIMFRAC
 70
     0
  9
$DIMLDRBLK
  1

  9
$DIMLUNIT
 70
     2
  9
$DIMLWD
 70
    -2
  9
$DIMLWE
 70
    -2
  9
$DIMTMOVE
 70
     0
  9
$LUNITS
 70
     2
  9
$LUPREC
 70
     3
  9
$SKETCHINC
 40
1.0
  9
$FILLETRAD
 40
0.0
  9
$AUNITS
 70
     0
  9
$AUPREC
 70
     2
  9
$MENU
  1
.
  9
$ELEVATION
 40
0.0
  9
$PELEVATION
 40
0.0
  9
$THICKNESS
 40
0.0
  9
$LIMCHECK
 70
     0
  9
$CHAMFERA
 40
0.0
  9
$CHAMFERB
 40
0.0
  9
$CHAMFERC
 40
0.0
  9
$CHAMFERD
 40
0.0
  9
$SKPOLY
 70
     0
  9
$TDCREATE
 40
2460398.401960579
  9
$TDUCREATE
 40
2460398.026960579
  9
$TDUPDATE
 40
2460398.401960961
  9
$TDUUPDATE
 40
2460398.026960961
  9
$TDINDWG
 40
0.0000000116
  9
$TDUSRTIMER
 40
0.0000000116
  9
$USRTIMER
 70
     1
  9
$ANGBASE
 50
0.0
  9
$ANGDIR
 70
     0
  9
$PDMODE
 70
     0
  9
$PDSIZE
 40
-1.0
  9
$PLINEWID
 40
0.0
  9
$SPLFRAME
 70
     0
  9
$SPLINETYPE
 70
     6
  9
$SPLINESEGS
 70
     8
  9
$HANDSEED
  5
24C
  9
$SURFTAB1
 70
     6
  9
$SURFTAB2
 70
     6
  9
$SURFTYPE
 70
     6
  9
$SURFU
 70
     6
  9
$SURFV
 70
     6
  9
$UCSBASE
  2

  9
$UCSNAME
  2

  9
$UCSORG
 10
0.0
 20
0.0
 30
0.0
  9
$UCSXDIR
 10
1.0
 20
0.0
 30
0.0
  9
$UCSYDIR
 10
0.0
 20
1.0
 30
0.0
  9
$UCSORTHOREF
  2

  9
$UCSORTHOVIEW
 70
     0
  9
$UCSORGTOP
 10
0.0
 20
0.0
 30
0.0
  9
$UCSORGBOTTOM
 10
0.0
 20
0.0
 30
0.0
  9
$UCSORGLEFT
 10
0.0
 20
0.0
 30
0.0
  9
$UCSORGRIGHT
 10
0.0
 20
0.0
 30
0.0
  9
$UCSORGFRONT
 10
0.0
 20
0.0
 30
0.0
  9
$UCSORGBACK
 10
0.0
 20
0.0
 30
0.0
  9
$PUCSBASE
  2

  9
$PUCSNAME
  2

  9
$PUCSORG
 10
0.0
 20
0.0
 30
0.0
  9
$PUCSXDIR
 10
1.0
 20
0.0
 30
0.0
  9
$PUCSYDIR
 10
0.0
 20
1.0
 30
0.0
  9
$PUCSORTHOREF
  2

  9
$PUCSORTHOVIEW
 70
     0
  9
$PUCSORGTOP
 10
0.0
 20
0.0
 30
0.0
  9
$PUCSORGBOTTOM
 10
0.0
 20
0.0
 30
0.0
  9
$PUCSORGLEFT
 10
0.0
 20
0.0
 30
0.0
  9
$PUCSORGRIGHT
 10
0.0
 20
0.0
 30
0.0
  9
$PUCSORGFRONT
 10
0.0
 20
0.0
 30
0.0
  9
$PUCSORGBACK
 10
0.0
 20
0.0
 30
0.0
  9
$USERI1
 70
     0
  9
$USERI2
 70
     0
  9
$USERI3
 70
     0
  9
$USERI4
 70
     0
  9
$USERI5
 70
     0
  9
$USERR1
 40
0.0
  9
$USERR2
 40
0.0
  9
$USERR3
 40
0.0
  9
$USERR4
 40
0.0
  9
$USERR5
 40
0.0
  9
$WORLDVIEW
 70
     1
  9
$SHADEDGE
 70
     3
  9
$SHADEDIF
 70
    70
  9
$TILEMODE
 70
     1
  9
$MAXACTVP
 70
    64
  9
$PINSBASE
 10
0.0
 20
0.0
 30
0.0
  9
$PLIMCHECK
 70
     0
  9
$PEXTMIN
 10
1.0000000000E+20
 20
1.0000000000E+20
 30
1.0000000000E+20
  9
$PEXTMAX
 10
-1.0000000000E+20
 20
-1.0000000000E+20
 30
-1.0000000000E+20
  9
$PLIMMIN
 10
0.0
 20
0.0
  9
$PLIMMAX
 10
420.0
 20
297.0
  9
$UNITMODE
 70
     0
  9
$VISRETAIN
 70
     1
  9
$PLINEGEN
 70
     0
  9
$PSLTSCALE
 70
     1
  9
$TREEDEPTH
 70
  3020
  9
$CMLSTYLE
  2
Standard
  9
$CMLJUST
 70
     0
  9
$CMLSCALE
 40
20.0
  9
$PROXYGRAPHICS
 70
     1
  9
$MEASUREMENT
 70
     1
  9
$CELWEIGHT
370
    -1
  9
$ENDCAPS
280
     0
  9
$JOINSTYLE
280
     0
  9
$LWDISPLAY
290
     1
  9
$INSUNITS
 70
     4
  9
$HYPERLINKBASE
  1

  9
$STYLESHEET
  1

  9
$XEDIT
290
     1
  9
$CEPSNTYPE
380
     0
  9
$PSTYLEMODE
290
     1
  9
$FINGERPRINTGUID
  2
{104478ba-3443-46c4-9351-1b3c2569f1ac}
  9
$VERSIONGUID
  2
{FAEB1C32-E019-11D5-929B-00C0DF256EC4}
  9
$EXTNAMES
290
     1
  9
$PSVPSCALE
 40
0.0
  9
$OLESTARTUP
290
     0
  0
ENDSEC
  0
SECTION
  2
CLASSES
  0
CLASS
  1
ACDBDICTIONARYWDFLT
  2
AcDbDictionaryWithDefault
  3
ObjectDBX Classes
 90
        0
280
     0
281
     0
  0
CLASS
  1
VISUALSTYLE
  2
AcDbVisualStyle
  3
ObjectDBX Classes
 90
     4095
280
     0
281
     0
  0
CLASS
  1
MATERIAL
  2
AcDbMaterial
  3
ObjectDBX Classes
 90
     1153
280
     0
281
     0
  0
CLASS
  1
SCALE
  2
AcDbScale
  3
ObjectDBX Classes
 90
     1153
280
     0
281
     0
  0
CLASS
  1
TABLESTYLE
  2
AcDbTableStyle
  3
ObjectDBX Classes
 90
     4095
280
     0
281
     0
  0
CLASS
  1
MLEADERSTYLE
  2
AcDbMLeaderStyle
  3
ACDB_MLEADERSTYLE_CLASS
 90
     4095
280
     0
281
     0
  0
CLASS
  1
SUN
  2
AcDbSun
  3
SCENEOE
 90
     1153
280
     0
281
     0
  0
CLASS
  1
ACDBPLACEHOLDER
  2
AcDbPlaceHolder
  3
ObjectDBX Classes
 90
        0
280
     0
281
     0
  0
CLASS
  1
LAYOUT
  2
AcDbLayout
  3
ObjectDBX Classes
 90
        0
280
     0
281
     0
  0
ENDSEC
  0
SECTION
  2
TABLES
  0
TABLE
  2
VPORT
  5
8
330
0
100
AcDbSymbolTable
 70
     1
  0
VPORT
  5
29
330
8
100
AcDbSymbolTableRecord
100
AcDbViewportTableRecord
  2
*Active
 70
     0
 10
0.0
 20
0.0
 11
1.0
 21
1.0
 12
215.9
 22
139.7
 13
0.0
 23
0.0
 14
10.0
 24
10.0
 15
10.0
 25
10.0
 16
0.0
 26
0.0
 36
1.0
 17
0.0
 27
0.0
 37
0.0
 40
279.4
 41
1.5454545455
 42
50.0
 43
0.0
 44
0.0
 50
0.0
 51
0.0
 71
     0
 72
  2000
 73
     1
 74
     3
 75
     0
 76
     0
 77
     0
 78
     0
281
     0
 65
     1
110
0.0
120
0.0
130
0.0
111
1.0
121
0.0
131
0.0
112
0.0
122
1.0
132
0.0
 79
     0
146
0.0
  0
ENDTAB
  0
TABLE
  2
LTYPE
  5
5
330
0
100
AcDbSymbolTable
 70
     6
  0
LTYPE
  5
14
330
5
100
AcDbSymbolTableRecord
100
AcDbLinetypeTableRecord
  2
ByBlock
 70
     0
  3

 72
    65
 73
     0
 40
0.0
  0
LTYPE
  5
15
330
5
100
AcDbSymbolTableRecord
100
AcDbLinetypeTableRecord
  2
ByLayer
 70
     0
  3

 72
    65
 73
     0
 40
0.0
  0
LTYPE
  5
16
330
5
100
AcDbSymbolTableRecord
100
AcDbLinetypeTableRecord
  2
Continuous
 70
     0
  3
Solid line
 72
    65
 73
     0
 40
0.0
  0
LTYPE
  5
5E
330
5
100
AcDbSymbolTableRecord
100
AcDbLinetypeTableRecord
  2
HIDDEN
 70
     0
  3
Hidden __ __ __ __ __ __ __ __ __ __ __ __ __ __
 72
    65
 73
     2
 40
1.905
 49
1.27
 74
     0
 49
-0.635
 74
     0
  0
LTYPE
  5
5F
330
5
100
AcDbSymbolTableRecord
100
AcDbLinetypeTableRecord
  2
PHANTOM
 70
     0
  3
Phantom ______  __  __  ______  __  __  ______
 72
    65
 73
     6
 40
12.7
 49
6.35
 74
     0
 49
-1.27
 74
     0
 49
1.27
 74
     0
 49
-1.27
 74
     0
 49
1.27
 74
     0
 49
-1.27
 74
     0
  0
LTYPE
  5
60
330
5
100
AcDbSymbolTableRecord
100
AcDbLinetypeTableRecord
  2
CENTER
 70
     0
  3
Center ____ _ ____ _ ____ _ ____ _ ____ _ ____
 72
    65
 73
     4
 40
10.16
 49
6.35
 74
     0
 49
-1.27
 74
     0
 49
1.27
 74
     0
 49
-1.27
 74
     0
  0
LTYPE
  5
61
330
5
100
AcDbSymbolTableRecord
100
AcDbLinetypeTableRecord
  2
CENTERX2
 70
     0
  3
Center (2x) ________  __  ________  __  _____
 72
    65
 73
     4
 40
20.32
 49
12.7
 74
     0
 49
-2.54
 74
     0
 49
2.54
 74
     0
 49
-2.54
 74
     0
  0
LTYPE
  5
62
330
5
100
AcDbSymbolTableRecord
100
AcDbLinetypeTableRecord
  2
DOT2
 70
     0
  3
Dot (.5x) ........................................
 72
    65
 73
     2
 40
0.635
 49
0.0
 74
     0
 49
-0.635
 74
     0
  0
ENDTAB
  0
TABLE
  2
LAYER
  5
2
330
0
100
AcDbSymbolTable
 70
     1
  0
LAYER
  5
10
330
2
100
AcDbSymbolTableRecord
100
AcDbLayerTableRecord
  2
0
 70
     0
 62
     7
  6
Continuous
370
    -3
390
F
  0
ENDTAB
  0
TABLE
  2
STYLE
  5
3
330
0
100
AcDbSymbolTable
 70
     2
  0
STYLE
  5
11
330
3
100
AcDbSymbolTableRecord
100
AcDbTextStyleTableRecord
  2
Standard
 70
     0
 40
0.0
 41
1.0
 50
0.0
 71
     0
 42
3.5
  3
txt
  4
bigfont
  0
STYLE
  5
63
330
3
100
AcDbSymbolTableRecord
100
AcDbTextStyleTableRecord
  2
SLDTEXTSTYLE0
 70
     0
 40
0.0
 41
0.75
 50
0.0
 71
     0
 42
3.5
  3
TXT
  4
bigfont
  0
ENDTAB
  0
TABLE
  2
VIEW
  5
6
330
0
100
AcDbSymbolTable
 70
     0
  0
ENDTAB
  0
TABLE
  2
UCS
  5
7
330
0
100
AcDbSymbolTable
 70
     0
  0
ENDTAB
  0
TABLE
  2
APPID
  5
9
330
0
100
AcDbSymbolTable
 70
     1
  0
APPID
  5
12
330
9
100
AcDbSymbolTableRecord
100
AcDbRegAppTableRecord
  2
ACAD
 70
     0
  0
ENDTAB
  0
TABLE
  2
DIMSTYLE
  5
A
330
0
100
AcDbSymbolTable
 70
     1
100
AcDbDimStyleTable
  0
DIMSTYLE
105
27
330
A
100
AcDbSymbolTableRecord
100
AcDbDimStyleTableRecord
  2
ISO-25
 70
     0
 41
2.5
 42
0.625
 43
3.75
 44
1.25
 73
     0
 74
     0
 77
     1
 78
     8
140
2.5
141
2.5
143
0.0393700787
147
0.625
171
     3
172
     1
178
     0
271
     2
272
     2
274
     3
278
    44
283
     0
284
     8
340
11
  0
ENDTAB
  0
TABLE
  2
BLOCK_RECORD
  5
1
330
0
100
AcDbSymbolTable
 70
     3
  0
BLOCK_RECORD
  5
1F
330
1
100
AcDbSymbolTableRecord
100
AcDbBlockTableRecord
  2
*Model_Space
340
22
  0
BLOCK_RECORD
  5
1B
330
1
100
AcDbSymbolTableRecord
100
AcDbBlockTableRecord
  2
*Paper_Space
340
1E
  0
BLOCK_RECORD
  5
23
330
1
100
AcDbSymbolTableRecord
100
AcDbBlockTableRecord
  2
*Paper_Space0
340
26
  0
BLOCK_RECORD
  5
1E0
330
1
100
AcDbSymbolTableRecord
100
AcDbBlockTableRecord
  2
SW_CENTERMARKSYMBOL_0
340
0
102
{BLKREFS
331
1EB
102
}
  0
BLOCK_RECORD
  5
23F
330
1
100
AcDbSymbolTableRecord
100
AcDbBlockTableRecord
  2
SW_CENTERMARKSYMBOL_1
340
0
102
{BLKREFS
331
24A
102
}
  0
ENDTAB
  0
ENDSEC
  0
SECTION
  2
BLOCKS
  0
BLOCK
  5
20
330
1F
100
AcDbEntity
  8
0
100
AcDbBlockBegin
  2
*Model_Space
 70
     0
 10
0.0
 20
0.0
 30
0.0
  3
*Model_Space
  1

  0
ENDBLK
  5
21
330
1F
100
AcDbEntity
  8
0
100
AcDbBlockEnd
  0
BLOCK
  5
1C
330
1B
100
AcDbEntity
 67
     1
  8
0
100
AcDbBlockBegin
  2
*Paper_Space
 70
     0
 10
0.0
 20
0.0
 30
0.0
  3
*Paper_Space
  1

  0
ENDBLK
  5
1D
330
1B
100
AcDbEntity
 67
     1
  8
0
100
AcDbBlockEnd
  0
BLOCK
  5
24
330
23
100
AcDbEntity
  8
0
100
AcDbBlockBegin
  2
*Paper_Space0
 70
     0
 10
0.0
 20
0.0
 30
0.0
  3
*Paper_Space0
  1

  0
ENDBLK
  5
25
330
23
100
AcDbEntity
  8
0
100
AcDbBlockEnd
  0
BLOCK
  5
1E1
330
1E0
100
AcDbEntity
  8
0
100
AcDbBlockBegin
  2
SW_CENTERMARKSYMBOL_0
 70
     0
 10
0.0
 20
0.0
 30
0.0
  3
SW_CENTERMARKSYMBOL_0
  1

  0
LINE
  5
1E3
330
1E0
100
AcDbEntity
  8
0
  6
Continuous
 62
     0
370
    18
100
AcDbLine
 10
0.0
 20
0.0
 30
0.0
 11
0.0
 21
2.5
 31
0.0
  0
LINE
  5
1E4
330
1E0
100
AcDbEntity
  8
0
  6
Continuous
 62
     0
370
    18
100
AcDbLine
 10
0.0
 20
0.0
 30
0.0
 11
-2.5
 21
0.0
 31
0.0
  0
LINE
  5
1E5
330
1E0
100
AcDbEntity
  8
0
  6
Continuous
 62
     0
370
    18
100
AcDbLine
 10
0.0
 20
0.0
 30
0.0
 11
0.0
 21
-2.5
 31
0.0
  0
LINE
  5
1E6
330
1E0
100
AcDbEntity
  8
0
  6
Continuous
 62
     0
370
    18
100
AcDbLine
 10
0.0
 20
0.0
 30
0.0
 11
2.5
 21
0.0
 31
0.0
  0
LINE
  5
1E7
330
1E0
100
AcDbEntity
  8
0
  6
Continuous
 62
     0
370
    18
100
AcDbLine
 10
0.0
 20
5.0
 30
0.0
 11
0.0
 21
11.29084726
 31
0.0
  0
LINE
  5
1E8
330
1E0
100
AcDbEntity
  8
0
  6
Continuous
 62
     0
370
    18
100
AcDbLine
 10
-5.0
 20
0.0
 30
0.0
 11
-21.8163222688
 21
0.0
 31
0.0
  0
LINE
  5
1E9
330
1E0
100
AcDbEntity
  8
0
  6
Continuous
 62
     0
370
    18
100
AcDbLine
 10
0.0
 20
-5.0
 30
0.0
 11
0.0
 21
-11.5918792986
 31
0.0
  0
LINE
  5
1EA
330
1E0
100
AcDbEntity
  8
0
  6
Continuous
 62
     0
370
    18
100
AcDbLine
 10
5.0
 20
0.0
 30
0.0
 11
43.1325263104
 21
0.0
 31
0.0
  0
ENDBLK
  5
1E2
330
1E0
100
AcDbEntity
  8
0
100
AcDbBlockEnd
  0
BLOCK
  5
240
330
23F
100
AcDbEntity
  8
0
100
AcDbBlockBegin
  2
SW_CENTERMARKSYMBOL_1
 70
     0
 10
0.0
 20
0.0
 30
0.0
  3
SW_CENTERMARKSYMBOL_1
  1

  0
LINE
  5
242
330
23F
100
AcDbEntity
  8
0
  6
Continuous
 62
     0
370
    18
100
AcDbLine
 10
0.0
 20
0.0
 30
0.0
 11
0.0
 21
2.5
 31
0.0
  0
LINE
  5
243
330
23F
100
AcDbEntity
  8
0
  6
Continuous
 62
     0
370
    18
100
AcDbLine
 10
0.0
 20
0.0
 30
0.0
 11
-2.5
 21
0.0
 31
0.0
  0
LINE
  5
244
330
23F
100
AcDbEntity
  8
0
  6
Continuous
 62
     0
370
    18
100
AcDbLine
 10
0.0
 20
0.0
 30
0.0
 11
0.0
 21
-2.5
 31
0.0
  0
LINE
  5
245
330
23F
100
AcDbEntity
  8
0
  6
Continuous
 62
     0
370
    18
100
AcDbLine
 10
0.0
 20
0.0
 30
0.0
 11
2.5
 21
0.0
 31
0.0
  0
LINE
  5
246
330
23F
100
AcDbEntity
  8
0
  6
Continuous
 62
     0
370
    18
100
AcDbLine
 10
0.0
 20
5.0
 30
0.0
 11
0.0
 21
30.7631960463
 31
0.0
  0
LINE
  5
247
330
23F
100
AcDbEntity
  8
0
  6
Continuous
 62
     0
370
    18
100
AcDbLine
 10
-5.0
 20
0.0
 30
0.0
 11
-12.25
 21
0.0
 31
0.0
  0
LINE
  5
248
330
23F
100
AcDbEntity
  8
0
  6
Continuous
 62
     0
370
    18
100
AcDbLine
 10
0.0
 20
-5.0
 30
0.0
 11
0.0
 21
-12.25
 31
0.0
  0
LINE
  5
249
330
23F
100
AcDbEntity
  8
0
  6
Continuous
 62
     0
370
    18
100
AcDbLine
 10
5.0
 20
0.0
 30
0.0
 11
12.25
 21
0.0
 31
0.0
  0
ENDBLK
  5
241
330
23F
100
AcDbEntity
  8
0
100
AcDbBlockEnd
  0
ENDSEC
  0
SECTION
  2
ENTITIES
  0
MTEXT
  5
64
330
1F
100
AcDbEntity
  8
0
  6
Continuous
 62
     7
370
     0
100
AcDbMText
 10
59.2665396084
 20
62.1238579734
 30
0.0
 40
2.6458333333
 41
0.0
 71
     1
 72
     1
  1
エースボール　ストレート　BS-9022R
  7
SLDTEXTSTYLE0
 73
     1
 44
1.0
  0
LINE
  5
65
330
1F
100
AcDbEntity
  8
0
  6
Continuous
 62
     7
370
    25
100
AcDbLine
 10
45.7108683892
 20
33.4133462227
 30
0.0
 11
44.8073414434
 21
31.8483916465
 31
0.0
  0
LINE
  5
66
330
1F
100
AcDbEntity
  8
0
  6
Continuous
 62
     7
370
    25
100
AcDbLine
 10
44.8073414434
 20
15.3483916465
 30
0.0
 11
45.7108683892
 21
13.7834370703
 31
0.0
  0
LINE
  5
67
330
1F
100
AcDbEntity
  8
0
  6
Continuous
 62
     7
370
    25
100
AcDbLine
 10
53.9038144975
 20
13.7834370703
 30
0.0
 11
54.8073414434
 21
15.3483916465
 31
0.0
  0
LINE
  5
68
330
1F
100
AcDbEntity
  8
0
  6
Continuous
 62
     7
370
    25
100
AcDbLine
 10
54.8073414434
 20
31.8483916465
 30
0.0
 11
53.9038144975
 21
33.4133462227
 31
0.0
  0
LINE
  5
69
330
1F
100
AcDbEntity
  8
0
  6
Continuous
 62
     7
370
    25
100
AcDbLine
 10
54.8073414434
 20
16.8952041465
 30
0.0
 11
62.7185537896
 21
17.1424295323
 31
0.0
  0
LINE
  5
6A
330
1F
100
AcDbEntity
  8
0
  6
Continuous
 62
     7
370
    25
100
AcDbLine
 10
62.7185537896
 20
30.0543537607
 30
0.0
 11
54.8073414434
 21
30.3015791465
 31
0.0
  0
LINE
  5
6B
330
1F
100
AcDbEntity
  8
0
  6
Continuous
 62
     7
370
    25
100
AcDbLine
 10
62.7185537896
 20
17.1424295323
 30
0.0
 11
64.8073414434
 21
18.3483916465
 31
0.0
  0
LINE
  5
6C
330
1F
100
AcDbEntity
  8
0
  6
Continuous
 62
     7
370
    25
100
AcDbLine
 10
64.8073414434
 20
28.8483916465
 30
0.0
 11
62.7185537896
 21
30.0543537607
 31
0.0
  0
ARC
  5
6D
330
1F
100
AcDbEntity
  8
0
  6
Continuous
 62
     7
370
    25
100
AcDbCircle
 10
25.8073414434
 20
14.5983916465
 30
0.0
 40
1.5
100
AcDbArc
 50
318.1896851042
 51
0.0
  0
ARC
  5
6E
330
1F
100
AcDbEntity
  8
0
  6
Continuous
 62
     7
370
    25
100
AcDbCircle
 10
25.8073414434
 20
32.5983916465
 30
0.0
 40
1.5
100
AcDbArc
 50
0.0
 51
41.8103148958
  0
LINE
  5
6F
330
1F
100
AcDbEntity
  8
0
  6
Continuous
 62
     7
370
    25
100
AcDbLine
 10
44.5573414434
 20
13.5983916465
 30
0.0
 11
44.8073414434
 21
13.8483916465
 31
0.0
  0
LINE
  5
70
330
1F
100
AcDbEntity
  8
0
  6
Continuous
 62
     7
370
    25
100
AcDbLine
 10
44.8073414434
 20
33.3483916465
 30
0.0
 11
44.5573414434
 21
33.5983916465
 31
0.0
  0
LINE
  5
71
330
1F
100
AcDbEntity
  8
0
  6
Continuous
 62
     7
370
    25
100
AcDbLine
 10
44.5573414434
 20
33.5983916465
 30
0.0
 11
42.6893074546
 21
33.5983916465
 31
0.0
  0
LINE
  5
72
330
1F
100
AcDbEntity
  8
0
  6
Continuous
 62
     7
370
    25
100
AcDbLine
 10
42.6893074546
 20
13.5983916465
 30
0.0
 11
44.5573414434
 21
13.5983916465
 31
0.0
  0
LINE
  5
73
330
1F
100
AcDbEntity
  8
0
  6
Continuous
 62
     7
370
    25
100
AcDbLine
 10
25.3073414434
 20
33.5983916465
 30
0.0
 11
24.8073414434
 21
33.0983916465
 31
0.0
  0
LINE
  5
74
330
1F
100
AcDbEntity
  8
0
  6
Continuous
 62
     7
370
    25
100
AcDbLine
 10
24.8073414434
 20
14.0983916465
 30
0.0
 11
25.3073414434
 21
13.5983916465
 31
0.0
  0
LINE
  5
75
330
1F
100
AcDbEntity
  8
0
  6
Continuous
 62
     7
370
    25
100
AcDbLine
 10
25.3073414434
 20
13.5983916465
 30
0.0
 11
26.9253754321
 21
13.5983916465
 31
0.0
  0
LINE
  5
76
330
1F
100
AcDbEntity
  8
0
  6
Continuous
 62
     7
370
    25
100
AcDbLine
 10
26.9253754321
 20
33.5983916465
 30
0.0
 11
25.3073414434
 21
33.5983916465
 31
0.0
  0
ARC
  5
77
330
1F
100
AcDbEntity
  8
0
  6
Continuous
 62
     7
370
    25
100
AcDbCircle
 10
43.8073414434
 20
32.5983916465
 30
0.0
 40
1.5
100
AcDbArc
 50
138.1896851042
 51
180.0
  0
ARC
  5
78
330
1F
100
AcDbEntity
  8
0
  6
Continuous
 62
     7
370
    25
100
AcDbCircle
 10
43.8073414434
 20
14.5983916465
 30
0.0
 40
1.5
100
AcDbArc
 50
180.0
 51
221.8103148958
  0
ARC
  5
79
330
1F
100
AcDbEntity
  8
0
  6
Continuous
 62
     7
370
    25
100
AcDbCircle
 10
41.8073414434
 20
14.5983916465
 30
0.0
 40
0.5
100
AcDbArc
 50
0.0
 51
90.0
  0
ARC
  5
7A
330
1F
100
AcDbEntity
  8
0
  6
Continuous
 62
     7
370
    25
100
AcDbCircle
 10
27.8073414434
 20
14.5983916465
 30
0.0
 40
0.5
100
AcDbArc
 50
90.0
 51
180.0
  0
ARC
  5
7B
330
1F
100
AcDbEntity
  8
0
  6
Continuous
 62
     7
370
    25
100
AcDbCircle
 10
41.8073414434
 20
32.5983916465
 30
0.0
 40
0.5
100
AcDbArc
 50
270.0
 51
0.0
  0
ARC
  5
7C
330
1F
100
AcDbEntity
  8
0
  6
Continuous
 62
     7
370
    25
100
AcDbCircle
 10
27.8073414434
 20
32.5983916465
 30
0.0
 40
0.5
100
AcDbArc
 50
180.0
 51
270.0
  0
LINE
  5
7D
330
1F
100
AcDbEntity
  8
0
  6
Continuous
 62
     7
370
    25
100
AcDbLine
 10
24.8073414434
 20
30.3653291465
 30
0.0
 11
17.012865901
 21
30.1217517858
 31
0.0
  0
LINE
  5
7E
330
1F
100
AcDbEntity
  8
0
  6
Continuous
 62
     7
370
    25
100
AcDbLine
 10
17.012865901
 20
17.0750315072
 30
0.0
 11
24.8073414434
 21
16.8314541465
 31
0.0
  0
LINE
  5
7F
330
1F
100
AcDbEntity
  8
0
  6
Continuous
 62
     7
370
    25
100
AcDbLine
 10
28.4073414434
 20
32.0983916465
 30
0.0
 11
27.8073414434
 21
32.0983916465
 31
0.0
  0
LINE
  5
80
330
1F
100
AcDbEntity
  8
0
  6
Continuous
 62
     7
370
    25
100
AcDbLine
 10
41.8073414434
 20
32.0983916465
 30
0.0
 11
41.1896623183
 21
32.0983916465
 31
0.0
  0
LINE
  5
81
330
1F
100
AcDbEntity
  8
0
  6
Continuous
 62
     7
370
    25
100
AcDbLine
 10
27.8073414434
 20
15.0983916465
 30
0.0
 11
41.8073414434
 21
15.0983916465
 31
0.0
  0
LINE
  5
82
330
1F
100
AcDbEntity
  8
0
  6
Continuous
 62
     7
370
    25
100
AcDbLine
 10
17.012865901
 20
30.1217517858
 30
0.0
 11
14.8073414434
 21
28.8483916465
 31
0.0
  0
LINE
  5
83
330
1F
100
AcDbEntity
  8
0
  6
Continuous
 62
     7
370
    25
100
AcDbLine
 10
14.8073414434
 20
18.3483916465
 30
0.0
 11
17.012865901
 21
17.0750315072
 31
0.0
  0
SPLINE
  5
84
330
1F
100
AcDbEntity
  8
0
  6
Continuous
 62
     7
370
    25
100
AcDbSpline
210
0.0
220
0.0
230
1.0
 70
     8
 71
     3
 72
    12
 73
     8
 74
     0
 42
0.00000001
 43
0.00000001
 40
0.0
 40
0.0
 40
0.0
 40
0.0
 40
0.1851356712752652
 40
0.4099436241550456
 40
0.6488777662214272
 40
0.8814791157769586
 40
1.0
 40
1.0
 40
1.0
 40
1.0
 10
41.19215851707281
 20
32.10187599388269
 30
0.0
 10
41.14531345184256
 20
32.10584436233193
 30
0.0
 10
41.04158500404001
 20
32.11463147144416
 30
0.0
 10
40.89373501220093
 20
32.19632239275951
 30
0.0
 10
40.77506204736427
 20
32.3281092701572
 30
0.0
 10
40.71371376841088
 20
32.46950043958578
 30
0.0
 10
40.71239942942209
 20
32.55835774523418
 30
0.0
 10
40.71195577589025
 20
32.58835142100284
 30
0.0
  0
SPLINE
  5
85
330
1F
100
AcDbEntity
  8
0
  6
Continuous
 62
     7
370
    25
100
AcDbSpline
210
0.0
220
0.0
230
1.0
 70
     8
 71
     3
 72
    13
 73
     9
 74
     0
 42
0.00000001
 43
0.00000001
 40
0.0
 40
0.0
 40
0.0
 40
0.0
 40
0.1148369917358001
 40
0.3408574558839146
 40
0.5696514681937401
 40
0.7702842044405298
 40
0.9346330271220702
 40
1.0
 40
1.0
 40
1.0
 40
1.0
 10
28.89896007043922
 20
32.59851532149695
 30
0.0
 10
28.90061232677001
 20
32.56816115945989
 30
0.0
 10
28.90551652950879
 20
32.47806438584148
 30
0.0
 10
28.84304134965478
 20
32.33511833229701
 30
0.0
 10
28.72934195895245
 20
32.20232211934081
 30
0.0
 10
28.59013329891506
 20
32.12674378338031
 30
0.0
 10
28.47854949624599
 20
32.09763950992124
 30
0.0
 10
28.41810723864675
 20
32.1005696956807
 30
0.0
 10
28.40090804081385
 20
32.10140349717266
 30
0.0
  0
LINE
  5
86
330
1F
100
AcDbEntity
  8
0
  6
Continuous
 62
     7
370
    25
100
AcDbLine
 10
40.7073414434
 20
32.5871209065
 30
0.0
 11
40.7073414434
 21
34.0983916465
 31
0.0
  0
LINE
  5
87
330
1F
100
AcDbEntity
  8
0
  6
Continuous
 62
     7
370
    25
100
AcDbLine
 10
28.9073414434
 20
34.0983916465
 30
0.0
 11
28.9073414434
 21
32.5983916465
 31
0.0
  0
LINE
  5
88
330
1F
100
AcDbEntity
  8
0
  6
Continuous
 62
     7
370
    25
100
AcDbLine
 10
29.3073414434
 20
50.0983916465
 30
0.0
 11
27.3573414434
 21
42.0983916465
 31
0.0
  0
LINE
  5
89
330
1F
100
AcDbEntity
  8
0
  6
Continuous
 62
     7
370
    25
100
AcDbLine
 10
27.3573414434
 20
42.0983916465
 30
0.0
 11
27.8073414434
 21
34.0983916465
 31
0.0
  0
LINE
  5
8A
330
1F
100
AcDbEntity
  8
0
  6
Continuous
 62
     7
370
    25
100
AcDbLine
 10
41.8073414434
 20
34.0983916465
 30
0.0
 11
41.8779980691
 21
35.3545094378
 31
0.0
  0
LINE
  5
8B
330
1F
100
AcDbEntity
  8
0
  6
Continuous
 62
     7
370
    25
100
AcDbLine
 10
40.5605729779
 20
49.0594930433
 30
0.0
 11
40.3073414434
 21
50.0983916465
 31
0.0
  0
SPLINE
  5
8C
330
1F
100
AcDbEntity
  8
0
  6
Continuous
 62
     7
370
    25
100
AcDbSpline
210
0.0
220
0.0
230
1.0
 70
     8
 71
     3
 72
    14
 73
    10
 74
     0
 42
0.00000001
 43
0.00000001
 40
0.0
 40
0.0
 40
0.0
 40
0.0
 40
0.132317364830439
 40
0.2645973188387831
 40
0.3998364273285065
 40
0.5350511314348787
 40
0.6502525552916443
 40
0.76547194948634
 40
1.0
 40
1.0
 40
1.0
 40
1.0
 10
45.71086838923173
 20
28.50586893459253
 30
0.0
 10
45.59530021303446
 20
28.71789121058187
 30
0.0
 10
45.36419653587107
 20
29.14187581632703
 30
0.0
 10
45.11550677854375
 20
29.79477944547741
 30
0.0
 10
44.96609812683426
 20
30.45997060185364
 30
0.0
 10
44.93611213026431
 20
31.10113725322396
 30
0.0
 10
45.01413806749326
 20
31.70743246435473
 30
0.0
 10
45.21878325032381
 20
32.47363045698873
 30
0.0
 10
45.51334552671468
 20
33.03614452868759
 30
0.0
 10
45.71086838923173
 20
33.41334622270438
 30
0.0
  0
SPLINE
  5
8D
330
1F
100
AcDbEntity
  8
0
  6
Continuous
 62
     7
370
    25
100
AcDbSpline
210
0.0
220
0.0
230
1.0
 70
     8
 71
     3
 72
    14
 73
    10
 74
     0
 42
0.00000001
 43
0.00000001
 40
0.0
 40
0.0
 40
0.0
 40
0.0
 40
0.1185009945920699
 40
0.2439073148360068
 40
0.3692815579563457
 40
0.4977503482751115
 40
0.62621864735826
 40
0.8121215201811404
 40
1.0
 40
1.0
 40
1.0
 40
1.0
 10
45.71086838923173
 20
18.69091435836887
 30
0.0
 10
45.60673791553488
 20
19.0704919795965
 30
0.0
 10
45.39240904581161
 20
19.85176608353271
 30
0.0
 10
45.15247598445819
 20
21.05554971804755
 30
0.0
 10
44.99019399809762
 20
22.30554935732347
 30
0.0
 10
44.93371391937777
 20
23.57562374021007
 30
0.0
 10
44.99577371576706
 20
25.04628572865329
 30
0.0
 10
45.2310287185696
 20
26.70234789211709
 30
0.0
 10
45.55035922929086
 20
27.90258065902339
 30
0.0
 10
45.71086838923173
 20
28.50586893459253
 30
0.0
  0
SPLINE
  5
8E
330
1F
100
AcDbEntity
  8
0
  6
Continuous
 62
     7
370
    25
100
AcDbSpline
210
0.0
220
0.0
230
1.0
 70
     8
 71
     3
 72
    14
 73
    10
 74
     0
 42
0.00000001
 43
0.00000001
 40
0.0
 40
0.0
 40
0.0
 40
0.0
 40
0.132317364830439
 40
0.2645973188387832
 40
0.3998364273285068
 40
0.5350511314348789
 40
0.6502525552916444
 40
0.76547194948634
 40
1.0
 40
1.0
 40
1.0
 40
1.0
 10
45.71086838923173
 20
13.78343707025709
 30
0.0
 10
45.59530021303446
 20
13.99545934624641
 30
0.0
 10
45.36419653587106
 20
14.41944395199158
 30
0.0
 10
45.11550677854375
 20
15.07234758114194
 30
0.0
 10
44.96609812683425
 20
15.73753873751817
 30
0.0
 10
44.93611213026431
 20
16.37870538888848
 30
0.0
 10
45.01413806749327
 20
16.98500060001925
 30
0.0
 10
45.2187832503238
 20
17.75119859265323
 30
0.0
 10
45.51334552671468
 20
18.31371266435208
 30
0.0
 10
45.71086838923173
 20
18.69091435836887
 30
0.0
  0
LINE
  5
8F
330
1F
100
AcDbEntity
  8
0
  6
Continuous
 62
     7
370
    25
100
AcDbLine
 10
53.9038144975
 20
28.5058689346
 30
0.0
 11
45.7108683892
 21
28.5058689346
 31
0.0
  0
SPLINE
  5
90
330
1F
100
AcDbEntity
  8
0
  6
Continuous
 62
     7
370
    25
100
AcDbSpline
210
0.0
220
0.0
230
1.0
 70
     8
 71
     3
 72
    14
 73
    10
 74
     0
 42
0.00000001
 43
0.00000001
 40
0.0
 40
0.0
 40
0.0
 40
0.0
 40
0.1860584802655413
 40
0.3737803771913303
 40
0.4990317900313265
 40
0.6242830227419761
 40
0.7528733698393436
 40
0.8814990713915187
 40
1.0
 40
1.0
 40
1.0
 40
1.0
 10
53.90381449752722
 20
28.50586893459253
 30
0.0
 10
54.06287569102681
 20
27.90846703192906
 30
0.0
 10
54.38242013112933
 20
26.70832228069985
 30
0.0
 10
54.6171065587899
 20
25.06291884980914
 30
0.0
 10
54.68012335318365
 20
23.60773899582076
 30
0.0
 10
54.62820381611387
 20
22.3482636403675
 30
0.0
 10
54.46818111202607
 20
21.08710378666197
 30
0.0
 10
54.22508027991962
 20
19.86208261757726
 30
0.0
 10
54.00793764861515
 20
19.07049331226442
 30
0.0
 10
53.90381449752722
 20
18.69091435836887
 30
0.0
  0
LINE
  5
91
330
1F
100
AcDbEntity
  8
0
  6
Continuous
 62
     7
370
    25
100
AcDbLine
 10
53.9038144975
 20
18.6909143584
 30
0.0
 11
45.7108683892
 21
18.6909143584
 31
0.0
  0
SPLINE
  5
92
330
1F
100
AcDbEntity
  8
0
  6
Continuous
 62
     7
370
    25
100
AcDbSpline
210
0.0
220
0.0
230
1.0
 70
     8
 71
     3
 72
    14
 73
    10
 74
     0
 42
0.00000001
 43
0.00000001
 40
0.0
 40
0.0
 40
0.0
 40
0.0
 40
0.132317364830439
 40
0.2645973188387831
 40
0.3998364273285067
 40
0.5350511314348788
 40
0.6502525552916444
 40
0.76547194948634
 40
1.0
 40
1.0
 40
1.0
 40
1.0
 10
53.90381449752722
 20
18.69091435836887
 30
0.0
 10
54.01938267372449
 20
18.47889208237955
 30
0.0
 10
54.2504863508879
 20
18.05490747663438
 30
0.0
 10
54.4991761082152
 20
17.40200384748402
 30
0.0
 10
54.6485847599247
 20
16.73681269110779
 30
0.0
 10
54.67857075649466
 20
16.09564603973747
 30
0.0
 10
54.60054481926569
 20
15.48935082860671
 30
0.0
 10
54.39589963643515
 20
14.72315283597273
 30
0.0
 10
54.10133736004427
 20
14.16063876427387
 30
0.0
 10
53.90381449752722
 20
13.78343707025709
 30
0.0
  0
SPLINE
  5
93
330
1F
100
AcDbEntity
  8
0
  6
Continuous
 62
     7
370
    25
100
AcDbSpline
210
0.0
220
0.0
230
1.0
 70
     8
 71
     3
 72
    14
 73
    10
 74
     0
 42
0.00000001
 43
0.00000001
 40
0.0
 40
0.0
 40
0.0
 40
0.0
 40
0.132317364830439
 40
0.2645973188387832
 40
0.3998364273285067
 40
0.5350511314348788
 40
0.6502525552916444
 40
0.7654719494863401
 40
1.0
 40
1.0
 40
1.0
 40
1.0
 10
53.90381449752722
 20
33.41334622270438
 30
0.0
 10
54.01938267372449
 20
33.20132394671505
 30
0.0
 10
54.2504863508879
 20
32.77733934096988
 30
0.0
 10
54.4991761082152
 20
32.1244357118195
 30
0.0
 10
54.6485847599247
 20
31.45924455544327
 30
0.0
 10
54.67857075649466
 20
30.81807790407295
 30
0.0
 10
54.60054481926569
 20
30.21178269294218
 30
0.0
 10
54.39589963643515
 20
29.44558470030819
 30
0.0
 10
54.10133736004427
 20
28.88307062860933
 30
0.0
 10
53.90381449752722
 20
28.50586893459253
 30
0.0
  0
LINE
  5
94
330
1F
100
AcDbEntity
  8
0
  6
Continuous
 62
     7
370
    25
100
AcDbLine
 10
54.8073414434
 20
31.8483916465
 30
0.0
 11
54.8073414434
 21
15.3483916465
 31
0.0
  0
LINE
  5
95
330
1F
100
AcDbEntity
  8
0
  6
Continuous
 62
     7
370
    25
100
AcDbLine
 10
53.9038144975
 20
33.4133462227
 30
0.0
 11
45.7108683892
 21
33.4133462227
 31
0.0
  0
LINE
  5
96
330
1F
100
AcDbEntity
  8
0
  6
Continuous
 62
     7
370
    25
100
AcDbLine
 10
53.9038144975
 20
13.7834370703
 30
0.0
 11
45.7108683892
 21
13.7834370703
 31
0.0
  0
LINE
  5
97
330
1F
100
AcDbEntity
  8
0
  6
Continuous
 62
     7
370
    25
100
AcDbLine
 10
62.7185537896
 20
30.0543537607
 30
0.0
 11
62.7185537896
 21
17.1424295323
 31
0.0
  0
LINE
  5
98
330
1F
100
AcDbEntity
  8
0
  6
Continuous
 62
     7
370
    25
100
AcDbLine
 10
64.8073414434
 20
28.8483916465
 30
0.0
 11
64.8073414434
 21
18.3483916465
 31
0.0
  0
LINE
  5
99
330
1F
100
AcDbEntity
  8
0
  6
Continuous
 62
     7
370
    25
100
AcDbLine
 10
26.9253754321
 20
23.5983916465
 30
0.0
 11
26.9253754321
 21
13.5983916465
 31
0.0
  0
LINE
  5
9A
330
1F
100
AcDbEntity
  8
0
  6
Continuous
 62
     7
370
    25
100
AcDbLine
 10
26.9253754321
 20
33.5983916465
 30
0.0
 11
26.9253754321
 21
23.5983916465
 31
0.0
  0
LINE
  5
9B
330
1F
100
AcDbEntity
  8
0
  6
Continuous
 62
     7
370
    25
100
AcDbLine
 10
27.3073414434
 20
32.5983916465
 30
0.0
 11
27.3073414434
 21
29.0983916465
 31
0.0
  0
SPLINE
  5
9C
330
1F
100
AcDbEntity
  8
0
  6
Continuous
 62
     7
370
    25
100
AcDbSpline
210
0.0
220
0.0
230
1.0
 70
     8
 71
     3
 72
     8
 73
     4
 74
     0
 42
0.00000001
 43
0.00000001
 40
0.0
 40
0.0
 40
0.0
 40
0.0
 40
1.0
 40
1.0
 40
1.0
 40
1.0
 10
27.21014031872555
 20
28.99808149797657
 30
0.0
 10
27.27797673630161
 20
29.02944443898735
 30
0.0
 10
27.30734144337947
 20
29.06291259963691
 30
0.0
 10
27.30734144337947
 20
29.09839164648067
 30
0.0
  0
SPLINE
  5
9D
330
1F
100
AcDbEntity
  8
0
  6
Continuous
 62
     7
370
    25
100
AcDbSpline
210
0.0
220
0.0
230
1.0
 70
     8
 71
     3
 72
    12
 73
     8
 74
     0
 42
0.00000001
 43
0.00000001
 40
0.0
 40
0.0
 40
0.0
 40
0.0
 40
0.4999999999999992
 40
0.4999999999999992
 40
0.7499999999999996
 40
0.7499999999999996
 40
1.0
 40
1.0
 40
1.0
 40
1.0
 10
27.21014031872555
 20
28.99808149797657
 30
0.0
 10
27.14227055871575
 20
28.96670314169448
 30
0.0
 10
27.06623600746201
 20
28.83299462119593
 30
0.0
 10
27.019591409085
 20
28.55496851153015
 30
0.0
 10
27.01515241256236
 20
28.44812232752619
 30
0.0
 10
27.0308830263552
 20
28.22124085347044
 30
0.0
 10
27.05076345629757
 20
28.10107188116582
 30
0.0
 10
27.07825537627744
 20
27.97962223635558
 30
0.0
  0
SPLINE
  5
9E
330
1F
100
AcDbEntity
  8
0
  6
Continuous
 62
     7
370
    25
100
AcDbSpline
210
0.0
220
0.0
230
1.0
 70
     8
 71
     3
 72
    12
 73
     8
 74
     0
 42
0.00000001
 43
0.00000001
 40
0.0
 40
0.0
 40
0.0
 40
0.0
 40
0.5000000000000002
 40
0.5000000000000002
 40
0.7500000000000001
 40
0.7500000000000001
 40
1.0
 40
1.0
 40
1.0
 40
1.0
 10
27.30734144337947
 20
23.59839164648066
 30
0.0
 10
27.30734144337947
 20
24.33234866863788
 30
0.0
 10
27.3118988383787
 20
25.06532711300068
 30
0.0
 10
27.28471517399943
 20
26.1621512259471
 30
0.0
 10
27.26926550308223
 20
26.52729881451753
 30
0.0
 10
27.20640190155039
 20
27.25608682838158
 30
0.0
 10
27.15937197838207
 20
27.6212775837799
 30
0.0
 10
27.07825537627743
 20
27.97962223635558
 30
0.0
  0
LINE
  5
9F
330
1F
100
AcDbEntity
  8
0
  6
Continuous
 62
     7
370
    25
100
AcDbLine
 10
27.3060222623
 20
23.3011476966
 30
0.0
 11
27.3073414434
 21
23.5983916465
 31
0.0
  0
SPLINE
  5
A0
330
1F
100
AcDbEntity
  8
0
  6
Continuous
 62
     7
370
    25
100
AcDbSpline
210
0.0
220
0.0
230
1.0
 70
     8
 71
     3
 72
    14
 73
    10
 74
     0
 42
0.00000001
 43
0.00000001
 40
0.0
 40
0.0
 40
0.0
 40
0.0
 40
0.25
 40
0.25
 40
0.5
 40
0.5
 40
0.75
 40
0.75
 40
1.0
 40
1.0
 40
1.0
 40
1.0
 10
27.07825537627743
 20
19.21716105660577
 30
0.0
 10
27.05073438853236
 20
19.09558300062006
 30
0.0
 10
27.03081446669595
 20
18.97505826359493
 30
0.0
 10
27.01514742487789
 20
18.74808200448682
 30
0.0
 10
27.0196392566902
 20
18.64111202692065
 30
0.0
 10
27.05089560197378
 20
18.45564647514092
 30
0.0
 10
27.07726818535555
 20
18.37676121402209
 30
0.0
 10
27.14010473649985
 20
18.25612342284899
 30
0.0
 10
27.17614431535994
 20
18.21441923240638
 30
0.0
 10
27.21014031872555
 20
18.19870179498478
 30
0.0
  0
SPLINE
  5
A1
330
1F
100
AcDbEntity
  8
0
  6
Continuous
 62
     7
370
    25
100
AcDbSpline
210
0.0
220
0.0
230
1.0
 70
     8
 71
     3
 72
     8
 73
     4
 74
     0
 42
0.00000001
 43
0.00000001
 40
0.0
 40
0.0
 40
0.0
 40
0.0
 40
1.0
 40
1.0
 40
1.0
 40
1.0
 10
27.30734144337947
 20
18.09839164648067
 30
0.0
 10
27.30734144337947
 20
18.13387069332445
 30
0.0
 10
27.27797673630161
 20
18.167338853974
 30
0.0
 10
27.21014031872555
 20
18.19870179498478
 30
0.0
  0
LINE
  5
A2
330
1F
100
AcDbEntity
  8
0
  6
Continuous
 62
     7
370
    25
100
AcDbLine
 10
27.3073414434
 20
18.0983916465
 30
0.0
 11
27.3073414434
 21
14.5983916465
 31
0.0
  0
LINE
  5
A3
330
1F
100
AcDbEntity
  8
0
  6
Continuous
 62
     7
370
    25
100
AcDbLine
 10
44.8073414434
 20
33.3483916465
 30
0.0
 11
44.8073414434
 21
13.8483916465
 31
0.0
  0
LINE
  5
A4
330
1F
100
AcDbEntity
  8
0
  6
Continuous
 62
     7
370
    25
100
AcDbLine
 10
44.5573414434
 20
13.5983916465
 30
0.0
 11
44.5573414434
 21
33.5983916465
 31
0.0
  0
LINE
  5
A5
330
1F
100
AcDbEntity
  8
0
  6
Continuous
 62
     7
370
    25
100
AcDbLine
 10
42.6893074546
 20
13.5983916465
 30
0.0
 11
42.6893074546
 21
33.5983916465
 31
0.0
  0
LINE
  5
A6
330
1F
100
AcDbEntity
  8
0
  6
Continuous
 62
     7
370
    25
100
AcDbLine
 10
25.3073414434
 20
23.5983916465
 30
0.0
 11
25.3073414434
 21
13.5983916465
 31
0.0
  0
LINE
  5
A7
330
1F
100
AcDbEntity
  8
0
  6
Continuous
 62
     7
370
    25
100
AcDbLine
 10
25.3073414434
 20
33.5983916465
 30
0.0
 11
25.3073414434
 21
23.5983916465
 31
0.0
  0
LINE
  5
A8
330
1F
100
AcDbEntity
  8
0
  6
Continuous
 62
     7
370
    25
100
AcDbLine
 10
24.8073414434
 20
23.5983916465
 30
0.0
 11
24.8073414434
 21
33.0983916465
 31
0.0
  0
LINE
  5
A9
330
1F
100
AcDbEntity
  8
0
  6
Continuous
 62
     7
370
    25
100
AcDbLine
 10
24.8073414434
 20
14.0983916465
 30
0.0
 11
24.8073414434
 21
23.5983916465
 31
0.0
  0
SPLINE
  5
AA
330
1F
100
AcDbEntity
  8
0
  6
Continuous
 62
     7
370
    25
100
AcDbSpline
210
0.0
220
0.0
230
1.0
 70
     8
 71
     3
 72
    12
 73
     8
 74
     0
 42
0.00000001
 43
0.00000001
 40
0.0
 40
0.0
 40
0.0
 40
0.0
 40
0.5000000000000001
 40
0.5000000000000001
 40
0.75
 40
0.75
 40
1.0
 40
1.0
 40
1.0
 40
1.0
 10
42.30734144337947
 20
23.59839164648069
 30
0.0
 10
42.30734144337947
 20
22.86443462432347
 30
0.0
 10
42.30278404838024
 20
22.13145617996066
 30
0.0
 10
42.32996771275951
 20
21.03463206701425
 30
0.0
 10
42.34541738367671
 20
20.66948447844382
 30
0.0
 10
42.40828098520856
 20
19.94069646457977
 30
0.0
 10
42.45531090837687
 20
19.57550570918145
 30
0.0
 10
42.53642751048151
 20
19.21716105660577
 30
0.0
  0
LINE
  5
AB
330
1F
100
AcDbEntity
  8
0
  6
Continuous
 62
     7
370
    25
100
AcDbLine
 10
42.3086606245
 20
23.8956355964
 30
0.0
 11
42.3073414434
 21
23.5983916465
 31
0.0
  0
SPLINE
  5
AC
330
1F
100
AcDbEntity
  8
0
  6
Continuous
 62
     7
370
    25
100
AcDbSpline
210
0.0
220
0.0
230
1.0
 70
     8
 71
     3
 72
    14
 73
    10
 74
     0
 42
0.00000001
 43
0.00000001
 40
0.0
 40
0.0
 40
0.0
 40
0.0
 40
0.25
 40
0.25
 40
0.5
 40
0.5
 40
0.75
 40
0.75
 40
1.0
 40
1.0
 40
1.0
 40
1.0
 10
42.53642751048151
 20
27.97962223635558
 30
0.0
 10
42.56394849822658
 20
28.1012002923413
 30
0.0
 10
42.583868420063
 20
28.22172502936642
 30
0.0
 10
42.59953546188105
 20
28.44870128847453
 30
0.0
 10
42.59504363006873
 20
28.5556712660407
 30
0.0
 10
42.56378728478516
 20
28.74113681782043
 30
0.0
 10
42.53741470140339
 20
28.82002207893926
 30
0.0
 10
42.47457815025909
 20
28.94065987011236
 30
0.0
 10
42.43853857139899
 20
28.98236406055497
 30
0.0
 10
42.40454256803339
 20
28.99808149797657
 30
0.0
  0
SPLINE
  5
AD
330
1F
100
AcDbEntity
  8
0
  6
Continuous
 62
     7
370
    25
100
AcDbSpline
210
0.0
220
0.0
230
1.0
 70
     8
 71
     3
 72
     8
 73
     4
 74
     0
 42
0.00000001
 43
0.00000001
 40
0.0
 40
0.0
 40
0.0
 40
0.0
 40
1.0
 40
1.0
 40
1.0
 40
1.0
 10
42.30734144337947
 20
29.09839164648067
 30
0.0
 10
42.30734144337947
 20
29.06291259963691
 30
0.0
 10
42.33670615045733
 20
29.02944443898735
 30
0.0
 10
42.40454256803339
 20
28.99808149797657
 30
0.0
  0
LINE
  5
AE
330
1F
100
AcDbEntity
  8
0
  6
Continuous
 62
     7
370
    25
100
AcDbLine
 10
42.3073414434
 20
29.0983916465
 30
0.0
 11
42.3073414434
 21
32.5983916465
 31
0.0
  0
LINE
  5
AF
330
1F
100
AcDbEntity
  8
0
  6
Continuous
 62
     7
370
    25
100
AcDbLine
 10
42.3073414434
 20
14.5983916465
 30
0.0
 11
42.3073414434
 21
18.0983916465
 31
0.0
  0
SPLINE
  5
B0
330
1F
100
AcDbEntity
  8
0
  6
Continuous
 62
     7
370
    25
100
AcDbSpline
210
0.0
220
0.0
230
1.0
 70
     8
 71
     3
 72
     8
 73
     4
 74
     0
 42
0.00000001
 43
0.00000001
 40
0.0
 40
0.0
 40
0.0
 40
0.0
 40
1.0
 40
1.0
 40
1.0
 40
1.0
 10
42.40454256803339
 20
18.19870179498478
 30
0.0
 10
42.33670615045733
 20
18.167338853974
 30
0.0
 10
42.30734144337947
 20
18.13387069332445
 30
0.0
 10
42.30734144337947
 20
18.09839164648067
 30
0.0
  0
SPLINE
  5
B1
330
1F
100
AcDbEntity
  8
0
  6
Continuous
 62
     7
370
    25
100
AcDbSpline
210
0.0
220
0.0
230
1.0
 70
     8
 71
     3
 72
    12
 73
     8
 74
     0
 42
0.00000001
 43
0.00000001
 40
0.0
 40
0.0
 40
0.0
 40
0.0
 40
0.5000000000000001
 40
0.5000000000000001
 40
0.75
 40
0.75
 40
1.0
 40
1.0
 40
1.0
 40
1.0
 10
42.40454256803339
 20
18.19870179498478
 30
0.0
 10
42.47241232804319
 20
18.23008015126688
 30
0.0
 10
42.54844687929694
 20
18.36378867176543
 30
0.0
 10
42.59509147767394
 20
18.64181478143121
 30
0.0
 10
42.59953047419658
 20
18.74866096543517
 30
0.0
 10
42.58379986040374
 20
18.97554243949092
 30
0.0
 10
42.56391943046137
 20
19.09571141179553
 30
0.0
 10
42.53642751048151
 20
19.21716105660577
 30
0.0
  0
LINE
  5
B2
330
1F
100
AcDbEntity
  8
0
  6
Continuous
 62
     7
370
    25
100
AcDbLine
 10
42.3073414434
 20
23.5983916465
 30
0.0
 11
41.8073414434
 21
23.5983916465
 31
0.0
  0
SPLINE
  5
B3
330
1F
100
AcDbEntity
  8
0
  6
Continuous
 62
     7
370
    25
100
AcDbSpline
210
0.0
220
0.0
230
1.0
 70
     8
 71
     3
 72
    14
 73
    10
 74
     0
 42
0.00000001
 43
0.00000001
 40
0.0
 40
0.0
 40
0.0
 40
0.0
 40
0.25
 40
0.25
 40
0.5
 40
0.5
 40
0.75
 40
0.75
 40
1.0
 40
1.0
 40
1.0
 40
1.0
 10
41.80734144337947
 20
23.59839164648067
 30
0.0
 10
41.80734144337947
 20
23.97490835856764
 30
0.0
 10
41.80693218165982
 20
24.35144441619661
 30
0.0
 10
41.81024352976571
 20
25.10432131504519
 30
0.0
 10
41.81400701523037
 20
25.48066012956054
 30
0.0
 10
41.83978027101008
 20
26.23247526827568
 30
0.0
 10
41.8616983656886
 20
26.60795592592468
 30
0.0
 10
41.94691602887386
 20
27.35696116519337
 30
0.0
 10
42.01022901502476
 20
27.73256908063482
 30
0.0
 10
42.11278953284885
 20
28.09839164648067
 30
0.0
  0
LINE
  5
B4
330
1F
100
AcDbEntity
  8
0
  6
Continuous
 62
     7
370
    25
100
AcDbLine
 10
42.5364275105
 20
27.9796222364
 30
0.0
 11
42.1127895328
 21
28.0983916465
 31
0.0
  0
SPLINE
  5
B5
330
1F
100
AcDbEntity
  8
0
  6
Continuous
 62
     7
370
    25
100
AcDbSpline
210
0.0
220
0.0
230
1.0
 70
     8
 71
     3
 72
    14
 73
    10
 74
     0
 42
0.00000001
 43
0.00000001
 40
0.0
 40
0.0
 40
0.0
 40
0.0
 40
0.2499999999999999
 40
0.2499999999999999
 40
0.4999999999999998
 40
0.4999999999999998
 40
0.7499999999999999
 40
0.7499999999999999
 40
1.0
 40
1.0
 40
1.0
 40
1.0
 10
27.50189335391009
 20
28.09839164648067
 30
0.0
 10
27.60445387173419
 20
27.73256908063482
 30
0.0
 10
27.66776685788508
 20
27.35696116519337
 30
0.0
 10
27.75298452107035
 20
26.60795592592468
 30
0.0
 10
27.77490261574886
 20
26.23247526827568
 30
0.0
 10
27.80067587152858
 20
25.48066012956054
 30
0.0
 10
27.80443935699323
 20
25.10432131504519
 30
0.0
 10
27.80775070509912
 20
24.3514444161966
 30
0.0
 10
27.80734144337947
 20
23.97490835856764
 30
0.0
 10
27.80734144337947
 20
23.59839164648066
 30
0.0
  0
LINE
  5
B6
330
1F
100
AcDbEntity
  8
0
  6
Continuous
 62
     7
370
    25
100
AcDbLine
 10
27.8073414434
 20
23.5983916465
 30
0.0
 11
27.3073414434
 21
23.5983916465
 31
0.0
  0
LINE
  5
B7
330
1F
100
AcDbEntity
  8
0
  6
Continuous
 62
     7
370
    25
100
AcDbLine
 10
27.5018933539
 20
28.0983916465
 30
0.0
 11
27.0782553763
 21
27.9796222364
 31
0.0
  0
SPLINE
  5
B8
330
1F
100
AcDbEntity
  8
0
  6
Continuous
 62
     7
370
    25
100
AcDbSpline
210
0.0
220
0.0
230
1.0
 70
     8
 71
     3
 72
    14
 73
    10
 74
     0
 42
0.00000001
 43
0.00000001
 40
0.0
 40
0.0
 40
0.0
 40
0.0
 40
0.2500000000000001
 40
0.2500000000000001
 40
0.5
 40
0.5
 40
0.75
 40
0.75
 40
1.0
 40
1.0
 40
1.0
 40
1.0
 10
27.80734144337947
 20
23.59839164648068
 30
0.0
 10
27.80734144337947
 20
23.22187493439371
 30
0.0
 10
27.80775070509912
 20
22.84533887676475
 30
0.0
 10
27.80443935699324
 20
22.09246197791617
 30
0.0
 10
27.80067587152858
 20
21.71612316340082
 30
0.0
 10
27.77490261574886
 20
20.96430802468567
 30
0.0
 10
27.75298452107035
 20
20.58882736703667
 30
0.0
 10
27.66776685788508
 20
19.83982212776798
 30
0.0
 10
27.60445387173419
 20
19.46421421232653
 30
0.0
 10
27.50189335391009
 20
19.09839164648068
 30
0.0
  0
LINE
  5
B9
330
1F
100
AcDbEntity
  8
0
  6
Continuous
 62
     7
370
    25
100
AcDbLine
 10
27.5018933539
 20
19.0983916465
 30
0.0
 11
27.0782553763
 21
19.2171610566
 31
0.0
  0
LINE
  5
BA
330
1F
100
AcDbEntity
  8
0
  6
Continuous
 62
     7
370
    25
100
AcDbLine
 10
42.5364275105
 20
19.2171610566
 30
0.0
 11
42.1127895328
 21
19.0983916465
 31
0.0
  0
SPLINE
  5
BB
330
1F
100
AcDbEntity
  8
0
  6
Continuous
 62
     7
370
    25
100
AcDbSpline
210
0.0
220
0.0
230
1.0
 70
     8
 71
     3
 72
    14
 73
    10
 74
     0
 42
0.00000001
 43
0.00000001
 40
0.0
 40
0.0
 40
0.0
 40
0.0
 40
0.25
 40
0.25
 40
0.5
 40
0.5
 40
0.75
 40
0.75
 40
1.0
 40
1.0
 40
1.0
 40
1.0
 10
42.11278953284885
 20
19.09839164648068
 30
0.0
 10
42.01022901502475
 20
19.46421421232653
 30
0.0
 10
41.94691602887386
 20
19.83982212776798
 30
0.0
 10
41.8616983656886
 20
20.58882736703667
 30
0.0
 10
41.83978027101008
 20
20.96430802468567
 30
0.0
 10
41.81400701523037
 20
21.71612316340082
 30
0.0
 10
41.81024352976571
 20
22.09246197791617
 30
0.0
 10
41.80693218165982
 20
22.84533887676475
 30
0.0
 10
41.80734144337947
 20
23.22187493439371
 30
0.0
 10
41.80734144337947
 20
23.59839164648069
 30
0.0
  0
SPLINE
  5
BC
330
1F
100
AcDbEntity
  8
0
  6
Continuous
 62
     7
370
    25
100
AcDbSpline
210
0.0
220
0.0
230
1.0
 70
     8
 71
     3
 72
    14
 73
    10
 74
     0
 42
0.00000001
 43
0.00000001
 40
0.0
 40
0.0
 40
0.0
 40
0.0
 40
0.25
 40
0.25
 40
0.5
 40
0.5
 40
0.75
 40
0.75
 40
1.0
 40
1.0
 40
1.0
 40
1.0
 10
27.67773994384091
 20
18.59839164648068
 30
0.0
 10
27.63926446021931
 20
18.59839164648068
 30
0.0
 10
27.5981755387493
 20
18.6091782174639
 30
0.0
 10
27.51889269130873
 20
18.65211000452905
 30
0.0
 10
27.48160979019827
 20
18.68352751283393
 30
0.0
 10
27.4288040308865
 20
18.77484235841014
 30
0.0
 10
27.41683477079286
 20
18.8360728411744
 30
0.0
 10
27.43683655916502
 20
18.96693620183013
 30
0.0
 10
27.46629301471733
 20
19.03490031616771
 30
0.0
 10
27.50189335391009
 20
19.09839164648068
 30
0.0
  0
ARC
  5
BD
330
1F
100
AcDbEntity
  8
0
  6
Continuous
 62
     7
370
    25
100
AcDbCircle
 10
27.6862885274
 20
18.1150218358
 30
0.0
 40
0.4834453973191967
100
AcDbArc
 50
91.0131925738
 51
170.032425387
  0
SPLINE
  5
BE
330
1F
100
AcDbEntity
  8
0
  6
Continuous
 62
     7
370
    25
100
AcDbSpline
210
0.0
220
0.0
230
1.0
 70
     8
 71
     3
 72
    14
 73
    10
 74
     0
 42
0.00000001
 43
0.00000001
 40
0.0
 40
0.0
 40
0.0
 40
0.0
 40
0.25
 40
0.25
 40
0.5
 40
0.5
 40
0.75
 40
0.75
 40
1.0
 40
1.0
 40
1.0
 40
1.0
 10
41.93694294291803
 20
28.59839164648067
 30
0.0
 10
41.97541842653963
 20
28.59839164648067
 30
0.0
 10
42.01650734800965
 20
28.58760507549746
 30
0.0
 10
42.09579019545021
 20
28.5446732884323
 30
0.0
 10
42.13307309656067
 20
28.51325578012743
 30
0.0
 10
42.18587885587245
 20
28.42194093455121
 30
0.0
 10
42.19784811596607
 20
28.36071045178695
 30
0.0
 10
42.17784632759391
 20
28.22984709113123
 30
0.0
 10
42.14838987204161
 20
28.16188297679364
 30
0.0
 10
42.11278953284885
 20
28.09839164648067
 30
0.0
  0
ARC
  5
BF
330
1F
100
AcDbEntity
  8
0
  6
Continuous
 62
     7
370
    25
100
AcDbCircle
 10
41.9283943594
 20
29.0817614572
 30
0.0
 40
0.4834453973191782
100
AcDbArc
 50
271.0131925738
 51
350.032425387
  0
SPLINE
  5
C0
330
1F
100
AcDbEntity
  8
0
  6
Continuous
 62
     7
370
    25
100
AcDbSpline
210
0.0
220
0.0
230
1.0
 70
     8
 71
     3
 72
    16
 73
    12
 74
     0
 42
0.00000001
 43
0.00000001
 40
0.0
 40
0.0
 40
0.0
 40
0.0
 40
0.2500000000000011
 40
0.2500000000000011
 40
0.3749999999999992
 40
0.3749999999999992
 40
0.4999999999999974
 40
0.4999999999999974
 40
0.7499999999999987
 40
0.7499999999999987
 40
1.0
 40
1.0
 40
1.0
 40
1.0
 10
27.50189335391009
 20
28.09839164648067
 30
0.0
 10
27.46633942446143
 20
28.16180020745887
 30
0.0
 10
27.43706728323274
 20
28.22906750777969
 30
0.0
 10
27.42185473301186
 20
28.32750681892203
 30
0.0
 10
27.42179406483832
 20
28.35998222527732
 30
0.0
 10
27.43200464931564
 20
28.41860743240352
 30
0.0
 10
27.44178797884088
 20
28.4442302439565
 30
0.0
 10
27.48095252737282
 20
28.51243908765195
 30
0.0
 10
27.51882560064609
 20
28.54460184281773
 30
0.0
 10
27.59789857363767
 20
28.58749006193362
 30
0.0
 10
27.63928570622849
 20
28.59839164648068
 30
0.0
 10
27.6777399438409
 20
28.59839164648067
 30
0.0
  0
ARC
  5
C1
330
1F
100
AcDbEntity
  8
0
  6
Continuous
 62
     7
370
    25
100
AcDbCircle
 10
27.6862885274
 20
29.0817614572
 30
0.0
 40
0.4834453973191931
100
AcDbArc
 50
189.967574613
 51
268.9868074262
  0
ARC
  5
C2
330
1F
100
AcDbEntity
  8
0
  6
Continuous
 62
     7
370
    25
100
AcDbCircle
 10
41.9283943594
 20
18.1150218358
 30
0.0
 40
0.4834453973191858
100
AcDbArc
 50
9.967574613
 51
88.9868074262
  0
SPLINE
  5
C3
330
1F
100
AcDbEntity
  8
0
  6
Continuous
 62
     7
370
    25
100
AcDbSpline
210
0.0
220
0.0
230
1.0
 70
     8
 71
     3
 72
    16
 73
    12
 74
     0
 42
0.00000001
 43
0.00000001
 40
0.0
 40
0.0
 40
0.0
 40
0.0
 40
0.2500000000000008
 40
0.2500000000000008
 40
0.3750000000000017
 40
0.3750000000000017
 40
0.5000000000000026
 40
0.5000000000000026
 40
0.7500000000000012
 40
0.7500000000000012
 40
1.0
 40
1.0
 40
1.0
 40
1.0
 10
42.11278953284885
 20
19.09839164648068
 30
0.0
 10
42.14834346229751
 20
19.03498308550248
 30
0.0
 10
42.17761560352621
 20
18.96771578518167
 30
0.0
 10
42.19282815374708
 20
18.86927647403932
 30
0.0
 10
42.19288882192062
 20
18.83680106768404
 30
0.0
 10
42.1826782374433
 20
18.77817586055783
 30
0.0
 10
42.17289490791806
 20
18.75255304900485
 30
0.0
 10
42.13373035938612
 20
18.6843442053094
 30
0.0
 10
42.09585728611285
 20
18.65218145014363
 30
0.0
 10
42.01678431312126
 20
18.60929323102774
 30
0.0
 10
41.97539718053044
 20
18.59839164648068
 30
0.0
 10
41.93694294291803
 20
18.59839164648068
 30
0.0
  0
LINE
  5
C4
330
1F
100
AcDbEntity
  8
0
  6
Continuous
 62
     7
370
    25
100
AcDbLine
 10
27.6777399438
 20
28.5983916465
 30
0.0
 11
41.9369429429
 21
28.5983916465
 31
0.0
  0
LINE
  5
C5
330
1F
100
AcDbEntity
  8
0
  6
Continuous
 62
     7
370
    25
100
AcDbLine
 10
42.1127895328
 20
28.0983916465
 30
0.0
 11
27.5018933539
 21
28.0983916465
 31
0.0
  0
LINE
  5
C6
330
1F
100
AcDbEntity
  8
0
  6
Continuous
 62
     7
370
    25
100
AcDbLine
 10
27.5018933539
 20
19.0983916465
 30
0.0
 11
42.1127895328
 21
19.0983916465
 31
0.0
  0
LINE
  5
C7
330
1F
100
AcDbEntity
  8
0
  6
Continuous
 62
     7
370
    25
100
AcDbLine
 10
41.9369429429
 20
18.5983916465
 30
0.0
 11
27.6777399438
 21
18.5983916465
 31
0.0
  0
ARC
  5
C8
330
1F
100
AcDbEntity
  8
0
  6
Continuous
 62
     7
370
    25
100
AcDbCircle
 10
27.8073414434
 20
29.0983916465
 30
0.0
 40
0.5
100
AcDbArc
 50
180.0
 51
270.0
  0
ARC
  5
C9
330
1F
100
AcDbEntity
  8
0
  6
Continuous
 62
     7
370
    25
100
AcDbCircle
 10
41.8073414434
 20
29.0983916465
 30
0.0
 40
0.5
100
AcDbArc
 50
270.0
 51
0.0
  0
ARC
  5
CA
330
1F
100
AcDbEntity
  8
0
  6
Continuous
 62
     7
370
    25
100
AcDbCircle
 10
27.8073414434
 20
18.0983916465
 30
0.0
 40
0.5000000000000036
100
AcDbArc
 50
90.0
 51
180.0
  0
ARC
  5
CB
330
1F
100
AcDbEntity
  8
0
  6
Continuous
 62
     7
370
    25
100
AcDbCircle
 10
41.8073414434
 20
18.0983916465
 30
0.0
 40
0.5000000000000036
100
AcDbArc
 50
0.0
 51
90.0
  0
LWPOLYLINE
  5
CC
330
1F
100
AcDbEntity
  8
0
  6
Continuous
 62
     7
370
    25
100
AcDbPolyline
 90
        9
 70
   128
 43
0.0
 10
41.8073414434
 20
18.403947202
 10
41.9048866044
 20
18.3980760377
 10
41.9986831596
 20
18.3806881703
 10
42.0851265599
 20
18.3524518058
 10
42.160894834
 20
18.3144520518
 10
42.2230762495
 20
18.2681492177
 10
42.2692812096
 20
18.2153226953
 10
42.2977340836
 20
18.1580025782
 10
42.3073414434
 20
18.0983916465
  0
LINE
  5
CD
330
1F
100
AcDbEntity
  8
0
  6
Continuous
 62
     7
370
    25
100
AcDbLine
 10
41.8073414434
 20
18.5983916465
 30
0.0
 11
41.8073414434
 21
18.403947202
 31
0.0
  0
LINE
  5
CE
330
1F
100
AcDbEntity
  8
0
  6
Continuous
 62
     7
370
    25
100
AcDbLine
 10
41.8073414434
 20
18.403947202
 30
0.0
 11
27.8073414434
 21
18.403947202
 31
0.0
  0
LINE
  5
CF
330
1F
100
AcDbEntity
  8
0
  6
Continuous
 62
     7
370
    25
100
AcDbLine
 10
27.8073414434
 20
18.5983916465
 30
0.0
 11
27.8073414434
 21
18.403947202
 31
0.0
  0
LWPOLYLINE
  5
D0
330
1F
100
AcDbEntity
  8
0
  6
Continuous
 62
     7
370
    25
100
AcDbPolyline
 90
        9
 70
   128
 43
0.0
 10
27.3073414434
 20
18.0983916465
 10
27.3169488032
 20
18.1580025782
 10
27.3454016771
 20
18.2153226953
 10
27.3916066372
 20
18.2681492177
 10
27.4537880528
 20
18.3144520518
 10
27.5295563269
 20
18.3524518058
 10
27.6159997272
 20
18.3806881703
 10
27.7097962824
 20
18.3980760377
 10
27.8073414434
 20
18.403947202
  0
LINE
  5
D1
330
1F
100
AcDbEntity
  8
0
  6
Continuous
 62
     7
370
    25
100
AcDbLine
 10
41.8073414434
 20
28.7928360909
 30
0.0
 11
41.8073414434
 21
28.5983916465
 31
0.0
  0
LWPOLYLINE
  5
D2
330
1F
100
AcDbEntity
  8
0
  6
Continuous
 62
     7
370
    25
100
AcDbPolyline
 90
        9
 70
   128
 43
0.0
 10
42.3073414434
 20
29.0983916465
 10
42.2977340836
 20
29.0387807148
 10
42.2692812096
 20
28.9814605977
 10
42.2230762495
 20
28.9286340753
 10
42.160894834
 20
28.8823312411
 10
42.0851265599
 20
28.8443314872
 10
41.9986831596
 20
28.8160951227
 10
41.9048866044
 20
28.7987072552
 10
41.8073414434
 20
28.7928360909
  0
LWPOLYLINE
  5
D3
330
1F
100
AcDbEntity
  8
0
  6
Continuous
 62
     7
370
    25
100
AcDbPolyline
 90
        9
 70
   128
 43
0.0
 10
27.8073414434
 20
28.7928360909
 10
27.7097962824
 20
28.7987072552
 10
27.6159997272
 20
28.8160951227
 10
27.5295563269
 20
28.8443314872
 10
27.4537880528
 20
28.8823312411
 10
27.3916066372
 20
28.9286340753
 10
27.3454016771
 20
28.9814605977
 10
27.3169488032
 20
29.0387807148
 10
27.3073414434
 20
29.0983916465
  0
LINE
  5
D4
330
1F
100
AcDbEntity
  8
0
  6
Continuous
 62
     7
370
    25
100
AcDbLine
 10
27.8073414434
 20
28.7928360909
 30
0.0
 11
27.8073414434
 21
28.5983916465
 31
0.0
  0
LINE
  5
D5
330
1F
100
AcDbEntity
  8
0
  6
Continuous
 62
     7
370
    25
100
AcDbLine
 10
27.8073414434
 20
28.7928360909
 30
0.0
 11
41.8073414434
 21
28.7928360909
 31
0.0
  0
LINE
  5
D6
330
1F
100
AcDbEntity
  8
0
  6
Continuous
 62
     7
370
    25
100
AcDbLine
 10
17.012865901
 20
17.0750315072
 30
0.0
 11
17.012865901
 21
30.1217517858
 31
0.0
  0
LINE
  5
D7
330
1F
100
AcDbEntity
  8
0
  6
Continuous
 62
     7
370
    25
100
AcDbLine
 10
14.8073414434
 20
23.5983916465
 30
0.0
 11
14.8073414434
 21
28.8483916465
 31
0.0
  0
LINE
  5
D8
330
1F
100
AcDbEntity
  8
0
  6
Continuous
 62
     7
370
    25
100
AcDbLine
 10
14.8073414434
 20
18.3483916465
 30
0.0
 11
14.8073414434
 21
23.5983916465
 31
0.0
  0
LINE
  5
D9
330
1F
100
AcDbEntity
  8
0
  6
Continuous
 62
     7
370
    25
100
AcDbLine
 10
40.046426776
 20
50.0983916465
 30
0.0
 11
40.046426776
 21
50.6983916465
 31
0.0
  0
LINE
  5
DA
330
1F
100
AcDbEntity
  8
0
  6
Continuous
 62
     7
370
    25
100
AcDbLine
 10
29.5682561107
 20
50.6983916465
 30
0.0
 11
29.5682561107
 21
50.0983916465
 31
0.0
  0
LINE
  5
DB
330
1F
100
AcDbEntity
  8
0
  6
Continuous
 62
     7
370
    25
100
AcDbLine
 10
40.046426776
 20
50.6983916465
 30
0.0
 11
29.5682561107
 21
50.6983916465
 31
0.0
  0
LINE
  5
DC
330
1F
100
AcDbEntity
  8
0
  6
Continuous
 62
     7
370
    25
100
AcDbLine
 10
29.5682561107
 20
50.0983916465
 30
0.0
 11
40.046426776
 21
50.0983916465
 31
0.0
  0
SPLINE
  5
DD
330
1F
100
AcDbEntity
  8
0
  6
Continuous
 62
     7
370
    25
100
AcDbSpline
210
0.0
220
0.0
230
1.0
 70
     8
 71
     3
 72
    15
 73
    11
 74
     0
 42
0.00000001
 43
0.00000001
 40
0.0
 40
0.0
 40
0.0
 40
0.0
 40
0.0090459071881971
 40
0.1032433785236815
 40
0.1542564497735188
 40
0.3133169026715099
 40
0.5243720399414424
 40
0.6678060008509183
 40
0.9918332554187027
 40
0.9999999999999999
 40
0.9999999999999999
 40
0.9999999999999999
 40
0.9999999999999999
 10
40.04642677603757
 20
50.69839164648068
 30
0.0
 10
40.0464210840709
 20
50.70007274506509
 30
0.0
 10
40.04635612012011
 20
50.71925957662059
 30
0.0
 10
40.04436043368422
 20
50.7479538561406
 30
0.0
 10
40.03654343746776
 20
50.79862989611253
 30
0.0
 10
40.0193736137128
 20
50.85650619568945
 30
0.0
 10
39.99278971714526
 20
50.90137171042411
 30
0.0
 10
39.95496041865663
 20
50.93873409367866
 30
0.0
 10
39.92667963864641
 20
50.94828010594809
 30
0.0
 10
39.90684849111511
 20
50.9483889701349
 30
0.0
 10
39.90636095697224
 20
50.94839164648068
 30
0.0
  0
SPLINE
  5
DE
330
1F
100
AcDbEntity
  8
0
  6
Continuous
 62
     7
370
    25
100
AcDbSpline
210
0.0
220
0.0
230
1.0
 70
     8
 71
     3
 72
    15
 73
    11
 74
     0
 42
0.00000001
 43
0.00000001
 40
0.0
 40
0.0
 40
0.0
 40
0.0
 40
0.0081667445812973
 40
0.3321939991490802
 40
0.4756279600585562
 40
0.6866830973284892
 40
0.8457435502264752
 40
0.8967566214763124
 40
0.9909540928118028
 40
1.0
 40
1.0
 40
1.0
 40
1.0
 10
29.70832192978667
 20
50.94839164648068
 30
0.0
 10
29.7078343956438
 20
50.9483889701349
 30
0.0
 10
29.68800324811255
 20
50.94828010594806
 30
0.0
 10
29.65972246810228
 20
50.93873409367866
 30
0.0
 10
29.62189316961366
 20
50.90137171042411
 30
0.0
 10
29.59530927304612
 20
50.85650619568943
 30
0.0
 10
29.57813944929116
 20
50.79862989611253
 30
0.0
 10
29.5703224530747
 20
50.7479538561406
 30
0.0
 10
29.56832676663882
 20
50.71925957662059
 30
0.0
 10
29.56826180268802
 20
50.70007274506511
 30
0.0
 10
29.56825611072135
 20
50.69839164648069
 30
0.0
  0
LINE
  5
DF
330
1F
100
AcDbEntity
  8
0
  6
Continuous
 62
     7
370
    25
100
AcDbLine
 10
29.7083219298
 20
50.9483916465
 30
0.0
 11
39.906360957
 21
50.9483916465
 31
0.0
  0
SPLINE
  5
E0
330
1F
100
AcDbEntity
  8
0
  6
Continuous
 62
     7
370
    25
100
AcDbSpline
210
0.0
220
0.0
230
1.0
 70
     8
 71
     3
 72
    15
 73
    11
 74
     0
 42
0.00000001
 43
0.00000001
 40
0.0
 40
0.0
 40
0.0
 40
0.0
 40
0.0089557228015919
 40
0.0999003359608209
 40
0.1531632460581751
 40
0.3125636920784905
 40
0.5249666935695062
 40
0.6689893599351778
 40
0.991915253381045
 40
1.0
 40
1.0
 40
1.0
 40
1.0
 10
29.3301158683278
 20
50.69839164648068
 30
0.0
 10
29.3301316239064
 20
50.70007277205359
 30
0.0
 10
29.33030737606297
 20
50.71882558667801
 30
0.0
 10
29.33573639208248
 20
50.74758781578554
 30
0.0
 10
29.35727187578981
 20
50.79847488925383
 30
0.0
 10
29.40497730405462
 20
50.85661053938649
 30
0.0
 10
29.47736824904655
 20
50.90131841256989
 30
0.0
 10
29.57928736106422
 20
50.93860023603164
 30
0.0
 10
29.65464245251925
 20
50.94827939086927
 30
0.0
 10
29.70704209824255
 20
50.94838897007099
 30
0.0
 10
29.70832192978667
 20
50.94839164648068
 30
0.0
  0
LINE
  5
E1
330
1F
100
AcDbEntity
  8
0
  6
Continuous
 62
     7
370
    25
100
AcDbLine
 10
29.3301158683
 20
50.6983916465
 30
0.0
 11
29.5682561107
 21
50.6983916465
 31
0.0
  0
SPLINE
  5
E2
330
1F
100
AcDbEntity
  8
0
  6
Continuous
 62
     7
370
    25
100
AcDbSpline
210
0.0
220
0.0
230
1.0
 70
     8
 71
     3
 72
    15
 73
    11
 74
     0
 42
0.00000001
 43
0.00000001
 40
0.0
 40
0.0
 40
0.0
 40
0.0
 40
0.0080847466189582
 40
0.3310106400648242
 40
0.4750333064304946
 40
0.687436307921514
 40
0.8468367539418302
 40
0.9000996640391846
 40
0.991044277198408
 40
1.0
 40
1.0
 40
1.0
 40
1.0
 10
39.90636095697224
 20
50.94839164648068
 30
0.0
 10
39.90764078851637
 20
50.94838897007099
 30
0.0
 10
39.96004043423962
 20
50.94827939086928
 30
0.0
 10
40.03539552569472
 20
50.93860023603165
 30
0.0
 10
40.13731463771237
 20
50.90131841256989
 30
0.0
 10
40.2097055827043
 20
50.85661053938647
 30
0.0
 10
40.25741101096911
 20
50.79847488925383
 30
0.0
 10
40.27894649467643
 20
50.74758781578552
 30
0.0
 10
40.28437551069595
 20
50.71882558667804
 30
0.0
 10
40.28455126285252
 20
50.70007277205359
 30
0.0
 10
40.28456701843113
 20
50.69839164648068
 30
0.0
  0
LINE
  5
E3
330
1F
100
AcDbEntity
  8
0
  6
Continuous
 62
     7
370
    25
100
AcDbLine
 10
40.046426776
 20
50.6983916465
 30
0.0
 11
40.2845670184
 21
50.6983916465
 31
0.0
  0
LINE
  5
E4
330
1F
100
AcDbEntity
  8
0
  6
Continuous
 62
     7
370
    25
100
AcDbLine
 10
29.3301158683
 20
50.0983916465
 30
0.0
 11
29.3301158683
 21
50.6983916465
 31
0.0
  0
LINE
  5
E5
330
1F
100
AcDbEntity
  8
0
  6
Continuous
 62
     7
370
    25
100
AcDbLine
 10
29.5682561107
 20
50.0983916465
 30
0.0
 11
29.3301158683
 21
50.0983916465
 31
0.0
  0
LINE
  5
E6
330
1F
100
AcDbEntity
  8
0
  6
Continuous
 62
     7
370
    25
100
AcDbLine
 10
40.2845670184
 20
50.6983916465
 30
0.0
 11
40.2845670184
 21
50.0983916465
 31
0.0
  0
LINE
  5
E7
330
1F
100
AcDbEntity
  8
0
  6
Continuous
 62
     7
370
    25
100
AcDbLine
 10
40.2845670184
 20
50.0983916465
 30
0.0
 11
40.046426776
 21
50.0983916465
 31
0.0
  0
ARC
  5
E8
330
1F
100
AcDbEntity
  8
0
  6
Continuous
 62
     7
370
    25
100
AcDbCircle
 10
29.0573414434
 20
50.6983916465
 30
0.0
 40
0.25
100
AcDbArc
 50
90.0
 51
180.0
  0
LINE
  5
E9
330
1F
100
AcDbEntity
  8
0
  6
Continuous
 62
     7
370
    25
100
AcDbLine
 10
29.0573414434
 20
50.9483916465
 30
0.0
 11
29.0573414434
 21
50.6983916465
 31
0.0
  0
LINE
  5
EA
330
1F
100
AcDbEntity
  8
0
  6
Continuous
 62
     7
370
    25
100
AcDbLine
 10
28.8073414434
 20
50.6983916465
 30
0.0
 11
29.0573414434
 21
50.6983916465
 31
0.0
  0
LINE
  5
EB
330
1F
100
AcDbEntity
  8
0
  6
Continuous
 62
     7
370
    25
100
AcDbLine
 10
29.3301158683
 20
50.6983916465
 30
0.0
 11
29.0573414434
 21
50.6983916465
 31
0.0
  0
LINE
  5
EC
330
1F
100
AcDbEntity
  8
0
  6
Continuous
 62
     7
370
    25
100
AcDbLine
 10
29.0573414434
 20
50.9483916465
 30
0.0
 11
29.7083219298
 21
50.9483916465
 31
0.0
  0
LINE
  5
ED
330
1F
100
AcDbEntity
  8
0
  6
Continuous
 62
     7
370
    25
100
AcDbLine
 10
28.8073414434
 20
50.0983916465
 30
0.0
 11
28.8073414434
 21
50.6983916465
 31
0.0
  0
LINE
  5
EE
330
1F
100
AcDbEntity
  8
0
  6
Continuous
 62
     7
370
    25
100
AcDbLine
 10
29.0573414434
 20
50.6983916465
 30
0.0
 11
29.0573414434
 21
50.0983916465
 31
0.0
  0
LINE
  5
EF
330
1F
100
AcDbEntity
  8
0
  6
Continuous
 62
     7
370
    25
100
AcDbLine
 10
29.0573414434
 20
50.0983916465
 30
0.0
 11
28.8073414434
 21
50.0983916465
 31
0.0
  0
LINE
  5
F0
330
1F
100
AcDbEntity
  8
0
  6
Continuous
 62
     7
370
    25
100
AcDbLine
 10
29.0573414434
 20
50.0983916465
 30
0.0
 11
29.3301158683
 21
50.0983916465
 31
0.0
  0
LINE
  5
F1
330
1F
100
AcDbEntity
  8
0
  6
Continuous
 62
     7
370
    25
100
AcDbLine
 10
40.5573414434
 20
50.0983916465
 30
0.0
 11
40.5573414434
 21
50.6983916465
 31
0.0
  0
LINE
  5
F2
330
1F
100
AcDbEntity
  8
0
  6
Continuous
 62
     7
370
    25
100
AcDbLine
 10
40.5573414434
 20
50.6983916465
 30
0.0
 11
40.2845670184
 21
50.6983916465
 31
0.0
  0
LINE
  5
F3
330
1F
100
AcDbEntity
  8
0
  6
Continuous
 62
     7
370
    25
100
AcDbLine
 10
40.2845670184
 20
50.0983916465
 30
0.0
 11
40.5573414434
 21
50.0983916465
 31
0.0
  0
LINE
  5
F4
330
1F
100
AcDbEntity
  8
0
  6
Continuous
 62
     7
370
    25
100
AcDbLine
 10
40.5573414434
 20
50.6983916465
 30
0.0
 11
40.8073414434
 21
50.6983916465
 31
0.0
  0
LINE
  5
F5
330
1F
100
AcDbEntity
  8
0
  6
Continuous
 62
     7
370
    25
100
AcDbLine
 10
40.8073414434
 20
50.6983916465
 30
0.0
 11
40.8073414434
 21
50.0983916465
 31
0.0
  0
LINE
  5
F6
330
1F
100
AcDbEntity
  8
0
  6
Continuous
 62
     7
370
    25
100
AcDbLine
 10
40.8073414434
 20
50.0983916465
 30
0.0
 11
40.5573414434
 21
50.0983916465
 31
0.0
  0
LINE
  5
F7
330
1F
100
AcDbEntity
  8
0
  6
Continuous
 62
     7
370
    25
100
AcDbLine
 10
40.5573414434
 20
50.6983916465
 30
0.0
 11
40.5573414434
 21
50.9483916465
 31
0.0
  0
ARC
  5
F8
330
1F
100
AcDbEntity
  8
0
  6
Continuous
 62
     7
370
    25
100
AcDbCircle
 10
40.5573414434
 20
50.6983916465
 30
0.0
 40
0.25
100
AcDbArc
 50
0.0
 51
90.0
  0
LINE
  5
F9
330
1F
100
AcDbEntity
  8
0
  6
Continuous
 62
     7
370
    25
100
AcDbLine
 10
39.906360957
 20
50.9483916465
 30
0.0
 11
40.5573414434
 21
50.9483916465
 31
0.0
  0
LINE
  5
FA
330
1F
100
AcDbEntity
  8
0
  6
Continuous
 62
     7
370
    25
100
AcDbLine
 10
39.8073414434
 20
50.9483916465
 30
0.0
 11
39.8073414434
 21
50.9583916465
 31
0.0
  0
LINE
  5
FB
330
1F
100
AcDbEntity
  8
0
  6
Continuous
 62
     7
370
    25
100
AcDbLine
 10
29.8073414434
 20
50.9583916465
 30
0.0
 11
39.8073414434
 21
50.9583916465
 31
0.0
  0
LINE
  5
FC
330
1F
100
AcDbEntity
  8
0
  6
Continuous
 62
     7
370
    25
100
AcDbLine
 10
29.8073414434
 20
50.9483916465
 30
0.0
 11
29.8073414434
 21
50.9583916465
 31
0.0
  0
LINE
  5
FD
330
1F
100
AcDbEntity
  8
0
  6
Continuous
 62
     7
370
    25
100
AcDbLine
 10
27.3573414434
 20
42.0983916465
 30
0.0
 11
39.2818883275
 21
42.0983916465
 31
0.0
  0
LINE
  5
FE
330
1F
100
AcDbEntity
  8
0
  6
Continuous
 62
     7
370
    25
100
AcDbLine
 10
40.0311436177
 20
50.0983916465
 30
0.0
 11
29.5682561107
 21
50.0983916464
 31
0.0
  0
LINE
  5
FF
330
1F
100
AcDbEntity
  8
0
  6
Continuous
 62
     7
370
    25
100
AcDbLine
 10
41.7592822817
 20
43.0931352244
 30
0.0
 11
40.0311436177
 21
50.0983916465
 31
0.0
  0
LINE
  5
100
330
1F
100
AcDbEntity
  8
0
  6
Continuous
 62
     7
370
    25
100
AcDbLine
 10
39.2818883275
 20
42.0983916465
 30
0.0
 11
38.5216775717
 21
43.0931352244
 31
0.0
  0
LINE
  5
101
330
1F
100
AcDbEntity
  8
0
  6
Continuous
 62
     7
370
    25
100
AcDbLine
 10
36.8073414434
 20
34.0983916465
 30
0.0
 11
36.8073415379
 21
34.1362085244
 31
0.0
  0
LINE
  5
102
330
1F
100
AcDbEntity
  8
0
  6
Continuous
 62
     7
370
    25
100
AcDbLine
 10
27.8073414434
 20
34.0983916465
 30
0.0
 11
36.8073414434
 21
34.0983916465
 31
0.0
  0
SPLINE
  5
103
330
1F
100
AcDbEntity
  8
0
  6
Continuous
 62
     7
370
    25
100
AcDbSpline
210
0.0
220
0.0
230
1.0
 70
     8
 71
     3
 72
    16
 73
    12
 74
     0
 42
0.00000001
 43
0.00000001
 40
0.0
 40
0.0
 40
0.0
 40
0.0
 40
0.0155634360124117
 40
0.0359329243097674
 40
0.0739120889290614
 40
0.1570057548437684
 40
0.2406581385754913
 40
0.4592958294318596
 40
0.6783839187935417
 40
0.8974954344294845
 40
1.0
 40
1.0
 40
1.0
 40
1.0
 10
36.96328669380662
 20
34.09839164648077
 30
0.0
 10
37.00567868307525
 20
34.10358501825994
 30
0.0
 10
37.10355348016477
 20
34.11557549612772
 30
0.0
 10
37.27703215117761
 20
34.23390142012467
 30
0.0
 10
37.52536583018028
 20
34.54515272757363
 30
0.0
 10
37.77983037222621
 20
35.07080022893869
 30
0.0
 10
38.12350978391732
 20
36.10934639320883
 30
0.0
 10
38.50472980318401
 20
37.54442043555496
 30
0.0
 10
38.85483145918368
 20
39.38267253699439
 30
0.0
 10
39.0986233082719
 20
40.90385538581383
 30
0.0
 10
39.23759550342893
 20
41.80968742661035
 30
0.0
 10
39.2818883274616
 20
42.0983916464783
 30
0.0
  0
SPLINE
  5
104
330
1F
100
AcDbEntity
  8
0
  6
Continuous
 62
     7
370
    25
100
AcDbSpline
210
0.0
220
0.0
230
1.0
 70
     8
 71
     3
 72
     9
 73
     5
 74
     0
 42
0.00000001
 43
0.00000001
 40
0.0
 40
0.0
 40
0.0
 40
0.0
 40
0.5124861829376838
 40
0.9999999999999999
 40
0.9999999999999999
 40
0.9999999999999999
 40
0.9999999999999999
 10
36.80734153791084
 20
34.13620852442089
 30
0.0
 10
36.83298404208267
 20
34.12518061146972
 30
0.0
 10
36.88301954552756
 20
34.10366215240031
 30
0.0
 10
36.93698015238603
 20
34.10011898805516
 30
0.0
 10
36.96328669380662
 20
34.09839164648077
 30
0.0
  0
LINE
  5
105
330
1F
100
AcDbEntity
  8
0
  6
Continuous
 62
     7
370
    25
100
AcDbLine
 10
38.5216775717
 20
43.0931352244
 30
0.0
 11
56.9827783049
 21
43.0931352245
 31
0.0
  0
LINE
  5
106
330
1F
100
AcDbEntity
  8
0
  6
Continuous
 62
     7
370
    25
100
AcDbLine
 10
56.9827783049
 20
43.0931352245
 30
0.0
 11
56.9827783049
 21
39.8505673395
 31
0.0
  0
SPLINE
  5
107
330
1F
100
AcDbEntity
  8
0
  6
Continuous
 62
     7
370
    25
100
AcDbSpline
210
0.0
220
0.0
230
1.0
 70
     8
 71
     3
 72
    11
 73
     7
 74
     0
 42
0.00000001
 43
0.00000001
 40
0.0
 40
0.0
 40
0.0
 40
0.0
 40
0.2488607147078904
 40
0.4977191536447657
 40
0.7488602698858827
 40
0.9999999999999999
 40
0.9999999999999999
 40
0.9999999999999999
 40
0.9999999999999999
 10
49.91238468267241
 20
38.52736683847072
 30
0.0
 10
50.48897764155512
 20
38.67684577535884
 30
0.0
 10
51.64215828651746
 20
38.97580228218636
 30
0.0
 10
53.40307260844803
 20
39.33760625564508
 30
0.0
 10
55.18305132202707
 20
39.63988089888459
 30
0.0
 10
56.38287041431946
 20
39.78033865513782
 30
0.0
 10
56.98277830491612
 20
39.85056733945623
 30
0.0
  0
LINE
  5
108
330
1F
100
AcDbEntity
  8
0
  6
Continuous
 62
     7
370
    25
100
AcDbLine
 10
49.9123846827
 20
38.5273668385
 30
0.0
 11
44.1326278328
 21
36.958745398
 31
0.0
  0
SPLINE
  5
109
330
1F
100
AcDbEntity
  8
0
  6
Continuous
 62
     7
370
    25
100
AcDbSpline
210
0.0
220
0.0
230
1.0
 70
     8
 71
     3
 72
    13
 73
     9
 74
     0
 42
0.00000001
 43
0.00000001
 40
0.0
 40
0.0
 40
0.0
 40
0.0
 40
0.1610294006389559
 40
0.3266880383557517
 40
0.4877296220820635
 40
0.6535536198224136
 40
0.8237602734841889
 40
1.0
 40
1.0
 40
1.0
 40
1.0
 10
44.13262783281712
 20
36.95874539798784
 30
0.0
 10
43.91875777878602
 20
36.88934850341059
 30
0.0
 10
43.48486938239862
 20
36.74855970790204
 30
0.0
 10
42.89354863373296
 20
36.4024348901944
 30
0.0
 10
42.35961728488228
 20
35.96322824714235
 30
0.0
 10
41.90593331307918
 20
35.42962641020276
 30
0.0
 10
41.5314796000937
 20
34.80580010350307
 30
0.0
 10
41.38291652933492
 20
34.33691620530109
 30
0.0
 10
41.30734144337947
 20
34.09839164648068
 30
0.0
  0
LINE
  5
10A
330
1F
100
AcDbEntity
  8
0
  6
Continuous
 62
     7
370
    25
100
AcDbLine
 10
41.3073414434
 20
34.0983916465
 30
0.0
 11
36.9632866938
 21
34.0983916465
 31
0.0
  0
LINE
  5
10B
330
1F
100
AcDbEntity
  8
0
  6
Continuous
 62
     7
370
    25
100
AcDbLine
 10
36.8141408013
 20
34.0983916465
 30
0.0
 11
36.8073415379
 21
34.1362085244
 31
0.0
  0
LINE
  5
10C
330
1F
100
AcDbEntity
  8
0
  6
Continuous
 62
     7
370
    25
100
AcDbLine
 10
36.8073414434
 20
34.0983916465
 30
0.0
 11
36.8141408013
 21
34.0983916465
 31
0.0
  0
LINE
  5
10D
330
1F
100
AcDbEntity
  8
0
  6
Continuous
 62
     7
370
    25
100
AcDbLine
 10
36.9632866938
 20
34.0983916465
 30
0.0
 11
36.8141408013
 21
34.0983916465
 31
0.0
  0
LINE
  5
10E
330
1F
100
AcDbEntity
  8
0
  6
Continuous
 62
     7
370
    25
100
AcDbLine
 10
56.9827783049
 20
43.0931352245
 30
0.0
 11
56.9827783049
 21
52.0983916465
 31
0.0
  0
LINE
  5
10F
330
1F
100
AcDbEntity
  8
0
  6
Continuous
 62
     7
370
    25
100
AcDbLine
 10
56.9827783049
 20
52.0983916465
 30
0.0
 11
74.8073414434
 21
52.0983916465
 31
0.0
  0
LINE
  5
110
330
1F
100
AcDbEntity
  8
0
  6
Continuous
 62
     7
370
    25
100
AcDbLine
 10
74.8073414434
 20
52.0983916465
 30
0.0
 11
74.8073414434
 21
45.0983916465
 31
0.0
  0
ARC
  5
111
330
1F
100
AcDbEntity
  8
0
  6
Continuous
 62
     7
370
    25
100
AcDbCircle
 10
69.8073414434
 20
45.0983916465
 30
0.0
 40
5.0
100
AcDbArc
 50
270.0
 51
0.0
  0
LINE
  5
112
330
1F
100
AcDbEntity
  8
0
  6
Continuous
 62
     7
370
    25
100
AcDbLine
 10
69.8073414434
 20
40.0983916465
 30
0.0
 11
61.6990093011
 21
40.0983916465
 31
0.0
  0
ARC
  5
113
330
1F
100
AcDbEntity
  8
0
  6
Continuous
 62
     7
370
    25
100
AcDbCircle
 10
61.6990093011
 20
-4.9017376077
 30
0.0
 40
45.00012925418373
100
AcDbArc
 50
90.0
 51
96.0159222295
  0
ARC
  5
114
330
1F
100
AcDbEntity
  8
0
  6
Continuous
 62
     7
370
    25
100
AcDbCircle
 10
49.1962950076
 20
54.0983916465
 30
0.0
 40
10.00000000000847
100
AcDbArc
 50
203.5781784783
 51
264.4198332155
  0
ARC
  5
115
330
1F
100
AcDbEntity
  8
0
  6
Continuous
 62
     7
370
    25
100
AcDbCircle
 10
48.8073414434
 20
50.1173471699
 30
0.0
 40
6.000000000000004
100
AcDbArc
 50
264.4198332155
 51
0.0
  0
LINE
  5
116
330
1F
100
AcDbEntity
  8
0
  6
Continuous
 62
     7
370
    25
100
AcDbLine
 10
54.8073414434
 20
52.0983916465
 30
0.0
 11
54.8073414434
 21
50.1173471699
 31
0.0
  0
LINE
  5
117
330
1F
100
AcDbEntity
  8
0
  6
Continuous
 62
     7
370
    25
100
AcDbLine
 10
54.8073414434
 20
52.0983916465
 30
0.0
 11
56.9827783049
 21
52.0983916465
 31
0.0
  0
LINE
  5
118
330
1F
100
AcDbEntity
  8
0
  6
Continuous
 62
     7
370
    25
100
AcDbLine
 10
41.8073414434
 20
34.0983916465
 30
0.0
 11
41.3073414434
 21
34.0983916465
 31
0.0
  0
LINE
  5
119
330
1F
100
AcDbEntity
  8
0
  6
Continuous
 62
     7
370
    25
100
AcDbLine
 10
40.0311436177
 20
50.0983916465
 30
0.0
 11
40.046426776
 21
50.0983916464
 31
0.0
  0
SPLINE
  5
11A
330
1F
100
AcDbEntity
  8
0
  6
Continuous
 62
     7
370
    25
100
AcDbSpline
210
0.0
220
0.0
230
1.0
 70
     8
 71
     3
 72
    11
 73
     7
 74
     0
 42
0.00000001
 43
0.00000001
 40
0.0
 40
0.0
 40
0.0
 40
0.0
 40
0.1163060807267053
 40
0.3541961116216397
 40
0.5923258273050079
 40
1.0
 40
1.0
 40
1.0
 40
1.0
 10
27.07825537627743
 20
19.21716105660577
 30
0.0
 10
27.10923825463508
 20
19.37264607028715
 30
0.0
 10
27.20359286595513
 20
19.8461568868952
 30
0.0
 10
27.27343350075522
 20
20.65296515547495
 30
0.0
 10
27.30932450105642
 20
21.85912798865099
 30
0.0
 10
27.30730016023254
 20
22.74311596042473
 30
0.0
 10
27.30602226227392
 20
23.30114769660722
 30
0.0
  0
SPLINE
  5
11B
330
1F
100
AcDbEntity
  8
0
  6
Continuous
 62
     7
370
    25
100
AcDbSpline
210
0.0
220
0.0
230
1.0
 70
     8
 71
     3
 72
    11
 73
     7
 74
     0
 42
0.00000001
 43
0.00000001
 40
0.0
 40
0.0
 40
0.0
 40
0.0
 40
0.1163060807267057
 40
0.3541961116216417
 40
0.5923258273050113
 40
1.0
 40
1.0
 40
1.0
 40
1.0
 10
42.53642751048151
 20
27.97962223635558
 30
0.0
 10
42.50544463212385
 20
27.8241372226742
 30
0.0
 10
42.41109002080382
 20
27.35062640606616
 30
0.0
 10
42.34124938600372
 20
26.5438181374864
 30
0.0
 10
42.30535838570252
 20
25.33765530431037
 30
0.0
 10
42.3073827265264
 20
24.45366733253664
 30
0.0
 10
42.30866062448502
 20
23.89563559635416
 30
0.0
  0
LINE
  5
11C
330
1F
100
AcDbEntity
  8
0
  6
Continuous
 62
     7
370
    25
100
AcDbLine
 10
41.8073414434
 20
15.0983916465
 30
0.0
 11
41.8073414434
 21
18.403947202
 31
0.0
  0
LINE
  5
11D
330
1F
100
AcDbEntity
  8
0
  6
Continuous
 62
     7
370
    25
100
AcDbLine
 10
27.8073414434
 20
18.403947202
 30
0.0
 11
27.8073414434
 21
15.0983916465
 31
0.0
  0
LINE
  5
11E
330
1F
100
AcDbEntity
  8
0
  6
Continuous
 62
     7
370
    25
100
AcDbLine
 10
41.8073414434
 20
28.7928360909
 30
0.0
 11
41.8073414434
 21
32.0983916465
 31
0.0
  0
LINE
  5
11F
330
1F
100
AcDbEntity
  8
0
  6
Continuous
 62
     7
370
    25
100
AcDbLine
 10
27.8073414434
 20
32.0983916465
 30
0.0
 11
27.8073414434
 21
28.7928360909
 31
0.0
  0
LWPOLYLINE
  5
120
330
1F
100
AcDbEntity
  8
0
  6
Continuous
 62
     7
370
    25
100
AcDbPolyline
 90
       26
 70
   128
 43
0.0
 10
41.1896623183
 20
32.0865292982
 10
41.1754385314
 20
32.0769919581
 10
41.1389025351
 20
32.0525498813
 10
40.9191704132
 20
31.9070582916
 10
40.5482210647
 20
31.6676013315
 10
40.0655986507
 20
31.3686655465
 10
39.4674063363
 20
31.0203192831
 10
38.6886029584
 20
30.6092102669
 10
37.786653943
 20
30.2038541163
 10
36.976422256
 20
29.9159351809
 10
36.0883825994
 20
29.6958076652
 10
35.3318082484
 20
29.5950609661
 10
34.542457273
 20
29.5798024816
 10
33.78065906
 20
29.6527208217
 10
33.0255014512
 20
29.8069882444
 10
32.0914590601
 20
30.1017689618
 10
31.2144337467
 20
30.470741163
 10
30.4373480697
 20
30.8612149936
 10
29.7448777586
 20
31.2518036274
 10
29.2062258549
 20
31.5795057926
 10
28.7798411202
 20
31.8519261834
 10
28.5475883224
 20
32.0047170024
 10
28.4233200615
 20
32.087666958
 10
28.4078352413
 20
32.0980600157
 10
28.4073414434
 20
32.0983916465
 10
28.4073414434
 20
32.0983916465
  0
SPLINE
  5
121
330
1F
100
AcDbEntity
  8
0
  6
Continuous
 62
     7
370
    25
100
AcDbSpline
210
0.0
220
0.0
230
1.0
 70
     8
 71
     3
 72
    31
 73
    27
 74
     0
 42
0.00000001
 43
0.00000001
 40
0.0
 40
0.0
 40
0.0
 40
0.0
 40
0.0037711104489294
 40
0.0499918979131411
 40
0.0979362230846555
 40
0.1050759608840227
 40
0.1549310008429975
 40
0.2062485866952876
 40
0.2581667471461209
 40
0.3112112337700654
 40
0.361520933184044
 40
0.4131118219396707
 40
0.4497236830228036
 40
0.4873160206688177
 40
0.5237911208545064
 40
0.5614387345537603
 40
0.6059047694611533
 40
0.6516344669460699
 40
0.7059301691522325
 40
0.7615245644558745
 40
0.8094454199391334
 40
0.858395447882675
 40
0.9060522514693382
 40
0.955273269885777
 40
0.9694461554747011
 40
1.0
 40
1.0
 40
1.0
 40
1.0
 10
28.90734144337947
 20
32.59839164648068
 30
0.0
 10
28.90744002178661
 20
32.59831570411747
 30
0.0
 10
28.90874683094343
 20
32.59730897071097
 30
0.0
 10
28.96621341468671
 20
32.55288379607287
 30
0.0
 10
29.12283122558406
 20
32.43331239189599
 30
0.0
 10
29.33776996353986
 20
32.27214688033126
 30
0.0
 10
29.61533725074209
 20
32.06694640490446
 30
0.0
 10
30.12525368260965
 20
31.70757312953995
 30
0.0
 10
30.75073455261213
 20
31.29795933698233
 30
0.0
 10
31.46700851217228
 20
30.87844704885347
 30
0.0
 10
32.27002219515254
 20
30.48223642368947
 30
0.0
 10
33.06579035349891
 20
30.18438156095438
 30
0.0
 10
33.84211078416097
 20
29.99736821024807
 30
0.0
 10
34.55454990886371
 20
29.91581197447787
 30
0.0
 10
35.28191087980811
 20
29.93104840342305
 30
0.0
 10
36.03751414526387
 20
30.04793670416486
 30
0.0
 10
36.80935968185307
 20
30.27218162441302
 30
0.0
 10
37.61294016020106
 20
30.60537541953529
 30
0.0
 10
38.3935118980319
 20
31.01475991826939
 30
0.0
 10
39.08821040585309
 20
31.44084647827478
 30
0.0
 10
39.66413622460549
 20
31.82869577033726
 30
0.0
 10
40.11457167475303
 20
32.15115207039317
 30
0.0
 10
40.45801083188486
 20
32.40726795171317
 30
0.0
 10
40.61662638257786
 20
32.52859740825664
 30
0.0
 10
40.69565718801372
 20
32.58936085477591
 30
0.0
 10
40.69398148785906
 20
32.58808499010856
 30
0.0
 10
40.69283677904923
 20
32.58721341799537
 30
0.0
  0
LINE
  5
122
330
1F
100
AcDbEntity
  8
0
  6
Continuous
 62
     7
370
    18
100
AcDbLine
 10
24.3073414434
 20
29.5952666465
 30
0.0
 11
15.6313659411
 21
29.324142412
 31
0.0
  0
LINE
  5
123
330
1F
100
AcDbEntity
  8
0
  6
Continuous
 62
     7
370
    18
100
AcDbLine
 10
15.6313659411
 20
17.8726408809
 30
0.0
 11
24.3073414434
 21
17.6015166465
 31
0.0
  0
LINE
  5
124
330
1F
100
AcDbEntity
  8
0
  6
Continuous
 62
     7
370
    18
100
AcDbLine
 10
55.3073414434
 20
17.5790166465
 30
0.0
 11
63.9421157208
 21
17.8488533427
 31
0.0
  0
LINE
  5
125
330
1F
100
AcDbEntity
  8
0
  6
Continuous
 62
     7
370
    18
100
AcDbLine
 10
63.9421157208
 20
29.3479299503
 30
0.0
 11
55.3073414434
 21
29.6177666465
 31
0.0
  0
LINE
  5
126
330
1F
100
AcDbEntity
  8
0
  6
CENTERX2
 62
     7
370
    18
100
AcDbLine
 10
12.2876207986
 20
23.5983916465
 30
0.0
 11
67.5852142031
 21
23.5983916465
 31
0.0
  0
LINE
  5
127
330
1F
100
AcDbEntity
  8
0
  6
CENTERX2
 62
     7
370
    18
100
AcDbLine
 10
34.8073414434
 20
11.5983916465
 30
0.0
 11
34.8073414434
 21
53.1906666664
 31
0.0
  0
LINE
  5
128
330
1F
100
AcDbEntity
  8
0
  6
Continuous
 62
     7
370
    25
100
AcDbLine
 10
44.9516790107
 20
85.6302437379
 30
0.0
 11
44.8073414434
 21
85.3802437379
 31
0.0
  0
LINE
  5
129
330
1F
100
AcDbEntity
  8
0
  6
Continuous
 62
     7
370
    25
100
AcDbLine
 10
44.8073414434
 20
68.8802437379
 30
0.0
 11
44.9516790107
 21
68.6302437379
 31
0.0
  0
LINE
  5
12A
330
1F
100
AcDbEntity
  8
0
  6
Continuous
 62
     7
370
    25
100
AcDbLine
 10
54.6630038761
 20
68.6302437379
 30
0.0
 11
54.8073414434
 21
68.8802437379
 31
0.0
  0
LINE
  5
12B
330
1F
100
AcDbEntity
  8
0
  6
Continuous
 62
     7
370
    25
100
AcDbLine
 10
54.8073414434
 20
85.3802437379
 30
0.0
 11
54.6630038761
 21
85.6302437379
 31
0.0
  0
LINE
  5
12C
330
1F
100
AcDbEntity
  8
0
  6
Continuous
 62
     7
370
    25
100
AcDbLine
 10
54.8073414434
 20
70.4270562379
 30
0.0
 11
62.7185537896
 21
70.6742816237
 31
0.0
  0
LINE
  5
12D
330
1F
100
AcDbEntity
  8
0
  6
Continuous
 62
     7
370
    25
100
AcDbLine
 10
62.7185537896
 20
83.5862058521
 30
0.0
 11
54.8073414434
 21
83.8334312379
 31
0.0
  0
LINE
  5
12E
330
1F
100
AcDbEntity
  8
0
  6
Continuous
 62
     7
370
    25
100
AcDbLine
 10
62.7185537896
 20
70.6742816237
 30
0.0
 11
64.8073414434
 21
71.8802437379
 31
0.0
  0
LINE
  5
12F
330
1F
100
AcDbEntity
  8
0
  6
Continuous
 62
     7
370
    25
100
AcDbLine
 10
64.8073414434
 20
82.3802437379
 30
0.0
 11
62.7185537896
 21
83.5862058521
 31
0.0
  0
LINE
  5
130
330
1F
100
AcDbEntity
  8
0
  6
Continuous
 62
     7
370
    25
100
AcDbLine
 10
44.5573414434
 20
67.1302437379
 30
0.0
 11
44.8073414434
 21
67.3802437379
 31
0.0
  0
LINE
  5
131
330
1F
100
AcDbEntity
  8
0
  6
Continuous
 62
     7
370
    25
100
AcDbLine
 10
44.8073414434
 20
86.8802437379
 30
0.0
 11
44.5573414434
 21
87.1302437379
 31
0.0
  0
ARC
  5
132
330
1F
100
AcDbEntity
  8
0
  6
Continuous
 62
     7
370
    25
100
AcDbCircle
 10
43.8073414434
 20
86.1302437379
 30
0.0
 40
1.5
100
AcDbArc
 50
138.1896851042
 51
180.0
  0
ARC
  5
133
330
1F
100
AcDbEntity
  8
0
  6
Continuous
 62
     7
370
    25
100
AcDbCircle
 10
43.8073414434
 20
68.1302437379
 30
0.0
 40
1.5
100
AcDbArc
 50
180.0
 51
221.8103148958
  0
ARC
  5
134
330
1F
100
AcDbEntity
  8
0
  6
Continuous
 62
     7
370
    25
100
AcDbCircle
 10
25.8073414434
 20
68.1302437379
 30
0.0
 40
1.5
100
AcDbArc
 50
318.1896851042
 51
0.0
  0
ARC
  5
135
330
1F
100
AcDbEntity
  8
0
  6
Continuous
 62
     7
370
    25
100
AcDbCircle
 10
25.8073414434
 20
86.1302437379
 30
0.0
 40
1.5
100
AcDbArc
 50
0.0
 51
41.8103148958
  0
LINE
  5
136
330
1F
100
AcDbEntity
  8
0
  6
Continuous
 62
     7
370
    25
100
AcDbLine
 10
44.5573414434
 20
87.1302437379
 30
0.0
 11
42.6893074546
 21
87.1302437379
 31
0.0
  0
LINE
  5
137
330
1F
100
AcDbEntity
  8
0
  6
Continuous
 62
     7
370
    25
100
AcDbLine
 10
42.6893074546
 20
67.1302437379
 30
0.0
 11
44.5573414434
 21
67.1302437379
 31
0.0
  0
LINE
  5
138
330
1F
100
AcDbEntity
  8
0
  6
Continuous
 62
     7
370
    25
100
AcDbLine
 10
25.3073414434
 20
87.1302437379
 30
0.0
 11
24.8073414434
 21
86.6302437379
 31
0.0
  0
LINE
  5
139
330
1F
100
AcDbEntity
  8
0
  6
Continuous
 62
     7
370
    25
100
AcDbLine
 10
24.8073414434
 20
67.6302437379
 30
0.0
 11
25.3073414434
 21
67.1302437379
 31
0.0
  0
LINE
  5
13A
330
1F
100
AcDbEntity
  8
0
  6
Continuous
 62
     7
370
    25
100
AcDbLine
 10
25.3073414434
 20
67.1302437379
 30
0.0
 11
26.9253754321
 21
67.1302437379
 31
0.0
  0
LINE
  5
13B
330
1F
100
AcDbEntity
  8
0
  6
Continuous
 62
     7
370
    25
100
AcDbLine
 10
26.9253754321
 20
87.1302437379
 30
0.0
 11
25.3073414434
 21
87.1302437379
 31
0.0
  0
LINE
  5
13C
330
1F
100
AcDbEntity
  8
0
  6
Continuous
 62
     7
370
    25
100
AcDbLine
 10
24.8073414434
 20
83.8971812379
 30
0.0
 11
17.012865901
 21
83.6536038772
 31
0.0
  0
LINE
  5
13D
330
1F
100
AcDbEntity
  8
0
  6
Continuous
 62
     7
370
    25
100
AcDbLine
 10
17.012865901
 20
70.6068835986
 30
0.0
 11
24.8073414434
 21
70.3633062379
 31
0.0
  0
LINE
  5
13E
330
1F
100
AcDbEntity
  8
0
  6
Continuous
 62
     7
370
    25
100
AcDbLine
 10
17.012865901
 20
83.6536038772
 30
0.0
 11
14.8073414434
 21
82.3802437379
 31
0.0
  0
LINE
  5
13F
330
1F
100
AcDbEntity
  8
0
  6
Continuous
 62
     7
370
    25
100
AcDbLine
 10
14.8073414434
 20
71.8802437379
 30
0.0
 11
17.012865901
 21
70.6068835986
 31
0.0
  0
ARC
  5
140
330
1F
100
AcDbEntity
  8
0
  6
Continuous
 62
     7
370
    25
100
AcDbCircle
 10
27.799399681
 20
86.1301946577
 30
0.0
 40
0.4999499223316962
100
AcDbArc
 50
185.4070207077
 51
271.7417304983
  0
ARC
  5
141
330
1F
100
AcDbEntity
  8
0
  6
Continuous
 62
     7
370
    25
100
AcDbCircle
 10
27.8072295503
 20
86.1302436674
 30
0.0
 40
0.4999999295239471
100
AcDbArc
 50
181.8055459077
 51
270.0008318653
  0
ARC
  5
142
330
1F
100
AcDbEntity
  8
0
  6
Continuous
 62
     7
370
    25
100
AcDbCircle
 10
41.8152831797
 20
86.1301947091
 30
0.0
 40
0.4999499729556326
100
AcDbArc
 50
268.2582726631
 51
354.6234834793
  0
ARC
  5
143
330
1F
100
AcDbEntity
  8
0
  6
Continuous
 62
     7
370
    25
100
AcDbCircle
 10
41.8074533366
 20
86.1302436673
 30
0.0
 40
0.4999999293578333
100
AcDbArc
 50
269.9991681241
 51
358.1337188994
  0
ARC
  5
144
330
1F
100
AcDbEntity
  8
0
  6
Continuous
 62
     7
370
    25
100
AcDbCircle
 10
27.799399707
 20
68.1302927667
 30
0.0
 40
0.4999499729556149
100
AcDbArc
 50
88.2582726631
 51
174.6234834793
  0
ARC
  5
145
330
1F
100
AcDbEntity
  8
0
  6
Continuous
 62
     7
370
    25
100
AcDbCircle
 10
27.8072295502
 20
68.1302438085
 30
0.0
 40
0.4999999293578191
100
AcDbArc
 50
89.9991681241
 51
178.1337188994
  0
ARC
  5
146
330
1F
100
AcDbEntity
  8
0
  6
Continuous
 62
     7
370
    25
100
AcDbCircle
 10
41.8152832058
 20
68.1302928181
 30
0.0
 40
0.4999499223316826
100
AcDbArc
 50
5.4070207077
 51
91.7417304983
  0
ARC
  5
147
330
1F
100
AcDbEntity
  8
0
  6
Continuous
 62
     7
370
    25
100
AcDbCircle
 10
41.8074533365
 20
68.1302438084
 30
0.0
 40
0.4999999295239284
100
AcDbArc
 50
1.8055459077
 51
90.0008318653
  0
LINE
  5
148
330
1F
100
AcDbEntity
  8
0
  6
Continuous
 62
     7
370
    25
100
AcDbLine
 10
53.9038144975
 20
85.6302437379
 30
0.0
 11
45.7108683892
 21
85.6302437379
 31
0.0
  0
SPLINE
  5
149
330
1F
100
AcDbEntity
  8
0
  6
Continuous
 62
     7
370
    25
100
AcDbSpline
210
0.0
220
0.0
230
1.0
 70
     8
 71
     3
 72
    12
 73
     8
 74
     0
 42
0.00000001
 43
0.00000001
 40
0.0
 40
0.0
 40
0.0
 40
0.0
 40
0.2292122187775419
 40
0.4583596311137701
 40
0.692633160987569
 40
0.9268644153606201
 40
1.0
 40
1.0
 40
1.0
 40
1.0
 10
53.90381449752722
 20
85.63024373789688
 30
0.0
 10
54.01928908592378
 20
85.26301477532147
 30
0.0
 10
54.25020561394636
 20
84.52866067885107
 30
0.0
 10
54.50030914882203
 20
83.39773207668301
 30
0.0
 10
54.64422986639313
 20
82.24584472819325
 30
0.0
 10
54.68441727940048
 20
81.34472679855703
 30
0.0
 10
54.64264861889173
 20
80.83562400133512
 30
0.0
 10
54.63271008610881
 20
80.71448689091685
 30
0.0
  0
SPLINE
  5
14A
330
1F
100
AcDbEntity
  8
0
  6
Continuous
 62
     7
370
    25
100
AcDbSpline
210
0.0
220
0.0
230
1.0
 70
     8
 71
     3
 72
    10
 73
     6
 74
     0
 42
0.00000001
 43
0.00000001
 40
0.0
 40
0.0
 40
0.0
 40
0.0
 40
0.2266139283365145
 40
0.4813951311841518
 40
1.0
 40
1.0
 40
1.0
 40
1.0
 10
44.96369474940656
 20
81.79199146079303
 30
0.0
 10
44.98007968860907
 20
82.08645622787274
 30
0.0
 10
45.01488615445491
 20
82.71198664525711
 30
0.0
 10
45.22165554596877
 20
84.00251025882712
 30
0.0
 10
45.51449846553142
 20
84.97687189067096
 30
0.0
 10
45.71086838923173
 20
85.63024373789688
 30
0.0
  0
SPLINE
  5
14B
330
1F
100
AcDbEntity
  8
0
  6
Continuous
 62
     7
370
    25
100
AcDbSpline
210
0.0
220
0.0
230
1.0
 70
     8
 71
     3
 72
    11
 73
     7
 74
     0
 42
0.00000001
 43
0.00000001
 40
0.0
 40
0.0
 40
0.0
 40
0.0
 40
0.2924563651336922
 40
0.5848300424579609
 40
0.8837442336792702
 40
1.0
 40
1.0
 40
1.0
 40
1.0
 10
45.71086838923173
 20
68.63024373789692
 30
0.0
 10
45.59491052969706
 20
68.99746849756357
 30
0.0
 10
45.36302759603618
 20
69.73181418940479
 30
0.0
 10
45.12022456271787
 20
70.8628062825191
 30
0.0
 10
44.98330231489994
 20
71.77820020975537
 30
0.0
 10
44.97619748770246
 20
72.31855481459347
 30
0.0
 10
44.974207996133
 20
72.46986474810193
 30
0.0
  0
SPLINE
  5
14C
330
1F
100
AcDbEntity
  8
0
  6
Continuous
 62
     7
370
    25
100
AcDbSpline
210
0.0
220
0.0
230
1.0
 70
    24
 71
     3
 72
    10
 73
     6
 74
     0
 42
0.00000001
 43
0.00000001
 40
0.0
 40
0.0
 40
0.0
 40
0.0
 40
0.2524428734626838
 40
0.6242458444784866
 40
1.0
 40
1.0
 40
1.0
 40
1.0
 10
44.95312751453945
 20
68.63024373789693
 30
0.0
 10
44.96349349869189
 20
68.63024373789693
 30
0.0
 10
44.98912671401037
 20
68.63024373789692
 30
0.0
 10
45.23327788599501
 20
68.63024373789692
 30
0.0
 10
45.5511115888728
 20
68.63024373789692
 30
0.0
 10
45.71086838923173
 20
68.63024373789692
 30
0.0
  0
SPLINE
  5
14D
330
1F
100
AcDbEntity
  8
0
  6
Continuous
 62
     7
370
    25
100
AcDbSpline
210
0.0
220
0.0
230
1.0
 70
    24
 71
     3
 72
    11
 73
     7
 74
     0
 42
0.00000001
 43
0.00000001
 40
0.0
 40
0.0
 40
0.0
 40
0.0
 40
0.3721810190356623
 40
0.7476894440933902
 40
0.9982353928720534
 40
1.0
 40
1.0
 40
1.0
 40
1.0
 10
45.71086838923173
 20
85.63024373789688
 30
0.0
 10
45.55064412064291
 20
85.63024373789689
 30
0.0
 10
45.22876313213401
 20
85.63024373789692
 30
0.0
 10
45.00975792659943
 20
85.63024373789685
 30
0.0
 10
44.93506036409068
 20
85.63024373789702
 30
0.0
 10
44.95238213099743
 20
85.63024373789693
 30
0.0
 10
44.95250327580344
 20
85.63024373789693
 30
0.0
  0
SPLINE
  5
14E
330
1F
100
AcDbEntity
  8
0
  6
Continuous
 62
     7
370
    25
100
AcDbSpline
210
0.0
220
0.0
230
1.0
 70
    24
 71
     3
 72
    10
 73
     6
 74
     0
 42
0.00000001
 43
0.00000001
 40
0.0
 40
0.0
 40
0.0
 40
0.0
 40
0.2524428734627101
 40
0.6242458444785
 40
0.9999999999999999
 40
0.9999999999999999
 40
0.9999999999999999
 40
0.9999999999999999
 10
54.6615553722195
 20
85.63024373789693
 30
0.0
 10
54.65118938806707
 20
85.63024373789693
 30
0.0
 10
54.62555617274859
 20
85.63024373789692
 30
0.0
 10
54.38140500076396
 20
85.6302437378969
 30
0.0
 10
54.06357129788615
 20
85.63024373789689
 30
0.0
 10
53.90381449752722
 20
85.63024373789688
 30
0.0
  0
SPLINE
  5
14F
330
1F
100
AcDbEntity
  8
0
  6
Continuous
 62
     7
370
    25
100
AcDbSpline
210
0.0
220
0.0
230
1.0
 70
    24
 71
     3
 72
    11
 73
     7
 74
     0
 42
0.00000001
 43
0.00000001
 40
0.0
 40
0.0
 40
0.0
 40
0.0
 40
0.3721810190356756
 40
0.7476894440934168
 40
0.9982353928720888
 40
1.0
 40
1.0
 40
1.0
 40
1.0
 10
53.90381449752722
 20
68.63024373789692
 30
0.0
 10
54.06403876611608
 20
68.6302437378969
 30
0.0
 10
54.38591975462508
 20
68.6302437378969
 30
0.0
 10
54.60492496015906
 20
68.630243737897
 30
0.0
 10
54.67962252266892
 20
68.6302437378968
 30
0.0
 10
54.66230075576153
 20
68.63024373789693
 30
0.0
 10
54.66217961095551
 20
68.63024373789693
 30
0.0
  0
SPLINE
  5
150
330
1F
100
AcDbEntity
  8
0
  6
Continuous
 62
     7
370
    25
100
AcDbSpline
210
0.0
220
0.0
230
1.0
 70
     8
 71
     3
 72
    11
 73
     7
 74
     0
 42
0.00000001
 43
0.00000001
 40
0.0
 40
0.0
 40
0.0
 40
0.0
 40
0.1944493496879246
 40
0.3940424408402624
 40
0.5936666666363958
 40
1.0
 40
1.0
 40
1.0
 40
1.0
 10
54.63388080215637
 20
73.54607077367909
 30
0.0
 10
54.64906925063868
 20
73.22334228892898
 30
0.0
 10
54.67984792550777
 20
72.56934822793723
 30
0.0
 10
54.5989151343767
 20
71.58490775477685
 30
0.0
 10
54.39682329404928
 20
70.25791619093094
 30
0.0
 10
54.10170811599991
 20
69.28359108928602
 30
0.0
 10
53.90381449752722
 20
68.63024373789692
 30
0.0
  0
LINE
  5
151
330
1F
100
AcDbEntity
  8
0
  6
Continuous
 62
     7
370
    25
100
AcDbLine
 10
54.8073414434
 20
85.3802437379
 30
0.0
 11
54.8073414434
 21
80.6666579805
 31
0.0
  0
LINE
  5
152
330
1F
100
AcDbEntity
  8
0
  6
Continuous
 62
     7
370
    25
100
AcDbLine
 10
54.8073414434
 20
73.5938294953
 30
0.0
 11
54.8073414434
 21
68.8802437379
 31
0.0
  0
LINE
  5
153
330
1F
100
AcDbEntity
  8
0
  6
Continuous
 62
     7
370
    25
100
AcDbLine
 10
53.9038144975
 20
68.6302437379
 30
0.0
 11
45.7108683892
 21
68.6302437379
 31
0.0
  0
LINE
  5
154
330
1F
100
AcDbEntity
  8
0
  6
Continuous
 62
     7
370
    25
100
AcDbLine
 10
62.7185537896
 20
73.6302437379
 30
0.0
 11
62.7185537896
 21
70.6742816237
 31
0.0
  0
LINE
  5
155
330
1F
100
AcDbEntity
  8
0
  6
Continuous
 62
     7
370
    25
100
AcDbLine
 10
62.7185537896
 20
83.5862058521
 30
0.0
 11
62.7185537896
 21
80.6302437379
 31
0.0
  0
LINE
  5
156
330
1F
100
AcDbEntity
  8
0
  6
Continuous
 62
     7
370
    25
100
AcDbLine
 10
64.8073414434
 20
82.3802437379
 30
0.0
 11
64.8073414434
 21
80.6302437379
 31
0.0
  0
LINE
  5
157
330
1F
100
AcDbEntity
  8
0
  6
Continuous
 62
     7
370
    25
100
AcDbLine
 10
64.8073414434
 20
73.6302437379
 30
0.0
 11
64.8073414434
 21
71.8802437379
 31
0.0
  0
LINE
  5
158
330
1F
100
AcDbEntity
  8
0
  6
Continuous
 62
     7
370
    25
100
AcDbLine
 10
44.8073414434
 20
86.8802437379
 30
0.0
 11
44.8073414434
 21
81.7807430568
 31
0.0
  0
LINE
  5
159
330
1F
100
AcDbEntity
  8
0
  6
Continuous
 62
     7
370
    25
100
AcDbLine
 10
44.8073414434
 20
72.479744419
 30
0.0
 11
44.8073414434
 21
67.3802437379
 31
0.0
  0
LINE
  5
15A
330
1F
100
AcDbEntity
  8
0
  6
Continuous
 62
     7
370
    25
100
AcDbLine
 10
44.5573414434
 20
67.1302437379
 30
0.0
 11
44.5573414434
 21
72.4315644045
 31
0.0
  0
LINE
  5
15B
330
1F
100
AcDbEntity
  8
0
  6
Continuous
 62
     7
370
    25
100
AcDbLine
 10
44.5573414434
 20
81.8289230713
 30
0.0
 11
44.5573414434
 21
87.1302437379
 31
0.0
  0
LINE
  5
15C
330
1F
100
AcDbEntity
  8
0
  6
Continuous
 62
     7
370
    25
100
AcDbLine
 10
42.6893074546
 20
67.1302437379
 30
0.0
 11
42.6893074546
 21
72.0392075447
 31
0.0
  0
LINE
  5
15D
330
1F
100
AcDbEntity
  8
0
  6
Continuous
 62
     7
370
    25
100
AcDbLine
 10
42.6893074546
 20
82.2212799311
 30
0.0
 11
42.6893074546
 21
87.1302437379
 31
0.0
  0
LINE
  5
15E
330
1F
100
AcDbEntity
  8
0
  6
Continuous
 62
     7
370
    25
100
AcDbLine
 10
42.3152950785
 20
68.1781312827
 30
0.0
 11
42.3100801972
 21
68.1467333294
 31
0.0
  0
SPLINE
  5
15F
330
1F
100
AcDbEntity
  8
0
  6
Continuous
 62
     7
370
    25
100
AcDbSpline
210
0.0
220
0.0
230
1.0
 70
     8
 71
     3
 72
    14
 73
    10
 74
     0
 42
0.00000001
 43
0.00000001
 40
0.0
 40
0.0
 40
0.0
 40
0.0
 40
0.25
 40
0.25
 40
0.5
 40
0.5
 40
0.75
 40
0.75
 40
1.0
 40
1.0
 40
1.0
 40
1.0
 10
42.53642751048151
 20
68.36778255814711
 30
0.0
 10
42.56394849822658
 20
68.37948935369268
 30
0.0
 10
42.583868420063
 20
68.41153130677424
 30
0.0
 10
42.59953546188105
 20
68.51085505743926
 30
0.0
 10
42.59504363006873
 20
68.57867850022001
 30
0.0
 10
42.56378728478516
 20
68.74112011763283
 30
0.0
 10
42.53741470140339
 20
68.83556551436858
 30
0.0
 10
42.47457815025909
 20
69.0437946219651
 30
0.0
 10
42.43853857139899
 20
69.15639301484826
 30
0.0
 10
42.40454256803339
 20
69.27614940844835
 30
0.0
  0
SPLINE
  5
160
330
1F
100
AcDbEntity
  8
0
  6
Continuous
 62
     7
370
    25
100
AcDbSpline
210
0.0
220
0.0
230
1.0
 70
     8
 71
     3
 72
     8
 73
     4
 74
     0
 42
0.00000001
 43
0.00000001
 40
0.0
 40
0.0
 40
0.0
 40
0.0
 40
1.0
 40
1.0
 40
1.0
 40
1.0
 10
42.30734144337947
 20
70.00634031350943
 30
0.0
 10
42.30734144337947
 20
69.75891085671441
 30
0.0
 10
42.33670615045733
 20
69.51511410780708
 30
0.0
 10
42.40454256803339
 20
69.27614940844835
 30
0.0
  0
LINE
  5
161
330
1F
100
AcDbEntity
  8
0
  6
Continuous
 62
     7
370
    25
100
AcDbLine
 10
42.3073414434
 20
70.0063403135
 30
0.0
 11
42.3073414434
 21
71.9518952713
 31
0.0
  0
LINE
  5
162
330
1F
100
AcDbEntity
  8
0
  6
Continuous
 62
     7
370
    25
100
AcDbLine
 10
42.3073414434
 20
82.3085922045
 30
0.0
 11
42.3073414434
 21
84.2541471623
 31
0.0
  0
SPLINE
  5
163
330
1F
100
AcDbEntity
  8
0
  6
Continuous
 62
     7
370
    25
100
AcDbSpline
210
0.0
220
0.0
230
1.0
 70
     8
 71
     3
 72
     8
 73
     4
 74
     0
 42
0.00000001
 43
0.00000001
 40
0.0
 40
0.0
 40
0.0
 40
0.0
 40
1.0
 40
1.0
 40
1.0
 40
1.0
 10
42.40454256803339
 20
84.9843380673455
 30
0.0
 10
42.33670615045733
 20
84.74537336798677
 30
0.0
 10
42.30734144337947
 20
84.50157661907944
 30
0.0
 10
42.30734144337947
 20
84.25414716228444
 30
0.0
  0
SPLINE
  5
164
330
1F
100
AcDbEntity
  8
0
  6
Continuous
 62
     7
370
    25
100
AcDbSpline
210
0.0
220
0.0
230
1.0
 70
     8
 71
     3
 72
    12
 73
     8
 74
     0
 42
0.00000001
 43
0.00000001
 40
0.0
 40
0.0
 40
0.0
 40
0.0
 40
0.4999999999999992
 40
0.4999999999999992
 40
0.7499999999999996
 40
0.7499999999999996
 40
1.0
 40
1.0
 40
1.0
 40
1.0
 10
42.40454256803339
 20
84.9843380673455
 30
0.0
 10
42.47241232804319
 20
85.2234202207936
 30
0.0
 10
42.54844687929693
 20
85.43919032797044
 30
0.0
 10
42.59509147767394
 20
85.68228492067433
 30
0.0
 10
42.59953047419658
 20
85.74995019615046
 30
0.0
 10
42.58379986040374
 20
85.84910331230708
 30
0.0
 10
42.56391943046137
 20
85.8810104868603
 30
0.0
 10
42.53642751048151
 20
85.89270491764674
 30
0.0
  0
LINE
  5
165
330
1F
100
AcDbEntity
  8
0
  6
Continuous
 62
     7
370
    25
100
AcDbLine
 10
42.3100244357
 20
86.1138610062
 30
0.0
 11
42.3151330484
 21
86.0826670931
 31
0.0
  0
LINE
  5
166
330
1F
100
AcDbEntity
  8
0
  6
Continuous
 62
     7
370
    25
100
AcDbLine
 10
26.9253754321
 20
87.1302437379
 30
0.0
 11
26.9253754321
 21
67.1302437379
 31
0.0
  0
LINE
  5
167
330
1F
100
AcDbEntity
  8
0
  6
Continuous
 62
     7
370
    25
100
AcDbLine
 10
27.2993878082
 20
86.0823561931
 30
0.0
 11
27.3046026896
 21
86.1137541464
 31
0.0
  0
SPLINE
  5
168
330
1F
100
AcDbEntity
  8
0
  6
Continuous
 62
     7
370
    25
100
AcDbSpline
210
0.0
220
0.0
230
1.0
 70
     8
 71
     3
 72
    14
 73
    10
 74
     0
 42
0.00000001
 43
0.00000001
 40
0.0
 40
0.0
 40
0.0
 40
0.0
 40
0.25
 40
0.25
 40
0.5
 40
0.5
 40
0.75
 40
0.75
 40
1.0
 40
1.0
 40
1.0
 40
1.0
 10
27.07825537627744
 20
85.89270491764674
 30
0.0
 10
27.05073438853236
 20
85.88099812210119
 30
0.0
 10
27.03081446669595
 20
85.8489561690196
 30
0.0
 10
27.01514742487789
 20
85.74963241835461
 30
0.0
 10
27.01963925669021
 20
85.68180897557386
 30
0.0
 10
27.05089560197378
 20
85.51936735816102
 30
0.0
 10
27.07726818535556
 20
85.42492196142528
 30
0.0
 10
27.14010473649986
 20
85.21669285382876
 30
0.0
 10
27.17614431535995
 20
85.1040944609456
 30
0.0
 10
27.21014031872555
 20
84.9843380673455
 30
0.0
  0
SPLINE
  5
169
330
1F
100
AcDbEntity
  8
0
  6
Continuous
 62
     7
370
    25
100
AcDbSpline
210
0.0
220
0.0
230
1.0
 70
     8
 71
     3
 72
     8
 73
     4
 74
     0
 42
0.00000001
 43
0.00000001
 40
0.0
 40
0.0
 40
0.0
 40
0.0
 40
1.0
 40
1.0
 40
1.0
 40
1.0
 10
27.30734144337947
 20
84.25414716228444
 30
0.0
 10
27.30734144337947
 20
84.50157661907944
 30
0.0
 10
27.27797673630161
 20
84.74537336798677
 30
0.0
 10
27.21014031872555
 20
84.9843380673455
 30
0.0
  0
LINE
  5
16A
330
1F
100
AcDbEntity
  8
0
  6
Continuous
 62
     7
370
    25
100
AcDbLine
 10
27.3073414434
 20
84.2541471623
 30
0.0
 11
27.3073414434
 21
70.0063403135
 31
0.0
  0
SPLINE
  5
16B
330
1F
100
AcDbEntity
  8
0
  6
Continuous
 62
     7
370
    25
100
AcDbSpline
210
0.0
220
0.0
230
1.0
 70
     8
 71
     3
 72
     8
 73
     4
 74
     0
 42
0.00000001
 43
0.00000001
 40
0.0
 40
0.0
 40
0.0
 40
0.0
 40
1.0
 40
1.0
 40
1.0
 40
1.0
 10
27.21014031872555
 20
69.27614940844835
 30
0.0
 10
27.27797673630161
 20
69.51511410780708
 30
0.0
 10
27.30734144337947
 20
69.75891085671441
 30
0.0
 10
27.30734144337947
 20
70.00634031350943
 30
0.0
  0
SPLINE
  5
16C
330
1F
100
AcDbEntity
  8
0
  6
Continuous
 62
     7
370
    25
100
AcDbSpline
210
0.0
220
0.0
230
1.0
 70
     8
 71
     3
 72
    12
 73
     8
 74
     0
 42
0.00000001
 43
0.00000001
 40
0.0
 40
0.0
 40
0.0
 40
0.0
 40
0.4999999999999992
 40
0.4999999999999992
 40
0.7499999999999996
 40
0.7499999999999996
 40
1.0
 40
1.0
 40
1.0
 40
1.0
 10
27.21014031872555
 20
69.27614940844835
 30
0.0
 10
27.14227055871575
 20
69.03706725500025
 30
0.0
 10
27.06623600746201
 20
68.82129714782343
 30
0.0
 10
27.019591409085
 20
68.57820255511952
 30
0.0
 10
27.01515241256236
 20
68.51053727964339
 30
0.0
 10
27.0308830263552
 20
68.41138416348679
 30
0.0
 10
27.05076345629757
 20
68.37947698893356
 30
0.0
 10
27.07825537627744
 20
68.36778255814711
 30
0.0
  0
LINE
  5
16D
330
1F
100
AcDbEntity
  8
0
  6
Continuous
 62
     7
370
    25
100
AcDbLine
 10
27.304658451
 20
68.1466264696
 30
0.0
 11
27.2995498384
 21
68.1778203827
 31
0.0
  0
LINE
  5
16E
330
1F
100
AcDbEntity
  8
0
  6
Continuous
 62
     7
370
    25
100
AcDbLine
 10
25.3073414434
 20
87.1302437379
 30
0.0
 11
25.3073414434
 21
67.1302437379
 31
0.0
  0
LINE
  5
16F
330
1F
100
AcDbEntity
  8
0
  6
Continuous
 62
     7
370
    25
100
AcDbLine
 10
24.8073414434
 20
67.6302437379
 30
0.0
 11
24.8073414434
 21
86.6302437379
 31
0.0
  0
ARC
  5
170
330
1F
100
AcDbEntity
  8
0
  6
Continuous
 62
     7
370
    25
100
AcDbCircle
 10
41.8540235421
 20
69.9473643752
 30
0.0
 40
0.457138142008927
100
AcDbArc
 50
7.4124568466
 51
95.861155744
  0
ARC
  5
171
330
1F
100
AcDbEntity
  8
0
  6
Continuous
 62
     7
370
    25
100
AcDbCircle
 10
41.8540235421
 20
84.3131231006
 30
0.0
 40
0.4571381420089458
100
AcDbArc
 50
264.138844256
 51
352.5875431534
  0
ARC
  5
172
330
1F
100
AcDbEntity
  8
0
  6
Continuous
 62
     7
370
    25
100
AcDbCircle
 10
27.7606593446
 20
69.9473643752
 30
0.0
 40
0.4571381420089415
100
AcDbArc
 50
84.138844256
 51
172.5875431534
  0
ARC
  5
173
330
1F
100
AcDbEntity
  8
0
  6
Continuous
 62
     7
370
    25
100
AcDbCircle
 10
27.7606593446
 20
84.3131231006
 30
0.0
 40
0.4571381420089393
100
AcDbArc
 50
187.4124568466
 51
275.861155744
  0
LINE
  5
174
330
1F
100
AcDbEntity
  8
0
  6
Continuous
 62
     7
370
    25
100
AcDbLine
 10
17.012865901
 20
70.6068835986
 30
0.0
 11
17.012865901
 21
83.6536038772
 31
0.0
  0
LINE
  5
175
330
1F
100
AcDbEntity
  8
0
  6
Continuous
 62
     7
370
    25
100
AcDbLine
 10
14.8073414434
 20
71.8802437379
 30
0.0
 11
14.8073414434
 21
82.3802437379
 31
0.0
  0
SPLINE
  5
176
330
1F
100
AcDbEntity
  8
0
  6
Continuous
 62
     7
370
    25
100
AcDbSpline
210
0.0
220
0.0
230
1.0
 70
     8
 71
     3
 72
     8
 73
     4
 74
     0
 42
0.00000001
 43
0.00000001
 40
0.0
 40
0.0
 40
0.0
 40
0.0
 40
1.0
 40
1.0
 40
1.0
 40
1.0
 10
41.80734144337947
 20
84.25414716228444
 30
0.0
 10
41.80734144337947
 20
84.55257003038518
 30
0.0
 10
41.84793424752961
 20
84.84498798026713
 30
0.0
 10
41.93694294291803
 20
85.13024373789693
 30
0.0
  0
LINE
  5
177
330
1F
100
AcDbEntity
  8
0
  6
Continuous
 62
     7
370
    25
100
AcDbLine
 10
41.9369429429
 20
85.1302437379
 30
0.0
 11
42.404542568
 21
84.9843380673
 31
0.0
  0
LINE
  5
178
330
1F
100
AcDbEntity
  8
0
  6
Continuous
 62
     7
370
    25
100
AcDbLine
 10
42.3073414434
 20
84.2541471623
 30
0.0
 11
41.8073414434
 21
84.2541471623
 31
0.0
  0
LINE
  5
179
330
1F
100
AcDbEntity
  8
0
  6
Continuous
 62
     7
370
    25
100
AcDbLine
 10
27.2101403187
 20
84.9843380673
 30
0.0
 11
27.6777399438
 21
85.1302437379
 31
0.0
  0
SPLINE
  5
17A
330
1F
100
AcDbEntity
  8
0
  6
Continuous
 62
     7
370
    25
100
AcDbSpline
210
0.0
220
0.0
230
1.0
 70
     8
 71
     3
 72
     8
 73
     4
 74
     0
 42
0.00000001
 43
0.00000001
 40
0.0
 40
0.0
 40
0.0
 40
0.0
 40
1.0
 40
1.0
 40
1.0
 40
1.0
 10
27.67773994384091
 20
85.13024373789693
 30
0.0
 10
27.76674863922932
 20
84.84498798026713
 30
0.0
 10
27.80734144337947
 20
84.55257003038518
 30
0.0
 10
27.80734144337947
 20
84.25414716228444
 30
0.0
  0
LINE
  5
17B
330
1F
100
AcDbEntity
  8
0
  6
Continuous
 62
     7
370
    25
100
AcDbLine
 10
27.3073414434
 20
84.2541471623
 30
0.0
 11
27.8073414434
 21
84.2541471623
 31
0.0
  0
LINE
  5
17C
330
1F
100
AcDbEntity
  8
0
  6
Continuous
 62
     7
370
    25
100
AcDbLine
 10
42.404542568
 20
69.2761494084
 30
0.0
 11
41.9369429429
 21
69.1302437379
 31
0.0
  0
SPLINE
  5
17D
330
1F
100
AcDbEntity
  8
0
  6
Continuous
 62
     7
370
    25
100
AcDbSpline
210
0.0
220
0.0
230
1.0
 70
     8
 71
     3
 72
     8
 73
     4
 74
     0
 42
0.00000001
 43
0.00000001
 40
0.0
 40
0.0
 40
0.0
 40
0.0
 40
1.0
 40
1.0
 40
1.0
 40
1.0
 10
41.93694294291803
 20
69.13024373789693
 30
0.0
 10
41.84793424752961
 20
69.41549949552673
 30
0.0
 10
41.80734144337947
 20
69.70791744540868
 30
0.0
 10
41.80734144337947
 20
70.00634031350943
 30
0.0
  0
LINE
  5
17E
330
1F
100
AcDbEntity
  8
0
  6
Continuous
 62
     7
370
    25
100
AcDbLine
 10
42.3073414434
 20
70.0063403135
 30
0.0
 11
41.8073414434
 21
70.0063403135
 31
0.0
  0
SPLINE
  5
17F
330
1F
100
AcDbEntity
  8
0
  6
Continuous
 62
     7
370
    25
100
AcDbSpline
210
0.0
220
0.0
230
1.0
 70
     8
 71
     3
 72
     8
 73
     4
 74
     0
 42
0.00000001
 43
0.00000001
 40
0.0
 40
0.0
 40
0.0
 40
0.0
 40
1.0
 40
1.0
 40
1.0
 40
1.0
 10
27.80734144337947
 20
70.00634031350943
 30
0.0
 10
27.80734144337947
 20
69.70791744540868
 30
0.0
 10
27.76674863922932
 20
69.41549949552673
 30
0.0
 10
27.67773994384091
 20
69.13024373789693
 30
0.0
  0
LINE
  5
180
330
1F
100
AcDbEntity
  8
0
  6
Continuous
 62
     7
370
    25
100
AcDbLine
 10
27.6777399438
 20
69.1302437379
 30
0.0
 11
27.2101403187
 21
69.2761494084
 31
0.0
  0
LINE
  5
181
330
1F
100
AcDbEntity
  8
0
  6
Continuous
 62
     7
370
    25
100
AcDbLine
 10
27.8073414434
 20
70.0063403135
 30
0.0
 11
27.3073414434
 21
70.0063403135
 31
0.0
  0
LINE
  5
182
330
1F
100
AcDbEntity
  8
0
  6
Continuous
 62
     7
370
    25
100
AcDbLine
 10
41.8073414434
 20
84.2541471623
 30
0.0
 11
41.8073414434
 21
83.8583747498
 31
0.0
  0
LINE
  5
183
330
1F
100
AcDbEntity
  8
0
  6
Continuous
 62
     7
370
    25
100
AcDbLine
 10
27.8073414434
 20
84.2541471623
 30
0.0
 11
27.8073414434
 21
83.8583747498
 31
0.0
  0
LINE
  5
184
330
1F
100
AcDbEntity
  8
0
  6
Continuous
 62
     7
370
    25
100
AcDbLine
 10
27.8073414434
 20
70.402112726
 30
0.0
 11
27.8073414434
 21
70.0063403135
 31
0.0
  0
LINE
  5
185
330
1F
100
AcDbEntity
  8
0
  6
Continuous
 62
     7
370
    25
100
AcDbLine
 10
41.8073414434
 20
70.402112726
 30
0.0
 11
41.8073414434
 21
70.0063403135
 31
0.0
  0
ARC
  5
186
330
1F
100
AcDbEntity
  8
0
  6
Continuous
 62
     7
370
    25
100
AcDbCircle
 10
27.5057231669
 20
86.1095525554
 30
0.0
 40
0.4793241179194846
100
AcDbArc
 50
206.8979585986
 51
269.5422002632
  0
SPLINE
  5
187
330
1F
100
AcDbEntity
  8
0
  6
Continuous
 62
     7
370
    25
100
AcDbSpline
210
0.0
220
0.0
230
1.0
 70
     8
 71
     3
 72
    14
 73
    10
 74
     0
 42
0.00000001
 43
0.00000001
 40
0.0
 40
0.0
 40
0.0
 40
0.0
 40
0.25
 40
0.25
 40
0.5
 40
0.5
 40
0.75
 40
0.75
 40
1.0
 40
1.0
 40
1.0
 40
1.0
 10
27.67773994384091
 20
85.13024373789693
 30
0.0
 10
27.63926446021932
 20
85.19189700212442
 30
0.0
 10
27.5981755387493
 20
85.25008094739732
 30
0.0
 10
27.51889269130873
 20
85.36374626886426
 30
0.0
 10
27.48160979019828
 20
85.41742286756403
 30
0.0
 10
27.4288040308865
 20
85.5174129000107
 30
0.0
 10
27.41683477079287
 20
85.56181740023364
 30
0.0
 10
27.43683655916503
 20
85.61787725572744
 30
0.0
 10
27.46629301471733
 20
85.63024373789693
 30
0.0
 10
27.50189335391009
 20
85.63024373789693
 30
0.0
  0
ARC
  5
188
330
1F
100
AcDbEntity
  8
0
  6
Continuous
 62
     7
370
    25
100
AcDbCircle
 10
42.1089597199
 20
68.1509349204
 30
0.0
 40
0.4793241179194925
100
AcDbArc
 50
26.8979585986
 51
89.5422002632
  0
SPLINE
  5
189
330
1F
100
AcDbEntity
  8
0
  6
Continuous
 62
     7
370
    25
100
AcDbSpline
210
0.0
220
0.0
230
1.0
 70
     8
 71
     3
 72
    14
 73
    10
 74
     0
 42
0.00000001
 43
0.00000001
 40
0.0
 40
0.0
 40
0.0
 40
0.0
 40
0.25
 40
0.25
 40
0.5
 40
0.5
 40
0.75
 40
0.75
 40
1.0
 40
1.0
 40
1.0
 40
1.0
 10
41.93694294291803
 20
69.13024373789693
 30
0.0
 10
41.97541842653963
 20
69.06859047366945
 30
0.0
 10
42.01650734800965
 20
69.01040652839653
 30
0.0
 10
42.09579019545021
 20
68.89674120692958
 30
0.0
 10
42.13307309656067
 20
68.84306460822982
 30
0.0
 10
42.18587885587245
 20
68.74307457578315
 30
0.0
 10
42.19784811596607
 20
68.69867007556023
 30
0.0
 10
42.17784632759391
 20
68.64261022006643
 30
0.0
 10
42.14838987204161
 20
68.63024373789693
 30
0.0
 10
42.11278953284885
 20
68.63024373789693
 30
0.0
  0
SPLINE
  5
18A
330
1F
100
AcDbEntity
  8
0
  6
Continuous
 62
     7
370
    25
100
AcDbSpline
210
0.0
220
0.0
230
1.0
 70
     8
 71
     3
 72
    16
 73
    12
 74
     0
 42
0.00000001
 43
0.00000001
 40
0.0
 40
0.0
 40
0.0
 40
0.0
 40
0.2500000000000049
 40
0.2500000000000049
 40
0.3750000000000051
 40
0.3750000000000051
 40
0.5000000000000052
 40
0.5000000000000052
 40
0.7500000000000026
 40
0.7500000000000026
 40
1.0
 40
1.0
 40
1.0
 40
1.0
 10
42.11278953284885
 20
85.63024373789693
 30
0.0
 10
42.14834346229751
 20
85.63024373789693
 30
0.0
 10
42.17761560352621
 20
85.61811198748111
 30
0.0
 10
42.19282815374708
 20
85.5760902812017
 30
0.0
 10
42.19288882192061
 20
85.55787591169515
 30
0.0
 10
42.1826782374433
 20
85.5159388991686
 30
0.0
 10
42.17289490791806
 20
85.49291133567431
 30
0.0
 10
42.13373035938612
 20
85.4185026569023
 30
0.0
 10
42.09585728611285
 20
85.3638447807198
 30
0.0
 10
42.01678431312126
 20
85.25047570754107
 30
0.0
 10
41.97539718053045
 20
85.19186295743687
 30
0.0
 10
41.93694294291803
 20
85.13024373789693
 30
0.0
  0
ARC
  5
18B
330
1F
100
AcDbEntity
  8
0
  6
Continuous
 62
     7
370
    25
100
AcDbCircle
 10
42.1089597199
 20
86.1095525554
 30
0.0
 40
0.4793241179194863
100
AcDbArc
 50
270.4577997368
 51
333.1020414014
  0
SPLINE
  5
18C
330
1F
100
AcDbEntity
  8
0
  6
Continuous
 62
     7
370
    25
100
AcDbSpline
210
0.0
220
0.0
230
1.0
 70
     8
 71
     3
 72
    16
 73
    12
 74
     0
 42
0.00000001
 43
0.00000001
 40
0.0
 40
0.0
 40
0.0
 40
0.0
 40
0.2500000000000011
 40
0.2500000000000011
 40
0.3749999999999992
 40
0.3749999999999992
 40
0.4999999999999974
 40
0.4999999999999974
 40
0.7499999999999987
 40
0.7499999999999987
 40
1.0
 40
1.0
 40
1.0
 40
1.0
 10
27.50189335391009
 20
68.63024373789693
 30
0.0
 10
27.46633942446143
 20
68.63024373789693
 30
0.0
 10
27.43706728323274
 20
68.64237548831272
 30
0.0
 10
27.42185473301186
 20
68.68439719459215
 30
0.0
 10
27.42179406483832
 20
68.70261156409869
 30
0.0
 10
27.43200464931564
 20
68.74454857662526
 30
0.0
 10
27.44178797884088
 20
68.76757614011954
 30
0.0
 10
27.48095252737282
 20
68.84198481889156
 30
0.0
 10
27.51882560064609
 20
68.89664269507406
 30
0.0
 10
27.59789857363767
 20
69.0100117682528
 30
0.0
 10
27.63928570622849
 20
69.068624518357
 30
0.0
 10
27.6777399438409
 20
69.13024373789693
 30
0.0
  0
ARC
  5
18D
330
1F
100
AcDbEntity
  8
0
  6
Continuous
 62
     7
370
    25
100
AcDbCircle
 10
27.5057231669
 20
68.1509349204
 30
0.0
 40
0.4793241179194765
100
AcDbArc
 50
90.4577997368
 51
153.1020414014
  0
LINE
  5
18E
330
1F
100
AcDbEntity
  8
0
  6
Continuous
 62
     7
370
    25
100
AcDbLine
 10
27.5018933539
 20
85.6302437379
 30
0.0
 11
42.1127895328
 21
85.6302437379
 31
0.0
  0
LINE
  5
18F
330
1F
100
AcDbEntity
  8
0
  6
Continuous
 62
     7
370
    25
100
AcDbLine
 10
41.9369429429
 20
85.1302437379
 30
0.0
 11
27.6777399438
 21
85.1302437379
 31
0.0
  0
LINE
  5
190
330
1F
100
AcDbEntity
  8
0
  6
Continuous
 62
     7
370
    25
100
AcDbLine
 10
27.6777399438
 20
69.1302437379
 30
0.0
 11
41.9369429429
 21
69.1302437379
 31
0.0
  0
LINE
  5
191
330
1F
100
AcDbEntity
  8
0
  6
Continuous
 62
     7
370
    25
100
AcDbLine
 10
42.1127895328
 20
68.6302437379
 30
0.0
 11
27.5018933539
 21
68.6302437379
 31
0.0
  0
SPLINE
  5
192
330
1F
100
AcDbEntity
  8
0
  6
Continuous
 62
     7
370
    25
100
AcDbSpline
210
0.0
220
0.0
230
1.0
 70
     8
 71
     3
 72
    15
 73
    11
 74
     0
 42
0.00000001
 43
0.00000001
 40
0.0
 40
0.0
 40
0.0
 40
0.0
 40
0.0081667445812695
 40
0.3321939991490082
 40
0.4756279600585605
 40
0.68668309732849
 40
0.8457435502264812
 40
0.8967566214763185
 40
0.9909540928118029
 40
1.0
 40
1.0
 40
1.0
 40
1.0
 10
39.90636095697224
 20
78.38024373789693
 30
0.0
 10
39.90684849111513
 20
78.38168120083594
 30
0.0
 10
39.92667963864723
 20
78.44015205878766
 30
0.0
 10
39.95496041865647
 20
78.52457723650714
 30
0.0
 10
39.9927897171453
 20
78.63915630852958
 30
0.0
 10
40.01937361371279
 20
78.72052719572618
 30
0.0
 10
40.03654343746776
 20
78.77354618772785
 30
0.0
 10
40.04436043368423
 20
78.79774811957199
 30
0.0
 10
40.04635612012012
 20
78.80393774023818
 30
0.0
 10
40.0464210840709
 20
78.80413913565073
 30
0.0
 10
40.04642677603757
 20
78.80415678137518
 30
0.0
  0
ARC
  5
193
330
1F
100
AcDbEntity
  8
0
  6
Continuous
 62
     7
370
    25
100
AcDbCircle
 10
34.8073414434
 20
77.1302437379
 30
0.0
 40
5.250000000000008
100
AcDbArc
 50
13.774146998
 51
166.225853002
  0
SPLINE
  5
194
330
1F
100
AcDbEntity
  8
0
  6
Continuous
 62
     7
370
    25
100
AcDbSpline
210
0.0
220
0.0
230
1.0
 70
     8
 71
     3
 72
    15
 73
    11
 74
     0
 42
0.00000001
 43
0.00000001
 40
0.0
 40
0.0
 40
0.0
 40
0.0
 40
0.0090459071881971
 40
0.1032433785236873
 40
0.1542564497735245
 40
0.3133169026715109
 40
0.5243720399414425
 40
0.6678060008509904
 40
0.9918332554187292
 40
1.0
 40
1.0
 40
1.0
 40
1.0
 10
29.56825611072135
 20
78.80415678137518
 30
0.0
 10
29.56826180268802
 20
78.80413913565073
 30
0.0
 10
29.56832676663881
 20
78.80393774023818
 30
0.0
 10
29.57032245307469
 20
78.79774811957199
 30
0.0
 10
29.57813944929115
 20
78.77354618772785
 30
0.0
 10
29.59530927304613
 20
78.72052719572616
 30
0.0
 10
29.62189316961361
 20
78.63915630852958
 30
0.0
 10
29.65972246810245
 20
78.52457723650714
 30
0.0
 10
29.6880032481117
 20
78.44015205878767
 30
0.0
 10
29.70783439564379
 20
78.38168120083594
 30
0.0
 10
29.70832192978667
 20
78.38024373789693
 30
0.0
  0
ARC
  5
195
330
1F
100
AcDbEntity
  8
0
  6
Continuous
 62
     7
370
    25
100
AcDbCircle
 10
34.8073414434
 20
77.1302437379
 30
0.0
 40
5.500000000000004
100
AcDbArc
 50
17.7189318734
 51
162.2810681266
  0
ARC
  5
196
330
1F
100
AcDbEntity
  8
0
  6
Continuous
 62
     7
370
    25
100
AcDbCircle
 10
29.3301158683
 20
78.8802437379
 30
0.0
 40
0.2500000000000043
100
AcDbArc
 50
270.0
 51
342.2810681266
  0
SPLINE
  5
197
330
1F
100
AcDbEntity
  8
0
  6
Continuous
 62
     7
370
    25
100
AcDbSpline
210
0.0
220
0.0
230
1.0
 70
     8
 71
     3
 72
    15
 73
    11
 74
     0
 42
0.00000001
 43
0.00000001
 40
0.0
 40
0.0
 40
0.0
 40
0.0
 40
0.0080847466189818
 40
0.3310106400647566
 40
0.4750333064304971
 40
0.6874363079215134
 40
0.8468367539418253
 40
0.9000996640391794
 40
0.9910442771984082
 40
1.0
 40
1.0
 40
1.0
 40
1.0
 10
29.70832192978667
 20
78.38024373789693
 30
0.0
 10
29.70704209824254
 20
78.3810596738852
 30
0.0
 10
29.65464245251875
 20
78.41446622407884
 30
0.0
 10
29.57928736106432
 20
78.46327978881372
 30
0.0
 10
29.47736824904653
 20
78.53065026108185
 30
0.0
 10
29.40497730405463
 20
78.57923430142534
 30
0.0
 10
29.3572718757898
 20
78.61168316288388
 30
0.0
 10
29.33573639208249
 20
78.62639420395016
 30
0.0
 10
29.33030737606296
 20
78.63011265486827
 30
0.0
 10
29.3301316239064
 20
78.63023295353378
 30
0.0
 10
29.3301158683278
 20
78.63024373789693
 30
0.0
  0
SPLINE
  5
198
330
1F
100
AcDbEntity
  8
0
  6
Continuous
 62
     7
370
    25
100
AcDbSpline
210
0.0
220
0.0
230
1.0
 70
     8
 71
     3
 72
    15
 73
    11
 74
     0
 42
0.00000001
 43
0.00000001
 40
0.0
 40
0.0
 40
0.0
 40
0.0
 40
0.0089557228015919
 40
0.0999003359608209
 40
0.1531632460581751
 40
0.3125636920784905
 40
0.5249666935695062
 40
0.6689893599351778
 40
0.991915253381045
 40
1.0
 40
1.0
 40
1.0
 40
1.0
 10
29.3301158683278
 20
75.63024373789692
 30
0.0
 10
29.3301316239064
 20
75.63025452226007
 30
0.0
 10
29.33030737606297
 20
75.6303748209256
 30
0.0
 10
29.33573639208248
 20
75.6340932718437
 30
0.0
 10
29.35727187578981
 20
75.64880431290997
 30
0.0
 10
29.40497730405462
 20
75.68125317436852
 30
0.0
 10
29.47736824904655
 20
75.72983721471195
 30
0.0
 10
29.57928736106422
 20
75.7972076869803
 30
0.0
 10
29.65464245251925
 20
75.8460212517142
 30
0.0
 10
29.70704209824255
 20
75.87942780190863
 30
0.0
 10
29.70832192978667
 20
75.88024373789692
 30
0.0
  0
SPLINE
  5
199
330
1F
100
AcDbEntity
  8
0
  6
Continuous
 62
     7
370
    25
100
AcDbSpline
210
0.0
220
0.0
230
1.0
 70
     8
 71
     3
 72
    15
 73
    11
 74
     0
 42
0.00000001
 43
0.00000001
 40
0.0
 40
0.0
 40
0.0
 40
0.0
 40
0.0081667445812973
 40
0.3321939991490802
 40
0.4756279600585562
 40
0.6866830973284892
 40
0.8457435502264752
 40
0.8967566214763124
 40
0.9909540928118028
 40
1.0
 40
1.0
 40
1.0
 40
1.0
 10
29.70832192978667
 20
75.88024373789692
 30
0.0
 10
29.7078343956438
 20
75.87880627495791
 30
0.0
 10
29.68800324811255
 20
75.82033541700591
 30
0.0
 10
29.65972246810228
 20
75.73591023928675
 30
0.0
 10
29.62189316961366
 20
75.62133116726424
 30
0.0
 10
29.59530927304612
 20
75.53996028006767
 30
0.0
 10
29.57813944929116
 20
75.48694128806602
 30
0.0
 10
29.5703224530747
 20
75.46273935622187
 30
0.0
 10
29.56832676663882
 20
75.45654973555568
 30
0.0
 10
29.56826180268802
 20
75.45634834014312
 30
0.0
 10
29.56825611072135
 20
75.45633069441867
 30
0.0
  0
ARC
  5
19A
330
1F
100
AcDbEntity
  8
0
  6
Continuous
 62
     7
370
    25
100
AcDbCircle
 10
29.3301158683
 20
75.3802437379
 30
0.0
 40
0.2500000000000043
100
AcDbArc
 50
17.7189318734
 51
90.0
  0
SPLINE
  5
19B
330
1F
100
AcDbEntity
  8
0
  6
Continuous
 62
     7
370
    25
100
AcDbSpline
210
0.0
220
0.0
230
1.0
 70
     8
 71
     3
 72
    15
 73
    11
 74
     0
 42
0.00000001
 43
0.00000001
 40
0.0
 40
0.0
 40
0.0
 40
0.0
 40
0.0090459071881971
 40
0.1032433785236815
 40
0.1542564497735188
 40
0.3133169026715099
 40
0.5243720399414424
 40
0.6678060008509183
 40
0.9918332554187027
 40
0.9999999999999999
 40
0.9999999999999999
 40
0.9999999999999999
 40
0.9999999999999999
 10
40.04642677603757
 20
75.45633069441867
 30
0.0
 10
40.0464210840709
 20
75.45634834014312
 30
0.0
 10
40.04635612012011
 20
75.45654973555568
 30
0.0
 10
40.04436043368422
 20
75.46273935622187
 30
0.0
 10
40.03654343746776
 20
75.48694128806602
 30
0.0
 10
40.0193736137128
 20
75.53996028006767
 30
0.0
 10
39.99278971714526
 20
75.62133116726424
 30
0.0
 10
39.95496041865663
 20
75.73591023928675
 30
0.0
 10
39.92667963864641
 20
75.82033541700591
 30
0.0
 10
39.90684849111511
 20
75.87880627495791
 30
0.0
 10
39.90636095697224
 20
75.88024373789692
 30
0.0
  0
ARC
  5
19C
330
1F
100
AcDbEntity
  8
0
  6
Continuous
 62
     7
370
    25
100
AcDbCircle
 10
34.8073414434
 20
77.1302437379
 30
0.0
 40
5.5
100
AcDbArc
 50
197.7189318734
 51
342.2810681266
  0
ARC
  5
19D
330
1F
100
AcDbEntity
  8
0
  6
Continuous
 62
     7
370
    25
100
AcDbCircle
 10
34.8073414434
 20
77.1302437379
 30
0.0
 40
5.250000000000004
100
AcDbArc
 50
193.774146998
 51
346.225853002
  0
SPLINE
  5
19E
330
1F
100
AcDbEntity
  8
0
  6
Continuous
 62
     7
370
    25
100
AcDbSpline
210
0.0
220
0.0
230
1.0
 70
     8
 71
     3
 72
    15
 73
    11
 74
     0
 42
0.00000001
 43
0.00000001
 40
0.0
 40
0.0
 40
0.0
 40
0.0
 40
0.0080847466189582
 40
0.3310106400648242
 40
0.4750333064304946
 40
0.687436307921514
 40
0.8468367539418302
 40
0.9000996640391846
 40
0.991044277198408
 40
1.0
 40
1.0
 40
1.0
 40
1.0
 10
39.90636095697224
 20
75.88024373789692
 30
0.0
 10
39.90764078851637
 20
75.87942780190863
 30
0.0
 10
39.96004043423962
 20
75.8460212517141
 30
0.0
 10
40.03539552569472
 20
75.79720768698031
 30
0.0
 10
40.13731463771237
 20
75.72983721471195
 30
0.0
 10
40.2097055827043
 20
75.68125317436854
 30
0.0
 10
40.25741101096911
 20
75.64880431290997
 30
0.0
 10
40.27894649467643
 20
75.63409327184371
 30
0.0
 10
40.28437551069595
 20
75.6303748209256
 30
0.0
 10
40.28455126285252
 20
75.63025452226007
 30
0.0
 10
40.28456701843113
 20
75.63024373789692
 30
0.0
  0
ARC
  5
19F
330
1F
100
AcDbEntity
  8
0
  6
Continuous
 62
     7
370
    25
100
AcDbCircle
 10
40.2845670184
 20
75.3802437379
 30
0.0
 40
0.2500000000000077
100
AcDbArc
 50
90.0
 51
162.2810681266
  0
ARC
  5
1A0
330
1F
100
AcDbEntity
  8
0
  6
Continuous
 62
     7
370
    25
100
AcDbCircle
 10
40.2845670184
 20
78.8802437379
 30
0.0
 40
0.2500000000000077
100
AcDbArc
 50
197.7189318734
 51
270.0
  0
SPLINE
  5
1A1
330
1F
100
AcDbEntity
  8
0
  6
Continuous
 62
     7
370
    25
100
AcDbSpline
210
0.0
220
0.0
230
1.0
 70
     8
 71
     3
 72
    15
 73
    11
 74
     0
 42
0.00000001
 43
0.00000001
 40
0.0
 40
0.0
 40
0.0
 40
0.0
 40
0.0089557228015919
 40
0.0999003359608148
 40
0.153163246058169
 40
0.3125636920784849
 40
0.5249666935695
 40
0.6689893599352452
 40
0.9919152533810159
 40
1.0
 40
1.0
 40
1.0
 40
1.0
 10
40.28456701843113
 20
78.63024373789693
 30
0.0
 10
40.28455126285252
 20
78.63023295353379
 30
0.0
 10
40.28437551069595
 20
78.63011265486827
 30
0.0
 10
40.27894649467643
 20
78.62639420395016
 30
0.0
 10
40.25741101096912
 20
78.61168316288389
 30
0.0
 10
40.2097055827043
 20
78.57923430142534
 30
0.0
 10
40.13731463771239
 20
78.53065026108186
 30
0.0
 10
40.03539552569461
 20
78.46327978881371
 30
0.0
 10
39.96004043424013
 20
78.41446622407892
 30
0.0
 10
39.90764078851639
 20
78.3810596738852
 30
0.0
 10
39.90636095697224
 20
78.38024373789693
 30
0.0
  0
LINE
  5
1A2
330
1F
100
AcDbEntity
  8
0
  6
Continuous
 62
     7
370
    25
100
AcDbLine
 10
39.8073414434
 20
76.5302437379
 30
0.0
 11
39.8073414434
 21
77.7302437379
 31
0.0
  0
LINE
  5
1A3
330
1F
100
AcDbEntity
  8
0
  6
Continuous
 62
     7
370
    25
100
AcDbLine
 10
29.8073414434
 20
76.5302437379
 30
0.0
 11
39.8073414434
 21
76.5302437379
 31
0.0
  0
LINE
  5
1A4
330
1F
100
AcDbEntity
  8
0
  6
Continuous
 62
     7
370
    25
100
AcDbLine
 10
39.8073414434
 20
77.7302437379
 30
0.0
 11
29.8073414434
 21
77.7302437379
 31
0.0
  0
LINE
  5
1A5
330
1F
100
AcDbEntity
  8
0
  6
Continuous
 62
     7
370
    25
100
AcDbLine
 10
29.8073414434
 20
77.7302437379
 30
0.0
 11
29.8073414434
 21
76.5302437379
 31
0.0
  0
LINE
  5
1A6
330
1F
100
AcDbEntity
  8
0
  6
Continuous
 62
     7
370
    25
100
AcDbLine
 10
40.5573414434
 20
78.3802437379
 30
0.0
 11
39.906360957
 21
78.3802437379
 31
0.0
  0
LINE
  5
1A7
330
1F
100
AcDbEntity
  8
0
  6
Continuous
 62
     7
370
    25
100
AcDbLine
 10
40.5573414434
 20
75.8802437379
 30
0.0
 11
40.5573414434
 21
78.3802437379
 31
0.0
  0
LINE
  5
1A8
330
1F
100
AcDbEntity
  8
0
  6
Continuous
 62
     7
370
    25
100
AcDbLine
 10
39.906360957
 20
75.8802437379
 30
0.0
 11
40.5573414434
 21
75.8802437379
 31
0.0
  0
LINE
  5
1A9
330
1F
100
AcDbEntity
  8
0
  6
Continuous
 62
     7
370
    25
100
AcDbLine
 10
29.0573414434
 20
75.8802437379
 30
0.0
 11
29.7083219298
 21
75.8802437379
 31
0.0
  0
LINE
  5
1AA
330
1F
100
AcDbEntity
  8
0
  6
Continuous
 62
     7
370
    25
100
AcDbLine
 10
29.0573414434
 20
78.3802437379
 30
0.0
 11
29.0573414434
 21
75.8802437379
 31
0.0
  0
LINE
  5
1AB
330
1F
100
AcDbEntity
  8
0
  6
Continuous
 62
     7
370
    25
100
AcDbLine
 10
29.7083219298
 20
78.3802437379
 30
0.0
 11
29.0573414434
 21
78.3802437379
 31
0.0
  0
LINE
  5
1AC
330
1F
100
AcDbEntity
  8
0
  6
Continuous
 62
     7
370
    25
100
AcDbLine
 10
40.5573414434
 20
78.3802437379
 30
0.0
 11
40.5573414434
 21
78.6302437379
 31
0.0
  0
LINE
  5
1AD
330
1F
100
AcDbEntity
  8
0
  6
Continuous
 62
     7
370
    25
100
AcDbLine
 10
40.2845670184
 20
78.6302437379
 30
0.0
 11
40.5573414434
 21
78.6302437379
 31
0.0
  0
LINE
  5
1AE
330
1F
100
AcDbEntity
  8
0
  6
Continuous
 62
     7
370
    25
100
AcDbLine
 10
29.0573414434
 20
78.6302437379
 30
0.0
 11
29.0573414434
 21
78.3802437379
 31
0.0
  0
LINE
  5
1AF
330
1F
100
AcDbEntity
  8
0
  6
Continuous
 62
     7
370
    25
100
AcDbLine
 10
29.0573414434
 20
78.3802437379
 30
0.0
 11
28.8073414434
 21
78.3802437379
 31
0.0
  0
ARC
  5
1B0
330
1F
100
AcDbEntity
  8
0
  6
Continuous
 62
     7
370
    25
100
AcDbCircle
 10
29.0573414434
 20
78.3802437379
 30
0.0
 40
0.25
100
AcDbArc
 50
90.0
 51
180.0
  0
LINE
  5
1B1
330
1F
100
AcDbEntity
  8
0
  6
Continuous
 62
     7
370
    25
100
AcDbLine
 10
29.0573414434
 20
78.6302437379
 30
0.0
 11
29.3301158683
 21
78.6302437379
 31
0.0
  0
ARC
  5
1B2
330
1F
100
AcDbEntity
  8
0
  6
Continuous
 62
     7
370
    25
100
AcDbCircle
 10
40.5573414434
 20
78.3802437379
 30
0.0
 40
0.25
100
AcDbArc
 50
0.0
 51
90.0
  0
LINE
  5
1B3
330
1F
100
AcDbEntity
  8
0
  6
Continuous
 62
     7
370
    25
100
AcDbLine
 10
40.8073414434
 20
78.3802437379
 30
0.0
 11
40.5573414434
 21
78.3802437379
 31
0.0
  0
LINE
  5
1B4
330
1F
100
AcDbEntity
  8
0
  6
Continuous
 62
     7
370
    25
100
AcDbLine
 10
28.8073414434
 20
75.8802437379
 30
0.0
 11
29.0573414434
 21
75.8802437379
 31
0.0
  0
LINE
  5
1B5
330
1F
100
AcDbEntity
  8
0
  6
Continuous
 62
     7
370
    25
100
AcDbLine
 10
28.8073414434
 20
75.8802437379
 30
0.0
 11
28.8073414434
 21
78.3802437379
 31
0.0
  0
LINE
  5
1B6
330
1F
100
AcDbEntity
  8
0
  6
Continuous
 62
     7
370
    25
100
AcDbLine
 10
40.8073414434
 20
78.3802437379
 30
0.0
 11
40.8073414434
 21
75.8802437379
 31
0.0
  0
LINE
  5
1B7
330
1F
100
AcDbEntity
  8
0
  6
Continuous
 62
     7
370
    25
100
AcDbLine
 10
40.5573414434
 20
75.8802437379
 30
0.0
 11
40.8073414434
 21
75.8802437379
 31
0.0
  0
LINE
  5
1B8
330
1F
100
AcDbEntity
  8
0
  6
Continuous
 62
     7
370
    25
100
AcDbLine
 10
40.5573414434
 20
75.6302437379
 30
0.0
 11
40.5573414434
 21
75.8802437379
 31
0.0
  0
LINE
  5
1B9
330
1F
100
AcDbEntity
  8
0
  6
Continuous
 62
     7
370
    25
100
AcDbLine
 10
40.5573414434
 20
75.6302437379
 30
0.0
 11
40.2845670184
 21
75.6302437379
 31
0.0
  0
ARC
  5
1BA
330
1F
100
AcDbEntity
  8
0
  6
Continuous
 62
     7
370
    25
100
AcDbCircle
 10
40.5573414434
 20
75.8802437379
 30
0.0
 40
0.25
100
AcDbArc
 50
270.0
 51
0.0
  0
LINE
  5
1BB
330
1F
100
AcDbEntity
  8
0
  6
Continuous
 62
     7
370
    25
100
AcDbLine
 10
29.3301158683
 20
75.6302437379
 30
0.0
 11
29.0573414434
 21
75.6302437379
 31
0.0
  0
LINE
  5
1BC
330
1F
100
AcDbEntity
  8
0
  6
Continuous
 62
     7
370
    25
100
AcDbLine
 10
29.0573414434
 20
75.8802437379
 30
0.0
 11
29.0573414434
 21
75.6302437379
 31
0.0
  0
ARC
  5
1BD
330
1F
100
AcDbEntity
  8
0
  6
Continuous
 62
     7
370
    25
100
AcDbCircle
 10
29.0573414434
 20
75.8802437379
 30
0.0
 40
0.25
100
AcDbArc
 50
180.0
 51
270.0
  0
LINE
  5
1BE
330
1F
100
AcDbEntity
  8
0
  6
Continuous
 62
     7
370
    25
100
AcDbLine
 10
54.8073414434
 20
73.8585444738
 30
0.0
 11
56.9827783049
 21
73.6302437379
 31
0.0
  0
LINE
  5
1BF
330
1F
100
AcDbEntity
  8
0
  6
Continuous
 62
     7
370
    25
100
AcDbLine
 10
54.8073414434
 20
80.401943002
 30
0.0
 11
54.8073414434
 21
73.8585444738
 31
0.0
  0
LINE
  5
1C0
330
1F
100
AcDbEntity
  8
0
  6
Continuous
 62
     7
370
    25
100
AcDbLine
 10
56.9827783049
 20
80.6302437379
 30
0.0
 11
54.8073414434
 21
80.401943002
 31
0.0
  0
LINE
  5
1C1
330
1F
100
AcDbEntity
  8
0
  6
Continuous
 62
     7
370
    25
100
AcDbLine
 10
74.8073414434
 20
80.6302437379
 30
0.0
 11
56.9827783049
 21
80.6302437379
 31
0.0
  0
LINE
  5
1C2
330
1F
100
AcDbEntity
  8
0
  6
Continuous
 62
     7
370
    25
100
AcDbLine
 10
74.8073414434
 20
73.6302437379
 30
0.0
 11
74.8073414434
 21
80.6302437379
 31
0.0
  0
LINE
  5
1C3
330
1F
100
AcDbEntity
  8
0
  6
Continuous
 62
     7
370
    25
100
AcDbLine
 10
56.9827783049
 20
73.6302437379
 30
0.0
 11
74.8073414434
 21
73.6302437379
 31
0.0
  0
LINE
  5
1C4
330
1F
100
AcDbEntity
  8
0
  6
Continuous
 62
     7
370
    25
100
AcDbLine
 10
40.0311436177
 20
75.4092292571
 30
0.0
 11
40.1277079351
 21
75.5686285773
 31
0.0
  0
LINE
  5
1C5
330
1F
100
AcDbEntity
  8
0
  6
Continuous
 62
     7
370
    25
100
AcDbLine
 10
40.1499853157
 20
78.6754614053
 30
0.0
 11
40.0311436177
 21
78.8512582187
 31
0.0
  0
LINE
  5
1C6
330
1F
100
AcDbEntity
  8
0
  6
Continuous
 62
     7
370
    25
100
AcDbLine
 10
48.223911097
 20
74.5494411023
 30
0.0
 11
48.223911097
 21
79.7110463735
 31
0.0
  0
LINE
  5
1C7
330
1F
100
AcDbEntity
  8
0
  6
Continuous
 62
     7
370
    25
100
AcDbLine
 10
48.223911097
 20
74.5494411023
 30
0.0
 11
40.0311436177
 21
75.4092292571
 31
0.0
  0
LINE
  5
1C8
330
1F
100
AcDbEntity
  8
0
  6
Continuous
 62
     7
370
    25
100
AcDbLine
 10
40.0311436177
 20
78.8512582187
 30
0.0
 11
48.223911097
 21
79.7110463735
 31
0.0
  0
LINE
  5
1C9
330
1F
100
AcDbEntity
  8
0
  6
Continuous
 62
     7
370
    25
100
AcDbLine
 10
54.8073414434
 20
73.8585444738
 30
0.0
 11
48.223911097
 21
74.5494411023
 31
0.0
  0
LINE
  5
1CA
330
1F
100
AcDbEntity
  8
0
  6
Continuous
 62
     7
370
    25
100
AcDbLine
 10
48.223911097
 20
79.7110463735
 30
0.0
 11
54.8073414434
 21
80.401943002
 31
0.0
  0
ARC
  5
1CB
330
1F
100
AcDbEntity
  8
0
  6
Continuous
 62
     7
370
    25
100
AcDbCircle
 10
34.8073414434
 20
77.1302437379
 30
0.0
 40
7.450000000000647
100
AcDbArc
 50
53.0863788866
 51
306.9136211134
  0
ARC
  5
1CC
330
1F
100
AcDbEntity
  8
0
  6
Continuous
 62
     7
370
    25
100
AcDbCircle
 10
34.8073414434
 20
77.1302437379
 30
0.0
 40
7.207531252870803
100
AcDbArc
 50
15.3041237151
 51
58.9797515565
  0
ARC
  5
1CD
330
1F
100
AcDbEntity
  8
0
  6
Continuous
 62
     7
370
    25
100
AcDbCircle
 10
34.8073414434
 20
77.1302437379
 30
0.0
 40
7.207531252872433
100
AcDbArc
 50
301.0202484435
 51
344.6958762849
  0
ARC
  5
1CE
330
1F
100
AcDbEntity
  8
0
  6
Continuous
 62
     7
370
    25
100
AcDbCircle
 10
56.9827783049
 20
145.6302437379
 30
0.0
 40
65.00000000000001
100
AcDbArc
 50
253.4999050078
 51
270.0
  0
ARC
  5
1CF
330
1F
100
AcDbEntity
  8
0
  6
Continuous
 62
     7
370
    25
100
AcDbCircle
 10
56.9827783049
 20
8.6302437379
 30
0.0
 40
65.0
100
AcDbArc
 50
90.0
 51
106.5000949923
  0
SPLINE
  5
1D0
330
1F
100
AcDbEntity
  8
0
  6
Continuous
 62
     7
370
    25
100
AcDbSpline
210
0.0
220
0.0
230
1.0
 70
     8
 71
     3
 72
    11
 73
     7
 74
     0
 42
0.00000001
 43
0.00000001
 40
0.0
 40
0.0
 40
0.0
 40
0.0
 40
0.1829450983654378
 40
0.5571371855744948
 40
0.9317062879569865
 40
1.0
 40
1.0
 40
1.0
 40
1.0
 10
42.53642751048151
 20
68.36778255814711
 30
0.0
 10
42.5054036663844
 20
68.35298440151395
 30
0.0
 10
42.41092429885612
 20
68.30791840405374
 30
0.0
 10
42.34278111535022
 20
68.24464633848268
 30
0.0
 10
42.31648340284326
 20
68.18875903426581
 30
0.0
 10
42.31545384611186
 20
68.17955121683089
 30
0.0
 10
42.31529507854625
 20
68.17813128268432
 30
0.0
  0
SPLINE
  5
1D1
330
1F
100
AcDbEntity
  8
0
  6
Continuous
 62
     7
370
    25
100
AcDbSpline
210
0.0
220
0.0
230
1.0
 70
     8
 71
     3
 72
    11
 73
     7
 74
     0
 42
0.00000001
 43
0.00000001
 40
0.0
 40
0.0
 40
0.0
 40
0.0
 40
0.0631451044874329
 40
0.4402924664315868
 40
0.8170552935895091
 40
1.0
 40
1.0
 40
1.0
 40
1.0
 10
42.31513304835857
 20
86.08266709306459
 30
0.0
 10
42.31528310517312
 20
86.08135278332476
 30
0.0
 10
42.3163294077412
 20
86.07218848338898
 30
0.0
 10
42.3422799123826
 20
86.0163171648189
 30
0.0
 10
42.41049953362109
 20
85.95277983197735
 30
0.0
 10
42.50540645444019
 20
85.9075037521122
 30
0.0
 10
42.53642751048151
 20
85.89270491764674
 30
0.0
  0
SPLINE
  5
1D2
330
1F
100
AcDbEntity
  8
0
  6
Continuous
 62
     7
370
    25
100
AcDbSpline
210
0.0
220
0.0
230
1.0
 70
     8
 71
     3
 72
    11
 73
     7
 74
     0
 42
0.00000001
 43
0.00000001
 40
0.0
 40
0.0
 40
0.0
 40
0.0
 40
0.182945098365438
 40
0.5571371855744949
 40
0.9317062879569865
 40
1.0
 40
1.0
 40
1.0
 40
1.0
 10
27.07825537627743
 20
85.89270491764675
 30
0.0
 10
27.10927922037454
 20
85.90750307427992
 30
0.0
 10
27.20375858790282
 20
85.95256907174011
 30
0.0
 10
27.27190177140872
 20
86.01584113731118
 30
0.0
 10
27.29819948391569
 20
86.07172844152805
 30
0.0
 10
27.29922904064708
 20
86.08093625896298
 30
0.0
 10
27.29938780821269
 20
86.08235619310953
 30
0.0
  0
SPLINE
  5
1D3
330
1F
100
AcDbEntity
  8
0
  6
Continuous
 62
     7
370
    25
100
AcDbSpline
210
0.0
220
0.0
230
1.0
 70
     8
 71
     3
 72
    11
 73
     7
 74
     0
 42
0.00000001
 43
0.00000001
 40
0.0
 40
0.0
 40
0.0
 40
0.0
 40
0.0631451044874329
 40
0.4402924664315869
 40
0.8170552935895093
 40
0.9999999999999999
 40
0.9999999999999999
 40
0.9999999999999999
 40
0.9999999999999999
 10
27.29954983840038
 20
68.17782038272928
 30
0.0
 10
27.29939978158582
 20
68.17913469246909
 30
0.0
 10
27.29835347901775
 20
68.1882989924049
 30
0.0
 10
27.27240297437634
 20
68.24417031097497
 30
0.0
 10
27.20418335313785
 20
68.30770764381651
 30
0.0
 10
27.10927643231875
 20
68.35298372368166
 30
0.0
 10
27.07825537627743
 20
68.36778255814711
 30
0.0
  0
LINE
  5
1D4
330
1F
100
AcDbEntity
  8
0
  6
Continuous
 62
     7
370
    25
100
AcDbLine
 10
41.8073414434
 20
70.402112726
 30
0.0
 11
41.8073414434
 21
71.8339312574
 31
0.0
  0
LINE
  5
1D5
330
1F
100
AcDbEntity
  8
0
  6
Continuous
 62
     7
370
    25
100
AcDbLine
 10
41.8073414434
 20
82.4265562184
 30
0.0
 11
41.8073414434
 21
83.8583747498
 31
0.0
  0
LINE
  5
1D6
330
1F
100
AcDbEntity
  8
0
  6
Continuous
 62
     7
370
    25
100
AcDbLine
 10
27.8073414434
 20
83.8583747498
 30
0.0
 11
27.8073414434
 21
79.6802437379
 31
0.0
  0
LINE
  5
1D7
330
1F
100
AcDbEntity
  8
0
  6
Continuous
 62
     7
370
    25
100
AcDbLine
 10
27.8073414434
 20
74.5802437379
 30
0.0
 11
27.8073414434
 21
70.402112726
 31
0.0
  0
LINE
  5
1D8
330
1F
100
AcDbEntity
  8
0
  6
Continuous
 62
     7
370
    25
100
AcDbLine
 10
27.8073414434
 20
70.402112726
 30
0.0
 11
31.6081613787
 21
70.402112726
 31
0.0
  0
LINE
  5
1D9
330
1F
100
AcDbEntity
  8
0
  6
Continuous
 62
     7
370
    25
100
AcDbLine
 10
38.0065215081
 20
70.402112726
 30
0.0
 11
41.8073414434
 21
70.402112726
 31
0.0
  0
LINE
  5
1DA
330
1F
100
AcDbEntity
  8
0
  6
Continuous
 62
     7
370
    25
100
AcDbLine
 10
41.8073414434
 20
83.8583747498
 30
0.0
 11
38.0065215081
 21
83.8583747498
 31
0.0
  0
LINE
  5
1DB
330
1F
100
AcDbEntity
  8
0
  6
Continuous
 62
     7
370
    25
100
AcDbLine
 10
31.6081613787
 20
83.8583747498
 30
0.0
 11
27.8073414434
 21
83.8583747498
 31
0.0
  0
LINE
  5
1DC
330
1F
100
AcDbEntity
  8
0
  6
Continuous
 62
     7
370
    25
100
AcDbLine
 10
27.8073414434
 20
84.2541471623
 30
0.0
 11
32.6273185077
 21
84.2541471623
 31
0.0
  0
LINE
  5
1DD
330
1F
100
AcDbEntity
  8
0
  6
Continuous
 62
     7
370
    25
100
AcDbLine
 10
36.9873643791
 20
84.2541471623
 30
0.0
 11
41.8073414434
 21
84.2541471623
 31
0.0
  0
LINE
  5
1DE
330
1F
100
AcDbEntity
  8
0
  6
Continuous
 62
     7
370
    25
100
AcDbLine
 10
41.8073414434
 20
70.0063403135
 30
0.0
 11
36.9873643791
 21
70.0063403135
 31
0.0
  0
LINE
  5
1DF
330
1F
100
AcDbEntity
  8
0
  6
Continuous
 62
     7
370
    25
100
AcDbLine
 10
32.6273185077
 20
70.0063403135
 30
0.0
 11
27.8073414434
 21
70.0063403135
 31
0.0
  0
INSERT
  5
1EB
330
1F
100
AcDbEntity
  8
0
  6
Continuous
 62
     7
370
    18
100
AcDbBlockReference
  2
SW_CENTERMARKSYMBOL_0
 10
34.8073414434
 20
77.1302437379
 30
0.0
  0
LINE
  5
1EC
330
1F
100
AcDbEntity
  8
0
  6
Continuous
 62
     7
370
    18
100
AcDbLine
 10
24.3073414434
 20
83.1271187379
 30
0.0
 11
15.6313659411
 21
82.8559945034
 31
0.0
  0
LINE
  5
1ED
330
1F
100
AcDbEntity
  8
0
  6
Continuous
 62
     7
370
    18
100
AcDbLine
 10
15.6313659411
 20
71.4044929723
 30
0.0
 11
24.3073414434
 21
71.1333687379
 31
0.0
  0
LINE
  5
1EE
330
1F
100
AcDbEntity
  8
0
  6
Continuous
 62
     7
370
    18
100
AcDbLine
 10
55.3073414434
 20
71.1108687379
 30
0.0
 11
63.9421157208
 21
71.3807054341
 31
0.0
  0
LINE
  5
1EF
330
1F
100
AcDbEntity
  8
0
  6
Continuous
 62
     7
370
    18
100
AcDbLine
 10
63.9421157208
 20
82.8797820417
 30
0.0
 11
55.3073414434
 21
83.1496187379
 31
0.0
  0
LINE
  5
1F0
330
1F
100
AcDbEntity
  8
0
  6
Continuous
 62
     7
370
    25
100
AcDbLine
 10
110.9547592548
 20
32.5964853168
 30
0.0
 11
110.9547592548
 21
34.0983916465
 31
0.0
  0
LINE
  5
1F1
330
1F
100
AcDbEntity
  8
0
  6
Continuous
 62
     7
370
    25
100
AcDbLine
 10
99.1547592548
 20
34.0983916465
 30
0.0
 11
99.1547592548
 21
31.6724240963
 31
0.0
  0
ARC
  5
1F2
330
1F
100
AcDbEntity
  8
0
  6
Continuous
 62
     7
370
    25
100
AcDbCircle
 10
110.7547592548
 20
32.1401340768
 30
0.0
 40
0.4999999999999993
100
AcDbArc
 50
359.992141364
 51
66.3930114207
  0
ARC
  5
1F3
330
1F
100
AcDbEntity
  8
0
  6
Continuous
 62
     7
370
    25
100
AcDbCircle
 10
99.8047592548
 20
50.6983916465
 30
0.0
 40
0.25
100
AcDbArc
 50
90.0
 51
180.0
  0
ARC
  5
1F4
330
1F
100
AcDbEntity
  8
0
  6
Continuous
 62
     7
370
    25
100
AcDbCircle
 10
110.3047592548
 20
50.6983916465
 30
0.0
 40
0.25
100
AcDbArc
 50
0.0
 51
90.0
  0
LINE
  5
1F5
330
1F
100
AcDbEntity
  8
0
  6
Continuous
 62
     7
370
    25
100
AcDbLine
 10
99.5547592548
 20
50.6983916465
 30
0.0
 11
99.5547592548
 21
50.0983916465
 31
0.0
  0
LINE
  5
1F6
330
1F
100
AcDbEntity
  8
0
  6
Continuous
 62
     7
370
    25
100
AcDbLine
 10
110.5547592548
 20
50.0983916465
 30
0.0
 11
110.5547592548
 21
50.6983916465
 31
0.0
  0
LINE
  5
1F7
330
1F
100
AcDbEntity
  8
0
  6
Continuous
 62
     7
370
    25
100
AcDbLine
 10
112.5047592548
 20
42.0983916465
 30
0.0
 11
110.5547592548
 21
50.0983916465
 31
0.0
  0
LINE
  5
1F8
330
1F
100
AcDbEntity
  8
0
  6
Continuous
 62
     7
370
    25
100
AcDbLine
 10
99.5547592548
 20
50.0983916465
 30
0.0
 11
97.6047592548
 21
42.0983916465
 31
0.0
  0
LINE
  5
1F9
330
1F
100
AcDbEntity
  8
0
  6
Continuous
 62
     7
370
    25
100
AcDbLine
 10
97.6047592548
 20
42.0983916465
 30
0.0
 11
98.0547592548
 21
34.0983916465
 31
0.0
  0
LINE
  5
1FA
330
1F
100
AcDbEntity
  8
0
  6
Continuous
 62
     7
370
    25
100
AcDbLine
 10
112.0547592548
 20
34.0983916465
 30
0.0
 11
112.5047592548
 21
42.0983916465
 31
0.0
  0
CIRCLE
  5
1FB
330
1F
100
AcDbEntity
  8
0
  6
Continuous
 62
     7
370
    25
100
AcDbCircle
 10
105.0547592548
 20
23.5983916465
 30
0.0
 40
5.25
  0
CIRCLE
  5
1FC
330
1F
100
AcDbEntity
  8
0
  6
Continuous
 62
     7
370
    25
100
AcDbCircle
 10
105.0547592548
 20
23.5983916465
 30
0.0
 40
4.199999999999985
  0
CIRCLE
  5
1FD
330
1F
100
AcDbEntity
  8
0
  6
Continuous
 62
     7
370
    25
100
AcDbCircle
 10
105.0547592548
 20
23.5983916465
 30
0.0
 40
6.4559621141801
  0
CIRCLE
  5
1FE
330
1F
100
AcDbEntity
  8
0
  6
Continuous
 62
     7
370
    25
100
AcDbCircle
 10
105.0547592548
 20
23.5983916465
 30
0.0
 40
4.000000000000014
  0
CIRCLE
  5
1FF
330
1F
100
AcDbEntity
  8
0
  6
Continuous
 62
     7
370
    25
100
AcDbCircle
 10
105.0547592548
 20
23.5983916465
 30
0.0
 40
6.703187500000027
  0
CIRCLE
  5
200
330
1F
100
AcDbEntity
  8
0
  6
Continuous
 62
     7
370
    25
100
AcDbCircle
 10
105.0547592548
 20
23.5983916465
 30
0.0
 40
8.25
  0
SPLINE
  5
201
330
1F
100
AcDbEntity
  8
0
  6
Continuous
 62
     7
370
    25
100
AcDbSpline
210
0.0
220
0.0
230
1.0
 70
    24
 71
     3
 72
    14
 73
    10
 74
     0
 42
0.00000001
 43
0.00000001
 40
0.0
 40
0.0
 40
0.0
 40
0.0
 40
0.1185009945920698
 40
0.2439073148360068
 40
0.3692815579563456
 40
0.4977503482751114
 40
0.62621864735826
 40
0.8121215201811404
 40
1.0
 40
1.0
 40
1.0
 40
1.0
 10
113.5547592548302
 20
18.69091435836899
 30
0.0
 10
113.5547592548302
 20
19.07049197959662
 30
0.0
 10
113.5547592548302
 20
19.85176608353283
 30
0.0
 10
113.5547592548302
 20
21.05554971804767
 30
0.0
 10
113.5547592548302
 20
22.30554935732359
 30
0.0
 10
113.5547592548302
 20
23.57562374021019
 30
0.0
 10
113.5547592548302
 20
25.04628572865341
 30
0.0
 10
113.5547592548301
 20
26.70234789211721
 30
0.0
 10
113.5547592548301
 20
27.90258065902351
 30
0.0
 10
113.5547592548301
 20
28.50586893459265
 30
0.0
  0
SPLINE
  5
202
330
1F
100
AcDbEntity
  8
0
  6
Continuous
 62
     7
370
    25
100
AcDbSpline
210
0.0
220
0.0
230
1.0
 70
    24
 71
     3
 72
    14
 73
    10
 74
     0
 42
0.00000001
 43
0.00000001
 40
0.0
 40
0.0
 40
0.0
 40
0.0
 40
0.1323173648304389
 40
0.2645973188387831
 40
0.3998364273285067
 40
0.5350511314348788
 40
0.6502525552916444
 40
0.76547194948634
 40
1.0
 40
1.0
 40
1.0
 40
1.0
 10
105.0547592548302
 20
13.78343707025709
 30
0.0
 10
105.4219926091802
 20
13.99545934624642
 30
0.0
 10
106.1563554879579
 20
14.41944395199159
 30
0.0
 10
107.2872177460924
 20
15.07234758114198
 30
0.0
 10
108.4393626256815
 20
15.73753873751822
 30
0.0
 10
109.5498958419737
 20
16.37870538888855
 30
0.0
 10
110.6000299520379
 20
16.98500060001933
 30
0.0
 10
111.9271238039372
 20
17.75119859265332
 30
0.0
 10
112.9014267560921
 20
18.3137126643522
 30
0.0
 10
113.5547592548302
 20
18.69091435836899
 30
0.0
  0
SPLINE
  5
203
330
1F
100
AcDbEntity
  8
0
  6
Continuous
 62
     7
370
    25
100
AcDbSpline
210
0.0
220
0.0
230
1.0
 70
    24
 71
     3
 72
    14
 73
    10
 74
     0
 42
0.00000001
 43
0.00000001
 40
0.0
 40
0.0
 40
0.0
 40
0.0
 40
0.132317364830439
 40
0.2645973188387831
 40
0.3998364273285067
 40
0.5350511314348788
 40
0.6502525552916444
 40
0.76547194948634
 40
1.0
 40
1.0
 40
1.0
 40
1.0
 10
96.5547592548302
 20
18.69091435836887
 30
0.0
 10
96.92199260918011
 20
18.47889208237955
 30
0.0
 10
97.6563554879578
 20
18.05490747663438
 30
0.0
 10
98.78721774609237
 20
17.40200384748402
 30
0.0
 10
99.9393626256815
 20
16.73681269110779
 30
0.0
 10
101.0498958419737
 20
16.09564603973747
 30
0.0
 10
102.1000299520379
 20
15.48935082860671
 30
0.0
 10
103.4271238039372
 20
14.72315283597273
 30
0.0
 10
104.4014267560921
 20
14.16063876427387
 30
0.0
 10
105.0547592548302
 20
13.78343707025709
 30
0.0
  0
SPLINE
  5
204
330
1F
100
AcDbEntity
  8
0
  6
Continuous
 62
     7
370
    25
100
AcDbSpline
210
0.0
220
0.0
230
1.0
 70
    24
 71
     3
 72
    14
 73
    10
 74
     0
 42
0.00000001
 43
0.00000001
 40
0.0
 40
0.0
 40
0.0
 40
0.0
 40
0.1860584802655413
 40
0.3737803771913303
 40
0.4990317900313265
 40
0.6242830227419761
 40
0.7528733698393436
 40
0.8814990713915187
 40
1.0
 40
1.0
 40
1.0
 40
1.0
 10
96.55475925483016
 20
28.50586893459253
 30
0.0
 10
96.55475925483017
 20
27.90846703192906
 30
0.0
 10
96.55475925483017
 20
26.70832228069985
 30
0.0
 10
96.55475925483017
 20
25.06291884980914
 30
0.0
 10
96.55475925483017
 20
23.60773899582076
 30
0.0
 10
96.55475925483019
 20
22.3482636403675
 30
0.0
 10
96.55475925483019
 20
21.08710378666197
 30
0.0
 10
96.5547592548302
 20
19.86208261757726
 30
0.0
 10
96.5547592548302
 20
19.07049331226442
 30
0.0
 10
96.5547592548302
 20
18.69091435836887
 30
0.0
  0
SPLINE
  5
205
330
1F
100
AcDbEntity
  8
0
  6
Continuous
 62
     7
370
    25
100
AcDbSpline
210
0.0
220
0.0
230
1.0
 70
    24
 71
     3
 72
    14
 73
    10
 74
     0
 42
0.00000001
 43
0.00000001
 40
0.0
 40
0.0
 40
0.0
 40
0.0
 40
0.132317364830439
 40
0.2645973188387832
 40
0.3998364273285067
 40
0.5350511314348788
 40
0.6502525552916444
 40
0.7654719494863401
 40
1.0
 40
1.0
 40
1.0
 40
1.0
 10
105.0547592548302
 20
33.41334622270438
 30
0.0
 10
104.6875259004803
 20
33.20132394671505
 30
0.0
 10
103.9531630217026
 20
32.77733934096988
 30
0.0
 10
102.822300763568
 20
32.1244357118195
 30
0.0
 10
101.6701558839789
 20
31.45924455544327
 30
0.0
 10
100.5596226676867
 20
30.81807790407295
 30
0.0
 10
99.5094885576225
 20
30.21178269294218
 30
0.0
 10
98.18239470572317
 20
29.44558470030819
 30
0.0
 10
97.20809175356828
 20
28.88307062860933
 30
0.0
 10
96.55475925483016
 20
28.50586893459253
 30
0.0
  0
SPLINE
  5
206
330
1F
100
AcDbEntity
  8
0
  6
Continuous
 62
     7
370
    25
100
AcDbSpline
210
0.0
220
0.0
230
1.0
 70
    24
 71
     3
 72
    14
 73
    10
 74
     0
 42
0.00000001
 43
0.00000001
 40
0.0
 40
0.0
 40
0.0
 40
0.0
 40
0.1323173648304407
 40
0.2645973188387866
 40
0.3998364273285118
 40
0.5350511314348857
 40
0.6502525552916495
 40
0.7654719494863436
 40
1.0
 40
1.0
 40
1.0
 40
1.0
 10
113.5547592548301
 20
28.50586893459265
 30
0.0
 10
113.1875259004802
 20
28.71789121058198
 30
0.0
 10
112.4531630217025
 20
29.14187581632715
 30
0.0
 10
111.322300763568
 20
29.79477944547751
 30
0.0
 10
110.1701558839788
 20
30.45997060185374
 30
0.0
 10
109.0596226676867
 20
31.10113725322404
 30
0.0
 10
108.0094885576225
 20
31.70743246435481
 30
0.0
 10
106.6823947057231
 20
32.47363045698876
 30
0.0
 10
105.7080917535683
 20
33.0361445286876
 30
0.0
 10
105.0547592548302
 20
33.41334622270438
 30
0.0
  0
CIRCLE
  5
207
330
1F
100
AcDbEntity
  8
0
  6
Continuous
 62
     7
370
    25
100
AcDbCircle
 10
105.0547592548
 20
23.5983916465
 30
0.0
 40
2.999999999999986
  0
ARC
  5
208
330
1F
100
AcDbEntity
  8
0
  6
Continuous
 62
     7
370
    25
100
AcDbCircle
 10
105.0547592548
 20
23.5983916465
 30
0.0
 40
9.75
100
AcDbArc
 50
0.0
 51
28.9820689673
  0
ARC
  5
209
330
1F
100
AcDbEntity
  8
0
  6
Continuous
 62
     7
370
    25
100
AcDbCircle
 10
105.0547592548
 20
23.5983916465
 30
0.0
 40
9.750000000000002
100
AcDbArc
 50
30.8132970805
 51
88.9179875663
  0
ARC
  5
20A
330
1F
100
AcDbEntity
  8
0
  6
Continuous
 62
     7
370
    25
100
AcDbCircle
 10
105.0547592548
 20
23.5983916465
 30
0.0
 40
9.750000000000004
100
AcDbArc
 50
91.0921369765
 51
149.2204327616
  0
ARC
  5
20B
330
1F
100
AcDbEntity
  8
0
  6
Continuous
 62
     7
370
    25
100
AcDbCircle
 10
105.0547592548
 20
23.5983916465
 30
0.0
 40
9.750000000000002
100
AcDbArc
 50
150.9925519419
 51
208.960039906
  0
ARC
  5
20C
330
1F
100
AcDbEntity
  8
0
  6
Continuous
 62
     7
370
    25
100
AcDbCircle
 10
105.0547592548
 20
23.5983916465
 30
0.0
 40
9.750000000000005
100
AcDbArc
 50
210.8454993556
 51
268.930313056
  0
ARC
  5
20D
330
1F
100
AcDbEntity
  8
0
  6
Continuous
 62
     7
370
    25
100
AcDbCircle
 10
105.0547592548
 20
23.5983916465
 30
0.0
 40
9.75
100
AcDbArc
 50
271.0999896975
 51
329.2556443681
  0
ARC
  5
20E
330
1F
100
AcDbEntity
  8
0
  6
Continuous
 62
     7
370
    25
100
AcDbCircle
 10
105.0547592548
 20
23.5983916465
 30
0.0
 40
9.750000000000007
100
AcDbArc
 50
330.9637056521
 51
0.0
  0
CIRCLE
  5
20F
330
1F
100
AcDbEntity
  8
0
  6
Continuous
 62
     7
370
    25
100
AcDbCircle
 10
105.0547592548
 20
23.5983916465
 30
0.0
 40
9.999999999999986
  0
SPLINE
  5
210
330
1F
100
AcDbEntity
  8
0
  6
Continuous
 62
     7
370
    25
100
AcDbSpline
210
0.0
220
0.0
230
1.0
 70
     8
 71
     3
 72
    12
 73
     8
 74
     0
 42
0.00000001
 43
0.00000001
 40
0.0
 40
0.0
 40
0.0
 40
0.0
 40
0.2188441512560765
 40
0.44557789737152
 40
0.6750181638247315
 40
0.9060282466689945
 40
1.0
 40
1.0
 40
1.0
 40
1.0
 10
110.9544439340799
 20
32.59648531680457
 30
0.0
 10
110.952829805863
 20
32.58717601036674
 30
0.0
 10
110.9495433581656
 20
32.56822178579757
 30
0.0
 10
110.9236705617103
 20
32.40443711184329
 30
0.0
 10
110.8943197545915
 20
32.15680536778721
 30
0.0
 10
110.8745117476327
 20
31.9049784623963
 30
0.0
 10
110.8721746963509
 20
31.7465996268547
 30
0.0
 10
110.8714989145621
 20
31.70080280004885
 30
0.0
  0
SPLINE
  5
211
330
1F
100
AcDbEntity
  8
0
  6
Continuous
 62
     7
370
    25
100
AcDbSpline
210
0.0
220
0.0
230
1.0
 70
    24
 71
     3
 72
    14
 73
    10
 74
     0
 42
0.00000001
 43
0.00000001
 40
0.0
 40
0.0
 40
0.0
 40
0.0
 40
0.0805635831209368
 40
0.25310900309608
 40
0.4329817449245464
 40
0.6132026901284424
 40
0.7934294113595155
 40
0.9024425079261881
 40
1.0
 40
1.0
 40
1.0
 40
1.0
 10
111.2547592548302
 20
32.13282331835881
 30
0.0
 10
111.2547592548302
 20
32.13417359736817
 30
0.0
 10
111.2547592548302
 20
32.1384158090564
 30
0.0
 10
111.2547592548302
 20
32.07529167818328
 30
0.0
 10
111.2547592548302
 20
31.95344771243171
 30
0.0
 10
111.2547592548302
 20
31.78595127221929
 30
0.0
 10
111.2547592548302
 20
31.62352551149469
 30
0.0
 10
111.2547592548302
 20
31.4879946287175
 30
0.0
 10
111.2547592548302
 20
31.42243695946912
 30
0.0
 10
111.2547592548302
 20
31.39147591201232
 30
0.0
  0
LINE
  5
212
330
1F
100
AcDbEntity
  8
0
  6
Continuous
 62
     7
370
    25
100
AcDbLine
 10
99.8047592548
 20
50.9483916465
 30
0.0
 11
101.5547592548
 21
50.9483916465
 31
0.0
  0
LINE
  5
213
330
1F
100
AcDbEntity
  8
0
  6
Continuous
 62
     7
370
    25
100
AcDbLine
 10
108.5547592548
 20
50.9483916465
 30
0.0
 11
110.3047592548
 21
50.9483916465
 31
0.0
  0
LINE
  5
214
330
1F
100
AcDbEntity
  8
0
  6
Continuous
 62
     7
370
    25
100
AcDbLine
 10
99.5547592548
 20
50.0983916465
 30
0.0
 11
101.5547592548
 21
50.0983916465
 31
0.0
  0
LINE
  5
215
330
1F
100
AcDbEntity
  8
0
  6
Continuous
 62
     7
370
    25
100
AcDbLine
 10
108.5547592548
 20
50.0983916465
 30
0.0
 11
110.5547592548
 21
50.0983916465
 31
0.0
  0
LINE
  5
216
330
1F
100
AcDbEntity
  8
0
  6
Continuous
 62
     7
370
    25
100
AcDbLine
 10
108.5547592548
 20
45.0983916465
 30
0.0
 11
108.5547592548
 21
52.0983916465
 31
0.0
  0
LINE
  5
217
330
1F
100
AcDbEntity
  8
0
  6
Continuous
 62
     7
370
    25
100
AcDbLine
 10
101.5547592548
 20
45.0983916465
 30
0.0
 11
108.5547592548
 21
45.0983916465
 31
0.0
  0
LINE
  5
218
330
1F
100
AcDbEntity
  8
0
  6
Continuous
 62
     7
370
    25
100
AcDbLine
 10
101.5547592548
 20
52.0983916465
 30
0.0
 11
101.5547592548
 21
45.0983916465
 31
0.0
  0
LINE
  5
219
330
1F
100
AcDbEntity
  8
0
  6
Continuous
 62
     7
370
    25
100
AcDbLine
 10
101.5547592548
 20
52.0983916465
 30
0.0
 11
108.5547592548
 21
52.0983916465
 31
0.0
  0
LINE
  5
21A
330
1F
100
AcDbEntity
  8
0
  6
Continuous
 62
     7
370
    25
100
AcDbLine
 10
108.5547592548
 20
40.0983916465
 30
0.0
 11
101.5547592548
 21
40.0983916465
 31
0.0
  0
LINE
  5
21B
330
1F
100
AcDbEntity
  8
0
  6
Continuous
 62
     7
370
    25
100
AcDbLine
 10
108.5547592548
 20
45.0983916465
 30
0.0
 11
108.5547592548
 21
40.0983916465
 31
0.0
  0
LINE
  5
21C
330
1F
100
AcDbEntity
  8
0
  6
Continuous
 62
     7
370
    25
100
AcDbLine
 10
101.5547592548
 20
40.0983916465
 30
0.0
 11
101.5547592548
 21
45.0983916465
 31
0.0
  0
SPLINE
  5
21D
330
1F
100
AcDbEntity
  8
0
  6
Continuous
 62
     7
370
    25
100
AcDbSpline
210
0.0
220
0.0
230
1.0
 70
     8
 71
     3
 72
    11
 73
     7
 74
     0
 42
0.00000001
 43
0.00000001
 40
0.0
 40
0.0
 40
0.0
 40
0.0
 40
0.2488466353289361
 40
0.4976946020535204
 40
0.7488461225871278
 40
1.0
 40
1.0
 40
1.0
 40
1.0
 10
108.5547592548302
 20
39.85056733945623
 30
0.0
 10
108.5594507907696
 20
39.78104296296259
 30
0.0
 10
108.5688338877494
 20
39.64199383800142
 30
0.0
 10
108.6452557712362
 20
39.34166509987613
 30
0.0
 10
108.7629818991999
 20
38.97975548162098
 30
0.0
 10
108.881290822533
 20
38.67816352455642
 30
0.0
 10
108.9404455617595
 20
38.52736683847071
 30
0.0
  0
LINE
  5
21E
330
1F
100
AcDbEntity
  8
0
  6
Continuous
 62
     7
370
    25
100
AcDbLine
 10
108.9404455618
 20
38.5273668385
 30
0.0
 11
101.1690729479
 21
38.5273668385
 31
0.0
  0
SPLINE
  5
21F
330
1F
100
AcDbEntity
  8
0
  6
Continuous
 62
     7
370
    25
100
AcDbSpline
210
0.0
220
0.0
230
1.0
 70
     8
 71
     3
 72
    11
 73
     7
 74
     0
 42
0.00000001
 43
0.00000001
 40
0.0
 40
0.0
 40
0.0
 40
0.0
 40
0.2488607147078904
 40
0.4977191536447657
 40
0.7488602698858827
 40
0.9999999999999999
 40
0.9999999999999999
 40
0.9999999999999999
 40
0.9999999999999999
 10
101.1690729479008
 20
38.52736683847072
 30
0.0
 10
101.2277264395871
 20
38.67684577535884
 30
0.0
 10
101.3450328865877
 20
38.97580228218636
 30
0.0
 10
101.4630686931207
 20
39.33760625564508
 30
0.0
 10
101.5404233744009
 20
39.63988089888459
 30
0.0
 10
101.549980636812
 20
39.78033865513782
 30
0.0
 10
101.5547592548301
 20
39.85056733945623
 30
0.0
  0
LINE
  5
220
330
1F
100
AcDbEntity
  8
0
  6
Continuous
 62
     7
370
    25
100
AcDbLine
 10
108.5547592548
 20
40.0983916465
 30
0.0
 11
108.5547592548
 21
39.8505673395
 31
0.0
  0
LINE
  5
221
330
1F
100
AcDbEntity
  8
0
  6
Continuous
 62
     7
370
    25
100
AcDbLine
 10
101.5547592548
 20
39.8505673395
 30
0.0
 11
101.5547592548
 21
40.0983916465
 31
0.0
  0
SPLINE
  5
222
330
1F
100
AcDbEntity
  8
0
  6
Continuous
 62
     7
370
    25
100
AcDbSpline
210
0.0
220
0.0
230
1.0
 70
     8
 71
     3
 72
    16
 73
    12
 74
     0
 42
0.00000001
 43
0.00000001
 40
0.0
 40
0.0
 40
0.0
 40
0.0
 40
0.0155634360124117
 40
0.0359329243097674
 40
0.0739120889290614
 40
0.1570057548437684
 40
0.2406581385754913
 40
0.4592958294318596
 40
0.6783839187935417
 40
0.8974954344294845
 40
1.0
 40
1.0
 40
1.0
 40
1.0
 10
98.39503703260793
 20
34.09839164648077
 30
0.0
 10
98.40873069962127
 20
34.10358501825994
 30
0.0
 10
98.4403466936679
 20
34.11557549612772
 30
0.0
 10
98.495826383978
 20
34.23390142012467
 30
0.0
 10
98.5744271944685
 20
34.54515272757363
 30
0.0
 10
98.65376738109757
 20
35.07080022893869
 30
0.0
 10
98.75899508920075
 20
36.10934639320883
 30
0.0
 10
98.87398849042
 20
37.54442043555496
 30
0.0
 10
98.9763884908349
 20
39.38267253699439
 30
0.0
 10
99.0461373707153
 20
40.90385538581383
 30
0.0
 10
99.08559599014406
 20
41.80968742661035
 30
0.0
 10
99.09817212945708
 20
42.0983916464783
 30
0.0
  0
LINE
  5
223
330
1F
100
AcDbEntity
  8
0
  6
Continuous
 62
     7
370
    25
100
AcDbLine
 10
99.0981721295
 20
42.0983916465
 30
0.0
 11
98.8780114142
 21
43.0931352244
 31
0.0
  0
ELLIPSE
  5
224
330
1F
100
AcDbEntity
  8
0
  6
Continuous
 62
     7
370
    25
100
AcDbEllipse
 10
36.5547592548
 20
40.4462660788
 30
0.0
 11
65.0
 21
0.0
 31
0.0
210
0.0
220
0.0
230
1.0
 40
0.2713992096
 41
6.084179739699223
 42
6.174194364446292
  0
SPLINE
  5
225
330
1F
100
AcDbEntity
  8
0
  6
Continuous
 62
     7
370
    25
100
AcDbSpline
210
0.0
220
0.0
230
1.0
 70
     8
 71
     3
 72
    13
 73
     9
 74
     0
 42
0.00000001
 43
0.00000001
 40
0.0
 40
0.0
 40
0.0
 40
0.0
 40
0.1610294006389559
 40
0.3266880383557517
 40
0.4877296220820635
 40
0.6535536198224136
 40
0.8237602734841889
 40
1.0
 40
1.0
 40
1.0
 40
1.0
 10
100.2718969247256
 20
36.95874539798784
 30
0.0
 10
100.2280931572932
 20
36.88934850341059
 30
0.0
 10
100.139226361551
 20
36.74855970790204
 30
0.0
 10
100.010206342879
 20
36.4024348901944
 30
0.0
 10
99.88919624711167
 20
35.96322824714235
 30
0.0
 10
99.782515263987
 20
35.42962641020276
 30
0.0
 10
99.69184797663121
 20
34.80580010350307
 30
0.0
 10
99.65502916773444
 20
34.33691620530109
 30
0.0
 10
99.63629917896309
 20
34.09839164648068
 30
0.0
  0
LINE
  5
226
330
1F
100
AcDbEntity
  8
0
  6
Continuous
 62
     7
370
    25
100
AcDbLine
 10
99.636299179
 20
34.0983916465
 30
0.0
 11
98.3950370326
 21
34.0983916465
 31
0.0
  0
LINE
  5
227
330
1F
100
AcDbEntity
  8
0
  6
Continuous
 62
     7
370
    25
100
AcDbLine
 10
98.8780114142
 20
43.0931352244
 30
0.0
 11
101.5547592548
 21
43.0931352245
 31
0.0
  0
SPLINE
  5
228
330
1F
100
AcDbEntity
  8
0
  6
Continuous
 62
     7
370
    25
100
AcDbSpline
210
0.0
220
0.0
230
1.0
 70
     8
 71
     3
 72
    17
 73
    13
 74
     0
 42
0.00000001
 43
0.00000001
 40
0.0
 40
0.0
 40
0.0
 40
0.0
 40
0.3241697628029873
 40
0.542275846362072
 40
0.689509052693928
 40
0.7894036290694506
 40
0.8577090008137827
 40
0.9049823971474139
 40
0.9551712229700868
 40
0.9753097783197817
 40
0.9919572060138849
 40
1.0
 40
1.0
 40
1.0
 40
1.0
 10
111.0113463802032
 20
42.09839164647831
 30
0.0
 10
111.05199681893
 20
41.18577814387262
 30
0.0
 10
111.1199974580857
 20
39.65914513761129
 30
0.0
 10
111.2314303574021
 20
37.73237223533032
 30
0.0
 10
111.3239350174606
 20
36.44473676439755
 30
0.0
 10
111.401836473778
 20
35.58558479767581
 30
0.0
 10
111.4678889732003
 20
35.01211690929841
 30
0.0
 10
111.5312455805628
 20
34.59058475526844
 30
0.0
 10
111.5893720482566
 20
34.31009221247301
 30
0.0
 10
111.6487138765794
 20
34.15454354389235
 30
0.0
 10
111.6857199452022
 20
34.10393294469485
 30
0.0
 10
111.7074145120726
 20
34.09975319289021
 30
0.0
 10
111.7144814770524
 20
34.09839164648074
 30
0.0
  0
LINE
  5
229
330
1F
100
AcDbEntity
  8
0
  6
Continuous
 62
     7
370
    25
100
AcDbLine
 10
111.7144814771
 20
34.0983916465
 30
0.0
 11
110.4732193307
 21
34.0983916465
 31
0.0
  0
SPLINE
  5
22A
330
1F
100
AcDbEntity
  8
0
  6
Continuous
 62
     7
370
    25
100
AcDbSpline
210
0.0
220
0.0
230
1.0
 70
     8
 71
     3
 72
    14
 73
    10
 74
     0
 42
0.00000001
 43
0.00000001
 40
0.0
 40
0.0
 40
0.0
 40
0.0
 40
0.1576095309202822
 40
0.3152382602707094
 40
0.4726926441579498
 40
0.6301650083177254
 40
0.7907313191165901
 40
0.9513050385928076
 40
1.0
 40
1.0
 40
1.0
 40
1.0
 10
110.4732193306973
 20
34.09839164648068
 30
0.0
 10
110.4567139938548
 20
34.31189343495808
 30
0.0
 10
110.4237013096535
 20
34.73892301858358
 30
0.0
 10
110.3438976197415
 20
35.3241700974399
 30
0.0
 10
110.2461102122553
 20
35.84632463826232
 30
0.0
 10
110.1325203725733
 20
36.29530276568219
 30
0.0
 10
110.0079782735416
 20
36.65458449748858
 30
0.0
 10
109.9076209327651
 20
36.85915067658975
 30
0.0
 10
109.85083513515
 20
36.93994522494106
 30
0.0
 10
109.8376215849347
 20
36.95874539798783
 30
0.0
  0
ELLIPSE
  5
22B
330
1F
100
AcDbEntity
  8
0
  6
Continuous
 62
     7
370
    25
100
AcDbEllipse
 10
173.5547592548
 20
40.4462660788
 30
0.0
 11
65.00000000000003
 21
0.0
 31
0.0
210
0.0
220
0.0
230
1.0
 40
0.2713992096
 41
3.25058359632319
 42
3.340598221070255
  0
LINE
  5
22C
330
1F
100
AcDbEntity
  8
0
  6
Continuous
 62
     7
370
    25
100
AcDbLine
 10
108.5547592548
 20
43.0931352245
 30
0.0
 11
111.2315070955
 21
43.0931352244
 31
0.0
  0
LINE
  5
22D
330
1F
100
AcDbEntity
  8
0
  6
Continuous
 62
     7
370
    25
100
AcDbLine
 10
111.2315070955
 20
43.0931352244
 30
0.0
 11
111.0113463802
 21
42.0983916465
 31
0.0
  0
LINE
  5
22E
330
1F
100
AcDbEntity
  8
0
  6
Continuous
 62
     7
370
    25
100
AcDbLine
 10
100.2718969247
 20
36.958745398
 30
0.0
 11
109.8376215849
 21
36.958745398
 31
0.0
  0
SPLINE
  5
22F
330
1F
100
AcDbEntity
  8
0
  6
Continuous
 62
     7
370
    25
100
AcDbSpline
210
0.0
220
0.0
230
1.0
 70
     8
 71
     3
 72
    17
 73
    13
 74
     0
 42
0.00000001
 43
0.00000001
 40
0.0
 40
0.0
 40
0.0
 40
0.0
 40
0.1081860012549414
 40
0.2408151807051437
 40
0.3276516311100471
 40
0.4145726740665699
 40
0.5029543110696525
 40
0.5913346660341969
 40
0.6906638927173525
 40
0.7898254811331098
 40
0.9113412715150513
 40
1.0
 40
1.0
 40
1.0
 40
1.0
 10
107.6528354661835
 20
34.09839164648068
 30
0.0
 10
107.5347847859901
 20
34.28144836574386
 30
0.0
 10
107.2720114553063
 20
34.68892101855754
 30
0.0
 10
106.6952786155323
 20
35.03315886238529
 30
0.0
 10
106.1098699902342
 20
35.23711929525516
 30
0.0
 10
105.5798654294849
 20
35.3356123409084
 30
0.0
 10
105.0357994502062
 20
35.36692317230244
 30
0.0
 10
104.4665883002209
 20
35.32930783815997
 30
0.0
 10
103.8888177634691
 20
35.21074862958306
 30
0.0
 10
103.2886215042151
 20
34.97022929523519
 30
0.0
 10
102.7719134797772
 20
34.60977936816309
 30
0.0
 10
102.5502065383015
 20
34.25011166280736
 30
0.0
 10
102.4566830434769
 20
34.09839164648068
 30
0.0
  0
LINE
  5
230
330
1F
100
AcDbEntity
  8
0
  6
Continuous
 62
     7
370
    25
100
AcDbLine
 10
102.4566830435
 20
34.0983916465
 30
0.0
 11
99.636299179
 21
34.0983916465
 31
0.0
  0
LINE
  5
231
330
1F
100
AcDbEntity
  8
0
  6
Continuous
 62
     7
370
    25
100
AcDbLine
 10
110.4732193307
 20
34.0983916465
 30
0.0
 11
107.6528354662
 21
34.0983916465
 31
0.0
  0
LINE
  5
232
330
1F
100
AcDbEntity
  8
0
  6
Continuous
 62
     7
370
    25
100
AcDbLine
 10
107.6528354662
 20
34.0983916465
 30
0.0
 11
102.4566830435
 21
34.0983916465
 31
0.0
  0
LINE
  5
233
330
1F
100
AcDbEntity
  8
0
  6
Continuous
 62
     7
370
    25
100
AcDbLine
 10
111.0113463802
 20
42.0983916465
 30
0.0
 11
112.5047592548
 21
42.0983916465
 31
0.0
  0
LINE
  5
234
330
1F
100
AcDbEntity
  8
0
  6
Continuous
 62
     7
370
    25
100
AcDbLine
 10
97.6047592548
 20
42.0983916465
 30
0.0
 11
99.0981721295
 21
42.0983916465
 31
0.0
  0
SPLINE
  5
235
330
1F
100
AcDbEntity
  8
0
  6
Continuous
 62
     7
370
    25
100
AcDbSpline
210
0.0
220
0.0
230
1.0
 70
     8
 71
     3
 72
     9
 73
     5
 74
     0
 42
0.00000001
 43
0.00000001
 40
0.0
 40
0.0
 40
0.0
 40
0.0
 40
0.4875141023677128
 40
0.9999999999999999
 40
0.9999999999999999
 40
0.9999999999999999
 40
0.9999999999999999
 10
111.7144814770524
 20
34.09839164648074
 30
0.0
 10
111.7230075885882
 20
34.10011899245244
 30
0.0
 10
111.7404965422295
 20
34.10366216374391
 30
0.0
 10
111.7568182461159
 20
34.12518064969323
 30
0.0
 10
111.765182889183
 20
34.13620857028066
 30
0.0
  0
SPLINE
  5
236
330
1F
100
AcDbEntity
  8
0
  6
Continuous
 62
     7
370
    25
100
AcDbSpline
210
0.0
220
0.0
230
1.0
 70
     8
 71
     3
 72
     9
 73
     5
 74
     0
 42
0.00000001
 43
0.00000001
 40
0.0
 40
0.0
 40
0.0
 40
0.0
 40
0.5124861829376838
 40
0.9999999999999999
 40
0.9999999999999999
 40
0.9999999999999999
 40
0.9999999999999999
 10
98.34433565134361
 20
34.13620852442089
 30
0.0
 10
98.35270029446724
 20
34.12518061146972
 30
0.0
 10
98.3690219893775
 20
34.10366215240031
 30
0.0
 10
98.38651093161927
 20
34.10011898805516
 30
0.0
 10
98.39503703260793
 20
34.09839164648077
 30
0.0
  0
LINE
  5
237
330
1F
100
AcDbEntity
  8
0
  6
Continuous
 62
     7
370
    25
100
AcDbLine
 10
111.7629631873
 20
34.0983916465
 30
0.0
 11
112.0547592548
 21
34.0983916465
 31
0.0
  0
LINE
  5
238
330
1F
100
AcDbEntity
  8
0
  6
Continuous
 62
     7
370
    25
100
AcDbLine
 10
98.0547592548
 20
34.0983916465
 30
0.0
 11
98.3465553223
 21
34.0983916465
 31
0.0
  0
LINE
  5
239
330
1F
100
AcDbEntity
  8
0
  6
Continuous
 62
     7
370
    25
100
AcDbLine
 10
111.7651828892
 20
34.1362085703
 30
0.0
 11
111.7629631873
 21
34.0983916465
 31
0.0
  0
LINE
  5
23A
330
1F
100
AcDbEntity
  8
0
  6
Continuous
 62
     7
370
    25
100
AcDbLine
 10
111.7629631873
 20
34.0983916465
 30
0.0
 11
111.7144814771
 21
34.0983916465
 31
0.0
  0
LINE
  5
23B
330
1F
100
AcDbEntity
  8
0
  6
Continuous
 62
     7
370
    25
100
AcDbLine
 10
98.3465553223
 20
34.0983916465
 30
0.0
 11
98.3443356513
 21
34.1362085244
 31
0.0
  0
LINE
  5
23C
330
1F
100
AcDbEntity
  8
0
  6
Continuous
 62
     7
370
    25
100
AcDbLine
 10
98.3950370326
 20
34.0983916465
 30
0.0
 11
98.3465553223
 21
34.0983916465
 31
0.0
  0
LINE
  5
23D
330
1F
100
AcDbEntity
  8
0
  6
Continuous
 62
     7
370
    25
100
AcDbLine
 10
101.5547592548
 20
50.6983916465
 30
0.0
 11
99.5547592548
 21
50.6983916465
 31
0.0
  0
LINE
  5
23E
330
1F
100
AcDbEntity
  8
0
  6
Continuous
 62
     7
370
    25
100
AcDbLine
 10
110.5547592548
 20
50.6983916465
 30
0.0
 11
108.5547592548
 21
50.6983916465
 31
0.0
  0
INSERT
  5
24A
330
1F
100
AcDbEntity
  8
0
  6
Continuous
 62
     7
370
    18
100
AcDbBlockReference
  2
SW_CENTERMARKSYMBOL_1
 10
105.0547592548
 20
23.5983916465
 30
0.0
  0
ENDSEC
  0
SECTION
  2
OBJECTS
  0
DICTIONARY
  5
C
330
0
100
AcDbDictionary
281
     1
  3
ACAD_GROUP
350
D
  3
ACAD_LAYOUT
350
1A
  3
ACAD_MLINESTYLE
350
17
  3
ACAD_PLOTSETTINGS
350
19
  3
ACAD_PLOTSTYLENAME
350
E
  3
ACAD_SCALELIST
350
47
  3
DWGPROPS
350
24B
  0
DICTIONARY
  5
D
102
{ACAD_REACTORS
330
C
102
}
330
C
100
AcDbDictionary
281
     1
  0
DICTIONARY
  5
1A
102
{ACAD_REACTORS
330
C
102
}
330
C
100
AcDbDictionary
281
     1
  3
Layout1
350
1E
  3
Layout2
350
26
  3
Model
350
22
  0
DICTIONARY
  5
17
102
{ACAD_REACTORS
330
C
102
}
330
C
100
AcDbDictionary
281
     1
  3
Standard
350
18
  0
DICTIONARY
  5
19
102
{ACAD_REACTORS
330
C
102
}
330
C
100
AcDbDictionary
281
     1
  0
ACDBDICTIONARYWDFLT
  5
E
102
{ACAD_REACTORS
330
C
102
}
330
C
100
AcDbDictionary
281
     1
  3
Normal
350
F
100
AcDbDictionaryWithDefault
340
F
  0
DICTIONARY
  5
47
102
{ACAD_REACTORS
330
C
102
}
330
C
100
AcDbDictionary
281
     1
  3
A0
350
48
  3
A1
350
49
  3
A2
350
4A
  3
A3
350
4B
  3
A4
350
4C
  3
A5
350
4D
  3
A6
350
4E
  3
A7
350
4F
  3
A8
350
50
  3
A9
350
51
  3
B0
350
52
  3
B1
350
53
  3
B2
350
54
  3
B3
350
55
  3
B4
350
56
  3
B5
350
57
  3
B6
350
58
  0
XRECORD
  5
24B
102
{ACAD_REACTORS
330
C
102
}
330
C
100
AcDbXrecord
280
     1
  1
DWGPROPS COOKIE
  2

  3

  4

  6

  7

  8
user52
  9

300
=
301
=
302
=
303
=
304
=
305
=
306
=
307
=
308
=
309
=
 40
0.0
 41
2460398.026960579
 42
2460398.026960961
  1

 90
        0
  0
LAYOUT
  5
1E
102
{ACAD_REACTORS
330
1A
102
}
330
1A
100
AcDbPlotSettings
  1

  2
none_device
  4

  6

 40
0.0
 41
0.0
 42
0.0
 43
0.0
 44
0.0
 45
0.0
 46
0.0
 47
0.0
 48
0.0
 49
0.0
140
0.0
141
0.0
142
1.0
143
1.0
 70
   688
 72
     1
 73
     0
 74
     5
  7

 75
    16
147
1.0
148
0.0
149
0.0
100
AcDbLayout
  1
Layout1
 70
     1
 71
     1
 10
0.0
 20
0.0
 11
420.0
 21
297.0
 12
0.0
 22
0.0
 32
0.0
 14
1.0000000000E+20
 24
1.0000000000E+20
 34
1.0000000000E+20
 15
-1.0000000000E+20
 25
-1.0000000000E+20
 35
-1.0000000000E+20
146
0.0
 13
0.0
 23
0.0
 33
0.0
 16
1.0
 26
0.0
 36
0.0
 17
0.0
 27
1.0
 37
0.0
 76
     0
330
1B
  0
LAYOUT
  5
26
102
{ACAD_REACTORS
330
1A
102
}
330
1A
100
AcDbPlotSettings
  1

  2
none_device
  4

  6

 40
0.0
 41
0.0
 42
0.0
 43
0.0
 44
0.0
 45
0.0
 46
0.0
 47
0.0
 48
0.0
 49
0.0
140
0.0
141
0.0
142
1.0
143
1.0
 70
   688
 72
     1
 73
     0
 74
     5
  7

 75
    16
147
1.0
148
0.0
149
0.0
100
AcDbLayout
  1
Layout2
 70
     1
 71
     2
 10
0.0
 20
0.0
 11
0.0
 21
0.0
 12
0.0
 22
0.0
 32
0.0
 14
0.0
 24
0.0
 34
0.0
 15
0.0
 25
0.0
 35
0.0
146
0.0
 13
0.0
 23
0.0
 33
0.0
 16
1.0
 26
0.0
 36
0.0
 17
0.0
 27
1.0
 37
0.0
 76
     0
330
23
  0
LAYOUT
  5
22
102
{ACAD_REACTORS
330
1A
102
}
330
1A
100
AcDbPlotSettings
  1

  2
none_device
  4
Letter_(8.50_x_11.00_Inches)
  6

 40
6.35
 41
6.35
 42
6.35000508
 43
6.35000508
 44
215.9
 45
279.4
 46
0.0
 47
0.0
 48
0.0
 49
0.0
140
0.0
141
0.0
142
1.0
143
1.0
 70
  1712
 72
     1
 73
     0
 74
     0
  7

 75
     0
147
1.0
148
0.0
149
0.0
100
AcDbLayout
  1
Model
 70
     1
 71
     0
 10
0.0
 20
0.0
 11
431.8
 21
279.4
 12
0.0
 22
0.0
 32
0.0
 14
0.0
 24
0.0
 34
0.0
 15
431.8
 25
279.4
 35
0.0
146
0.0
 13
0.0
 23
0.0
 33
0.0
 16
1.0
 26
0.0
 36
0.0
 17
0.0
 27
1.0
 37
0.0
 76
     0
330
1F
331
29
  0
MLINESTYLE
  5
18
102
{ACAD_REACTORS
330
17
102
}
330
17
100
AcDbMlineStyle
  2
Standard
 70
     0
  3

 62
   256
 51
90.0
 52
90.0
 71
     2
 49
0.5
 62
   256
  6
BYLAYER
 49
-0.5
 62
   256
  6
BYLAYER
  0
ACDBPLACEHOLDER
  5
F
102
{ACAD_REACTORS
330
E
102
}
330
E
  0
SCALE
  5
48
102
{ACAD_REACTORS
330
47
102
}
330
47
100
AcDbScale
 70
     0
300
1:1
140
1.0
141
1.0
290
     1
  0
SCALE
  5
49
102
{ACAD_REACTORS
330
47
102
}
330
47
100
AcDbScale
 70
     0
300
1:2
140
1.0
141
2.0
290
     0
  0
SCALE
  5
4A
102
{ACAD_REACTORS
330
47
102
}
330
47
100
AcDbScale
 70
     0
300
1:4
140
1.0
141
4.0
290
     0
  0
SCALE
  5
4B
102
{ACAD_REACTORS
330
47
102
}
330
47
100
AcDbScale
 70
     0
300
1:5
140
1.0
141
5.0
290
     0
  0
SCALE
  5
4C
102
{ACAD_REACTORS
330
47
102
}
330
47
100
AcDbScale
 70
     0
300
1:8
140
1.0
141
8.0
290
     0
  0
SCALE
  5
4D
102
{ACAD_REACTORS
330
47
102
}
330
47
100
AcDbScale
 70
     0
300
1:10
140
1.0
141
10.0
290
     0
  0
SCALE
  5
4E
102
{ACAD_REACTORS
330
47
102
}
330
47
100
AcDbScale
 70
     0
300
1:16
140
1.0
141
16.0
290
     0
  0
SCALE
  5
4F
102
{ACAD_REACTORS
330
47
102
}
330
47
100
AcDbScale
 70
     0
300
1:20
140
1.0
141
20.0
290
     0
  0
SCALE
  5
50
102
{ACAD_REACTORS
330
47
102
}
330
47
100
AcDbScale
 70
     0
300
1:30
140
1.0
141
30.0
290
     0
  0
SCALE
  5
51
102
{ACAD_REACTORS
330
47
102
}
330
47
100
AcDbScale
 70
     0
300
1:40
140
1.0
141
40.0
290
     0
  0
SCALE
  5
52
102
{ACAD_REACTORS
330
47
102
}
330
47
100
AcDbScale
 70
     0
300
1:50
140
1.0
141
50.0
290
     0
  0
SCALE
  5
53
102
{ACAD_REACTORS
330
47
102
}
330
47
100
AcDbScale
 70
     0
300
1:100
140
1.0
141
100.0
290
     0
  0
SCALE
  5
54
102
{ACAD_REACTORS
330
47
102
}
330
47
100
AcDbScale
 70
     0
300
2:1
140
2.0
141
1.0
290
     0
  0
SCALE
  5
55
102
{ACAD_REACTORS
330
47
102
}
330
47
100
AcDbScale
 70
     0
300
4:1
140
4.0
141
1.0
290
     0
  0
SCALE
  5
56
102
{ACAD_REACTORS
330
47
102
}
330
47
100
AcDbScale
 70
     0
300
8:1
140
8.0
141
1.0
290
     0
  0
SCALE
  5
57
102
{ACAD_REACTORS
330
47
102
}
330
47
100
AcDbScale
 70
     0
300
10:1
140
10.0
141
1.0
290
     0
  0
SCALE
  5
58
102
{ACAD_REACTORS
330
47
102
}
330
47
100
AcDbScale
 70
     0
300
100:1
140
100.0
141
1.0
290
     0
  0
ENDSEC
  0
EOF
