  0
SECTION
  2
HEADER
  9
$ACADVER
  1
AC1015
  9
$ACADMAINTVER
 70
     6
  9
$DWGCODEPAGE
  3
DOS932
  9
$INSBASE
 10
0.0
 20
0.0
 30
0.0
  9
$EXTMIN
 10
0.0
 20
0.0
 30
0.0
  9
$EXTMAX
 10
431.8
 20
279.4
 30
0.0
  9
$LIMMIN
 10
0.0
 20
0.0
  9
$LIMMAX
 10
431.8
 20
279.4
  9
$ORTHOMODE
 70
     0
  9
$REGENMODE
 70
     1
  9
$FILLMODE
 70
     1
  9
$QTEXTMODE
 70
     0
  9
$MIRRTEXT
 70
     1
  9
$LTSCALE
 40
1.0
  9
$ATTMODE
 70
     1
  9
$TEXTSIZE
 40
3.5
  9
$TRACEWID
 40
1.0
  9
$TEXTSTYLE
  7
Standard
  9
$CLAYER
  8
0
  9
$CELTYPE
  6
ByLayer
  9
$CECOLOR
 62
   256
  9
$CELTSCALE
 40
1.0
  9
$DISPSILH
 70
     0
  9
$DIMSCALE
 40
1.0
  9
$DIMASZ
 40
3.556
  9
$DIMEXO
 40
1.0
  9
$DIMDLI
 40
3.75
  9
$DIMRND
 40
0.0
  9
$DIMDLE
 40
0.0
  9
$DIMEXE
 40
1.0
  9
$DIMTP
 40
0.0
  9
$DIMTM
 40
0.0
  9
$DIMTXT
 40
3.5
  9
$DIMCEN
 40
2.5
  9
$DIMTSZ
 40
0.0
  9
$DIMTOL
 70
     0
  9
$DIMLIM
 70
     0
  9
$DIMTIH
 70
     1
  9
$DIMTOH
 70
     1
  9
$DIMSE1
 70
     0
  9
$DIMSE2
 70
     0
  9
$DIMTAD
 70
     1
  9
$DIMZIN
 70
     0
  9
$DIMBLK
  1

  9
$DIMASO
 70
     1
  9
$DIMSHO
 70
     1
  9
$DIMPOST
  1

  9
$DIMAPOST
  1

  9
$DIMALT
 70
     0
  9
$DIMALTD
 70
     3
  9
$DIMALTF
 40
0.0393700787
  9
$DIMLFAC
 40
1.0
  9
$DIMTOFL
 70
     1
  9
$DIMTVP
 40
0.0
  9
$DIMTIX
 70
     0
  9
$DIMSOXD
 70
     0
  9
$DIMSAH
 70
     0
  9
$DIMBLK1
  1

  9
$DIMBLK2
  1

  9
$DIMSTYLE
  2
ISO-25
  9
$DIMCLRD
 70
     0
  9
$DIMCLRE
 70
     0
  9
$DIMCLRT
 70
     0
  9
$DIMTFAC
 40
1.0
  9
$DIMGAP
 40
1.524
  9
$DIMJUST
 70
     0
  9
$DIMSD1
 70
     0
  9
$DIMSD2
 70
     0
  9
$DIMTOLJ
 70
     0
  9
$DIMTZIN
 70
     0
  9
$DIMALTZ
 70
     0
  9
$DIMALTTZ
 70
     0
  9
$DIMUPT
 70
     0
  9
$DIMDEC
 70
     3
  9
$DIMTDEC
 70
     3
  9
$DIMALTU
 70
     2
  9
$DIMALTTD
 70
     3
  9
$DIMTXSTY
  7
Standard
  9
$DIMAUNIT
 70
     0
  9
$DIMADEC
 70
     2
  9
$DIMALTRND
 40
0.0
  9
$DIMAZIN
 70
     0
  9
$DIMDSEP
 70
    44
  9
$DIMATFIT
 70
     3
  9
$DIMFRAC
 70
     0
  9
$DIMLDRBLK
  1

  9
$DIMLUNIT
 70
     2
  9
$DIMLWD
 70
    -2
  9
$DIMLWE
 70
    -2
  9
$DIMTMOVE
 70
     0
  9
$LUNITS
 70
     2
  9
$LUPREC
 70
     3
  9
$SKETCHINC
 40
1.0
  9
$FILLETRAD
 40
0.0
  9
$AUNITS
 70
     0
  9
$AUPREC
 70
     2
  9
$MENU
  1
.
  9
$ELEVATION
 40
0.0
  9
$PELEVATION
 40
0.0
  9
$THICKNESS
 40
0.0
  9
$LIMCHECK
 70
     0
  9
$CHAMFERA
 40
0.0
  9
$CHAMFERB
 40
0.0
  9
$CHAMFERC
 40
0.0
  9
$CHAMFERD
 40
0.0
  9
$SKPOLY
 70
     0
  9
$TDCREATE
 40
2460398.399688171
  9
$TDUCREATE
 40
2460398.024688171
  9
$TDUPDATE
 40
2460398.399688784
  9
$TDUUPDATE
 40
2460398.024688784
  9
$TDINDWG
 40
0.0000000116
  9
$TDUSRTIMER
 40
0.0000000116
  9
$USRTIMER
 70
     1
  9
$ANGBASE
 50
0.0
  9
$ANGDIR
 70
     0
  9
$PDMODE
 70
     0
  9
$PDSIZE
 40
-1.0
  9
$PLINEWID
 40
0.0
  9
$SPLFRAME
 70
     0
  9
$SPLINETYPE
 70
     6
  9
$SPLINESEGS
 70
     8
  9
$HANDSEED
  5
24B
  9
$SURFTAB1
 70
     6
  9
$SURFTAB2
 70
     6
  9
$SURFTYPE
 70
     6
  9
$SURFU
 70
     6
  9
$SURFV
 70
     6
  9
$UCSBASE
  2

  9
$UCSNAME
  2

  9
$UCSORG
 10
0.0
 20
0.0
 30
0.0
  9
$UCSXDIR
 10
1.0
 20
0.0
 30
0.0
  9
$UCSYDIR
 10
0.0
 20
1.0
 30
0.0
  9
$UCSORTHOREF
  2

  9
$UCSORTHOVIEW
 70
     0
  9
$UCSORGTOP
 10
0.0
 20
0.0
 30
0.0
  9
$UCSORGBOTTOM
 10
0.0
 20
0.0
 30
0.0
  9
$UCSORGLEFT
 10
0.0
 20
0.0
 30
0.0
  9
$UCSORGRIGHT
 10
0.0
 20
0.0
 30
0.0
  9
$UCSORGFRONT
 10
0.0
 20
0.0
 30
0.0
  9
$UCSORGBACK
 10
0.0
 20
0.0
 30
0.0
  9
$PUCSBASE
  2

  9
$PUCSNAME
  2

  9
$PUCSORG
 10
0.0
 20
0.0
 30
0.0
  9
$PUCSXDIR
 10
1.0
 20
0.0
 30
0.0
  9
$PUCSYDIR
 10
0.0
 20
1.0
 30
0.0
  9
$PUCSORTHOREF
  2

  9
$PUCSORTHOVIEW
 70
     0
  9
$PUCSORGTOP
 10
0.0
 20
0.0
 30
0.0
  9
$PUCSORGBOTTOM
 10
0.0
 20
0.0
 30
0.0
  9
$PUCSORGLEFT
 10
0.0
 20
0.0
 30
0.0
  9
$PUCSORGRIGHT
 10
0.0
 20
0.0
 30
0.0
  9
$PUCSORGFRONT
 10
0.0
 20
0.0
 30
0.0
  9
$PUCSORGBACK
 10
0.0
 20
0.0
 30
0.0
  9
$USERI1
 70
     0
  9
$USERI2
 70
     0
  9
$USERI3
 70
     0
  9
$USERI4
 70
     0
  9
$USERI5
 70
     0
  9
$USERR1
 40
0.0
  9
$USERR2
 40
0.0
  9
$USERR3
 40
0.0
  9
$USERR4
 40
0.0
  9
$USERR5
 40
0.0
  9
$WORLDVIEW
 70
     1
  9
$SHADEDGE
 70
     3
  9
$SHADEDIF
 70
    70
  9
$TILEMODE
 70
     1
  9
$MAXACTVP
 70
    64
  9
$PINSBASE
 10
0.0
 20
0.0
 30
0.0
  9
$PLIMCHECK
 70
     0
  9
$PEXTMIN
 10
1.0000000000E+20
 20
1.0000000000E+20
 30
1.0000000000E+20
  9
$PEXTMAX
 10
-1.0000000000E+20
 20
-1.0000000000E+20
 30
-1.0000000000E+20
  9
$PLIMMIN
 10
0.0
 20
0.0
  9
$PLIMMAX
 10
420.0
 20
297.0
  9
$UNITMODE
 70
     0
  9
$VISRETAIN
 70
     1
  9
$PLINEGEN
 70
     0
  9
$PSLTSCALE
 70
     1
  9
$TREEDEPTH
 70
  3020
  9
$CMLSTYLE
  2
Standard
  9
$CMLJUST
 70
     0
  9
$CMLSCALE
 40
20.0
  9
$PROXYGRAPHICS
 70
     1
  9
$MEASUREMENT
 70
     1
  9
$CELWEIGHT
370
    -1
  9
$ENDCAPS
280
     0
  9
$JOINSTYLE
280
     0
  9
$LWDISPLAY
290
     1
  9
$INSUNITS
 70
     4
  9
$HYPERLINKBASE
  1

  9
$STYLESHEET
  1

  9
$XEDIT
290
     1
  9
$CEPSNTYPE
380
     0
  9
$PSTYLEMODE
290
     1
  9
$FINGERPRINTGUID
  2
{c9d68123-497a-4394-9778-c2cc2187df40}
  9
$VERSIONGUID
  2
{FAEB1C32-E019-11D5-929B-00C0DF256EC4}
  9
$EXTNAMES
290
     1
  9
$PSVPSCALE
 40
0.0
  9
$OLESTARTUP
290
     0
  0
ENDSEC
  0
SECTION
  2
CLASSES
  0
CLASS
  1
ACDBDICTIONARYWDFLT
  2
AcDbDictionaryWithDefault
  3
ObjectDBX Classes
 90
        0
280
     0
281
     0
  0
CLASS
  1
VISUALSTYLE
  2
AcDbVisualStyle
  3
ObjectDBX Classes
 90
     4095
280
     0
281
     0
  0
CLASS
  1
MATERIAL
  2
AcDbMaterial
  3
ObjectDBX Classes
 90
     1153
280
     0
281
     0
  0
CLASS
  1
SCALE
  2
AcDbScale
  3
ObjectDBX Classes
 90
     1153
280
     0
281
     0
  0
CLASS
  1
TABLESTYLE
  2
AcDbTableStyle
  3
ObjectDBX Classes
 90
     4095
280
     0
281
     0
  0
CLASS
  1
MLEADERSTYLE
  2
AcDbMLeaderStyle
  3
ACDB_MLEADERSTYLE_CLASS
 90
     4095
280
     0
281
     0
  0
CLASS
  1
SUN
  2
AcDbSun
  3
SCENEOE
 90
     1153
280
     0
281
     0
  0
CLASS
  1
ACDBPLACEHOLDER
  2
AcDbPlaceHolder
  3
ObjectDBX Classes
 90
        0
280
     0
281
     0
  0
CLASS
  1
LAYOUT
  2
AcDbLayout
  3
ObjectDBX Classes
 90
        0
280
     0
281
     0
  0
ENDSEC
  0
SECTION
  2
TABLES
  0
TABLE
  2
VPORT
  5
8
330
0
100
AcDbSymbolTable
 70
     1
  0
VPORT
  5
29
330
8
100
AcDbSymbolTableRecord
100
AcDbViewportTableRecord
  2
*Active
 70
     0
 10
0.0
 20
0.0
 11
1.0
 21
1.0
 12
215.9
 22
139.7
 13
0.0
 23
0.0
 14
10.0
 24
10.0
 15
10.0
 25
10.0
 16
0.0
 26
0.0
 36
1.0
 17
0.0
 27
0.0
 37
0.0
 40
279.4
 41
1.5454545455
 42
50.0
 43
0.0
 44
0.0
 50
0.0
 51
0.0
 71
     0
 72
  2000
 73
     1
 74
     3
 75
     0
 76
     0
 77
     0
 78
     0
281
     0
 65
     1
110
0.0
120
0.0
130
0.0
111
1.0
121
0.0
131
0.0
112
0.0
122
1.0
132
0.0
 79
     0
146
0.0
  0
ENDTAB
  0
TABLE
  2
LTYPE
  5
5
330
0
100
AcDbSymbolTable
 70
     6
  0
LTYPE
  5
14
330
5
100
AcDbSymbolTableRecord
100
AcDbLinetypeTableRecord
  2
ByBlock
 70
     0
  3

 72
    65
 73
     0
 40
0.0
  0
LTYPE
  5
15
330
5
100
AcDbSymbolTableRecord
100
AcDbLinetypeTableRecord
  2
ByLayer
 70
     0
  3

 72
    65
 73
     0
 40
0.0
  0
LTYPE
  5
16
330
5
100
AcDbSymbolTableRecord
100
AcDbLinetypeTableRecord
  2
Continuous
 70
     0
  3
Solid line
 72
    65
 73
     0
 40
0.0
  0
LTYPE
  5
5E
330
5
100
AcDbSymbolTableRecord
100
AcDbLinetypeTableRecord
  2
HIDDEN
 70
     0
  3
Hidden __ __ __ __ __ __ __ __ __ __ __ __ __ __
 72
    65
 73
     2
 40
1.905
 49
1.27
 74
     0
 49
-0.635
 74
     0
  0
LTYPE
  5
5F
330
5
100
AcDbSymbolTableRecord
100
AcDbLinetypeTableRecord
  2
PHANTOM
 70
     0
  3
Phantom ______  __  __  ______  __  __  ______
 72
    65
 73
     6
 40
12.7
 49
6.35
 74
     0
 49
-1.27
 74
     0
 49
1.27
 74
     0
 49
-1.27
 74
     0
 49
1.27
 74
     0
 49
-1.27
 74
     0
  0
LTYPE
  5
60
330
5
100
AcDbSymbolTableRecord
100
AcDbLinetypeTableRecord
  2
CENTER
 70
     0
  3
Center ____ _ ____ _ ____ _ ____ _ ____ _ ____
 72
    65
 73
     4
 40
10.16
 49
6.35
 74
     0
 49
-1.27
 74
     0
 49
1.27
 74
     0
 49
-1.27
 74
     0
  0
LTYPE
  5
61
330
5
100
AcDbSymbolTableRecord
100
AcDbLinetypeTableRecord
  2
CENTERX2
 70
     0
  3
Center (2x) ________  __  ________  __  _____
 72
    65
 73
     4
 40
20.32
 49
12.7
 74
     0
 49
-2.54
 74
     0
 49
2.54
 74
     0
 49
-2.54
 74
     0
  0
LTYPE
  5
62
330
5
100
AcDbSymbolTableRecord
100
AcDbLinetypeTableRecord
  2
DOT2
 70
     0
  3
Dot (.5x) ........................................
 72
    65
 73
     2
 40
0.635
 49
0.0
 74
     0
 49
-0.635
 74
     0
  0
ENDTAB
  0
TABLE
  2
LAYER
  5
2
330
0
100
AcDbSymbolTable
 70
     1
  0
LAYER
  5
10
330
2
100
AcDbSymbolTableRecord
100
AcDbLayerTableRecord
  2
0
 70
     0
 62
     7
  6
Continuous
370
    -3
390
F
  0
ENDTAB
  0
TABLE
  2
STYLE
  5
3
330
0
100
AcDbSymbolTable
 70
     2
  0
STYLE
  5
11
330
3
100
AcDbSymbolTableRecord
100
AcDbTextStyleTableRecord
  2
Standard
 70
     0
 40
0.0
 41
1.0
 50
0.0
 71
     0
 42
3.5
  3
txt
  4
bigfont
  0
STYLE
  5
63
330
3
100
AcDbSymbolTableRecord
100
AcDbTextStyleTableRecord
  2
SLDTEXTSTYLE0
 70
     0
 40
0.0
 41
0.75
 50
0.0
 71
     0
 42
3.5
  3
TXT
  4
bigfont
  0
ENDTAB
  0
TABLE
  2
VIEW
  5
6
330
0
100
AcDbSymbolTable
 70
     0
  0
ENDTAB
  0
TABLE
  2
UCS
  5
7
330
0
100
AcDbSymbolTable
 70
     0
  0
ENDTAB
  0
TABLE
  2
APPID
  5
9
330
0
100
AcDbSymbolTable
 70
     1
  0
APPID
  5
12
330
9
100
AcDbSymbolTableRecord
100
AcDbRegAppTableRecord
  2
ACAD
 70
     0
  0
ENDTAB
  0
TABLE
  2
DIMSTYLE
  5
A
330
0
100
AcDbSymbolTable
 70
     1
100
AcDbDimStyleTable
  0
DIMSTYLE
105
27
330
A
100
AcDbSymbolTableRecord
100
AcDbDimStyleTableRecord
  2
ISO-25
 70
     0
 41
2.5
 42
0.625
 43
3.75
 44
1.25
 73
     0
 74
     0
 77
     1
 78
     8
140
2.5
141
2.5
143
0.0393700787
147
0.625
171
     3
172
     1
178
     0
271
     2
272
     2
274
     3
278
    44
283
     0
284
     8
340
11
  0
ENDTAB
  0
TABLE
  2
BLOCK_RECORD
  5
1
330
0
100
AcDbSymbolTable
 70
     3
  0
BLOCK_RECORD
  5
1F
330
1
100
AcDbSymbolTableRecord
100
AcDbBlockTableRecord
  2
*Model_Space
340
22
  0
BLOCK_RECORD
  5
1B
330
1
100
AcDbSymbolTableRecord
100
AcDbBlockTableRecord
  2
*Paper_Space
340
1E
  0
BLOCK_RECORD
  5
23
330
1
100
AcDbSymbolTableRecord
100
AcDbBlockTableRecord
  2
*Paper_Space0
340
26
  0
BLOCK_RECORD
  5
176
330
1
100
AcDbSymbolTableRecord
100
AcDbBlockTableRecord
  2
SW_CENTERMARKSYMBOL_0
340
0
102
{BLKREFS
331
181
102
}
  0
BLOCK_RECORD
  5
23A
330
1
100
AcDbSymbolTableRecord
100
AcDbBlockTableRecord
  2
SW_CENTERMARKSYMBOL_1
340
0
102
{BLKREFS
331
245
102
}
  0
ENDTAB
  0
ENDSEC
  0
SECTION
  2
BLOCKS
  0
BLOCK
  5
20
330
1F
100
AcDbEntity
  8
0
100
AcDbBlockBegin
  2
*Model_Space
 70
     0
 10
0.0
 20
0.0
 30
0.0
  3
*Model_Space
  1

  0
ENDBLK
  5
21
330
1F
100
AcDbEntity
  8
0
100
AcDbBlockEnd
  0
BLOCK
  5
1C
330
1B
100
AcDbEntity
 67
     1
  8
0
100
AcDbBlockBegin
  2
*Paper_Space
 70
     0
 10
0.0
 20
0.0
 30
0.0
  3
*Paper_Space
  1

  0
ENDBLK
  5
1D
330
1B
100
AcDbEntity
 67
     1
  8
0
100
AcDbBlockEnd
  0
BLOCK
  5
24
330
23
100
AcDbEntity
  8
0
100
AcDbBlockBegin
  2
*Paper_Space0
 70
     0
 10
0.0
 20
0.0
 30
0.0
  3
*Paper_Space0
  1

  0
ENDBLK
  5
25
330
23
100
AcDbEntity
  8
0
100
AcDbBlockEnd
  0
BLOCK
  5
177
330
176
100
AcDbEntity
  8
0
100
AcDbBlockBegin
  2
SW_CENTERMARKSYMBOL_0
 70
     0
 10
0.0
 20
0.0
 30
0.0
  3
SW_CENTERMARKSYMBOL_0
  1

  0
LINE
  5
179
330
176
100
AcDbEntity
  8
0
  6
Continuous
 62
     0
370
    18
100
AcDbLine
 10
0.0
 20
0.0
 30
0.0
 11
0.0
 21
2.5
 31
0.0
  0
LINE
  5
17A
330
176
100
AcDbEntity
  8
0
  6
Continuous
 62
     0
370
    18
100
AcDbLine
 10
0.0
 20
0.0
 30
0.0
 11
-2.5
 21
0.0
 31
0.0
  0
LINE
  5
17B
330
176
100
AcDbEntity
  8
0
  6
Continuous
 62
     0
370
    18
100
AcDbLine
 10
0.0
 20
0.0
 30
0.0
 11
0.0
 21
-2.5
 31
0.0
  0
LINE
  5
17C
330
176
100
AcDbEntity
  8
0
  6
Continuous
 62
     0
370
    18
100
AcDbLine
 10
0.0
 20
0.0
 30
0.0
 11
2.5
 21
0.0
 31
0.0
  0
LINE
  5
17D
330
176
100
AcDbEntity
  8
0
  6
Continuous
 62
     0
370
    18
100
AcDbLine
 10
0.0
 20
5.0
 30
0.0
 11
0.0
 21
30.4835343149
 31
0.0
  0
LINE
  5
17E
330
176
100
AcDbEntity
  8
0
  6
Continuous
 62
     0
370
    18
100
AcDbLine
 10
-5.0
 20
0.0
 30
0.0
 11
-12.5
 21
0.0
 31
0.0
  0
LINE
  5
17F
330
176
100
AcDbEntity
  8
0
  6
Continuous
 62
     0
370
    18
100
AcDbLine
 10
0.0
 20
-5.0
 30
0.0
 11
0.0
 21
-12.5
 31
0.0
  0
LINE
  5
180
330
176
100
AcDbEntity
  8
0
  6
Continuous
 62
     0
370
    18
100
AcDbLine
 10
5.0
 20
0.0
 30
0.0
 11
12.5
 21
0.0
 31
0.0
  0
ENDBLK
  5
178
330
176
100
AcDbEntity
  8
0
100
AcDbBlockEnd
  0
BLOCK
  5
23B
330
23A
100
AcDbEntity
  8
0
100
AcDbBlockBegin
  2
SW_CENTERMARKSYMBOL_1
 70
     0
 10
0.0
 20
0.0
 30
0.0
  3
SW_CENTERMARKSYMBOL_1
  1

  0
LINE
  5
23D
330
23A
100
AcDbEntity
  8
0
  6
Continuous
 62
     0
370
    18
100
AcDbLine
 10
0.0
 20
0.0
 30
0.0
 11
0.0
 21
2.5
 31
0.0
  0
LINE
  5
23E
330
23A
100
AcDbEntity
  8
0
  6
Continuous
 62
     0
370
    18
100
AcDbLine
 10
0.0
 20
0.0
 30
0.0
 11
-2.5
 21
0.0
 31
0.0
  0
LINE
  5
23F
330
23A
100
AcDbEntity
  8
0
  6
Continuous
 62
     0
370
    18
100
AcDbLine
 10
0.0
 20
0.0
 30
0.0
 11
0.0
 21
-2.5
 31
0.0
  0
LINE
  5
240
330
23A
100
AcDbEntity
  8
0
  6
Continuous
 62
     0
370
    18
100
AcDbLine
 10
0.0
 20
0.0
 30
0.0
 11
2.5
 21
0.0
 31
0.0
  0
LINE
  5
241
330
23A
100
AcDbEntity
  8
0
  6
Continuous
 62
     0
370
    18
100
AcDbLine
 10
0.0
 20
5.0
 30
0.0
 11
0.0
 21
11.4953559533
 31
0.0
  0
LINE
  5
242
330
23A
100
AcDbEntity
  8
0
  6
Continuous
 62
     0
370
    18
100
AcDbLine
 10
-5.0
 20
0.0
 30
0.0
 11
-23.1824971473
 21
0.0
 31
0.0
  0
LINE
  5
243
330
23A
100
AcDbEntity
  8
0
  6
Continuous
 62
     0
370
    18
100
AcDbLine
 10
0.0
 20
-5.0
 30
0.0
 11
0.0
 21
-12.6750186956
 31
0.0
  0
LINE
  5
244
330
23A
100
AcDbEntity
  8
0
  6
Continuous
 62
     0
370
    18
100
AcDbLine
 10
5.0
 20
0.0
 30
0.0
 11
43.9412541367
 21
0.0
 31
0.0
  0
ENDBLK
  5
23C
330
23A
100
AcDbEntity
  8
0
100
AcDbBlockEnd
  0
ENDSEC
  0
SECTION
  2
ENTITIES
  0
MTEXT
  5
64
330
1F
100
AcDbEntity
  8
0
  6
Continuous
 62
     7
370
     0
100
AcDbMText
 10
59.2665396084
 20
62.1355698492
 30
0.0
 40
2.38125
 41
0.0
 71
     1
 72
     1
  1
エースボール　ストレート　BS-9011R
  7
SLDTEXTSTYLE0
 73
     1
 44
1.0
  0
LINE
  5
65
330
1F
100
AcDbEntity
  8
0
  6
Continuous
 62
     7
370
    25
100
AcDbLine
 10
31.1074125
 20
49.4216796875
 30
0.0
 11
29.1574125
 21
41.4216796875
 31
0.0
  0
LINE
  5
66
330
1F
100
AcDbEntity
  8
0
  6
Continuous
 62
     7
370
    25
100
AcDbLine
 10
29.1574125
 20
41.4216796875
 30
0.0
 11
29.6074125
 21
33.4216796875
 31
0.0
  0
LINE
  5
67
330
1F
100
AcDbEntity
  8
0
  6
Continuous
 62
     7
370
    25
100
AcDbLine
 10
43.6074125
 20
33.4216796875
 30
0.0
 11
43.6780691258
 21
34.6777974788
 31
0.0
  0
LINE
  5
68
330
1F
100
AcDbEntity
  8
0
  6
Continuous
 62
     7
370
    25
100
AcDbLine
 10
42.3606440345
 20
48.3827810843
 30
0.0
 11
42.1074125
 21
49.4216796875
 31
0.0
  0
LINE
  5
69
330
1F
100
AcDbEntity
  8
0
  6
Continuous
 62
     7
370
    25
100
AcDbLine
 10
47.5109394459
 20
32.7366342637
 30
0.0
 11
46.6074125
 21
31.1716796875
 31
0.0
  0
LINE
  5
6A
330
1F
100
AcDbEntity
  8
0
  6
Continuous
 62
     7
370
    25
100
AcDbLine
 10
46.6074125
 20
14.6716796875
 30
0.0
 11
47.5109394459
 21
13.1067251113
 31
0.0
  0
LINE
  5
6B
330
1F
100
AcDbEntity
  8
0
  6
Continuous
 62
     7
370
    25
100
AcDbLine
 10
55.7038855541
 20
13.1067251113
 30
0.0
 11
56.6074125
 21
14.6716796875
 31
0.0
  0
LINE
  5
6C
330
1F
100
AcDbEntity
  8
0
  6
Continuous
 62
     7
370
    25
100
AcDbLine
 10
56.6074125
 20
31.1716796875
 30
0.0
 11
55.7038855541
 21
32.7366342637
 31
0.0
  0
LINE
  5
6D
330
1F
100
AcDbEntity
  8
0
  6
Continuous
 62
     7
370
    25
100
AcDbLine
 10
56.6074125
 20
17.8692421875
 30
0.0
 11
65.2524644406
 21
18.1394000606
 31
0.0
  0
LINE
  5
6E
330
1F
100
AcDbEntity
  8
0
  6
Continuous
 62
     7
370
    25
100
AcDbLine
 10
65.2524644406
 20
27.7039593144
 30
0.0
 11
56.6074125
 21
27.9741171875
 31
0.0
  0
LINE
  5
6F
330
1F
100
AcDbEntity
  8
0
  6
Continuous
 62
     7
370
    25
100
AcDbLine
 10
65.2524644406
 20
18.1394000606
 30
0.0
 11
66.6074125
 21
18.9216796875
 31
0.0
  0
LINE
  5
70
330
1F
100
AcDbEntity
  8
0
  6
Continuous
 62
     7
370
    25
100
AcDbLine
 10
66.6074125
 20
26.9216796875
 30
0.0
 11
65.2524644406
 21
27.7039593144
 31
0.0
  0
LINE
  5
71
330
1F
100
AcDbEntity
  8
0
  6
Continuous
 62
     7
370
    25
100
AcDbLine
 10
27.1074125
 20
32.9216796875
 30
0.0
 11
26.6074125
 21
32.4216796875
 31
0.0
  0
LINE
  5
72
330
1F
100
AcDbEntity
  8
0
  6
Continuous
 62
     7
370
    25
100
AcDbLine
 10
26.6074125
 20
13.4216796875
 30
0.0
 11
27.1074125
 21
12.9216796875
 31
0.0
  0
ARC
  5
73
330
1F
100
AcDbEntity
  8
0
  6
Continuous
 62
     7
370
    25
100
AcDbCircle
 10
27.6074125
 20
13.9216796875
 30
0.0
 40
1.5
100
AcDbArc
 50
318.1896851042
 51
0.0
  0
ARC
  5
74
330
1F
100
AcDbEntity
  8
0
  6
Continuous
 62
     7
370
    25
100
AcDbCircle
 10
27.6074125
 20
31.9216796875
 30
0.0
 40
1.5
100
AcDbArc
 50
0.0
 51
41.8103148958
  0
LINE
  5
75
330
1F
100
AcDbEntity
  8
0
  6
Continuous
 62
     7
370
    25
100
AcDbLine
 10
27.1074125
 20
12.9216796875
 30
0.0
 11
28.7254464887
 21
12.9216796875
 31
0.0
  0
LINE
  5
76
330
1F
100
AcDbEntity
  8
0
  6
Continuous
 62
     7
370
    25
100
AcDbLine
 10
28.7254464887
 20
32.9216796875
 30
0.0
 11
27.1074125
 21
32.9216796875
 31
0.0
  0
LINE
  5
77
330
1F
100
AcDbEntity
  8
0
  6
Continuous
 62
     7
370
    25
100
AcDbLine
 10
46.3574125
 20
32.9216796875
 30
0.0
 11
44.4893785113
 21
32.9216796875
 31
0.0
  0
LINE
  5
78
330
1F
100
AcDbEntity
  8
0
  6
Continuous
 62
     7
370
    25
100
AcDbLine
 10
44.4893785113
 20
12.9216796875
 30
0.0
 11
46.3574125
 21
12.9216796875
 31
0.0
  0
ARC
  5
79
330
1F
100
AcDbEntity
  8
0
  6
Continuous
 62
     7
370
    25
100
AcDbCircle
 10
45.6074125
 20
31.9216796875
 30
0.0
 40
1.500000000000007
100
AcDbArc
 50
138.1896851042
 51
180.0
  0
ARC
  5
7A
330
1F
100
AcDbEntity
  8
0
  6
Continuous
 62
     7
370
    25
100
AcDbCircle
 10
45.6074125
 20
13.9216796875
 30
0.0
 40
1.500000000000007
100
AcDbArc
 50
180.0
 51
221.8103148958
  0
LINE
  5
7B
330
1F
100
AcDbEntity
  8
0
  6
Continuous
 62
     7
370
    25
100
AcDbLine
 10
46.3574125
 20
12.9216796875
 30
0.0
 11
46.6074125
 21
13.1716796875
 31
0.0
  0
LINE
  5
7C
330
1F
100
AcDbEntity
  8
0
  6
Continuous
 62
     7
370
    25
100
AcDbLine
 10
46.6074125
 20
32.6716796875
 30
0.0
 11
46.3574125
 21
32.9216796875
 31
0.0
  0
ARC
  5
7D
330
1F
100
AcDbEntity
  8
0
  6
Continuous
 62
     7
370
    25
100
AcDbCircle
 10
43.6074125
 20
13.9216796875
 30
0.0
 40
0.5
100
AcDbArc
 50
0.0
 51
90.0
  0
ARC
  5
7E
330
1F
100
AcDbEntity
  8
0
  6
Continuous
 62
     7
370
    25
100
AcDbCircle
 10
29.6074125
 20
13.9216796875
 30
0.0
 40
0.5
100
AcDbArc
 50
90.0
 51
180.0
  0
ARC
  5
7F
330
1F
100
AcDbEntity
  8
0
  6
Continuous
 62
     7
370
    25
100
AcDbCircle
 10
43.6074125
 20
31.9216796875
 30
0.0
 40
0.5
100
AcDbArc
 50
270.0
 51
0.0
  0
ARC
  5
80
330
1F
100
AcDbEntity
  8
0
  6
Continuous
 62
     7
370
    25
100
AcDbCircle
 10
29.6074125
 20
31.9216796875
 30
0.0
 40
0.5
100
AcDbArc
 50
180.0
 51
270.0
  0
LINE
  5
81
330
1F
100
AcDbEntity
  8
0
  6
Continuous
 62
     7
370
    25
100
AcDbLine
 10
30.2074125
 20
31.4216796875
 30
0.0
 11
29.6074125
 21
31.4216796875
 31
0.0
  0
LINE
  5
82
330
1F
100
AcDbEntity
  8
0
  6
Continuous
 62
     7
370
    25
100
AcDbLine
 10
43.6074125
 20
31.4216796875
 30
0.0
 11
42.9897333749
 21
31.4216796875
 31
0.0
  0
LINE
  5
83
330
1F
100
AcDbEntity
  8
0
  6
Continuous
 62
     7
370
    25
100
AcDbLine
 10
29.6074125
 20
14.4216796875
 30
0.0
 11
43.6074125
 21
14.4216796875
 31
0.0
  0
SPLINE
  5
84
330
1F
100
AcDbEntity
  8
0
  6
Continuous
 62
     7
370
    25
100
AcDbSpline
210
0.0
220
0.0
230
1.0
 70
     8
 71
     3
 72
    12
 73
     8
 74
     0
 42
0.00000001
 43
0.00000001
 40
0.0
 40
0.0
 40
0.0
 40
0.0
 40
0.1851356712752652
 40
0.4099436241550456
 40
0.6488777662214272
 40
0.8814791157769586
 40
1.0
 40
1.0
 40
1.0
 40
1.0
 10
42.99222957369335
 20
31.42516403490202
 30
0.0
 10
42.9453845084631
 20
31.42913240335126
 30
0.0
 10
42.84165606066055
 20
31.4379195124635
 30
0.0
 10
42.69380606882148
 20
31.51961043377884
 30
0.0
 10
42.57513310398482
 20
31.65139731117653
 30
0.0
 10
42.51378482503141
 20
31.79278848060511
 30
0.0
 10
42.51247048604262
 20
31.88164578625351
 30
0.0
 10
42.5120268325108
 20
31.91163946202217
 30
0.0
  0
SPLINE
  5
85
330
1F
100
AcDbEntity
  8
0
  6
Continuous
 62
     7
370
    25
100
AcDbSpline
210
0.0
220
0.0
230
1.0
 70
     8
 71
     3
 72
    13
 73
     9
 74
     0
 42
0.00000001
 43
0.00000001
 40
0.0
 40
0.0
 40
0.0
 40
0.0
 40
0.1148369917358001
 40
0.3408574558839146
 40
0.5696514681937401
 40
0.7702842044405298
 40
0.9346330271220702
 40
1.0
 40
1.0
 40
1.0
 40
1.0
 10
30.69903112705976
 20
31.92180336251628
 30
0.0
 10
30.70068338339055
 20
31.89144920047922
 30
0.0
 10
30.70558758612933
 20
31.80135242686082
 30
0.0
 10
30.64311240627532
 20
31.65840637331634
 30
0.0
 10
30.529413015573
 20
31.52561016036015
 30
0.0
 10
30.3902043555356
 20
31.45003182439964
 30
0.0
 10
30.27862055286653
 20
31.42092755094057
 30
0.0
 10
30.21817829526729
 20
31.42385773670003
 30
0.0
 10
30.20097909743439
 20
31.424691538192
 30
0.0
  0
LINE
  5
86
330
1F
100
AcDbEntity
  8
0
  6
Continuous
 62
     7
370
    25
100
AcDbLine
 10
42.5074125
 20
31.9104089475
 30
0.0
 11
42.5074125
 21
33.4216796875
 31
0.0
  0
LINE
  5
87
330
1F
100
AcDbEntity
  8
0
  6
Continuous
 62
     7
370
    25
100
AcDbLine
 10
30.7074125
 20
33.4216796875
 30
0.0
 11
30.7074125
 21
31.9216796875
 31
0.0
  0
LINE
  5
88
330
1F
100
AcDbEntity
  8
0
  6
Continuous
 62
     7
370
    25
100
AcDbLine
 10
26.6074125
 20
27.9741171875
 30
0.0
 11
17.9623605594
 21
27.7039593144
 31
0.0
  0
LINE
  5
89
330
1F
100
AcDbEntity
  8
0
  6
Continuous
 62
     7
370
    25
100
AcDbLine
 10
17.9623605594
 20
18.1394000606
 30
0.0
 11
26.6074125
 21
17.8692421875
 31
0.0
  0
LINE
  5
8A
330
1F
100
AcDbEntity
  8
0
  6
Continuous
 62
     7
370
    25
100
AcDbLine
 10
17.9623605594
 20
27.7039593144
 30
0.0
 11
16.6074125
 21
26.9216796875
 31
0.0
  0
LINE
  5
8B
330
1F
100
AcDbEntity
  8
0
  6
Continuous
 62
     7
370
    25
100
AcDbLine
 10
16.6074125
 20
18.9216796875
 30
0.0
 11
17.9623605594
 21
18.1394000606
 31
0.0
  0
LINE
  5
8C
330
1F
100
AcDbEntity
  8
0
  6
Continuous
 62
     7
370
    25
100
AcDbLine
 10
41.8464978327
 20
49.4216796875
 30
0.0
 11
41.8464978327
 21
50.0216796875
 31
0.0
  0
LINE
  5
8D
330
1F
100
AcDbEntity
  8
0
  6
Continuous
 62
     7
370
    25
100
AcDbLine
 10
31.3683271673
 20
50.0216796875
 30
0.0
 11
31.3683271673
 21
49.4216796875
 31
0.0
  0
LINE
  5
8E
330
1F
100
AcDbEntity
  8
0
  6
Continuous
 62
     7
370
    25
100
AcDbLine
 10
41.8464978327
 20
50.0216796875
 30
0.0
 11
31.3683271673
 21
50.0216796875
 31
0.0
  0
LINE
  5
8F
330
1F
100
AcDbEntity
  8
0
  6
Continuous
 62
     7
370
    25
100
AcDbLine
 10
31.3683271673
 20
49.4216796875
 30
0.0
 11
41.8464978327
 21
49.4216796875
 31
0.0
  0
SPLINE
  5
90
330
1F
100
AcDbEntity
  8
0
  6
Continuous
 62
     7
370
    25
100
AcDbSpline
210
0.0
220
0.0
230
1.0
 70
     8
 71
     3
 72
    15
 73
    11
 74
     0
 42
0.00000001
 43
0.00000001
 40
0.0
 40
0.0
 40
0.0
 40
0.0
 40
0.0090459071881971
 40
0.1032433785236817
 40
0.154256449773519
 40
0.3133169026715102
 40
0.5243720399414401
 40
0.667806000850918
 40
0.9918332554187028
 40
1.0
 40
1.0
 40
1.0
 40
1.0
 10
41.84649783265812
 20
50.0216796875
 30
0.0
 10
41.84649214069145
 20
50.02336078608442
 30
0.0
 10
41.84642717674066
 20
50.04254761763996
 30
0.0
 10
41.84443149030477
 20
50.07124189715993
 30
0.0
 10
41.83661449408832
 20
50.12191793713186
 30
0.0
 10
41.81944467033335
 20
50.17979423670877
 30
0.0
 10
41.79286077376582
 20
50.22465975144344
 30
0.0
 10
41.75503147527718
 20
50.26202213469799
 30
0.0
 10
41.72675069526696
 20
50.2715681469674
 30
0.0
 10
41.70691954773567
 20
50.27167701115423
 30
0.0
 10
41.7064320135928
 20
50.2716796875
 30
0.0
  0
SPLINE
  5
91
330
1F
100
AcDbEntity
  8
0
  6
Continuous
 62
     7
370
    25
100
AcDbSpline
210
0.0
220
0.0
230
1.0
 70
     8
 71
     3
 72
    15
 73
    11
 74
     0
 42
0.00000001
 43
0.00000001
 40
0.0
 40
0.0
 40
0.0
 40
0.0
 40
0.0081667445812973
 40
0.3321939991490802
 40
0.4756279600585562
 40
0.6866830973284892
 40
0.8457435502264752
 40
0.8967566214763124
 40
0.9909540928118028
 40
1.0
 40
1.0
 40
1.0
 40
1.0
 10
31.50839298640722
 20
50.2716796875
 30
0.0
 10
31.50790545226435
 20
50.27167701115422
 30
0.0
 10
31.48807430473309
 20
50.27156814696744
 30
0.0
 10
31.45979352472283
 20
50.26202213469799
 30
0.0
 10
31.42196422623421
 20
50.22465975144344
 30
0.0
 10
31.39538032966667
 20
50.17979423670877
 30
0.0
 10
31.37821050591171
 20
50.12191793713186
 30
0.0
 10
31.37039350969524
 20
50.07124189715993
 30
0.0
 10
31.36839782325936
 20
50.04254761763994
 30
0.0
 10
31.36833285930857
 20
50.02336078608442
 30
0.0
 10
31.36832716734189
 20
50.0216796875
 30
0.0
  0
LINE
  5
92
330
1F
100
AcDbEntity
  8
0
  6
Continuous
 62
     7
370
    25
100
AcDbLine
 10
31.5083929864
 20
50.2716796875
 30
0.0
 11
41.7064320136
 21
50.2716796875
 31
0.0
  0
SPLINE
  5
93
330
1F
100
AcDbEntity
  8
0
  6
Continuous
 62
     7
370
    25
100
AcDbSpline
210
0.0
220
0.0
230
1.0
 70
     8
 71
     3
 72
    15
 73
    11
 74
     0
 42
0.00000001
 43
0.00000001
 40
0.0
 40
0.0
 40
0.0
 40
0.0
 40
0.0089557228015919
 40
0.0999003359608209
 40
0.1531632460581751
 40
0.3125636920784905
 40
0.5249666935695062
 40
0.6689893599351778
 40
0.991915253381045
 40
1.0
 40
1.0
 40
1.0
 40
1.0
 10
31.13018692494834
 20
50.0216796875
 30
0.0
 10
31.13020268052695
 20
50.02336081307292
 30
0.0
 10
31.13037843268352
 20
50.04211362769734
 30
0.0
 10
31.13580744870303
 20
50.07087585680485
 30
0.0
 10
31.15734293241036
 20
50.12176293027316
 30
0.0
 10
31.20504836067517
 20
50.17989858040582
 30
0.0
 10
31.27743930566709
 20
50.22460645358922
 30
0.0
 10
31.37935841768476
 20
50.26188827705098
 30
0.0
 10
31.45471350913981
 20
50.27156743188852
 30
0.0
 10
31.5071131548631
 20
50.27167701109033
 30
0.0
 10
31.50839298640722
 20
50.2716796875
 30
0.0
  0
LINE
  5
94
330
1F
100
AcDbEntity
  8
0
  6
Continuous
 62
     7
370
    25
100
AcDbLine
 10
31.1301869249
 20
50.0216796875
 30
0.0
 11
31.3683271673
 21
50.0216796875
 31
0.0
  0
SPLINE
  5
95
330
1F
100
AcDbEntity
  8
0
  6
Continuous
 62
     7
370
    25
100
AcDbSpline
210
0.0
220
0.0
230
1.0
 70
     8
 71
     3
 72
    15
 73
    11
 74
     0
 42
0.00000001
 43
0.00000001
 40
0.0
 40
0.0
 40
0.0
 40
0.0
 40
0.0080847466189582
 40
0.3310106400648242
 40
0.4750333064304946
 40
0.687436307921514
 40
0.8468367539418302
 40
0.9000996640391846
 40
0.991044277198408
 40
1.0
 40
1.0
 40
1.0
 40
1.0
 10
41.7064320135928
 20
50.2716796875
 30
0.0
 10
41.70771184513691
 20
50.27167701109033
 30
0.0
 10
41.76011149086016
 20
50.27156743188867
 30
0.0
 10
41.83546658231527
 20
50.26188827705097
 30
0.0
 10
41.93738569433292
 20
50.22460645358922
 30
0.0
 10
42.00977663932484
 20
50.1798985804058
 30
0.0
 10
42.05748206758966
 20
50.12176293027316
 30
0.0
 10
42.07901755129698
 20
50.07087585680484
 30
0.0
 10
42.0844465673165
 20
50.04211362769737
 30
0.0
 10
42.08462231947306
 20
50.02336081307292
 30
0.0
 10
42.08463807505166
 20
50.0216796875
 30
0.0
  0
LINE
  5
96
330
1F
100
AcDbEntity
  8
0
  6
Continuous
 62
     7
370
    25
100
AcDbLine
 10
41.8464978327
 20
50.0216796875
 30
0.0
 11
42.0846380751
 21
50.0216796875
 31
0.0
  0
LINE
  5
97
330
1F
100
AcDbEntity
  8
0
  6
Continuous
 62
     7
370
    25
100
AcDbLine
 10
31.1301869249
 20
49.4216796875
 30
0.0
 11
31.1301869249
 21
50.0216796875
 31
0.0
  0
LINE
  5
98
330
1F
100
AcDbEntity
  8
0
  6
Continuous
 62
     7
370
    25
100
AcDbLine
 10
31.3683271673
 20
49.4216796875
 30
0.0
 11
31.1301869249
 21
49.4216796875
 31
0.0
  0
LINE
  5
99
330
1F
100
AcDbEntity
  8
0
  6
Continuous
 62
     7
370
    25
100
AcDbLine
 10
42.0846380751
 20
50.0216796875
 30
0.0
 11
42.0846380751
 21
49.4216796875
 31
0.0
  0
LINE
  5
9A
330
1F
100
AcDbEntity
  8
0
  6
Continuous
 62
     7
370
    25
100
AcDbLine
 10
42.0846380751
 20
49.4216796875
 30
0.0
 11
41.8464978327
 21
49.4216796875
 31
0.0
  0
LINE
  5
9B
330
1F
100
AcDbEntity
  8
0
  6
Continuous
 62
     7
370
    25
100
AcDbLine
 10
30.6074125
 20
49.4216796875
 30
0.0
 11
30.6074125
 21
50.0216796875
 31
0.0
  0
LINE
  5
9C
330
1F
100
AcDbEntity
  8
0
  6
Continuous
 62
     7
370
    25
100
AcDbLine
 10
30.6074125
 20
50.0216796875
 30
0.0
 11
30.8574125
 21
50.0216796875
 31
0.0
  0
LINE
  5
9D
330
1F
100
AcDbEntity
  8
0
  6
Continuous
 62
     7
370
    25
100
AcDbLine
 10
30.8574125
 20
50.0216796875
 30
0.0
 11
30.8574125
 21
49.4216796875
 31
0.0
  0
LINE
  5
9E
330
1F
100
AcDbEntity
  8
0
  6
Continuous
 62
     7
370
    25
100
AcDbLine
 10
30.8574125
 20
49.4216796875
 30
0.0
 11
30.6074125
 21
49.4216796875
 31
0.0
  0
LINE
  5
9F
330
1F
100
AcDbEntity
  8
0
  6
Continuous
 62
     7
370
    25
100
AcDbLine
 10
31.1301869249
 20
50.0216796875
 30
0.0
 11
30.8574125
 21
50.0216796875
 31
0.0
  0
LINE
  5
A0
330
1F
100
AcDbEntity
  8
0
  6
Continuous
 62
     7
370
    25
100
AcDbLine
 10
30.8574125
 20
50.2716796875
 30
0.0
 11
30.8574125
 21
50.0216796875
 31
0.0
  0
LINE
  5
A1
330
1F
100
AcDbEntity
  8
0
  6
Continuous
 62
     7
370
    25
100
AcDbLine
 10
30.8574125
 20
50.2716796875
 30
0.0
 11
31.5083929864
 21
50.2716796875
 31
0.0
  0
LINE
  5
A2
330
1F
100
AcDbEntity
  8
0
  6
Continuous
 62
     7
370
    25
100
AcDbLine
 10
30.8574125
 20
49.4216796875
 30
0.0
 11
31.1301869249
 21
49.4216796875
 31
0.0
  0
ARC
  5
A3
330
1F
100
AcDbEntity
  8
0
  6
Continuous
 62
     7
370
    25
100
AcDbCircle
 10
30.8574125
 20
50.0216796875
 30
0.0
 40
0.25
100
AcDbArc
 50
90.0
 51
180.0
  0
LINE
  5
A4
330
1F
100
AcDbEntity
  8
0
  6
Continuous
 62
     7
370
    25
100
AcDbLine
 10
42.3574125
 20
49.4216796875
 30
0.0
 11
42.3574125
 21
50.0216796875
 31
0.0
  0
LINE
  5
A5
330
1F
100
AcDbEntity
  8
0
  6
Continuous
 62
     7
370
    25
100
AcDbLine
 10
42.3574125
 20
50.0216796875
 30
0.0
 11
42.0846380751
 21
50.0216796875
 31
0.0
  0
LINE
  5
A6
330
1F
100
AcDbEntity
  8
0
  6
Continuous
 62
     7
370
    25
100
AcDbLine
 10
42.0846380751
 20
49.4216796875
 30
0.0
 11
42.3574125
 21
49.4216796875
 31
0.0
  0
LINE
  5
A7
330
1F
100
AcDbEntity
  8
0
  6
Continuous
 62
     7
370
    25
100
AcDbLine
 10
42.3574125
 20
50.0216796875
 30
0.0
 11
42.6074125
 21
50.0216796875
 31
0.0
  0
LINE
  5
A8
330
1F
100
AcDbEntity
  8
0
  6
Continuous
 62
     7
370
    25
100
AcDbLine
 10
42.6074125
 20
50.0216796875
 30
0.0
 11
42.6074125
 21
49.4216796875
 31
0.0
  0
LINE
  5
A9
330
1F
100
AcDbEntity
  8
0
  6
Continuous
 62
     7
370
    25
100
AcDbLine
 10
42.6074125
 20
49.4216796875
 30
0.0
 11
42.3574125
 21
49.4216796875
 31
0.0
  0
LINE
  5
AA
330
1F
100
AcDbEntity
  8
0
  6
Continuous
 62
     7
370
    25
100
AcDbLine
 10
42.3574125
 20
50.0216796875
 30
0.0
 11
42.3574125
 21
50.2716796875
 31
0.0
  0
LINE
  5
AB
330
1F
100
AcDbEntity
  8
0
  6
Continuous
 62
     7
370
    25
100
AcDbLine
 10
41.7064320136
 20
50.2716796875
 30
0.0
 11
42.3574125
 21
50.2716796875
 31
0.0
  0
ARC
  5
AC
330
1F
100
AcDbEntity
  8
0
  6
Continuous
 62
     7
370
    25
100
AcDbCircle
 10
42.3574125
 20
50.0216796875
 30
0.0
 40
0.25
100
AcDbArc
 50
0.0
 51
90.0
  0
LINE
  5
AD
330
1F
100
AcDbEntity
  8
0
  6
Continuous
 62
     7
370
    25
100
AcDbLine
 10
31.6074125
 20
50.2716796875
 30
0.0
 11
31.6074125
 21
50.2816796875
 31
0.0
  0
LINE
  5
AE
330
1F
100
AcDbEntity
  8
0
  6
Continuous
 62
     7
370
    25
100
AcDbLine
 10
31.6074125
 20
50.2816796875
 30
0.0
 11
41.6074125
 21
50.2816796875
 31
0.0
  0
LINE
  5
AF
330
1F
100
AcDbEntity
  8
0
  6
Continuous
 62
     7
370
    25
100
AcDbLine
 10
41.6074125
 20
50.2716796875
 30
0.0
 11
41.6074125
 21
50.2816796875
 31
0.0
  0
LINE
  5
B0
330
1F
100
AcDbEntity
  8
0
  6
Continuous
 62
     7
370
    25
100
AcDbLine
 10
29.1574125
 20
41.4216796875
 30
0.0
 11
41.0819593841
 21
41.4216796875
 31
0.0
  0
LINE
  5
B1
330
1F
100
AcDbEntity
  8
0
  6
Continuous
 62
     7
370
    25
100
AcDbLine
 10
41.8312146744
 20
49.4216796875
 30
0.0
 11
31.3683271673
 21
49.4216796875
 31
0.0
  0
LINE
  5
B2
330
1F
100
AcDbEntity
  8
0
  6
Continuous
 62
     7
370
    25
100
AcDbLine
 10
43.5593533383
 20
42.4164232655
 30
0.0
 11
41.8312146744
 21
49.4216796875
 31
0.0
  0
LINE
  5
B3
330
1F
100
AcDbEntity
  8
0
  6
Continuous
 62
     7
370
    25
100
AcDbLine
 10
41.0819593841
 20
41.4216796875
 30
0.0
 11
40.3217486283
 21
42.4164232655
 31
0.0
  0
LINE
  5
B4
330
1F
100
AcDbEntity
  8
0
  6
Continuous
 62
     7
370
    25
100
AcDbLine
 10
38.6074125
 20
33.4216796875
 30
0.0
 11
38.6074125945
 21
33.4594965654
 31
0.0
  0
LINE
  5
B5
330
1F
100
AcDbEntity
  8
0
  6
Continuous
 62
     7
370
    25
100
AcDbLine
 10
29.6074125
 20
33.4216796875
 30
0.0
 11
38.6074125
 21
33.4216796875
 31
0.0
  0
SPLINE
  5
B6
330
1F
100
AcDbEntity
  8
0
  6
Continuous
 62
     7
370
    25
100
AcDbSpline
210
0.0
220
0.0
230
1.0
 70
     8
 71
     3
 72
    16
 73
    12
 74
     0
 42
0.00000001
 43
0.00000001
 40
0.0
 40
0.0
 40
0.0
 40
0.0
 40
0.0155634360124117
 40
0.0359329243097674
 40
0.0739120889290614
 40
0.1570057548437684
 40
0.2406581385754913
 40
0.4592958294318596
 40
0.6783839187935412
 40
0.8974954344294845
 40
1.0
 40
1.0
 40
1.0
 40
1.0
 10
38.76335775042715
 20
33.42167968750011
 30
0.0
 10
38.80574973969579
 20
33.42687305927927
 30
0.0
 10
38.90362453678531
 20
33.43886353714705
 30
0.0
 10
39.07710320779815
 20
33.55718946114401
 30
0.0
 10
39.32543688680082
 20
33.86844076859296
 30
0.0
 10
39.57990142884675
 20
34.39408826995802
 30
0.0
 10
39.92358084053786
 20
35.43263443422817
 30
0.0
 10
40.30480085980455
 20
36.86770847657429
 30
0.0
 10
40.65490251580422
 20
38.70596057801372
 30
0.0
 10
40.89869436489245
 20
40.22714342683317
 30
0.0
 10
41.03766656004948
 20
41.13297546762968
 30
0.0
 10
41.08195938408214
 20
41.42167968749763
 30
0.0
  0
SPLINE
  5
B7
330
1F
100
AcDbEntity
  8
0
  6
Continuous
 62
     7
370
    25
100
AcDbSpline
210
0.0
220
0.0
230
1.0
 70
     8
 71
     3
 72
     9
 73
     5
 74
     0
 42
0.00000001
 43
0.00000001
 40
0.0
 40
0.0
 40
0.0
 40
0.0
 40
0.5124861829376838
 40
0.9999999999999999
 40
0.9999999999999999
 40
0.9999999999999999
 40
0.9999999999999999
 10
38.60741259453138
 20
33.45949656544023
 30
0.0
 10
38.63305509870321
 20
33.44846865248905
 30
0.0
 10
38.6830906021481
 20
33.42695019341964
 30
0.0
 10
38.73705120900658
 20
33.42340702907449
 30
0.0
 10
38.76335775042715
 20
33.42167968750011
 30
0.0
  0
LINE
  5
B8
330
1F
100
AcDbEntity
  8
0
  6
Continuous
 62
     7
370
    25
100
AcDbLine
 10
40.3217486283
 20
42.4164232655
 30
0.0
 11
58.7828493615
 21
42.4164232655
 31
0.0
  0
LINE
  5
B9
330
1F
100
AcDbEntity
  8
0
  6
Continuous
 62
     7
370
    25
100
AcDbLine
 10
58.7828493615
 20
42.4164232655
 30
0.0
 11
58.7828493615
 21
39.1738553805
 31
0.0
  0
SPLINE
  5
BA
330
1F
100
AcDbEntity
  8
0
  6
Continuous
 62
     7
370
    25
100
AcDbSpline
210
0.0
220
0.0
230
1.0
 70
     8
 71
     3
 72
    11
 73
     7
 74
     0
 42
0.00000001
 43
0.00000001
 40
0.0
 40
0.0
 40
0.0
 40
0.0
 40
0.2488607147078904
 40
0.4977191536447658
 40
0.7488602698858828
 40
1.0
 40
1.0
 40
1.0
 40
1.0
 10
51.71245573929295
 20
37.85065487949005
 30
0.0
 10
52.28904869817566
 20
38.00013381637817
 30
0.0
 10
53.442229343138
 20
38.2990903232057
 30
0.0
 10
55.20314366506858
 20
38.66089429666442
 30
0.0
 10
56.98312237864761
 20
38.96316893990392
 30
0.0
 10
58.18294147093999
 20
39.10362669615715
 30
0.0
 10
58.78284936153666
 20
39.17385538047556
 30
0.0
  0
LINE
  5
BB
330
1F
100
AcDbEntity
  8
0
  6
Continuous
 62
     7
370
    25
100
AcDbLine
 10
51.7124557393
 20
37.8506548795
 30
0.0
 11
45.9326988894
 21
36.282033439
 31
0.0
  0
SPLINE
  5
BC
330
1F
100
AcDbEntity
  8
0
  6
Continuous
 62
     7
370
    25
100
AcDbSpline
210
0.0
220
0.0
230
1.0
 70
     8
 71
     3
 72
    13
 73
     9
 74
     0
 42
0.00000001
 43
0.00000001
 40
0.0
 40
0.0
 40
0.0
 40
0.0
 40
0.1610294006389559
 40
0.3266880383557517
 40
0.4877296220820635
 40
0.6535536198224136
 40
0.8237602734841889
 40
1.0
 40
1.0
 40
1.0
 40
1.0
 10
45.93269888943767
 20
36.28203343900717
 30
0.0
 10
45.71882883540656
 20
36.21263654442993
 30
0.0
 10
45.28494043901917
 20
36.07184774892137
 30
0.0
 10
44.6936196903535
 20
35.72572293121373
 30
0.0
 10
44.15968834150281
 20
35.28651628816169
 30
0.0
 10
43.70600436969972
 20
34.75291445122209
 30
0.0
 10
43.33155065671424
 20
34.12908814452241
 30
0.0
 10
43.18298758595547
 20
33.66020424632041
 30
0.0
 10
43.10741250000001
 20
33.42167968750001
 30
0.0
  0
LINE
  5
BD
330
1F
100
AcDbEntity
  8
0
  6
Continuous
 62
     7
370
    25
100
AcDbLine
 10
43.1074125
 20
33.4216796875
 30
0.0
 11
38.7633577504
 21
33.4216796875
 31
0.0
  0
LINE
  5
BE
330
1F
100
AcDbEntity
  8
0
  6
Continuous
 62
     7
370
    25
100
AcDbLine
 10
38.6142118579
 20
33.4216796875
 30
0.0
 11
38.6074125945
 21
33.4594965654
 31
0.0
  0
LINE
  5
BF
330
1F
100
AcDbEntity
  8
0
  6
Continuous
 62
     7
370
    25
100
AcDbLine
 10
38.6074125
 20
33.4216796875
 30
0.0
 11
38.6142118579
 21
33.4216796875
 31
0.0
  0
LINE
  5
C0
330
1F
100
AcDbEntity
  8
0
  6
Continuous
 62
     7
370
    25
100
AcDbLine
 10
38.7633577504
 20
33.4216796875
 30
0.0
 11
38.6142118579
 21
33.4216796875
 31
0.0
  0
LINE
  5
C1
330
1F
100
AcDbEntity
  8
0
  6
Continuous
 62
     7
370
    25
100
AcDbLine
 10
58.7828493615
 20
42.4164232655
 30
0.0
 11
58.7828493615
 21
51.4216796875
 31
0.0
  0
LINE
  5
C2
330
1F
100
AcDbEntity
  8
0
  6
Continuous
 62
     7
370
    25
100
AcDbLine
 10
58.7828493615
 20
51.4216796875
 30
0.0
 11
76.6074125
 21
51.4216796875
 31
0.0
  0
LINE
  5
C3
330
1F
100
AcDbEntity
  8
0
  6
Continuous
 62
     7
370
    25
100
AcDbLine
 10
76.6074125
 20
51.4216796875
 30
0.0
 11
76.6074125
 21
44.4216796875
 31
0.0
  0
ARC
  5
C4
330
1F
100
AcDbEntity
  8
0
  6
Continuous
 62
     7
370
    25
100
AcDbCircle
 10
71.6074125
 20
44.4216796875
 30
0.0
 40
4.999999999999993
100
AcDbArc
 50
270.0
 51
0.0
  0
LINE
  5
C5
330
1F
100
AcDbEntity
  8
0
  6
Continuous
 62
     7
370
    25
100
AcDbLine
 10
71.6074125
 20
39.4216796875
 30
0.0
 11
63.4990803578
 21
39.4216796875
 31
0.0
  0
ARC
  5
C6
330
1F
100
AcDbEntity
  8
0
  6
Continuous
 62
     7
370
    25
100
AcDbCircle
 10
63.4990803578
 20
-5.5784495667
 30
0.0
 40
45.00012925418375
100
AcDbArc
 50
90.0
 51
96.0159222295
  0
ARC
  5
C7
330
1F
100
AcDbEntity
  8
0
  6
Continuous
 62
     7
370
    25
100
AcDbCircle
 10
50.9963660643
 20
53.4216796875
 30
0.0
 40
10.00000000000847
100
AcDbArc
 50
203.5781784783
 51
264.4198332155
  0
ARC
  5
C8
330
1F
100
AcDbEntity
  8
0
  6
Continuous
 62
     7
370
    25
100
AcDbCircle
 10
50.6074125
 20
49.4406352109
 30
0.0
 40
6.000000000000004
100
AcDbArc
 50
264.4198332155
 51
0.0
  0
LINE
  5
C9
330
1F
100
AcDbEntity
  8
0
  6
Continuous
 62
     7
370
    25
100
AcDbLine
 10
56.6074125
 20
51.4216796875
 30
0.0
 11
56.6074125
 21
49.4406352109
 31
0.0
  0
LINE
  5
CA
330
1F
100
AcDbEntity
  8
0
  6
Continuous
 62
     7
370
    25
100
AcDbLine
 10
56.6074125
 20
51.4216796875
 30
0.0
 11
58.7828493615
 21
51.4216796875
 31
0.0
  0
LINE
  5
CB
330
1F
100
AcDbEntity
  8
0
  6
Continuous
 62
     7
370
    25
100
AcDbLine
 10
43.6074125
 20
33.4216796875
 30
0.0
 11
43.1074125
 21
33.4216796875
 31
0.0
  0
LINE
  5
CC
330
1F
100
AcDbEntity
  8
0
  6
Continuous
 62
     7
370
    25
100
AcDbLine
 10
41.8312146744
 20
49.4216796875
 30
0.0
 11
41.8464978327
 21
49.4216796875
 31
0.0
  0
SPLINE
  5
CD
330
1F
100
AcDbEntity
  8
0
  6
Continuous
 62
     7
370
    25
100
AcDbSpline
210
0.0
220
0.0
230
1.0
 70
     8
 71
     3
 72
    14
 73
    10
 74
     0
 42
0.00000001
 43
0.00000001
 40
0.0
 40
0.0
 40
0.0
 40
0.0
 40
0.132317364830439
 40
0.2645973188387831
 40
0.3998364273285065
 40
0.5350511314348787
 40
0.6502525552916443
 40
0.76547194948634
 40
1.0
 40
1.0
 40
1.0
 40
1.0
 10
47.51093944585227
 20
27.82915697561187
 30
0.0
 10
47.395371269655
 20
28.0411792516012
 30
0.0
 10
47.1642675924916
 20
28.46516385734636
 30
0.0
 10
46.91557783516429
 20
29.11806748649674
 30
0.0
 10
46.76616918345481
 20
29.78325864287297
 30
0.0
 10
46.73618318688485
 20
30.4244252942433
 30
0.0
 10
46.8142091241138
 20
31.03072050537407
 30
0.0
 10
47.01885430694435
 20
31.79691849800806
 30
0.0
 10
47.31341658333523
 20
32.35943256970692
 30
0.0
 10
47.51093944585227
 20
32.73663426372371
 30
0.0
  0
SPLINE
  5
CE
330
1F
100
AcDbEntity
  8
0
  6
Continuous
 62
     7
370
    25
100
AcDbSpline
210
0.0
220
0.0
230
1.0
 70
     8
 71
     3
 72
    14
 73
    10
 74
     0
 42
0.00000001
 43
0.00000001
 40
0.0
 40
0.0
 40
0.0
 40
0.0
 40
0.1185009945920699
 40
0.2439073148360068
 40
0.3692815579563457
 40
0.4977503482751115
 40
0.62621864735826
 40
0.8121215201811404
 40
1.0
 40
1.0
 40
1.0
 40
1.0
 10
47.51093944585227
 20
18.0142023993882
 30
0.0
 10
47.40680897215542
 20
18.39378002061583
 30
0.0
 10
47.19248010243216
 20
19.17505412455204
 30
0.0
 10
46.95254704107874
 20
20.37883775906689
 30
0.0
 10
46.79026505471816
 20
21.6288373983428
 30
0.0
 10
46.73378497599831
 20
22.8989117812294
 30
0.0
 10
46.79584477238761
 20
24.36957376967262
 30
0.0
 10
47.03109977519015
 20
26.02563593313642
 30
0.0
 10
47.3504302859114
 20
27.22586870004272
 30
0.0
 10
47.51093944585227
 20
27.82915697561187
 30
0.0
  0
SPLINE
  5
CF
330
1F
100
AcDbEntity
  8
0
  6
Continuous
 62
     7
370
    25
100
AcDbSpline
210
0.0
220
0.0
230
1.0
 70
     8
 71
     3
 72
    14
 73
    10
 74
     0
 42
0.00000001
 43
0.00000001
 40
0.0
 40
0.0
 40
0.0
 40
0.0
 40
0.132317364830439
 40
0.2645973188387832
 40
0.3998364273285068
 40
0.5350511314348789
 40
0.6502525552916444
 40
0.76547194948634
 40
1.0
 40
1.0
 40
1.0
 40
1.0
 10
47.51093944585227
 20
13.10672511127642
 30
0.0
 10
47.395371269655
 20
13.31874738726575
 30
0.0
 10
47.1642675924916
 20
13.74273199301091
 30
0.0
 10
46.91557783516429
 20
14.39563562216127
 30
0.0
 10
46.7661691834548
 20
15.06082677853751
 30
0.0
 10
46.73618318688485
 20
15.70199342990781
 30
0.0
 10
46.81420912411381
 20
16.30828864103858
 30
0.0
 10
47.01885430694434
 20
17.07448663367256
 30
0.0
 10
47.31341658333523
 20
17.63700070537141
 30
0.0
 10
47.51093944585227
 20
18.0142023993882
 30
0.0
  0
SPLINE
  5
D0
330
1F
100
AcDbEntity
  8
0
  6
Continuous
 62
     7
370
    25
100
AcDbSpline
210
0.0
220
0.0
230
1.0
 70
     8
 71
     3
 72
    14
 73
    10
 74
     0
 42
0.00000001
 43
0.00000001
 40
0.0
 40
0.0
 40
0.0
 40
0.0
 40
0.132317364830439
 40
0.2645973188387831
 40
0.3998364273285067
 40
0.5350511314348788
 40
0.6502525552916444
 40
0.76547194948634
 40
1.0
 40
1.0
 40
1.0
 40
1.0
 10
55.70388555414777
 20
18.0142023993882
 30
0.0
 10
55.81945373034503
 20
17.80218012339888
 30
0.0
 10
56.05055740750844
 20
17.37819551765371
 30
0.0
 10
56.29924716483574
 20
16.72529188850335
 30
0.0
 10
56.44865581654523
 20
16.06010073212712
 30
0.0
 10
56.4786418131152
 20
15.41893408075681
 30
0.0
 10
56.40061587588623
 20
14.81263886962604
 30
0.0
 10
56.19597069305569
 20
14.04644087699206
 30
0.0
 10
55.90140841666481
 20
13.4839268052932
 30
0.0
 10
55.70388555414777
 20
13.10672511127642
 30
0.0
  0
SPLINE
  5
D1
330
1F
100
AcDbEntity
  8
0
  6
Continuous
 62
     7
370
    25
100
AcDbSpline
210
0.0
220
0.0
230
1.0
 70
     8
 71
     3
 72
    14
 73
    10
 74
     0
 42
0.00000001
 43
0.00000001
 40
0.0
 40
0.0
 40
0.0
 40
0.0
 40
0.1860584802655413
 40
0.3737803771913303
 40
0.4990317900313265
 40
0.6242830227419761
 40
0.7528733698393436
 40
0.8814990713915187
 40
1.0
 40
1.0
 40
1.0
 40
1.0
 10
55.70388555414777
 20
27.82915697561187
 30
0.0
 10
55.86294674764735
 20
27.23175507294839
 30
0.0
 10
56.18249118774987
 20
26.03161032171917
 30
0.0
 10
56.41717761541044
 20
24.38620689082848
 30
0.0
 10
56.48019440980419
 20
22.93102703684009
 30
0.0
 10
56.42827487273441
 20
21.67155168138683
 30
0.0
 10
56.26825216864661
 20
20.4103918276813
 30
0.0
 10
56.02515133654017
 20
19.18537065859659
 30
0.0
 10
55.80800870523569
 20
18.39378135328375
 30
0.0
 10
55.70388555414777
 20
18.0142023993882
 30
0.0
  0
SPLINE
  5
D2
330
1F
100
AcDbEntity
  8
0
  6
Continuous
 62
     7
370
    25
100
AcDbSpline
210
0.0
220
0.0
230
1.0
 70
     8
 71
     3
 72
    14
 73
    10
 74
     0
 42
0.00000001
 43
0.00000001
 40
0.0
 40
0.0
 40
0.0
 40
0.0
 40
0.132317364830439
 40
0.2645973188387832
 40
0.3998364273285067
 40
0.5350511314348788
 40
0.6502525552916444
 40
0.7654719494863401
 40
1.0
 40
1.0
 40
1.0
 40
1.0
 10
55.70388555414777
 20
32.73663426372371
 30
0.0
 10
55.81945373034503
 20
32.52461198773438
 30
0.0
 10
56.05055740750844
 20
32.10062738198921
 30
0.0
 10
56.29924716483574
 20
31.44772375283883
 30
0.0
 10
56.44865581654524
 20
30.7825325964626
 30
0.0
 10
56.4786418131152
 20
30.14136594509229
 30
0.0
 10
56.40061587588622
 20
29.53507073396151
 30
0.0
 10
56.19597069305569
 20
28.76887274132752
 30
0.0
 10
55.90140841666481
 20
28.20635866962866
 30
0.0
 10
55.70388555414777
 20
27.82915697561187
 30
0.0
  0
LINE
  5
D3
330
1F
100
AcDbEntity
  8
0
  6
Continuous
 62
     7
370
    25
100
AcDbLine
 10
56.6074125
 20
31.1716796875
 30
0.0
 11
56.6074125
 21
14.6716796875
 31
0.0
  0
LINE
  5
D4
330
1F
100
AcDbEntity
  8
0
  6
Continuous
 62
     7
370
    25
100
AcDbLine
 10
55.7038855541
 20
27.8291569756
 30
0.0
 11
47.5109394459
 21
27.8291569756
 31
0.0
  0
LINE
  5
D5
330
1F
100
AcDbEntity
  8
0
  6
Continuous
 62
     7
370
    25
100
AcDbLine
 10
55.7038855541
 20
18.0142023994
 30
0.0
 11
47.5109394459
 21
18.0142023994
 31
0.0
  0
LINE
  5
D6
330
1F
100
AcDbEntity
  8
0
  6
Continuous
 62
     7
370
    25
100
AcDbLine
 10
55.7038855541
 20
32.7366342637
 30
0.0
 11
47.5109394459
 21
32.7366342637
 31
0.0
  0
LINE
  5
D7
330
1F
100
AcDbEntity
  8
0
  6
Continuous
 62
     7
370
    25
100
AcDbLine
 10
55.7038855541
 20
13.1067251113
 30
0.0
 11
47.5109394459
 21
13.1067251113
 31
0.0
  0
LINE
  5
D8
330
1F
100
AcDbEntity
  8
0
  6
Continuous
 62
     7
370
    25
100
AcDbLine
 10
65.2524644406
 20
27.7039593144
 30
0.0
 11
65.2524644406
 21
18.1394000606
 31
0.0
  0
LINE
  5
D9
330
1F
100
AcDbEntity
  8
0
  6
Continuous
 62
     7
370
    25
100
AcDbLine
 10
66.6074125
 20
26.9216796875
 30
0.0
 11
66.6074125
 21
18.9216796875
 31
0.0
  0
LINE
  5
DA
330
1F
100
AcDbEntity
  8
0
  6
Continuous
 62
     7
370
    25
100
AcDbLine
 10
27.1074125
 20
22.9216796875
 30
0.0
 11
27.1074125
 21
12.9216796875
 31
0.0
  0
LINE
  5
DB
330
1F
100
AcDbEntity
  8
0
  6
Continuous
 62
     7
370
    25
100
AcDbLine
 10
27.1074125
 20
32.9216796875
 30
0.0
 11
27.1074125
 21
22.9216796875
 31
0.0
  0
LINE
  5
DC
330
1F
100
AcDbEntity
  8
0
  6
Continuous
 62
     7
370
    25
100
AcDbLine
 10
26.6074125
 20
22.9216796875
 30
0.0
 11
26.6074125
 21
32.4216796875
 31
0.0
  0
LINE
  5
DD
330
1F
100
AcDbEntity
  8
0
  6
Continuous
 62
     7
370
    25
100
AcDbLine
 10
26.6074125
 20
13.4216796875
 30
0.0
 11
26.6074125
 21
22.9216796875
 31
0.0
  0
LINE
  5
DE
330
1F
100
AcDbEntity
  8
0
  6
Continuous
 62
     7
370
    25
100
AcDbLine
 10
28.7254464887
 20
22.9216796875
 30
0.0
 11
28.7254464887
 21
12.9216796875
 31
0.0
  0
LINE
  5
DF
330
1F
100
AcDbEntity
  8
0
  6
Continuous
 62
     7
370
    25
100
AcDbLine
 10
28.7254464887
 20
32.9216796875
 30
0.0
 11
28.7254464887
 21
22.9216796875
 31
0.0
  0
LINE
  5
E0
330
1F
100
AcDbEntity
  8
0
  6
Continuous
 62
     7
370
    25
100
AcDbLine
 10
29.1074125
 20
31.9216796875
 30
0.0
 11
29.1074125
 21
28.4216796875
 31
0.0
  0
SPLINE
  5
E1
330
1F
100
AcDbEntity
  8
0
  6
Continuous
 62
     7
370
    25
100
AcDbSpline
210
0.0
220
0.0
230
1.0
 70
     8
 71
     3
 72
     8
 73
     4
 74
     0
 42
0.00000001
 43
0.00000001
 40
0.0
 40
0.0
 40
0.0
 40
0.0
 40
1.0
 40
1.0
 40
1.0
 40
1.0
 10
29.01021137534609
 20
28.32136953899591
 30
0.0
 10
29.07804779292216
 20
28.35273248000669
 30
0.0
 10
29.10741250000001
 20
28.38620064065624
 30
0.0
 10
29.10741250000001
 20
28.42167968750001
 30
0.0
  0
SPLINE
  5
E2
330
1F
100
AcDbEntity
  8
0
  6
Continuous
 62
     7
370
    25
100
AcDbSpline
210
0.0
220
0.0
230
1.0
 70
     8
 71
     3
 72
    12
 73
     8
 74
     0
 42
0.00000001
 43
0.00000001
 40
0.0
 40
0.0
 40
0.0
 40
0.0
 40
0.4999999999999992
 40
0.4999999999999992
 40
0.7499999999999996
 40
0.7499999999999996
 40
1.0
 40
1.0
 40
1.0
 40
1.0
 10
29.01021137534609
 20
28.32136953899591
 30
0.0
 10
28.94234161533629
 20
28.28999118271381
 30
0.0
 10
28.86630706408255
 20
28.15628266221526
 30
0.0
 10
28.81966246570554
 20
27.87825655254948
 30
0.0
 10
28.8152234691829
 20
27.77141036854552
 30
0.0
 10
28.83095408297574
 20
27.54452889448977
 30
0.0
 10
28.85083451291811
 20
27.42435992218515
 30
0.0
 10
28.87832643289798
 20
27.30291027737491
 30
0.0
  0
SPLINE
  5
E3
330
1F
100
AcDbEntity
  8
0
  6
Continuous
 62
     7
370
    25
100
AcDbSpline
210
0.0
220
0.0
230
1.0
 70
     8
 71
     3
 72
    12
 73
     8
 74
     0
 42
0.00000001
 43
0.00000001
 40
0.0
 40
0.0
 40
0.0
 40
0.0
 40
0.5000000000000002
 40
0.5000000000000002
 40
0.7500000000000001
 40
0.7500000000000001
 40
1.0
 40
1.0
 40
1.0
 40
1.0
 10
29.10741250000001
 20
22.9216796875
 30
0.0
 10
29.10741250000001
 20
23.65563670965722
 30
0.0
 10
29.11196989499924
 20
24.38861515402002
 30
0.0
 10
29.08478623061997
 20
25.48543926696643
 30
0.0
 10
29.06933655970278
 20
25.85058685553686
 30
0.0
 10
29.00647295817093
 20
26.57937486940091
 30
0.0
 10
28.95944303500261
 20
26.94456562479923
 30
0.0
 10
28.87832643289797
 20
27.30291027737491
 30
0.0
  0
LINE
  5
E4
330
1F
100
AcDbEntity
  8
0
  6
Continuous
 62
     7
370
    25
100
AcDbLine
 10
29.1060933189
 20
22.6244357376
 30
0.0
 11
29.1074125
 21
22.9216796875
 31
0.0
  0
SPLINE
  5
E5
330
1F
100
AcDbEntity
  8
0
  6
Continuous
 62
     7
370
    25
100
AcDbSpline
210
0.0
220
0.0
230
1.0
 70
     8
 71
     3
 72
    14
 73
    10
 74
     0
 42
0.00000001
 43
0.00000001
 40
0.0
 40
0.0
 40
0.0
 40
0.0
 40
0.25
 40
0.25
 40
0.5
 40
0.5
 40
0.75
 40
0.75
 40
1.0
 40
1.0
 40
1.0
 40
1.0
 10
28.87832643289797
 20
18.5404490976251
 30
0.0
 10
28.8508054451529
 20
18.41887104163939
 30
0.0
 10
28.83088552331649
 20
18.29834630461426
 30
0.0
 10
28.81521848149843
 20
18.07137004550615
 30
0.0
 10
28.81971031331075
 20
17.96440006793998
 30
0.0
 10
28.85096665859432
 20
17.77893451616025
 30
0.0
 10
28.8773392419761
 20
17.70004925504142
 30
0.0
 10
28.9401757931204
 20
17.57941146386833
 30
0.0
 10
28.97621537198048
 20
17.53770727342571
 30
0.0
 10
29.01021137534609
 20
17.52198983600411
 30
0.0
  0
SPLINE
  5
E6
330
1F
100
AcDbEntity
  8
0
  6
Continuous
 62
     7
370
    25
100
AcDbSpline
210
0.0
220
0.0
230
1.0
 70
     8
 71
     3
 72
     8
 73
     4
 74
     0
 42
0.00000001
 43
0.00000001
 40
0.0
 40
0.0
 40
0.0
 40
0.0
 40
1.0
 40
1.0
 40
1.0
 40
1.0
 10
29.10741250000001
 20
17.42167968750001
 30
0.0
 10
29.10741250000001
 20
17.45715873434378
 30
0.0
 10
29.07804779292216
 20
17.49062689499333
 30
0.0
 10
29.01021137534609
 20
17.52198983600411
 30
0.0
  0
LINE
  5
E7
330
1F
100
AcDbEntity
  8
0
  6
Continuous
 62
     7
370
    25
100
AcDbLine
 10
29.1074125
 20
17.4216796875
 30
0.0
 11
29.1074125
 21
13.9216796875
 31
0.0
  0
LINE
  5
E8
330
1F
100
AcDbEntity
  8
0
  6
Continuous
 62
     7
370
    25
100
AcDbLine
 10
44.4893785113
 20
12.9216796875
 30
0.0
 11
44.4893785113
 21
32.9216796875
 31
0.0
  0
LINE
  5
E9
330
1F
100
AcDbEntity
  8
0
  6
Continuous
 62
     7
370
    25
100
AcDbLine
 10
46.3574125
 20
12.9216796875
 30
0.0
 11
46.3574125
 21
32.9216796875
 31
0.0
  0
SPLINE
  5
EA
330
1F
100
AcDbEntity
  8
0
  6
Continuous
 62
     7
370
    25
100
AcDbSpline
210
0.0
220
0.0
230
1.0
 70
     8
 71
     3
 72
    12
 73
     8
 74
     0
 42
0.00000001
 43
0.00000001
 40
0.0
 40
0.0
 40
0.0
 40
0.0
 40
0.5000000000000001
 40
0.5000000000000001
 40
0.75
 40
0.75
 40
1.0
 40
1.0
 40
1.0
 40
1.0
 10
44.10741250000001
 20
22.92167968750002
 30
0.0
 10
44.10741250000001
 20
22.18772266534279
 30
0.0
 10
44.10285510500078
 20
21.45474422097999
 30
0.0
 10
44.13003876938006
 20
20.35792010803358
 30
0.0
 10
44.14548844029726
 20
19.99277251946315
 30
0.0
 10
44.20835204182909
 20
19.2639845055991
 30
0.0
 10
44.25538196499741
 20
18.89879375020078
 30
0.0
 10
44.33649856710205
 20
18.5404490976251
 30
0.0
  0
LINE
  5
EB
330
1F
100
AcDbEntity
  8
0
  6
Continuous
 62
     7
370
    25
100
AcDbLine
 10
44.1087316811
 20
23.2189236374
 30
0.0
 11
44.1074125
 21
22.9216796875
 31
0.0
  0
SPLINE
  5
EC
330
1F
100
AcDbEntity
  8
0
  6
Continuous
 62
     7
370
    25
100
AcDbSpline
210
0.0
220
0.0
230
1.0
 70
     8
 71
     3
 72
    14
 73
    10
 74
     0
 42
0.00000001
 43
0.00000001
 40
0.0
 40
0.0
 40
0.0
 40
0.0
 40
0.25
 40
0.25
 40
0.5
 40
0.5
 40
0.75
 40
0.75
 40
1.0
 40
1.0
 40
1.0
 40
1.0
 10
44.33649856710205
 20
27.30291027737491
 30
0.0
 10
44.36401955484713
 20
27.42448833336063
 30
0.0
 10
44.38393947668354
 20
27.54501307038575
 30
0.0
 10
44.39960651850159
 20
27.77198932949386
 30
0.0
 10
44.39511468668928
 20
27.87895930706003
 30
0.0
 10
44.3638583414057
 20
28.06442485883976
 30
0.0
 10
44.33748575802393
 20
28.1433101199586
 30
0.0
 10
44.27464920687963
 20
28.26394791113169
 30
0.0
 10
44.23860962801954
 20
28.3056521015743
 30
0.0
 10
44.20461362465394
 20
28.32136953899591
 30
0.0
  0
SPLINE
  5
ED
330
1F
100
AcDbEntity
  8
0
  6
Continuous
 62
     7
370
    25
100
AcDbSpline
210
0.0
220
0.0
230
1.0
 70
     8
 71
     3
 72
     8
 73
     4
 74
     0
 42
0.00000001
 43
0.00000001
 40
0.0
 40
0.0
 40
0.0
 40
0.0
 40
1.0
 40
1.0
 40
1.0
 40
1.0
 10
44.10741250000001
 20
28.42167968750001
 30
0.0
 10
44.10741250000001
 20
28.38620064065624
 30
0.0
 10
44.13677720707787
 20
28.35273248000669
 30
0.0
 10
44.20461362465394
 20
28.32136953899591
 30
0.0
  0
LINE
  5
EE
330
1F
100
AcDbEntity
  8
0
  6
Continuous
 62
     7
370
    25
100
AcDbLine
 10
44.1074125
 20
28.4216796875
 30
0.0
 11
44.1074125
 21
31.9216796875
 31
0.0
  0
LINE
  5
EF
330
1F
100
AcDbEntity
  8
0
  6
Continuous
 62
     7
370
    25
100
AcDbLine
 10
44.1074125
 20
13.9216796875
 30
0.0
 11
44.1074125
 21
17.4216796875
 31
0.0
  0
SPLINE
  5
F0
330
1F
100
AcDbEntity
  8
0
  6
Continuous
 62
     7
370
    25
100
AcDbSpline
210
0.0
220
0.0
230
1.0
 70
     8
 71
     3
 72
     8
 73
     4
 74
     0
 42
0.00000001
 43
0.00000001
 40
0.0
 40
0.0
 40
0.0
 40
0.0
 40
1.0
 40
1.0
 40
1.0
 40
1.0
 10
44.20461362465394
 20
17.52198983600411
 30
0.0
 10
44.13677720707787
 20
17.49062689499333
 30
0.0
 10
44.10741250000001
 20
17.45715873434378
 30
0.0
 10
44.10741250000001
 20
17.42167968750001
 30
0.0
  0
SPLINE
  5
F1
330
1F
100
AcDbEntity
  8
0
  6
Continuous
 62
     7
370
    25
100
AcDbSpline
210
0.0
220
0.0
230
1.0
 70
     8
 71
     3
 72
    12
 73
     8
 74
     0
 42
0.00000001
 43
0.00000001
 40
0.0
 40
0.0
 40
0.0
 40
0.0
 40
0.5000000000000001
 40
0.5000000000000001
 40
0.75
 40
0.75
 40
1.0
 40
1.0
 40
1.0
 40
1.0
 10
44.20461362465394
 20
17.52198983600411
 30
0.0
 10
44.27248338466373
 20
17.55336819228621
 30
0.0
 10
44.34851793591748
 20
17.68707671278476
 30
0.0
 10
44.39516253429448
 20
17.96510282245054
 30
0.0
 10
44.39960153081712
 20
18.0719490064545
 30
0.0
 10
44.38387091702429
 20
18.29883048051024
 30
0.0
 10
44.36399048708191
 20
18.41899945281486
 30
0.0
 10
44.33649856710205
 20
18.5404490976251
 30
0.0
  0
LINE
  5
F2
330
1F
100
AcDbEntity
  8
0
  6
Continuous
 62
     7
370
    25
100
AcDbLine
 10
46.6074125
 20
32.6716796875
 30
0.0
 11
46.6074125
 21
13.1716796875
 31
0.0
  0
LINE
  5
F3
330
1F
100
AcDbEntity
  8
0
  6
Continuous
 62
     7
370
    25
100
AcDbLine
 10
44.1074125
 20
22.9216796875
 30
0.0
 11
43.6074125
 21
22.9216796875
 31
0.0
  0
SPLINE
  5
F4
330
1F
100
AcDbEntity
  8
0
  6
Continuous
 62
     7
370
    25
100
AcDbSpline
210
0.0
220
0.0
230
1.0
 70
     8
 71
     3
 72
    14
 73
    10
 74
     0
 42
0.00000001
 43
0.00000001
 40
0.0
 40
0.0
 40
0.0
 40
0.0
 40
0.25
 40
0.25
 40
0.5
 40
0.5
 40
0.75
 40
0.75
 40
1.0
 40
1.0
 40
1.0
 40
1.0
 10
43.60741250000001
 20
22.92167968750001
 30
0.0
 10
43.60741250000001
 20
23.29819639958697
 30
0.0
 10
43.60700323828036
 20
23.67473245721594
 30
0.0
 10
43.61031458638625
 20
24.42760935606452
 30
0.0
 10
43.6140780718509
 20
24.80394817057987
 30
0.0
 10
43.63985132763062
 20
25.55576330929501
 30
0.0
 10
43.66176942230913
 20
25.93124396694402
 30
0.0
 10
43.7469870854944
 20
26.6802492062127
 30
0.0
 10
43.81030007164529
 20
27.05585712165415
 30
0.0
 10
43.9128605894694
 20
27.42167968750001
 30
0.0
  0
LINE
  5
F5
330
1F
100
AcDbEntity
  8
0
  6
Continuous
 62
     7
370
    25
100
AcDbLine
 10
44.3364985671
 20
27.3029102774
 30
0.0
 11
43.9128605895
 21
27.4216796875
 31
0.0
  0
LINE
  5
F6
330
1F
100
AcDbEntity
  8
0
  6
Continuous
 62
     7
370
    25
100
AcDbLine
 10
44.3364985671
 20
18.5404490976
 30
0.0
 11
43.9128605895
 21
18.4216796875
 31
0.0
  0
SPLINE
  5
F7
330
1F
100
AcDbEntity
  8
0
  6
Continuous
 62
     7
370
    25
100
AcDbSpline
210
0.0
220
0.0
230
1.0
 70
     8
 71
     3
 72
    14
 73
    10
 74
     0
 42
0.00000001
 43
0.00000001
 40
0.0
 40
0.0
 40
0.0
 40
0.0
 40
0.25
 40
0.25
 40
0.5
 40
0.5
 40
0.75
 40
0.75
 40
1.0
 40
1.0
 40
1.0
 40
1.0
 10
43.9128605894694
 20
18.42167968750001
 30
0.0
 10
43.81030007164529
 20
18.78750225334586
 30
0.0
 10
43.7469870854944
 20
19.16311016878732
 30
0.0
 10
43.66176942230913
 20
19.912115408056
 30
0.0
 10
43.63985132763062
 20
20.28759606570501
 30
0.0
 10
43.6140780718509
 20
21.03941120442015
 30
0.0
 10
43.61031458638625
 20
21.4157500189355
 30
0.0
 10
43.60700323828036
 20
22.16862691778408
 30
0.0
 10
43.60741250000001
 20
22.54516297541304
 30
0.0
 10
43.60741250000001
 20
22.92167968750002
 30
0.0
  0
SPLINE
  5
F8
330
1F
100
AcDbEntity
  8
0
  6
Continuous
 62
     7
370
    25
100
AcDbSpline
210
0.0
220
0.0
230
1.0
 70
     8
 71
     3
 72
    14
 73
    10
 74
     0
 42
0.00000001
 43
0.00000001
 40
0.0
 40
0.0
 40
0.0
 40
0.0
 40
0.2499999999999999
 40
0.2499999999999999
 40
0.4999999999999998
 40
0.4999999999999998
 40
0.7499999999999999
 40
0.7499999999999999
 40
1.0
 40
1.0
 40
1.0
 40
1.0
 10
29.30196441053063
 20
27.42167968750001
 30
0.0
 10
29.40452492835474
 20
27.05585712165415
 30
0.0
 10
29.46783791450562
 20
26.6802492062127
 30
0.0
 10
29.55305557769089
 20
25.93124396694402
 30
0.0
 10
29.5749736723694
 20
25.55576330929501
 30
0.0
 10
29.60074692814912
 20
24.80394817057987
 30
0.0
 10
29.60451041361377
 20
24.42760935606452
 30
0.0
 10
29.60782176171966
 20
23.67473245721593
 30
0.0
 10
29.60741250000001
 20
23.29819639958696
 30
0.0
 10
29.60741250000001
 20
22.9216796875
 30
0.0
  0
LINE
  5
F9
330
1F
100
AcDbEntity
  8
0
  6
Continuous
 62
     7
370
    25
100
AcDbLine
 10
29.6074125
 20
22.9216796875
 30
0.0
 11
29.1074125
 21
22.9216796875
 31
0.0
  0
LINE
  5
FA
330
1F
100
AcDbEntity
  8
0
  6
Continuous
 62
     7
370
    25
100
AcDbLine
 10
29.3019644105
 20
27.4216796875
 30
0.0
 11
28.8783264329
 21
27.3029102774
 31
0.0
  0
SPLINE
  5
FB
330
1F
100
AcDbEntity
  8
0
  6
Continuous
 62
     7
370
    25
100
AcDbSpline
210
0.0
220
0.0
230
1.0
 70
     8
 71
     3
 72
    14
 73
    10
 74
     0
 42
0.00000001
 43
0.00000001
 40
0.0
 40
0.0
 40
0.0
 40
0.0
 40
0.2500000000000001
 40
0.2500000000000001
 40
0.5
 40
0.5
 40
0.75
 40
0.75
 40
1.0
 40
1.0
 40
1.0
 40
1.0
 10
29.60741250000001
 20
22.92167968750001
 30
0.0
 10
29.60741250000001
 20
22.54516297541304
 30
0.0
 10
29.60782176171966
 20
22.16862691778408
 30
0.0
 10
29.60451041361378
 20
21.4157500189355
 30
0.0
 10
29.60074692814912
 20
21.03941120442015
 30
0.0
 10
29.5749736723694
 20
20.287596065705
 30
0.0
 10
29.55305557769089
 20
19.912115408056
 30
0.0
 10
29.46783791450562
 20
19.16311016878732
 30
0.0
 10
29.40452492835473
 20
18.78750225334586
 30
0.0
 10
29.30196441053063
 20
18.42167968750001
 30
0.0
  0
LINE
  5
FC
330
1F
100
AcDbEntity
  8
0
  6
Continuous
 62
     7
370
    25
100
AcDbLine
 10
29.3019644105
 20
18.4216796875
 30
0.0
 11
28.8783264329
 21
18.5404490976
 31
0.0
  0
SPLINE
  5
FD
330
1F
100
AcDbEntity
  8
0
  6
Continuous
 62
     7
370
    25
100
AcDbSpline
210
0.0
220
0.0
230
1.0
 70
     8
 71
     3
 72
    14
 73
    10
 74
     0
 42
0.00000001
 43
0.00000001
 40
0.0
 40
0.0
 40
0.0
 40
0.0
 40
0.25
 40
0.25
 40
0.5
 40
0.5
 40
0.75
 40
0.75
 40
1.0
 40
1.0
 40
1.0
 40
1.0
 10
29.47781100046145
 20
17.92167968750001
 30
0.0
 10
29.43933551683985
 20
17.92167968750001
 30
0.0
 10
29.39824659536984
 20
17.93246625848323
 30
0.0
 10
29.31896374792927
 20
17.97539804554838
 30
0.0
 10
29.28168084681882
 20
18.00681555385326
 30
0.0
 10
29.22887508750704
 20
18.09813039942947
 30
0.0
 10
29.21690582741341
 20
18.15936088219373
 30
0.0
 10
29.23690761578557
 20
18.29022424284946
 30
0.0
 10
29.26636407133787
 20
18.35818835718704
 30
0.0
 10
29.30196441053063
 20
18.42167968750001
 30
0.0
  0
ARC
  5
FE
330
1F
100
AcDbEntity
  8
0
  6
Continuous
 62
     7
370
    25
100
AcDbCircle
 10
29.486359584
 20
17.4383098768
 30
0.0
 40
0.4834453973191836
100
AcDbArc
 50
91.0131925738
 51
170.032425387
  0
SPLINE
  5
FF
330
1F
100
AcDbEntity
  8
0
  6
Continuous
 62
     7
370
    25
100
AcDbSpline
210
0.0
220
0.0
230
1.0
 70
     8
 71
     3
 72
    14
 73
    10
 74
     0
 42
0.00000001
 43
0.00000001
 40
0.0
 40
0.0
 40
0.0
 40
0.0
 40
0.25
 40
0.25
 40
0.5
 40
0.5
 40
0.75
 40
0.75
 40
1.0
 40
1.0
 40
1.0
 40
1.0
 10
43.73701399953858
 20
27.92167968750001
 30
0.0
 10
43.77548948316017
 20
27.92167968750001
 30
0.0
 10
43.81657840463019
 20
27.91089311651679
 30
0.0
 10
43.89586125207075
 20
27.86796132945163
 30
0.0
 10
43.93314415318121
 20
27.83654382114676
 30
0.0
 10
43.98594991249298
 20
27.74522897557054
 30
0.0
 10
43.99791917258661
 20
27.68399849280628
 30
0.0
 10
43.97791738421446
 20
27.55313513215056
 30
0.0
 10
43.94846092866216
 20
27.48517101781297
 30
0.0
 10
43.9128605894694
 20
27.42167968750001
 30
0.0
  0
ARC
  5
100
330
1F
100
AcDbEntity
  8
0
  6
Continuous
 62
     7
370
    25
100
AcDbCircle
 10
43.728465416
 20
28.4050494982
 30
0.0
 40
0.4834453973191788
100
AcDbArc
 50
271.0131925738
 51
350.032425387
  0
ARC
  5
101
330
1F
100
AcDbEntity
  8
0
  6
Continuous
 62
     7
370
    25
100
AcDbCircle
 10
43.728465416
 20
17.4383098768
 30
0.0
 40
0.4834453973191788
100
AcDbArc
 50
9.967574613
 51
88.9868074262
  0
SPLINE
  5
102
330
1F
100
AcDbEntity
  8
0
  6
Continuous
 62
     7
370
    25
100
AcDbSpline
210
0.0
220
0.0
230
1.0
 70
     8
 71
     3
 72
    16
 73
    12
 74
     0
 42
0.00000001
 43
0.00000001
 40
0.0
 40
0.0
 40
0.0
 40
0.0
 40
0.2500000000000008
 40
0.2500000000000008
 40
0.3750000000000017
 40
0.3750000000000017
 40
0.5000000000000026
 40
0.5000000000000026
 40
0.7500000000000012
 40
0.7500000000000012
 40
1.0
 40
1.0
 40
1.0
 40
1.0
 10
43.9128605894694
 20
18.42167968750001
 30
0.0
 10
43.94841451891805
 20
18.35827112652181
 30
0.0
 10
43.97768666014674
 20
18.291003826201
 30
0.0
 10
43.99289921036762
 20
18.19256451505866
 30
0.0
 10
43.99295987854116
 20
18.16008910870337
 30
0.0
 10
43.98274929406384
 20
18.10146390157717
 30
0.0
 10
43.9729659645386
 20
18.07584109002418
 30
0.0
 10
43.93380141600666
 20
18.00763224632873
 30
0.0
 10
43.8959283427334
 20
17.97546949116296
 30
0.0
 10
43.81685536974181
 20
17.93258127204707
 30
0.0
 10
43.77546823715098
 20
17.92167968750001
 30
0.0
 10
43.73701399953858
 20
17.92167968750001
 30
0.0
  0
SPLINE
  5
103
330
1F
100
AcDbEntity
  8
0
  6
Continuous
 62
     7
370
    25
100
AcDbSpline
210
0.0
220
0.0
230
1.0
 70
     8
 71
     3
 72
    16
 73
    12
 74
     0
 42
0.00000001
 43
0.00000001
 40
0.0
 40
0.0
 40
0.0
 40
0.0
 40
0.2500000000000011
 40
0.2500000000000011
 40
0.3749999999999992
 40
0.3749999999999992
 40
0.4999999999999974
 40
0.4999999999999974
 40
0.7499999999999987
 40
0.7499999999999987
 40
1.0
 40
1.0
 40
1.0
 40
1.0
 10
29.30196441053063
 20
27.42167968750001
 30
0.0
 10
29.26641048108197
 20
27.4850882484782
 30
0.0
 10
29.23713833985328
 20
27.55235554879902
 30
0.0
 10
29.2219257896324
 20
27.65079485994136
 30
0.0
 10
29.22186512145886
 20
27.68327026629665
 30
0.0
 10
29.23207570593619
 20
27.74189547342285
 30
0.0
 10
29.24185903546142
 20
27.76751828497583
 30
0.0
 10
29.28102358399336
 20
27.83572712867128
 30
0.0
 10
29.31889665726663
 20
27.86788988383706
 30
0.0
 10
29.39796963025822
 20
27.91077810295295
 30
0.0
 10
29.43935676284903
 20
27.92167968750001
 30
0.0
 10
29.47781100046145
 20
27.92167968750001
 30
0.0
  0
ARC
  5
104
330
1F
100
AcDbEntity
  8
0
  6
Continuous
 62
     7
370
    25
100
AcDbCircle
 10
29.486359584
 20
28.4050494982
 30
0.0
 40
0.4834453973191859
100
AcDbArc
 50
189.967574613
 51
268.9868074262
  0
LINE
  5
105
330
1F
100
AcDbEntity
  8
0
  6
Continuous
 62
     7
370
    25
100
AcDbLine
 10
29.3019644105
 20
18.4216796875
 30
0.0
 11
43.9128605895
 21
18.4216796875
 31
0.0
  0
LINE
  5
106
330
1F
100
AcDbEntity
  8
0
  6
Continuous
 62
     7
370
    25
100
AcDbLine
 10
43.9128605895
 20
27.4216796875
 30
0.0
 11
29.3019644105
 21
27.4216796875
 31
0.0
  0
LINE
  5
107
330
1F
100
AcDbEntity
  8
0
  6
Continuous
 62
     7
370
    25
100
AcDbLine
 10
29.4778110005
 20
27.9216796875
 30
0.0
 11
43.7370139995
 21
27.9216796875
 31
0.0
  0
LINE
  5
108
330
1F
100
AcDbEntity
  8
0
  6
Continuous
 62
     7
370
    25
100
AcDbLine
 10
43.7370139995
 20
17.9216796875
 30
0.0
 11
29.4778110005
 21
17.9216796875
 31
0.0
  0
ARC
  5
109
330
1F
100
AcDbEntity
  8
0
  6
Continuous
 62
     7
370
    25
100
AcDbCircle
 10
29.6074125
 20
28.4216796875
 30
0.0
 40
0.5
100
AcDbArc
 50
180.0
 51
270.0
  0
ARC
  5
10A
330
1F
100
AcDbEntity
  8
0
  6
Continuous
 62
     7
370
    25
100
AcDbCircle
 10
43.6074125
 20
28.4216796875
 30
0.0
 40
0.5
100
AcDbArc
 50
270.0
 51
0.0
  0
ARC
  5
10B
330
1F
100
AcDbEntity
  8
0
  6
Continuous
 62
     7
370
    25
100
AcDbCircle
 10
29.6074125
 20
17.4216796875
 30
0.0
 40
0.5
100
AcDbArc
 50
90.0
 51
180.0
  0
ARC
  5
10C
330
1F
100
AcDbEntity
  8
0
  6
Continuous
 62
     7
370
    25
100
AcDbCircle
 10
43.6074125
 20
17.4216796875
 30
0.0
 40
0.5
100
AcDbArc
 50
0.0
 51
90.0
  0
LWPOLYLINE
  5
10D
330
1F
100
AcDbEntity
  8
0
  6
Continuous
 62
     7
370
    25
100
AcDbPolyline
 90
        9
 70
   128
 43
0.0
 10
43.6074125
 20
17.7272352431
 10
43.704957661
 20
17.7213640787
 10
43.7987542162
 20
17.7039762113
 10
43.8851976165
 20
17.6757398468
 10
43.9609658906
 20
17.6377400929
 10
44.0231473062
 20
17.5914372587
 10
44.0693522663
 20
17.5386107363
 10
44.0978051402
 20
17.4812906192
 10
44.1074125
 20
17.4216796875
  0
LINE
  5
10E
330
1F
100
AcDbEntity
  8
0
  6
Continuous
 62
     7
370
    25
100
AcDbLine
 10
43.6074125
 20
17.9216796875
 30
0.0
 11
43.6074125
 21
17.7272352431
 31
0.0
  0
LINE
  5
10F
330
1F
100
AcDbEntity
  8
0
  6
Continuous
 62
     7
370
    25
100
AcDbLine
 10
43.6074125
 20
17.7272352431
 30
0.0
 11
29.6074125
 21
17.7272352431
 31
0.0
  0
LINE
  5
110
330
1F
100
AcDbEntity
  8
0
  6
Continuous
 62
     7
370
    25
100
AcDbLine
 10
29.6074125
 20
17.9216796875
 30
0.0
 11
29.6074125
 21
17.7272352431
 31
0.0
  0
LWPOLYLINE
  5
111
330
1F
100
AcDbEntity
  8
0
  6
Continuous
 62
     7
370
    25
100
AcDbPolyline
 90
        9
 70
   128
 43
0.0
 10
29.1074125
 20
17.4216796875
 10
29.1170198598
 20
17.4812906192
 10
29.1454727337
 20
17.5386107363
 10
29.1916776938
 20
17.5914372587
 10
29.2538591094
 20
17.6377400929
 10
29.3296273835
 20
17.6757398468
 10
29.4160707838
 20
17.7039762113
 10
29.509867339
 20
17.7213640787
 10
29.6074125
 20
17.7272352431
  0
LWPOLYLINE
  5
112
330
1F
100
AcDbEntity
  8
0
  6
Continuous
 62
     7
370
    25
100
AcDbPolyline
 90
        9
 70
   128
 43
0.0
 10
29.6074125
 20
28.1161241319
 10
29.509867339
 20
28.1219952963
 10
29.4160707838
 20
28.1393831637
 10
29.3296273835
 20
28.1676195282
 10
29.2538591094
 20
28.2056192821
 10
29.1916776938
 20
28.2519221163
 10
29.1454727337
 20
28.3047486387
 10
29.1170198598
 20
28.3620687558
 10
29.1074125
 20
28.4216796875
  0
LINE
  5
113
330
1F
100
AcDbEntity
  8
0
  6
Continuous
 62
     7
370
    25
100
AcDbLine
 10
29.6074125
 20
28.1161241319
 30
0.0
 11
29.6074125
 21
27.9216796875
 31
0.0
  0
LWPOLYLINE
  5
114
330
1F
100
AcDbEntity
  8
0
  6
Continuous
 62
     7
370
    25
100
AcDbPolyline
 90
        9
 70
   128
 43
0.0
 10
44.1074125
 20
28.4216796875
 10
44.0978051402
 20
28.3620687558
 10
44.0693522663
 20
28.3047486387
 10
44.0231473062
 20
28.2519221163
 10
43.9609658906
 20
28.2056192821
 10
43.8851976165
 20
28.1676195282
 10
43.7987542162
 20
28.1393831637
 10
43.704957661
 20
28.1219952963
 10
43.6074125
 20
28.1161241319
  0
LINE
  5
115
330
1F
100
AcDbEntity
  8
0
  6
Continuous
 62
     7
370
    25
100
AcDbLine
 10
43.6074125
 20
28.1161241319
 30
0.0
 11
43.6074125
 21
27.9216796875
 31
0.0
  0
LINE
  5
116
330
1F
100
AcDbEntity
  8
0
  6
Continuous
 62
     7
370
    25
100
AcDbLine
 10
29.6074125
 20
28.1161241319
 30
0.0
 11
43.6074125
 21
28.1161241319
 31
0.0
  0
LINE
  5
117
330
1F
100
AcDbEntity
  8
0
  6
Continuous
 62
     7
370
    25
100
AcDbLine
 10
17.9623605594
 20
18.1394000606
 30
0.0
 11
17.9623605594
 21
27.7039593144
 31
0.0
  0
LINE
  5
118
330
1F
100
AcDbEntity
  8
0
  6
Continuous
 62
     7
370
    25
100
AcDbLine
 10
16.6074125
 20
22.9216796875
 30
0.0
 11
16.6074125
 21
26.9216796875
 31
0.0
  0
LINE
  5
119
330
1F
100
AcDbEntity
  8
0
  6
Continuous
 62
     7
370
    25
100
AcDbLine
 10
16.6074125
 20
18.9216796875
 30
0.0
 11
16.6074125
 21
22.9216796875
 31
0.0
  0
SPLINE
  5
11A
330
1F
100
AcDbEntity
  8
0
  6
Continuous
 62
     7
370
    25
100
AcDbSpline
210
0.0
220
0.0
230
1.0
 70
     8
 71
     3
 72
    11
 73
     7
 74
     0
 42
0.00000001
 43
0.00000001
 40
0.0
 40
0.0
 40
0.0
 40
0.0
 40
0.1163060807267053
 40
0.3541961116216397
 40
0.5923258273050079
 40
1.0
 40
1.0
 40
1.0
 40
1.0
 10
28.87832643289797
 20
18.5404490976251
 30
0.0
 10
28.90930931125562
 20
18.69593411130649
 30
0.0
 10
29.00366392257567
 20
19.16944492791453
 30
0.0
 10
29.07350455737576
 20
19.97625319649428
 30
0.0
 10
29.10939555767696
 20
21.18241602967032
 30
0.0
 10
29.10737121685309
 20
22.06640400144406
 30
0.0
 10
29.10609331889446
 20
22.62443573762655
 30
0.0
  0
SPLINE
  5
11B
330
1F
100
AcDbEntity
  8
0
  6
Continuous
 62
     7
370
    25
100
AcDbSpline
210
0.0
220
0.0
230
1.0
 70
     8
 71
     3
 72
    11
 73
     7
 74
     0
 42
0.00000001
 43
0.00000001
 40
0.0
 40
0.0
 40
0.0
 40
0.0
 40
0.1163060807267057
 40
0.3541961116216417
 40
0.5923258273050113
 40
1.0
 40
1.0
 40
1.0
 40
1.0
 10
44.33649856710205
 20
27.30291027737491
 30
0.0
 10
44.3055156887444
 20
27.14742526369353
 30
0.0
 10
44.21116107742436
 20
26.67391444708549
 30
0.0
 10
44.14132044262426
 20
25.86710617850574
 30
0.0
 10
44.10542944232306
 20
24.6609433453297
 30
0.0
 10
44.10745378314694
 20
23.77695537355597
 30
0.0
 10
44.10873168110557
 20
23.21892363737349
 30
0.0
  0
LINE
  5
11C
330
1F
100
AcDbEntity
  8
0
  6
Continuous
 62
     7
370
    25
100
AcDbLine
 10
43.6074125
 20
14.4216796875
 30
0.0
 11
43.6074125
 21
17.7272352431
 31
0.0
  0
LINE
  5
11D
330
1F
100
AcDbEntity
  8
0
  6
Continuous
 62
     7
370
    25
100
AcDbLine
 10
29.6074125
 20
17.7272352431
 30
0.0
 11
29.6074125
 21
14.4216796875
 31
0.0
  0
LINE
  5
11E
330
1F
100
AcDbEntity
  8
0
  6
Continuous
 62
     7
370
    25
100
AcDbLine
 10
43.6074125
 20
28.1161241319
 30
0.0
 11
43.6074125
 21
31.4216796875
 31
0.0
  0
LINE
  5
11F
330
1F
100
AcDbEntity
  8
0
  6
Continuous
 62
     7
370
    25
100
AcDbLine
 10
29.6074125
 20
31.4216796875
 30
0.0
 11
29.6074125
 21
28.1161241319
 31
0.0
  0
LWPOLYLINE
  5
120
330
1F
100
AcDbEntity
  8
0
  6
Continuous
 62
     7
370
    25
100
AcDbPolyline
 90
       26
 70
   128
 43
0.0
 10
42.9897333749
 20
31.4098173392
 10
42.9755095881
 20
31.4002799991
 10
42.9389735917
 20
31.3758379223
 10
42.7192414698
 20
31.2303463326
 10
42.3482921213
 20
30.9908893725
 10
41.8656697073
 20
30.6919535875
 10
41.2674773929
 20
30.3436073241
 10
40.488674015
 20
29.9324983079
 10
39.5867249996
 20
29.5271421573
 10
38.7764933126
 20
29.2392232219
 10
37.888453656
 20
29.0190957062
 10
37.131879305
 20
28.9183490072
 10
36.3425283296
 20
28.9030905226
 10
35.5807301166
 20
28.9760088628
 10
34.8255725079
 20
29.1302762854
 10
33.8915301168
 20
29.4250570028
 10
33.0145048033
 20
29.794029204
 10
32.2374191263
 20
30.1845030347
 10
31.5449488152
 20
30.5750916684
 10
31.0062969116
 20
30.9027938336
 10
30.5799121768
 20
31.1752142244
 10
30.347659379
 20
31.3280050434
 10
30.2233911182
 20
31.410954999
 10
30.207906298
 20
31.4213480567
 10
30.2074125
 20
31.4216796875
 10
30.2074125
 20
31.4216796875
  0
SPLINE
  5
121
330
1F
100
AcDbEntity
  8
0
  6
Continuous
 62
     7
370
    25
100
AcDbSpline
210
0.0
220
0.0
230
1.0
 70
     8
 71
     3
 72
    31
 73
    27
 74
     0
 42
0.00000001
 43
0.00000001
 40
0.0
 40
0.0
 40
0.0
 40
0.0
 40
0.0037711104489294
 40
0.0499918979131411
 40
0.0979362230846555
 40
0.1050759608840227
 40
0.1549310008429975
 40
0.2062485866952876
 40
0.2581667471461209
 40
0.3112112337700654
 40
0.361520933184044
 40
0.4131118219396707
 40
0.4497236830228036
 40
0.4873160206688177
 40
0.5237911208545064
 40
0.5614387345537603
 40
0.6059047694611533
 40
0.6516344669460699
 40
0.7059301691522325
 40
0.7615245644558745
 40
0.8094454199391334
 40
0.858395447882675
 40
0.9060522514693382
 40
0.955273269885777
 40
0.9694461554747011
 40
1.0
 40
1.0
 40
1.0
 40
1.0
 10
30.70741250000001
 20
31.92167968750001
 30
0.0
 10
30.70751107840715
 20
31.92160374513681
 30
0.0
 10
30.70881788756397
 20
31.9205970117303
 30
0.0
 10
30.76628447130725
 20
31.8761718370922
 30
0.0
 10
30.9229022822046
 20
31.75660043291532
 30
0.0
 10
31.1378410201604
 20
31.59543492135058
 30
0.0
 10
31.41540830736263
 20
31.39023444592379
 30
0.0
 10
31.92532473923019
 20
31.03086117055928
 30
0.0
 10
32.55080560923268
 20
30.62124737800166
 30
0.0
 10
33.26707956879282
 20
30.20173508987281
 30
0.0
 10
34.07009325177309
 20
29.80552446470881
 30
0.0
 10
34.86586141011945
 20
29.50766960197371
 30
0.0
 10
35.64218184078151
 20
29.3206562512674
 30
0.0
 10
36.35462096548424
 20
29.2391000154972
 30
0.0
 10
37.08198193642865
 20
29.25433644444238
 30
0.0
 10
37.83758520188441
 20
29.37122474518419
 30
0.0
 10
38.60943073847361
 20
29.59546966543235
 30
0.0
 10
39.4130112168216
 20
29.92866346055462
 30
0.0
 10
40.19358295465244
 20
30.33804795928873
 30
0.0
 10
40.88828146247364
 20
30.76413451929411
 30
0.0
 10
41.46420728122602
 20
31.15198381135659
 30
0.0
 10
41.91464273137358
 20
31.4744401114125
 30
0.0
 10
42.2580818885054
 20
31.7305559927325
 30
0.0
 10
42.4166974391984
 20
31.85188544927598
 30
0.0
 10
42.49572824463426
 20
31.91264889579525
 30
0.0
 10
42.4940525444796
 20
31.91137303112788
 30
0.0
 10
42.49290783566978
 20
31.9105014590147
 30
0.0
  0
LINE
  5
122
330
1F
100
AcDbEntity
  8
0
  6
Continuous
 62
     7
370
    18
100
AcDbLine
 10
26.1074125
 20
27.4262125606
 30
0.0
 11
16.9876684436
 21
27.1412205589
 31
0.0
  0
LINE
  5
123
330
1F
100
AcDbEntity
  8
0
  6
Continuous
 62
     7
370
    18
100
AcDbLine
 10
16.9876684436
 20
18.7021388161
 30
0.0
 11
26.1074125
 21
18.4171468144
 31
0.0
  0
LINE
  5
124
330
1F
100
AcDbEntity
  8
0
  6
Continuous
 62
     7
370
    18
100
AcDbLine
 10
57.1074125
 20
18.3418046875
 30
0.0
 11
66.0891926492
 21
18.6224853172
 31
0.0
  0
LINE
  5
125
330
1F
100
AcDbEntity
  8
0
  6
Continuous
 62
     7
370
    18
100
AcDbLine
 10
66.0891926492
 20
27.2208740578
 30
0.0
 11
57.1074125
 21
27.5015546875
 31
0.0
  0
LINE
  5
126
330
1F
100
AcDbEntity
  8
0
  6
CENTERX2
 62
     7
370
    18
100
AcDbLine
 10
14.4422561412
 20
22.9216796875
 30
0.0
 11
69.2962822671
 21
22.9216796875
 31
0.0
  0
LINE
  5
127
330
1F
100
AcDbEntity
  8
0
  6
CENTERX2
 62
     7
370
    18
100
AcDbLine
 10
36.6074125
 20
10.9216796875
 30
0.0
 11
36.6074125
 21
52.6923532737
 31
0.0
  0
ARC
  5
128
330
1F
100
AcDbEntity
  8
0
  6
Continuous
 62
     7
370
    25
100
AcDbCircle
 10
98.3269347413
 20
50.0216796875
 30
0.0
 40
0.25
100
AcDbArc
 50
90.0
 51
180.0
  0
ARC
  5
129
330
1F
100
AcDbEntity
  8
0
  6
Continuous
 62
     7
370
    25
100
AcDbCircle
 10
108.8269347413
 20
50.0216796875
 30
0.0
 40
0.25
100
AcDbArc
 50
0.0
 51
90.0
  0
LINE
  5
12A
330
1F
100
AcDbEntity
  8
0
  6
Continuous
 62
     7
370
    25
100
AcDbLine
 10
98.0769347413
 20
50.0216796875
 30
0.0
 11
98.0769347413
 21
49.4216796875
 31
0.0
  0
LINE
  5
12B
330
1F
100
AcDbEntity
  8
0
  6
Continuous
 62
     7
370
    25
100
AcDbLine
 10
109.0769347413
 20
49.4216796875
 30
0.0
 11
109.0769347413
 21
50.0216796875
 31
0.0
  0
LINE
  5
12C
330
1F
100
AcDbEntity
  8
0
  6
Continuous
 62
     7
370
    25
100
AcDbLine
 10
111.0269347413
 20
41.4216796875
 30
0.0
 11
109.0769347413
 21
49.4216796875
 31
0.0
  0
LINE
  5
12D
330
1F
100
AcDbEntity
  8
0
  6
Continuous
 62
     7
370
    25
100
AcDbLine
 10
98.0769347413
 20
49.4216796875
 30
0.0
 11
96.1269347413
 21
41.4216796875
 31
0.0
  0
LINE
  5
12E
330
1F
100
AcDbEntity
  8
0
  6
Continuous
 62
     7
370
    25
100
AcDbLine
 10
96.1269347413
 20
41.4216796875
 30
0.0
 11
96.5769347413
 21
33.4216796875
 31
0.0
  0
LINE
  5
12F
330
1F
100
AcDbEntity
  8
0
  6
Continuous
 62
     7
370
    25
100
AcDbLine
 10
110.5769347413
 20
33.4216796875
 30
0.0
 11
111.0269347413
 21
41.4216796875
 31
0.0
  0
LINE
  5
130
330
1F
100
AcDbEntity
  8
0
  6
Continuous
 62
     7
370
    25
100
AcDbLine
 10
109.4769347413
 20
31.9197733578
 30
0.0
 11
109.4769347413
 21
33.4216796875
 31
0.0
  0
LINE
  5
131
330
1F
100
AcDbEntity
  8
0
  6
Continuous
 62
     7
370
    25
100
AcDbLine
 10
97.6769347413
 20
33.4216796875
 30
0.0
 11
97.6769347413
 21
30.9957121373
 31
0.0
  0
ARC
  5
132
330
1F
100
AcDbEntity
  8
0
  6
Continuous
 62
     7
370
    25
100
AcDbCircle
 10
109.2769347413
 20
31.4634221178
 30
0.0
 40
0.4999999999999993
100
AcDbArc
 50
359.992141364
 51
66.3930114207
  0
LINE
  5
133
330
1F
100
AcDbEntity
  8
0
  6
Continuous
 62
     7
370
    25
100
AcDbLine
 10
98.3269347413
 20
50.2716796875
 30
0.0
 11
100.0769347413
 21
50.2716796875
 31
0.0
  0
LINE
  5
134
330
1F
100
AcDbEntity
  8
0
  6
Continuous
 62
     7
370
    25
100
AcDbLine
 10
107.0769347413
 20
50.2716796875
 30
0.0
 11
108.8269347413
 21
50.2716796875
 31
0.0
  0
LINE
  5
135
330
1F
100
AcDbEntity
  8
0
  6
Continuous
 62
     7
370
    25
100
AcDbLine
 10
98.0769347413
 20
49.4216796875
 30
0.0
 11
100.0769347413
 21
49.4216796875
 31
0.0
  0
LINE
  5
136
330
1F
100
AcDbEntity
  8
0
  6
Continuous
 62
     7
370
    25
100
AcDbLine
 10
107.0769347413
 20
49.4216796875
 30
0.0
 11
109.0769347413
 21
49.4216796875
 31
0.0
  0
LINE
  5
137
330
1F
100
AcDbEntity
  8
0
  6
Continuous
 62
     7
370
    25
100
AcDbLine
 10
107.0769347413
 20
39.4216796875
 30
0.0
 11
100.0769347413
 21
39.4216796875
 31
0.0
  0
LINE
  5
138
330
1F
100
AcDbEntity
  8
0
  6
Continuous
 62
     7
370
    25
100
AcDbLine
 10
100.0769347413
 20
44.4216796875
 30
0.0
 11
107.0769347413
 21
44.4216796875
 31
0.0
  0
LINE
  5
139
330
1F
100
AcDbEntity
  8
0
  6
Continuous
 62
     7
370
    25
100
AcDbLine
 10
107.0769347413
 20
44.4216796875
 30
0.0
 11
107.0769347413
 21
39.4216796875
 31
0.0
  0
LINE
  5
13A
330
1F
100
AcDbEntity
  8
0
  6
Continuous
 62
     7
370
    25
100
AcDbLine
 10
100.0769347413
 20
39.4216796875
 30
0.0
 11
100.0769347413
 21
44.4216796875
 31
0.0
  0
LINE
  5
13B
330
1F
100
AcDbEntity
  8
0
  6
Continuous
 62
     7
370
    25
100
AcDbLine
 10
100.0769347413
 20
51.4216796875
 30
0.0
 11
107.0769347413
 21
51.4216796875
 31
0.0
  0
LINE
  5
13C
330
1F
100
AcDbEntity
  8
0
  6
Continuous
 62
     7
370
    25
100
AcDbLine
 10
107.0769347413
 20
44.4216796875
 30
0.0
 11
107.0769347413
 21
51.4216796875
 31
0.0
  0
LINE
  5
13D
330
1F
100
AcDbEntity
  8
0
  6
Continuous
 62
     7
370
    25
100
AcDbLine
 10
100.0769347413
 20
51.4216796875
 30
0.0
 11
100.0769347413
 21
44.4216796875
 31
0.0
  0
SPLINE
  5
13E
330
1F
100
AcDbEntity
  8
0
  6
Continuous
 62
     7
370
    25
100
AcDbSpline
210
0.0
220
0.0
230
1.0
 70
     8
 71
     3
 72
    11
 73
     7
 74
     0
 42
0.00000001
 43
0.00000001
 40
0.0
 40
0.0
 40
0.0
 40
0.0
 40
0.2488466353289361
 40
0.4976946020535204
 40
0.7488461225871278
 40
1.0
 40
1.0
 40
1.0
 40
1.0
 10
107.0769347412576
 20
39.17385538047556
 30
0.0
 10
107.081626277197
 20
39.10433100398192
 30
0.0
 10
107.0910093741768
 20
38.96528187902075
 30
0.0
 10
107.1674312576636
 20
38.66495314089546
 30
0.0
 10
107.2851573856274
 20
38.30304352264032
 30
0.0
 10
107.4034663089604
 20
38.00145156557576
 30
0.0
 10
107.462621048187
 20
37.85065487949004
 30
0.0
  0
LINE
  5
13F
330
1F
100
AcDbEntity
  8
0
  6
Continuous
 62
     7
370
    25
100
AcDbLine
 10
107.4626210482
 20
37.8506548795
 30
0.0
 11
99.6912484343
 21
37.8506548795
 31
0.0
  0
SPLINE
  5
140
330
1F
100
AcDbEntity
  8
0
  6
Continuous
 62
     7
370
    25
100
AcDbSpline
210
0.0
220
0.0
230
1.0
 70
     8
 71
     3
 72
    11
 73
     7
 74
     0
 42
0.00000001
 43
0.00000001
 40
0.0
 40
0.0
 40
0.0
 40
0.0
 40
0.2488607147078904
 40
0.4977191536447658
 40
0.7488602698858828
 40
1.0
 40
1.0
 40
1.0
 40
1.0
 10
99.69124843432822
 20
37.85065487949005
 30
0.0
 10
99.74990192601452
 20
38.00013381637817
 30
0.0
 10
99.86720837301513
 20
38.2990903232057
 30
0.0
 10
99.98524417954809
 20
38.66089429666442
 30
0.0
 10
100.0625988608283
 20
38.96316893990392
 30
0.0
 10
100.0721561232394
 20
39.10362669615715
 30
0.0
 10
100.0769347412576
 20
39.17385538047556
 30
0.0
  0
LINE
  5
141
330
1F
100
AcDbEntity
  8
0
  6
Continuous
 62
     7
370
    25
100
AcDbLine
 10
107.0769347413
 20
39.4216796875
 30
0.0
 11
107.0769347413
 21
39.1738553805
 31
0.0
  0
LINE
  5
142
330
1F
100
AcDbEntity
  8
0
  6
Continuous
 62
     7
370
    25
100
AcDbLine
 10
100.0769347413
 20
39.1738553805
 30
0.0
 11
100.0769347413
 21
39.4216796875
 31
0.0
  0
SPLINE
  5
143
330
1F
100
AcDbEntity
  8
0
  6
Continuous
 62
     7
370
    25
100
AcDbSpline
210
0.0
220
0.0
230
1.0
 70
     8
 71
     3
 72
    16
 73
    12
 74
     0
 42
0.00000001
 43
0.00000001
 40
0.0
 40
0.0
 40
0.0
 40
0.0
 40
0.0155634360124117
 40
0.0359329243097674
 40
0.0739120889290614
 40
0.1570057548437684
 40
0.2406581385754913
 40
0.4592958294318596
 40
0.6783839187935412
 40
0.8974954344294845
 40
1.0
 40
1.0
 40
1.0
 40
1.0
 10
96.91721251903536
 20
33.42167968750011
 30
0.0
 10
96.9309061860487
 20
33.42687305927927
 30
0.0
 10
96.96252218009532
 20
33.43886353714705
 30
0.0
 10
97.01800187040543
 20
33.55718946114401
 30
0.0
 10
97.09660268089593
 20
33.86844076859296
 30
0.0
 10
97.17594286752498
 20
34.39408826995802
 30
0.0
 10
97.28117057562817
 20
35.43263443422817
 30
0.0
 10
97.39616397684743
 20
36.86770847657429
 30
0.0
 10
97.49856397726234
 20
38.70596057801372
 30
0.0
 10
97.56831285714273
 20
40.22714342683317
 30
0.0
 10
97.60777147657149
 20
41.13297546762968
 30
0.0
 10
97.62034761588451
 20
41.42167968749763
 30
0.0
  0
LINE
  5
144
330
1F
100
AcDbEntity
  8
0
  6
Continuous
 62
     7
370
    25
100
AcDbLine
 10
97.6203476159
 20
41.4216796875
 30
0.0
 11
97.4001869006
 21
42.4164232655
 31
0.0
  0
LINE
  5
145
330
1F
100
AcDbEntity
  8
0
  6
Continuous
 62
     7
370
    25
100
AcDbLine
 10
97.4001869006
 20
42.4164232655
 30
0.0
 11
100.0769347413
 21
42.4164232655
 31
0.0
  0
ELLIPSE
  5
146
330
1F
100
AcDbEntity
  8
0
  6
Continuous
 62
     7
370
    25
100
AcDbEllipse
 10
35.0769347413
 20
39.7695541198
 30
0.0
 11
65.0
 21
7.105427357601002E-15
 31
0.0
210
0.0
220
0.0
230
1.0
 40
0.2713992096
 41
6.084179739699223
 42
6.174194364446292
  0
SPLINE
  5
147
330
1F
100
AcDbEntity
  8
0
  6
Continuous
 62
     7
370
    25
100
AcDbSpline
210
0.0
220
0.0
230
1.0
 70
     8
 71
     3
 72
    13
 73
     9
 74
     0
 42
0.00000001
 43
0.00000001
 40
0.0
 40
0.0
 40
0.0
 40
0.0
 40
0.1610294006389559
 40
0.3266880383557517
 40
0.4877296220820635
 40
0.6535536198224136
 40
0.8237602734841889
 40
1.0
 40
1.0
 40
1.0
 40
1.0
 10
98.79407241115307
 20
36.28203343900717
 30
0.0
 10
98.75026864372066
 20
36.21263654442993
 30
0.0
 10
98.66140184797841
 20
36.07184774892137
 30
0.0
 10
98.53238182930643
 20
35.72572293121373
 30
0.0
 10
98.41137173353908
 20
35.28651628816169
 30
0.0
 10
98.30469075041442
 20
34.75291445122209
 30
0.0
 10
98.21402346305862
 20
34.12908814452241
 30
0.0
 10
98.17720465416187
 20
33.66020424632041
 30
0.0
 10
98.15847466539051
 20
33.42167968750001
 30
0.0
  0
LINE
  5
148
330
1F
100
AcDbEntity
  8
0
  6
Continuous
 62
     7
370
    25
100
AcDbLine
 10
98.1584746654
 20
33.4216796875
 30
0.0
 11
96.917212519
 21
33.4216796875
 31
0.0
  0
SPLINE
  5
149
330
1F
100
AcDbEntity
  8
0
  6
Continuous
 62
     7
370
    25
100
AcDbSpline
210
0.0
220
0.0
230
1.0
 70
     8
 71
     3
 72
    17
 73
    13
 74
     0
 42
0.00000001
 43
0.00000001
 40
0.0
 40
0.0
 40
0.0
 40
0.0
 40
0.3241697628029873
 40
0.542275846362072
 40
0.689509052693928
 40
0.7894036290694506
 40
0.8577090008137827
 40
0.9049823971474139
 40
0.9551712229700868
 40
0.9753097783197817
 40
0.9919572060138849
 40
1.0
 40
1.0
 40
1.0
 40
1.0
 10
109.5335218666307
 20
41.42167968749764
 30
0.0
 10
109.5741723053575
 20
40.50906618489196
 30
0.0
 10
109.6421729445131
 20
38.98243317863063
 30
0.0
 10
109.7536058438295
 20
37.05566027634966
 30
0.0
 10
109.846110503888
 20
35.76802480541689
 30
0.0
 10
109.9240119602054
 20
34.90887283869515
 30
0.0
 10
109.9900644596277
 20
34.33540495031774
 30
0.0
 10
110.0534210669902
 20
33.91387279628778
 30
0.0
 10
110.111547534684
 20
33.63338025349233
 30
0.0
 10
110.1708893630068
 20
33.47783158491169
 30
0.0
 10
110.2078954316296
 20
33.42722098571419
 30
0.0
 10
110.2295899985
 20
33.42304123390954
 30
0.0
 10
110.2366569634798
 20
33.42167968750007
 30
0.0
  0
LINE
  5
14A
330
1F
100
AcDbEntity
  8
0
  6
Continuous
 62
     7
370
    25
100
AcDbLine
 10
110.2366569635
 20
33.4216796875
 30
0.0
 11
108.9953948171
 21
33.4216796875
 31
0.0
  0
SPLINE
  5
14B
330
1F
100
AcDbEntity
  8
0
  6
Continuous
 62
     7
370
    25
100
AcDbSpline
210
0.0
220
0.0
230
1.0
 70
     8
 71
     3
 72
    14
 73
    10
 74
     0
 42
0.00000001
 43
0.00000001
 40
0.0
 40
0.0
 40
0.0
 40
0.0
 40
0.1576095309202822
 40
0.3152382602707094
 40
0.4726926441579498
 40
0.6301650083177254
 40
0.7907313191165901
 40
0.9513050385928076
 40
1.0
 40
1.0
 40
1.0
 40
1.0
 10
108.9953948171247
 20
33.42167968750001
 30
0.0
 10
108.9788894802822
 20
33.63518147597741
 30
0.0
 10
108.9458767960809
 20
34.06221105960292
 30
0.0
 10
108.8660731061689
 20
34.64745813845924
 30
0.0
 10
108.7682856986827
 20
35.16961267928166
 30
0.0
 10
108.6546958590008
 20
35.61859080670153
 30
0.0
 10
108.530153759969
 20
35.9778725385079
 30
0.0
 10
108.4297964191926
 20
36.18243871760909
 30
0.0
 10
108.3730106215774
 20
36.2632332659604
 30
0.0
 10
108.3597970713622
 20
36.28203343900717
 30
0.0
  0
ELLIPSE
  5
14C
330
1F
100
AcDbEntity
  8
0
  6
Continuous
 62
     7
370
    25
100
AcDbEllipse
 10
172.0769347413
 20
39.7695541198
 30
0.0
 11
65.0
 21
7.105427357601002E-15
 31
0.0
210
0.0
220
0.0
230
1.0
 40
0.2713992096
 41
3.250583596323188
 42
3.340598221070255
  0
LINE
  5
14D
330
1F
100
AcDbEntity
  8
0
  6
Continuous
 62
     7
370
    25
100
AcDbLine
 10
107.0769347413
 20
42.4164232655
 30
0.0
 11
109.7536825819
 21
42.4164232655
 31
0.0
  0
LINE
  5
14E
330
1F
100
AcDbEntity
  8
0
  6
Continuous
 62
     7
370
    25
100
AcDbLine
 10
109.7536825819
 20
42.4164232655
 30
0.0
 11
109.5335218666
 21
41.4216796875
 31
0.0
  0
LINE
  5
14F
330
1F
100
AcDbEntity
  8
0
  6
Continuous
 62
     7
370
    25
100
AcDbLine
 10
98.7940724112
 20
36.282033439
 30
0.0
 11
108.3597970714
 21
36.282033439
 31
0.0
  0
SPLINE
  5
150
330
1F
100
AcDbEntity
  8
0
  6
Continuous
 62
     7
370
    25
100
AcDbSpline
210
0.0
220
0.0
230
1.0
 70
     8
 71
     3
 72
    17
 73
    13
 74
     0
 42
0.00000001
 43
0.00000001
 40
0.0
 40
0.0
 40
0.0
 40
0.0
 40
0.1081860012549414
 40
0.2408151807051437
 40
0.3276516311100471
 40
0.4145726740665699
 40
0.5029543110696525
 40
0.5913346660341969
 40
0.6906638927173525
 40
0.7898254811331098
 40
0.9113412715150513
 40
1.0
 40
1.0
 40
1.0
 40
1.0
 10
106.1750109526109
 20
33.42167968750001
 30
0.0
 10
106.0569602724176
 20
33.60473640676319
 30
0.0
 10
105.7941869417337
 20
34.01220905957688
 30
0.0
 10
105.2174541019597
 20
34.35644690340462
 30
0.0
 10
104.6320454766616
 20
34.56040733627449
 30
0.0
 10
104.1020409159123
 20
34.65890038192774
 30
0.0
 10
103.5579749366336
 20
34.69021121332177
 30
0.0
 10
102.9887637866483
 20
34.65259587917931
 30
0.0
 10
102.4109932498965
 20
34.53403667060239
 30
0.0
 10
101.8107969906426
 20
34.29351733625452
 30
0.0
 10
101.2940889662046
 20
33.93306740918243
 30
0.0
 10
101.0723820247289
 20
33.57339970382669
 30
0.0
 10
100.9788585299043
 20
33.42167968750001
 30
0.0
  0
LINE
  5
151
330
1F
100
AcDbEntity
  8
0
  6
Continuous
 62
     7
370
    25
100
AcDbLine
 10
100.9788585299
 20
33.4216796875
 30
0.0
 11
98.1584746654
 21
33.4216796875
 31
0.0
  0
LINE
  5
152
330
1F
100
AcDbEntity
  8
0
  6
Continuous
 62
     7
370
    25
100
AcDbLine
 10
108.9953948171
 20
33.4216796875
 30
0.0
 11
106.1750109526
 21
33.4216796875
 31
0.0
  0
LINE
  5
153
330
1F
100
AcDbEntity
  8
0
  6
Continuous
 62
     7
370
    25
100
AcDbLine
 10
106.1750109526
 20
33.4216796875
 30
0.0
 11
100.9788585299
 21
33.4216796875
 31
0.0
  0
LINE
  5
154
330
1F
100
AcDbEntity
  8
0
  6
Continuous
 62
     7
370
    25
100
AcDbLine
 10
109.5335218666
 20
41.4216796875
 30
0.0
 11
111.0269347413
 21
41.4216796875
 31
0.0
  0
LINE
  5
155
330
1F
100
AcDbEntity
  8
0
  6
Continuous
 62
     7
370
    25
100
AcDbLine
 10
96.1269347413
 20
41.4216796875
 30
0.0
 11
97.6203476159
 21
41.4216796875
 31
0.0
  0
SPLINE
  5
156
330
1F
100
AcDbEntity
  8
0
  6
Continuous
 62
     7
370
    25
100
AcDbSpline
210
0.0
220
0.0
230
1.0
 70
     8
 71
     3
 72
     9
 73
     5
 74
     0
 42
0.00000001
 43
0.00000001
 40
0.0
 40
0.0
 40
0.0
 40
0.0
 40
0.4875141023677128
 40
0.9999999999999999
 40
0.9999999999999999
 40
0.9999999999999999
 40
0.9999999999999999
 10
110.2366569634798
 20
33.42167968750007
 30
0.0
 10
110.2451830750156
 20
33.42340703347178
 30
0.0
 10
110.2626720286569
 20
33.42695020476326
 30
0.0
 10
110.2789937325433
 20
33.44846869071257
 30
0.0
 10
110.2873583756104
 20
33.45949661129999
 30
0.0
  0
SPLINE
  5
157
330
1F
100
AcDbEntity
  8
0
  6
Continuous
 62
     7
370
    25
100
AcDbSpline
210
0.0
220
0.0
230
1.0
 70
     8
 71
     3
 72
     9
 73
     5
 74
     0
 42
0.00000001
 43
0.00000001
 40
0.0
 40
0.0
 40
0.0
 40
0.0
 40
0.5124861829376838
 40
0.9999999999999999
 40
0.9999999999999999
 40
0.9999999999999999
 40
0.9999999999999999
 10
96.86651113777103
 20
33.45949656544023
 30
0.0
 10
96.87487578089467
 20
33.44846865248905
 30
0.0
 10
96.89119747580492
 20
33.42695019341964
 30
0.0
 10
96.90868641804668
 20
33.42340702907449
 30
0.0
 10
96.91721251903536
 20
33.42167968750011
 30
0.0
  0
LINE
  5
158
330
1F
100
AcDbEntity
  8
0
  6
Continuous
 62
     7
370
    25
100
AcDbLine
 10
110.2851386738
 20
33.4216796875
 30
0.0
 11
110.5769347413
 21
33.4216796875
 31
0.0
  0
LINE
  5
159
330
1F
100
AcDbEntity
  8
0
  6
Continuous
 62
     7
370
    25
100
AcDbLine
 10
96.5769347413
 20
33.4216796875
 30
0.0
 11
96.8687308088
 21
33.4216796875
 31
0.0
  0
LINE
  5
15A
330
1F
100
AcDbEntity
  8
0
  6
Continuous
 62
     7
370
    25
100
AcDbLine
 10
110.2873583756
 20
33.4594966113
 30
0.0
 11
110.2851386738
 21
33.4216796875
 31
0.0
  0
LINE
  5
15B
330
1F
100
AcDbEntity
  8
0
  6
Continuous
 62
     7
370
    25
100
AcDbLine
 10
110.2851386738
 20
33.4216796875
 30
0.0
 11
110.2366569635
 21
33.4216796875
 31
0.0
  0
LINE
  5
15C
330
1F
100
AcDbEntity
  8
0
  6
Continuous
 62
     7
370
    25
100
AcDbLine
 10
96.8687308088
 20
33.4216796875
 30
0.0
 11
96.8665111378
 21
33.4594965654
 31
0.0
  0
LINE
  5
15D
330
1F
100
AcDbEntity
  8
0
  6
Continuous
 62
     7
370
    25
100
AcDbLine
 10
96.917212519
 20
33.4216796875
 30
0.0
 11
96.8687308088
 21
33.4216796875
 31
0.0
  0
CIRCLE
  5
15E
330
1F
100
AcDbEntity
  8
0
  6
Continuous
 62
     7
370
    25
100
AcDbCircle
 10
103.5769347413
 20
22.9216796875
 30
0.0
 40
4.782279626857608
  0
CIRCLE
  5
15F
330
1F
100
AcDbEntity
  8
0
  6
Continuous
 62
     7
370
    25
100
AcDbCircle
 10
103.5769347413
 20
22.9216796875
 30
0.0
 40
4.000000000000014
  0
CIRCLE
  5
160
330
1F
100
AcDbEntity
  8
0
  6
Continuous
 62
     7
370
    25
100
AcDbCircle
 10
103.5769347413
 20
22.9216796875
 30
0.0
 40
3.199999999999989
  0
CIRCLE
  5
161
330
1F
100
AcDbEntity
  8
0
  6
Continuous
 62
     7
370
    25
100
AcDbCircle
 10
103.5769347413
 20
22.9216796875
 30
0.0
 40
3.0
  0
CIRCLE
  5
162
330
1F
100
AcDbEntity
  8
0
  6
Continuous
 62
     7
370
    25
100
AcDbCircle
 10
103.5769347413
 20
22.9216796875
 30
0.0
 40
5.052437500000025
  0
CIRCLE
  5
163
330
1F
100
AcDbEntity
  8
0
  6
Continuous
 62
     7
370
    25
100
AcDbCircle
 10
103.5769347413
 20
22.9216796875
 30
0.0
 40
8.250000000000014
  0
SPLINE
  5
164
330
1F
100
AcDbEntity
  8
0
  6
Continuous
 62
     7
370
    25
100
AcDbSpline
210
0.0
220
0.0
230
1.0
 70
    24
 71
     3
 72
    14
 73
    10
 74
     0
 42
0.00000001
 43
0.00000001
 40
0.0
 40
0.0
 40
0.0
 40
0.0
 40
0.1185009945920698
 40
0.2439073148360068
 40
0.3692815579563456
 40
0.4977503482751114
 40
0.62621864735826
 40
0.8121215201811404
 40
1.0
 40
1.0
 40
1.0
 40
1.0
 10
112.0769347412577
 20
18.01420239938832
 30
0.0
 10
112.0769347412577
 20
18.39378002061595
 30
0.0
 10
112.0769347412576
 20
19.17505412455216
 30
0.0
 10
112.0769347412576
 20
20.378837759067
 30
0.0
 10
112.0769347412576
 20
21.62883739834292
 30
0.0
 10
112.0769347412576
 20
22.89891178122952
 30
0.0
 10
112.0769347412576
 20
24.36957376967274
 30
0.0
 10
112.0769347412576
 20
26.02563593313654
 30
0.0
 10
112.0769347412576
 20
27.22586870004284
 30
0.0
 10
112.0769347412576
 20
27.82915697561198
 30
0.0
  0
SPLINE
  5
165
330
1F
100
AcDbEntity
  8
0
  6
Continuous
 62
     7
370
    25
100
AcDbSpline
210
0.0
220
0.0
230
1.0
 70
    24
 71
     3
 72
    14
 73
    10
 74
     0
 42
0.00000001
 43
0.00000001
 40
0.0
 40
0.0
 40
0.0
 40
0.0
 40
0.1323173648304389
 40
0.2645973188387831
 40
0.3998364273285067
 40
0.5350511314348788
 40
0.6502525552916444
 40
0.76547194948634
 40
1.0
 40
1.0
 40
1.0
 40
1.0
 10
103.5769347412577
 20
13.10672511127642
 30
0.0
 10
103.9441680956076
 20
13.31874738726575
 30
0.0
 10
104.6785309743853
 20
13.74273199301092
 30
0.0
 10
105.8093932325198
 20
14.39563562216131
 30
0.0
 10
106.9615381121089
 20
15.06082677853755
 30
0.0
 10
108.0720713284011
 20
15.70199342990788
 30
0.0
 10
109.1222054384653
 20
16.30828864103866
 30
0.0
 10
110.4492992903647
 20
17.07448663367266
 30
0.0
 10
111.4236022425195
 20
17.63700070537152
 30
0.0
 10
112.0769347412577
 20
18.01420239938832
 30
0.0
  0
SPLINE
  5
166
330
1F
100
AcDbEntity
  8
0
  6
Continuous
 62
     7
370
    25
100
AcDbSpline
210
0.0
220
0.0
230
1.0
 70
    24
 71
     3
 72
    14
 73
    10
 74
     0
 42
0.00000001
 43
0.00000001
 40
0.0
 40
0.0
 40
0.0
 40
0.0
 40
0.132317364830439
 40
0.2645973188387831
 40
0.3998364273285067
 40
0.5350511314348788
 40
0.6502525552916444
 40
0.76547194948634
 40
1.0
 40
1.0
 40
1.0
 40
1.0
 10
95.07693474125763
 20
18.0142023993882
 30
0.0
 10
95.44416809560754
 20
17.80218012339888
 30
0.0
 10
96.17853097438523
 20
17.37819551765371
 30
0.0
 10
97.3093932325198
 20
16.72529188850335
 30
0.0
 10
98.46153811210893
 20
16.06010073212712
 30
0.0
 10
99.57207132840111
 20
15.41893408075681
 30
0.0
 10
100.6222054384653
 20
14.81263886962604
 30
0.0
 10
101.9492992903647
 20
14.04644087699206
 30
0.0
 10
102.9236022425196
 20
13.4839268052932
 30
0.0
 10
103.5769347412577
 20
13.10672511127642
 30
0.0
  0
SPLINE
  5
167
330
1F
100
AcDbEntity
  8
0
  6
Continuous
 62
     7
370
    25
100
AcDbSpline
210
0.0
220
0.0
230
1.0
 70
    24
 71
     3
 72
    14
 73
    10
 74
     0
 42
0.00000001
 43
0.00000001
 40
0.0
 40
0.0
 40
0.0
 40
0.0
 40
0.1860584802655413
 40
0.3737803771913303
 40
0.4990317900313265
 40
0.6242830227419761
 40
0.7528733698393436
 40
0.8814990713915187
 40
1.0
 40
1.0
 40
1.0
 40
1.0
 10
95.07693474125759
 20
27.82915697561187
 30
0.0
 10
95.07693474125759
 20
27.23175507294839
 30
0.0
 10
95.0769347412576
 20
26.03161032171917
 30
0.0
 10
95.0769347412576
 20
24.38620689082848
 30
0.0
 10
95.07693474125762
 20
22.93102703684009
 30
0.0
 10
95.07693474125762
 20
21.67155168138683
 30
0.0
 10
95.07693474125762
 20
20.4103918276813
 30
0.0
 10
95.07693474125762
 20
19.18537065859659
 30
0.0
 10
95.07693474125763
 20
18.39378135328375
 30
0.0
 10
95.07693474125763
 20
18.0142023993882
 30
0.0
  0
SPLINE
  5
168
330
1F
100
AcDbEntity
  8
0
  6
Continuous
 62
     7
370
    25
100
AcDbSpline
210
0.0
220
0.0
230
1.0
 70
    24
 71
     3
 72
    14
 73
    10
 74
     0
 42
0.00000001
 43
0.00000001
 40
0.0
 40
0.0
 40
0.0
 40
0.0
 40
0.132317364830439
 40
0.2645973188387832
 40
0.3998364273285067
 40
0.5350511314348788
 40
0.6502525552916444
 40
0.7654719494863401
 40
1.0
 40
1.0
 40
1.0
 40
1.0
 10
103.5769347412576
 20
32.73663426372371
 30
0.0
 10
103.2097013869077
 20
32.52461198773438
 30
0.0
 10
102.47533850813
 20
32.10062738198921
 30
0.0
 10
101.3444762499955
 20
31.44772375283883
 30
0.0
 10
100.1923313704063
 20
30.7825325964626
 30
0.0
 10
99.08179815411414
 20
30.14136594509229
 30
0.0
 10
98.03166404404993
 20
29.53507073396151
 30
0.0
 10
96.70457019215058
 20
28.76887274132752
 30
0.0
 10
95.73026723999571
 20
28.20635866962866
 30
0.0
 10
95.07693474125759
 20
27.82915697561187
 30
0.0
  0
SPLINE
  5
169
330
1F
100
AcDbEntity
  8
0
  6
Continuous
 62
     7
370
    25
100
AcDbSpline
210
0.0
220
0.0
230
1.0
 70
    24
 71
     3
 72
    14
 73
    10
 74
     0
 42
0.00000001
 43
0.00000001
 40
0.0
 40
0.0
 40
0.0
 40
0.0
 40
0.1323173648304407
 40
0.2645973188387866
 40
0.3998364273285118
 40
0.5350511314348857
 40
0.6502525552916495
 40
0.7654719494863436
 40
1.0
 40
1.0
 40
1.0
 40
1.0
 10
112.0769347412576
 20
27.82915697561198
 30
0.0
 10
111.7097013869076
 20
28.04117925160131
 30
0.0
 10
110.97533850813
 20
28.46516385734648
 30
0.0
 10
109.8444762499954
 20
29.11806748649684
 30
0.0
 10
108.6923313704063
 20
29.78325864287308
 30
0.0
 10
107.5817981541141
 20
30.42442529424337
 30
0.0
 10
106.5316640440499
 20
31.03072050537414
 30
0.0
 10
105.2045701921506
 20
31.79691849800809
 30
0.0
 10
104.2302672399957
 20
32.35943256970693
 30
0.0
 10
103.5769347412576
 20
32.73663426372371
 30
0.0
  0
ARC
  5
16A
330
1F
100
AcDbEntity
  8
0
  6
Continuous
 62
     7
370
    25
100
AcDbCircle
 10
103.5769347413
 20
22.9216796875
 30
0.0
 40
9.750000000000009
100
AcDbArc
 50
0.0
 51
28.9820689673
  0
ARC
  5
16B
330
1F
100
AcDbEntity
  8
0
  6
Continuous
 62
     7
370
    25
100
AcDbCircle
 10
103.5769347413
 20
22.9216796875
 30
0.0
 40
9.75
100
AcDbArc
 50
30.8132970805
 51
88.9179875663
  0
ARC
  5
16C
330
1F
100
AcDbEntity
  8
0
  6
Continuous
 62
     7
370
    25
100
AcDbCircle
 10
103.5769347413
 20
22.9216796875
 30
0.0
 40
9.749999999999998
100
AcDbArc
 50
91.0921369765
 51
149.2204327616
  0
ARC
  5
16D
330
1F
100
AcDbEntity
  8
0
  6
Continuous
 62
     7
370
    25
100
AcDbCircle
 10
103.5769347413
 20
22.9216796875
 30
0.0
 40
9.749999999999991
100
AcDbArc
 50
150.9925519419
 51
208.960039906
  0
ARC
  5
16E
330
1F
100
AcDbEntity
  8
0
  6
Continuous
 62
     7
370
    25
100
AcDbCircle
 10
103.5769347413
 20
22.9216796875
 30
0.0
 40
9.750000000000005
100
AcDbArc
 50
210.8454993556
 51
268.930313056
  0
ARC
  5
16F
330
1F
100
AcDbEntity
  8
0
  6
Continuous
 62
     7
370
    25
100
AcDbCircle
 10
103.5769347413
 20
22.9216796875
 30
0.0
 40
9.750000000000002
100
AcDbArc
 50
271.0999896975
 51
329.2556443681
  0
ARC
  5
170
330
1F
100
AcDbEntity
  8
0
  6
Continuous
 62
     7
370
    25
100
AcDbCircle
 10
103.5769347413
 20
22.9216796875
 30
0.0
 40
9.750000000000007
100
AcDbArc
 50
330.9637056521
 51
0.0
  0
CIRCLE
  5
171
330
1F
100
AcDbEntity
  8
0
  6
Continuous
 62
     7
370
    25
100
AcDbCircle
 10
103.5769347413
 20
22.9216796875
 30
0.0
 40
10.0
  0
SPLINE
  5
172
330
1F
100
AcDbEntity
  8
0
  6
Continuous
 62
     7
370
    25
100
AcDbSpline
210
0.0
220
0.0
230
1.0
 70
     8
 71
     3
 72
    12
 73
     8
 74
     0
 42
0.00000001
 43
0.00000001
 40
0.0
 40
0.0
 40
0.0
 40
0.0
 40
0.2188441512560765
 40
0.44557789737152
 40
0.6750181638247315
 40
0.9060282466689945
 40
1.0
 40
1.0
 40
1.0
 40
1.0
 10
109.4766194205073
 20
31.9197733578239
 30
0.0
 10
109.4750052922904
 20
31.91046405138607
 30
0.0
 10
109.471718844593
 20
31.8915098268169
 30
0.0
 10
109.4458460481377
 20
31.72772515286262
 30
0.0
 10
109.4164952410189
 20
31.48009340880654
 30
0.0
 10
109.3966872340602
 20
31.22826650341563
 30
0.0
 10
109.3943501827783
 20
31.06988766787403
 30
0.0
 10
109.3936744009895
 20
31.02409084106817
 30
0.0
  0
SPLINE
  5
173
330
1F
100
AcDbEntity
  8
0
  6
Continuous
 62
     7
370
    25
100
AcDbSpline
210
0.0
220
0.0
230
1.0
 70
    24
 71
     3
 72
    14
 73
    10
 74
     0
 42
0.00000001
 43
0.00000001
 40
0.0
 40
0.0
 40
0.0
 40
0.0
 40
0.0805635831209368
 40
0.25310900309608
 40
0.4329817449245464
 40
0.6132026901284424
 40
0.7934294113595155
 40
0.9024425079261881
 40
1.0
 40
1.0
 40
1.0
 40
1.0
 10
109.7769347412576
 20
31.45611135937814
 30
0.0
 10
109.7769347412576
 20
31.4574616383875
 30
0.0
 10
109.7769347412576
 20
31.46170385007573
 30
0.0
 10
109.7769347412576
 20
31.39857971920261
 30
0.0
 10
109.7769347412576
 20
31.27673575345105
 30
0.0
 10
109.7769347412576
 20
31.10923931323862
 30
0.0
 10
109.7769347412576
 20
30.94681355251402
 30
0.0
 10
109.7769347412576
 20
30.81128266973683
 30
0.0
 10
109.7769347412576
 20
30.74572500048845
 30
0.0
 10
109.7769347412576
 20
30.71476395303165
 30
0.0
  0
LINE
  5
174
330
1F
100
AcDbEntity
  8
0
  6
Continuous
 62
     7
370
    25
100
AcDbLine
 10
100.0769347413
 20
50.0216796875
 30
0.0
 11
98.0769347413
 21
50.0216796875
 31
0.0
  0
LINE
  5
175
330
1F
100
AcDbEntity
  8
0
  6
Continuous
 62
     7
370
    25
100
AcDbLine
 10
109.0769347413
 20
50.0216796875
 30
0.0
 11
107.0769347413
 21
50.0216796875
 31
0.0
  0
INSERT
  5
181
330
1F
100
AcDbEntity
  8
0
  6
Continuous
 62
     7
370
    18
100
AcDbBlockReference
  2
SW_CENTERMARKSYMBOL_0
 10
103.5769347413
 20
22.9216796875
 30
0.0
  0
LINE
  5
182
330
1F
100
AcDbEntity
  8
0
  6
Continuous
 62
     7
370
    25
100
AcDbLine
 10
56.4630749327
 20
70.0817036511
 30
0.0
 11
56.6074125
 21
70.3317036511
 31
0.0
  0
LINE
  5
183
330
1F
100
AcDbEntity
  8
0
  6
Continuous
 62
     7
370
    25
100
AcDbLine
 10
56.6074125
 20
86.8317036511
 30
0.0
 11
56.4630749327
 21
87.0817036511
 31
0.0
  0
LINE
  5
184
330
1F
100
AcDbEntity
  8
0
  6
Continuous
 62
     7
370
    25
100
AcDbLine
 10
46.7517500673
 20
87.0817036511
 30
0.0
 11
46.6074125
 21
86.8317036511
 31
0.0
  0
LINE
  5
185
330
1F
100
AcDbEntity
  8
0
  6
Continuous
 62
     7
370
    25
100
AcDbLine
 10
46.6074125
 20
70.3317036511
 30
0.0
 11
46.7517500673
 21
70.0817036511
 31
0.0
  0
LINE
  5
186
330
1F
100
AcDbEntity
  8
0
  6
Continuous
 62
     7
370
    25
100
AcDbLine
 10
56.6074125
 20
73.5292661511
 30
0.0
 11
65.2524644406
 21
73.7994240242
 31
0.0
  0
LINE
  5
187
330
1F
100
AcDbEntity
  8
0
  6
Continuous
 62
     7
370
    25
100
AcDbLine
 10
65.2524644406
 20
83.363983278
 30
0.0
 11
56.6074125
 21
83.6341411511
 31
0.0
  0
LINE
  5
188
330
1F
100
AcDbEntity
  8
0
  6
Continuous
 62
     7
370
    25
100
AcDbLine
 10
65.2524644406
 20
73.7994240242
 30
0.0
 11
66.6074125
 21
74.5817036511
 31
0.0
  0
LINE
  5
189
330
1F
100
AcDbEntity
  8
0
  6
Continuous
 62
     7
370
    25
100
AcDbLine
 10
66.6074125
 20
82.5817036511
 30
0.0
 11
65.2524644406
 21
83.363983278
 31
0.0
  0
LINE
  5
18A
330
1F
100
AcDbEntity
  8
0
  6
Continuous
 62
     7
370
    25
100
AcDbLine
 10
27.1074125
 20
68.5817036511
 30
0.0
 11
28.7254464887
 21
68.5817036511
 31
0.0
  0
LINE
  5
18B
330
1F
100
AcDbEntity
  8
0
  6
Continuous
 62
     7
370
    25
100
AcDbLine
 10
28.7254464887
 20
88.5817036511
 30
0.0
 11
27.1074125
 21
88.5817036511
 31
0.0
  0
ARC
  5
18C
330
1F
100
AcDbEntity
  8
0
  6
Continuous
 62
     7
370
    25
100
AcDbCircle
 10
45.6074125
 20
87.5817036511
 30
0.0
 40
1.500000000000007
100
AcDbArc
 50
138.1896851042
 51
180.0
  0
ARC
  5
18D
330
1F
100
AcDbEntity
  8
0
  6
Continuous
 62
     7
370
    25
100
AcDbCircle
 10
45.6074125
 20
69.5817036511
 30
0.0
 40
1.500000000000007
100
AcDbArc
 50
180.0
 51
221.8103148958
  0
LINE
  5
18E
330
1F
100
AcDbEntity
  8
0
  6
Continuous
 62
     7
370
    25
100
AcDbLine
 10
27.1074125
 20
88.5817036511
 30
0.0
 11
26.6074125
 21
88.0817036511
 31
0.0
  0
LINE
  5
18F
330
1F
100
AcDbEntity
  8
0
  6
Continuous
 62
     7
370
    25
100
AcDbLine
 10
26.6074125
 20
69.0817036511
 30
0.0
 11
27.1074125
 21
68.5817036511
 31
0.0
  0
LINE
  5
190
330
1F
100
AcDbEntity
  8
0
  6
Continuous
 62
     7
370
    25
100
AcDbLine
 10
46.3574125
 20
88.5817036511
 30
0.0
 11
44.4893785113
 21
88.5817036511
 31
0.0
  0
LINE
  5
191
330
1F
100
AcDbEntity
  8
0
  6
Continuous
 62
     7
370
    25
100
AcDbLine
 10
44.4893785113
 20
68.5817036511
 30
0.0
 11
46.3574125
 21
68.5817036511
 31
0.0
  0
LINE
  5
192
330
1F
100
AcDbEntity
  8
0
  6
Continuous
 62
     7
370
    25
100
AcDbLine
 10
46.3574125
 20
68.5817036511
 30
0.0
 11
46.6074125
 21
68.8317036511
 31
0.0
  0
LINE
  5
193
330
1F
100
AcDbEntity
  8
0
  6
Continuous
 62
     7
370
    25
100
AcDbLine
 10
46.6074125
 20
88.3317036511
 30
0.0
 11
46.3574125
 21
88.5817036511
 31
0.0
  0
ARC
  5
194
330
1F
100
AcDbEntity
  8
0
  6
Continuous
 62
     7
370
    25
100
AcDbCircle
 10
27.6074125
 20
69.5817036511
 30
0.0
 40
1.5
100
AcDbArc
 50
318.1896851042
 51
0.0
  0
ARC
  5
195
330
1F
100
AcDbEntity
  8
0
  6
Continuous
 62
     7
370
    25
100
AcDbCircle
 10
27.6074125
 20
87.5817036511
 30
0.0
 40
1.5
100
AcDbArc
 50
0.0
 51
41.8103148958
  0
LINE
  5
196
330
1F
100
AcDbEntity
  8
0
  6
Continuous
 62
     7
370
    25
100
AcDbLine
 10
26.6074125
 20
83.6341411511
 30
0.0
 11
17.9623605594
 21
83.363983278
 31
0.0
  0
LINE
  5
197
330
1F
100
AcDbEntity
  8
0
  6
Continuous
 62
     7
370
    25
100
AcDbLine
 10
17.9623605594
 20
73.7994240242
 30
0.0
 11
26.6074125
 21
73.5292661511
 31
0.0
  0
LINE
  5
198
330
1F
100
AcDbEntity
  8
0
  6
Continuous
 62
     7
370
    25
100
AcDbLine
 10
17.9623605594
 20
83.363983278
 30
0.0
 11
16.6074125
 21
82.5817036511
 31
0.0
  0
LINE
  5
199
330
1F
100
AcDbEntity
  8
0
  6
Continuous
 62
     7
370
    25
100
AcDbLine
 10
16.6074125
 20
74.5817036511
 30
0.0
 11
17.9623605594
 21
73.7994240242
 31
0.0
  0
ARC
  5
19A
330
1F
100
AcDbEntity
  8
0
  6
Continuous
 62
     7
370
    25
100
AcDbCircle
 10
43.6153542364
 20
87.5816546223
 30
0.0
 40
0.4999499729556424
100
AcDbArc
 50
268.2582726631
 51
354.6234834793
  0
ARC
  5
19B
330
1F
100
AcDbEntity
  8
0
  6
Continuous
 62
     7
370
    25
100
AcDbCircle
 10
43.6075243932
 20
87.5817035805
 30
0.0
 40
0.4999999293578083
100
AcDbArc
 50
269.9991681241
 51
358.1337188994
  0
ARC
  5
19C
330
1F
100
AcDbEntity
  8
0
  6
Continuous
 62
     7
370
    25
100
AcDbCircle
 10
29.5994707376
 20
87.5816545709
 30
0.0
 40
0.4999499223316964
100
AcDbArc
 50
185.4070207077
 51
271.7417304983
  0
ARC
  5
19D
330
1F
100
AcDbEntity
  8
0
  6
Continuous
 62
     7
370
    25
100
AcDbCircle
 10
29.6073006069
 20
87.5817035806
 30
0.0
 40
0.4999999295239142
100
AcDbArc
 50
181.8055459077
 51
270.0008318653
  0
ARC
  5
19E
330
1F
100
AcDbEntity
  8
0
  6
Continuous
 62
     7
370
    25
100
AcDbCircle
 10
29.5994707636
 20
69.5817526799
 30
0.0
 40
0.4999499729556163
100
AcDbArc
 50
88.2582726631
 51
174.6234834793
  0
ARC
  5
19F
330
1F
100
AcDbEntity
  8
0
  6
Continuous
 62
     7
370
    25
100
AcDbCircle
 10
29.6073006068
 20
69.5817037217
 30
0.0
 40
0.4999999293578333
100
AcDbArc
 50
89.9991681241
 51
178.1337188994
  0
ARC
  5
1A0
330
1F
100
AcDbEntity
  8
0
  6
Continuous
 62
     7
370
    25
100
AcDbCircle
 10
43.6153542624
 20
69.5817527313
 30
0.0
 40
0.4999499223316799
100
AcDbArc
 50
5.4070207077
 51
91.7417304983
  0
ARC
  5
1A1
330
1F
100
AcDbEntity
  8
0
  6
Continuous
 62
     7
370
    25
100
AcDbCircle
 10
43.6075243931
 20
69.5817037216
 30
0.0
 40
0.499999929523971
100
AcDbArc
 50
1.8055459077
 51
90.0008318653
  0
SPLINE
  5
1A2
330
1F
100
AcDbEntity
  8
0
  6
Continuous
 62
     7
370
    25
100
AcDbSpline
210
0.0
220
0.0
230
1.0
 70
     8
 71
     3
 72
    15
 73
    11
 74
     0
 42
0.00000001
 43
0.00000001
 40
0.0
 40
0.0
 40
0.0
 40
0.0
 40
0.0081667445812695
 40
0.3321939991490082
 40
0.4756279600585605
 40
0.68668309732849
 40
0.8457435502264812
 40
0.8967566214763185
 40
0.9909540928118029
 40
1.0
 40
1.0
 40
1.0
 40
1.0
 10
41.7064320135928
 20
79.83170365109594
 30
0.0
 10
41.70691954773569
 20
79.83314111403494
 30
0.0
 10
41.72675069526777
 20
79.89161197198666
 30
0.0
 10
41.75503147527701
 20
79.97603714970614
 30
0.0
 10
41.79286077376585
 20
80.09061622172858
 30
0.0
 10
41.81944467033334
 20
80.1719871089252
 30
0.0
 10
41.83661449408832
 20
80.22500610092685
 30
0.0
 10
41.84443149030478
 20
80.249208032771
 30
0.0
 10
41.84642717674065
 20
80.25539765343719
 30
0.0
 10
41.84649214069145
 20
80.25559904884975
 30
0.0
 10
41.84649783265812
 20
80.25561669457419
 30
0.0
  0
ARC
  5
1A3
330
1F
100
AcDbEntity
  8
0
  6
Continuous
 62
     7
370
    25
100
AcDbCircle
 10
36.6074125
 20
78.5817036511
 30
0.0
 40
5.250000000000009
100
AcDbArc
 50
13.774146998
 51
166.225853002
  0
SPLINE
  5
1A4
330
1F
100
AcDbEntity
  8
0
  6
Continuous
 62
     7
370
    25
100
AcDbSpline
210
0.0
220
0.0
230
1.0
 70
     8
 71
     3
 72
    15
 73
    11
 74
     0
 42
0.00000001
 43
0.00000001
 40
0.0
 40
0.0
 40
0.0
 40
0.0
 40
0.0090459071881971
 40
0.1032433785236873
 40
0.1542564497735245
 40
0.3133169026715109
 40
0.5243720399414425
 40
0.6678060008509904
 40
0.9918332554187292
 40
1.0
 40
1.0
 40
1.0
 40
1.0
 10
31.3683271673419
 20
80.25561669457419
 30
0.0
 10
31.36833285930857
 20
80.25559904884973
 30
0.0
 10
31.36839782325936
 20
80.25539765343719
 30
0.0
 10
31.37039350969524
 20
80.249208032771
 30
0.0
 10
31.3782105059117
 20
80.22500610092685
 30
0.0
 10
31.39538032966668
 20
80.17198710892518
 30
0.0
 10
31.42196422623416
 20
80.09061622172858
 30
0.0
 10
31.459793524723
 20
79.97603714970614
 30
0.0
 10
31.48807430473226
 20
79.89161197198668
 30
0.0
 10
31.50790545226433
 20
79.83314111403494
 30
0.0
 10
31.50839298640722
 20
79.83170365109594
 30
0.0
  0
ARC
  5
1A5
330
1F
100
AcDbEntity
  8
0
  6
Continuous
 62
     7
370
    25
100
AcDbCircle
 10
36.6074125
 20
78.5817036511
 30
0.0
 40
5.5
100
AcDbArc
 50
17.7189318734
 51
162.2810681266
  0
ARC
  5
1A6
330
1F
100
AcDbEntity
  8
0
  6
Continuous
 62
     7
370
    25
100
AcDbCircle
 10
31.1301869249
 20
80.3317036511
 30
0.0
 40
0.2500000000000077
100
AcDbArc
 50
270.0
 51
342.2810681266
  0
SPLINE
  5
1A7
330
1F
100
AcDbEntity
  8
0
  6
Continuous
 62
     7
370
    25
100
AcDbSpline
210
0.0
220
0.0
230
1.0
 70
     8
 71
     3
 72
    15
 73
    11
 74
     0
 42
0.00000001
 43
0.00000001
 40
0.0
 40
0.0
 40
0.0
 40
0.0
 40
0.0080847466189818
 40
0.3310106400647566
 40
0.4750333064304971
 40
0.6874363079215134
 40
0.8468367539418253
 40
0.9000996640391794
 40
0.9910442771984082
 40
1.0
 40
1.0
 40
1.0
 40
1.0
 10
31.50839298640722
 20
79.83170365109594
 30
0.0
 10
31.50711315486308
 20
79.8325195870842
 30
0.0
 10
31.45471350913931
 20
79.86592613727784
 30
0.0
 10
31.37935841768487
 20
79.91473970201272
 30
0.0
 10
31.27743930566708
 20
79.98211017428085
 30
0.0
 10
31.20504836067518
 20
80.03069421462435
 30
0.0
 10
31.15734293241035
 20
80.06314307608288
 30
0.0
 10
31.13580744870304
 20
80.07785411714916
 30
0.0
 10
31.1303784326835
 20
80.08157256806727
 30
0.0
 10
31.13020268052695
 20
80.08169286673278
 30
0.0
 10
31.13018692494834
 20
80.08170365109594
 30
0.0
  0
ARC
  5
1A8
330
1F
100
AcDbEntity
  8
0
  6
Continuous
 62
     7
370
    25
100
AcDbCircle
 10
42.0846380751
 20
80.3317036511
 30
0.0
 40
0.2500000000000009
100
AcDbArc
 50
197.7189318734
 51
270.0
  0
SPLINE
  5
1A9
330
1F
100
AcDbEntity
  8
0
  6
Continuous
 62
     7
370
    25
100
AcDbSpline
210
0.0
220
0.0
230
1.0
 70
     8
 71
     3
 72
    15
 73
    11
 74
     0
 42
0.00000001
 43
0.00000001
 40
0.0
 40
0.0
 40
0.0
 40
0.0
 40
0.0089557228015919
 40
0.0999003359608148
 40
0.153163246058169
 40
0.3125636920784849
 40
0.5249666935695
 40
0.6689893599352452
 40
0.9919152533810159
 40
1.0
 40
1.0
 40
1.0
 40
1.0
 10
42.08463807505166
 20
80.08170365109594
 30
0.0
 10
42.08462231947307
 20
80.0816928667328
 30
0.0
 10
42.0844465673165
 20
80.08157256806727
 30
0.0
 10
42.07901755129698
 20
80.07785411714916
 30
0.0
 10
42.05748206758966
 20
80.0631430760829
 30
0.0
 10
42.00977663932484
 20
80.03069421462435
 30
0.0
 10
41.93738569433294
 20
79.98211017428086
 30
0.0
 10
41.83546658231515
 20
79.91473970201271
 30
0.0
 10
41.76011149086071
 20
79.86592613727792
 30
0.0
 10
41.70771184513693
 20
79.8325195870842
 30
0.0
 10
41.7064320135928
 20
79.83170365109594
 30
0.0
  0
SPLINE
  5
1AA
330
1F
100
AcDbEntity
  8
0
  6
Continuous
 62
     7
370
    25
100
AcDbSpline
210
0.0
220
0.0
230
1.0
 70
     8
 71
     3
 72
    15
 73
    11
 74
     0
 42
0.00000001
 43
0.00000001
 40
0.0
 40
0.0
 40
0.0
 40
0.0
 40
0.0089557228015919
 40
0.0999003359608209
 40
0.1531632460581751
 40
0.3125636920784905
 40
0.5249666935695062
 40
0.6689893599351778
 40
0.991915253381045
 40
1.0
 40
1.0
 40
1.0
 40
1.0
 10
31.13018692494834
 20
77.08170365109594
 30
0.0
 10
31.13020268052695
 20
77.08171443545908
 30
0.0
 10
31.13037843268352
 20
77.0818347341246
 30
0.0
 10
31.13580744870303
 20
77.0855531850427
 30
0.0
 10
31.15734293241036
 20
77.10026422610898
 30
0.0
 10
31.20504836067517
 20
77.13271308756752
 30
0.0
 10
31.27743930566709
 20
77.18129712791095
 30
0.0
 10
31.37935841768476
 20
77.2486676001793
 30
0.0
 10
31.45471350913981
 20
77.29748116491321
 30
0.0
 10
31.5071131548631
 20
77.33088771510764
 30
0.0
 10
31.50839298640722
 20
77.33170365109594
 30
0.0
  0
SPLINE
  5
1AB
330
1F
100
AcDbEntity
  8
0
  6
Continuous
 62
     7
370
    25
100
AcDbSpline
210
0.0
220
0.0
230
1.0
 70
     8
 71
     3
 72
    15
 73
    11
 74
     0
 42
0.00000001
 43
0.00000001
 40
0.0
 40
0.0
 40
0.0
 40
0.0
 40
0.0081667445812973
 40
0.3321939991490802
 40
0.4756279600585562
 40
0.6866830973284892
 40
0.8457435502264752
 40
0.8967566214763124
 40
0.9909540928118028
 40
1.0
 40
1.0
 40
1.0
 40
1.0
 10
31.50839298640722
 20
77.33170365109594
 30
0.0
 10
31.50790545226435
 20
77.33026618815691
 30
0.0
 10
31.48807430473309
 20
77.27179533020491
 30
0.0
 10
31.45979352472283
 20
77.18737015248576
 30
0.0
 10
31.42196422623421
 20
77.07279108046325
 30
0.0
 10
31.39538032966667
 20
76.99142019326669
 30
0.0
 10
31.37821050591171
 20
76.93840120126502
 30
0.0
 10
31.37039350969524
 20
76.91419926942088
 30
0.0
 10
31.36839782325936
 20
76.90800964875469
 30
0.0
 10
31.36833285930857
 20
76.90780825334214
 30
0.0
 10
31.36832716734189
 20
76.90779060761767
 30
0.0
  0
ARC
  5
1AC
330
1F
100
AcDbEntity
  8
0
  6
Continuous
 62
     7
370
    25
100
AcDbCircle
 10
31.1301869249
 20
76.8317036511
 30
0.0
 40
0.2500000000000142
100
AcDbArc
 50
17.7189318734
 51
90.0
  0
SPLINE
  5
1AD
330
1F
100
AcDbEntity
  8
0
  6
Continuous
 62
     7
370
    25
100
AcDbSpline
210
0.0
220
0.0
230
1.0
 70
     8
 71
     3
 72
    15
 73
    11
 74
     0
 42
0.00000001
 43
0.00000001
 40
0.0
 40
0.0
 40
0.0
 40
0.0
 40
0.0090459071881971
 40
0.1032433785236817
 40
0.154256449773519
 40
0.3133169026715102
 40
0.5243720399414401
 40
0.667806000850918
 40
0.9918332554187028
 40
1.0
 40
1.0
 40
1.0
 40
1.0
 10
41.84649783265812
 20
76.90779060761767
 30
0.0
 10
41.84649214069145
 20
76.90780825334214
 30
0.0
 10
41.84642717674066
 20
76.90800964875469
 30
0.0
 10
41.84443149030477
 20
76.91419926942088
 30
0.0
 10
41.83661449408832
 20
76.93840120126502
 30
0.0
 10
41.81944467033335
 20
76.99142019326669
 30
0.0
 10
41.79286077376582
 20
77.07279108046326
 30
0.0
 10
41.75503147527718
 20
77.18737015248576
 30
0.0
 10
41.72675069526696
 20
77.27179533020491
 30
0.0
 10
41.70691954773567
 20
77.33026618815691
 30
0.0
 10
41.7064320135928
 20
77.33170365109594
 30
0.0
  0
ARC
  5
1AE
330
1F
100
AcDbEntity
  8
0
  6
Continuous
 62
     7
370
    25
100
AcDbCircle
 10
36.6074125
 20
78.5817036511
 30
0.0
 40
5.500000000000004
100
AcDbArc
 50
197.7189318734
 51
342.2810681266
  0
ARC
  5
1AF
330
1F
100
AcDbEntity
  8
0
  6
Continuous
 62
     7
370
    25
100
AcDbCircle
 10
36.6074125
 20
78.5817036511
 30
0.0
 40
5.250000000000009
100
AcDbArc
 50
193.774146998
 51
346.225853002
  0
SPLINE
  5
1B0
330
1F
100
AcDbEntity
  8
0
  6
Continuous
 62
     7
370
    25
100
AcDbSpline
210
0.0
220
0.0
230
1.0
 70
     8
 71
     3
 72
    15
 73
    11
 74
     0
 42
0.00000001
 43
0.00000001
 40
0.0
 40
0.0
 40
0.0
 40
0.0
 40
0.0080847466189582
 40
0.3310106400648242
 40
0.4750333064304946
 40
0.687436307921514
 40
0.8468367539418302
 40
0.9000996640391846
 40
0.991044277198408
 40
1.0
 40
1.0
 40
1.0
 40
1.0
 10
41.7064320135928
 20
77.33170365109594
 30
0.0
 10
41.70771184513691
 20
77.33088771510764
 30
0.0
 10
41.76011149086016
 20
77.29748116491311
 30
0.0
 10
41.83546658231527
 20
77.24866760017932
 30
0.0
 10
41.93738569433292
 20
77.18129712791095
 30
0.0
 10
42.00977663932484
 20
77.13271308756754
 30
0.0
 10
42.05748206758966
 20
77.10026422610898
 30
0.0
 10
42.07901755129698
 20
77.08555318504271
 30
0.0
 10
42.0844465673165
 20
77.0818347341246
 30
0.0
 10
42.08462231947306
 20
77.08171443545908
 30
0.0
 10
42.08463807505166
 20
77.08170365109594
 30
0.0
  0
ARC
  5
1B1
330
1F
100
AcDbEntity
  8
0
  6
Continuous
 62
     7
370
    25
100
AcDbCircle
 10
42.0846380751
 20
76.8317036511
 30
0.0
 40
0.2500000000000142
100
AcDbArc
 50
90.0
 51
162.2810681266
  0
LINE
  5
1B2
330
1F
100
AcDbEntity
  8
0
  6
Continuous
 62
     7
370
    25
100
AcDbLine
 10
41.6074125
 20
79.1817036511
 30
0.0
 11
31.6074125
 21
79.1817036511
 31
0.0
  0
LINE
  5
1B3
330
1F
100
AcDbEntity
  8
0
  6
Continuous
 62
     7
370
    25
100
AcDbLine
 10
41.6074125
 20
77.9817036511
 30
0.0
 11
41.6074125
 21
79.1817036511
 31
0.0
  0
LINE
  5
1B4
330
1F
100
AcDbEntity
  8
0
  6
Continuous
 62
     7
370
    25
100
AcDbLine
 10
31.6074125
 20
77.9817036511
 30
0.0
 11
41.6074125
 21
77.9817036511
 31
0.0
  0
LINE
  5
1B5
330
1F
100
AcDbEntity
  8
0
  6
Continuous
 62
     7
370
    25
100
AcDbLine
 10
31.6074125
 20
79.1817036511
 30
0.0
 11
31.6074125
 21
77.9817036511
 31
0.0
  0
LINE
  5
1B6
330
1F
100
AcDbEntity
  8
0
  6
Continuous
 62
     7
370
    25
100
AcDbLine
 10
42.3574125
 20
79.8317036511
 30
0.0
 11
41.7064320136
 21
79.8317036511
 31
0.0
  0
LINE
  5
1B7
330
1F
100
AcDbEntity
  8
0
  6
Continuous
 62
     7
370
    25
100
AcDbLine
 10
42.3574125
 20
77.3317036511
 30
0.0
 11
42.3574125
 21
79.8317036511
 31
0.0
  0
LINE
  5
1B8
330
1F
100
AcDbEntity
  8
0
  6
Continuous
 62
     7
370
    25
100
AcDbLine
 10
41.7064320136
 20
77.3317036511
 30
0.0
 11
42.3574125
 21
77.3317036511
 31
0.0
  0
LINE
  5
1B9
330
1F
100
AcDbEntity
  8
0
  6
Continuous
 62
     7
370
    25
100
AcDbLine
 10
30.8574125
 20
77.3317036511
 30
0.0
 11
31.5083929864
 21
77.3317036511
 31
0.0
  0
LINE
  5
1BA
330
1F
100
AcDbEntity
  8
0
  6
Continuous
 62
     7
370
    25
100
AcDbLine
 10
30.8574125
 20
79.8317036511
 30
0.0
 11
30.8574125
 21
77.3317036511
 31
0.0
  0
LINE
  5
1BB
330
1F
100
AcDbEntity
  8
0
  6
Continuous
 62
     7
370
    25
100
AcDbLine
 10
31.5083929864
 20
79.8317036511
 30
0.0
 11
30.8574125
 21
79.8317036511
 31
0.0
  0
LINE
  5
1BC
330
1F
100
AcDbEntity
  8
0
  6
Continuous
 62
     7
370
    25
100
AcDbLine
 10
42.3574125
 20
79.8317036511
 30
0.0
 11
42.3574125
 21
80.0817036511
 31
0.0
  0
LINE
  5
1BD
330
1F
100
AcDbEntity
  8
0
  6
Continuous
 62
     7
370
    25
100
AcDbLine
 10
42.0846380751
 20
80.0817036511
 30
0.0
 11
42.3574125
 21
80.0817036511
 31
0.0
  0
LINE
  5
1BE
330
1F
100
AcDbEntity
  8
0
  6
Continuous
 62
     7
370
    25
100
AcDbLine
 10
30.8574125
 20
80.0817036511
 30
0.0
 11
30.8574125
 21
79.8317036511
 31
0.0
  0
LINE
  5
1BF
330
1F
100
AcDbEntity
  8
0
  6
Continuous
 62
     7
370
    25
100
AcDbLine
 10
30.8574125
 20
79.8317036511
 30
0.0
 11
30.6074125
 21
79.8317036511
 31
0.0
  0
ARC
  5
1C0
330
1F
100
AcDbEntity
  8
0
  6
Continuous
 62
     7
370
    25
100
AcDbCircle
 10
30.8574125
 20
79.8317036511
 30
0.0
 40
0.25
100
AcDbArc
 50
90.0
 51
180.0
  0
ARC
  5
1C1
330
1F
100
AcDbEntity
  8
0
  6
Continuous
 62
     7
370
    25
100
AcDbCircle
 10
42.3574125
 20
79.8317036511
 30
0.0
 40
0.25
100
AcDbArc
 50
0.0
 51
90.0
  0
LINE
  5
1C2
330
1F
100
AcDbEntity
  8
0
  6
Continuous
 62
     7
370
    25
100
AcDbLine
 10
42.6074125
 20
79.8317036511
 30
0.0
 11
42.3574125
 21
79.8317036511
 31
0.0
  0
LINE
  5
1C3
330
1F
100
AcDbEntity
  8
0
  6
Continuous
 62
     7
370
    25
100
AcDbLine
 10
30.8574125
 20
80.0817036511
 30
0.0
 11
31.1301869249
 21
80.0817036511
 31
0.0
  0
LINE
  5
1C4
330
1F
100
AcDbEntity
  8
0
  6
Continuous
 62
     7
370
    25
100
AcDbLine
 10
30.6074125
 20
77.3317036511
 30
0.0
 11
30.8574125
 21
77.3317036511
 31
0.0
  0
LINE
  5
1C5
330
1F
100
AcDbEntity
  8
0
  6
Continuous
 62
     7
370
    25
100
AcDbLine
 10
30.6074125
 20
77.3317036511
 30
0.0
 11
30.6074125
 21
79.8317036511
 31
0.0
  0
LINE
  5
1C6
330
1F
100
AcDbEntity
  8
0
  6
Continuous
 62
     7
370
    25
100
AcDbLine
 10
42.6074125
 20
79.8317036511
 30
0.0
 11
42.6074125
 21
77.3317036511
 31
0.0
  0
LINE
  5
1C7
330
1F
100
AcDbEntity
  8
0
  6
Continuous
 62
     7
370
    25
100
AcDbLine
 10
42.3574125
 20
77.3317036511
 30
0.0
 11
42.6074125
 21
77.3317036511
 31
0.0
  0
LINE
  5
1C8
330
1F
100
AcDbEntity
  8
0
  6
Continuous
 62
     7
370
    25
100
AcDbLine
 10
30.8574125
 20
77.3317036511
 30
0.0
 11
30.8574125
 21
77.0817036511
 31
0.0
  0
ARC
  5
1C9
330
1F
100
AcDbEntity
  8
0
  6
Continuous
 62
     7
370
    25
100
AcDbCircle
 10
30.8574125
 20
77.3317036511
 30
0.0
 40
0.25
100
AcDbArc
 50
180.0
 51
270.0
  0
LINE
  5
1CA
330
1F
100
AcDbEntity
  8
0
  6
Continuous
 62
     7
370
    25
100
AcDbLine
 10
42.3574125
 20
77.0817036511
 30
0.0
 11
42.3574125
 21
77.3317036511
 31
0.0
  0
LINE
  5
1CB
330
1F
100
AcDbEntity
  8
0
  6
Continuous
 62
     7
370
    25
100
AcDbLine
 10
42.3574125
 20
77.0817036511
 30
0.0
 11
42.0846380751
 21
77.0817036511
 31
0.0
  0
LINE
  5
1CC
330
1F
100
AcDbEntity
  8
0
  6
Continuous
 62
     7
370
    25
100
AcDbLine
 10
31.1301869249
 20
77.0817036511
 30
0.0
 11
30.8574125
 21
77.0817036511
 31
0.0
  0
ARC
  5
1CD
330
1F
100
AcDbEntity
  8
0
  6
Continuous
 62
     7
370
    25
100
AcDbCircle
 10
42.3574125
 20
77.3317036511
 30
0.0
 40
0.25
100
AcDbArc
 50
270.0
 51
0.0
  0
LINE
  5
1CE
330
1F
100
AcDbEntity
  8
0
  6
Continuous
 62
     7
370
    25
100
AcDbLine
 10
56.6074125
 20
75.310004387
 30
0.0
 11
58.7828493615
 21
75.0817036511
 31
0.0
  0
LINE
  5
1CF
330
1F
100
AcDbEntity
  8
0
  6
Continuous
 62
     7
370
    25
100
AcDbLine
 10
56.6074125
 20
81.8534029152
 30
0.0
 11
56.6074125
 21
75.310004387
 31
0.0
  0
LINE
  5
1D0
330
1F
100
AcDbEntity
  8
0
  6
Continuous
 62
     7
370
    25
100
AcDbLine
 10
58.7828493615
 20
82.0817036511
 30
0.0
 11
56.6074125
 21
81.8534029152
 31
0.0
  0
LINE
  5
1D1
330
1F
100
AcDbEntity
  8
0
  6
Continuous
 62
     7
370
    25
100
AcDbLine
 10
76.6074125
 20
82.0817036511
 30
0.0
 11
58.7828493615
 21
82.0817036511
 31
0.0
  0
LINE
  5
1D2
330
1F
100
AcDbEntity
  8
0
  6
Continuous
 62
     7
370
    25
100
AcDbLine
 10
76.6074125
 20
75.0817036511
 30
0.0
 11
76.6074125
 21
82.0817036511
 31
0.0
  0
LINE
  5
1D3
330
1F
100
AcDbEntity
  8
0
  6
Continuous
 62
     7
370
    25
100
AcDbLine
 10
58.7828493615
 20
75.0817036511
 30
0.0
 11
76.6074125
 21
75.0817036511
 31
0.0
  0
LINE
  5
1D4
330
1F
100
AcDbEntity
  8
0
  6
Continuous
 62
     7
370
    25
100
AcDbLine
 10
41.8312146744
 20
76.8606891703
 30
0.0
 11
41.9277789917
 21
77.0200884905
 31
0.0
  0
LINE
  5
1D5
330
1F
100
AcDbEntity
  8
0
  6
Continuous
 62
     7
370
    25
100
AcDbLine
 10
41.9500563723
 20
80.1269213185
 30
0.0
 11
41.8312146744
 21
80.3027181319
 31
0.0
  0
LINE
  5
1D6
330
1F
100
AcDbEntity
  8
0
  6
Continuous
 62
     7
370
    25
100
AcDbLine
 10
50.0239821536
 20
76.0009010155
 30
0.0
 11
50.0239821536
 21
81.1625062867
 31
0.0
  0
LINE
  5
1D7
330
1F
100
AcDbEntity
  8
0
  6
Continuous
 62
     7
370
    25
100
AcDbLine
 10
50.0239821536
 20
76.0009010155
 30
0.0
 11
41.8312146744
 21
76.8606891703
 31
0.0
  0
LINE
  5
1D8
330
1F
100
AcDbEntity
  8
0
  6
Continuous
 62
     7
370
    25
100
AcDbLine
 10
41.8312146744
 20
80.3027181319
 30
0.0
 11
50.0239821536
 21
81.1625062867
 31
0.0
  0
LINE
  5
1D9
330
1F
100
AcDbEntity
  8
0
  6
Continuous
 62
     7
370
    25
100
AcDbLine
 10
56.6074125
 20
75.310004387
 30
0.0
 11
50.0239821536
 21
76.0009010155
 31
0.0
  0
LINE
  5
1DA
330
1F
100
AcDbEntity
  8
0
  6
Continuous
 62
     7
370
    25
100
AcDbLine
 10
50.0239821536
 20
81.1625062867
 30
0.0
 11
56.6074125
 21
81.8534029152
 31
0.0
  0
ARC
  5
1DB
330
1F
100
AcDbEntity
  8
0
  6
Continuous
 62
     7
370
    25
100
AcDbCircle
 10
36.6074125
 20
78.5817036511
 30
0.0
 40
7.450000000000653
100
AcDbArc
 50
53.0863788866
 51
306.9136211134
  0
ARC
  5
1DC
330
1F
100
AcDbEntity
  8
0
  6
Continuous
 62
     7
370
    25
100
AcDbCircle
 10
36.6074125
 20
78.5817036511
 30
0.0
 40
7.207531252870791
100
AcDbArc
 50
15.3041237151
 51
58.9797515565
  0
ARC
  5
1DD
330
1F
100
AcDbEntity
  8
0
  6
Continuous
 62
     7
370
    25
100
AcDbCircle
 10
36.6074125
 20
78.5817036511
 30
0.0
 40
7.207531252872437
100
AcDbArc
 50
301.0202484435
 51
344.6958762849
  0
ARC
  5
1DE
330
1F
100
AcDbEntity
  8
0
  6
Continuous
 62
     7
370
    25
100
AcDbCircle
 10
58.7828493615
 20
147.0817036511
 30
0.0
 40
65.0
100
AcDbArc
 50
253.4999050078
 51
270.0
  0
ARC
  5
1DF
330
1F
100
AcDbEntity
  8
0
  6
Continuous
 62
     7
370
    25
100
AcDbCircle
 10
58.7828493615
 20
10.0817036511
 30
0.0
 40
65.0
100
AcDbArc
 50
90.0
 51
106.5000949923
  0
LINE
  5
1E0
330
1F
100
AcDbEntity
  8
0
  6
Continuous
 62
     7
370
    25
100
AcDbLine
 10
55.7038855541
 20
87.0817036511
 30
0.0
 11
47.5109394459
 21
87.0817036511
 31
0.0
  0
SPLINE
  5
1E1
330
1F
100
AcDbEntity
  8
0
  6
Continuous
 62
     7
370
    25
100
AcDbSpline
210
0.0
220
0.0
230
1.0
 70
     8
 71
     3
 72
    12
 73
     8
 74
     0
 42
0.00000001
 43
0.00000001
 40
0.0
 40
0.0
 40
0.0
 40
0.0
 40
0.2292122187775419
 40
0.4583596311137701
 40
0.692633160987569
 40
0.9268644153606201
 40
1.0
 40
1.0
 40
1.0
 40
1.0
 10
55.70388555414777
 20
87.08170365109588
 30
0.0
 10
55.81936014254432
 20
86.71447468852048
 30
0.0
 10
56.05027667056689
 20
85.98012059205007
 30
0.0
 10
56.30038020544258
 20
84.84919198988202
 30
0.0
 10
56.44430092301367
 20
83.69730464139226
 30
0.0
 10
56.48448833602103
 20
82.79618671175604
 30
0.0
 10
56.44271967551227
 20
82.28708391453412
 30
0.0
 10
56.43278114272935
 20
82.16594680411585
 30
0.0
  0
SPLINE
  5
1E2
330
1F
100
AcDbEntity
  8
0
  6
Continuous
 62
     7
370
    25
100
AcDbSpline
210
0.0
220
0.0
230
1.0
 70
     8
 71
     3
 72
    10
 73
     6
 74
     0
 42
0.00000001
 43
0.00000001
 40
0.0
 40
0.0
 40
0.0
 40
0.0
 40
0.2266139283365145
 40
0.4813951311841518
 40
1.0
 40
1.0
 40
1.0
 40
1.0
 10
46.7637658060271
 20
83.24345137399203
 30
0.0
 10
46.78015074522961
 20
83.53791614107176
 30
0.0
 10
46.81495721107544
 20
84.16344655845612
 30
0.0
 10
47.02172660258931
 20
85.45397017202612
 30
0.0
 10
47.31456952215196
 20
86.42833180386997
 30
0.0
 10
47.51093944585227
 20
87.08170365109588
 30
0.0
  0
SPLINE
  5
1E3
330
1F
100
AcDbEntity
  8
0
  6
Continuous
 62
     7
370
    25
100
AcDbSpline
210
0.0
220
0.0
230
1.0
 70
    24
 71
     3
 72
    10
 73
     6
 74
     0
 42
0.00000001
 43
0.00000001
 40
0.0
 40
0.0
 40
0.0
 40
0.0
 40
0.2524428734627101
 40
0.6242458444785
 40
0.9999999999999999
 40
0.9999999999999999
 40
0.9999999999999999
 40
0.9999999999999999
 10
56.46162642884004
 20
87.08170365109594
 30
0.0
 10
56.45126044468761
 20
87.08170365109594
 30
0.0
 10
56.42562722936913
 20
87.08170365109592
 30
0.0
 10
56.18147605738449
 20
87.0817036510959
 30
0.0
 10
55.86364235450669
 20
87.08170365109589
 30
0.0
 10
55.70388555414777
 20
87.08170365109588
 30
0.0
  0
SPLINE
  5
1E4
330
1F
100
AcDbEntity
  8
0
  6
Continuous
 62
     7
370
    25
100
AcDbSpline
210
0.0
220
0.0
230
1.0
 70
    24
 71
     3
 72
    11
 73
     7
 74
     0
 42
0.00000001
 43
0.00000001
 40
0.0
 40
0.0
 40
0.0
 40
0.0
 40
0.3721810190356756
 40
0.7476894440934168
 40
0.9982353928720888
 40
1.0
 40
1.0
 40
1.0
 40
1.0
 10
55.70388555414777
 20
70.08170365109592
 30
0.0
 10
55.86410982273662
 20
70.0817036510959
 30
0.0
 10
56.18599081124562
 20
70.0817036510959
 30
0.0
 10
56.40499601677961
 20
70.081703651096
 30
0.0
 10
56.47969357928946
 20
70.08170365109581
 30
0.0
 10
56.46237181238207
 20
70.08170365109594
 30
0.0
 10
56.46225066757606
 20
70.08170365109594
 30
0.0
  0
SPLINE
  5
1E5
330
1F
100
AcDbEntity
  8
0
  6
Continuous
 62
     7
370
    25
100
AcDbSpline
210
0.0
220
0.0
230
1.0
 70
     8
 71
     3
 72
    11
 73
     7
 74
     0
 42
0.00000001
 43
0.00000001
 40
0.0
 40
0.0
 40
0.0
 40
0.0
 40
0.1944493496879246
 40
0.3940424408402624
 40
0.5936666666363958
 40
1.0
 40
1.0
 40
1.0
 40
1.0
 10
56.43395185877691
 20
74.9975306868781
 30
0.0
 10
56.44914030725923
 20
74.67480220212798
 30
0.0
 10
56.4799189821283
 20
74.02080814113623
 30
0.0
 10
56.39898619099723
 20
73.03636766797587
 30
0.0
 10
56.19689435066982
 20
71.70937610412994
 30
0.0
 10
55.90177917262044
 20
70.73505100248502
 30
0.0
 10
55.70388555414777
 20
70.08170365109592
 30
0.0
  0
LINE
  5
1E6
330
1F
100
AcDbEntity
  8
0
  6
Continuous
 62
     7
370
    25
100
AcDbLine
 10
56.6074125
 20
86.8317036511
 30
0.0
 11
56.6074125
 21
82.1181178937
 31
0.0
  0
LINE
  5
1E7
330
1F
100
AcDbEntity
  8
0
  6
Continuous
 62
     7
370
    25
100
AcDbLine
 10
56.6074125
 20
75.0452894085
 30
0.0
 11
56.6074125
 21
70.3317036511
 31
0.0
  0
SPLINE
  5
1E8
330
1F
100
AcDbEntity
  8
0
  6
Continuous
 62
     7
370
    25
100
AcDbSpline
210
0.0
220
0.0
230
1.0
 70
     8
 71
     3
 72
    11
 73
     7
 74
     0
 42
0.00000001
 43
0.00000001
 40
0.0
 40
0.0
 40
0.0
 40
0.0
 40
0.2924563651336922
 40
0.5848300424579609
 40
0.8837442336792702
 40
1.0
 40
1.0
 40
1.0
 40
1.0
 10
47.51093944585227
 20
70.08170365109592
 30
0.0
 10
47.3949815863176
 20
70.44892841076259
 30
0.0
 10
47.16309865265672
 20
71.18327410260379
 30
0.0
 10
46.92029561933841
 20
72.3142661957181
 30
0.0
 10
46.78337337152048
 20
73.22966012295437
 30
0.0
 10
46.776268544323
 20
73.77001472779247
 30
0.0
 10
46.77427905275354
 20
73.92132466130093
 30
0.0
  0
SPLINE
  5
1E9
330
1F
100
AcDbEntity
  8
0
  6
Continuous
 62
     7
370
    25
100
AcDbSpline
210
0.0
220
0.0
230
1.0
 70
    24
 71
     3
 72
    10
 73
     6
 74
     0
 42
0.00000001
 43
0.00000001
 40
0.0
 40
0.0
 40
0.0
 40
0.0
 40
0.2524428734626838
 40
0.6242458444784866
 40
1.0
 40
1.0
 40
1.0
 40
1.0
 10
46.75319857116
 20
70.08170365109594
 30
0.0
 10
46.76356455531243
 20
70.08170365109594
 30
0.0
 10
46.78919777063091
 20
70.08170365109592
 30
0.0
 10
47.03334894261555
 20
70.08170365109592
 30
0.0
 10
47.35118264549335
 20
70.08170365109592
 30
0.0
 10
47.51093944585227
 20
70.08170365109592
 30
0.0
  0
SPLINE
  5
1EA
330
1F
100
AcDbEntity
  8
0
  6
Continuous
 62
     7
370
    25
100
AcDbSpline
210
0.0
220
0.0
230
1.0
 70
    24
 71
     3
 72
    11
 73
     7
 74
     0
 42
0.00000001
 43
0.00000001
 40
0.0
 40
0.0
 40
0.0
 40
0.0
 40
0.3721810190356623
 40
0.7476894440933902
 40
0.9982353928720534
 40
1.0
 40
1.0
 40
1.0
 40
1.0
 10
47.51093944585227
 20
87.08170365109588
 30
0.0
 10
47.35071517726345
 20
87.08170365109589
 30
0.0
 10
47.02883418875454
 20
87.08170365109592
 30
0.0
 10
46.80982898321997
 20
87.08170365109585
 30
0.0
 10
46.73513142071122
 20
87.08170365109602
 30
0.0
 10
46.75245318761797
 20
87.08170365109594
 30
0.0
 10
46.75257433242399
 20
87.08170365109594
 30
0.0
  0
LINE
  5
1EB
330
1F
100
AcDbEntity
  8
0
  6
Continuous
 62
     7
370
    25
100
AcDbLine
 10
55.7038855541
 20
70.0817036511
 30
0.0
 11
47.5109394459
 21
70.0817036511
 31
0.0
  0
LINE
  5
1EC
330
1F
100
AcDbEntity
  8
0
  6
Continuous
 62
     7
370
    25
100
AcDbLine
 10
65.2524644406
 20
75.0817036511
 30
0.0
 11
65.2524644406
 21
73.7994240242
 31
0.0
  0
LINE
  5
1ED
330
1F
100
AcDbEntity
  8
0
  6
Continuous
 62
     7
370
    25
100
AcDbLine
 10
65.2524644406
 20
83.363983278
 30
0.0
 11
65.2524644406
 21
82.0817036511
 31
0.0
  0
LINE
  5
1EE
330
1F
100
AcDbEntity
  8
0
  6
Continuous
 62
     7
370
    25
100
AcDbLine
 10
66.6074125
 20
82.5817036511
 30
0.0
 11
66.6074125
 21
82.0817036511
 31
0.0
  0
LINE
  5
1EF
330
1F
100
AcDbEntity
  8
0
  6
Continuous
 62
     7
370
    25
100
AcDbLine
 10
66.6074125
 20
75.0817036511
 30
0.0
 11
66.6074125
 21
74.5817036511
 31
0.0
  0
LINE
  5
1F0
330
1F
100
AcDbEntity
  8
0
  6
Continuous
 62
     7
370
    25
100
AcDbLine
 10
28.7254464887
 20
88.5817036511
 30
0.0
 11
28.7254464887
 21
68.5817036511
 31
0.0
  0
LINE
  5
1F1
330
1F
100
AcDbEntity
  8
0
  6
Continuous
 62
     7
370
    25
100
AcDbLine
 10
27.1074125
 20
88.5817036511
 30
0.0
 11
27.1074125
 21
68.5817036511
 31
0.0
  0
LINE
  5
1F2
330
1F
100
AcDbEntity
  8
0
  6
Continuous
 62
     7
370
    25
100
AcDbLine
 10
44.4893785113
 20
68.5817036511
 30
0.0
 11
44.4893785113
 21
73.4906674579
 31
0.0
  0
LINE
  5
1F3
330
1F
100
AcDbEntity
  8
0
  6
Continuous
 62
     7
370
    25
100
AcDbLine
 10
44.4893785113
 20
83.6727398443
 30
0.0
 11
44.4893785113
 21
88.5817036511
 31
0.0
  0
LINE
  5
1F4
330
1F
100
AcDbEntity
  8
0
  6
Continuous
 62
     7
370
    25
100
AcDbLine
 10
44.1153661352
 20
69.6295911959
 30
0.0
 11
44.1101512538
 21
69.5981932426
 31
0.0
  0
SPLINE
  5
1F5
330
1F
100
AcDbEntity
  8
0
  6
Continuous
 62
     7
370
    25
100
AcDbSpline
210
0.0
220
0.0
230
1.0
 70
     8
 71
     3
 72
    14
 73
    10
 74
     0
 42
0.00000001
 43
0.00000001
 40
0.0
 40
0.0
 40
0.0
 40
0.0
 40
0.25
 40
0.25
 40
0.5
 40
0.5
 40
0.75
 40
0.75
 40
1.0
 40
1.0
 40
1.0
 40
1.0
 10
44.33649856710205
 20
69.81924247134612
 30
0.0
 10
44.36401955484713
 20
69.83094926689168
 30
0.0
 10
44.38393947668354
 20
69.86299121997325
 30
0.0
 10
44.39960651850159
 20
69.96231497063826
 30
0.0
 10
44.39511468668928
 20
70.03013841341901
 30
0.0
 10
44.3638583414057
 20
70.19258003083183
 30
0.0
 10
44.33748575802393
 20
70.28702542756758
 30
0.0
 10
44.27464920687963
 20
70.49525453516411
 30
0.0
 10
44.23860962801954
 20
70.60785292804727
 30
0.0
 10
44.20461362465394
 20
70.72760932164736
 30
0.0
  0
SPLINE
  5
1F6
330
1F
100
AcDbEntity
  8
0
  6
Continuous
 62
     7
370
    25
100
AcDbSpline
210
0.0
220
0.0
230
1.0
 70
     8
 71
     3
 72
     8
 73
     4
 74
     0
 42
0.00000001
 43
0.00000001
 40
0.0
 40
0.0
 40
0.0
 40
0.0
 40
1.0
 40
1.0
 40
1.0
 40
1.0
 10
44.10741250000001
 20
71.45780022670843
 30
0.0
 10
44.10741250000001
 20
71.21037076991342
 30
0.0
 10
44.13677720707787
 20
70.9665740210061
 30
0.0
 10
44.20461362465394
 20
70.72760932164736
 30
0.0
  0
LINE
  5
1F7
330
1F
100
AcDbEntity
  8
0
  6
Continuous
 62
     7
370
    25
100
AcDbLine
 10
44.1074125
 20
71.4578002267
 30
0.0
 11
44.1074125
 21
73.4033551845
 31
0.0
  0
LINE
  5
1F8
330
1F
100
AcDbEntity
  8
0
  6
Continuous
 62
     7
370
    25
100
AcDbLine
 10
44.1074125
 20
83.7600521177
 30
0.0
 11
44.1074125
 21
85.7056070755
 31
0.0
  0
SPLINE
  5
1F9
330
1F
100
AcDbEntity
  8
0
  6
Continuous
 62
     7
370
    25
100
AcDbSpline
210
0.0
220
0.0
230
1.0
 70
     8
 71
     3
 72
     8
 73
     4
 74
     0
 42
0.00000001
 43
0.00000001
 40
0.0
 40
0.0
 40
0.0
 40
0.0
 40
1.0
 40
1.0
 40
1.0
 40
1.0
 10
44.20461362465394
 20
86.43579798054452
 30
0.0
 10
44.13677720707787
 20
86.19683328118579
 30
0.0
 10
44.10741250000001
 20
85.95303653227846
 30
0.0
 10
44.10741250000001
 20
85.70560707548344
 30
0.0
  0
SPLINE
  5
1FA
330
1F
100
AcDbEntity
  8
0
  6
Continuous
 62
     7
370
    25
100
AcDbSpline
210
0.0
220
0.0
230
1.0
 70
     8
 71
     3
 72
    12
 73
     8
 74
     0
 42
0.00000001
 43
0.00000001
 40
0.0
 40
0.0
 40
0.0
 40
0.0
 40
0.4999999999999992
 40
0.4999999999999992
 40
0.7499999999999996
 40
0.7499999999999996
 40
1.0
 40
1.0
 40
1.0
 40
1.0
 10
44.20461362465394
 20
86.43579798054452
 30
0.0
 10
44.27248338466373
 20
86.6748801339926
 30
0.0
 10
44.34851793591747
 20
86.89065024116944
 30
0.0
 10
44.39516253429448
 20
87.13374483387335
 30
0.0
 10
44.39960153081712
 20
87.20141010934947
 30
0.0
 10
44.38387091702428
 20
87.30056322550608
 30
0.0
 10
44.36399048708191
 20
87.33247040005932
 30
0.0
 10
44.33649856710205
 20
87.34416483084574
 30
0.0
  0
LINE
  5
1FB
330
1F
100
AcDbEntity
  8
0
  6
Continuous
 62
     7
370
    25
100
AcDbLine
 10
44.1100954924
 20
87.5653209194
 30
0.0
 11
44.115204105
 21
87.5341270063
 31
0.0
  0
LINE
  5
1FC
330
1F
100
AcDbEntity
  8
0
  6
Continuous
 62
     7
370
    25
100
AcDbLine
 10
26.6074125
 20
69.0817036511
 30
0.0
 11
26.6074125
 21
88.0817036511
 31
0.0
  0
LINE
  5
1FD
330
1F
100
AcDbEntity
  8
0
  6
Continuous
 62
     7
370
    25
100
AcDbLine
 10
46.3574125
 20
68.5817036511
 30
0.0
 11
46.3574125
 21
73.8830243177
 31
0.0
  0
LINE
  5
1FE
330
1F
100
AcDbEntity
  8
0
  6
Continuous
 62
     7
370
    25
100
AcDbLine
 10
46.3574125
 20
83.2803829845
 30
0.0
 11
46.3574125
 21
88.5817036511
 31
0.0
  0
LINE
  5
1FF
330
1F
100
AcDbEntity
  8
0
  6
Continuous
 62
     7
370
    25
100
AcDbLine
 10
46.6074125
 20
88.3317036511
 30
0.0
 11
46.6074125
 21
83.23220297
 31
0.0
  0
LINE
  5
200
330
1F
100
AcDbEntity
  8
0
  6
Continuous
 62
     7
370
    25
100
AcDbLine
 10
46.6074125
 20
73.9312043322
 30
0.0
 11
46.6074125
 21
68.8317036511
 31
0.0
  0
LINE
  5
201
330
1F
100
AcDbEntity
  8
0
  6
Continuous
 62
     7
370
    25
100
AcDbLine
 10
29.0994588648
 20
87.5338161063
 30
0.0
 11
29.1046737462
 21
87.5652140596
 31
0.0
  0
SPLINE
  5
202
330
1F
100
AcDbEntity
  8
0
  6
Continuous
 62
     7
370
    25
100
AcDbSpline
210
0.0
220
0.0
230
1.0
 70
     8
 71
     3
 72
    14
 73
    10
 74
     0
 42
0.00000001
 43
0.00000001
 40
0.0
 40
0.0
 40
0.0
 40
0.0
 40
0.25
 40
0.25
 40
0.5
 40
0.5
 40
0.75
 40
0.75
 40
1.0
 40
1.0
 40
1.0
 40
1.0
 10
28.87832643289798
 20
87.34416483084574
 30
0.0
 10
28.8508054451529
 20
87.33245803530019
 30
0.0
 10
28.83088552331649
 20
87.30041608221862
 30
0.0
 10
28.81521848149843
 20
87.20109233155361
 30
0.0
 10
28.81971031331075
 20
87.13326888877286
 30
0.0
 10
28.85096665859432
 20
86.97082727136002
 30
0.0
 10
28.8773392419761
 20
86.87638187462429
 30
0.0
 10
28.9401757931204
 20
86.66815276702776
 30
0.0
 10
28.97621537198049
 20
86.5555543741446
 30
0.0
 10
29.01021137534609
 20
86.43579798054452
 30
0.0
  0
SPLINE
  5
203
330
1F
100
AcDbEntity
  8
0
  6
Continuous
 62
     7
370
    25
100
AcDbSpline
210
0.0
220
0.0
230
1.0
 70
     8
 71
     3
 72
     8
 73
     4
 74
     0
 42
0.00000001
 43
0.00000001
 40
0.0
 40
0.0
 40
0.0
 40
0.0
 40
1.0
 40
1.0
 40
1.0
 40
1.0
 10
29.10741250000001
 20
85.70560707548344
 30
0.0
 10
29.10741250000001
 20
85.95303653227846
 30
0.0
 10
29.07804779292216
 20
86.19683328118579
 30
0.0
 10
29.01021137534609
 20
86.43579798054452
 30
0.0
  0
LINE
  5
204
330
1F
100
AcDbEntity
  8
0
  6
Continuous
 62
     7
370
    25
100
AcDbLine
 10
29.1074125
 20
85.7056070755
 30
0.0
 11
29.1074125
 21
71.4578002267
 31
0.0
  0
SPLINE
  5
205
330
1F
100
AcDbEntity
  8
0
  6
Continuous
 62
     7
370
    25
100
AcDbSpline
210
0.0
220
0.0
230
1.0
 70
     8
 71
     3
 72
     8
 73
     4
 74
     0
 42
0.00000001
 43
0.00000001
 40
0.0
 40
0.0
 40
0.0
 40
0.0
 40
1.0
 40
1.0
 40
1.0
 40
1.0
 10
29.01021137534609
 20
70.72760932164736
 30
0.0
 10
29.07804779292216
 20
70.9665740210061
 30
0.0
 10
29.10741250000001
 20
71.21037076991342
 30
0.0
 10
29.10741250000001
 20
71.45780022670843
 30
0.0
  0
SPLINE
  5
206
330
1F
100
AcDbEntity
  8
0
  6
Continuous
 62
     7
370
    25
100
AcDbSpline
210
0.0
220
0.0
230
1.0
 70
     8
 71
     3
 72
    12
 73
     8
 74
     0
 42
0.00000001
 43
0.00000001
 40
0.0
 40
0.0
 40
0.0
 40
0.0
 40
0.4999999999999992
 40
0.4999999999999992
 40
0.7499999999999996
 40
0.7499999999999996
 40
1.0
 40
1.0
 40
1.0
 40
1.0
 10
29.01021137534609
 20
70.72760932164736
 30
0.0
 10
28.94234161533629
 20
70.48852716819925
 30
0.0
 10
28.86630706408255
 20
70.27275706102243
 30
0.0
 10
28.81966246570554
 20
70.02966246831853
 30
0.0
 10
28.8152234691829
 20
69.96199719284239
 30
0.0
 10
28.83095408297574
 20
69.86284407668579
 30
0.0
 10
28.85083451291811
 20
69.83093690213256
 30
0.0
 10
28.87832643289798
 20
69.81924247134612
 30
0.0
  0
LINE
  5
207
330
1F
100
AcDbEntity
  8
0
  6
Continuous
 62
     7
370
    25
100
AcDbLine
 10
29.1047295076
 20
69.5980863828
 30
0.0
 11
29.099620895
 21
69.6292802959
 31
0.0
  0
ARC
  5
208
330
1F
100
AcDbEntity
  8
0
  6
Continuous
 62
     7
370
    25
100
AcDbCircle
 10
29.5607304012
 20
71.3988242884
 30
0.0
 40
0.4571381420089069
100
AcDbArc
 50
84.138844256
 51
172.5875431534
  0
ARC
  5
209
330
1F
100
AcDbEntity
  8
0
  6
Continuous
 62
     7
370
    25
100
AcDbCircle
 10
29.5607304012
 20
85.7645830138
 30
0.0
 40
0.4571381420089299
100
AcDbArc
 50
187.4124568466
 51
275.861155744
  0
ARC
  5
20A
330
1F
100
AcDbEntity
  8
0
  6
Continuous
 62
     7
370
    25
100
AcDbCircle
 10
43.6540945988
 20
71.3988242884
 30
0.0
 40
0.4571381420089002
100
AcDbArc
 50
7.4124568466
 51
95.861155744
  0
ARC
  5
20B
330
1F
100
AcDbEntity
  8
0
  6
Continuous
 62
     7
370
    25
100
AcDbCircle
 10
43.6540945988
 20
85.7645830138
 30
0.0
 40
0.4571381420089299
100
AcDbArc
 50
264.138844256
 51
352.5875431534
  0
SPLINE
  5
20C
330
1F
100
AcDbEntity
  8
0
  6
Continuous
 62
     7
370
    25
100
AcDbSpline
210
0.0
220
0.0
230
1.0
 70
     8
 71
     3
 72
     8
 73
     4
 74
     0
 42
0.00000001
 43
0.00000001
 40
0.0
 40
0.0
 40
0.0
 40
0.0
 40
1.0
 40
1.0
 40
1.0
 40
1.0
 10
43.60741250000001
 20
85.70560707548344
 30
0.0
 10
43.60741250000001
 20
86.00402994358419
 30
0.0
 10
43.64800530415016
 20
86.29644789346614
 30
0.0
 10
43.73701399953858
 20
86.58170365109594
 30
0.0
  0
LINE
  5
20D
330
1F
100
AcDbEntity
  8
0
  6
Continuous
 62
     7
370
    25
100
AcDbLine
 10
43.7370139995
 20
86.5817036511
 30
0.0
 11
44.2046136247
 21
86.4357979805
 31
0.0
  0
LINE
  5
20E
330
1F
100
AcDbEntity
  8
0
  6
Continuous
 62
     7
370
    25
100
AcDbLine
 10
44.1074125
 20
85.7056070755
 30
0.0
 11
43.6074125
 21
85.7056070755
 31
0.0
  0
LINE
  5
20F
330
1F
100
AcDbEntity
  8
0
  6
Continuous
 62
     7
370
    25
100
AcDbLine
 10
29.0102113753
 20
86.4357979805
 30
0.0
 11
29.4778110005
 21
86.5817036511
 31
0.0
  0
SPLINE
  5
210
330
1F
100
AcDbEntity
  8
0
  6
Continuous
 62
     7
370
    25
100
AcDbSpline
210
0.0
220
0.0
230
1.0
 70
     8
 71
     3
 72
     8
 73
     4
 74
     0
 42
0.00000001
 43
0.00000001
 40
0.0
 40
0.0
 40
0.0
 40
0.0
 40
1.0
 40
1.0
 40
1.0
 40
1.0
 10
29.47781100046145
 20
86.58170365109594
 30
0.0
 10
29.56681969584987
 20
86.29644789346614
 30
0.0
 10
29.60741250000001
 20
86.00402994358419
 30
0.0
 10
29.60741250000001
 20
85.70560707548344
 30
0.0
  0
LINE
  5
211
330
1F
100
AcDbEntity
  8
0
  6
Continuous
 62
     7
370
    25
100
AcDbLine
 10
29.1074125
 20
85.7056070755
 30
0.0
 11
29.6074125
 21
85.7056070755
 31
0.0
  0
LINE
  5
212
330
1F
100
AcDbEntity
  8
0
  6
Continuous
 62
     7
370
    25
100
AcDbLine
 10
44.2046136247
 20
70.7276093216
 30
0.0
 11
43.7370139995
 21
70.5817036511
 31
0.0
  0
SPLINE
  5
213
330
1F
100
AcDbEntity
  8
0
  6
Continuous
 62
     7
370
    25
100
AcDbSpline
210
0.0
220
0.0
230
1.0
 70
     8
 71
     3
 72
     8
 73
     4
 74
     0
 42
0.00000001
 43
0.00000001
 40
0.0
 40
0.0
 40
0.0
 40
0.0
 40
1.0
 40
1.0
 40
1.0
 40
1.0
 10
43.73701399953858
 20
70.58170365109594
 30
0.0
 10
43.64800530415016
 20
70.86695940872575
 30
0.0
 10
43.60741250000001
 20
71.15937735860768
 30
0.0
 10
43.60741250000001
 20
71.45780022670843
 30
0.0
  0
LINE
  5
214
330
1F
100
AcDbEntity
  8
0
  6
Continuous
 62
     7
370
    25
100
AcDbLine
 10
44.1074125
 20
71.4578002267
 30
0.0
 11
43.6074125
 21
71.4578002267
 31
0.0
  0
SPLINE
  5
215
330
1F
100
AcDbEntity
  8
0
  6
Continuous
 62
     7
370
    25
100
AcDbSpline
210
0.0
220
0.0
230
1.0
 70
     8
 71
     3
 72
     8
 73
     4
 74
     0
 42
0.00000001
 43
0.00000001
 40
0.0
 40
0.0
 40
0.0
 40
0.0
 40
1.0
 40
1.0
 40
1.0
 40
1.0
 10
29.60741250000001
 20
71.45780022670843
 30
0.0
 10
29.60741250000001
 20
71.15937735860768
 30
0.0
 10
29.56681969584987
 20
70.86695940872575
 30
0.0
 10
29.47781100046145
 20
70.58170365109594
 30
0.0
  0
LINE
  5
216
330
1F
100
AcDbEntity
  8
0
  6
Continuous
 62
     7
370
    25
100
AcDbLine
 10
29.4778110005
 20
70.5817036511
 30
0.0
 11
29.0102113753
 21
70.7276093216
 31
0.0
  0
LINE
  5
217
330
1F
100
AcDbEntity
  8
0
  6
Continuous
 62
     7
370
    25
100
AcDbLine
 10
29.6074125
 20
71.4578002267
 30
0.0
 11
29.1074125
 21
71.4578002267
 31
0.0
  0
LINE
  5
218
330
1F
100
AcDbEntity
  8
0
  6
Continuous
 62
     7
370
    25
100
AcDbLine
 10
43.6074125
 20
85.7056070755
 30
0.0
 11
43.6074125
 21
85.309834663
 31
0.0
  0
LINE
  5
219
330
1F
100
AcDbEntity
  8
0
  6
Continuous
 62
     7
370
    25
100
AcDbLine
 10
29.6074125
 20
85.7056070755
 30
0.0
 11
29.6074125
 21
85.309834663
 31
0.0
  0
LINE
  5
21A
330
1F
100
AcDbEntity
  8
0
  6
Continuous
 62
     7
370
    25
100
AcDbLine
 10
43.6074125
 20
71.8535726392
 30
0.0
 11
43.6074125
 21
71.4578002267
 31
0.0
  0
LINE
  5
21B
330
1F
100
AcDbEntity
  8
0
  6
Continuous
 62
     7
370
    25
100
AcDbLine
 10
29.6074125
 20
71.8535726392
 30
0.0
 11
29.6074125
 21
71.4578002267
 31
0.0
  0
ARC
  5
21C
330
1F
100
AcDbEntity
  8
0
  6
Continuous
 62
     7
370
    25
100
AcDbCircle
 10
29.3057942235
 20
87.5610124686
 30
0.0
 40
0.4793241179194767
100
AcDbArc
 50
206.8979585986
 51
269.5422002632
  0
SPLINE
  5
21D
330
1F
100
AcDbEntity
  8
0
  6
Continuous
 62
     7
370
    25
100
AcDbSpline
210
0.0
220
0.0
230
1.0
 70
     8
 71
     3
 72
    14
 73
    10
 74
     0
 42
0.00000001
 43
0.00000001
 40
0.0
 40
0.0
 40
0.0
 40
0.0
 40
0.25
 40
0.25
 40
0.5
 40
0.5
 40
0.75
 40
0.75
 40
1.0
 40
1.0
 40
1.0
 40
1.0
 10
29.47781100046145
 20
86.58170365109594
 30
0.0
 10
29.43933551683986
 20
86.64335691532342
 30
0.0
 10
29.39824659536984
 20
86.70154086059632
 30
0.0
 10
29.31896374792927
 20
86.81520618206328
 30
0.0
 10
29.28168084681882
 20
86.86888278076303
 30
0.0
 10
29.22887508750704
 20
86.9688728132097
 30
0.0
 10
29.21690582741341
 20
87.01327731343264
 30
0.0
 10
29.23690761578557
 20
87.06933716892644
 30
0.0
 10
29.26636407133787
 20
87.08170365109594
 30
0.0
 10
29.30196441053063
 20
87.08170365109594
 30
0.0
  0
ARC
  5
21E
330
1F
100
AcDbEntity
  8
0
  6
Continuous
 62
     7
370
    25
100
AcDbCircle
 10
43.9090307765
 20
69.6023948336
 30
0.0
 40
0.479324117919416
100
AcDbArc
 50
26.8979585986
 51
89.5422002632
  0
SPLINE
  5
21F
330
1F
100
AcDbEntity
  8
0
  6
Continuous
 62
     7
370
    25
100
AcDbSpline
210
0.0
220
0.0
230
1.0
 70
     8
 71
     3
 72
    14
 73
    10
 74
     0
 42
0.00000001
 43
0.00000001
 40
0.0
 40
0.0
 40
0.0
 40
0.0
 40
0.25
 40
0.25
 40
0.5
 40
0.5
 40
0.75
 40
0.75
 40
1.0
 40
1.0
 40
1.0
 40
1.0
 10
43.73701399953858
 20
70.58170365109594
 30
0.0
 10
43.77548948316017
 20
70.52005038686845
 30
0.0
 10
43.81657840463019
 20
70.46186644159553
 30
0.0
 10
43.89586125207075
 20
70.34820112012859
 30
0.0
 10
43.93314415318121
 20
70.29452452142883
 30
0.0
 10
43.98594991249298
 20
70.19453448898216
 30
0.0
 10
43.99791917258661
 20
70.15012998875923
 30
0.0
 10
43.97791738421446
 20
70.09407013326543
 30
0.0
 10
43.94846092866216
 20
70.08170365109594
 30
0.0
 10
43.9128605894694
 20
70.08170365109594
 30
0.0
  0
SPLINE
  5
220
330
1F
100
AcDbEntity
  8
0
  6
Continuous
 62
     7
370
    25
100
AcDbSpline
210
0.0
220
0.0
230
1.0
 70
     8
 71
     3
 72
    16
 73
    12
 74
     0
 42
0.00000001
 43
0.00000001
 40
0.0
 40
0.0
 40
0.0
 40
0.0
 40
0.2500000000000049
 40
0.2500000000000049
 40
0.3750000000000051
 40
0.3750000000000051
 40
0.5000000000000052
 40
0.5000000000000052
 40
0.7500000000000026
 40
0.7500000000000026
 40
1.0
 40
1.0
 40
1.0
 40
1.0
 10
43.9128605894694
 20
87.08170365109594
 30
0.0
 10
43.94841451891805
 20
87.08170365109594
 30
0.0
 10
43.97768666014674
 20
87.06957190068013
 30
0.0
 10
43.99289921036762
 20
87.0275501944007
 30
0.0
 10
43.99295987854116
 20
87.00933582489417
 30
0.0
 10
43.98274929406384
 20
86.9673988123676
 30
0.0
 10
43.9729659645386
 20
86.94437124887332
 30
0.0
 10
43.93380141600666
 20
86.86996257010131
 30
0.0
 10
43.8959283427334
 20
86.8153046939188
 30
0.0
 10
43.81685536974181
 20
86.70193562074007
 30
0.0
 10
43.77546823715099
 20
86.64332287063588
 30
0.0
 10
43.73701399953858
 20
86.58170365109594
 30
0.0
  0
ARC
  5
221
330
1F
100
AcDbEntity
  8
0
  6
Continuous
 62
     7
370
    25
100
AcDbCircle
 10
43.9090307765
 20
87.5610124686
 30
0.0
 40
0.4793241179194735
100
AcDbArc
 50
270.4577997368
 51
333.1020414014
  0
SPLINE
  5
222
330
1F
100
AcDbEntity
  8
0
  6
Continuous
 62
     7
370
    25
100
AcDbSpline
210
0.0
220
0.0
230
1.0
 70
     8
 71
     3
 72
    16
 73
    12
 74
     0
 42
0.00000001
 43
0.00000001
 40
0.0
 40
0.0
 40
0.0
 40
0.0
 40
0.2500000000000011
 40
0.2500000000000011
 40
0.3749999999999992
 40
0.3749999999999992
 40
0.4999999999999974
 40
0.4999999999999974
 40
0.7499999999999987
 40
0.7499999999999987
 40
1.0
 40
1.0
 40
1.0
 40
1.0
 10
29.30196441053063
 20
70.08170365109594
 30
0.0
 10
29.26641048108197
 20
70.08170365109594
 30
0.0
 10
29.23713833985328
 20
70.09383540151174
 30
0.0
 10
29.2219257896324
 20
70.13585710779117
 30
0.0
 10
29.22186512145886
 20
70.1540714772977
 30
0.0
 10
29.23207570593619
 20
70.19600848982427
 30
0.0
 10
29.24185903546142
 20
70.21903605331855
 30
0.0
 10
29.28102358399336
 20
70.29344473209056
 30
0.0
 10
29.31889665726663
 20
70.34810260827307
 30
0.0
 10
29.39796963025822
 20
70.4614716814518
 30
0.0
 10
29.43935676284903
 20
70.520084431556
 30
0.0
 10
29.47781100046145
 20
70.58170365109594
 30
0.0
  0
ARC
  5
223
330
1F
100
AcDbEntity
  8
0
  6
Continuous
 62
     7
370
    25
100
AcDbCircle
 10
29.3057942235
 20
69.6023948336
 30
0.0
 40
0.4793241179194276
100
AcDbArc
 50
90.4577997368
 51
153.1020414014
  0
LINE
  5
224
330
1F
100
AcDbEntity
  8
0
  6
Continuous
 62
     7
370
    25
100
AcDbLine
 10
17.9623605594
 20
73.7994240242
 30
0.0
 11
17.9623605594
 21
83.363983278
 31
0.0
  0
LINE
  5
225
330
1F
100
AcDbEntity
  8
0
  6
Continuous
 62
     7
370
    25
100
AcDbLine
 10
29.3019644105
 20
87.0817036511
 30
0.0
 11
43.9128605895
 21
87.0817036511
 31
0.0
  0
LINE
  5
226
330
1F
100
AcDbEntity
  8
0
  6
Continuous
 62
     7
370
    25
100
AcDbLine
 10
43.7370139995
 20
86.5817036511
 30
0.0
 11
29.4778110005
 21
86.5817036511
 31
0.0
  0
LINE
  5
227
330
1F
100
AcDbEntity
  8
0
  6
Continuous
 62
     7
370
    25
100
AcDbLine
 10
29.4778110005
 20
70.5817036511
 30
0.0
 11
43.7370139995
 21
70.5817036511
 31
0.0
  0
LINE
  5
228
330
1F
100
AcDbEntity
  8
0
  6
Continuous
 62
     7
370
    25
100
AcDbLine
 10
43.9128605895
 20
70.0817036511
 30
0.0
 11
29.3019644105
 21
70.0817036511
 31
0.0
  0
LINE
  5
229
330
1F
100
AcDbEntity
  8
0
  6
Continuous
 62
     7
370
    25
100
AcDbLine
 10
16.6074125
 20
74.5817036511
 30
0.0
 11
16.6074125
 21
82.5817036511
 31
0.0
  0
SPLINE
  5
22A
330
1F
100
AcDbEntity
  8
0
  6
Continuous
 62
     7
370
    25
100
AcDbSpline
210
0.0
220
0.0
230
1.0
 70
     8
 71
     3
 72
    11
 73
     7
 74
     0
 42
0.00000001
 43
0.00000001
 40
0.0
 40
0.0
 40
0.0
 40
0.0
 40
0.1829450983654378
 40
0.5571371855744948
 40
0.9317062879569865
 40
1.0
 40
1.0
 40
1.0
 40
1.0
 10
44.33649856710205
 20
69.81924247134612
 30
0.0
 10
44.30547472300494
 20
69.80444431471295
 30
0.0
 10
44.21099535547665
 20
69.75937831725275
 30
0.0
 10
44.14285217197076
 20
69.69610625168168
 30
0.0
 10
44.1165544594638
 20
69.64021894746482
 30
0.0
 10
44.1155249027324
 20
69.63101113002989
 30
0.0
 10
44.11536613516679
 20
69.62959119588332
 30
0.0
  0
SPLINE
  5
22B
330
1F
100
AcDbEntity
  8
0
  6
Continuous
 62
     7
370
    25
100
AcDbSpline
210
0.0
220
0.0
230
1.0
 70
     8
 71
     3
 72
    11
 73
     7
 74
     0
 42
0.00000001
 43
0.00000001
 40
0.0
 40
0.0
 40
0.0
 40
0.0
 40
0.0631451044874329
 40
0.4402924664315868
 40
0.8170552935895091
 40
1.0
 40
1.0
 40
1.0
 40
1.0
 10
44.11520410497911
 20
87.53412700626359
 30
0.0
 10
44.11535416179366
 20
87.53281269652378
 30
0.0
 10
44.11640046436175
 20
87.52364839658799
 30
0.0
 10
44.14235096900315
 20
87.4677770780179
 30
0.0
 10
44.21057059024163
 20
87.40423974517635
 30
0.0
 10
44.30547751106073
 20
87.35896366531121
 30
0.0
 10
44.33649856710205
 20
87.34416483084574
 30
0.0
  0
SPLINE
  5
22C
330
1F
100
AcDbEntity
  8
0
  6
Continuous
 62
     7
370
    25
100
AcDbSpline
210
0.0
220
0.0
230
1.0
 70
     8
 71
     3
 72
    11
 73
     7
 74
     0
 42
0.00000001
 43
0.00000001
 40
0.0
 40
0.0
 40
0.0
 40
0.0
 40
0.182945098365438
 40
0.5571371855744949
 40
0.9317062879569865
 40
1.0
 40
1.0
 40
1.0
 40
1.0
 10
28.87832643289797
 20
87.34416483084576
 30
0.0
 10
28.90935027699508
 20
87.35896298747892
 30
0.0
 10
29.00382964452336
 20
87.40402898493913
 30
0.0
 10
29.07197282802926
 20
87.46730105051019
 30
0.0
 10
29.09827054053623
 20
87.52318835472705
 30
0.0
 10
29.09930009726762
 20
87.53239617216198
 30
0.0
 10
29.09945886483323
 20
87.53381610630854
 30
0.0
  0
SPLINE
  5
22D
330
1F
100
AcDbEntity
  8
0
  6
Continuous
 62
     7
370
    25
100
AcDbSpline
210
0.0
220
0.0
230
1.0
 70
     8
 71
     3
 72
    11
 73
     7
 74
     0
 42
0.00000001
 43
0.00000001
 40
0.0
 40
0.0
 40
0.0
 40
0.0
 40
0.0631451044874329
 40
0.4402924664315869
 40
0.8170552935895093
 40
0.9999999999999999
 40
0.9999999999999999
 40
0.9999999999999999
 40
0.9999999999999999
 10
29.09962089502092
 20
69.62928029592828
 30
0.0
 10
29.09947083820636
 20
69.63059460566811
 30
0.0
 10
29.09842453563829
 20
69.6397589056039
 30
0.0
 10
29.07247403099688
 20
69.69563022417397
 30
0.0
 10
29.0042544097584
 20
69.75916755701552
 30
0.0
 10
28.90934748893929
 20
69.80444363688066
 30
0.0
 10
28.87832643289797
 20
69.81924247134612
 30
0.0
  0
LINE
  5
22E
330
1F
100
AcDbEntity
  8
0
  6
Continuous
 62
     7
370
    25
100
AcDbLine
 10
29.6074125
 20
85.309834663
 30
0.0
 11
29.6074125
 21
81.1317036511
 31
0.0
  0
LINE
  5
22F
330
1F
100
AcDbEntity
  8
0
  6
Continuous
 62
     7
370
    25
100
AcDbLine
 10
29.6074125
 20
76.0317036511
 30
0.0
 11
29.6074125
 21
71.8535726392
 31
0.0
  0
LINE
  5
230
330
1F
100
AcDbEntity
  8
0
  6
Continuous
 62
     7
370
    25
100
AcDbLine
 10
43.6074125
 20
71.8535726392
 30
0.0
 11
43.6074125
 21
73.2853911706
 31
0.0
  0
LINE
  5
231
330
1F
100
AcDbEntity
  8
0
  6
Continuous
 62
     7
370
    25
100
AcDbLine
 10
43.6074125
 20
83.8780161316
 30
0.0
 11
43.6074125
 21
85.309834663
 31
0.0
  0
LINE
  5
232
330
1F
100
AcDbEntity
  8
0
  6
Continuous
 62
     7
370
    25
100
AcDbLine
 10
29.6074125
 20
71.8535726392
 30
0.0
 11
33.4082324353
 21
71.8535726392
 31
0.0
  0
LINE
  5
233
330
1F
100
AcDbEntity
  8
0
  6
Continuous
 62
     7
370
    25
100
AcDbLine
 10
39.8065925647
 20
71.8535726392
 30
0.0
 11
43.6074125
 21
71.8535726392
 31
0.0
  0
LINE
  5
234
330
1F
100
AcDbEntity
  8
0
  6
Continuous
 62
     7
370
    25
100
AcDbLine
 10
43.6074125
 20
85.309834663
 30
0.0
 11
39.8065925647
 21
85.309834663
 31
0.0
  0
LINE
  5
235
330
1F
100
AcDbEntity
  8
0
  6
Continuous
 62
     7
370
    25
100
AcDbLine
 10
33.4082324353
 20
85.309834663
 30
0.0
 11
29.6074125
 21
85.309834663
 31
0.0
  0
LINE
  5
236
330
1F
100
AcDbEntity
  8
0
  6
Continuous
 62
     7
370
    25
100
AcDbLine
 10
29.6074125
 20
85.7056070755
 30
0.0
 11
34.4273895643
 21
85.7056070755
 31
0.0
  0
LINE
  5
237
330
1F
100
AcDbEntity
  8
0
  6
Continuous
 62
     7
370
    25
100
AcDbLine
 10
38.7874354357
 20
85.7056070755
 30
0.0
 11
43.6074125
 21
85.7056070755
 31
0.0
  0
LINE
  5
238
330
1F
100
AcDbEntity
  8
0
  6
Continuous
 62
     7
370
    25
100
AcDbLine
 10
43.6074125
 20
71.4578002267
 30
0.0
 11
38.7874354357
 21
71.4578002267
 31
0.0
  0
LINE
  5
239
330
1F
100
AcDbEntity
  8
0
  6
Continuous
 62
     7
370
    25
100
AcDbLine
 10
34.4273895643
 20
71.4578002267
 30
0.0
 11
29.6074125
 21
71.4578002267
 31
0.0
  0
INSERT
  5
245
330
1F
100
AcDbEntity
  8
0
  6
Continuous
 62
     7
370
    18
100
AcDbBlockReference
  2
SW_CENTERMARKSYMBOL_1
 10
36.6074125
 20
78.5817036511
 30
0.0
  0
LINE
  5
246
330
1F
100
AcDbEntity
  8
0
  6
Continuous
 62
     7
370
    18
100
AcDbLine
 10
26.1074125
 20
83.0862365242
 30
0.0
 11
16.9876684436
 21
82.8012445225
 31
0.0
  0
LINE
  5
247
330
1F
100
AcDbEntity
  8
0
  6
Continuous
 62
     7
370
    18
100
AcDbLine
 10
16.9876684436
 20
74.3621627797
 30
0.0
 11
26.1074125
 21
74.077170778
 31
0.0
  0
LINE
  5
248
330
1F
100
AcDbEntity
  8
0
  6
Continuous
 62
     7
370
    18
100
AcDbLine
 10
57.1074125
 20
74.0018286511
 30
0.0
 11
66.0891926492
 21
74.2825092808
 31
0.0
  0
LINE
  5
249
330
1F
100
AcDbEntity
  8
0
  6
Continuous
 62
     7
370
    18
100
AcDbLine
 10
66.0891926492
 20
82.8808980214
 30
0.0
 11
57.1074125
 21
83.1615786511
 31
0.0
  0
ENDSEC
  0
SECTION
  2
OBJECTS
  0
DICTIONARY
  5
C
330
0
100
AcDbDictionary
281
     1
  3
ACAD_GROUP
350
D
  3
ACAD_LAYOUT
350
1A
  3
ACAD_MLINESTYLE
350
17
  3
ACAD_PLOTSETTINGS
350
19
  3
ACAD_PLOTSTYLENAME
350
E
  3
ACAD_SCALELIST
350
47
  3
DWGPROPS
350
24A
  0
DICTIONARY
  5
D
102
{ACAD_REACTORS
330
C
102
}
330
C
100
AcDbDictionary
281
     1
  0
DICTIONARY
  5
1A
102
{ACAD_REACTORS
330
C
102
}
330
C
100
AcDbDictionary
281
     1
  3
Layout1
350
1E
  3
Layout2
350
26
  3
Model
350
22
  0
DICTIONARY
  5
17
102
{ACAD_REACTORS
330
C
102
}
330
C
100
AcDbDictionary
281
     1
  3
Standard
350
18
  0
DICTIONARY
  5
19
102
{ACAD_REACTORS
330
C
102
}
330
C
100
AcDbDictionary
281
     1
  0
ACDBDICTIONARYWDFLT
  5
E
102
{ACAD_REACTORS
330
C
102
}
330
C
100
AcDbDictionary
281
     1
  3
Normal
350
F
100
AcDbDictionaryWithDefault
340
F
  0
DICTIONARY
  5
47
102
{ACAD_REACTORS
330
C
102
}
330
C
100
AcDbDictionary
281
     1
  3
A0
350
48
  3
A1
350
49
  3
A2
350
4A
  3
A3
350
4B
  3
A4
350
4C
  3
A5
350
4D
  3
A6
350
4E
  3
A7
350
4F
  3
A8
350
50
  3
A9
350
51
  3
B0
350
52
  3
B1
350
53
  3
B2
350
54
  3
B3
350
55
  3
B4
350
56
  3
B5
350
57
  3
B6
350
58
  0
XRECORD
  5
24A
102
{ACAD_REACTORS
330
C
102
}
330
C
100
AcDbXrecord
280
     1
  1
DWGPROPS COOKIE
  2

  3

  4

  6

  7

  8
user52
  9

300
=
301
=
302
=
303
=
304
=
305
=
306
=
307
=
308
=
309
=
 40
0.0
 41
2460398.024688171
 42
2460398.024688784
  1

 90
        0
  0
LAYOUT
  5
1E
102
{ACAD_REACTORS
330
1A
102
}
330
1A
100
AcDbPlotSettings
  1

  2
none_device
  4

  6

 40
0.0
 41
0.0
 42
0.0
 43
0.0
 44
0.0
 45
0.0
 46
0.0
 47
0.0
 48
0.0
 49
0.0
140
0.0
141
0.0
142
1.0
143
1.0
 70
   688
 72
     1
 73
     0
 74
     5
  7

 75
    16
147
1.0
148
0.0
149
0.0
100
AcDbLayout
  1
Layout1
 70
     1
 71
     1
 10
0.0
 20
0.0
 11
420.0
 21
297.0
 12
0.0
 22
0.0
 32
0.0
 14
1.0000000000E+20
 24
1.0000000000E+20
 34
1.0000000000E+20
 15
-1.0000000000E+20
 25
-1.0000000000E+20
 35
-1.0000000000E+20
146
0.0
 13
0.0
 23
0.0
 33
0.0
 16
1.0
 26
0.0
 36
0.0
 17
0.0
 27
1.0
 37
0.0
 76
     0
330
1B
  0
LAYOUT
  5
26
102
{ACAD_REACTORS
330
1A
102
}
330
1A
100
AcDbPlotSettings
  1

  2
none_device
  4

  6

 40
0.0
 41
0.0
 42
0.0
 43
0.0
 44
0.0
 45
0.0
 46
0.0
 47
0.0
 48
0.0
 49
0.0
140
0.0
141
0.0
142
1.0
143
1.0
 70
   688
 72
     1
 73
     0
 74
     5
  7

 75
    16
147
1.0
148
0.0
149
0.0
100
AcDbLayout
  1
Layout2
 70
     1
 71
     2
 10
0.0
 20
0.0
 11
0.0
 21
0.0
 12
0.0
 22
0.0
 32
0.0
 14
0.0
 24
0.0
 34
0.0
 15
0.0
 25
0.0
 35
0.0
146
0.0
 13
0.0
 23
0.0
 33
0.0
 16
1.0
 26
0.0
 36
0.0
 17
0.0
 27
1.0
 37
0.0
 76
     0
330
23
  0
LAYOUT
  5
22
102
{ACAD_REACTORS
330
1A
102
}
330
1A
100
AcDbPlotSettings
  1

  2
none_device
  4
Letter_(8.50_x_11.00_Inches)
  6

 40
6.35
 41
6.35
 42
6.35000508
 43
6.35000508
 44
215.9
 45
279.4
 46
0.0
 47
0.0
 48
0.0
 49
0.0
140
0.0
141
0.0
142
1.0
143
1.0
 70
  1712
 72
     1
 73
     0
 74
     0
  7

 75
     0
147
1.0
148
0.0
149
0.0
100
AcDbLayout
  1
Model
 70
     1
 71
     0
 10
0.0
 20
0.0
 11
431.8
 21
279.4
 12
0.0
 22
0.0
 32
0.0
 14
0.0
 24
0.0
 34
0.0
 15
431.8
 25
279.4
 35
0.0
146
0.0
 13
0.0
 23
0.0
 33
0.0
 16
1.0
 26
0.0
 36
0.0
 17
0.0
 27
1.0
 37
0.0
 76
     0
330
1F
331
29
  0
MLINESTYLE
  5
18
102
{ACAD_REACTORS
330
17
102
}
330
17
100
AcDbMlineStyle
  2
Standard
 70
     0
  3

 62
   256
 51
90.0
 52
90.0
 71
     2
 49
0.5
 62
   256
  6
BYLAYER
 49
-0.5
 62
   256
  6
BYLAYER
  0
ACDBPLACEHOLDER
  5
F
102
{ACAD_REACTORS
330
E
102
}
330
E
  0
SCALE
  5
48
102
{ACAD_REACTORS
330
47
102
}
330
47
100
AcDbScale
 70
     0
300
1:1
140
1.0
141
1.0
290
     1
  0
SCALE
  5
49
102
{ACAD_REACTORS
330
47
102
}
330
47
100
AcDbScale
 70
     0
300
1:2
140
1.0
141
2.0
290
     0
  0
SCALE
  5
4A
102
{ACAD_REACTORS
330
47
102
}
330
47
100
AcDbScale
 70
     0
300
1:4
140
1.0
141
4.0
290
     0
  0
SCALE
  5
4B
102
{ACAD_REACTORS
330
47
102
}
330
47
100
AcDbScale
 70
     0
300
1:5
140
1.0
141
5.0
290
     0
  0
SCALE
  5
4C
102
{ACAD_REACTORS
330
47
102
}
330
47
100
AcDbScale
 70
     0
300
1:8
140
1.0
141
8.0
290
     0
  0
SCALE
  5
4D
102
{ACAD_REACTORS
330
47
102
}
330
47
100
AcDbScale
 70
     0
300
1:10
140
1.0
141
10.0
290
     0
  0
SCALE
  5
4E
102
{ACAD_REACTORS
330
47
102
}
330
47
100
AcDbScale
 70
     0
300
1:16
140
1.0
141
16.0
290
     0
  0
SCALE
  5
4F
102
{ACAD_REACTORS
330
47
102
}
330
47
100
AcDbScale
 70
     0
300
1:20
140
1.0
141
20.0
290
     0
  0
SCALE
  5
50
102
{ACAD_REACTORS
330
47
102
}
330
47
100
AcDbScale
 70
     0
300
1:30
140
1.0
141
30.0
290
     0
  0
SCALE
  5
51
102
{ACAD_REACTORS
330
47
102
}
330
47
100
AcDbScale
 70
     0
300
1:40
140
1.0
141
40.0
290
     0
  0
SCALE
  5
52
102
{ACAD_REACTORS
330
47
102
}
330
47
100
AcDbScale
 70
     0
300
1:50
140
1.0
141
50.0
290
     0
  0
SCALE
  5
53
102
{ACAD_REACTORS
330
47
102
}
330
47
100
AcDbScale
 70
     0
300
1:100
140
1.0
141
100.0
290
     0
  0
SCALE
  5
54
102
{ACAD_REACTORS
330
47
102
}
330
47
100
AcDbScale
 70
     0
300
2:1
140
2.0
141
1.0
290
     0
  0
SCALE
  5
55
102
{ACAD_REACTORS
330
47
102
}
330
47
100
AcDbScale
 70
     0
300
4:1
140
4.0
141
1.0
290
     0
  0
SCALE
  5
56
102
{ACAD_REACTORS
330
47
102
}
330
47
100
AcDbScale
 70
     0
300
8:1
140
8.0
141
1.0
290
     0
  0
SCALE
  5
57
102
{ACAD_REACTORS
330
47
102
}
330
47
100
AcDbScale
 70
     0
300
10:1
140
10.0
141
1.0
290
     0
  0
SCALE
  5
58
102
{ACAD_REACTORS
330
47
102
}
330
47
100
AcDbScale
 70
     0
300
100:1
140
100.0
141
1.0
290
     0
  0
ENDSEC
  0
EOF
