  0
SECTION
  2
HEADER
  9
$ACADVER
  1
AC1015
  9
$ACADMAINTVER
 70
     6
  9
$DWGCODEPAGE
  3
DOS932
  9
$INSBASE
 10
0.0
 20
0.0
 30
0.0
  9
$EXTMIN
 10
0.0
 20
0.0
 30
0.0
  9
$EXTMAX
 10
594.0
 20
420.0
 30
0.0
  9
$LIMMIN
 10
0.0
 20
0.0
  9
$LIMMAX
 10
594.0
 20
420.0
  9
$ORTHOMODE
 70
     0
  9
$REGENMODE
 70
     1
  9
$FILLMODE
 70
     1
  9
$QTEXTMODE
 70
     0
  9
$MIRRTEXT
 70
     1
  9
$LTSCALE
 40
2.0
  9
$ATTMODE
 70
     1
  9
$TEXTSIZE
 40
7.0555555556
  9
$TRACEWID
 40
1.0
  9
$TEXTSTYLE
  7
Standard
  9
$CLAYER
  8
0
  9
$CELTYPE
  6
ByLayer
  9
$CECOLOR
 62
   256
  9
$CELTSCALE
 40
1.0
  9
$DISPSILH
 70
     0
  9
$DIMSCALE
 40
1.0
  9
$DIMASZ
 40
5.45703125
  9
$DIMEXO
 40
2.0
  9
$DIMDLI
 40
3.75
  9
$DIMRND
 40
0.0
  9
$DIMDLE
 40
0.0
  9
$DIMEXE
 40
2.0
  9
$DIMTP
 40
0.0
  9
$DIMTM
 40
0.0
  9
$DIMTXT
 40
7.0555555556
  9
$DIMCEN
 40
2.5
  9
$DIMTSZ
 40
0.0
  9
$DIMTOL
 70
     0
  9
$DIMLIM
 70
     0
  9
$DIMTIH
 70
     1
  9
$DIMTOH
 70
     1
  9
$DIMSE1
 70
     0
  9
$DIMSE2
 70
     0
  9
$DIMTAD
 70
     1
  9
$DIMZIN
 70
     0
  9
$DIMBLK
  1

  9
$DIMASO
 70
     1
  9
$DIMSHO
 70
     1
  9
$DIMPOST
  1

  9
$DIMAPOST
  1

  9
$DIMALT
 70
     0
  9
$DIMALTD
 70
     3
  9
$DIMALTF
 40
0.0393700787
  9
$DIMLFAC
 40
1.0
  9
$DIMTOFL
 70
     1
  9
$DIMTVP
 40
0.0
  9
$DIMTIX
 70
     0
  9
$DIMSOXD
 70
     0
  9
$DIMSAH
 70
     0
  9
$DIMBLK1
  1

  9
$DIMBLK2
  1

  9
$DIMSTYLE
  2
ISO-25
  9
$DIMCLRD
 70
     0
  9
$DIMCLRE
 70
     0
  9
$DIMCLRT
 70
     0
  9
$DIMTFAC
 40
1.0
  9
$DIMGAP
 40
3.048
  9
$DIMJUST
 70
     0
  9
$DIMSD1
 70
     0
  9
$DIMSD2
 70
     0
  9
$DIMTOLJ
 70
     0
  9
$DIMTZIN
 70
     0
  9
$DIMALTZ
 70
     0
  9
$DIMALTTZ
 70
     0
  9
$DIMUPT
 70
     0
  9
$DIMDEC
 70
     2
  9
$DIMTDEC
 70
     2
  9
$DIMALTU
 70
     2
  9
$DIMALTTD
 70
     3
  9
$DIMTXSTY
  7
Standard
  9
$DIMAUNIT
 70
     0
  9
$DIMADEC
 70
     2
  9
$DIMALTRND
 40
0.0
  9
$DIMAZIN
 70
     0
  9
$DIMDSEP
 70
    44
  9
$DIMATFIT
 70
     3
  9
$DIMFRAC
 70
     0
  9
$DIMLDRBLK
  1

  9
$DIMLUNIT
 70
     2
  9
$DIMLWD
 70
    -2
  9
$DIMLWE
 70
    -2
  9
$DIMTMOVE
 70
     0
  9
$LUNITS
 70
     2
  9
$LUPREC
 70
     2
  9
$SKETCHINC
 40
1.0
  9
$FILLETRAD
 40
0.0
  9
$AUNITS
 70
     0
  9
$AUPREC
 70
     2
  9
$MENU
  1
.
  9
$ELEVATION
 40
0.0
  9
$PELEVATION
 40
0.0
  9
$THICKNESS
 40
0.0
  9
$LIMCHECK
 70
     0
  9
$CHAMFERA
 40
0.0
  9
$CHAMFERB
 40
0.0
  9
$CHAMFERC
 40
0.0
  9
$CHAMFERD
 40
0.0
  9
$SKPOLY
 70
     0
  9
$TDCREATE
 40
2460305.575481759
  9
$TDUCREATE
 40
2460305.200481759
  9
$TDUPDATE
 40
2460305.575482465
  9
$TDUUPDATE
 40
2460305.200482465
  9
$TDINDWG
 40
0.0000000116
  9
$TDUSRTIMER
 40
0.0000000116
  9
$USRTIMER
 70
     1
  9
$ANGBASE
 50
0.0
  9
$ANGDIR
 70
     0
  9
$PDMODE
 70
     0
  9
$PDSIZE
 40
-1.0
  9
$PLINEWID
 40
0.0
  9
$SPLFRAME
 70
     0
  9
$SPLINETYPE
 70
     6
  9
$SPLINESEGS
 70
     8
  9
$HANDSEED
  5
268
  9
$SURFTAB1
 70
     6
  9
$SURFTAB2
 70
     6
  9
$SURFTYPE
 70
     6
  9
$SURFU
 70
     6
  9
$SURFV
 70
     6
  9
$UCSBASE
  2

  9
$UCSNAME
  2

  9
$UCSORG
 10
0.0
 20
0.0
 30
0.0
  9
$UCSXDIR
 10
1.0
 20
0.0
 30
0.0
  9
$UCSYDIR
 10
0.0
 20
1.0
 30
0.0
  9
$UCSORTHOREF
  2

  9
$UCSORTHOVIEW
 70
     0
  9
$UCSORGTOP
 10
0.0
 20
0.0
 30
0.0
  9
$UCSORGBOTTOM
 10
0.0
 20
0.0
 30
0.0
  9
$UCSORGLEFT
 10
0.0
 20
0.0
 30
0.0
  9
$UCSORGRIGHT
 10
0.0
 20
0.0
 30
0.0
  9
$UCSORGFRONT
 10
0.0
 20
0.0
 30
0.0
  9
$UCSORGBACK
 10
0.0
 20
0.0
 30
0.0
  9
$PUCSBASE
  2

  9
$PUCSNAME
  2

  9
$PUCSORG
 10
0.0
 20
0.0
 30
0.0
  9
$PUCSXDIR
 10
1.0
 20
0.0
 30
0.0
  9
$PUCSYDIR
 10
0.0
 20
1.0
 30
0.0
  9
$PUCSORTHOREF
  2

  9
$PUCSORTHOVIEW
 70
     0
  9
$PUCSORGTOP
 10
0.0
 20
0.0
 30
0.0
  9
$PUCSORGBOTTOM
 10
0.0
 20
0.0
 30
0.0
  9
$PUCSORGLEFT
 10
0.0
 20
0.0
 30
0.0
  9
$PUCSORGRIGHT
 10
0.0
 20
0.0
 30
0.0
  9
$PUCSORGFRONT
 10
0.0
 20
0.0
 30
0.0
  9
$PUCSORGBACK
 10
0.0
 20
0.0
 30
0.0
  9
$USERI1
 70
     0
  9
$USERI2
 70
     0
  9
$USERI3
 70
     0
  9
$USERI4
 70
     0
  9
$USERI5
 70
     0
  9
$USERR1
 40
0.0
  9
$USERR2
 40
0.0
  9
$USERR3
 40
0.0
  9
$USERR4
 40
0.0
  9
$USERR5
 40
0.0
  9
$WORLDVIEW
 70
     1
  9
$SHADEDGE
 70
     3
  9
$SHADEDIF
 70
    70
  9
$TILEMODE
 70
     1
  9
$MAXACTVP
 70
    64
  9
$PINSBASE
 10
0.0
 20
0.0
 30
0.0
  9
$PLIMCHECK
 70
     0
  9
$PEXTMIN
 10
1.0000000000E+20
 20
1.0000000000E+20
 30
1.0000000000E+20
  9
$PEXTMAX
 10
-1.0000000000E+20
 20
-1.0000000000E+20
 30
-1.0000000000E+20
  9
$PLIMMIN
 10
0.0
 20
0.0
  9
$PLIMMAX
 10
420.0
 20
297.0
  9
$UNITMODE
 70
     0
  9
$VISRETAIN
 70
     1
  9
$PLINEGEN
 70
     0
  9
$PSLTSCALE
 70
     1
  9
$TREEDEPTH
 70
  3020
  9
$CMLSTYLE
  2
Standard
  9
$CMLJUST
 70
     0
  9
$CMLSCALE
 40
20.0
  9
$PROXYGRAPHICS
 70
     1
  9
$MEASUREMENT
 70
     1
  9
$CELWEIGHT
370
    -1
  9
$ENDCAPS
280
     0
  9
$JOINSTYLE
280
     0
  9
$LWDISPLAY
290
     1
  9
$INSUNITS
 70
     4
  9
$HYPERLINKBASE
  1

  9
$STYLESHEET
  1

  9
$XEDIT
290
     1
  9
$CEPSNTYPE
380
     0
  9
$PSTYLEMODE
290
     1
  9
$FINGERPRINTGUID
  2
{6201b38e-209f-4636-b9d6-92eee6f94b77}
  9
$VERSIONGUID
  2
{FAEB1C32-E019-11D5-929B-00C0DF256EC4}
  9
$EXTNAMES
290
     1
  9
$PSVPSCALE
 40
0.0
  9
$OLESTARTUP
290
     0
  0
ENDSEC
  0
SECTION
  2
CLASSES
  0
CLASS
  1
ACDBDICTIONARYWDFLT
  2
AcDbDictionaryWithDefault
  3
ObjectDBX Classes
 90
        0
280
     0
281
     0
  0
CLASS
  1
VISUALSTYLE
  2
AcDbVisualStyle
  3
ObjectDBX Classes
 90
     4095
280
     0
281
     0
  0
CLASS
  1
MATERIAL
  2
AcDbMaterial
  3
ObjectDBX Classes
 90
     1153
280
     0
281
     0
  0
CLASS
  1
SCALE
  2
AcDbScale
  3
ObjectDBX Classes
 90
     1153
280
     0
281
     0
  0
CLASS
  1
TABLESTYLE
  2
AcDbTableStyle
  3
ObjectDBX Classes
 90
     4095
280
     0
281
     0
  0
CLASS
  1
MLEADERSTYLE
  2
AcDbMLeaderStyle
  3
ACDB_MLEADERSTYLE_CLASS
 90
     4095
280
     0
281
     0
  0
CLASS
  1
SUN
  2
AcDbSun
  3
SCENEOE
 90
     1153
280
     0
281
     0
  0
CLASS
  1
ACDBPLACEHOLDER
  2
AcDbPlaceHolder
  3
ObjectDBX Classes
 90
        0
280
     0
281
     0
  0
CLASS
  1
LAYOUT
  2
AcDbLayout
  3
ObjectDBX Classes
 90
        0
280
     0
281
     0
  0
ENDSEC
  0
SECTION
  2
TABLES
  0
TABLE
  2
VPORT
  5
8
330
0
100
AcDbSymbolTable
 70
     1
  0
VPORT
  5
29
330
8
100
AcDbSymbolTableRecord
100
AcDbViewportTableRecord
  2
*Active
 70
     0
 10
0.0
 20
0.0
 11
1.0
 21
1.0
 12
297.0
 22
210.0
 13
0.0
 23
0.0
 14
10.0
 24
10.0
 15
10.0
 25
10.0
 16
0.0
 26
0.0
 36
1.0
 17
0.0
 27
0.0
 37
0.0
 40
420.0
 41
1.4142857143
 42
50.0
 43
0.0
 44
0.0
 50
0.0
 51
0.0
 71
     0
 72
  2000
 73
     1
 74
     3
 75
     0
 76
     0
 77
     0
 78
     0
281
     0
 65
     1
110
0.0
120
0.0
130
0.0
111
1.0
121
0.0
131
0.0
112
0.0
122
1.0
132
0.0
 79
     0
146
0.0
  0
ENDTAB
  0
TABLE
  2
LTYPE
  5
5
330
0
100
AcDbSymbolTable
 70
     6
  0
LTYPE
  5
14
330
5
100
AcDbSymbolTableRecord
100
AcDbLinetypeTableRecord
  2
ByBlock
 70
     0
  3

 72
    65
 73
     0
 40
0.0
  0
LTYPE
  5
15
330
5
100
AcDbSymbolTableRecord
100
AcDbLinetypeTableRecord
  2
ByLayer
 70
     0
  3

 72
    65
 73
     0
 40
0.0
  0
LTYPE
  5
16
330
5
100
AcDbSymbolTableRecord
100
AcDbLinetypeTableRecord
  2
Continuous
 70
     0
  3
Solid line
 72
    65
 73
     0
 40
0.0
  0
LTYPE
  5
5E
330
5
100
AcDbSymbolTableRecord
100
AcDbLinetypeTableRecord
  2
HIDDEN
 70
     0
  3
Hidden __ __ __ __ __ __ __ __ __ __ __ __ __ __
 72
    65
 73
     2
 40
1.905
 49
1.27
 74
     0
 49
-0.635
 74
     0
  0
LTYPE
  5
5F
330
5
100
AcDbSymbolTableRecord
100
AcDbLinetypeTableRecord
  2
PHANTOM
 70
     0
  3
Phantom ______  __  __  ______  __  __  ______
 72
    65
 73
     6
 40
12.7
 49
6.35
 74
     0
 49
-1.27
 74
     0
 49
1.27
 74
     0
 49
-1.27
 74
     0
 49
1.27
 74
     0
 49
-1.27
 74
     0
  0
LTYPE
  5
60
330
5
100
AcDbSymbolTableRecord
100
AcDbLinetypeTableRecord
  2
CENTER
 70
     0
  3
Center ____ _ ____ _ ____ _ ____ _ ____ _ ____
 72
    65
 73
     4
 40
10.16
 49
6.35
 74
     0
 49
-1.27
 74
     0
 49
1.27
 74
     0
 49
-1.27
 74
     0
  0
LTYPE
  5
61
330
5
100
AcDbSymbolTableRecord
100
AcDbLinetypeTableRecord
  2
CENTERX2
 70
     0
  3
Center (2x) ________  __  ________  __  _____
 72
    65
 73
     4
 40
20.32
 49
12.7
 74
     0
 49
-2.54
 74
     0
 49
2.54
 74
     0
 49
-2.54
 74
     0
  0
LTYPE
  5
62
330
5
100
AcDbSymbolTableRecord
100
AcDbLinetypeTableRecord
  2
DOT2
 70
     0
  3
Dot (.5x) ........................................
 72
    65
 73
     2
 40
0.635
 49
0.0
 74
     0
 49
-0.635
 74
     0
  0
ENDTAB
  0
TABLE
  2
LAYER
  5
2
330
0
100
AcDbSymbolTable
 70
     2
  0
LAYER
  5
10
330
2
100
AcDbSymbolTableRecord
100
AcDbLayerTableRecord
  2
0
 70
     0
 62
     7
  6
Continuous
370
    -3
390
F
  0
LAYER
  5
63
330
2
100
AcDbSymbolTableRecord
100
AcDbLayerTableRecord
  2
FORMAT
 70
     0
 62
     7
  6
Continuous
370
    -3
390
F
  0
ENDTAB
  0
TABLE
  2
STYLE
  5
3
330
0
100
AcDbSymbolTable
 70
     2
  0
STYLE
  5
11
330
3
100
AcDbSymbolTableRecord
100
AcDbTextStyleTableRecord
  2
Standard
 70
     0
 40
0.0
 41
1.0
 50
0.0
 71
     0
 42
7.0555555556
  3
txt
  4
bigfont
  0
STYLE
  5
64
330
3
100
AcDbSymbolTableRecord
100
AcDbTextStyleTableRecord
  2
SLDTEXTSTYLE0
 70
     0
 40
0.0
 41
0.7
 50
0.0
 71
     0
 42
7.0555555556
  3
TXT
  4
bigfont
  0
ENDTAB
  0
TABLE
  2
VIEW
  5
6
330
0
100
AcDbSymbolTable
 70
     0
  0
ENDTAB
  0
TABLE
  2
UCS
  5
7
330
0
100
AcDbSymbolTable
 70
     0
  0
ENDTAB
  0
TABLE
  2
APPID
  5
9
330
0
100
AcDbSymbolTable
 70
     1
  0
APPID
  5
12
330
9
100
AcDbSymbolTableRecord
100
AcDbRegAppTableRecord
  2
ACAD
 70
     0
  0
ENDTAB
  0
TABLE
  2
DIMSTYLE
  5
A
330
0
100
AcDbSymbolTable
 70
     1
100
AcDbDimStyleTable
  0
DIMSTYLE
105
27
330
A
100
AcDbSymbolTableRecord
100
AcDbDimStyleTableRecord
  2
ISO-25
 70
     0
 41
2.5
 42
0.625
 43
3.75
 44
1.25
 73
     0
 74
     0
 77
     1
 78
     8
140
2.5
141
2.5
143
0.0393700787
147
0.625
171
     3
172
     1
178
     0
271
     2
272
     2
274
     3
278
    44
283
     0
284
     8
340
11
  0
ENDTAB
  0
TABLE
  2
BLOCK_RECORD
  5
1
330
0
100
AcDbSymbolTable
 70
     3
  0
BLOCK_RECORD
  5
1F
330
1
100
AcDbSymbolTableRecord
100
AcDbBlockTableRecord
  2
*Model_Space
340
22
  0
BLOCK_RECORD
  5
1B
330
1
100
AcDbSymbolTableRecord
100
AcDbBlockTableRecord
  2
*Paper_Space
340
1E
  0
BLOCK_RECORD
  5
23
330
1
100
AcDbSymbolTableRecord
100
AcDbBlockTableRecord
  2
*Paper_Space0
340
26
  0
BLOCK_RECORD
  5
1C8
330
1
100
AcDbSymbolTableRecord
100
AcDbBlockTableRecord
  2
SW_CENTERMARKSYMBOL_0
340
0
102
{BLKREFS
331
1D3
102
}
  0
BLOCK_RECORD
  5
258
330
1
100
AcDbSymbolTableRecord
100
AcDbBlockTableRecord
  2
SW_CENTERMARKSYMBOL_1
340
0
102
{BLKREFS
331
263
102
}
  0
ENDTAB
  0
ENDSEC
  0
SECTION
  2
BLOCKS
  0
BLOCK
  5
20
330
1F
100
AcDbEntity
  8
0
100
AcDbBlockBegin
  2
*Model_Space
 70
     0
 10
0.0
 20
0.0
 30
0.0
  3
*Model_Space
  1

  0
ENDBLK
  5
21
330
1F
100
AcDbEntity
  8
0
100
AcDbBlockEnd
  0
BLOCK
  5
1C
330
1B
100
AcDbEntity
 67
     1
  8
0
100
AcDbBlockBegin
  2
*Paper_Space
 70
     0
 10
0.0
 20
0.0
 30
0.0
  3
*Paper_Space
  1

  0
ENDBLK
  5
1D
330
1B
100
AcDbEntity
 67
     1
  8
0
100
AcDbBlockEnd
  0
BLOCK
  5
24
330
23
100
AcDbEntity
  8
0
100
AcDbBlockBegin
  2
*Paper_Space0
 70
     0
 10
0.0
 20
0.0
 30
0.0
  3
*Paper_Space0
  1

  0
ENDBLK
  5
25
330
23
100
AcDbEntity
  8
0
100
AcDbBlockEnd
  0
BLOCK
  5
1C9
330
1C8
100
AcDbEntity
  8
0
100
AcDbBlockBegin
  2
SW_CENTERMARKSYMBOL_0
 70
     0
 10
0.0
 20
0.0
 30
0.0
  3
SW_CENTERMARKSYMBOL_0
  1

  0
LINE
  5
1CB
330
1C8
100
AcDbEntity
  8
FORMAT
 62
     0
100
AcDbLine
 10
0.0
 20
0.0
 30
0.0
 11
0.0
 21
2.5
 31
0.0
  0
LINE
  5
1CC
330
1C8
100
AcDbEntity
  8
FORMAT
 62
     0
100
AcDbLine
 10
0.0
 20
0.0
 30
0.0
 11
-2.5
 21
0.0
 31
0.0
  0
LINE
  5
1CD
330
1C8
100
AcDbEntity
  8
FORMAT
 62
     0
100
AcDbLine
 10
0.0
 20
0.0
 30
0.0
 11
0.0
 21
-2.5
 31
0.0
  0
LINE
  5
1CE
330
1C8
100
AcDbEntity
  8
FORMAT
 62
     0
100
AcDbLine
 10
0.0
 20
0.0
 30
0.0
 11
2.5
 21
0.0
 31
0.0
  0
LINE
  5
1CF
330
1C8
100
AcDbEntity
  8
FORMAT
 62
     0
100
AcDbLine
 10
0.0
 20
5.0
 30
0.0
 11
0.0
 21
30.4163217112
 31
0.0
  0
LINE
  5
1D0
330
1C8
100
AcDbEntity
  8
FORMAT
 62
     0
100
AcDbLine
 10
-5.0
 20
0.0
 30
0.0
 11
-10.75
 21
0.0
 31
0.0
  0
LINE
  5
1D1
330
1C8
100
AcDbEntity
  8
FORMAT
 62
     0
100
AcDbLine
 10
0.0
 20
-5.0
 30
0.0
 11
0.0
 21
-24.8450349021
 31
0.0
  0
LINE
  5
1D2
330
1C8
100
AcDbEntity
  8
FORMAT
 62
     0
100
AcDbLine
 10
5.0
 20
0.0
 30
0.0
 11
10.75
 21
0.0
 31
0.0
  0
ENDBLK
  5
1CA
330
1C8
100
AcDbEntity
  8
0
100
AcDbBlockEnd
  0
BLOCK
  5
259
330
258
100
AcDbEntity
  8
0
100
AcDbBlockBegin
  2
SW_CENTERMARKSYMBOL_1
 70
     0
 10
0.0
 20
0.0
 30
0.0
  3
SW_CENTERMARKSYMBOL_1
  1

  0
LINE
  5
25B
330
258
100
AcDbEntity
  8
FORMAT
 62
     0
100
AcDbLine
 10
0.0
 20
0.0
 30
0.0
 11
0.0
 21
2.5
 31
0.0
  0
LINE
  5
25C
330
258
100
AcDbEntity
  8
FORMAT
 62
     0
100
AcDbLine
 10
0.0
 20
0.0
 30
0.0
 11
-2.5
 21
0.0
 31
0.0
  0
LINE
  5
25D
330
258
100
AcDbEntity
  8
FORMAT
 62
     0
100
AcDbLine
 10
0.0
 20
0.0
 30
0.0
 11
0.0
 21
-2.5
 31
0.0
  0
LINE
  5
25E
330
258
100
AcDbEntity
  8
FORMAT
 62
     0
100
AcDbLine
 10
0.0
 20
0.0
 30
0.0
 11
2.5
 21
0.0
 31
0.0
  0
LINE
  5
25F
330
258
100
AcDbEntity
  8
FORMAT
 62
     0
100
AcDbLine
 10
0.0
 20
5.0
 30
0.0
 11
0.0
 21
9.95
 31
0.0
  0
LINE
  5
260
330
258
100
AcDbEntity
  8
FORMAT
 62
     0
100
AcDbLine
 10
-5.0
 20
0.0
 30
0.0
 11
-25.4280622535
 21
0.0
 31
0.0
  0
LINE
  5
261
330
258
100
AcDbEntity
  8
FORMAT
 62
     0
100
AcDbLine
 10
0.0
 20
-5.0
 30
0.0
 11
0.0
 21
-9.95
 31
0.0
  0
LINE
  5
262
330
258
100
AcDbEntity
  8
FORMAT
 62
     0
100
AcDbLine
 10
5.0
 20
0.0
 30
0.0
 11
41.5228082998
 21
0.0
 31
0.0
  0
ENDBLK
  5
25A
330
258
100
AcDbEntity
  8
0
100
AcDbBlockEnd
  0
ENDSEC
  0
SECTION
  2
ENTITIES
  0
MTEXT
  5
65
330
1F
100
AcDbEntity
  8
FORMAT
100
AcDbMText
 10
249.299273825
 20
145.4587774003
 30
0.0
 40
5.2916666667
 41
0.0
 71
     1
 72
     1
  1
エースボール　アングル型
  7
SLDTEXTSTYLE0
 73
     1
 44
1.0
  0
MTEXT
  5
66
330
1F
100
AcDbEntity
  8
FORMAT
100
AcDbMText
 10
249.299273825
 20
136.4032216022
 30
0.0
 40
5.2916666667
 41
0.0
 71
     1
 72
     1
  1
BS-3033R
  7
SLDTEXTSTYLE0
 73
     1
 44
1.0
  0
LINE
  5
67
330
1F
100
AcDbEntity
  8
0
  6
Continuous
 62
     7
370
    25
100
AcDbLine
 10
202.9760138981
 20
100.6756663359
 30
0.0
 11
199.9760138981
 21
100.6756663359
 31
0.0
  0
LINE
  5
68
330
1F
100
AcDbEntity
  8
0
  6
Continuous
 62
     7
370
    25
100
AcDbLine
 10
199.9760138981
 20
83.6756663359
 30
0.0
 11
202.9760138981
 21
83.6756663359
 31
0.0
  0
LINE
  5
69
330
1F
100
AcDbEntity
  8
0
  6
Continuous
 62
     7
370
    25
100
AcDbLine
 10
199.9760138981
 20
100.5066663359
 30
0.0
 11
190.9760138981
 21
100.5066663359
 31
0.0
  0
LINE
  5
6A
330
1F
100
AcDbEntity
  8
0
  6
Continuous
 62
     7
370
    25
100
AcDbLine
 10
190.9760138981
 20
83.8446663359
 30
0.0
 11
199.9760138981
 21
83.8446663359
 31
0.0
  0
LINE
  5
6B
330
1F
100
AcDbEntity
  8
0
  6
Continuous
 62
     7
370
    25
100
AcDbLine
 10
190.9760138981
 20
100.5066663359
 30
0.0
 11
189.9760138981
 21
99.5066663359
 31
0.0
  0
LINE
  5
6C
330
1F
100
AcDbEntity
  8
0
  6
Continuous
 62
     7
370
    25
100
AcDbLine
 10
189.9760138981
 20
84.8446663359
 30
0.0
 11
190.9760138981
 21
83.8446663359
 31
0.0
  0
LINE
  5
6D
330
1F
100
AcDbEntity
  8
0
  6
Continuous
 62
     7
370
    25
100
AcDbLine
 10
225.6171451509
 20
82.4380620289
 30
0.0
 11
226.4760138981
 21
83.9256663359
 31
0.0
  0
LINE
  5
6E
330
1F
100
AcDbEntity
  8
0
  6
Continuous
 62
     7
370
    25
100
AcDbLine
 10
226.4760138981
 20
100.4256663359
 30
0.0
 11
225.6171451509
 21
101.913270643
 31
0.0
  0
LINE
  5
6F
330
1F
100
AcDbEntity
  8
0
  6
Continuous
 62
     7
370
    25
100
AcDbLine
 10
204.738409591
 20
80.8948524023
 30
0.0
 11
205.9840763981
 21
80.1756663359
 31
0.0
  0
LINE
  5
70
330
1F
100
AcDbEntity
  8
0
  6
Continuous
 62
     7
370
    25
100
AcDbLine
 10
222.9679513981
 20
80.1756663359
 30
0.0
 11
224.2136182051
 21
80.8948524023
 31
0.0
  0
LINE
  5
71
330
1F
100
AcDbEntity
  8
0
  6
Continuous
 62
     7
370
    25
100
AcDbLine
 10
205.9840763981
 20
80.1756663359
 30
0.0
 11
206.2786417283
 21
70.7495757696
 31
0.0
  0
LINE
  5
72
330
1F
100
AcDbEntity
  8
0
  6
Continuous
 62
     7
370
    25
100
AcDbLine
 10
222.6733860679
 20
70.7495757696
 30
0.0
 11
222.9679513981
 21
80.1756663359
 31
0.0
  0
LINE
  5
73
330
1F
100
AcDbEntity
  8
0
  6
Continuous
 62
     7
370
    25
100
AcDbLine
 10
206.2786417283
 20
70.7495757696
 30
0.0
 11
207.4760138981
 21
68.6756663359
 31
0.0
  0
LINE
  5
74
330
1F
100
AcDbEntity
  8
0
  6
Continuous
 62
     7
370
    25
100
AcDbLine
 10
221.4760138981
 20
68.6756663359
 30
0.0
 11
222.6733860679
 21
70.7495757696
 31
0.0
  0
SPLINE
  5
75
330
1F
100
AcDbEntity
  8
0
  6
Continuous
 62
     7
370
    25
100
AcDbSpline
210
0.0
220
0.0
230
1.0
 70
     8
 71
     3
 72
    12
 73
     8
 74
     0
 42
0.00000001
 43
0.00000001
 40
0.0
 40
0.0
 40
0.0
 40
0.0
 40
0.0914751785208005
 40
0.3586764773966344
 40
0.6333293707862004
 40
0.9108172504350968
 40
1.0
 40
1.0
 40
1.0
 40
1.0
 10
208.5853922899746
 20
101.6754874300405
 30
0.0
 10
208.5869567883984
 20
101.6515568986601
 30
0.0
 10
208.5930912260962
 20
101.5577246827896
 30
0.0
 10
208.5605022653095
 20
101.3921349538441
 30
0.0
 10
208.4820406906809
 20
101.1927835622603
 30
0.0
 10
208.392755574764
 20
101.0465625773637
 30
0.0
 10
208.3215471348699
 20
100.9819267763934
 30
0.0
 10
208.3042276007812
 20
100.9662058596044
 30
0.0
  0
SPLINE
  5
76
330
1F
100
AcDbEntity
  8
0
  6
Continuous
 62
     7
370
    25
100
AcDbSpline
210
0.0
220
0.0
230
1.0
 70
     8
 71
     3
 72
    12
 73
     8
 74
     0
 42
0.00000001
 43
0.00000001
 40
0.0
 40
0.0
 40
0.0
 40
0.0
 40
0.1024700194535434
 40
0.4109842917342695
 40
0.689601098908704
 40
0.9443199173811543
 40
1.0
 40
1.0
 40
1.0
 40
1.0
 10
220.6620196659342
 20
100.9818440391129
 30
0.0
 10
220.6427853826397
 20
100.9995942542956
 30
0.0
 10
220.5656409813898
 20
101.0707863908239
 30
0.0
 10
220.4739928816801
 20
101.2254216483812
 30
0.0
 10
220.4009227501538
 20
101.4268872639686
 30
0.0
 10
220.3729064860545
 20
101.5769925664099
 30
0.0
 10
220.3774378281212
 20
101.6560785744473
 30
0.0
 10
220.3782506708851
 20
101.670265207989
 30
0.0
  0
LINE
  5
77
330
1F
100
AcDbEntity
  8
0
  6
Continuous
 62
     7
370
    25
100
AcDbLine
 10
220.3760138981
 20
101.6711355158
 30
0.0
 11
220.3760138981
 21
102.6756663359
 31
0.0
  0
LINE
  5
78
330
1F
100
AcDbEntity
  8
0
  6
Continuous
 62
     7
370
    25
100
AcDbLine
 10
208.5760138981
 20
102.6756663359
 30
0.0
 11
208.5760138981
 21
101.6756663359
 31
0.0
  0
LINE
  5
79
330
1F
100
AcDbEntity
  8
0
  6
Continuous
 62
     7
370
    25
100
AcDbLine
 10
221.1905450779
 20
101.913270643
 30
0.0
 11
220.6461808054
 21
100.9704040652
 31
0.0
  0
LINE
  5
7A
330
1F
100
AcDbEntity
  8
0
  6
Continuous
 62
     7
370
    25
100
AcDbLine
 10
208.3058469907
 20
100.9704040652
 30
0.0
 11
207.7614827182
 21
101.913270643
 31
0.0
  0
LINE
  5
7B
330
1F
100
AcDbEntity
  8
0
  6
Continuous
 62
     7
370
    25
100
AcDbLine
 10
203.6905450779
 20
101.913270643
 30
0.0
 11
202.9760138981
 21
100.6756663359
 31
0.0
  0
LINE
  5
7C
330
1F
100
AcDbEntity
  8
0
  6
Continuous
 62
     7
370
    25
100
AcDbLine
 10
202.9760138981
 20
83.6756663359
 30
0.0
 11
203.6905450779
 21
82.4380620289
 31
0.0
  0
LINE
  5
7D
330
1F
100
AcDbEntity
  8
0
  6
Continuous
 62
     7
370
    25
100
AcDbLine
 10
224.2136182051
 20
82.4380620289
 30
0.0
 11
225.6197132064
 21
82.4380620289
 31
0.0
  0
LINE
  5
7E
330
1F
100
AcDbEntity
  8
0
  6
Continuous
 62
     7
370
    25
100
AcDbLine
 10
225.6197132064
 20
101.913270643
 30
0.0
 11
221.1879770224
 21
101.913270643
 31
0.0
  0
LINE
  5
7F
330
1F
100
AcDbEntity
  8
0
  6
Continuous
 62
     7
370
    25
100
AcDbLine
 10
224.2136182051
 20
80.892292021
 30
0.0
 11
224.2136182051
 21
82.4380620289
 31
0.0
  0
LINE
  5
80
330
1F
100
AcDbEntity
  8
0
  6
Continuous
 62
     7
370
    25
100
AcDbLine
 10
207.7640507737
 20
101.913270643
 30
0.0
 11
203.6879846966
 21
101.913270643
 31
0.0
  0
LINE
  5
81
330
1F
100
AcDbEntity
  8
0
  6
Continuous
 62
     7
370
    25
100
AcDbLine
 10
204.738409591
 20
82.4380620289
 30
0.0
 11
204.738409591
 21
80.892292021
 31
0.0
  0
LINE
  5
82
330
1F
100
AcDbEntity
  8
0
  6
Continuous
 62
     7
370
    25
100
AcDbLine
 10
203.6879846966
 20
82.4380620289
 30
0.0
 11
204.738409591
 21
82.4380620289
 31
0.0
  0
LINE
  5
83
330
1F
100
AcDbEntity
  8
0
  6
Continuous
 62
     7
370
    25
100
AcDbLine
 10
208.9760138981
 20
118.6756663359
 30
0.0
 11
207.0260138981
 21
110.6756663359
 31
0.0
  0
LINE
  5
84
330
1F
100
AcDbEntity
  8
0
  6
Continuous
 62
     7
370
    25
100
AcDbLine
 10
207.0260138981
 20
110.6756663359
 30
0.0
 11
207.4760138981
 21
102.6756663359
 31
0.0
  0
LINE
  5
85
330
1F
100
AcDbEntity
  8
0
  6
Continuous
 62
     7
370
    25
100
AcDbLine
 10
221.4760138981
 20
102.6756663359
 30
0.0
 11
221.5466705238
 21
103.9317841272
 31
0.0
  0
LINE
  5
86
330
1F
100
AcDbEntity
  8
0
  6
Continuous
 62
     7
370
    25
100
AcDbLine
 10
220.2292454326
 20
117.6367677327
 30
0.0
 11
219.976013898
 21
118.6756663359
 31
0.0
  0
LINE
  5
87
330
1F
100
AcDbEntity
  8
0
  6
Continuous
 62
     7
370
    25
100
AcDbLine
 10
202.9760138981
 20
88.9197497674
 30
0.0
 11
202.9760138981
 21
100.6756663359
 31
0.0
  0
LINE
  5
88
330
1F
100
AcDbEntity
  8
0
  6
Continuous
 62
     7
370
    25
100
AcDbLine
 10
202.9760138981
 20
83.6756663359
 30
0.0
 11
202.9760138981
 21
88.9197497674
 31
0.0
  0
LINE
  5
89
330
1F
100
AcDbEntity
  8
0
  6
Continuous
 62
     7
370
    25
100
AcDbLine
 10
199.9760138981
 20
88.9197497674
 30
0.0
 11
199.9760138981
 21
100.6756663359
 31
0.0
  0
LINE
  5
8A
330
1F
100
AcDbEntity
  8
0
  6
Continuous
 62
     7
370
    25
100
AcDbLine
 10
199.9760138981
 20
83.6756663359
 30
0.0
 11
199.9760138981
 21
88.9197497674
 31
0.0
  0
LINE
  5
8B
330
1F
100
AcDbEntity
  8
0
  6
Continuous
 62
     7
370
    25
100
AcDbLine
 10
190.9760138981
 20
88.9844850498
 30
0.0
 11
190.9760138981
 21
83.8446663359
 31
0.0
  0
LINE
  5
8C
330
1F
100
AcDbEntity
  8
0
  6
Continuous
 62
     7
370
    25
100
AcDbLine
 10
190.9760138981
 20
100.5066663359
 30
0.0
 11
190.9760138981
 21
88.9844850498
 31
0.0
  0
LINE
  5
8D
330
1F
100
AcDbEntity
  8
0
  6
Continuous
 62
     7
370
    25
100
AcDbLine
 10
189.9760138981
 20
89.3675340578
 30
0.0
 11
189.9760138981
 21
99.5066663359
 31
0.0
  0
LINE
  5
8E
330
1F
100
AcDbEntity
  8
0
  6
Continuous
 62
     7
370
    25
100
AcDbLine
 10
189.9760138981
 20
84.8446663359
 30
0.0
 11
189.9760138981
 21
89.3675340578
 31
0.0
  0
SPLINE
  5
8F
330
1F
100
AcDbEntity
  8
0
  6
Continuous
 62
     7
370
    25
100
AcDbSpline
210
0.0
220
0.0
230
1.0
 70
     8
 71
     3
 72
     8
 73
     4
 74
     0
 42
0.00000001
 43
0.00000001
 40
0.0
 40
0.0
 40
0.0
 40
0.0
 40
1.0
 40
1.0
 40
1.0
 40
1.0
 10
209.8572117445364
 20
84.20926979607441
 30
0.0
 10
210.0623975670797
 20
84.26583076319862
 30
0.0
 10
210.268620767787
 20
84.31977083461246
 30
0.0
 10
210.4760138980534
 20
84.37075512435543
 30
0.0
  0
LINE
  5
90
330
1F
100
AcDbEntity
  8
0
  6
Continuous
 62
     7
370
    25
100
AcDbLine
 10
210.4760138981
 20
84.3707551244
 30
0.0
 11
210.4760138981
 21
88.1756663359
 31
0.0
  0
LINE
  5
91
330
1F
100
AcDbEntity
  8
0
  6
Continuous
 62
     7
370
    25
100
AcDbLine
 10
210.4760138981
 20
88.1756663359
 30
0.0
 11
207.9597778211
 21
88.1756663359
 31
0.0
  0
SPLINE
  5
92
330
1F
100
AcDbEntity
  8
0
  6
Continuous
 62
     7
370
    25
100
AcDbSpline
210
0.0
220
0.0
230
1.0
 70
     8
 71
     3
 72
     8
 73
     4
 74
     0
 42
0.00000001
 43
0.00000001
 40
0.0
 40
0.0
 40
0.0
 40
0.0
 40
1.0
 40
1.0
 40
1.0
 40
1.0
 10
207.7982924927932
 20
87.55686418241235
 30
0.0
 10
207.8548558622615
 20
87.76205871992212
 30
0.0
 10
207.9087957850827
 20
87.9682823734393
 30
0.0
 10
207.9597778210743
 20
88.17566633592939
 30
0.0
  0
LINE
  5
93
330
1F
100
AcDbEntity
  8
0
  6
Continuous
 62
     7
370
    25
100
AcDbLine
 10
203.6537353033
 20
87.5568641824
 30
0.0
 11
207.7982924928
 21
87.5568641824
 31
0.0
  0
SPLINE
  5
94
330
1F
100
AcDbEntity
  8
0
  6
Continuous
 62
     7
370
    25
100
AcDbSpline
210
0.0
220
0.0
230
1.0
 70
     8
 71
     3
 72
    10
 73
     6
 74
     0
 42
0.00000001
 43
0.00000001
 40
0.0
 40
0.0
 40
0.0
 40
0.0
 40
0.5
 40
0.5
 40
1.0
 40
1.0
 40
1.0
 40
1.0
 10
203.6537353033136
 20
87.55686418241238
 30
0.0
 10
203.4456666270824
 20
88.31167345546167
 30
0.0
 10
203.2752676210578
 20
89.07241984269356
 30
0.0
 10
203.040107641359
 20
90.61056222031684
 30
0.0
 10
202.9760138980534
 20
91.38806337284166
 30
0.0
 10
202.9760138980534
 20
92.17566633592939
 30
0.0
  0
SPLINE
  5
95
330
1F
100
AcDbEntity
  8
0
  6
Continuous
 62
     7
370
    25
100
AcDbSpline
210
0.0
220
0.0
230
1.0
 70
     8
 71
     3
 72
    12
 73
     8
 74
     0
 42
0.00000001
 43
0.00000001
 40
0.0
 40
0.0
 40
0.0
 40
0.0
 40
0.2500000000000001
 40
0.2500000000000001
 40
0.5000000000000001
 40
0.5000000000000001
 40
1.0
 40
1.0
 40
1.0
 40
1.0
 10
202.9760138980534
 20
92.17566633592939
 30
0.0
 10
202.9760138980534
 20
92.56998441660123
 30
0.0
 10
202.9920127030345
 20
92.96364346055168
 30
0.0
 10
203.0537828413489
 20
93.74317946009701
 30
0.0
 10
203.0995249656505
 20
94.13013264822244
 30
0.0
 10
203.2761951129973
 20
95.28351921107644
 30
0.0
 10
203.4464501784776
 20
96.04250170028148
 30
0.0
 10
203.6537353033136
 20
96.7944684894464
 30
0.0
  0
LINE
  5
96
330
1F
100
AcDbEntity
  8
0
  6
Continuous
 62
     7
370
    25
100
AcDbLine
 10
207.7982924928
 20
96.7944684894
 30
0.0
 11
203.6537353033
 21
96.7944684894
 31
0.0
  0
SPLINE
  5
97
330
1F
100
AcDbEntity
  8
0
  6
Continuous
 62
     7
370
    25
100
AcDbSpline
210
0.0
220
0.0
230
1.0
 70
     8
 71
     3
 72
     8
 73
     4
 74
     0
 42
0.00000001
 43
0.00000001
 40
0.0
 40
0.0
 40
0.0
 40
0.0
 40
1.0
 40
1.0
 40
1.0
 40
1.0
 10
207.9597778210743
 20
96.1756663359294
 30
0.0
 10
207.9088791041517
 20
96.3827113743584
 30
0.0
 10
207.854944967901
 20
96.58895070403503
 30
0.0
 10
207.7982924927932
 20
96.7944684894464
 30
0.0
  0
LINE
  5
98
330
1F
100
AcDbEntity
  8
0
  6
Continuous
 62
     7
370
    25
100
AcDbLine
 10
220.992249975
 20
96.1756663359
 30
0.0
 11
207.9597778211
 21
96.1756663359
 31
0.0
  0
SPLINE
  5
99
330
1F
100
AcDbEntity
  8
0
  6
Continuous
 62
     7
370
    25
100
AcDbSpline
210
0.0
220
0.0
230
1.0
 70
     8
 71
     3
 72
     8
 73
     4
 74
     0
 42
0.00000001
 43
0.00000001
 40
0.0
 40
0.0
 40
0.0
 40
0.0
 40
1.0
 40
1.0
 40
1.0
 40
1.0
 10
220.9922499750326
 20
96.17566633592948
 30
0.0
 10
221.0431462082877
 20
96.38270127133322
 30
0.0
 10
221.0970801632513
 20
96.58894103639821
 30
0.0
 10
221.1537353033136
 20
96.79446848944642
 30
0.0
  0
LINE
  5
9A
330
1F
100
AcDbEntity
  8
0
  6
Continuous
 62
     7
370
    25
100
AcDbLine
 10
225.6539549255
 20
96.7944684894
 30
0.0
 11
221.1537353033
 21
96.7944684894
 31
0.0
  0
SPLINE
  5
9B
330
1F
100
AcDbEntity
  8
0
  6
Continuous
 62
     7
370
    25
100
AcDbSpline
210
0.0
220
0.0
230
1.0
 70
     8
 71
     3
 72
    14
 73
    10
 74
     0
 42
0.00000001
 43
0.00000001
 40
0.0
 40
0.0
 40
0.0
 40
0.0
 40
0.25
 40
0.25
 40
0.5
 40
0.5
 40
0.75
 40
0.75
 40
1.0
 40
1.0
 40
1.0
 40
1.0
 10
225.6539549254958
 20
87.55686418241234
 30
0.0
 10
225.8619052862016
 20
88.31124424306233
 30
0.0
 10
226.0341270948905
 20
89.08068541052782
 30
0.0
 10
226.2687622176414
 20
90.62119677146899
 30
0.0
 10
226.331706276269
 20
91.396051151476
 30
0.0
 10
226.3316463635376
 20
92.95641210636155
 30
0.0
 10
226.2670316972455
 20
93.7468682991466
 30
0.0
 10
226.0304723578442
 20
95.28914796195507
 30
0.0
 10
225.8601272177648
 20
96.04653871515626
 30
0.0
 10
225.6539549254958
 20
96.7944684894464
 30
0.0
  0
LINE
  5
9C
330
1F
100
AcDbEntity
  8
0
  6
Continuous
 62
     7
370
    25
100
AcDbLine
 10
221.1537353033
 20
87.5568641824
 30
0.0
 11
225.6539549255
 21
87.5568641824
 31
0.0
  0
SPLINE
  5
9D
330
1F
100
AcDbEntity
  8
0
  6
Continuous
 62
     7
370
    25
100
AcDbSpline
210
0.0
220
0.0
230
1.0
 70
     8
 71
     3
 72
     8
 73
     4
 74
     0
 42
0.00000001
 43
0.00000001
 40
0.0
 40
0.0
 40
0.0
 40
0.0
 40
1.0
 40
1.0
 40
1.0
 40
1.0
 10
221.1537353033136
 20
87.55686418241235
 30
0.0
 10
221.0971734598766
 20
87.76205318394918
 30
0.0
 10
221.0432334426203
 20
87.96827655001388
 30
0.0
 10
220.9922499750326
 20
88.17566633592934
 30
0.0
  0
LINE
  5
9E
330
1F
100
AcDbEntity
  8
0
  6
Continuous
 62
     7
370
    25
100
AcDbLine
 10
220.992249975
 20
88.1756663359
 30
0.0
 11
218.4760138981
 21
88.1756663359
 31
0.0
  0
LINE
  5
9F
330
1F
100
AcDbEntity
  8
0
  6
Continuous
 62
     7
370
    25
100
AcDbLine
 10
218.4760138981
 20
84.3707551244
 30
0.0
 11
218.4760138981
 21
88.1756663359
 31
0.0
  0
SPLINE
  5
A0
330
1F
100
AcDbEntity
  8
0
  6
Continuous
 62
     7
370
    25
100
AcDbSpline
210
0.0
220
0.0
230
1.0
 70
     8
 71
     3
 72
     8
 73
     4
 74
     0
 42
0.00000001
 43
0.00000001
 40
0.0
 40
0.0
 40
0.0
 40
0.0
 40
1.0
 40
1.0
 40
1.0
 40
1.0
 10
218.4760138980534
 20
84.37075512435543
 30
0.0
 10
218.6830429613888
 20
84.31986033465459
 30
0.0
 10
218.8892829786581
 20
84.26592648529316
 30
0.0
 10
219.0948160515704
 20
84.2092697960744
 30
0.0
  0
LINE
  5
A1
330
1F
100
AcDbEntity
  8
0
  6
Continuous
 62
     7
370
    25
100
AcDbLine
 10
219.0948160516
 20
80.8580426277
 30
0.0
 11
219.0948160516
 21
84.2092697961
 31
0.0
  0
SPLINE
  5
A2
330
1F
100
AcDbEntity
  8
0
  6
Continuous
 62
     7
370
    25
100
AcDbSpline
210
0.0
220
0.0
230
1.0
 70
     8
 71
     3
 72
    14
 73
    10
 74
     0
 42
0.00000001
 43
0.00000001
 40
0.0
 40
0.0
 40
0.0
 40
0.0
 40
0.4999999999999999
 40
0.4999999999999999
 40
0.6249999999999999
 40
0.6249999999999999
 40
0.7499999999999998
 40
0.7499999999999998
 40
1.0
 40
1.0
 40
1.0
 40
1.0
 10
209.8572117445364
 20
80.85804262773493
 30
0.0
 10
211.355534669137
 20
80.44501899564693
 30
0.0
 10
212.8834347224841
 20
80.18171504864537
 30
0.0
 10
214.8579866342155
 20
80.17997987169565
 30
0.0
 10
215.2548535302426
 20
80.19578719197185
 30
0.0
 10
216.0380096097771
 20
80.25746529690345
 30
0.0
 10
216.4263800261344
 20
80.3032752959001
 30
0.0
 10
217.5830224545768
 20
80.48023183469857
 30
0.0
 10
218.3428567859697
 20
80.65075957682424
 30
0.0
 10
219.0948160515704
 20
80.85804262773492
 30
0.0
  0
LINE
  5
A3
330
1F
100
AcDbEntity
  8
0
  6
Continuous
 62
     7
370
    25
100
AcDbLine
 10
209.8572117445
 20
84.2092697961
 30
0.0
 11
209.8572117445
 21
80.8580426277
 31
0.0
  0
LINE
  5
A4
330
1F
100
AcDbEntity
  8
0
  6
Continuous
 62
     7
370
    25
100
AcDbLine
 10
213.5742549841
 20
90.7532933183
 30
0.0
 11
213.5326046648
 21
90.7294883885
 31
0.0
  0
ELLIPSE
  5
A5
330
1F
100
AcDbEntity
  8
0
  6
Continuous
 62
     7
370
    25
100
AcDbEllipse
 10
213.1837614853
 20
91.2841708597
 30
0.0
 11
0.678412947925267
 21
6.110667527536863E-13
 31
0.0
210
0.0
220
0.0
230
1.0
 40
0.9533039403
 41
3.470145824140271
 42
5.252469180536299
  0
LINE
  5
A6
330
1F
100
AcDbEntity
  8
0
  6
Continuous
 62
     7
370
    25
100
AcDbLine
 10
212.5416367183
 20
91.0754867447
 30
0.0
 11
211.2819825133
 21
94.5979311414
 31
0.0
  0
ELLIPSE
  5
A7
330
1F
100
AcDbEntity
  8
0
  6
Continuous
 62
     7
370
    25
100
AcDbEllipse
 10
210.6909999554
 20
94.3355919053
 30
0.0
 11
0.6519124952381786
 21
5.968558980384842E-13
 31
0.0
210
0.0
220
0.0
230
1.0
 40
0.9533023292
 41
0.4357905044355165
 42
2.705800116361521
  0
LINE
  5
A8
330
1F
100
AcDbEntity
  8
0
  6
Continuous
 62
     7
370
    25
100
AcDbLine
 10
210.1000179569
 20
94.5979322866
 30
0.0
 11
208.8406531552
 21
91.0763088849
 31
0.0
  0
ELLIPSE
  5
A9
330
1F
100
AcDbEntity
  8
0
  6
Continuous
 62
     7
370
    25
100
AcDbEllipse
 10
208.1985319712
 20
91.2849917186
 30
0.0
 11
-0.6784085062757583
 21
3.268496584496461E-13
 31
0.0
210
0.0
220
0.0
230
1.0
 40
0.9533122623
 41
1.047193771187968
 42
2.813042320199944
  0
LINE
  5
AA
330
1F
100
AcDbEntity
  8
0
  6
Continuous
 62
     7
370
    25
100
AcDbLine
 10
207.8593254973
 20
90.7249038733
 30
0.0
 11
207.8077449267
 21
90.7532933183
 31
0.0
  0
LINE
  5
AB
330
1F
100
AcDbEntity
  8
0
  6
Continuous
 62
     7
370
    25
100
AcDbLine
 10
207.8077449267
 20
90.7532933183
 30
0.0
 11
208.6040135863
 21
89.2351212169
 31
0.0
  0
ELLIPSE
  5
AC
330
1F
100
AcDbEntity
  8
0
  6
Continuous
 62
     7
370
    25
100
AcDbEllipse
 10
208.6798624597
 20
89.2712747319
 30
0.0
 11
0.08480161849064416
 21
-2.842170943040401E-14
 31
0.0
210
0.0
220
0.0
230
1.0
 40
0.9533039403
 41
3.605240262590848
 42
5.462183310215358
  0
ELLIPSE
  5
AD
330
1F
100
AcDbEntity
  8
0
  6
Continuous
 62
     7
370
    25
100
AcDbEllipse
 10
210.6909999554
 20
87.2124261113
 30
0.0
 11
2.866293551216216
 21
-1.492139745096210E-12
 31
0.0
210
0.0
220
0.0
230
1.0
 40
0.9533046568
 41
0.8210016221243792
 42
2.320591031466436
  0
ELLIPSE
  5
AE
330
1F
100
AcDbEntity
  8
0
  6
Continuous
 62
     7
370
    25
100
AcDbEllipse
 10
212.7021374511
 20
89.2712747319
 30
0.0
 11
0.08480161849061574
 21
0.0
 31
0.0
210
0.0
220
0.0
230
1.0
 40
0.9533039403
 41
3.962594650556611
 42
5.819537698177178
  0
LINE
  5
AF
330
1F
100
AcDbEntity
  8
0
  6
Continuous
 62
     7
370
    25
100
AcDbLine
 10
212.7779863245
 20
89.2351212169
 30
0.0
 11
213.5742549841
 21
90.7532933183
 31
0.0
  0
ARC
  5
B0
330
1F
100
AcDbEntity
  8
0
  6
Continuous
 62
     7
370
    25
100
AcDbCircle
 10
219.3688898501
 20
91.5987473426
 30
0.0
 40
0.8889999999999667
100
AcDbArc
 50
45.0
 51
159.0751675724
  0
LINE
  5
B1
330
1F
100
AcDbEntity
  8
0
  6
Continuous
 62
     7
370
    25
100
AcDbLine
 10
219.9975077786
 20
92.2273652711
 30
0.0
 11
220.4641181642
 21
92.6939756567
 31
0.0
  0
ARC
  5
B2
330
1F
100
AcDbEntity
  8
0
  6
Continuous
 62
     7
370
    25
100
AcDbCircle
 10
219.3688898501
 20
91.5987473426
 30
0.0
 40
1.548886735692384
100
AcDbArc
 50
45.0
 51
315.0
  0
LINE
  5
B3
330
1F
100
AcDbEntity
  8
0
  6
Continuous
 62
     7
370
    25
100
AcDbLine
 10
220.4641181642
 20
90.5035190285
 30
0.0
 11
219.9975077786
 21
90.9701294141
 31
0.0
  0
ARC
  5
B4
330
1F
100
AcDbEntity
  8
0
  6
Continuous
 62
     7
370
    25
100
AcDbCircle
 10
219.3688898501
 20
91.5987473426
 30
0.0
 40
0.8890000000000191
100
AcDbArc
 50
200.9248324276
 51
315.0
  0
LINE
  5
B5
330
1F
100
AcDbEntity
  8
0
  6
Continuous
 62
     7
370
    25
100
AcDbLine
 10
218.5385196014
 20
91.2812473426
 30
0.0
 11
220.4641181642
 21
91.2812473426
 31
0.0
  0
LINE
  5
B6
330
1F
100
AcDbEntity
  8
0
  6
Continuous
 62
     7
370
    25
100
AcDbLine
 10
220.4641181642
 20
91.2812473426
 30
0.0
 11
220.4641181642
 21
91.9162473426
 31
0.0
  0
LINE
  5
B7
330
1F
100
AcDbEntity
  8
0
  6
Continuous
 62
     7
370
    25
100
AcDbLine
 10
220.4641181642
 20
91.9162473426
 30
0.0
 11
218.5385196014
 21
91.9162473426
 31
0.0
  0
ARC
  5
B8
330
1F
100
AcDbEntity
  8
0
  6
Continuous
 62
     7
370
    25
100
AcDbCircle
 10
216.0267452538
 20
91.5987473426
 30
0.0
 40
0.889000000000007
100
AcDbArc
 50
45.0
 51
315.0
  0
LINE
  5
B9
330
1F
100
AcDbEntity
  8
0
  6
Continuous
 62
     7
370
    25
100
AcDbLine
 10
216.6553631822
 20
92.2273652711
 30
0.0
 11
217.1219735679
 21
92.6939756567
 31
0.0
  0
ARC
  5
BA
330
1F
100
AcDbEntity
  8
0
  6
Continuous
 62
     7
370
    25
100
AcDbCircle
 10
216.0267452538
 20
91.5987473426
 30
0.0
 40
1.548886735692394
100
AcDbArc
 50
45.0
 51
315.0
  0
LINE
  5
BB
330
1F
100
AcDbEntity
  8
0
  6
Continuous
 62
     7
370
    25
100
AcDbLine
 10
217.1219735679
 20
90.5035190285
 30
0.0
 11
216.6553631822
 21
90.9701294141
 31
0.0
  0
SPLINE
  5
BC
330
1F
100
AcDbEntity
  8
0
  6
Continuous
 62
     7
370
    25
100
AcDbSpline
210
0.0
220
0.0
230
1.0
 70
     8
 71
     3
 72
    10
 73
     6
 74
     0
 42
0.00000001
 43
0.00000001
 40
0.0
 40
0.0
 40
0.0
 40
0.0
 40
0.5
 40
0.5
 40
1.0
 40
1.0
 40
1.0
 40
1.0
 10
225.6539549254957
 20
87.55686418241238
 30
0.0
 10
225.6302795310713
 20
87.47097712060993
 30
0.0
 10
225.6171884211868
 20
87.38356991162979
 30
0.0
 10
225.6171020998985
 20
87.23093346903607
 30
0.0
 10
225.6302710338423
 20
87.16681042409049
 30
0.0
 10
225.6539549254958
 20
87.12385148052017
 30
0.0
  0
SPLINE
  5
BD
330
1F
100
AcDbEntity
  8
0
  6
Continuous
 62
     7
370
    25
100
AcDbSpline
210
0.0
220
0.0
230
1.0
 70
     8
 71
     3
 72
    10
 73
     6
 74
     0
 42
0.00000001
 43
0.00000001
 40
0.0
 40
0.0
 40
0.0
 40
0.0
 40
0.5
 40
0.5
 40
1.0
 40
1.0
 40
1.0
 40
1.0
 10
225.6539549254958
 20
97.22748119133863
 30
0.0
 10
225.6302795310714
 20
97.1845376604374
 30
0.0
 10
225.6171884211868
 20
97.12109521581327
 30
0.0
 10
225.6171020998985
 20
96.9686163786943
 30
0.0
 10
225.6302710338423
 20
96.88038637658704
 30
0.0
 10
225.6539549254958
 20
96.7944684894464
 30
0.0
  0
SPLINE
  5
BE
330
1F
100
AcDbEntity
  8
0
  6
Continuous
 62
     7
370
    25
100
AcDbSpline
210
0.0
220
0.0
230
1.0
 70
     8
 71
     3
 72
    16
 73
    12
 74
     0
 42
0.00000001
 43
0.00000001
 40
0.0
 40
0.0
 40
0.0
 40
0.0
 40
0.2500000000000001
 40
0.2500000000000001
 40
0.5000000000000001
 40
0.5000000000000001
 40
0.6250000000000001
 40
0.6250000000000001
 40
0.7500000000000002
 40
0.7500000000000002
 40
1.0
 40
1.0
 40
1.0
 40
1.0
 10
225.6539549254958
 20
101.8462833448556
 30
0.0
 10
225.8619703736016
 20
101.4689752559791
 30
0.0
 10
226.0321766785746
 20
101.0889515256049
 30
0.0
 10
226.2671127101422
 20
100.3213282101942
 30
0.0
 10
226.3311848418058
 20
99.93368139340545
 30
0.0
 10
226.3319177907268
 20
99.3453608415176
 30
0.0
 10
226.3162583106438
 20
99.14828764896195
 30
0.0
 10
226.2549831840068
 20
98.75823067140784
 30
0.0
 10
226.2094269115077
 20
98.56443777081982
 30
0.0
 10
226.0329408787514
 20
97.98635678605638
 30
0.0
 10
225.8622844252657
 20
97.60535892172156
 30
0.0
 10
225.6539549254958
 20
97.22748119133863
 30
0.0
  0
SPLINE
  5
BF
330
1F
100
AcDbEntity
  8
0
  6
Continuous
 62
     7
370
    25
100
AcDbSpline
210
0.0
220
0.0
230
1.0
 70
     8
 71
     3
 72
    10
 73
     6
 74
     0
 42
0.00000001
 43
0.00000001
 40
0.0
 40
0.0
 40
0.0
 40
0.0
 40
0.16017905529231
 40
0.7197651707804202
 40
1.0
 40
1.0
 40
1.0
 40
1.0
 10
225.6197254923789
 20
101.9085616236054
 30
0.0
 10
225.6189627022856
 20
101.9099538516318
 30
0.0
 10
225.6155351022119
 20
101.9162098333601
 30
0.0
 10
225.6300425670102
 20
101.8897025686322
 30
0.0
 10
225.6479721201281
 20
101.857146713487
 30
0.0
 10
225.6539549254958
 20
101.8462833448556
 30
0.0
  0
SPLINE
  5
C0
330
1F
100
AcDbEntity
  8
0
  6
Continuous
 62
     7
370
    25
100
AcDbSpline
210
0.0
220
0.0
230
1.0
 70
     8
 71
     3
 72
     9
 73
     5
 74
     0
 42
0.00000001
 43
0.00000001
 40
0.0
 40
0.0
 40
0.0
 40
0.0
 40
0.5797912171255051
 40
1.0
 40
1.0
 40
1.0
 40
1.0
 10
225.6539549254958
 20
82.50504932700318
 30
0.0
 10
225.6415963221493
 20
82.48257567876203
 30
0.0
 10
225.6202807123549
 20
82.4438140563412
 30
0.0
 10
225.6198897698522
 20
82.443079651583
 30
0.0
 10
225.6197254923789
 20
82.44277104825342
 30
0.0
  0
SPLINE
  5
C1
330
1F
100
AcDbEntity
  8
0
  6
Continuous
 62
     7
370
    25
100
AcDbSpline
210
0.0
220
0.0
230
1.0
 70
     8
 71
     3
 72
    16
 73
    12
 74
     0
 42
0.00000001
 43
0.00000001
 40
0.0
 40
0.0
 40
0.0
 40
0.0
 40
0.2500000000000001
 40
0.2500000000000001
 40
0.5000000000000002
 40
0.5000000000000002
 40
0.6250000000000001
 40
0.6250000000000001
 40
0.7500000000000001
 40
0.7500000000000001
 40
1.0
 40
1.0
 40
1.0
 40
1.0
 10
225.6539549254958
 20
87.12385148052019
 30
0.0
 10
225.8619703736016
 20
86.74654339164367
 30
0.0
 10
226.0321766785746
 20
86.36651966126948
 30
0.0
 10
226.2671127101422
 20
85.59889634585878
 30
0.0
 10
226.3311848418058
 20
85.21124952906999
 30
0.0
 10
226.3319177907268
 20
84.62292897718213
 30
0.0
 10
226.3162583106438
 20
84.42585578462648
 30
0.0
 10
226.2549831840068
 20
84.0357988070724
 30
0.0
 10
226.2094269115077
 20
83.84200590648435
 30
0.0
 10
226.0329408787514
 20
83.26392492172093
 30
0.0
 10
225.8622844252657
 20
82.8829270573861
 30
0.0
 10
225.6539549254958
 20
82.50504932700318
 30
0.0
  0
LINE
  5
C2
330
1F
100
AcDbEntity
  8
0
  6
Continuous
 62
     7
370
    25
100
AcDbLine
 10
226.4760138981
 20
100.4256663359
 30
0.0
 11
226.4760138981
 21
83.9256663359
 31
0.0
  0
LINE
  5
C3
330
1F
100
AcDbEntity
  8
0
  6
Continuous
 62
     7
370
    25
100
AcDbLine
 10
225.6539549255
 20
87.1238514805
 30
0.0
 11
221.1537353033
 21
87.1238514805
 31
0.0
  0
SPLINE
  5
C4
330
1F
100
AcDbEntity
  8
0
  6
Continuous
 62
     7
370
    25
100
AcDbSpline
210
0.0
220
0.0
230
1.0
 70
     8
 71
     3
 72
    10
 73
     6
 74
     0
 42
0.00000001
 43
0.00000001
 40
0.0
 40
0.0
 40
0.0
 40
0.0
 40
0.5
 40
0.5
 40
1.0
 40
1.0
 40
1.0
 40
1.0
 10
221.1537353033103
 20
87.12385148052017
 30
0.0
 10
221.1774106977347
 20
87.16679501142133
 30
0.0
 10
221.1905018076226
 20
87.23023745604512
 30
0.0
 10
221.1905881289109
 20
87.38271629316421
 30
0.0
 10
221.1774191949671
 20
87.47094629527163
 30
0.0
 10
221.1537353033136
 20
87.55686418241237
 30
0.0
  0
SPLINE
  5
C5
330
1F
100
AcDbEntity
  8
0
  6
Continuous
 62
     7
370
    25
100
AcDbSpline
210
0.0
220
0.0
230
1.0
 70
     8
 71
     3
 72
    10
 73
     6
 74
     0
 42
0.00000001
 43
0.00000001
 40
0.0
 40
0.0
 40
0.0
 40
0.0
 40
0.5
 40
0.5
 40
1.0
 40
1.0
 40
1.0
 40
1.0
 10
221.1537353033136
 20
96.7944684894464
 30
0.0
 10
221.177410697738
 20
96.88035555124885
 30
0.0
 10
221.1905018076226
 20
96.96776276022896
 30
0.0
 10
221.1905881289109
 20
97.1203992028227
 30
0.0
 10
221.1774191949671
 20
97.18452224776827
 30
0.0
 10
221.1537353033136
 20
97.2274811913386
 30
0.0
  0
LINE
  5
C6
330
1F
100
AcDbEntity
  8
0
  6
Continuous
 62
     7
370
    25
100
AcDbLine
 10
221.1537353033
 20
97.2274811913
 30
0.0
 11
225.6539549255
 21
97.2274811913
 31
0.0
  0
LINE
  5
C7
330
1F
100
AcDbEntity
  8
0
  6
Continuous
 62
     7
370
    25
100
AcDbLine
 10
205.9840763981
 20
80.1756663359
 30
0.0
 11
222.9679513981
 21
80.1756663359
 31
0.0
  0
SPLINE
  5
C8
330
1F
100
AcDbEntity
  8
0
  6
Continuous
 62
     7
370
    25
100
AcDbSpline
210
0.0
220
0.0
230
1.0
 70
     8
 71
     3
 72
    10
 73
     6
 74
     0
 42
0.00000001
 43
0.00000001
 40
0.0
 40
0.0
 40
0.0
 40
0.0
 40
0.5
 40
0.5
 40
1.0
 40
1.0
 40
1.0
 40
1.0
 10
219.5278287534626
 20
80.85804262773492
 30
0.0
 10
219.4848909443634
 20
80.8817148676465
 30
0.0
 10
219.4214503544712
 20
80.89480885758175
 30
0.0
 10
219.2689612089624
 20
80.8948957250432
 30
0.0
 10
219.180731819759
 20
80.88172593528384
 30
0.0
 10
219.0948160515704
 20
80.85804262773492
 30
0.0
  0
SPLINE
  5
C9
330
1F
100
AcDbEntity
  8
0
  6
Continuous
 62
     7
370
    25
100
AcDbSpline
210
0.0
220
0.0
230
1.0
 70
     8
 71
     3
 72
    16
 73
    12
 74
     0
 42
0.00000001
 43
0.00000001
 40
0.0
 40
0.0
 40
0.0
 40
0.0
 40
0.2499999999999999
 40
0.2499999999999999
 40
0.4999999999999998
 40
0.4999999999999998
 40
0.6249999999999998
 40
0.6249999999999998
 40
0.7499999999999997
 40
0.7499999999999997
 40
1.0
 40
1.0
 40
1.0
 40
1.0
 10
219.5278287534626
 20
80.85804262773446
 30
0.0
 10
219.9055438011856
 20
80.64980281728582
 30
0.0
 10
220.2857015498116
 20
80.47962953087637
 30
0.0
 10
221.052794881703
 20
80.24490727126053
 30
0.0
 10
221.4397722390406
 20
80.18100929618606
 30
0.0
 10
222.0263230140653
 20
80.17998559409956
 30
0.0
 10
222.2234021739884
 20
80.19547214124425
 30
0.0
 10
222.6139313134966
 20
80.25659586270224
 30
0.0
 10
222.8079630171697
 20
80.30211758999727
 30
0.0
 10
223.3867670895907
 20
80.47861695374243
 30
0.0
 10
223.7682558237572
 20
80.64943893009625
 30
0.0
 10
224.1466309069797
 20
80.85804262773479
 30
0.0
  0
SPLINE
  5
CA
330
1F
100
AcDbEntity
  8
0
  6
Continuous
 62
     7
370
    25
100
AcDbSpline
210
0.0
220
0.0
230
1.0
 70
     8
 71
     3
 72
    10
 73
     6
 74
     0
 42
0.00000001
 43
0.00000001
 40
0.0
 40
0.0
 40
0.0
 40
0.0
 40
0.1593935213062963
 40
0.7189934545756893
 40
1.0
 40
1.0
 40
1.0
 40
1.0
 10
224.208922986446
 20
80.89227961731231
 30
0.0
 10
224.2103129052726
 20
80.89304114430978
 30
0.0
 10
224.2165825612194
 20
80.89647624582564
 30
0.0
 10
224.1900986193955
 20
80.88198162335902
 30
0.0
 10
224.1575212153488
 20
80.86404025286642
 30
0.0
 10
224.1466309069797
 20
80.85804262773493
 30
0.0
  0
SPLINE
  5
CB
330
1F
100
AcDbEntity
  8
0
  6
Continuous
 62
     7
370
    25
100
AcDbSpline
210
0.0
220
0.0
230
1.0
 70
     8
 71
     3
 72
     9
 73
     5
 74
     0
 42
0.00000001
 43
0.00000001
 40
0.0
 40
0.0
 40
0.0
 40
0.0
 40
0.5789479223912481
 40
1.0
 40
1.0
 40
1.0
 40
1.0
 10
204.8053968891272
 20
80.85804262773493
 30
0.0
 10
204.7829555219346
 20
80.87038351804934
 30
0.0
 10
204.74419319751
 20
80.89169958092324
 30
0.0
 10
204.7434272946509
 20
80.89210775483764
 30
0.0
 10
204.7431048096608
 20
80.89227961731231
 30
0.0
  0
SPLINE
  5
CC
330
1F
100
AcDbEntity
  8
0
  6
Continuous
 62
     7
370
    25
100
AcDbSpline
210
0.0
220
0.0
230
1.0
 70
     8
 71
     3
 72
    16
 73
    12
 74
     0
 42
0.00000001
 43
0.00000001
 40
0.0
 40
0.0
 40
0.0
 40
0.0
 40
0.2500000000000001
 40
0.2500000000000001
 40
0.5000000000000001
 40
0.5000000000000001
 40
0.6250000000000001
 40
0.6250000000000001
 40
0.7500000000000002
 40
0.7500000000000002
 40
1.0
 40
1.0
 40
1.0
 40
1.0
 10
204.8053968891271
 20
80.85804262773446
 30
0.0
 10
205.1831119368501
 20
80.64980281728582
 30
0.0
 10
205.5632696854761
 20
80.47962953087637
 30
0.0
 10
206.3303630173675
 20
80.24490727126052
 30
0.0
 10
206.7173403747051
 20
80.18100929618606
 30
0.0
 10
207.3038911497298
 20
80.17998559409956
 30
0.0
 10
207.5009703096529
 20
80.19547214124425
 30
0.0
 10
207.8914994491612
 20
80.25659586270224
 30
0.0
 10
208.0855311528342
 20
80.30211758999727
 30
0.0
 10
208.6643352252553
 20
80.47861695374243
 30
0.0
 10
209.0458239594218
 20
80.64943893009625
 30
0.0
 10
209.4241990426442
 20
80.85804262773479
 30
0.0
  0
SPLINE
  5
CD
330
1F
100
AcDbEntity
  8
0
  6
Continuous
 62
     7
370
    25
100
AcDbSpline
210
0.0
220
0.0
230
1.0
 70
     8
 71
     3
 72
    10
 73
     6
 74
     0
 42
0.00000001
 43
0.00000001
 40
0.0
 40
0.0
 40
0.0
 40
0.0
 40
0.5
 40
0.5
 40
1.0
 40
1.0
 40
1.0
 40
1.0
 10
209.8572117445364
 20
80.85804262773492
 30
0.0
 10
209.7713301020299
 20
80.8817165282909
 30
0.0
 10
209.6839208960645
 20
80.89480908547003
 30
0.0
 10
209.5312784109896
 20
80.8948954994523
 30
0.0
 10
209.4671554259072
 20
80.88172510785368
 30
0.0
 10
209.4241990426442
 20
80.85804262773492
 30
0.0
  0
SPLINE
  5
CE
330
1F
100
AcDbEntity
  8
0
  6
Continuous
 62
     7
370
    25
100
AcDbSpline
210
0.0
220
0.0
230
1.0
 70
     8
 71
     3
 72
     8
 73
     4
 74
     0
 42
0.00000001
 43
0.00000001
 40
0.0
 40
0.0
 40
0.0
 40
0.0
 40
1.0
 40
1.0
 40
1.0
 40
1.0
 10
220.8185758568673
 20
85.1756663359294
 30
0.0
 10
221.1410551837165
 20
85.08395204819494
 30
0.0
 10
221.4563729400405
 20
84.98729525912704
 30
0.0
 10
221.765390082688
 20
84.88629015129479
 30
0.0
  0
SPLINE
  5
CF
330
1F
100
AcDbEntity
  8
0
  6
Continuous
 62
     7
370
    25
100
AcDbSpline
210
0.0
220
0.0
230
1.0
 70
     8
 71
     3
 72
    10
 73
     6
 74
     0
 42
0.00000001
 43
0.00000001
 40
0.0
 40
0.0
 40
0.0
 40
0.0
 40
0.5
 40
0.5
 40
1.0
 40
1.0
 40
1.0
 40
1.0
 10
219.5278287534629
 20
84.20926979607454
 30
0.0
 10
219.8943467003035
 20
84.41133648162547
 30
0.0
 10
220.2634269257693
 20
84.57772925389612
 30
0.0
 10
221.0086792739967
 20
84.81177622776617
 30
0.0
 10
221.3848920459444
 20
84.878864481725
 30
0.0
 10
221.765390082688
 20
84.88629015129479
 30
0.0
  0
SPLINE
  5
D0
330
1F
100
AcDbEntity
  8
0
  6
Continuous
 62
     7
370
    25
100
AcDbSpline
210
0.0
220
0.0
230
1.0
 70
     8
 71
     3
 72
    10
 73
     6
 74
     0
 42
0.00000001
 43
0.00000001
 40
0.0
 40
0.0
 40
0.0
 40
0.0
 40
0.5
 40
0.5
 40
1.0
 40
1.0
 40
1.0
 40
1.0
 10
219.0948160515704
 20
84.20926979607438
 30
0.0
 10
219.1807031133729
 20
84.18559440164996
 30
0.0
 10
219.2681103223532
 20
84.17250329176534
 30
0.0
 10
219.420746764947
 20
84.17241697047712
 30
0.0
 10
219.4848698098928
 20
84.18558590442106
 30
0.0
 10
219.527828753463
 20
84.20926979607461
 30
0.0
  0
LINE
  5
D1
330
1F
100
AcDbEntity
  8
0
  6
Continuous
 62
     7
370
    25
100
AcDbLine
 10
220.4760138981
 20
99.5368822681
 30
0.0
 11
220.4760138981
 21
96.1756663359
 31
0.0
  0
SPLINE
  5
D2
330
1F
100
AcDbEntity
  8
0
  6
Continuous
 62
     7
370
    25
100
AcDbSpline
210
0.0
220
0.0
230
1.0
 70
     8
 71
     3
 72
    10
 73
     6
 74
     0
 42
0.00000001
 43
0.00000001
 40
0.0
 40
0.0
 40
0.0
 40
0.0
 40
0.5
 40
0.5
 40
1.0
 40
1.0
 40
1.0
 40
1.0
 10
221.1537353033136
 20
97.2274811913386
 30
0.0
 10
220.9453145504962
 20
97.60552444074077
 30
0.0
 10
220.7748507152188
 20
97.98629394553662
 30
0.0
 10
220.5398682802804
 20
98.75544247109416
 30
0.0
 10
220.4760138980534
 20
99.1438691992694
 30
0.0
 10
220.4760138980534
 20
99.53688226809713
 30
0.0
  0
SPLINE
  5
D3
330
1F
100
AcDbEntity
  8
0
  6
Continuous
 62
     7
370
    25
100
AcDbSpline
210
0.0
220
0.0
230
1.0
 70
     8
 71
     3
 72
     8
 73
     4
 74
     0
 42
0.00000001
 43
0.00000001
 40
0.0
 40
0.0
 40
0.0
 40
0.0
 40
1.0
 40
1.0
 40
1.0
 40
1.0
 10
220.5973973895496
 20
85.76554480260415
 30
0.0
 10
220.5562821139083
 20
85.9015751970937
 30
0.0
 10
220.5157931310405
 20
86.03827926173113
 30
0.0
 10
220.4760138980534
 20
86.17566633592939
 30
0.0
  0
LINE
  5
D4
330
1F
100
AcDbEntity
  8
0
  6
Continuous
 62
     7
370
    25
100
AcDbLine
 10
220.4760138981
 20
88.1756663359
 30
0.0
 11
220.4760138981
 21
86.1756663359
 31
0.0
  0
SPLINE
  5
D5
330
1F
100
AcDbEntity
  8
0
  6
Continuous
 62
     7
370
    25
100
AcDbSpline
210
0.0
220
0.0
230
1.0
 70
     8
 71
     3
 72
     8
 73
     4
 74
     0
 42
0.00000001
 43
0.00000001
 40
0.0
 40
0.0
 40
0.0
 40
0.0
 40
1.0
 40
1.0
 40
1.0
 40
1.0
 10
220.5973973895496
 20
85.76554480260415
 30
0.0
 10
220.7130299995786
 20
86.22409573466192
 30
0.0
 10
220.906919404399
 20
86.67616533042016
 30
0.0
 10
221.1537353033135
 20
87.12385148051992
 30
0.0
  0
LINE
  5
D6
330
1F
100
AcDbEntity
  8
0
  6
Continuous
 62
     7
370
    25
100
AcDbLine
 10
219.5278287535
 20
84.2092697961
 30
0.0
 11
219.5278287535
 21
80.8580426277
 31
0.0
  0
LINE
  5
D7
330
1F
100
AcDbEntity
  8
0
  6
Continuous
 62
     7
370
    25
100
AcDbLine
 10
210.4222528915
 20
91.6012344795
 30
0.0
 11
211.0296012503
 21
91.6012344795
 31
0.0
  0
ELLIPSE
  5
D8
330
1F
100
AcDbEntity
  8
0
  6
Continuous
 62
     7
370
    25
100
AcDbEllipse
 10
210.4222528915
 20
91.6820761965
 30
0.0
 11
0.08480161849067258
 21
-1.421085471520200E-14
 31
0.0
210
0.0
220
0.0
230
1.0
 40
0.9533039403
 41
2.798568711308387
 42
4.712388980384862
  0
LINE
  5
D9
330
1F
100
AcDbEntity
  8
0
  6
Continuous
 62
     7
370
    25
100
AcDbLine
 10
210.6460658344
 20
92.5198488254
 30
0.0
 11
210.3423916533
 21
91.7092662085
 31
0.0
  0
LINE
  5
DA
330
1F
100
AcDbEntity
  8
0
  6
Continuous
 62
     7
370
    25
100
AcDbLine
 10
211.1094624887
 20
91.7092662082
 30
0.0
 11
210.805788311
 21
92.5198488254
 31
0.0
  0
ELLIPSE
  5
DB
330
1F
100
AcDbEntity
  8
0
  6
Continuous
 62
     7
370
    25
100
AcDbEllipse
 10
211.0296012503
 20
91.6820761965
 30
0.0
 11
-0.08480161849067258
 21
-4.263256414560601E-14
 31
0.0
210
0.0
220
0.0
230
1.0
 40
0.9533039403
 41
1.570796326794417
 42
3.484616592149087
  0
ELLIPSE
  5
DC
330
1F
100
AcDbEntity
  8
0
  6
Continuous
 62
     7
370
    25
100
AcDbEllipse
 10
210.7259270727
 20
92.4926588135
 30
0.0
 11
0.08480161849067258
 21
0.0
 31
0.0
210
0.0
220
0.0
230
1.0
 40
0.9533039403
 41
0.3430239404208013
 42
2.798568713168992
  0
SPLINE
  5
DD
330
1F
100
AcDbEntity
  8
0
  6
Continuous
 62
     7
370
    25
100
AcDbSpline
210
0.0
220
0.0
230
1.0
 70
     8
 71
     3
 72
     8
 73
     4
 74
     0
 42
0.00000001
 43
0.00000001
 40
0.0
 40
0.0
 40
0.0
 40
0.0
 40
1.0
 40
1.0
 40
1.0
 40
1.0
 10
207.1866377134368
 20
84.88629015130067
 30
0.0
 10
207.4956548560785
 20
84.98729525913079
 30
0.0
 10
207.8109726123965
 20
85.08395204819672
 30
0.0
 10
208.1334519392395
 20
85.1756663359294
 30
0.0
  0
SPLINE
  5
DE
330
1F
100
AcDbEntity
  8
0
  6
Continuous
 62
     7
370
    25
100
AcDbSpline
210
0.0
220
0.0
230
1.0
 70
     8
 71
     3
 72
    10
 73
     6
 74
     0
 42
0.00000001
 43
0.00000001
 40
0.0
 40
0.0
 40
0.0
 40
0.0
 40
0.5
 40
0.5
 40
1.0
 40
1.0
 40
1.0
 40
1.0
 10
209.4241990426442
 20
84.20926979607441
 30
0.0
 10
209.4671425735454
 20
84.18559440165001
 30
0.0
 10
209.5305850181695
 20
84.17250329176537
 30
0.0
 10
209.6830638552885
 20
84.17241697047709
 30
0.0
 10
209.7712938573958
 20
84.18558590442092
 30
0.0
 10
209.8572117445364
 20
84.2092697960744
 30
0.0
  0
SPLINE
  5
DF
330
1F
100
AcDbEntity
  8
0
  6
Continuous
 62
     7
370
    25
100
AcDbSpline
210
0.0
220
0.0
230
1.0
 70
     8
 71
     3
 72
    12
 73
     8
 74
     0
 42
0.00000001
 43
0.00000001
 40
0.0
 40
0.0
 40
0.0
 40
0.0
 40
0.2500000000000002
 40
0.2500000000000002
 40
0.5000000000000004
 40
0.5000000000000004
 40
1.0
 40
1.0
 40
1.0
 40
1.0
 10
207.1866377134315
 20
84.88629015129453
 30
0.0
 10
207.3766638887348
 20
84.88258166543811
 30
0.0
 10
207.5668789514206
 20
84.86399916260042
 30
0.0
 10
207.943815710553
 20
84.79913212563429
 30
0.0
 10
208.1311385018125
 20
84.75286657238401
 30
0.0
 10
208.6900484581266
 20
84.57714204207706
 30
0.0
 10
209.0585841162369
 20
84.4108386333003
 30
0.0
 10
209.4241990426442
 20
84.20926979607441
 30
0.0
  0
LINE
  5
E0
330
1F
100
AcDbEntity
  8
0
  6
Continuous
 62
     7
370
    25
100
AcDbLine
 10
209.4241990426
 20
80.8580426277
 30
0.0
 11
209.4241990426
 21
84.2092697961
 31
0.0
  0
LINE
  5
E1
330
1F
100
AcDbEntity
  8
0
  6
Continuous
 62
     7
370
    25
100
AcDbLine
 10
208.4760138981
 20
99.5368822681
 30
0.0
 11
208.4760138981
 21
96.1756663359
 31
0.0
  0
SPLINE
  5
E2
330
1F
100
AcDbEntity
  8
0
  6
Continuous
 62
     7
370
    25
100
AcDbSpline
210
0.0
220
0.0
230
1.0
 70
     8
 71
     3
 72
    10
 73
     6
 74
     0
 42
0.00000001
 43
0.00000001
 40
0.0
 40
0.0
 40
0.0
 40
0.0
 40
0.5
 40
0.5
 40
1.0
 40
1.0
 40
1.0
 40
1.0
 10
207.7982924927932
 20
97.22748119133863
 30
0.0
 10
207.7746170983688
 20
97.1845376604374
 30
0.0
 10
207.7615259884842
 20
97.12109521581327
 30
0.0
 10
207.7614396671959
 20
96.9686163786943
 30
0.0
 10
207.7746086011398
 20
96.88038637658704
 30
0.0
 10
207.7982924927932
 20
96.7944684894464
 30
0.0
  0
SPLINE
  5
E3
330
1F
100
AcDbEntity
  8
0
  6
Continuous
 62
     7
370
    25
100
AcDbSpline
210
0.0
220
0.0
230
1.0
 70
     8
 71
     3
 72
    12
 73
     8
 74
     0
 42
0.00000001
 43
0.00000001
 40
0.0
 40
0.0
 40
0.0
 40
0.0
 40
0.2500000000000001
 40
0.2500000000000001
 40
0.5000000000000002
 40
0.5000000000000002
 40
1.0
 40
1.0
 40
1.0
 40
1.0
 10
208.4760138980534
 20
99.53688226809713
 30
0.0
 10
208.4760138980534
 20
99.34114000521761
 30
0.0
 10
208.4601709619645
 20
99.14447339602705
 30
0.0
 10
208.3986681017268
 20
98.75520516869878
 30
0.0
 10
208.3530644606831
 20
98.56180113574585
 30
0.0
 10
208.1766134431939
 20
97.9848720844891
 30
0.0
 10
208.006216075942
 20
97.60462265128608
 30
0.0
 10
207.7982924927932
 20
97.22748119133863
 30
0.0
  0
LINE
  5
E4
330
1F
100
AcDbEntity
  8
0
  6
Continuous
 62
     7
370
    25
100
AcDbLine
 10
208.4760138981
 20
88.1756663359
 30
0.0
 11
208.4760138981
 21
86.1756663359
 31
0.0
  0
SPLINE
  5
E5
330
1F
100
AcDbEntity
  8
0
  6
Continuous
 62
     7
370
    25
100
AcDbSpline
210
0.0
220
0.0
230
1.0
 70
     8
 71
     3
 72
     8
 73
     4
 74
     0
 42
0.00000001
 43
0.00000001
 40
0.0
 40
0.0
 40
0.0
 40
0.0
 40
1.0
 40
1.0
 40
1.0
 40
1.0
 10
208.4760138980534
 20
86.17566633592939
 30
0.0
 10
208.4362352398632
 20
86.03828124692929
 30
0.0
 10
208.395746277035
 20
85.90157716511753
 30
0.0
 10
208.3546304065572
 20
85.76554480260415
 30
0.0
  0
SPLINE
  5
E6
330
1F
100
AcDbEntity
  8
0
  6
Continuous
 62
     7
370
    25
100
AcDbSpline
210
0.0
220
0.0
230
1.0
 70
     8
 71
     3
 72
     8
 73
     4
 74
     0
 42
0.00000001
 43
0.00000001
 40
0.0
 40
0.0
 40
0.0
 40
0.0
 40
1.0
 40
1.0
 40
1.0
 40
1.0
 10
207.7982924927932
 20
87.12385148052019
 30
0.0
 10
208.0454662736771
 20
86.67551618746886
 30
0.0
 10
208.2391879419811
 20
86.22334169672526
 30
0.0
 10
208.3546304065572
 20
85.76554480260415
 30
0.0
  0
SPLINE
  5
E7
330
1F
100
AcDbEntity
  8
0
  6
Continuous
 62
     7
370
    25
100
AcDbSpline
210
0.0
220
0.0
230
1.0
 70
     8
 71
     3
 72
    10
 73
     6
 74
     0
 42
0.00000001
 43
0.00000001
 40
0.0
 40
0.0
 40
0.0
 40
0.0
 40
0.5
 40
0.5
 40
1.0
 40
1.0
 40
1.0
 40
1.0
 10
207.7982924927932
 20
87.55686418241238
 30
0.0
 10
207.7746170983688
 20
87.47097712060993
 30
0.0
 10
207.7615259884842
 20
87.3835699116298
 30
0.0
 10
207.7614396671959
 20
87.23093346903607
 30
0.0
 10
207.7746086011398
 20
87.16681042409049
 30
0.0
 10
207.7982924927932
 20
87.12385148052019
 30
0.0
  0
SPLINE
  5
E8
330
1F
100
AcDbEntity
  8
0
  6
Continuous
 62
     7
370
    25
100
AcDbSpline
210
0.0
220
0.0
230
1.0
 70
     8
 71
     3
 72
    10
 73
     6
 74
     0
 42
0.00000001
 43
0.00000001
 40
0.0
 40
0.0
 40
0.0
 40
0.0
 40
0.5
 40
0.5
 40
1.0
 40
1.0
 40
1.0
 40
1.0
 10
203.6537353033136
 20
97.22748119133863
 30
0.0
 10
203.6774075432252
 20
97.1845433822394
 30
0.0
 10
203.6905015331604
 20
97.12110279234719
 30
0.0
 10
203.6905884006219
 20
96.96861364683835
 30
0.0
 10
203.6774186108625
 20
96.88038425763504
 30
0.0
 10
203.6537353033136
 20
96.7944684894464
 30
0.0
  0
LINE
  5
E9
330
1F
100
AcDbEntity
  8
0
  6
Continuous
 62
     7
370
    25
100
AcDbLine
 10
203.6537353033
 20
97.2274811913
 30
0.0
 11
207.7982924928
 21
97.2274811913
 31
0.0
  0
LINE
  5
EA
330
1F
100
AcDbEntity
  8
0
  6
Continuous
 62
     7
370
    25
100
AcDbLine
 10
207.7982924928
 20
87.1238514805
 30
0.0
 11
203.6537353033
 21
87.1238514805
 31
0.0
  0
SPLINE
  5
EB
330
1F
100
AcDbEntity
  8
0
  6
Continuous
 62
     7
370
    25
100
AcDbSpline
210
0.0
220
0.0
230
1.0
 70
     8
 71
     3
 72
    10
 73
     6
 74
     0
 42
0.00000001
 43
0.00000001
 40
0.0
 40
0.0
 40
0.0
 40
0.0
 40
0.5
 40
0.5
 40
1.0
 40
1.0
 40
1.0
 40
1.0
 10
203.6537353033136
 20
87.55686418241238
 30
0.0
 10
203.6774092038696
 20
87.47098253990593
 30
0.0
 10
203.6905017610487
 20
87.38357333394049
 30
0.0
 10
203.690588175031
 20
87.23093084886557
 30
0.0
 10
203.6774177834323
 20
87.16680786378319
 30
0.0
 10
203.6537353033136
 20
87.12385148052017
 30
0.0
  0
LINE
  5
EC
330
1F
100
AcDbEntity
  8
0
  6
Continuous
 62
     7
370
    25
100
AcDbLine
 10
202.9760138981
 20
92.1756663359
 30
0.0
 11
202.9760138981
 21
99.5368822681
 31
0.0
  0
SPLINE
  5
ED
330
1F
100
AcDbEntity
  8
0
  6
Continuous
 62
     7
370
    25
100
AcDbSpline
210
0.0
220
0.0
230
1.0
 70
     8
 71
     3
 72
    10
 73
     6
 74
     0
 42
0.00000001
 43
0.00000001
 40
0.0
 40
0.0
 40
0.0
 40
0.0
 40
0.5
 40
0.5
 40
1.0
 40
1.0
 40
1.0
 40
1.0
 10
203.6537353033131
 20
97.2274811913386
 30
0.0
 10
203.4449253786469
 20
97.60623033872987
 30
0.0
 10
203.2743912388996
 20
97.98743561514118
 30
0.0
 10
203.0396054338807
 20
98.75666623632897
 30
0.0
 10
202.9760138980534
 20
99.14473394112728
 30
0.0
 10
202.9760138980534
 20
99.53688226809713
 30
0.0
  0
LINE
  5
EE
330
1F
100
AcDbEntity
  8
0
  6
Continuous
 62
     7
370
    25
100
AcDbLine
 10
202.9760138981
 20
92.1756663359
 30
0.0
 11
202.9760138981
 21
84.8144504038
 31
0.0
  0
SPLINE
  5
EF
330
1F
100
AcDbEntity
  8
0
  6
Continuous
 62
     7
370
    25
100
AcDbSpline
210
0.0
220
0.0
230
1.0
 70
     8
 71
     3
 72
    12
 73
     8
 74
     0
 42
0.00000001
 43
0.00000001
 40
0.0
 40
0.0
 40
0.0
 40
0.0
 40
0.2499999999999999
 40
0.2499999999999999
 40
0.4999999999999998
 40
0.4999999999999998
 40
1.0
 40
1.0
 40
1.0
 40
1.0
 10
202.9760138980534
 20
84.81445040376167
 30
0.0
 10
202.9760138980534
 20
85.00945388376746
 30
0.0
 10
202.9917602280753
 20
85.20598854279187
 30
0.0
 10
203.0532052526608
 20
85.59540823039742
 30
0.0
 10
203.0987940119145
 20
85.78889292345768
 30
0.0
 10
203.2752450141711
 20
86.36607652221329
 30
0.0
 10
203.4457027161346
 20
86.74651230399624
 30
0.0
 10
203.6537353033135
 20
87.12385148052019
 30
0.0
  0
LINE
  5
F0
330
1F
100
AcDbEntity
  8
0
  6
Continuous
 62
     7
370
    25
100
AcDbLine
 10
222.6733860679
 20
70.7495757696
 30
0.0
 11
206.2786417283
 21
70.7495757696
 31
0.0
  0
SPLINE
  5
F1
330
1F
100
AcDbEntity
  8
0
  6
Continuous
 62
     7
370
    25
100
AcDbSpline
210
0.0
220
0.0
230
1.0
 70
     8
 71
     3
 72
    12
 73
     8
 74
     0
 42
0.00000001
 43
0.00000001
 40
0.0
 40
0.0
 40
0.0
 40
0.0
 40
0.2499999999999999
 40
0.2499999999999999
 40
0.4999999999999998
 40
0.4999999999999998
 40
1.0
 40
1.0
 40
1.0
 40
1.0
 10
220.4760138980534
 20
99.53688226809713
 30
0.0
 10
220.4760138980534
 20
99.73262453097664
 30
0.0
 10
220.4918568341423
 20
99.9292911401672
 30
0.0
 10
220.55335969438
 20
100.3185593674955
 30
0.0
 10
220.5989633354237
 20
100.5119634004484
 30
0.0
 10
220.7754143529129
 20
101.0888924517052
 30
0.0
 10
220.9458117201648
 20
101.4691418849082
 30
0.0
 10
221.1537353033136
 20
101.8462833448556
 30
0.0
  0
LINE
  5
F2
330
1F
100
AcDbEntity
  8
0
  6
Continuous
 62
     7
370
    25
100
AcDbLine
 10
225.6539549255
 20
101.8462833449
 30
0.0
 11
221.1537353033
 21
101.8462833449
 31
0.0
  0
ELLIPSE
  5
F3
330
1F
100
AcDbEntity
  8
0
  6
Continuous
 62
     7
370
    25
100
AcDbEllipse
 10
214.4760138981
 20
82.3607117597
 30
0.0
 11
8.500000000000028
 21
0.0
 31
0.0
210
0.0
220
0.0
230
1.0
 40
0.5773502692
 41
0.6109003736767351
 42
0.7667594407167079
  0
LINE
  5
F4
330
1F
100
AcDbEntity
  8
0
  6
Continuous
 62
     7
370
    25
100
AcDbLine
 10
224.146630907
 20
82.505049327
 30
0.0
 11
225.6539549255
 21
82.505049327
 31
0.0
  0
LINE
  5
F5
330
1F
100
AcDbEntity
  8
0
  6
Continuous
 62
     7
370
    25
100
AcDbLine
 10
224.146630907
 20
82.505049327
 30
0.0
 11
221.7653900827
 21
84.8862901513
 31
0.0
  0
LINE
  5
F6
330
1F
100
AcDbEntity
  8
0
  6
Continuous
 62
     7
370
    25
100
AcDbLine
 10
224.146630907
 20
80.8580426277
 30
0.0
 11
224.146630907
 21
82.505049327
 31
0.0
  0
ELLIPSE
  5
F7
330
1F
100
AcDbEntity
  8
0
  6
Continuous
 62
     7
370
    25
100
AcDbEllipse
 10
214.4760138981
 20
82.3607117597
 30
0.0
 11
8.500000000000028
 21
0.0
 31
0.0
210
0.0
220
0.0
230
1.0
 40
0.5773502692
 41
2.374833212873083
 42
2.530692279913056
  0
LINE
  5
F8
330
1F
100
AcDbEntity
  8
0
  6
Continuous
 62
     7
370
    25
100
AcDbLine
 10
207.1866377134
 20
84.8862901513
 30
0.0
 11
204.8053968891
 21
82.505049327
 31
0.0
  0
LINE
  5
F9
330
1F
100
AcDbEntity
  8
0
  6
Continuous
 62
     7
370
    25
100
AcDbLine
 10
203.6537353033
 20
82.505049327
 30
0.0
 11
204.8053968891
 21
82.505049327
 31
0.0
  0
SPLINE
  5
FA
330
1F
100
AcDbEntity
  8
0
  6
Continuous
 62
     7
370
    25
100
AcDbSpline
210
0.0
220
0.0
230
1.0
 70
     8
 71
     3
 72
    10
 73
     6
 74
     0
 42
0.00000001
 43
0.00000001
 40
0.0
 40
0.0
 40
0.0
 40
0.0
 40
0.5
 40
0.5
 40
1.0
 40
1.0
 40
1.0
 40
1.0
 10
203.6537353033131
 20
82.50504932700314
 30
0.0
 10
203.4449253786469
 20
82.88379847439442
 30
0.0
 10
203.2743912388996
 20
83.26500375080573
 30
0.0
 10
203.0396054338807
 20
84.0342343719935
 30
0.0
 10
202.9760138980534
 20
84.42230207679182
 30
0.0
 10
202.9760138980534
 20
84.81445040376167
 30
0.0
  0
LINE
  5
FB
330
1F
100
AcDbEntity
  8
0
  6
Continuous
 62
     7
370
    25
100
AcDbLine
 10
204.8053968891
 20
82.505049327
 30
0.0
 11
204.8053968891
 21
80.8580426277
 31
0.0
  0
SPLINE
  5
FC
330
1F
100
AcDbEntity
  8
0
  6
Continuous
 62
     7
370
    25
100
AcDbSpline
210
0.0
220
0.0
230
1.0
 70
     8
 71
     3
 72
    12
 73
     8
 74
     0
 42
0.00000001
 43
0.00000001
 40
0.0
 40
0.0
 40
0.0
 40
0.0
 40
0.2499999999999999
 40
0.2499999999999999
 40
0.5
 40
0.5
 40
1.0
 40
1.0
 40
1.0
 40
1.0
 10
202.9760138980534
 20
99.53688226809713
 30
0.0
 10
202.9760138980534
 20
99.73188574810293
 30
0.0
 10
202.9917602280753
 20
99.92842040712733
 30
0.0
 10
203.0532052526608
 20
100.3178400947329
 30
0.0
 10
203.0987940119145
 20
100.5113247877931
 30
0.0
 10
203.2752450141711
 20
101.0885083865487
 30
0.0
 10
203.4457027161346
 20
101.4689441683317
 30
0.0
 10
203.6537353033135
 20
101.8462833448556
 30
0.0
  0
LINE
  5
FD
330
1F
100
AcDbEntity
  8
0
  6
Continuous
 62
     7
370
    25
100
AcDbLine
 10
207.7982924928
 20
101.8462833449
 30
0.0
 11
203.6537353033
 21
101.8462833449
 31
0.0
  0
SPLINE
  5
FE
330
1F
100
AcDbEntity
  8
0
  6
Continuous
 62
     7
370
    25
100
AcDbSpline
210
0.0
220
0.0
230
1.0
 70
     8
 71
     3
 72
    10
 73
     6
 74
     0
 42
0.00000001
 43
0.00000001
 40
0.0
 40
0.0
 40
0.0
 40
0.0
 40
0.5
 40
0.5
 40
1.0
 40
1.0
 40
1.0
 40
1.0
 10
207.7982924927932
 20
101.8462833448556
 30
0.0
 10
208.0067132456106
 20
101.4682400954535
 30
0.0
 10
208.1771770808881
 20
101.0874705906576
 30
0.0
 10
208.4121595158265
 20
100.3183220651001
 30
0.0
 10
208.4760138980534
 20
99.92989533692487
 30
0.0
 10
208.4760138980534
 20
99.53688226809713
 30
0.0
  0
LINE
  5
FF
330
1F
100
AcDbEntity
  8
0
  6
Continuous
 62
     7
370
    25
100
AcDbLine
 10
221.4760138981
 20
68.6756663359
 30
0.0
 11
207.4760138981
 21
68.6756663359
 31
0.0
  0
LINE
  5
100
330
1F
100
AcDbEntity
  8
0
  6
Continuous
 62
     7
370
    25
100
AcDbLine
 10
220.4760138981
 20
86.1756663359
 30
0.0
 11
218.4760138981
 21
88.1756663359
 31
0.0
  0
LINE
  5
101
330
1F
100
AcDbEntity
  8
0
  6
Continuous
 62
     7
370
    25
100
AcDbLine
 10
218.4760138981
 20
85.1756663359
 30
0.0
 11
221.4386349707
 21
85.1756663359
 31
0.0
  0
LINE
  5
102
330
1F
100
AcDbEntity
  8
0
  6
Continuous
 62
     7
370
    25
100
AcDbLine
 10
208.4760138981
 20
100.1101208142
 30
0.0
 11
208.4760138981
 21
99.5368822681
 31
0.0
  0
SPLINE
  5
103
330
1F
100
AcDbEntity
  8
0
  6
Continuous
 62
     7
370
    25
100
AcDbSpline
210
0.0
220
0.0
230
1.0
 70
     8
 71
     3
 72
    32
 73
    28
 74
     0
 42
0.00000001
 43
0.00000001
 40
0.0
 40
0.0
 40
0.0
 40
0.0
 40
0.0625000000000001
 40
0.0625000000000001
 40
0.1250000000000001
 40
0.1250000000000001
 40
0.1875000000000002
 40
0.1875000000000002
 40
0.2500000000000003
 40
0.2500000000000003
 40
0.3750000000000003
 40
0.3750000000000003
 40
0.4375000000000003
 40
0.4375000000000003
 40
0.5000000000000002
 40
0.5000000000000002
 40
0.5625000000000002
 40
0.5625000000000002
 40
0.6250000000000001
 40
0.6250000000000001
 40
0.7500000000000001
 40
0.7500000000000001
 40
0.8750000000000002
 40
0.8750000000000002
 40
0.9375000000000001
 40
0.9375000000000001
 40
1.0
 40
1.0
 40
1.0
 40
1.0
 10
220.476013898045
 20
100.1101208141501
 30
0.0
 10
220.3191575621281
 20
100.0151638362544
 30
0.0
 10
220.1461591279724
 20
99.91241066162918
 30
0.0
 10
219.7694545413466
 20
99.6956994599809
 30
0.0
 10
219.5666017608899
 20
99.58228074949089
 30
0.0
 10
219.1406204980873
 20
99.35419061279273
 30
0.0
 10
218.9164425377993
 20
99.23888373034087
 30
0.0
 10
218.4450914442229
 20
99.0105606279661
 30
0.0
 10
218.1964059288578
 20
98.89691061183234
 30
0.0
 10
217.4258334441662
 20
98.5738465805983
 30
0.0
 10
216.880196034084
 20
98.3809480564348
 30
0.0
 10
215.9974162855877
 20
98.1693541311611
 30
0.0
 10
215.6987771857148
 20
98.11371174504335
 30
0.0
 10
215.092275584999
 20
98.03804367567952
 30
0.0
 10
214.7821283463331
 20
98.01807042990319
 30
0.0
 10
214.1620428576494
 20
98.01840419615644
 30
0.0
 10
213.8554718201813
 20
98.03840316147922
 30
0.0
 10
213.2488170728731
 20
98.1144419476757
 30
0.0
 10
212.9464440082478
 20
98.17109504780724
 30
0.0
 10
212.0698077054949
 20
98.3818735978531
 30
0.0
 10
211.521753573518
 20
98.57541942842485
 30
0.0
 10
210.4912563062747
 20
99.00803872170064
 30
0.0
 10
210.0236962709952
 20
99.24051536639107
 30
0.0
 10
209.3854826673673
 20
99.5822533673101
 30
0.0
 10
209.1822729291774
 20
99.6958708827385
 30
0.0
 10
208.805936002783
 20
99.91237327509474
 30
0.0
 10
208.6329573942915
 20
100.0151110715391
 30
0.0
 10
208.4760138980534
 20
100.1101208141552
 30
0.0
  0
LINE
  5
104
330
1F
100
AcDbEntity
  8
0
  6
Continuous
 62
     7
370
    25
100
AcDbLine
 10
220.4760138981
 20
100.1101208141
 30
0.0
 11
220.4760138981
 21
99.5368822681
 31
0.0
  0
LINE
  5
105
330
1F
100
AcDbEntity
  8
0
  6
Continuous
 62
     7
370
    25
100
AcDbLine
 10
210.4760138981
 20
88.1756663359
 30
0.0
 11
208.4760138981
 21
86.1756663359
 31
0.0
  0
LINE
  5
106
330
1F
100
AcDbEntity
  8
0
  6
Continuous
 62
     7
370
    25
100
AcDbLine
 10
207.5133928254
 20
85.1756663359
 30
0.0
 11
210.4760138981
 21
85.1756663359
 31
0.0
  0
SPLINE
  5
107
330
1F
100
AcDbEntity
  8
0
  6
Continuous
 62
     7
370
    25
100
AcDbSpline
210
0.0
220
0.0
230
1.0
 70
     8
 71
     3
 72
    12
 73
     8
 74
     0
 42
0.00000001
 43
0.00000001
 40
0.0
 40
0.0
 40
0.0
 40
0.0
 40
0.0821658070046626
 40
0.3096876682499978
 40
0.5425013101595951
 40
0.7710663950130126
 40
1.0
 40
1.0
 40
1.0
 40
1.0
 10
220.649453200176
 20
100.9688761799393
 30
0.0
 10
220.6505851270281
 20
100.9726456450127
 30
0.0
 10
220.654851424655
 20
100.9868529764039
 30
0.0
 10
220.6223961576274
 20
100.8794968163551
 30
0.0
 10
220.5664316436333
 20
100.6735588494039
 30
0.0
 10
220.498222226461
 20
100.3902634280518
 30
0.0
 10
220.4834206484662
 20
100.2035518181884
 30
0.0
 10
220.4760138980534
 20
100.1101208141481
 30
0.0
  0
SPLINE
  5
108
330
1F
100
AcDbEntity
  8
0
  6
Continuous
 62
     7
370
    25
100
AcDbSpline
210
0.0
220
0.0
230
1.0
 70
     8
 71
     3
 72
    11
 73
     7
 74
     0
 42
0.00000001
 43
0.00000001
 40
0.0
 40
0.0
 40
0.0
 40
0.0
 40
0.3176368938018386
 40
0.6359609223446114
 40
0.8656908379665754
 40
1.0
 40
1.0
 40
1.0
 40
1.0
 10
208.4760138980534
 20
100.1101208141551
 30
0.0
 10
208.462375139763
 20
100.2413854498139
 30
0.0
 10
208.4350681188493
 20
100.5041986821359
 30
0.0
 10
208.3470634851098
 20
100.8158431391701
 30
0.0
 10
208.3025032014311
 20
100.9695893256975
 30
0.0
 10
208.3028519060105
 20
100.9680760059019
 30
0.0
 10
208.3029805576381
 20
100.9675176792659
 30
0.0
  0
LINE
  5
109
330
1F
100
AcDbEntity
  8
0
  6
Continuous
 62
     7
370
    25
100
AcDbLine
 10
208.5760138981
 20
101.6756663359
 30
0.0
 11
208.5766640333
 21
101.6751141862
 31
0.0
  0
SPLINE
  5
10A
330
1F
100
AcDbEntity
  8
0
  6
Continuous
 62
     7
370
    25
100
AcDbSpline
210
0.0
220
0.0
230
1.0
 70
     8
 71
     3
 72
     9
 73
     5
 74
     0
 42
0.00000001
 43
0.00000001
 40
0.0
 40
0.0
 40
0.0
 40
0.0
 40
0.5797912171257733
 40
1.0
 40
1.0
 40
1.0
 40
1.0
 10
221.1537353033136
 20
101.8462833448556
 30
0.0
 10
221.1660939066601
 20
101.8687569930968
 30
0.0
 10
221.1874095164545
 20
101.9075186155176
 30
0.0
 10
221.1878004589572
 20
101.9082530202758
 30
0.0
 10
221.1879647364305
 20
101.9085616236054
 30
0.0
  0
SPLINE
  5
10B
330
1F
100
AcDbEntity
  8
0
  6
Continuous
 62
     7
370
    25
100
AcDbSpline
210
0.0
220
0.0
230
1.0
 70
     8
 71
     3
 72
    10
 73
     6
 74
     0
 42
0.00000001
 43
0.00000001
 40
0.0
 40
0.0
 40
0.0
 40
0.0
 40
0.16017905529234
 40
0.719765170780548
 40
1.0
 40
1.0
 40
1.0
 40
1.0
 10
207.7640630596763
 20
101.9085616236054
 30
0.0
 10
207.7633002695831
 20
101.9099538516318
 30
0.0
 10
207.7598726695093
 20
101.9162098333601
 30
0.0
 10
207.7743801343076
 20
101.8897025686322
 30
0.0
 10
207.7923096874254
 20
101.857146713487
 30
0.0
 10
207.7982924927932
 20
101.8462833448556
 30
0.0
  0
SPLINE
  5
10C
330
1F
100
AcDbEntity
  8
0
  6
Continuous
 62
     7
370
    25
100
AcDbSpline
210
0.0
220
0.0
230
1.0
 70
     8
 71
     3
 72
    10
 73
     6
 74
     0
 42
0.00000001
 43
0.00000001
 40
0.0
 40
0.0
 40
0.0
 40
0.0
 40
0.1593935212992649
 40
0.7189934545689683
 40
1.0
 40
1.0
 40
1.0
 40
1.0
 10
203.687972292891
 20
101.9085754243221
 30
0.0
 10
203.6887338198885
 20
101.9099653431487
 30
0.0
 10
203.6921689214044
 20
101.9162349990956
 30
0.0
 10
203.6776742989379
 20
101.8897510572719
 30
0.0
 10
203.6597329284452
 20
101.857173653225
 30
0.0
 10
203.6537353033136
 20
101.8462833448556
 30
0.0
  0
LINE
  5
10D
330
1F
100
AcDbEntity
  8
0
  6
Continuous
 62
     7
370
    25
100
AcDbLine
 10
202.9760138981
 20
100.6756663359
 30
0.0
 11
202.9760138981
 21
99.5368822681
 31
0.0
  0
SPLINE
  5
10E
330
1F
100
AcDbEntity
  8
0
  6
Continuous
 62
     7
370
    25
100
AcDbSpline
210
0.0
220
0.0
230
1.0
 70
     8
 71
     3
 72
     9
 73
     5
 74
     0
 42
0.00000001
 43
0.00000001
 40
0.0
 40
0.0
 40
0.0
 40
0.0
 40
0.5789479223840771
 40
1.0
 40
1.0
 40
1.0
 40
1.0
 10
203.6537353033136
 20
82.50504932700316
 30
0.0
 10
203.6660761936279
 20
82.4826079598108
 30
0.0
 10
203.6873922565018
 20
82.44384563538624
 30
0.0
 10
203.6878004304163
 20
82.44307973252688
 30
0.0
 10
203.687972292891
 20
82.4427572475367
 30
0.0
  0
LINE
  5
10F
330
1F
100
AcDbEntity
  8
0
  6
Continuous
 62
     7
370
    25
100
AcDbLine
 10
202.9760138981
 20
84.8144504038
 30
0.0
 11
202.9760138981
 21
83.6756663359
 31
0.0
  0
LINE
  5
110
330
1F
100
AcDbEntity
  8
0
  6
Continuous
 62
     7
370
    25
100
AcDbLine
 10
224.2136182051
 20
82.4380620289
 30
0.0
 11
224.146630907
 21
82.505049327
 31
0.0
  0
LINE
  5
111
330
1F
100
AcDbEntity
  8
0
  6
Continuous
 62
     7
370
    25
100
AcDbLine
 10
204.8053968891
 20
82.505049327
 30
0.0
 11
204.738409591
 21
82.4380620289
 31
0.0
  0
SPLINE
  5
112
330
1F
100
AcDbEntity
  8
0
  6
Continuous
 62
     7
370
    25
100
AcDbSpline
210
0.0
220
0.0
230
1.0
 70
     8
 71
     3
 72
    15
 73
    11
 74
     0
 42
0.00000001
 43
0.00000001
 40
0.0
 40
0.0
 40
0.0
 40
0.0
 40
0.0081667445812695
 40
0.3321939991490083
 40
0.4756279600585602
 40
0.6866830973284899
 40
0.8457435502264811
 40
0.8967566214763185
 40
0.9909540928118029
 40
1.0
 40
1.0
 40
1.0
 40
1.0
 10
209.3769943844606
 20
119.5256663359294
 30
0.0
 10
209.3765068503177
 20
119.5256636595836
 30
0.0
 10
209.3566757027857
 20
119.5255547953968
 30
0.0
 10
209.3283949227764
 20
119.5160087831274
 30
0.0
 10
209.2905656242876
 20
119.4786463998728
 30
0.0
 10
209.2639817277201
 20
119.4337808851382
 30
0.0
 10
209.2468119039651
 20
119.3759045855613
 30
0.0
 10
209.2389949077486
 20
119.3252285455893
 30
0.0
 10
209.2369992213127
 20
119.2965342660693
 30
0.0
 10
209.236934257362
 20
119.2773474345138
 30
0.0
 10
209.2369285653953
 20
119.2756663359294
 30
0.0
  0
LINE
  5
113
330
1F
100
AcDbEntity
  8
0
  6
Continuous
 62
     7
370
    25
100
AcDbLine
 10
209.3769943845
 20
119.5256663359
 30
0.0
 11
219.5750334116
 21
119.5256663359
 31
0.0
  0
SPLINE
  5
114
330
1F
100
AcDbEntity
  8
0
  6
Continuous
 62
     7
370
    25
100
AcDbSpline
210
0.0
220
0.0
230
1.0
 70
     8
 71
     3
 72
    15
 73
    11
 74
     0
 42
0.00000001
 43
0.00000001
 40
0.0
 40
0.0
 40
0.0
 40
0.0
 40
0.0090459071881971
 40
0.1032433785236874
 40
0.1542564497735246
 40
0.313316902671511
 40
0.5243720399414428
 40
0.6678060008509903
 40
0.9918332554187292
 40
1.0
 40
1.0
 40
1.0
 40
1.0
 10
219.7150992307115
 20
119.2756663359294
 30
0.0
 10
219.7150935387449
 20
119.2773474345138
 30
0.0
 10
219.715028574794
 20
119.2965342660693
 30
0.0
 10
219.7130328883582
 20
119.3252285455893
 30
0.0
 10
219.7052158921417
 20
119.3759045855613
 30
0.0
 10
219.6880460683867
 20
119.4337808851381
 30
0.0
 10
219.6614621718193
 20
119.4786463998729
 30
0.0
 10
219.6236328733304
 20
119.5160087831274
 30
0.0
 10
219.5953520933211
 20
119.5255547953968
 30
0.0
 10
219.5755209457891
 20
119.5256636595836
 30
0.0
 10
219.5750334116462
 20
119.5256663359294
 30
0.0
  0
LINE
  5
115
330
1F
100
AcDbEntity
  8
0
  6
Continuous
 62
     7
370
    25
100
AcDbLine
 10
219.7150992307
 20
119.2756663359
 30
0.0
 11
209.2369285654
 21
119.2756663359
 31
0.0
  0
LINE
  5
116
330
1F
100
AcDbEntity
  8
0
  6
Continuous
 62
     7
370
    25
100
AcDbLine
 10
209.2369285654
 20
119.2756663359
 30
0.0
 11
209.2369285654
 21
118.6756663359
 31
0.0
  0
LINE
  5
117
330
1F
100
AcDbEntity
  8
0
  6
Continuous
 62
     7
370
    25
100
AcDbLine
 10
219.7150992307
 20
118.6756663359
 30
0.0
 11
219.7150992307
 21
119.2756663359
 31
0.0
  0
LINE
  5
118
330
1F
100
AcDbEntity
  8
0
  6
Continuous
 62
     7
370
    25
100
AcDbLine
 10
209.2369285654
 20
118.6756663359
 30
0.0
 11
219.7150992307
 21
118.6756663359
 31
0.0
  0
LINE
  5
119
330
1F
100
AcDbEntity
  8
0
  6
Continuous
 62
     7
370
    25
100
AcDbLine
 10
219.7150992307
 20
119.2756663359
 30
0.0
 11
219.9532394731
 21
119.2756663359
 31
0.0
  0
SPLINE
  5
11A
330
1F
100
AcDbEntity
  8
0
  6
Continuous
 62
     7
370
    25
100
AcDbSpline
210
0.0
220
0.0
230
1.0
 70
     8
 71
     3
 72
    15
 73
    11
 74
     0
 42
0.00000001
 43
0.00000001
 40
0.0
 40
0.0
 40
0.0
 40
0.0
 40
0.0080847466189818
 40
0.3310106400647567
 40
0.4750333064304972
 40
0.6874363079215137
 40
0.8468367539418253
 40
0.9000996640391794
 40
0.9910442771984082
 40
1.0
 40
1.0
 40
1.0
 40
1.0
 10
219.5750334116462
 20
119.5256663359294
 30
0.0
 10
219.5763132431903
 20
119.5256636595197
 30
0.0
 10
219.6287128889141
 20
119.5255540803179
 30
0.0
 10
219.7040679803685
 20
119.5158749254804
 30
0.0
 10
219.8059870923863
 20
119.4785931020186
 30
0.0
 10
219.8783780373782
 20
119.4338852288352
 30
0.0
 10
219.9260834656431
 20
119.3757495787026
 30
0.0
 10
219.9476189493504
 20
119.3248625052342
 30
0.0
 10
219.9530479653699
 20
119.2961002761268
 30
0.0
 10
219.9532237175265
 20
119.2773474615023
 30
0.0
 10
219.9532394731051
 20
119.2756663359294
 30
0.0
  0
LINE
  5
11B
330
1F
100
AcDbEntity
  8
0
  6
Continuous
 62
     7
370
    25
100
AcDbLine
 10
208.998788323
 20
119.2756663359
 30
0.0
 11
209.2369285654
 21
119.2756663359
 31
0.0
  0
SPLINE
  5
11C
330
1F
100
AcDbEntity
  8
0
  6
Continuous
 62
     7
370
    25
100
AcDbSpline
210
0.0
220
0.0
230
1.0
 70
     8
 71
     3
 72
    15
 73
    11
 74
     0
 42
0.00000001
 43
0.00000001
 40
0.0
 40
0.0
 40
0.0
 40
0.0
 40
0.0089557228015919
 40
0.0999003359608148
 40
0.153163246058169
 40
0.3125636920784848
 40
0.5249666935694999
 40
0.6689893599352451
 40
0.9919152533810159
 40
1.0
 40
1.0
 40
1.0
 40
1.0
 10
208.9987883230017
 20
119.2756663359294
 30
0.0
 10
208.9988040785803
 20
119.2773474615023
 30
0.0
 10
208.9989798307369
 20
119.2961002761268
 30
0.0
 10
209.0044088467564
 20
119.3248625052342
 30
0.0
 10
209.0259443304638
 20
119.3757495787026
 30
0.0
 10
209.0736497587286
 20
119.4338852288352
 30
0.0
 10
209.1460407037205
 20
119.4785931020186
 30
0.0
 10
209.2479598157383
 20
119.5158749254804
 30
0.0
 10
209.3233149071927
 20
119.5255540803179
 30
0.0
 10
209.3757145529165
 20
119.5256636595197
 30
0.0
 10
209.3769943844606
 20
119.5256663359294
 30
0.0
  0
LINE
  5
11D
330
1F
100
AcDbEntity
  8
0
  6
Continuous
 62
     7
370
    25
100
AcDbLine
 10
219.9532394731
 20
119.2756663359
 30
0.0
 11
219.9532394731
 21
118.6756663359
 31
0.0
  0
LINE
  5
11E
330
1F
100
AcDbEntity
  8
0
  6
Continuous
 62
     7
370
    25
100
AcDbLine
 10
219.9532394731
 20
118.6756663359
 30
0.0
 11
219.7150992307
 21
118.6756663359
 31
0.0
  0
LINE
  5
11F
330
1F
100
AcDbEntity
  8
0
  6
Continuous
 62
     7
370
    25
100
AcDbLine
 10
208.998788323
 20
118.6756663359
 30
0.0
 11
208.998788323
 21
119.2756663359
 31
0.0
  0
LINE
  5
120
330
1F
100
AcDbEntity
  8
0
  6
Continuous
 62
     7
370
    25
100
AcDbLine
 10
209.2369285654
 20
118.6756663359
 30
0.0
 11
208.998788323
 21
118.6756663359
 31
0.0
  0
LINE
  5
121
330
1F
100
AcDbEntity
  8
0
  6
Continuous
 62
     7
370
    25
100
AcDbLine
 10
220.2260138981
 20
118.6756663359
 30
0.0
 11
220.2260138981
 21
119.2756663359
 31
0.0
  0
LINE
  5
122
330
1F
100
AcDbEntity
  8
0
  6
Continuous
 62
     7
370
    25
100
AcDbLine
 10
220.2260138981
 20
119.2756663359
 30
0.0
 11
220.4760138981
 21
119.2756663359
 31
0.0
  0
LINE
  5
123
330
1F
100
AcDbEntity
  8
0
  6
Continuous
 62
     7
370
    25
100
AcDbLine
 10
220.4760138981
 20
119.2756663359
 30
0.0
 11
220.4760138981
 21
118.6756663359
 31
0.0
  0
LINE
  5
124
330
1F
100
AcDbEntity
  8
0
  6
Continuous
 62
     7
370
    25
100
AcDbLine
 10
220.4760138981
 20
118.6756663359
 30
0.0
 11
220.2260138981
 21
118.6756663359
 31
0.0
  0
LINE
  5
125
330
1F
100
AcDbEntity
  8
0
  6
Continuous
 62
     7
370
    25
100
AcDbLine
 10
220.2260138981
 20
119.2756663359
 30
0.0
 11
220.2260138981
 21
119.5256663359
 31
0.0
  0
ARC
  5
126
330
1F
100
AcDbEntity
  8
0
  6
Continuous
 62
     7
370
    25
100
AcDbCircle
 10
220.2260138981
 20
119.2756663359
 30
0.0
 40
0.25
100
AcDbArc
 50
0.0
 51
90.0
  0
LINE
  5
127
330
1F
100
AcDbEntity
  8
0
  6
Continuous
 62
     7
370
    25
100
AcDbLine
 10
220.2260138981
 20
119.2756663359
 30
0.0
 11
219.9532394731
 21
119.2756663359
 31
0.0
  0
LINE
  5
128
330
1F
100
AcDbEntity
  8
0
  6
Continuous
 62
     7
370
    25
100
AcDbLine
 10
219.5750334116
 20
119.5256663359
 30
0.0
 11
220.2260138981
 21
119.5256663359
 31
0.0
  0
LINE
  5
129
330
1F
100
AcDbEntity
  8
0
  6
Continuous
 62
     7
370
    25
100
AcDbLine
 10
220.2260138981
 20
118.6756663359
 30
0.0
 11
219.9532394731
 21
118.6756663359
 31
0.0
  0
LINE
  5
12A
330
1F
100
AcDbEntity
  8
0
  6
Continuous
 62
     7
370
    25
100
AcDbLine
 10
208.7260138981
 20
119.5256663359
 30
0.0
 11
208.7260138981
 21
119.2756663359
 31
0.0
  0
LINE
  5
12B
330
1F
100
AcDbEntity
  8
0
  6
Continuous
 62
     7
370
    25
100
AcDbLine
 10
208.998788323
 20
119.2756663359
 30
0.0
 11
208.7260138981
 21
119.2756663359
 31
0.0
  0
LINE
  5
12C
330
1F
100
AcDbEntity
  8
0
  6
Continuous
 62
     7
370
    25
100
AcDbLine
 10
208.7260138981
 20
119.5256663359
 30
0.0
 11
209.3769943845
 21
119.5256663359
 31
0.0
  0
LINE
  5
12D
330
1F
100
AcDbEntity
  8
0
  6
Continuous
 62
     7
370
    25
100
AcDbLine
 10
208.7260138981
 20
119.2756663359
 30
0.0
 11
208.7260138981
 21
118.6756663359
 31
0.0
  0
LINE
  5
12E
330
1F
100
AcDbEntity
  8
0
  6
Continuous
 62
     7
370
    25
100
AcDbLine
 10
208.998788323
 20
118.6756663359
 30
0.0
 11
208.7260138981
 21
118.6756663359
 31
0.0
  0
LINE
  5
12F
330
1F
100
AcDbEntity
  8
0
  6
Continuous
 62
     7
370
    25
100
AcDbLine
 10
208.4760138981
 20
119.2756663359
 30
0.0
 11
208.7260138981
 21
119.2756663359
 31
0.0
  0
ARC
  5
130
330
1F
100
AcDbEntity
  8
0
  6
Continuous
 62
     7
370
    25
100
AcDbCircle
 10
208.7260138981
 20
119.2756663359
 30
0.0
 40
0.25
100
AcDbArc
 50
90.0
 51
180.0
  0
LINE
  5
131
330
1F
100
AcDbEntity
  8
0
  6
Continuous
 62
     7
370
    25
100
AcDbLine
 10
208.4760138981
 20
118.6756663359
 30
0.0
 11
208.4760138981
 21
119.2756663359
 31
0.0
  0
LINE
  5
132
330
1F
100
AcDbEntity
  8
0
  6
Continuous
 62
     7
370
    25
100
AcDbLine
 10
208.7260138981
 20
118.6756663359
 30
0.0
 11
208.4760138981
 21
118.6756663359
 31
0.0
  0
LINE
  5
133
330
1F
100
AcDbEntity
  8
0
  6
Continuous
 62
     7
370
    25
100
AcDbLine
 10
209.4760138981
 20
119.5356663359
 30
0.0
 11
219.4760138981
 21
119.5356663359
 31
0.0
  0
LINE
  5
134
330
1F
100
AcDbEntity
  8
0
  6
Continuous
 62
     7
370
    25
100
AcDbLine
 10
219.4760138981
 20
119.5256663359
 30
0.0
 11
219.4760138981
 21
119.5356663359
 31
0.0
  0
LINE
  5
135
330
1F
100
AcDbEntity
  8
0
  6
Continuous
 62
     7
370
    25
100
AcDbLine
 10
209.4760138981
 20
119.5256663359
 30
0.0
 11
209.4760138981
 21
119.5356663359
 31
0.0
  0
LINE
  5
136
330
1F
100
AcDbEntity
  8
0
  6
Continuous
 62
     7
370
    25
100
AcDbLine
 10
207.026013898
 20
110.6756663359
 30
0.0
 11
218.9505607821
 21
110.6756663359
 31
0.0
  0
LINE
  5
137
330
1F
100
AcDbEntity
  8
0
  6
Continuous
 62
     7
370
    25
100
AcDbLine
 10
219.6998160724
 20
118.6756663359
 30
0.0
 11
209.2369285654
 21
118.6756663359
 31
0.0
  0
LINE
  5
138
330
1F
100
AcDbEntity
  8
0
  6
Continuous
 62
     7
370
    25
100
AcDbLine
 10
221.4279547364
 20
111.6704099139
 30
0.0
 11
219.6998160724
 21
118.6756663359
 31
0.0
  0
SPLINE
  5
139
330
1F
100
AcDbEntity
  8
0
  6
Continuous
 62
     7
370
    25
100
AcDbSpline
210
0.0
220
0.0
230
1.0
 70
     8
 71
     3
 72
     9
 73
     5
 74
     0
 42
0.00000001
 43
0.00000001
 40
0.0
 40
0.0
 40
0.0
 40
0.0
 40
0.4983247250277991
 40
1.0
 40
1.0
 40
1.0
 40
1.0
 10
218.9505607821355
 20
110.675666335927
 30
0.0
 10
218.8344504856564
 20
110.8494584497861
 30
0.0
 10
218.6014492102879
 20
111.1982111909819
 30
0.0
 10
218.3276888369462
 20
111.5126591483961
 30
0.0
 10
218.1903500263735
 20
111.6704099138963
 30
0.0
  0
LINE
  5
13A
330
1F
100
AcDbEntity
  8
0
  6
Continuous
 62
     7
370
    25
100
AcDbLine
 10
216.4760138981
 20
102.6756663359
 30
0.0
 11
216.4760139926
 21
102.7134832139
 31
0.0
  0
LINE
  5
13B
330
1F
100
AcDbEntity
  8
0
  6
Continuous
 62
     7
370
    25
100
AcDbLine
 10
207.4760138981
 20
102.6756663359
 30
0.0
 11
216.4760138981
 21
102.6756663359
 31
0.0
  0
SPLINE
  5
13C
330
1F
100
AcDbEntity
  8
0
  6
Continuous
 62
     7
370
    25
100
AcDbSpline
210
0.0
220
0.0
230
1.0
 70
     8
 71
     3
 72
    16
 73
    12
 74
     0
 42
0.00000001
 43
0.00000001
 40
0.0
 40
0.0
 40
0.0
 40
0.0
 40
0.0155634360124117
 40
0.0359329243097674
 40
0.0739120889290614
 40
0.1570057548437684
 40
0.2406581385754913
 40
0.4592958294318596
 40
0.6783839187935417
 40
0.8974954344294845
 40
1.0
 40
1.0
 40
1.0
 40
1.0
 10
216.6319591484805
 20
102.6756663359295
 30
0.0
 10
216.6743511377492
 20
102.6808597077086
 30
0.0
 10
216.7722259348387
 20
102.6928501855764
 30
0.0
 10
216.9457046058515
 20
102.8111761095734
 30
0.0
 10
217.1940382848542
 20
103.1224274170224
 30
0.0
 10
217.4485028269002
 20
103.6480749183874
 30
0.0
 10
217.7921822385913
 20
104.6866210826576
 30
0.0
 10
218.173402257858
 20
106.1216951250037
 30
0.0
 10
218.5235039138576
 20
107.9599472264431
 30
0.0
 10
218.7672957629458
 20
109.4811300752626
 30
0.0
 10
218.9062679581029
 20
110.3869621160591
 30
0.0
 10
218.9505607821355
 20
110.675666335927
 30
0.0
  0
SPLINE
  5
13D
330
1F
100
AcDbEntity
  8
0
  6
Continuous
 62
     7
370
    25
100
AcDbSpline
210
0.0
220
0.0
230
1.0
 70
     8
 71
     3
 72
     9
 73
     5
 74
     0
 42
0.00000001
 43
0.00000001
 40
0.0
 40
0.0
 40
0.0
 40
0.0
 40
0.5124861829376838
 40
0.9999999999999999
 40
0.9999999999999999
 40
0.9999999999999999
 40
0.9999999999999999
 10
216.4760139925848
 20
102.7134832138696
 30
0.0
 10
216.5016564967566
 20
102.7024553009184
 30
0.0
 10
216.5516920002015
 20
102.680936841849
 30
0.0
 10
216.60565260706
 20
102.6773936775039
 30
0.0
 10
216.6319591484805
 20
102.6756663359295
 30
0.0
  0
LINE
  5
13E
330
1F
100
AcDbEntity
  8
0
  6
Continuous
 62
     7
370
    25
100
AcDbLine
 10
218.1903500264
 20
111.6704099139
 30
0.0
 11
236.6514507596
 21
111.6704099139
 31
0.0
  0
LINE
  5
13F
330
1F
100
AcDbEntity
  8
0
  6
Continuous
 62
     7
370
    25
100
AcDbLine
 10
236.6514507596
 20
111.6704099139
 30
0.0
 11
236.6514507596
 21
108.4278420289
 31
0.0
  0
SPLINE
  5
140
330
1F
100
AcDbEntity
  8
0
  6
Continuous
 62
     7
370
    25
100
AcDbSpline
210
0.0
220
0.0
230
1.0
 70
     8
 71
     3
 72
    11
 73
     7
 74
     0
 42
0.00000001
 43
0.00000001
 40
0.0
 40
0.0
 40
0.0
 40
0.0
 40
0.2488607147078904
 40
0.4977191536447657
 40
0.7488602698858827
 40
0.9999999999999999
 40
0.9999999999999999
 40
0.9999999999999999
 40
0.9999999999999999
 10
229.5810571373463
 20
107.1046415279194
 30
0.0
 10
230.1576500962291
 20
107.2541204648076
 30
0.0
 10
231.3108307411914
 20
107.5530769716351
 30
0.0
 10
233.071745063122
 20
107.9148809450938
 30
0.0
 10
234.851723776701
 20
108.2171555883333
 30
0.0
 10
236.0515428689934
 20
108.3576133445865
 30
0.0
 10
236.65145075959
 20
108.4278420289049
 30
0.0
  0
LINE
  5
141
330
1F
100
AcDbEntity
  8
0
  6
Continuous
 62
     7
370
    25
100
AcDbLine
 10
229.5810571373
 20
107.1046415279
 30
0.0
 11
223.8013002875
 21
105.5360200874
 31
0.0
  0
SPLINE
  5
142
330
1F
100
AcDbEntity
  8
0
  6
Continuous
 62
     7
370
    25
100
AcDbSpline
210
0.0
220
0.0
230
1.0
 70
     8
 71
     3
 72
    13
 73
     9
 74
     0
 42
0.00000001
 43
0.00000001
 40
0.0
 40
0.0
 40
0.0
 40
0.0
 40
0.1610294006389558
 40
0.3266880383557516
 40
0.4877296220820637
 40
0.6535536198224136
 40
0.8237602734841889
 40
1.0
 40
1.0
 40
1.0
 40
1.0
 10
223.8013002874911
 20
105.5360200874366
 30
0.0
 10
223.5874302334599
 20
105.4666231928593
 30
0.0
 10
223.1535418370726
 20
105.3258343973508
 30
0.0
 10
222.5622210884069
 20
104.9797095796431
 30
0.0
 10
222.0282897395562
 20
104.5405029365911
 30
0.0
 10
221.5746057677531
 20
104.0069010996515
 30
0.0
 10
221.2001520547676
 20
103.3830747929518
 30
0.0
 10
221.0515889840089
 20
102.9141908947498
 30
0.0
 10
220.9760138980534
 20
102.6756663359294
 30
0.0
  0
LINE
  5
143
330
1F
100
AcDbEntity
  8
0
  6
Continuous
 62
     7
370
    25
100
AcDbLine
 10
220.9760138981
 20
102.6756663359
 30
0.0
 11
216.6319591485
 21
102.6756663359
 31
0.0
  0
LINE
  5
144
330
1F
100
AcDbEntity
  8
0
  6
Continuous
 62
     7
370
    25
100
AcDbLine
 10
216.482813256
 20
102.6756663359
 30
0.0
 11
216.4760139926
 21
102.7134832139
 31
0.0
  0
LINE
  5
145
330
1F
100
AcDbEntity
  8
0
  6
Continuous
 62
     7
370
    25
100
AcDbLine
 10
216.4760138981
 20
102.6756663359
 30
0.0
 11
216.482813256
 21
102.6756663359
 31
0.0
  0
LINE
  5
146
330
1F
100
AcDbEntity
  8
0
  6
Continuous
 62
     7
370
    25
100
AcDbLine
 10
216.6319591485
 20
102.6756663359
 30
0.0
 11
216.482813256
 21
102.6756663359
 31
0.0
  0
LINE
  5
147
330
1F
100
AcDbEntity
  8
0
  6
Continuous
 62
     7
370
    25
100
AcDbLine
 10
236.6514507596
 20
111.6704099139
 30
0.0
 11
236.6514507596
 21
120.6756663359
 31
0.0
  0
LINE
  5
148
330
1F
100
AcDbEntity
  8
0
  6
Continuous
 62
     7
370
    25
100
AcDbLine
 10
236.6514507596
 20
120.6756663359
 30
0.0
 11
254.4760138981
 21
120.6756663359
 31
0.0
  0
LINE
  5
149
330
1F
100
AcDbEntity
  8
0
  6
Continuous
 62
     7
370
    25
100
AcDbLine
 10
254.4760138981
 20
120.6756663359
 30
0.0
 11
254.4760138981
 21
113.6756663359
 31
0.0
  0
ARC
  5
14A
330
1F
100
AcDbEntity
  8
0
  6
Continuous
 62
     7
370
    25
100
AcDbCircle
 10
249.4760138981
 20
113.6756663359
 30
0.0
 40
5.000000000000028
100
AcDbArc
 50
270.0
 51
0.0
  0
LINE
  5
14B
330
1F
100
AcDbEntity
  8
0
  6
Continuous
 62
     7
370
    25
100
AcDbLine
 10
249.4760138981
 20
108.6756663359
 30
0.0
 11
241.3676817558
 21
108.6756663359
 31
0.0
  0
ARC
  5
14C
330
1F
100
AcDbEntity
  8
0
  6
Continuous
 62
     7
370
    25
100
AcDbCircle
 10
241.3676817558
 20
63.6755370817
 30
0.0
 40
45.00012925418375
100
AcDbArc
 50
90.0
 51
96.0159222295
  0
ARC
  5
14D
330
1F
100
AcDbEntity
  8
0
  6
Continuous
 62
     7
370
    25
100
AcDbCircle
 10
228.8649674623
 20
122.6756663359
 30
0.0
 40
10.00000000000848
100
AcDbArc
 50
203.5781784783
 51
264.4198332155
  0
ARC
  5
14E
330
1F
100
AcDbEntity
  8
0
  6
Continuous
 62
     7
370
    25
100
AcDbCircle
 10
228.4760138981
 20
118.6946218593
 30
0.0
 40
5.999999999999991
100
AcDbArc
 50
264.4198332155
 51
0.0
  0
LINE
  5
14F
330
1F
100
AcDbEntity
  8
0
  6
Continuous
 62
     7
370
    25
100
AcDbLine
 10
234.4760138981
 20
120.6756663359
 30
0.0
 11
234.4760138981
 21
118.6946218593
 31
0.0
  0
LINE
  5
150
330
1F
100
AcDbEntity
  8
0
  6
Continuous
 62
     7
370
    25
100
AcDbLine
 10
234.4760138981
 20
120.6756663359
 30
0.0
 11
236.6514507596
 21
120.6756663359
 31
0.0
  0
LINE
  5
151
330
1F
100
AcDbEntity
  8
0
  6
Continuous
 62
     7
370
    25
100
AcDbLine
 10
221.4760138981
 20
102.6756663359
 30
0.0
 11
220.9760138981
 21
102.6756663359
 31
0.0
  0
LINE
  5
152
330
1F
100
AcDbEntity
  8
0
  6
Continuous
 62
     7
370
    25
100
AcDbLine
 10
219.6998160724
 20
118.6756663359
 30
0.0
 11
219.7150992307
 21
118.6756663359
 31
0.0
  0
SPLINE
  5
153
330
1F
100
AcDbEntity
  8
0
  6
Continuous
 62
     7
370
    25
100
AcDbSpline
210
0.0
220
0.0
230
1.0
 70
     8
 71
     3
 72
    31
 73
    27
 74
     0
 42
0.00000001
 43
0.00000001
 40
0.0
 40
0.0
 40
0.0
 40
0.0
 40
0.0092778722161302
 40
0.0517185426101262
 40
0.0941864764455948
 40
0.1321083864666443
 40
0.1702204457649981
 40
0.208211617518197
 40
0.215474370760921
 40
0.2764897847965994
 40
0.3375044215150372
 40
0.3848245477091213
 40
0.4320494819172995
 40
0.4692184058643215
 40
0.5063484119965765
 40
0.543436146030475
 40
0.5805731830915793
 40
0.6303360987885381
 40
0.6801911881527216
 40
0.7334707292727235
 40
0.7867415470559262
 40
0.8315857638469635
 40
0.8763950204820059
 40
0.9190707458283746
 40
0.9617113016962751
 40
1.0
 40
1.0
 40
1.0
 40
1.0
 10
208.5766640333328
 20
101.6751141862487
 30
0.0
 10
208.5774090444702
 20
101.6744829427494
 30
0.0
 10
208.5815620322846
 20
101.6709641409103
 30
0.0
 10
208.6518446681535
 20
101.6110375280344
 30
0.0
 10
208.8431646783767
 20
101.450646658545
 30
0.0
 10
209.1180859257412
 20
101.2243520589127
 30
0.0
 10
209.4505030692711
 20
100.9589822607583
 30
0.0
 10
209.7375662122075
 20
100.7389034919801
 30
0.0
 10
210.1335136194172
 20
100.4451045215947
 30
0.0
 10
210.6691328661344
 20
100.0646821431383
 30
0.0
 10
211.4848863530198
 20
99.56665766300614
 30
0.0
 10
212.3264455106845
 20
99.1545399837215
 30
0.0
 10
213.1098525806696
 20
98.87754082243879
 30
0.0
 10
213.8828374253336
 20
98.7261236790683
 30
0.0
 10
214.6134277393224
 20
98.68797420778351
 30
0.0
 10
215.3381501926535
 20
98.76730609889579
 30
0.0
 10
216.1115198122366
 20
98.95980930673426
 30
0.0
 10
216.901914634322
 20
99.27696877580968
 30
0.0
 10
217.698719181586
 20
99.7022473140333
 30
0.0
 10
218.4260862864498
 20
100.1647080229146
 30
0.0
 10
219.0402921277849
 20
100.6051214028761
 30
0.0
 10
219.5337503404801
 20
100.9835805725918
 30
0.0
 10
219.908818699907
 20
101.2853515129801
 30
0.0
 10
220.1790075207602
 20
101.5089409411508
 30
0.0
 10
220.3474644255555
 20
101.6514302571082
 30
0.0
 10
220.3628788044711
 20
101.6644490673914
 30
0.0
 10
220.3701715505847
 20
101.6706084383668
 30
0.0
  0
LINE
  5
154
330
1F
100
AcDbEntity
  8
FORMAT
100
AcDbLine
 10
207.0423508678
 20
69.4267927377
 30
0.0
 11
206.7220735679
 21
79.6756663359
 31
0.0
  0
LINE
  5
155
330
1F
100
AcDbEntity
  8
FORMAT
100
AcDbLine
 10
221.9096769283
 20
69.4267927377
 30
0.0
 11
222.2299542283
 21
79.6756663359
 31
0.0
  0
LINE
  5
156
330
1F
100
AcDbEntity
  8
FORMAT
100
AcDbLine
 10
222.9523263981
 20
79.6756663359
 30
0.0
 11
205.9997013981
 21
79.6756663359
 31
0.0
  0
LINE
  5
157
330
1F
100
AcDbEntity
  8
FORMAT
100
AcDbLine
 10
190.1200138981
 20
99.6506663359
 30
0.0
 11
199.9760138981
 21
99.6506663359
 31
0.0
  0
LINE
  5
158
330
1F
100
AcDbEntity
  8
FORMAT
100
AcDbLine
 10
190.1200138981
 20
84.7006663359
 30
0.0
 11
199.9760138981
 21
84.7006663359
 31
0.0
  0
LINE
  5
159
330
1F
100
AcDbEntity
  8
FORMAT
100
AcDbLine
 10
199.9760138981
 20
83.8446663359
 30
0.0
 11
199.9760138981
 21
100.5066663359
 31
0.0
  0
LINE
  5
15A
330
1F
100
AcDbEntity
  8
FORMAT
  6
CENTERX2
370
    18
100
AcDbLine
 10
186.9760138981
 20
92.1756663359
 30
0.0
 11
229.5577746913
 21
92.1756663359
 31
0.0
  0
LINE
  5
15B
330
1F
100
AcDbEntity
  8
FORMAT
  6
CENTERX2
370
    18
100
AcDbLine
 10
214.4760138981
 20
121.9186047131
 30
0.0
 11
214.4760138981
 21
66.7495757696
 31
0.0
  0
LINE
  5
15C
330
1F
100
AcDbEntity
  8
0
  6
Continuous
 62
     7
370
    25
100
AcDbLine
 10
295.50100565
 20
80.1803212225
 30
0.0
 11
295.50906815
 21
80.1756663359
 31
0.0
  0
LINE
  5
15D
330
1F
100
AcDbEntity
  8
0
  6
Continuous
 62
     7
370
    25
100
AcDbLine
 10
295.50906815
 20
80.1756663359
 30
0.0
 11
295.8036334801
 21
70.7495757696
 31
0.0
  0
LINE
  5
15E
330
1F
100
AcDbEntity
  8
0
  6
Continuous
 62
     7
370
    25
100
AcDbLine
 10
312.1983778198
 20
70.7495757696
 30
0.0
 11
312.49294315
 21
80.1756663359
 31
0.0
  0
LINE
  5
15F
330
1F
100
AcDbEntity
  8
0
  6
Continuous
 62
     7
370
    25
100
AcDbLine
 10
295.8036334801
 20
70.7495757696
 30
0.0
 11
297.00100565
 21
68.6756663359
 31
0.0
  0
LINE
  5
160
330
1F
100
AcDbEntity
  8
0
  6
Continuous
 62
     7
370
    25
100
AcDbLine
 10
311.00100565
 20
68.6756663359
 30
0.0
 11
312.1983778198
 21
70.7495757696
 31
0.0
  0
LINE
  5
161
330
1F
100
AcDbEntity
  8
0
  6
Continuous
 62
     7
370
    25
100
AcDbLine
 10
309.9129959221
 20
98.5773317371
 30
0.0
 11
309.9032972931
 21
98.7085554794
 31
0.0
  0
LINE
  5
162
330
1F
100
AcDbEntity
  8
0
  6
Continuous
 62
     7
370
    25
100
AcDbLine
 10
298.1021433183
 20
98.7155530467
 30
0.0
 11
298.0921215743
 21
98.5791251005
 31
0.0
  0
LINE
  5
163
330
1F
100
AcDbEntity
  8
0
  6
Continuous
 62
     7
370
    25
100
AcDbLine
 10
309.90100565
 20
98.7088925891
 30
0.0
 11
309.90100565
 21
102.6756663359
 31
0.0
  0
LINE
  5
164
330
1F
100
AcDbEntity
  8
0
  6
Continuous
 62
     7
370
    25
100
AcDbLine
 10
298.10100565
 20
102.6756663359
 30
0.0
 11
298.10100565
 21
98.7141949998
 31
0.0
  0
ARC
  5
165
330
1F
100
AcDbEntity
  8
0
  6
Continuous
 62
     7
370
    25
100
AcDbCircle
 10
309.25100565
 20
119.2756663359
 30
0.0
 40
0.25
100
AcDbArc
 50
0.0
 51
90.0
  0
ARC
  5
166
330
1F
100
AcDbEntity
  8
0
  6
Continuous
 62
     7
370
    25
100
AcDbCircle
 10
298.75100565
 20
119.2756663359
 30
0.0
 40
0.2500000000000568
100
AcDbArc
 50
90.0
 51
180.0
  0
LINE
  5
167
330
1F
100
AcDbEntity
  8
0
  6
Continuous
 62
     7
370
    25
100
AcDbLine
 10
298.50100565
 20
119.2756663359
 30
0.0
 11
298.50100565
 21
118.6756663359
 31
0.0
  0
LINE
  5
168
330
1F
100
AcDbEntity
  8
0
  6
Continuous
 62
     7
370
    25
100
AcDbLine
 10
309.50100565
 20
118.6756663359
 30
0.0
 11
309.50100565
 21
119.2756663359
 31
0.0
  0
LINE
  5
169
330
1F
100
AcDbEntity
  8
0
  6
Continuous
 62
     7
370
    25
100
AcDbLine
 10
311.45100565
 20
110.6756663359
 30
0.0
 11
309.5010056499
 21
118.6756663359
 31
0.0
  0
LINE
  5
16A
330
1F
100
AcDbEntity
  8
0
  6
Continuous
 62
     7
370
    25
100
AcDbLine
 10
298.50100565
 20
118.6756663359
 30
0.0
 11
296.5510056499
 21
110.6756663359
 31
0.0
  0
LINE
  5
16B
330
1F
100
AcDbEntity
  8
0
  6
Continuous
 62
     7
370
    25
100
AcDbLine
 10
296.55100565
 20
110.6756663359
 30
0.0
 11
297.00100565
 21
102.6756663359
 31
0.0
  0
LINE
  5
16C
330
1F
100
AcDbEntity
  8
0
  6
Continuous
 62
     7
370
    25
100
AcDbLine
 10
311.00100565
 20
102.6756663359
 30
0.0
 11
311.45100565
 21
110.6756663359
 31
0.0
  0
CIRCLE
  5
16D
330
1F
100
AcDbEntity
  8
0
  6
Continuous
 62
     7
370
    25
100
AcDbCircle
 10
304.00100565
 20
92.1756663359
 30
0.0
 40
8.25
  0
SPLINE
  5
16E
330
1F
100
AcDbEntity
  8
0
  6
Continuous
 62
     7
370
    25
100
AcDbSpline
210
0.0
220
0.0
230
1.0
 70
     8
 71
     3
 72
    10
 73
     6
 74
     0
 42
0.00000001
 43
0.00000001
 40
0.0
 40
0.0
 40
0.0
 40
0.0
 40
0.5
 40
0.5
 40
1.0
 40
1.0
 40
1.0
 40
1.0
 10
295.5010056499504
 20
87.55686418241238
 30
0.0
 10
295.5010056499504
 20
87.47097712060993
 30
0.0
 10
295.5237980992802
 20
87.38356991162979
 30
0.0
 10
295.6117408033733
 20
87.23093346903607
 30
0.0
 10
295.6765985770472
 20
87.16681042409049
 30
0.0
 10
295.7510056499505
 20
87.12385148052017
 30
0.0
  0
SPLINE
  5
16F
330
1F
100
AcDbEntity
  8
0
  6
Continuous
 62
     7
370
    25
100
AcDbSpline
210
0.0
220
0.0
230
1.0
 70
    24
 71
     3
 72
    14
 73
    10
 74
     0
 42
0.00000001
 43
0.00000001
 40
0.0
 40
0.0
 40
0.0
 40
0.0
 40
0.25
 40
0.25
 40
0.5
 40
0.5
 40
0.75
 40
0.75
 40
1.0
 40
1.0
 40
1.0
 40
1.0
 10
295.5010056499504
 20
87.55686418241234
 30
0.0
 10
295.5010056499504
 20
88.31124424306233
 30
0.0
 10
295.5010056499504
 20
89.08068541052782
 30
0.0
 10
295.5010056499504
 20
90.62119677146899
 30
0.0
 10
295.5010056499504
 20
91.396051151476
 30
0.0
 10
295.5010056499504
 20
92.95641210636155
 30
0.0
 10
295.5010056499504
 20
93.7468682991466
 30
0.0
 10
295.5010056499504
 20
95.28914796195507
 30
0.0
 10
295.5010056499504
 20
96.04653871515626
 30
0.0
 10
295.5010056499504
 20
96.7944684894464
 30
0.0
  0
SPLINE
  5
170
330
1F
100
AcDbEntity
  8
0
  6
Continuous
 62
     7
370
    25
100
AcDbSpline
210
0.0
220
0.0
230
1.0
 70
     8
 71
     3
 72
    10
 73
     6
 74
     0
 42
0.00000001
 43
0.00000001
 40
0.0
 40
0.0
 40
0.0
 40
0.0
 40
0.5
 40
0.5
 40
1.0
 40
1.0
 40
1.0
 40
1.0
 10
295.7510056499505
 20
97.22748119133863
 30
0.0
 10
295.6766252725731
 20
97.1845376604374
 30
0.0
 10
295.6123246337874
 20
97.12109521581327
 30
0.0
 10
295.5241089490044
 20
96.9686163786943
 30
0.0
 10
295.5010056499504
 20
96.88038637658704
 30
0.0
 10
295.5010056499504
 20
96.7944684894464
 30
0.0
  0
SPLINE
  5
171
330
1F
100
AcDbEntity
  8
0
  6
Continuous
 62
     7
370
    25
100
AcDbSpline
210
0.0
220
0.0
230
1.0
 70
    24
 71
     3
 72
    16
 73
    12
 74
     0
 42
0.00000001
 43
0.00000001
 40
0.0
 40
0.0
 40
0.0
 40
0.0
 40
0.2500000000000001
 40
0.2500000000000001
 40
0.5000000000000001
 40
0.5000000000000001
 40
0.6250000000000001
 40
0.6250000000000001
 40
0.7500000000000002
 40
0.7500000000000002
 40
1.0
 40
1.0
 40
1.0
 40
1.0
 10
303.7510056499505
 20
101.8462833448556
 30
0.0
 10
303.0974888699096
 20
101.4689752559791
 30
0.0
 10
302.4392684608196
 20
101.0889515256049
 30
0.0
 10
301.1097058774538
 20
100.3213282101942
 30
0.0
 10
300.4382818953833
 20
99.93368139340545
 30
0.0
 10
299.4192808083766
 20
99.3453608415176
 30
0.0
 10
299.0779400260604
 20
99.14828764896195
 30
0.0
 10
298.4023415230899
 20
98.75823067140784
 30
0.0
 10
298.0666823731253
 20
98.56443777081982
 30
0.0
 10
297.0654167366256
 20
97.98635678605638
 30
0.0
 10
296.4055090780225
 20
97.60535892172156
 30
0.0
 10
295.7510056499505
 20
97.22748119133863
 30
0.0
  0
SPLINE
  5
172
330
1F
100
AcDbEntity
  8
0
  6
Continuous
 62
     7
370
    25
100
AcDbSpline
210
0.0
220
0.0
230
1.0
 70
     8
 71
     3
 72
    10
 73
     6
 74
     0
 42
0.00000001
 43
0.00000001
 40
0.0
 40
0.0
 40
0.0
 40
0.0
 40
0.5
 40
0.5
 40
1.0
 40
1.0
 40
1.0
 40
1.0
 10
304.2510056499505
 20
101.8462833448556
 30
0.0
 10
304.1766252725731
 20
101.8892268757569
 30
0.0
 10
304.0895321844575
 20
101.9131916401129
 30
0.0
 10
303.9133737955815
 20
101.9133492455876
 30
0.0
 10
303.8254127228537
 20
101.8892422884259
 30
0.0
 10
303.7510056499505
 20
101.8462833448556
 30
0.0
  0
SPLINE
  5
173
330
1F
100
AcDbEntity
  8
0
  6
Continuous
 62
     7
370
    25
100
AcDbSpline
210
0.0
220
0.0
230
1.0
 70
    24
 71
     3
 72
    16
 73
    12
 74
     0
 42
0.00000001
 43
0.00000001
 40
0.0
 40
0.0
 40
0.0
 40
0.0
 40
0.2499999999999997
 40
0.2499999999999997
 40
0.4999999999999993
 40
0.4999999999999993
 40
0.6249999999999993
 40
0.6249999999999993
 40
0.7499999999999996
 40
0.7499999999999996
 40
1.0
 40
1.0
 40
1.0
 40
1.0
 10
312.2510056499504
 20
97.22748119133863
 30
0.0
 10
311.5974888699096
 20
97.60478928021513
 30
0.0
 10
310.9392684608197
 20
97.98481301058932
 30
0.0
 10
309.6097058774538
 20
98.75243632600002
 30
0.0
 10
308.9382818953833
 20
99.14008314278882
 30
0.0
 10
307.9192808083766
 20
99.72840369467667
 30
0.0
 10
307.5779400260604
 20
99.92547688723232
 30
0.0
 10
306.9023415230899
 20
100.3155338647864
 30
0.0
 10
306.5666823731253
 20
100.5093267653745
 30
0.0
 10
305.5654167366257
 20
101.0874077501379
 30
0.0
 10
304.9055090780225
 20
101.4684056144727
 30
0.0
 10
304.2510056499505
 20
101.8462833448556
 30
0.0
  0
SPLINE
  5
174
330
1F
100
AcDbEntity
  8
0
  6
Continuous
 62
     7
370
    25
100
AcDbSpline
210
0.0
220
0.0
230
1.0
 70
     8
 71
     3
 72
    10
 73
     6
 74
     0
 42
0.00000001
 43
0.00000001
 40
0.0
 40
0.0
 40
0.0
 40
0.0
 40
0.5
 40
0.5
 40
1.0
 40
1.0
 40
1.0
 40
1.0
 10
312.5010056499504
 20
96.7944684894464
 30
0.0
 10
312.5010056499504
 20
96.88035555124887
 30
0.0
 10
312.4782132006206
 20
96.96776276022898
 30
0.0
 10
312.3902704965276
 20
97.12039920282272
 30
0.0
 10
312.3254127228537
 20
97.18452224776831
 30
0.0
 10
312.2510056499504
 20
97.22748119133863
 30
0.0
  0
SPLINE
  5
175
330
1F
100
AcDbEntity
  8
0
  6
Continuous
 62
     7
370
    25
100
AcDbSpline
210
0.0
220
0.0
230
1.0
 70
    24
 71
     3
 72
    14
 73
    10
 74
     0
 42
0.00000001
 43
0.00000001
 40
0.0
 40
0.0
 40
0.0
 40
0.0
 40
0.25
 40
0.25
 40
0.5
 40
0.5
 40
0.75
 40
0.75
 40
1.0
 40
1.0
 40
1.0
 40
1.0
 10
312.5010056499504
 20
87.55686418241234
 30
0.0
 10
312.5010056499504
 20
88.31124424306232
 30
0.0
 10
312.5010056499504
 20
89.0806854105278
 30
0.0
 10
312.5010056499504
 20
90.62119677146899
 30
0.0
 10
312.5010056499504
 20
91.396051151476
 30
0.0
 10
312.5010056499504
 20
92.95641210636155
 30
0.0
 10
312.5010056499504
 20
93.7468682991466
 30
0.0
 10
312.5010056499504
 20
95.28914796195507
 30
0.0
 10
312.5010056499504
 20
96.04653871515626
 30
0.0
 10
312.5010056499504
 20
96.7944684894464
 30
0.0
  0
SPLINE
  5
176
330
1F
100
AcDbEntity
  8
0
  6
Continuous
 62
     7
370
    25
100
AcDbSpline
210
0.0
220
0.0
230
1.0
 70
     8
 71
     3
 72
    10
 73
     6
 74
     0
 42
0.00000001
 43
0.00000001
 40
0.0
 40
0.0
 40
0.0
 40
0.0
 40
0.5
 40
0.5
 40
1.0
 40
1.0
 40
1.0
 40
1.0
 10
312.2510056499504
 20
87.12385148052017
 30
0.0
 10
312.3253860273276
 20
87.1667950114213
 30
0.0
 10
312.3896866661131
 20
87.23023745604497
 30
0.0
 10
312.4779023508963
 20
87.38271629316411
 30
0.0
 10
312.5010056499504
 20
87.47094629527157
 30
0.0
 10
312.5010056499504
 20
87.55686418241237
 30
0.0
  0
SPLINE
  5
177
330
1F
100
AcDbEntity
  8
0
  6
Continuous
 62
     7
370
    25
100
AcDbSpline
210
0.0
220
0.0
230
1.0
 70
    24
 71
     3
 72
    16
 73
    12
 74
     0
 42
0.00000001
 43
0.00000001
 40
0.0
 40
0.0
 40
0.0
 40
0.0
 40
0.2500000000000002
 40
0.2500000000000002
 40
0.5000000000000004
 40
0.5000000000000004
 40
0.6250000000000003
 40
0.6250000000000003
 40
0.7500000000000002
 40
0.7500000000000002
 40
1.0
 40
1.0
 40
1.0
 40
1.0
 10
304.2510056499504
 20
82.50504932700318
 30
0.0
 10
304.9045224299912
 20
82.88235741587964
 30
0.0
 10
305.5627428390811
 20
83.26238114625382
 30
0.0
 10
306.8923054224468
 20
84.03000446166445
 30
0.0
 10
307.5637294045173
 20
84.41765127845322
 30
0.0
 10
308.5827304915239
 20
85.00597183034101
 30
0.0
 10
308.9240712738401
 20
85.20304502289663
 30
0.0
 10
309.5996697768105
 20
85.59310200045071
 30
0.0
 10
309.9353289267751
 20
85.78689490103875
 30
0.0
 10
310.9365945632747
 20
86.36497588580212
 30
0.0
 10
311.5965022218778
 20
86.74597375013691
 30
0.0
 10
312.2510056499498
 20
87.12385148051982
 30
0.0
  0
SPLINE
  5
178
330
1F
100
AcDbEntity
  8
0
  6
Continuous
 62
     7
370
    25
100
AcDbSpline
210
0.0
220
0.0
230
1.0
 70
     8
 71
     3
 72
    10
 73
     6
 74
     0
 42
0.00000001
 43
0.00000001
 40
0.0
 40
0.0
 40
0.0
 40
0.0
 40
0.5
 40
0.5
 40
1.0
 40
1.0
 40
1.0
 40
1.0
 10
303.7510056499504
 20
82.50504932700318
 30
0.0
 10
303.8253860273277
 20
82.46210579610194
 30
0.0
 10
303.9124791154433
 20
82.43814103174596
 30
0.0
 10
304.0886375043193
 20
82.43798342627117
 30
0.0
 10
304.1765985770472
 20
82.46209038343285
 30
0.0
 10
304.2510056499504
 20
82.50504932700318
 30
0.0
  0
SPLINE
  5
179
330
1F
100
AcDbEntity
  8
0
  6
Continuous
 62
     7
370
    25
100
AcDbSpline
210
0.0
220
0.0
230
1.0
 70
    24
 71
     3
 72
    16
 73
    12
 74
     0
 42
0.00000001
 43
0.00000001
 40
0.0
 40
0.0
 40
0.0
 40
0.0
 40
0.2500000000000001
 40
0.2500000000000001
 40
0.5000000000000002
 40
0.5000000000000002
 40
0.6250000000000001
 40
0.6250000000000001
 40
0.7500000000000001
 40
0.7500000000000001
 40
1.0
 40
1.0
 40
1.0
 40
1.0
 10
295.7510056499505
 20
87.12385148052019
 30
0.0
 10
296.4045224299912
 20
86.74654339164367
 30
0.0
 10
297.0627428390812
 20
86.36651966126948
 30
0.0
 10
298.392305422447
 20
85.59889634585878
 30
0.0
 10
299.0637294045175
 20
85.21124952906999
 30
0.0
 10
300.0827304915242
 20
84.62292897718213
 30
0.0
 10
300.4240712738404
 20
84.42585578462648
 30
0.0
 10
301.0996697768109
 20
84.0357988070724
 30
0.0
 10
301.4353289267755
 20
83.84200590648435
 30
0.0
 10
302.4365945632752
 20
83.26392492172093
 30
0.0
 10
303.0965022218783
 20
82.8829270573861
 30
0.0
 10
303.7510056499504
 20
82.50504932700318
 30
0.0
  0
LINE
  5
17A
330
1F
100
AcDbEntity
  8
0
  6
Continuous
 62
     7
370
    25
100
AcDbLine
 10
303.75100565
 20
80.8580426277
 30
0.0
 11
303.75100565
 21
82.505049327
 31
0.0
  0
LINE
  5
17B
330
1F
100
AcDbEntity
  8
0
  6
Continuous
 62
     7
370
    25
100
AcDbLine
 10
304.25100565
 20
82.505049327
 30
0.0
 11
304.25100565
 21
80.8580426277
 31
0.0
  0
SPLINE
  5
17C
330
1F
100
AcDbEntity
  8
0
  6
Continuous
 62
     7
370
    25
100
AcDbSpline
210
0.0
220
0.0
230
1.0
 70
     8
 71
     3
 72
    10
 73
     6
 74
     0
 42
0.00000001
 43
0.00000001
 40
0.0
 40
0.0
 40
0.0
 40
0.0
 40
0.5
 40
0.5
 40
1.0
 40
1.0
 40
1.0
 40
1.0
 10
304.2510056499504
 20
80.85804262773493
 30
0.0
 10
304.1766308959604
 20
80.88171623222605
 30
0.0
 10
304.0895371643945
 20
80.89480900801928
 30
0.0
 10
303.91337133585
 20
80.89489557612023
 30
0.0
 10
303.8254103119597
 20
80.88172575199695
 30
0.0
 10
303.7510056499505
 20
80.85804262773493
 30
0.0
  0
LINE
  5
17D
330
1F
100
AcDbEntity
  8
0
  6
Continuous
 62
     7
370
    25
100
AcDbLine
 10
295.50906815
 20
80.1756663359
 30
0.0
 11
312.49294315
 21
80.1756663359
 31
0.0
  0
SPLINE
  5
17E
330
1F
100
AcDbEntity
  8
0
  6
Continuous
 62
     7
370
    25
100
AcDbSpline
210
0.0
220
0.0
230
1.0
 70
     8
 71
     3
 72
    10
 73
     6
 74
     0
 42
0.00000001
 43
0.00000001
 40
0.0
 40
0.0
 40
0.0
 40
0.0
 40
0.5
 40
0.5
 40
1.0
 40
1.0
 40
1.0
 40
1.0
 10
295.7510056499505
 20
80.85804262773492
 30
0.0
 10
295.6766351830248
 20
80.8817148676465
 30
0.0
 10
295.612329586737
 20
80.89480885758175
 30
0.0
 10
295.5241067989311
 20
80.8948957250432
 30
0.0
 10
295.5010056499504
 20
80.88172593528384
 30
0.0
 10
295.5010056499504
 20
80.85804262773492
 30
0.0
  0
SPLINE
  5
17F
330
1F
100
AcDbEntity
  8
0
  6
Continuous
 62
     7
370
    25
100
AcDbSpline
210
0.0
220
0.0
230
1.0
 70
     8
 71
     3
 72
    16
 73
    12
 74
     0
 42
0.00000001
 43
0.00000001
 40
0.0
 40
0.0
 40
0.0
 40
0.0
 40
0.2499999999999999
 40
0.2499999999999999
 40
0.4999999999999998
 40
0.4999999999999998
 40
0.6249999999999998
 40
0.6249999999999998
 40
0.7499999999999997
 40
0.7499999999999997
 40
1.0
 40
1.0
 40
1.0
 40
1.0
 10
295.7510056499504
 20
80.85804262773446
 30
0.0
 10
296.4052273033898
 20
80.64980281728582
 30
0.0
 10
297.063679838901
 20
80.47962953087637
 30
0.0
 10
298.3923244638843
 20
80.24490727126053
 30
0.0
 10
299.0625889081718
 20
80.18100929618606
 30
0.0
 10
300.0785246517335
 20
80.17998559409956
 30
0.0
 10
300.4198757698332
 20
80.19547214124425
 30
0.0
 10
301.0962920812977
 20
80.25659586270224
 30
0.0
 10
301.4323648503386
 20
80.30211758999727
 30
0.0
 10
302.4348829113996
 20
80.47861695374243
 30
0.0
 10
303.0956407814911
 20
80.64943893009625
 30
0.0
 10
303.7510056499505
 20
80.85804262773479
 30
0.0
  0
SPLINE
  5
180
330
1F
100
AcDbEntity
  8
0
  6
Continuous
 62
     7
370
    25
100
AcDbSpline
210
0.0
220
0.0
230
1.0
 70
     8
 71
     3
 72
    16
 73
    12
 74
     0
 42
0.00000001
 43
0.00000001
 40
0.0
 40
0.0
 40
0.0
 40
0.0
 40
0.2500000000000001
 40
0.2500000000000001
 40
0.5000000000000001
 40
0.5000000000000001
 40
0.6250000000000001
 40
0.6250000000000001
 40
0.7500000000000002
 40
0.7500000000000002
 40
1.0
 40
1.0
 40
1.0
 40
1.0
 10
304.2510056499504
 20
80.85804262773446
 30
0.0
 10
304.9052273033899
 20
80.64980281728582
 30
0.0
 10
305.563679838901
 20
80.47962953087637
 30
0.0
 10
306.8923244638843
 20
80.24490727126052
 30
0.0
 10
307.5625889081718
 20
80.18100929618606
 30
0.0
 10
308.5785246517335
 20
80.17998559409956
 30
0.0
 10
308.9198757698332
 20
80.19547214124425
 30
0.0
 10
309.5962920812977
 20
80.25659586270224
 30
0.0
 10
309.9323648503386
 20
80.30211758999727
 30
0.0
 10
310.9348829113995
 20
80.47861695374243
 30
0.0
 10
311.5956407814911
 20
80.64943893009627
 30
0.0
 10
312.2510056499505
 20
80.85804262773479
 30
0.0
  0
SPLINE
  5
181
330
1F
100
AcDbEntity
  8
0
  6
Continuous
 62
     7
370
    25
100
AcDbSpline
210
0.0
220
0.0
230
1.0
 70
     8
 71
     3
 72
    10
 73
     6
 74
     0
 42
0.00000001
 43
0.00000001
 40
0.0
 40
0.0
 40
0.0
 40
0.0
 40
0.5
 40
0.5
 40
1.0
 40
1.0
 40
1.0
 40
1.0
 10
312.5010056499504
 20
80.85804262773493
 30
0.0
 10
312.5010056499504
 20
80.8817165282909
 30
0.0
 10
312.478215078303
 20
80.89480908547003
 30
0.0
 10
312.3902690810041
 20
80.8948954994523
 30
0.0
 10
312.3254082882714
 20
80.88172510785368
 30
0.0
 10
312.2510056499504
 20
80.85804262773493
 30
0.0
  0
SPLINE
  5
182
330
1F
100
AcDbEntity
  8
0
  6
Continuous
 62
     7
370
    25
100
AcDbSpline
210
0.0
220
0.0
230
1.0
 70
    24
 71
     3
 72
    12
 73
     8
 74
     0
 42
0.00000001
 43
0.00000001
 40
0.0
 40
0.0
 40
0.0
 40
0.0
 40
0.0617571580340976
 40
0.2943286854734785
 40
0.5269295588271141
 40
0.7634445546488585
 40
1.0
 40
1.0
 40
1.0
 40
1.0
 10
295.5010056499504
 20
80.1898718602786
 30
0.0
 10
295.5010056499504
 20
80.18690655617455
 30
0.0
 10
295.5010056499504
 20
80.17277420153327
 30
0.0
 10
295.5010056499504
 20
80.23638309221536
 30
0.0
 10
295.5010056499504
 20
80.36982040288937
 30
0.0
 10
295.5010056499504
 20
80.57816879276942
 30
0.0
 10
295.5010056499504
 20
80.76474603169798
 30
0.0
 10
295.5010056499504
 20
80.85804262773492
 30
0.0
  0
SPLINE
  5
183
330
1F
100
AcDbEntity
  8
0
  6
Continuous
 62
     7
370
    25
100
AcDbSpline
210
0.0
220
0.0
230
1.0
 70
    24
 71
     3
 72
    12
 73
     8
 74
     0
 42
0.00000001
 43
0.00000001
 40
0.0
 40
0.0
 40
0.0
 40
0.0
 40
0.2328642324708655
 40
0.4656905567186608
 40
0.7019919530700085
 40
0.9382618479897168
 40
1.0
 40
1.0
 40
1.0
 40
1.0
 10
312.5010056499504
 20
80.85804262773492
 30
0.0
 10
312.5010056499504
 20
80.76612816783633
 30
0.0
 10
312.5010056499504
 20
80.58231421089461
 30
0.0
 10
312.5010056499504
 20
80.37359977119401
 30
0.0
 10
312.5010056499504
 20
80.23758885407797
 30
0.0
 10
312.5010056499504
 20
80.17293073550108
 30
0.0
 10
312.5010056499504
 20
80.18674579836812
 30
0.0
 10
312.5010056499504
 20
80.18960785682629
 30
0.0
  0
SPLINE
  5
184
330
1F
100
AcDbEntity
  8
0
  6
Continuous
 62
     7
370
    25
100
AcDbSpline
210
0.0
220
0.0
230
1.0
 70
     8
 71
     3
 72
    10
 73
     6
 74
     0
 42
0.00000001
 43
0.00000001
 40
0.0
 40
0.0
 40
0.0
 40
0.0
 40
0.5
 40
0.5
 40
1.0
 40
1.0
 40
1.0
 40
1.0
 10
295.7510056499509
 20
84.20926979607454
 30
0.0
 10
296.3858333557645
 20
84.41133648162547
 30
0.0
 10
297.0250990583403
 20
84.57772925389612
 30
0.0
 10
298.3159139899302
 20
84.81177622776617
 30
0.0
 10
298.9675336254001
 20
84.878864481725
 30
0.0
 10
299.6265755572202
 20
84.88629015129479
 30
0.0
  0
LINE
  5
185
330
1F
100
AcDbEntity
  8
0
  6
Continuous
 62
     7
370
    25
100
AcDbLine
 10
295.75100565
 20
84.2092697961
 30
0.0
 11
295.75100565
 21
80.8580426277
 31
0.0
  0
SPLINE
  5
186
330
1F
100
AcDbEntity
  8
0
  6
Continuous
 62
     7
370
    25
100
AcDbSpline
210
0.0
220
0.0
230
1.0
 70
     8
 71
     3
 72
    12
 73
     8
 74
     0
 42
0.00000001
 43
0.00000001
 40
0.0
 40
0.0
 40
0.0
 40
0.0
 40
0.2499999999999999
 40
0.2499999999999999
 40
0.4999999999999998
 40
0.4999999999999998
 40
1.0
 40
1.0
 40
1.0
 40
1.0
 10
308.3754357427028
 20
84.88629015129453
 30
0.0
 10
308.7045707330959
 20
84.88258166543811
 30
0.0
 10
309.0340328860327
 20
84.86399916260042
 30
0.0
 10
309.6869065040904
 20
84.79913212563429
 30
0.0
 10
310.0113590959675
 20
84.75286657238401
 30
0.0
 10
310.9794195371595
 20
84.57714204207706
 30
0.0
 10
311.6177420214075
 20
84.41083863330029
 30
0.0
 10
312.2510056499504
 20
84.20926979607441
 30
0.0
  0
LINE
  5
187
330
1F
100
AcDbEntity
  8
0
  6
Continuous
 62
     7
370
    25
100
AcDbLine
 10
312.25100565
 20
80.8580426277
 30
0.0
 11
312.25100565
 21
84.2092697961
 31
0.0
  0
LINE
  5
188
330
1F
100
AcDbEntity
  8
0
  6
Continuous
 62
     7
370
    25
100
AcDbLine
 10
304.00100565
 20
70.7495757696
 30
0.0
 11
295.8036334801
 21
70.7495757696
 31
0.0
  0
LINE
  5
189
330
1F
100
AcDbEntity
  8
0
  6
Continuous
 62
     7
370
    25
100
AcDbLine
 10
312.1983778198
 20
70.7495757696
 30
0.0
 11
304.00100565
 21
70.7495757696
 31
0.0
  0
LINE
  5
18A
330
1F
100
AcDbEntity
  8
0
  6
Continuous
 62
     7
370
    25
100
AcDbLine
 10
311.00100565
 20
68.6756663359
 30
0.0
 11
297.00100565
 21
68.6756663359
 31
0.0
  0
SPLINE
  5
18B
330
1F
100
AcDbEntity
  8
0
  6
Continuous
 62
     7
370
    25
100
AcDbSpline
210
0.0
220
0.0
230
1.0
 70
     8
 71
     3
 72
     8
 73
     4
 74
     0
 42
0.00000001
 43
0.00000001
 40
0.0
 40
0.0
 40
0.0
 40
0.0
 40
1.0
 40
1.0
 40
1.0
 40
1.0
 10
295.5010056499504
 20
84.37075512435543
 30
0.0
 10
296.0228118012522
 20
84.64334526002476
 30
0.0
 10
296.5464652701084
 20
84.91249776114617
 30
0.0
 10
297.0728024196749
 20
85.1756663359294
 30
0.0
  0
SPLINE
  5
18C
330
1F
100
AcDbEntity
  8
0
  6
Continuous
 62
     7
370
    25
100
AcDbSpline
210
0.0
220
0.0
230
1.0
 70
     8
 71
     3
 72
    10
 73
     6
 74
     0
 42
0.00000001
 43
0.00000001
 40
0.0
 40
0.0
 40
0.0
 40
0.0
 40
0.5
 40
0.5
 40
1.0
 40
1.0
 40
1.0
 40
1.0
 10
295.5010056499504
 20
84.20926979607438
 30
0.0
 10
295.5010056499504
 20
84.18559440164996
 30
0.0
 10
295.5237980992803
 20
84.17250329176534
 30
0.0
 10
295.6117408033735
 20
84.17241697047712
 30
0.0
 10
295.6765985770477
 20
84.18558590442106
 30
0.0
 10
295.7510056499511
 20
84.20926979607461
 30
0.0
  0
SPLINE
  5
18D
330
1F
100
AcDbEntity
  8
0
  6
Continuous
 62
     7
370
    25
100
AcDbSpline
210
0.0
220
0.0
230
1.0
 70
    24
 71
     3
 72
     8
 73
     4
 74
     0
 42
0.00000001
 43
0.00000001
 40
0.0
 40
0.0
 40
0.0
 40
0.0
 40
1.0
 40
1.0
 40
1.0
 40
1.0
 10
295.5010056499504
 20
84.37075512435543
 30
0.0
 10
295.5010056499504
 20
84.31986033465459
 30
0.0
 10
295.5010056499504
 20
84.26592648529316
 30
0.0
 10
295.5010056499504
 20
84.2092697960744
 30
0.0
  0
SPLINE
  5
18E
330
1F
100
AcDbEntity
  8
0
  6
Continuous
 62
     7
370
    25
100
AcDbSpline
210
0.0
220
0.0
230
1.0
 70
     8
 71
     3
 72
     8
 73
     4
 74
     0
 42
0.00000001
 43
0.00000001
 40
0.0
 40
0.0
 40
0.0
 40
0.0
 40
1.0
 40
1.0
 40
1.0
 40
1.0
 10
310.9292088802259
 20
85.17566633592939
 30
0.0
 10
311.4556297414351
 20
84.91245590532479
 30
0.0
 10
311.9791741981488
 20
84.64335847693809
 30
0.0
 10
312.5010056499504
 20
84.37075512435544
 30
0.0
  0
SPLINE
  5
18F
330
1F
100
AcDbEntity
  8
0
  6
Continuous
 62
     7
370
    25
100
AcDbSpline
210
0.0
220
0.0
230
1.0
 70
     8
 71
     3
 72
    10
 73
     6
 74
     0
 42
0.00000001
 43
0.00000001
 40
0.0
 40
0.0
 40
0.0
 40
0.0
 40
0.5
 40
0.5
 40
1.0
 40
1.0
 40
1.0
 40
1.0
 10
312.2510056499504
 20
84.20926979607441
 30
0.0
 10
312.3253860273277
 20
84.18559440165001
 30
0.0
 10
312.3896866661135
 20
84.17250329176537
 30
0.0
 10
312.4779023508964
 20
84.17241697047709
 30
0.0
 10
312.5010056499504
 20
84.18558590442092
 30
0.0
 10
312.5010056499504
 20
84.2092697960744
 30
0.0
  0
SPLINE
  5
190
330
1F
100
AcDbEntity
  8
0
  6
Continuous
 62
     7
370
    25
100
AcDbSpline
210
0.0
220
0.0
230
1.0
 70
    24
 71
     3
 72
     8
 73
     4
 74
     0
 42
0.00000001
 43
0.00000001
 40
0.0
 40
0.0
 40
0.0
 40
0.0
 40
1.0
 40
1.0
 40
1.0
 40
1.0
 10
312.5010056499504
 20
84.37075512435543
 30
0.0
 10
312.5010056499504
 20
84.31986033465459
 30
0.0
 10
312.5010056499504
 20
84.26592648529316
 30
0.0
 10
312.5010056499504
 20
84.2092697960744
 30
0.0
  0
LINE
  5
191
330
1F
100
AcDbEntity
  8
0
  6
Continuous
 62
     7
370
    25
100
AcDbLine
 10
311.50100565
 20
86.6908387786
 30
0.0
 11
311.50100565
 21
85.1756663359
 31
0.0
  0
LINE
  5
192
330
1F
100
AcDbEntity
  8
0
  6
Continuous
 62
     7
370
    25
100
AcDbLine
 10
308.876649997
 20
85.1756663359
 30
0.0
 11
311.50100565
 21
85.1756663359
 31
0.0
  0
LINE
  5
193
330
1F
100
AcDbEntity
  8
0
  6
Continuous
 62
     7
370
    25
100
AcDbLine
 10
296.50100565
 20
85.1756663359
 30
0.0
 11
299.1253613029
 21
85.1756663359
 31
0.0
  0
LINE
  5
194
330
1F
100
AcDbEntity
  8
0
  6
Continuous
 62
     7
370
    25
100
AcDbLine
 10
296.50100565
 20
85.1756663359
 30
0.0
 11
296.50100565
 21
86.6908387786
 31
0.0
  0
LINE
  5
195
330
1F
100
AcDbEntity
  8
0
  6
Continuous
 62
     7
370
    25
100
AcDbLine
 10
295.50100565
 20
80.8580426277
 30
0.0
 11
295.50100565
 21
84.2092697961
 31
0.0
  0
LINE
  5
196
330
1F
100
AcDbEntity
  8
0
  6
Continuous
 62
     7
370
    25
100
AcDbLine
 10
312.50100565
 20
84.2092697961
 30
0.0
 11
312.50100565
 21
80.8580426277
 31
0.0
  0
LINE
  5
197
330
1F
100
AcDbEntity
  8
0
  6
Continuous
 62
     7
370
    25
100
AcDbLine
 10
295.50100565
 20
84.3707551244
 30
0.0
 11
295.50100565
 21
87.5275826383
 31
0.0
  0
LINE
  5
198
330
1F
100
AcDbEntity
  8
0
  6
Continuous
 62
     7
370
    25
100
AcDbLine
 10
312.50100565
 20
84.3707551244
 30
0.0
 11
312.50100565
 21
87.5275826383
 31
0.0
  0
LINE
  5
199
330
1F
100
AcDbEntity
  8
0
  6
Continuous
 62
     7
370
    25
100
AcDbLine
 10
307.50100565
 20
119.5256663359
 30
0.0
 11
309.25100565
 21
119.5256663359
 31
0.0
  0
LINE
  5
19A
330
1F
100
AcDbEntity
  8
0
  6
Continuous
 62
     7
370
    25
100
AcDbLine
 10
298.75100565
 20
119.5256663359
 30
0.0
 11
300.50100565
 21
119.5256663359
 31
0.0
  0
LINE
  5
19B
330
1F
100
AcDbEntity
  8
0
  6
Continuous
 62
     7
370
    25
100
AcDbLine
 10
298.50100565
 20
118.6756663359
 30
0.0
 11
300.50100565
 21
118.6756663359
 31
0.0
  0
LINE
  5
19C
330
1F
100
AcDbEntity
  8
0
  6
Continuous
 62
     7
370
    25
100
AcDbLine
 10
307.50100565
 20
118.6756663359
 30
0.0
 11
309.50100565
 21
118.6756663359
 31
0.0
  0
LINE
  5
19D
330
1F
100
AcDbEntity
  8
0
  6
Continuous
 62
     7
370
    25
100
AcDbLine
 10
300.50100565
 20
113.6756663359
 30
0.0
 11
307.50100565
 21
113.6756663359
 31
0.0
  0
LINE
  5
19E
330
1F
100
AcDbEntity
  8
0
  6
Continuous
 62
     7
370
    25
100
AcDbLine
 10
300.50100565
 20
120.6756663359
 30
0.0
 11
300.50100565
 21
113.6756663359
 31
0.0
  0
LINE
  5
19F
330
1F
100
AcDbEntity
  8
0
  6
Continuous
 62
     7
370
    25
100
AcDbLine
 10
300.50100565
 20
120.6756663359
 30
0.0
 11
307.50100565
 21
120.6756663359
 31
0.0
  0
LINE
  5
1A0
330
1F
100
AcDbEntity
  8
0
  6
Continuous
 62
     7
370
    25
100
AcDbLine
 10
307.50100565
 20
113.6756663359
 30
0.0
 11
307.50100565
 21
120.6756663359
 31
0.0
  0
LINE
  5
1A1
330
1F
100
AcDbEntity
  8
0
  6
Continuous
 62
     7
370
    25
100
AcDbLine
 10
307.50100565
 20
108.6756663359
 30
0.0
 11
300.50100565
 21
108.6756663359
 31
0.0
  0
LINE
  5
1A2
330
1F
100
AcDbEntity
  8
0
  6
Continuous
 62
     7
370
    25
100
AcDbLine
 10
300.50100565
 20
108.6756663359
 30
0.0
 11
300.50100565
 21
113.6756663359
 31
0.0
  0
LINE
  5
1A3
330
1F
100
AcDbEntity
  8
0
  6
Continuous
 62
     7
370
    25
100
AcDbLine
 10
307.50100565
 20
113.6756663359
 30
0.0
 11
307.50100565
 21
108.6756663359
 31
0.0
  0
SPLINE
  5
1A4
330
1F
100
AcDbEntity
  8
0
  6
Continuous
 62
     7
370
    25
100
AcDbSpline
210
0.0
220
0.0
230
1.0
 70
     8
 71
     3
 72
    11
 73
     7
 74
     0
 42
0.00000001
 43
0.00000001
 40
0.0
 40
0.0
 40
0.0
 40
0.0
 40
0.2488466353289361
 40
0.4976946020535204
 40
0.7488461225871278
 40
1.0
 40
1.0
 40
1.0
 40
1.0
 10
307.5010056499504
 20
108.4278420289049
 30
0.0
 10
307.5056971858898
 20
108.3583176524113
 30
0.0
 10
307.5150802828696
 20
108.2192685274501
 30
0.0
 10
307.5915021663565
 20
107.9189397893249
 30
0.0
 10
307.7092282943202
 20
107.5570301710697
 30
0.0
 10
307.8275372176532
 20
107.2554382140052
 30
0.0
 10
307.8866919568798
 20
107.1046415279194
 30
0.0
  0
LINE
  5
1A5
330
1F
100
AcDbEntity
  8
0
  6
Continuous
 62
     7
370
    25
100
AcDbLine
 10
307.8866919569
 20
107.1046415279
 30
0.0
 11
300.115319343
 21
107.1046415279
 31
0.0
  0
SPLINE
  5
1A6
330
1F
100
AcDbEntity
  8
0
  6
Continuous
 62
     7
370
    25
100
AcDbSpline
210
0.0
220
0.0
230
1.0
 70
     8
 71
     3
 72
    11
 73
     7
 74
     0
 42
0.00000001
 43
0.00000001
 40
0.0
 40
0.0
 40
0.0
 40
0.0
 40
0.2488607147078904
 40
0.4977191536447657
 40
0.7488602698858827
 40
0.9999999999999999
 40
0.9999999999999999
 40
0.9999999999999999
 40
0.9999999999999999
 10
300.115319343021
 20
107.1046415279194
 30
0.0
 10
300.1739728347073
 20
107.2541204648076
 30
0.0
 10
300.2912792817079
 20
107.5530769716351
 30
0.0
 10
300.4093150882409
 20
107.9148809450938
 30
0.0
 10
300.4866697695211
 20
108.2171555883333
 30
0.0
 10
300.4962270319322
 20
108.3576133445865
 30
0.0
 10
300.5010056499504
 20
108.4278420289049
 30
0.0
  0
LINE
  5
1A7
330
1F
100
AcDbEntity
  8
0
  6
Continuous
 62
     7
370
    25
100
AcDbLine
 10
300.50100565
 20
108.4278420289
 30
0.0
 11
300.50100565
 21
108.6756663359
 31
0.0
  0
LINE
  5
1A8
330
1F
100
AcDbEntity
  8
0
  6
Continuous
 62
     7
370
    25
100
AcDbLine
 10
307.50100565
 20
108.6756663359
 30
0.0
 11
307.50100565
 21
108.4278420289
 31
0.0
  0
SPLINE
  5
1A9
330
1F
100
AcDbEntity
  8
0
  6
Continuous
 62
     7
370
    25
100
AcDbSpline
210
0.0
220
0.0
230
1.0
 70
     8
 71
     3
 72
    16
 73
    12
 74
     0
 42
0.00000001
 43
0.00000001
 40
0.0
 40
0.0
 40
0.0
 40
0.0
 40
0.0155634360124117
 40
0.0359329243097674
 40
0.0739120889290614
 40
0.1570057548437684
 40
0.2406581385754913
 40
0.4592958294318596
 40
0.6783839187935417
 40
0.8974954344294845
 40
1.0
 40
1.0
 40
1.0
 40
1.0
 10
297.3412834277281
 20
102.6756663359295
 30
0.0
 10
297.3549770947415
 20
102.6808597077086
 30
0.0
 10
297.3865930887881
 20
102.6928501855764
 30
0.0
 10
297.4420727790982
 20
102.8111761095734
 30
0.0
 10
297.5206735895887
 20
103.1224274170224
 30
0.0
 10
297.6000137762178
 20
103.6480749183874
 30
0.0
 10
297.705241484321
 20
104.6866210826576
 30
0.0
 10
297.8202348855403
 20
106.1216951250037
 30
0.0
 10
297.9226348859552
 20
107.9599472264431
 30
0.0
 10
297.9923837658355
 20
109.4811300752626
 30
0.0
 10
298.0318423852643
 20
110.3869621160591
 30
0.0
 10
298.0444185245773
 20
110.675666335927
 30
0.0
  0
SPLINE
  5
1AA
330
1F
100
AcDbEntity
  8
0
  6
Continuous
 62
     7
370
    25
100
AcDbSpline
210
0.0
220
0.0
230
1.0
 70
     8
 71
     3
 72
     9
 73
     5
 74
     0
 42
0.00000001
 43
0.00000001
 40
0.0
 40
0.0
 40
0.0
 40
0.0
 40
0.4983247250277991
 40
1.0
 40
1.0
 40
1.0
 40
1.0
 10
298.0444185245773
 20
110.675666335927
 30
0.0
 10
298.0114159854188
 20
110.8494584497861
 30
0.0
 10
297.9451890103139
 20
111.1982111909819
 30
0.0
 10
297.864658150528
 20
111.5126591483961
 30
0.0
 10
297.8242578093012
 20
111.6704099138963
 30
0.0
  0
ELLIPSE
  5
1AB
330
1F
100
AcDbEntity
  8
0
  6
Continuous
 62
     7
370
    25
100
AcDbEllipse
 10
235.50100565
 20
109.0235407683
 30
0.0
 11
65.0
 21
0.0
 31
0.0
210
0.0
220
0.0
230
1.0
 40
0.2713992096
 41
6.084179739699223
 42
6.174194364446292
  0
SPLINE
  5
1AC
330
1F
100
AcDbEntity
  8
0
  6
Continuous
 62
     7
370
    25
100
AcDbSpline
210
0.0
220
0.0
230
1.0
 70
     8
 71
     3
 72
    13
 73
     9
 74
     0
 42
0.00000001
 43
0.00000001
 40
0.0
 40
0.0
 40
0.0
 40
0.0
 40
0.1610294006389558
 40
0.3266880383557516
 40
0.4877296220820637
 40
0.6535536198224136
 40
0.8237602734841889
 40
1.0
 40
1.0
 40
1.0
 40
1.0
 10
299.2181433198459
 20
105.5360200874366
 30
0.0
 10
299.1743395524135
 20
105.4666231928593
 30
0.0
 10
299.0854727566713
 20
105.3258343973508
 30
0.0
 10
298.9564527379993
 20
104.9797095796431
 30
0.0
 10
298.8354426422319
 20
104.5405029365911
 30
0.0
 10
298.7287616591072
 20
104.0069010996515
 30
0.0
 10
298.6380943717514
 20
103.3830747929518
 30
0.0
 10
298.6012755628547
 20
102.9141908947498
 30
0.0
 10
298.5825455740833
 20
102.6756663359294
 30
0.0
  0
LINE
  5
1AD
330
1F
100
AcDbEntity
  8
0
  6
Continuous
 62
     7
370
    25
100
AcDbLine
 10
298.5825455741
 20
102.6756663359
 30
0.0
 11
297.3412834277
 21
102.6756663359
 31
0.0
  0
LINE
  5
1AE
330
1F
100
AcDbEntity
  8
0
  6
Continuous
 62
     7
370
    25
100
AcDbLine
 10
297.8242578093
 20
111.6704099139
 30
0.0
 11
300.50100565
 21
111.6704099139
 31
0.0
  0
SPLINE
  5
1AF
330
1F
100
AcDbEntity
  8
0
  6
Continuous
 62
     7
370
    25
100
AcDbSpline
210
0.0
220
0.0
230
1.0
 70
     8
 71
     3
 72
    17
 73
    13
 74
     0
 42
0.00000001
 43
0.00000001
 40
0.0
 40
0.0
 40
0.0
 40
0.0
 40
0.3241697628029873
 40
0.5422758463620719
 40
0.689509052693928
 40
0.7894036290694505
 40
0.8577090008137825
 40
0.9049823971474137
 40
0.9551712229700868
 40
0.9753097783197817
 40
0.9919572060138848
 40
1.0
 40
1.0
 40
1.0
 40
1.0
 10
309.9575927753235
 20
110.675666335927
 30
0.0
 10
309.9982432140502
 20
109.7630528333214
 30
0.0
 10
310.0662438532059
 20
108.23641982706
 30
0.0
 10
310.1776767525223
 20
106.309646924779
 30
0.0
 10
310.2701814125808
 20
105.0220114538463
 30
0.0
 10
310.3480828688982
 20
104.1628594871245
 30
0.0
 10
310.4141353683206
 20
103.5893915987471
 30
0.0
 10
310.477491975683
 20
103.1678594447172
 30
0.0
 10
310.5356184433768
 20
102.8873669019217
 30
0.0
 10
310.5949602716996
 20
102.7318182333411
 30
0.0
 10
310.6319663403224
 20
102.6812076341436
 30
0.0
 10
310.6536609071929
 20
102.6770278823389
 30
0.0
 10
310.6607278721726
 20
102.6756663359295
 30
0.0
  0
LINE
  5
1B0
330
1F
100
AcDbEntity
  8
0
  6
Continuous
 62
     7
370
    25
100
AcDbLine
 10
310.6607278722
 20
102.6756663359
 30
0.0
 11
309.4194657258
 21
102.6756663359
 31
0.0
  0
SPLINE
  5
1B1
330
1F
100
AcDbEntity
  8
0
  6
Continuous
 62
     7
370
    25
100
AcDbSpline
210
0.0
220
0.0
230
1.0
 70
     8
 71
     3
 72
    14
 73
    10
 74
     0
 42
0.00000001
 43
0.00000001
 40
0.0
 40
0.0
 40
0.0
 40
0.0
 40
0.1576095309202822
 40
0.3152382602707094
 40
0.4726926441579498
 40
0.6301650083177254
 40
0.7907313191165901
 40
0.9513050385928076
 40
1.0
 40
1.0
 40
1.0
 40
1.0
 10
309.4194657258175
 20
102.6756663359294
 30
0.0
 10
309.402960388975
 20
102.8891681244068
 30
0.0
 10
309.3699477047737
 20
103.3161977080323
 30
0.0
 10
309.2901440148618
 20
103.9014447868886
 30
0.0
 10
309.1923566073755
 20
104.423599327711
 30
0.0
 10
309.0787667676936
 20
104.8725774551309
 30
0.0
 10
308.9542246686618
 20
105.2318591869373
 30
0.0
 10
308.8538673278853
 20
105.4364253660385
 30
0.0
 10
308.7970815302702
 20
105.5172199143898
 30
0.0
 10
308.783867980055
 20
105.5360200874366
 30
0.0
  0
ELLIPSE
  5
1B2
330
1F
100
AcDbEntity
  8
0
  6
Continuous
 62
     7
370
    25
100
AcDbEllipse
 10
372.50100565
 20
109.0235407683
 30
0.0
 11
65.0
 21
0.0
 31
0.0
210
0.0
220
0.0
230
1.0
 40
0.2713992096
 41
3.250583596323188
 42
3.340598221070255
  0
LINE
  5
1B3
330
1F
100
AcDbEntity
  8
0
  6
Continuous
 62
     7
370
    25
100
AcDbLine
 10
307.50100565
 20
111.6704099139
 30
0.0
 11
310.1777534906
 21
111.6704099139
 31
0.0
  0
SPLINE
  5
1B4
330
1F
100
AcDbEntity
  8
0
  6
Continuous
 62
     7
370
    25
100
AcDbSpline
210
0.0
220
0.0
230
1.0
 70
     8
 71
     3
 72
     9
 73
     5
 74
     0
 42
0.00000001
 43
0.00000001
 40
0.0
 40
0.0
 40
0.0
 40
0.0
 40
0.4978401817595073
 40
1.0
 40
1.0
 40
1.0
 40
1.0
 10
310.1777534905995
 20
111.6704099138963
 30
0.0
 10
310.1376503261381
 20
111.5138987312037
 30
0.0
 10
310.0570960319475
 20
111.1995183568847
 30
0.0
 10
309.9908559052873
 20
110.8507858088584
 30
0.0
 10
309.9575927753235
 20
110.675666335927
 30
0.0
  0
LINE
  5
1B5
330
1F
100
AcDbEntity
  8
0
  6
Continuous
 62
     7
370
    25
100
AcDbLine
 10
299.2181433198
 20
105.5360200874
 30
0.0
 11
308.7838679801
 21
105.5360200874
 31
0.0
  0
SPLINE
  5
1B6
330
1F
100
AcDbEntity
  8
0
  6
Continuous
 62
     7
370
    25
100
AcDbSpline
210
0.0
220
0.0
230
1.0
 70
     8
 71
     3
 72
    20
 73
    16
 74
     0
 42
0.00000001
 43
0.00000001
 40
0.0
 40
0.0
 40
0.0
 40
0.0
 40
0.0541983873786813
 40
0.1084549937743861
 40
0.1748676008326813
 40
0.2413639405081385
 40
0.3280943358185923
 40
0.4149092203660895
 40
0.5031829151074113
 40
0.5914553293759743
 40
0.690663243287035
 40
0.7897037236706678
 40
0.8506104062320281
 40
0.9114495521941833
 40
1.0
 40
1.0
 40
1.0
 40
1.0
 10
306.5990818613038
 20
102.6756663359294
 30
0.0
 10
306.5453645187778
 20
102.7703926397411
 30
0.0
 10
306.4378721314393
 20
102.9599470008034
 30
0.0
 10
306.2014570226349
 20
103.2176704282221
 30
0.0
 10
305.9063900240605
 20
103.4467689845735
 30
0.0
 10
305.5174721826006
 20
103.6551500024079
 30
0.0
 10
305.0554802671078
 20
103.8141708442379
 30
0.0
 10
304.5262723968443
 20
103.9129524192348
 30
0.0
 10
303.9820525521422
 20
103.9441632554121
 30
0.0
 10
303.4126383990266
 20
103.9066594322421
 30
0.0
 10
302.8359546718472
 20
103.787716405228
 30
0.0
 10
302.3456267737022
 20
103.5939514714885
 30
0.0
 10
301.9727569097531
 20
103.3584377804351
 30
0.0
 10
301.6526144649495
 20
103.0846614257468
 30
0.0
 10
301.4958508348769
 20
102.827875682932
 30
0.0
 10
301.4029294385971
 20
102.6756663359294
 30
0.0
  0
LINE
  5
1B7
330
1F
100
AcDbEntity
  8
0
  6
Continuous
 62
     7
370
    25
100
AcDbLine
 10
301.4029294386
 20
102.6756663359
 30
0.0
 11
298.5825455741
 21
102.6756663359
 31
0.0
  0
LINE
  5
1B8
330
1F
100
AcDbEntity
  8
0
  6
Continuous
 62
     7
370
    25
100
AcDbLine
 10
309.4194657258
 20
102.6756663359
 30
0.0
 11
306.5990818613
 21
102.6756663359
 31
0.0
  0
LINE
  5
1B9
330
1F
100
AcDbEntity
  8
0
  6
Continuous
 62
     7
370
    25
100
AcDbLine
 10
306.5990818613
 20
102.6756663359
 30
0.0
 11
301.4029294386
 21
102.6756663359
 31
0.0
  0
LINE
  5
1BA
330
1F
100
AcDbEntity
  8
0
  6
Continuous
 62
     7
370
    25
100
AcDbLine
 10
309.9575927753
 20
110.6756663359
 30
0.0
 11
311.45100565
 21
110.6756663359
 31
0.0
  0
LINE
  5
1BB
330
1F
100
AcDbEntity
  8
0
  6
Continuous
 62
     7
370
    25
100
AcDbLine
 10
296.5510056499
 20
110.6756663359
 30
0.0
 11
298.0444185246
 21
110.6756663359
 31
0.0
  0
SPLINE
  5
1BC
330
1F
100
AcDbEntity
  8
0
  6
Continuous
 62
     7
370
    25
100
AcDbSpline
210
0.0
220
0.0
230
1.0
 70
     8
 71
     3
 72
     9
 73
     5
 74
     0
 42
0.00000001
 43
0.00000001
 40
0.0
 40
0.0
 40
0.0
 40
0.0
 40
0.4875141023677128
 40
0.9999999999999999
 40
0.9999999999999999
 40
0.9999999999999999
 40
0.9999999999999999
 10
310.6607278721726
 20
102.6756663359295
 30
0.0
 10
310.6692539837084
 20
102.6773936819012
 30
0.0
 10
310.6867429373497
 20
102.6809368531926
 30
0.0
 10
310.7030646412361
 20
102.7024553391419
 30
0.0
 10
310.7114292843032
 20
102.7134832597294
 30
0.0
  0
SPLINE
  5
1BD
330
1F
100
AcDbEntity
  8
0
  6
Continuous
 62
     7
370
    25
100
AcDbSpline
210
0.0
220
0.0
230
1.0
 70
     8
 71
     3
 72
     9
 73
     5
 74
     0
 42
0.00000001
 43
0.00000001
 40
0.0
 40
0.0
 40
0.0
 40
0.0
 40
0.5124861829376838
 40
0.9999999999999999
 40
0.9999999999999999
 40
0.9999999999999999
 40
0.9999999999999999
 10
297.2905820464638
 20
102.7134832138696
 30
0.0
 10
297.2989466895875
 20
102.7024553009184
 30
0.0
 10
297.3152683844978
 20
102.680936841849
 30
0.0
 10
297.3327573267395
 20
102.6773936775039
 30
0.0
 10
297.3412834277281
 20
102.6756663359295
 30
0.0
  0
LINE
  5
1BE
330
1F
100
AcDbEntity
  8
0
  6
Continuous
 62
     7
370
    25
100
AcDbLine
 10
310.7092095824
 20
102.6756663359
 30
0.0
 11
311.00100565
 21
102.6756663359
 31
0.0
  0
LINE
  5
1BF
330
1F
100
AcDbEntity
  8
0
  6
Continuous
 62
     7
370
    25
100
AcDbLine
 10
297.00100565
 20
102.6756663359
 30
0.0
 11
297.2928017175
 21
102.6756663359
 31
0.0
  0
LINE
  5
1C0
330
1F
100
AcDbEntity
  8
0
  6
Continuous
 62
     7
370
    25
100
AcDbLine
 10
310.7114292843
 20
102.7134832597
 30
0.0
 11
310.7092095824
 21
102.6756663359
 31
0.0
  0
LINE
  5
1C1
330
1F
100
AcDbEntity
  8
0
  6
Continuous
 62
     7
370
    25
100
AcDbLine
 10
310.7092095824
 20
102.6756663359
 30
0.0
 11
310.6607278722
 21
102.6756663359
 31
0.0
  0
LINE
  5
1C2
330
1F
100
AcDbEntity
  8
0
  6
Continuous
 62
     7
370
    25
100
AcDbLine
 10
297.2928017175
 20
102.6756663359
 30
0.0
 11
297.2905820465
 21
102.7134832139
 31
0.0
  0
LINE
  5
1C3
330
1F
100
AcDbEntity
  8
0
  6
Continuous
 62
     7
370
    25
100
AcDbLine
 10
297.3412834277
 20
102.6756663359
 30
0.0
 11
297.2928017175
 21
102.6756663359
 31
0.0
  0
SPLINE
  5
1C4
330
1F
100
AcDbEntity
  8
0
  6
Continuous
 62
     7
370
    25
100
AcDbSpline
210
0.0
220
0.0
230
1.0
 70
     8
 71
     3
 72
    19
 73
    15
 74
     0
 42
0.00000001
 43
0.00000001
 40
0.0
 40
0.0
 40
0.0
 40
0.0
 40
0.0167886771288594
 40
0.0955042950728655
 40
0.1743245545743603
 40
0.2799421869754483
 40
0.385755450286937
 40
0.4988368264422112
 40
0.6118996880436965
 40
0.7070777928234355
 40
0.8021816975919246
 40
0.8927573603913216
 40
0.9832583789100015
 40
1.0
 40
1.0
 40
1.0
 40
1.0
 10
298.1086571628255
 20
98.71507992516071
 30
0.0
 10
298.1061287788195
 20
98.71194171803933
 30
0.0
 10
298.0917457794734
 20
98.69408967069698
 30
0.0
 10
298.1551910805212
 20
98.77315263080186
 30
0.0
 10
298.310298872962
 20
98.95763985398351
 30
0.0
 10
298.5985957502734
 20
99.27761798040007
 30
0.0
 10
299.0310298648496
 20
99.70206649145693
 30
0.0
 10
299.5854625641277
 20
100.1647310007627
 30
0.0
 10
300.2283581334755
 20
100.6052110141812
 30
0.0
 10
300.9277950551489
 20
100.9832719436418
 30
0.0
 10
301.6497953760132
 20
101.2864954746353
 30
0.0
 10
302.4275147650566
 20
101.5048945925296
 30
0.0
 10
303.0155632378668
 20
101.6262943523726
 30
0.0
 10
303.3451534163792
 20
101.6395941797195
 30
0.0
 10
303.3966056550016
 20
101.6416704123711
 30
0.0
  0
SPLINE
  5
1C5
330
1F
100
AcDbEntity
  8
0
  6
Continuous
 62
     7
370
    25
100
AcDbSpline
210
0.0
220
0.0
230
1.0
 70
     8
 71
     3
 72
    19
 73
    15
 74
     0
 42
0.00000001
 43
0.00000001
 40
0.0
 40
0.0
 40
0.0
 40
0.0
 40
0.031354166273208
 40
0.0973967989325214
 40
0.1974103477882361
 40
0.2975361620139327
 40
0.4181237711299388
 40
0.5388078229848453
 40
0.6564388927187235
 40
0.7739035680837449
 40
0.8504381484973932
 40
0.9268720194170249
 40
0.996738926111868
 40
1.0
 40
1.0
 40
1.0
 40
1.0
 10
304.6132028598915
 20
101.6371686881964
 30
0.0
 10
304.7090747815139
 20
101.6319486486642
 30
0.0
 10
305.0068858664004
 20
101.615733414736
 30
0.0
 10
305.5897712683588
 20
101.5013609498527
 30
0.0
 10
306.3390156068118
 20
101.2920884443623
 30
0.0
 10
307.1594803325212
 20
100.9477665519352
 30
0.0
 10
307.9266270188579
 20
100.5121675105718
 30
0.0
 10
308.6079176130192
 20
100.0167686165608
 30
0.0
 10
309.158627710321
 20
99.52637258057696
 30
0.0
 10
309.527365259779
 20
99.14341656406867
 30
0.0
 10
309.7553906070014
 20
98.8826646430672
 30
0.0
 10
309.866496514913
 20
98.74820781321463
 30
0.0
 10
309.9104727105295
 20
98.69430997572825
 30
0.0
 10
309.8995475424614
 20
98.70764361773023
 30
0.0
 10
309.8990603448112
 20
98.70823821902263
 30
0.0
  0
LINE
  5
1C6
330
1F
100
AcDbEntity
  8
0
  6
Continuous
 62
     7
370
    25
100
AcDbLine
 10
309.50100565
 20
119.2756663359
 30
0.0
 11
307.50100565
 21
119.2756663359
 31
0.0
  0
LINE
  5
1C7
330
1F
100
AcDbEntity
  8
0
  6
Continuous
 62
     7
370
    25
100
AcDbLine
 10
300.50100565
 20
119.2756663359
 30
0.0
 11
298.50100565
 21
119.2756663359
 31
0.0
  0
INSERT
  5
1D3
330
1F
100
AcDbEntity
  8
FORMAT
100
AcDbBlockReference
  2
SW_CENTERMARKSYMBOL_0
 10
304.00100565
 20
92.1756663359
 30
0.0
  0
ARC
  5
1D4
330
1F
100
AcDbEntity
  8
FORMAT
100
AcDbCircle
 10
304.00100565
 20
92.1756663359
 30
0.0
 40
7.000000000000012
100
AcDbArc
 50
75.0
 51
345.0
  0
LINE
  5
1D5
330
1F
100
AcDbEntity
  8
FORMAT
100
AcDbLine
 10
296.5673426197
 20
69.4267927377
 30
0.0
 11
296.2470653198
 21
79.6756663359
 31
0.0
  0
LINE
  5
1D6
330
1F
100
AcDbEntity
  8
FORMAT
100
AcDbLine
 10
311.4346686802
 20
69.4267927377
 30
0.0
 11
311.7549459801
 21
79.6756663359
 31
0.0
  0
LINE
  5
1D7
330
1F
100
AcDbEntity
  8
FORMAT
100
AcDbLine
 10
312.47731815
 20
79.6756663359
 30
0.0
 11
295.52469315
 21
79.6756663359
 31
0.0
  0
LINE
  5
1D8
330
1F
100
AcDbEntity
  8
0
  6
Continuous
 62
     7
370
    25
100
AcDbLine
 10
202.9760138981
 20
169.7005134069
 30
0.0
 11
199.9760138981
 21
169.7005134069
 31
0.0
  0
LINE
  5
1D9
330
1F
100
AcDbEntity
  8
0
  6
Continuous
 62
     7
370
    25
100
AcDbLine
 10
199.9760138981
 20
152.7005134069
 30
0.0
 11
202.9760138981
 21
152.7005134069
 31
0.0
  0
LINE
  5
1DA
330
1F
100
AcDbEntity
  8
0
  6
Continuous
 62
     7
370
    25
100
AcDbLine
 10
199.9760138981
 20
169.5315134069
 30
0.0
 11
190.9760138981
 21
169.5315134069
 31
0.0
  0
LINE
  5
1DB
330
1F
100
AcDbEntity
  8
0
  6
Continuous
 62
     7
370
    25
100
AcDbLine
 10
190.9760138981
 20
152.8695134069
 30
0.0
 11
199.9760138981
 21
152.8695134069
 31
0.0
  0
LINE
  5
1DC
330
1F
100
AcDbEntity
  8
0
  6
Continuous
 62
     7
370
    25
100
AcDbLine
 10
190.9760138981
 20
169.5315134069
 30
0.0
 11
189.9760138981
 21
168.5315134069
 31
0.0
  0
LINE
  5
1DD
330
1F
100
AcDbEntity
  8
0
  6
Continuous
 62
     7
370
    25
100
AcDbLine
 10
189.9760138981
 20
153.8695134069
 30
0.0
 11
190.9760138981
 21
152.8695134069
 31
0.0
  0
LINE
  5
1DE
330
1F
100
AcDbEntity
  8
0
  6
Continuous
 62
     7
370
    25
100
AcDbLine
 10
226.3316763308
 20
152.7005134069
 30
0.0
 11
226.4760138981
 21
152.9505134069
 31
0.0
  0
LINE
  5
1DF
330
1F
100
AcDbEntity
  8
0
  6
Continuous
 62
     7
370
    25
100
AcDbLine
 10
226.4760138981
 20
169.4505134069
 30
0.0
 11
226.3316763308
 21
169.7005134069
 31
0.0
  0
LINE
  5
1E0
330
1F
100
AcDbEntity
  8
0
  6
Continuous
 62
     7
370
    25
100
AcDbLine
 10
199.9760138981
 20
152.7005134069
 30
0.0
 11
199.9760138981
 21
169.7005134069
 31
0.0
  0
LINE
  5
1E1
330
1F
100
AcDbEntity
  8
0
  6
Continuous
 62
     7
370
    25
100
AcDbLine
 10
202.9760138981
 20
152.7005134069
 30
0.0
 11
202.9760138981
 21
169.7005134069
 31
0.0
  0
LINE
  5
1E2
330
1F
100
AcDbEntity
  8
0
  6
Continuous
 62
     7
370
    25
100
AcDbLine
 10
190.9760138981
 20
169.5315134069
 30
0.0
 11
190.9760138981
 21
152.8695134069
 31
0.0
  0
LINE
  5
1E3
330
1F
100
AcDbEntity
  8
0
  6
Continuous
 62
     7
370
    25
100
AcDbLine
 10
189.9760138981
 20
153.8695134069
 30
0.0
 11
189.9760138981
 21
168.5315134069
 31
0.0
  0
SPLINE
  5
1E4
330
1F
100
AcDbEntity
  8
0
  6
Continuous
 62
     7
370
    25
100
AcDbSpline
210
0.0
220
0.0
230
1.0
 70
    24
 71
     3
 72
    10
 73
     6
 74
     0
 42
0.00000001
 43
0.00000001
 40
0.0
 40
0.0
 40
0.0
 40
0.0
 40
0.3696314351922981
 40
0.7423085327988383
 40
1.0
 40
1.0
 40
1.0
 40
1.0
 10
225.6539549254958
 20
152.7005134069491
 30
0.0
 10
225.7951575168931
 20
152.7005134069491
 30
0.0
 10
226.0787261706061
 20
152.7005134069491
 30
0.0
 10
226.2978605269575
 20
152.7005134069491
 30
0.0
 10
226.3202514552915
 20
152.7005134069491
 30
0.0
 10
226.3294047530549
 20
152.7005134069491
 30
0.0
  0
SPLINE
  5
1E5
330
1F
100
AcDbEntity
  8
0
  6
Continuous
 62
     7
370
    25
100
AcDbSpline
210
0.0
220
0.0
230
1.0
 70
     8
 71
     3
 72
    10
 73
     6
 74
     0
 42
0.00000001
 43
0.00000001
 40
0.0
 40
0.0
 40
0.0
 40
0.0
 40
0.5
 40
0.5
 40
1.0
 40
1.0
 40
1.0
 40
1.0
 10
225.6539549254958
 20
152.9505134069491
 30
0.0
 10
225.6302795310714
 20
152.8761330295718
 30
0.0
 10
225.6171884211868
 20
152.811832390786
 30
0.0
 10
225.6171020998985
 20
152.7236167060031
 30
0.0
 10
225.6302710338423
 20
152.7005134069491
 30
0.0
 10
225.6539549254958
 20
152.7005134069491
 30
0.0
  0
SPLINE
  5
1E6
330
1F
100
AcDbEntity
  8
0
  6
Continuous
 62
     7
370
    25
100
AcDbSpline
210
0.0
220
0.0
230
1.0
 70
     8
 71
     3
 72
    12
 73
     8
 74
     0
 42
0.00000001
 43
0.00000001
 40
0.0
 40
0.0
 40
0.0
 40
0.0
 40
0.0535263251924859
 40
0.2882039688990941
 40
0.5229107594303196
 40
0.7614358526718396
 40
0.9999999999999999
 40
0.9999999999999999
 40
0.9999999999999999
 40
0.9999999999999999
 10
226.3227120022421
 20
156.8604702971904
 30
0.0
 10
226.3248726528479
 20
156.7897427141964
 30
0.0
 10
226.3365063317478
 20
156.4089213135823
 30
0.0
 10
226.2707296757527
 20
155.7183986781345
 30
0.0
 10
226.137055605714
 20
154.7901864992753
 30
0.0
 10
225.9301213270625
 20
153.865678519698
 30
0.0
 10
225.7460154162649
 20
153.2555850917611
 30
0.0
 10
225.6539549254958
 20
152.9505134069491
 30
0.0
  0
SPLINE
  5
1E7
330
1F
100
AcDbEntity
  8
0
  6
Continuous
 62
     7
370
    25
100
AcDbSpline
210
0.0
220
0.0
230
1.0
 70
     8
 71
     3
 72
    11
 73
     7
 74
     0
 42
0.00000001
 43
0.00000001
 40
0.0
 40
0.0
 40
0.0
 40
0.0
 40
0.2728854097677892
 40
0.54570367888712
 40
0.8241830807350728
 40
1.0
 40
1.0
 40
1.0
 40
1.0
 10
225.6539549254958
 20
169.4505134069491
 30
0.0
 10
225.7585083178067
 20
169.1025593142164
 30
0.0
 10
225.9675893781416
 20
168.4067367392769
 30
0.0
 10
226.1857610235332
 20
167.3371351915444
 30
0.0
 10
226.3129523621969
 20
166.3839497022863
 30
0.0
 10
226.3168175182545
 20
165.7853514222344
 30
0.0
 10
226.3183133697482
 20
165.5536882971221
 30
0.0
  0
SPLINE
  5
1E8
330
1F
100
AcDbEntity
  8
0
  6
Continuous
 62
     7
370
    25
100
AcDbSpline
210
0.0
220
0.0
230
1.0
 70
     8
 71
     3
 72
    10
 73
     6
 74
     0
 42
0.00000001
 43
0.00000001
 40
0.0
 40
0.0
 40
0.0
 40
0.0
 40
0.5
 40
0.5
 40
1.0
 40
1.0
 40
1.0
 40
1.0
 10
225.6539549254958
 20
169.7005134069491
 30
0.0
 10
225.6302795310714
 20
169.7005134069491
 30
0.0
 10
225.6171884211868
 20
169.6777209576193
 30
0.0
 10
225.6171020998985
 20
169.5897782535262
 30
0.0
 10
225.6302710338423
 20
169.5249204798524
 30
0.0
 10
225.6539549254958
 20
169.4505134069491
 30
0.0
  0
SPLINE
  5
1E9
330
1F
100
AcDbEntity
  8
0
  6
Continuous
 62
     7
370
    25
100
AcDbSpline
210
0.0
220
0.0
230
1.0
 70
    24
 71
     3
 72
    10
 73
     6
 74
     0
 42
0.00000001
 43
0.00000001
 40
0.0
 40
0.0
 40
0.0
 40
0.0
 40
0.2576882595695941
 40
0.6270663337190013
 40
1.0
 40
1.0
 40
1.0
 40
1.0
 10
226.3280632965314
 20
169.7005134069491
 30
0.0
 10
226.3194603416294
 20
169.7005134069491
 30
0.0
 10
226.2985256533415
 20
169.7005134069491
 30
0.0
 10
226.0795604903161
 20
169.7005134069491
 30
0.0
 10
225.7962757480904
 20
169.7005134069491
 30
0.0
 10
225.6539549254958
 20
169.7005134069491
 30
0.0
  0
LINE
  5
1EA
330
1F
100
AcDbEntity
  8
0
  6
Continuous
 62
     7
370
    25
100
AcDbLine
 10
226.4760138981
 20
169.4505134069
 30
0.0
 11
226.4760138981
 21
165.5019115166
 31
0.0
  0
LINE
  5
1EB
330
1F
100
AcDbEntity
  8
0
  6
Continuous
 62
     7
370
    25
100
AcDbLine
 10
226.4760138981
 20
156.8991152973
 30
0.0
 11
226.4760138981
 21
152.9505134069
 31
0.0
  0
SPLINE
  5
1EC
330
1F
100
AcDbEntity
  8
0
  6
Continuous
 62
     7
370
    25
100
AcDbSpline
210
0.0
220
0.0
230
1.0
 70
     8
 71
     3
 72
    10
 73
     6
 74
     0
 42
0.00000001
 43
0.00000001
 40
0.0
 40
0.0
 40
0.0
 40
0.0
 40
0.5
 40
0.5
 40
1.0
 40
1.0
 40
1.0
 40
1.0
 10
203.6537353033136
 20
161.4505134069491
 30
0.0
 10
203.6774089078047
 20
161.3761386529591
 30
0.0
 10
203.6905016835979
 20
161.2890449213932
 30
0.0
 10
203.6905882516989
 20
161.1128790928487
 30
0.0
 10
203.6774184275756
 20
161.0249180689584
 30
0.0
 10
203.6537353033136
 20
160.9505134069491
 30
0.0
  0
SPLINE
  5
1ED
330
1F
100
AcDbEntity
  8
0
  6
Continuous
 62
     7
370
    25
100
AcDbSpline
210
0.0
220
0.0
230
1.0
 70
     8
 71
     3
 72
    12
 73
     8
 74
     0
 42
0.00000001
 43
0.00000001
 40
0.0
 40
0.0
 40
0.0
 40
0.0
 40
0.2499999999999999
 40
0.2499999999999999
 40
0.5
 40
0.5
 40
1.0
 40
1.0
 40
1.0
 40
1.0
 10
202.9760138980534
 20
156.9505134069491
 30
0.0
 10
202.9760138980534
 20
157.2882693419719
 30
0.0
 10
202.9917602280753
 20
157.6286773568504
 30
0.0
 10
203.0532052526608
 20
158.3031720412508
 30
0.0
 10
203.0987940119145
 20
158.638297360118
 30
0.0
 10
203.2752450141711
 20
159.6380086784582
 30
0.0
 10
203.4457027161346
 20
160.2969427815235
 30
0.0
 10
203.6537353033135
 20
160.9505134069491
 30
0.0
  0
LINE
  5
1EE
330
1F
100
AcDbEntity
  8
0
  6
Continuous
 62
     7
370
    25
100
AcDbLine
 10
202.9760138981
 20
165.4505134069
 30
0.0
 11
202.9760138981
 21
156.9505134069
 31
0.0
  0
SPLINE
  5
1EF
330
1F
100
AcDbEntity
  8
0
  6
Continuous
 62
     7
370
    25
100
AcDbSpline
210
0.0
220
0.0
230
1.0
 70
     8
 71
     3
 72
    10
 73
     6
 74
     0
 42
0.00000001
 43
0.00000001
 40
0.0
 40
0.0
 40
0.0
 40
0.0
 40
0.5
 40
0.5
 40
1.0
 40
1.0
 40
1.0
 40
1.0
 10
203.6537353033131
 20
161.4505134069491
 30
0.0
 10
203.4449253786469
 20
162.1065261735542
 30
0.0
 10
203.2743912388996
 20
162.7667930804119
 30
0.0
 10
203.0396054338807
 20
164.0991395990469
 30
0.0
 10
202.9760138980534
 20
164.7712925805342
 30
0.0
 10
202.9760138980534
 20
165.4505134069491
 30
0.0
  0
SPLINE
  5
1F0
330
1F
100
AcDbEntity
  8
0
  6
Continuous
 62
     7
370
    25
100
AcDbSpline
210
0.0
220
0.0
230
1.0
 70
     8
 71
     3
 72
    10
 73
     6
 74
     0
 42
0.00000001
 43
0.00000001
 40
0.0
 40
0.0
 40
0.0
 40
0.0
 40
0.3157895357446778
 40
0.6578667634525375
 40
1.0
 40
1.0
 40
1.0
 40
1.0
 10
220.5528500615874
 20
166.7385564269588
 30
0.0
 10
220.5916333932232
 20
167.0276936072205
 30
0.0
 10
220.6724285493988
 20
167.6300370019249
 30
0.0
 10
220.8781953075978
 20
168.5352583104242
 30
0.0
 10
221.0618836258894
 20
169.1454117259082
 30
0.0
 10
221.1537353033136
 20
169.4505134069491
 30
0.0
  0
LINE
  5
1F1
330
1F
100
AcDbEntity
  8
0
  6
Continuous
 62
     7
370
    25
100
AcDbLine
 10
225.6539549255
 20
169.4505134069
 30
0.0
 11
221.1537353033
 21
169.4505134069
 31
0.0
  0
SPLINE
  5
1F2
330
1F
100
AcDbEntity
  8
0
  6
Continuous
 62
     7
370
    25
100
AcDbSpline
210
0.0
220
0.0
230
1.0
 70
     8
 71
     3
 72
    12
 73
     8
 74
     0
 42
0.00000001
 43
0.00000001
 40
0.0
 40
0.0
 40
0.0
 40
0.0
 40
0.2500000000000001
 40
0.2500000000000001
 40
0.5000000000000002
 40
0.5000000000000002
 40
1.0
 40
1.0
 40
1.0
 40
1.0
 10
202.9760138980534
 20
165.4505134069491
 30
0.0
 10
202.9760138980534
 20
165.7882693419719
 30
0.0
 10
202.9917602280753
 20
166.1286773568504
 30
0.0
 10
203.0532052526608
 20
166.8031720412508
 30
0.0
 10
203.0987940119145
 20
167.138297360118
 30
0.0
 10
203.2752450141711
 20
168.1380086784582
 30
0.0
 10
203.4457027161346
 20
168.7969427815235
 30
0.0
 10
203.6537353033135
 20
169.4505134069491
 30
0.0
  0
LINE
  5
1F3
330
1F
100
AcDbEntity
  8
0
  6
Continuous
 62
     7
370
    25
100
AcDbLine
 10
207.7982924928
 20
169.4505134069
 30
0.0
 11
203.6537353033
 21
169.4505134069
 31
0.0
  0
SPLINE
  5
1F4
330
1F
100
AcDbEntity
  8
0
  6
Continuous
 62
     7
370
    25
100
AcDbSpline
210
0.0
220
0.0
230
1.0
 70
     8
 71
     3
 72
    11
 73
     7
 74
     0
 42
0.00000001
 43
0.00000001
 40
0.0
 40
0.0
 40
0.0
 40
0.0
 40
0.2570168187991538
 40
0.51398279140726
 40
0.7754277865834885
 40
1.0
 40
1.0
 40
1.0
 40
1.0
 10
207.7982924927932
 20
169.4505134069492
 30
0.0
 10
207.8960541114448
 20
169.1262594992058
 30
0.0
 10
208.0915580083562
 20
168.4778158315683
 30
0.0
 10
208.303890409048
 20
167.4832603267656
 30
0.0
 10
208.4428523089061
 20
166.5208736496604
 30
0.0
 10
208.4609723830405
 20
165.8872291321385
 30
0.0
 10
208.4693450601468
 20
165.594443302124
 30
0.0
  0
SPLINE
  5
1F5
330
1F
100
AcDbEntity
  8
0
  6
Continuous
 62
     7
370
    25
100
AcDbSpline
210
0.0
220
0.0
230
1.0
 70
     8
 71
     3
 72
    12
 73
     8
 74
     0
 42
0.00000001
 43
0.00000001
 40
0.0
 40
0.0
 40
0.0
 40
0.0
 40
0.0383766807688534
 40
0.2768106707436813
 40
0.5152742740791117
 40
0.7576172974384004
 40
1.0
 40
1.0
 40
1.0
 40
1.0
 10
208.473928160384
 20
156.7980401967751
 30
0.0
 10
208.4733949351416
 20
156.7481234443317
 30
0.0
 10
208.4695487860199
 20
156.3880743351231
 30
0.0
 10
208.4189307051621
 20
155.7184164879545
 30
0.0
 10
208.2803441343253
 20
154.790181663408
 30
0.0
 10
208.074722965451
 20
153.8656797370151
 30
0.0
 10
207.8904410120629
 20
153.2555854975556
 30
0.0
 10
207.7982924927932
 20
152.9505134069491
 30
0.0
  0
LINE
  5
1F6
330
1F
100
AcDbEntity
  8
0
  6
Continuous
 62
     7
370
    25
100
AcDbLine
 10
203.6537353033
 20
152.9505134069
 30
0.0
 11
207.7982924928
 21
152.9505134069
 31
0.0
  0
SPLINE
  5
1F7
330
1F
100
AcDbEntity
  8
0
  6
Continuous
 62
     7
370
    25
100
AcDbSpline
210
0.0
220
0.0
230
1.0
 70
     8
 71
     3
 72
    10
 73
     6
 74
     0
 42
0.00000001
 43
0.00000001
 40
0.0
 40
0.0
 40
0.0
 40
0.0
 40
0.5
 40
0.5
 40
1.0
 40
1.0
 40
1.0
 40
1.0
 10
203.6537353033131
 20
152.9505134069491
 30
0.0
 10
203.4449253786469
 20
153.6065261735542
 30
0.0
 10
203.2743912388996
 20
154.2667930804119
 30
0.0
 10
203.0396054338807
 20
155.5991395990469
 30
0.0
 10
202.9760138980534
 20
156.2712925805342
 30
0.0
 10
202.9760138980534
 20
156.9505134069491
 30
0.0
  0
LINE
  5
1F8
330
1F
100
AcDbEntity
  8
0
  6
Continuous
 62
     7
370
    25
100
AcDbLine
 10
221.1537353033
 20
152.9505134069
 30
0.0
 11
225.6539549255
 21
152.9505134069
 31
0.0
  0
SPLINE
  5
1F9
330
1F
100
AcDbEntity
  8
0
  6
Continuous
 62
     7
370
    25
100
AcDbSpline
210
0.0
220
0.0
230
1.0
 70
     8
 71
     3
 72
    10
 73
     6
 74
     0
 42
0.00000001
 43
0.00000001
 40
0.0
 40
0.0
 40
0.0
 40
0.0
 40
0.3653998876079664
 40
0.7307274873688537
 40
1.0
 40
1.0
 40
1.0
 40
1.0
 10
221.1537353033136
 20
152.9505134069491
 30
0.0
 10
221.0566691303625
 20
153.2748209793482
 30
0.0
 10
220.8625559872703
 20
153.9233719656806
 30
0.0
 10
220.660435672849
 20
154.8247919774488
 30
0.0
 10
220.5907020974933
 20
155.4036612097794
 30
0.0
 10
220.56111285746
 20
155.6492860838232
 30
0.0
  0
LINE
  5
1FA
330
1F
100
AcDbEntity
  8
0
  6
Continuous
 62
     7
370
    25
100
AcDbLine
 10
220.4760138981
 20
155.655697803
 30
0.0
 11
220.4760138981
 21
153.7005134069
 31
0.0
  0
LINE
  5
1FB
330
1F
100
AcDbEntity
  8
0
  6
Continuous
 62
     7
370
    25
100
AcDbLine
 10
220.4760138981
 20
153.7005134069
 30
0.0
 11
208.4760138981
 21
153.7005134069
 31
0.0
  0
LINE
  5
1FC
330
1F
100
AcDbEntity
  8
0
  6
Continuous
 62
     7
370
    25
100
AcDbLine
 10
208.4760138981
 20
156.7843499136
 30
0.0
 11
208.4760138981
 21
153.7005134069
 31
0.0
  0
LINE
  5
1FD
330
1F
100
AcDbEntity
  8
0
  6
Continuous
 62
     7
370
    25
100
AcDbLine
 10
208.4760138981
 20
168.7005134069
 30
0.0
 11
208.4760138981
 21
165.6166769003
 31
0.0
  0
LINE
  5
1FE
330
1F
100
AcDbEntity
  8
0
  6
Continuous
 62
     7
370
    25
100
AcDbLine
 10
208.4760138981
 20
168.7005134069
 30
0.0
 11
220.4760138981
 21
168.7005134069
 31
0.0
  0
LINE
  5
1FF
330
1F
100
AcDbEntity
  8
0
  6
Continuous
 62
     7
370
    25
100
AcDbLine
 10
220.4760138981
 20
168.7005134069
 30
0.0
 11
220.4760138981
 21
166.7453290109
 31
0.0
  0
SPLINE
  5
200
330
1F
100
AcDbEntity
  8
0
  6
Continuous
 62
     7
370
    25
100
AcDbSpline
210
0.0
220
0.0
230
1.0
 70
     8
 71
     3
 72
     8
 73
     4
 74
     0
 42
0.00000001
 43
0.00000001
 40
0.0
 40
0.0
 40
0.0
 40
0.0
 40
1.0
 40
1.0
 40
1.0
 40
1.0
 10
207.9597778210742
 20
169.7005134069491
 30
0.0
 10
208.133480897294
 20
169.3680019848136
 30
0.0
 10
208.3057831163567
 20
169.0346748849148
 30
0.0
 10
208.4760138980534
 20
168.7005134069491
 30
0.0
  0
SPLINE
  5
201
330
1F
100
AcDbEntity
  8
0
  6
Continuous
 62
     7
370
    25
100
AcDbSpline
210
0.0
220
0.0
230
1.0
 70
     8
 71
     3
 72
    10
 73
     6
 74
     0
 42
0.00000001
 43
0.00000001
 40
0.0
 40
0.0
 40
0.0
 40
0.0
 40
0.5
 40
0.5
 40
1.0
 40
1.0
 40
1.0
 40
1.0
 10
207.7982924927989
 20
169.7005134069491
 30
0.0
 10
207.7746170983746
 20
169.7005134069491
 30
0.0
 10
207.7615259884842
 20
169.6777209576196
 30
0.0
 10
207.7614396671958
 20
169.5897782535266
 30
0.0
 10
207.7746086011397
 20
169.5249204798526
 30
0.0
 10
207.7982924927932
 20
169.4505134069492
 30
0.0
  0
SPLINE
  5
202
330
1F
100
AcDbEntity
  8
0
  6
Continuous
 62
     7
370
    25
100
AcDbSpline
210
0.0
220
0.0
230
1.0
 70
    24
 71
     3
 72
     8
 73
     4
 74
     0
 42
0.00000001
 43
0.00000001
 40
0.0
 40
0.0
 40
0.0
 40
0.0
 40
1.0
 40
1.0
 40
1.0
 40
1.0
 10
207.9597778210742
 20
169.7005134069491
 30
0.0
 10
207.9088791041518
 20
169.7005134069491
 30
0.0
 10
207.8549449679012
 20
169.7005134069491
 30
0.0
 10
207.7982924927936
 20
169.7005134069491
 30
0.0
  0
SPLINE
  5
203
330
1F
100
AcDbEntity
  8
0
  6
Continuous
 62
     7
370
    25
100
AcDbSpline
210
0.0
220
0.0
230
1.0
 70
     8
 71
     3
 72
     8
 73
     4
 74
     0
 42
0.00000001
 43
0.00000001
 40
0.0
 40
0.0
 40
0.0
 40
0.0
 40
1.0
 40
1.0
 40
1.0
 40
1.0
 10
220.4760138980534
 20
168.7005134069491
 30
0.0
 10
220.6462915053971
 20
169.0347668032344
 30
0.0
 10
220.8185632540228
 20
169.3680332928034
 30
0.0
 10
220.9922499750325
 20
169.7005134069489
 30
0.0
  0
SPLINE
  5
204
330
1F
100
AcDbEntity
  8
0
  6
Continuous
 62
     7
370
    25
100
AcDbSpline
210
0.0
220
0.0
230
1.0
 70
    24
 71
     3
 72
     8
 73
     4
 74
     0
 42
0.00000001
 43
0.00000001
 40
0.0
 40
0.0
 40
0.0
 40
0.0
 40
1.0
 40
1.0
 40
1.0
 40
1.0
 10
220.9922499750321
 20
169.7005134069491
 30
0.0
 10
221.0431462082873
 20
169.7005134069491
 30
0.0
 10
221.0970801632511
 20
169.7005134069491
 30
0.0
 10
221.1537353033136
 20
169.7005134069491
 30
0.0
  0
SPLINE
  5
205
330
1F
100
AcDbEntity
  8
0
  6
Continuous
 62
     7
370
    25
100
AcDbSpline
210
0.0
220
0.0
230
1.0
 70
     8
 71
     3
 72
    10
 73
     6
 74
     0
 42
0.00000001
 43
0.00000001
 40
0.0
 40
0.0
 40
0.0
 40
0.0
 40
0.5
 40
0.5
 40
1.0
 40
1.0
 40
1.0
 40
1.0
 10
221.1537353033136
 20
169.4505134069491
 30
0.0
 10
221.177410697738
 20
169.5248937843265
 30
0.0
 10
221.1905018076226
 20
169.5891944231122
 30
0.0
 10
221.1905881289109
 20
169.6774101078952
 30
0.0
 10
221.1774191949671
 20
169.7005134069491
 30
0.0
 10
221.1537353033136
 20
169.7005134069491
 30
0.0
  0
SPLINE
  5
206
330
1F
100
AcDbEntity
  8
0
  6
Continuous
 62
     7
370
    25
100
AcDbSpline
210
0.0
220
0.0
230
1.0
 70
     8
 71
     3
 72
    10
 73
     6
 74
     0
 42
0.00000001
 43
0.00000001
 40
0.0
 40
0.0
 40
0.0
 40
0.0
 40
0.5
 40
0.5
 40
1.0
 40
1.0
 40
1.0
 40
1.0
 10
203.6537353033136
 20
169.7005134069491
 30
0.0
 10
203.6774092038695
 20
169.7005134069491
 30
0.0
 10
203.6905017610487
 20
169.6777228353017
 30
0.0
 10
203.690588175031
 20
169.5897768380028
 30
0.0
 10
203.6774177834323
 20
169.5249160452701
 30
0.0
 10
203.6537353033136
 20
169.4505134069491
 30
0.0
  0
SPLINE
  5
207
330
1F
100
AcDbEntity
  8
0
  6
Continuous
 62
     7
370
    25
100
AcDbSpline
210
0.0
220
0.0
230
1.0
 70
    24
 71
     3
 72
    12
 73
     8
 74
     0
 42
0.00000001
 43
0.00000001
 40
0.0
 40
0.0
 40
0.0
 40
0.0
 40
0.2499999999999999
 40
0.2499999999999999
 40
0.4999999999999998
 40
0.4999999999999998
 40
1.0
 40
1.0
 40
1.0
 40
1.0
 10
202.9760138980534
 20
169.7005134069491
 30
0.0
 10
202.9760138980534
 20
169.7005134069491
 30
0.0
 10
202.9920127030345
 20
169.7005134069491
 30
0.0
 10
203.0537828413489
 20
169.7005134069491
 30
0.0
 10
203.0995249656505
 20
169.7005134069491
 30
0.0
 10
203.2761951129973
 20
169.7005134069491
 30
0.0
 10
203.4464501784776
 20
169.7005134069491
 30
0.0
 10
203.6537353033136
 20
169.7005134069491
 30
0.0
  0
LINE
  5
208
330
1F
100
AcDbEntity
  8
0
  6
Continuous
 62
     7
370
    25
100
AcDbLine
 10
202.9760138981
 20
169.7005134069
 30
0.0
 11
202.9760138981
 21
165.4505134069
 31
0.0
  0
SPLINE
  5
209
330
1F
100
AcDbEntity
  8
0
  6
Continuous
 62
     7
370
    25
100
AcDbSpline
210
0.0
220
0.0
230
1.0
 70
     8
 71
     3
 72
     8
 73
     4
 74
     0
 42
0.00000001
 43
0.00000001
 40
0.0
 40
0.0
 40
0.0
 40
0.0
 40
1.0
 40
1.0
 40
1.0
 40
1.0
 10
220.9922499750326
 20
152.7005134069491
 30
0.0
 10
220.8185468988128
 20
153.0330248290846
 30
0.0
 10
220.6462446797501
 20
153.3663519289835
 30
0.0
 10
220.4760138980534
 20
153.7005134069491
 30
0.0
  0
SPLINE
  5
20A
330
1F
100
AcDbEntity
  8
0
  6
Continuous
 62
     7
370
    25
100
AcDbSpline
210
0.0
220
0.0
230
1.0
 70
     8
 71
     3
 72
    10
 73
     6
 74
     0
 42
0.00000001
 43
0.00000001
 40
0.0
 40
0.0
 40
0.0
 40
0.0
 40
0.5
 40
0.5
 40
1.0
 40
1.0
 40
1.0
 40
1.0
 10
221.1537353033136
 20
152.7005134069491
 30
0.0
 10
221.177410697738
 20
152.7005134069491
 30
0.0
 10
221.1905018076226
 20
152.7233058562789
 30
0.0
 10
221.1905881289109
 20
152.811248560372
 30
0.0
 10
221.1774191949671
 20
152.8761063340458
 30
0.0
 10
221.1537353033136
 20
152.950513406949
 30
0.0
  0
SPLINE
  5
20B
330
1F
100
AcDbEntity
  8
0
  6
Continuous
 62
     7
370
    25
100
AcDbSpline
210
0.0
220
0.0
230
1.0
 70
    24
 71
     3
 72
     8
 73
     4
 74
     0
 42
0.00000001
 43
0.00000001
 40
0.0
 40
0.0
 40
0.0
 40
0.0
 40
1.0
 40
1.0
 40
1.0
 40
1.0
 10
220.9922499750326
 20
152.7005134069491
 30
0.0
 10
221.0431462082877
 20
152.7005134069491
 30
0.0
 10
221.0970801632513
 20
152.7005134069491
 30
0.0
 10
221.1537353033136
 20
152.7005134069491
 30
0.0
  0
SPLINE
  5
20C
330
1F
100
AcDbEntity
  8
0
  6
Continuous
 62
     7
370
    25
100
AcDbSpline
210
0.0
220
0.0
230
1.0
 70
     8
 71
     3
 72
     8
 73
     4
 74
     0
 42
0.00000001
 43
0.00000001
 40
0.0
 40
0.0
 40
0.0
 40
0.0
 40
1.0
 40
1.0
 40
1.0
 40
1.0
 10
208.4760138980534
 20
153.7005134069491
 30
0.0
 10
208.3057362907096
 20
153.3662600106637
 30
0.0
 10
208.1334645420839
 20
153.0329935210947
 30
0.0
 10
207.9597778210743
 20
152.7005134069491
 30
0.0
  0
SPLINE
  5
20D
330
1F
100
AcDbEntity
  8
0
  6
Continuous
 62
     7
370
    25
100
AcDbSpline
210
0.0
220
0.0
230
1.0
 70
    24
 71
     3
 72
     8
 73
     4
 74
     0
 42
0.00000001
 43
0.00000001
 40
0.0
 40
0.0
 40
0.0
 40
0.0
 40
1.0
 40
1.0
 40
1.0
 40
1.0
 10
207.9597778210743
 20
152.7005134069491
 30
0.0
 10
207.9088791041517
 20
152.7005134069491
 30
0.0
 10
207.854944967901
 20
152.7005134069491
 30
0.0
 10
207.7982924927932
 20
152.7005134069491
 30
0.0
  0
SPLINE
  5
20E
330
1F
100
AcDbEntity
  8
0
  6
Continuous
 62
     7
370
    25
100
AcDbSpline
210
0.0
220
0.0
230
1.0
 70
     8
 71
     3
 72
    10
 73
     6
 74
     0
 42
0.00000001
 43
0.00000001
 40
0.0
 40
0.0
 40
0.0
 40
0.0
 40
0.5
 40
0.5
 40
1.0
 40
1.0
 40
1.0
 40
1.0
 10
207.7982924927932
 20
152.9505134069491
 30
0.0
 10
207.7746170983688
 20
152.8761330295718
 30
0.0
 10
207.7615259884842
 20
152.811832390786
 30
0.0
 10
207.7614396671959
 20
152.7236167060031
 30
0.0
 10
207.7746086011398
 20
152.7005134069491
 30
0.0
 10
207.7982924927932
 20
152.7005134069491
 30
0.0
  0
SPLINE
  5
20F
330
1F
100
AcDbEntity
  8
0
  6
Continuous
 62
     7
370
    25
100
AcDbSpline
210
0.0
220
0.0
230
1.0
 70
     8
 71
     3
 72
    10
 73
     6
 74
     0
 42
0.00000001
 43
0.00000001
 40
0.0
 40
0.0
 40
0.0
 40
0.0
 40
0.5
 40
0.5
 40
1.0
 40
1.0
 40
1.0
 40
1.0
 10
203.6537353033136
 20
152.9505134069491
 30
0.0
 10
203.6774075432252
 20
152.8761429400236
 30
0.0
 10
203.6905015331604
 20
152.8118373437357
 30
0.0
 10
203.6905884006219
 20
152.7236145559298
 30
0.0
 10
203.6774186108625
 20
152.7005134069491
 30
0.0
 10
203.6537353033136
 20
152.7005134069491
 30
0.0
  0
SPLINE
  5
210
330
1F
100
AcDbEntity
  8
0
  6
Continuous
 62
     7
370
    25
100
AcDbSpline
210
0.0
220
0.0
230
1.0
 70
    24
 71
     3
 72
    12
 73
     8
 74
     0
 42
0.00000001
 43
0.00000001
 40
0.0
 40
0.0
 40
0.0
 40
0.0
 40
0.2500000000000001
 40
0.2500000000000001
 40
0.5000000000000001
 40
0.5000000000000001
 40
1.0
 40
1.0
 40
1.0
 40
1.0
 10
202.9760138980534
 20
152.7005134069491
 30
0.0
 10
202.9760138980534
 20
152.7005134069491
 30
0.0
 10
202.9920127030345
 20
152.7005134069491
 30
0.0
 10
203.0537828413489
 20
152.7005134069491
 30
0.0
 10
203.0995249656505
 20
152.7005134069491
 30
0.0
 10
203.2761951129973
 20
152.7005134069491
 30
0.0
 10
203.4464501784776
 20
152.7005134069491
 30
0.0
 10
203.6537353033136
 20
152.7005134069491
 30
0.0
  0
LINE
  5
211
330
1F
100
AcDbEntity
  8
0
  6
Continuous
 62
     7
370
    25
100
AcDbLine
 10
202.9760138981
 20
152.7005134069
 30
0.0
 11
202.9760138981
 21
156.9505134069
 31
0.0
  0
LINE
  5
212
330
1F
100
AcDbEntity
  8
0
  6
Continuous
 62
     7
370
    25
100
AcDbLine
 10
221.1537353033
 20
169.7005134069
 30
0.0
 11
225.6539549255
 21
169.7005134069
 31
0.0
  0
LINE
  5
213
330
1F
100
AcDbEntity
  8
0
  6
Continuous
 62
     7
370
    25
100
AcDbLine
 10
203.6537353033
 20
169.7005134069
 30
0.0
 11
207.7982924928
 21
169.7005134069
 31
0.0
  0
LINE
  5
214
330
1F
100
AcDbEntity
  8
0
  6
Continuous
 62
     7
370
    25
100
AcDbLine
 10
225.6539549255
 20
152.7005134069
 30
0.0
 11
221.1537353033
 21
152.7005134069
 31
0.0
  0
LINE
  5
215
330
1F
100
AcDbEntity
  8
0
  6
Continuous
 62
     7
370
    25
100
AcDbLine
 10
207.7982924928
 20
152.7005134069
 30
0.0
 11
203.6537353033
 21
152.7005134069
 31
0.0
  0
LINE
  5
216
330
1F
100
AcDbEntity
  8
0
  6
Continuous
 62
     7
370
    25
100
AcDbLine
 10
220.992249975
 20
169.7005134069
 30
0.0
 11
207.9597778211
 21
169.7005134069
 31
0.0
  0
LINE
  5
217
330
1F
100
AcDbEntity
  8
0
  6
Continuous
 62
     7
370
    25
100
AcDbLine
 10
220.992249975
 20
152.7005134069
 30
0.0
 11
207.9597778211
 21
152.7005134069
 31
0.0
  0
SPLINE
  5
218
330
1F
100
AcDbEntity
  8
0
  6
Continuous
 62
     7
370
    25
100
AcDbSpline
210
0.0
220
0.0
230
1.0
 70
     8
 71
     3
 72
    15
 73
    11
 74
     0
 42
0.00000001
 43
0.00000001
 40
0.0
 40
0.0
 40
0.0
 40
0.0
 40
0.0090459071881971
 40
0.1032433785236816
 40
0.1542564497735189
 40
0.31331690267151
 40
0.5243720399414428
 40
0.6678060008509183
 40
0.9918332554187028
 40
1.0
 40
1.0
 40
1.0
 40
1.0
 10
209.2369285653953
 20
162.8744264504274
 30
0.0
 10
209.236934257362
 20
162.8744088047029
 30
0.0
 10
209.2369992213127
 20
162.8742074092903
 30
0.0
 10
209.2389949077486
 20
162.8680177886242
 30
0.0
 10
209.2468119039651
 20
162.84381585678
 30
0.0
 10
209.2639817277201
 20
162.7907968647783
 30
0.0
 10
209.2905656242876
 20
162.7094259775818
 30
0.0
 10
209.3283949227763
 20
162.5948469055593
 30
0.0
 10
209.3566757027865
 20
162.5104217278401
 30
0.0
 10
209.3765068503178
 20
162.4519508698882
 30
0.0
 10
209.3769943844606
 20
162.4505134069491
 30
0.0
  0
ARC
  5
219
330
1F
100
AcDbEntity
  8
0
  6
Continuous
 62
     7
370
    25
100
AcDbCircle
 10
214.4760138981
 20
161.2005134069
 30
0.0
 40
5.500000000000029
100
AcDbArc
 50
17.7189318734
 51
162.2810681266
  0
SPLINE
  5
21A
330
1F
100
AcDbEntity
  8
0
  6
Continuous
 62
     7
370
    25
100
AcDbSpline
210
0.0
220
0.0
230
1.0
 70
     8
 71
     3
 72
    15
 73
    11
 74
     0
 42
0.00000001
 43
0.00000001
 40
0.0
 40
0.0
 40
0.0
 40
0.0
 40
0.0081667445812973
 40
0.3321939991490804
 40
0.475627960058556
 40
0.6866830973284891
 40
0.8457435502264751
 40
0.8967566214763124
 40
0.9909540928118028
 40
1.0
 40
1.0
 40
1.0
 40
1.0
 10
219.5750334116462
 20
162.4505134069491
 30
0.0
 10
219.5755209457891
 20
162.4519508698882
 30
0.0
 10
219.5953520933203
 20
162.5104217278401
 30
0.0
 10
219.6236328733306
 20
162.5948469055593
 30
0.0
 10
219.6614621718192
 20
162.7094259775818
 30
0.0
 10
219.6880460683867
 20
162.7907968647783
 30
0.0
 10
219.7052158921417
 20
162.84381585678
 30
0.0
 10
219.7130328883582
 20
162.8680177886242
 30
0.0
 10
219.715028574794
 20
162.8742074092903
 30
0.0
 10
219.7150935387449
 20
162.8744088047029
 30
0.0
 10
219.7150992307115
 20
162.8744264504274
 30
0.0
  0
ARC
  5
21B
330
1F
100
AcDbEntity
  8
0
  6
Continuous
 62
     7
370
    25
100
AcDbCircle
 10
214.4760138981
 20
161.2005134069
 30
0.0
 40
5.250000000000009
100
AcDbArc
 50
13.774146998
 51
166.225853002
  0
SPLINE
  5
21C
330
1F
100
AcDbEntity
  8
0
  6
Continuous
 62
     7
370
    25
100
AcDbSpline
210
0.0
220
0.0
230
1.0
 70
     8
 71
     3
 72
    15
 73
    11
 74
     0
 42
0.00000001
 43
0.00000001
 40
0.0
 40
0.0
 40
0.0
 40
0.0
 40
0.0080847466189582
 40
0.3310106400648243
 40
0.4750333064304948
 40
0.6874363079215142
 40
0.8468367539418303
 40
0.9000996640391847
 40
0.9910442771984082
 40
1.0
 40
1.0
 40
1.0
 40
1.0
 10
209.3769943844606
 20
162.4505134069491
 30
0.0
 10
209.3757145529165
 20
162.4513293429374
 30
0.0
 10
209.3233149071932
 20
162.4847358931319
 30
0.0
 10
209.2479598157381
 20
162.5335494578657
 30
0.0
 10
209.1460407037205
 20
162.6009199301341
 30
0.0
 10
209.0736497587286
 20
162.6495039704775
 30
0.0
 10
209.0259443304638
 20
162.6819528319361
 30
0.0
 10
209.0044088467564
 20
162.6966638730023
 30
0.0
 10
208.9989798307369
 20
162.7003823239205
 30
0.0
 10
208.9988040785803
 20
162.700502622586
 30
0.0
 10
208.9987883230017
 20
162.7005134069491
 30
0.0
  0
ARC
  5
21D
330
1F
100
AcDbEntity
  8
0
  6
Continuous
 62
     7
370
    25
100
AcDbCircle
 10
208.998788323
 20
162.9505134069
 30
0.0
 40
0.25
100
AcDbArc
 50
270.0
 51
342.2810681266
  0
SPLINE
  5
21E
330
1F
100
AcDbEntity
  8
0
  6
Continuous
 62
     7
370
    25
100
AcDbSpline
210
0.0
220
0.0
230
1.0
 70
     8
 71
     3
 72
    15
 73
    11
 74
     0
 42
0.00000001
 43
0.00000001
 40
0.0
 40
0.0
 40
0.0
 40
0.0
 40
0.0089557228015919
 40
0.0999003359608209
 40
0.1531632460581751
 40
0.3125636920784904
 40
0.5249666935695061
 40
0.6689893599351777
 40
0.991915253381045
 40
1.0
 40
1.0
 40
1.0
 40
1.0
 10
219.9532394731051
 20
162.7005134069491
 30
0.0
 10
219.9532237175265
 20
162.700502622586
 30
0.0
 10
219.9530479653699
 20
162.7003823239205
 30
0.0
 10
219.9476189493504
 20
162.6966638730023
 30
0.0
 10
219.9260834656431
 20
162.6819528319361
 30
0.0
 10
219.8783780373782
 20
162.6495039704775
 30
0.0
 10
219.8059870923863
 20
162.6009199301341
 30
0.0
 10
219.7040679803686
 20
162.5335494578657
 30
0.0
 10
219.6287128889136
 20
162.4847358931318
 30
0.0
 10
219.5763132431903
 20
162.4513293429374
 30
0.0
 10
219.5750334116462
 20
162.4505134069491
 30
0.0
  0
ARC
  5
21F
330
1F
100
AcDbEntity
  8
0
  6
Continuous
 62
     7
370
    25
100
AcDbCircle
 10
219.9532394731
 20
162.9505134069
 30
0.0
 40
0.25
100
AcDbArc
 50
197.7189318734
 51
270.0
  0
ARC
  5
220
330
1F
100
AcDbEntity
  8
0
  6
Continuous
 62
     7
370
    25
100
AcDbCircle
 10
219.9532394731
 20
159.4505134069
 30
0.0
 40
0.25
100
AcDbArc
 50
90.0
 51
162.2810681266
  0
SPLINE
  5
221
330
1F
100
AcDbEntity
  8
0
  6
Continuous
 62
     7
370
    25
100
AcDbSpline
210
0.0
220
0.0
230
1.0
 70
     8
 71
     3
 72
    15
 73
    11
 74
     0
 42
0.00000001
 43
0.00000001
 40
0.0
 40
0.0
 40
0.0
 40
0.0
 40
0.0090459071881971
 40
0.1032433785236874
 40
0.1542564497735246
 40
0.313316902671511
 40
0.5243720399414428
 40
0.6678060008509903
 40
0.9918332554187292
 40
1.0
 40
1.0
 40
1.0
 40
1.0
 10
219.7150992307115
 20
159.5266003634709
 30
0.0
 10
219.7150935387449
 20
159.5266180091953
 30
0.0
 10
219.715028574794
 20
159.5268194046079
 30
0.0
 10
219.7130328883582
 20
159.5330090252741
 30
0.0
 10
219.7052158921417
 20
159.5572109571182
 30
0.0
 10
219.6880460683867
 20
159.6102299491199
 30
0.0
 10
219.6614621718193
 20
159.6916008363164
 30
0.0
 10
219.6236328733304
 20
159.8061799083389
 30
0.0
 10
219.5953520933211
 20
159.8906050860584
 30
0.0
 10
219.5755209457891
 20
159.9490759440101
 30
0.0
 10
219.5750334116462
 20
159.9505134069491
 30
0.0
  0
SPLINE
  5
222
330
1F
100
AcDbEntity
  8
0
  6
Continuous
 62
     7
370
    25
100
AcDbSpline
210
0.0
220
0.0
230
1.0
 70
     8
 71
     3
 72
    15
 73
    11
 74
     0
 42
0.00000001
 43
0.00000001
 40
0.0
 40
0.0
 40
0.0
 40
0.0
 40
0.0080847466189818
 40
0.3310106400647567
 40
0.4750333064304972
 40
0.6874363079215137
 40
0.8468367539418253
 40
0.9000996640391794
 40
0.9910442771984082
 40
1.0
 40
1.0
 40
1.0
 40
1.0
 10
219.5750334116462
 20
159.9505134069491
 30
0.0
 10
219.5763132431903
 20
159.9496974709608
 30
0.0
 10
219.6287128889141
 20
159.9162909207672
 30
0.0
 10
219.7040679803685
 20
159.8674773560323
 30
0.0
 10
219.8059870923863
 20
159.8001068837642
 30
0.0
 10
219.8783780373782
 20
159.7515228434207
 30
0.0
 10
219.9260834656431
 20
159.7190739819622
 30
0.0
 10
219.9476189493504
 20
159.7043629408959
 30
0.0
 10
219.9530479653699
 20
159.7006444899777
 30
0.0
 10
219.9532237175265
 20
159.7005241913122
 30
0.0
 10
219.9532394731051
 20
159.7005134069491
 30
0.0
  0
SPLINE
  5
223
330
1F
100
AcDbEntity
  8
0
  6
Continuous
 62
     7
370
    25
100
AcDbSpline
210
0.0
220
0.0
230
1.0
 70
     8
 71
     3
 72
    15
 73
    11
 74
     0
 42
0.00000001
 43
0.00000001
 40
0.0
 40
0.0
 40
0.0
 40
0.0
 40
0.0081667445812695
 40
0.3321939991490083
 40
0.4756279600585602
 40
0.6866830973284899
 40
0.8457435502264811
 40
0.8967566214763185
 40
0.9909540928118029
 40
1.0
 40
1.0
 40
1.0
 40
1.0
 10
209.3769943844606
 20
159.9505134069491
 30
0.0
 10
209.3765068503177
 20
159.9490759440101
 30
0.0
 10
209.3566757027857
 20
159.8906050860584
 30
0.0
 10
209.3283949227764
 20
159.8061799083389
 30
0.0
 10
209.2905656242876
 20
159.6916008363164
 30
0.0
 10
209.2639817277201
 20
159.6102299491199
 30
0.0
 10
209.2468119039651
 20
159.5572109571182
 30
0.0
 10
209.2389949077486
 20
159.5330090252741
 30
0.0
 10
209.2369992213127
 20
159.5268194046079
 30
0.0
 10
209.236934257362
 20
159.5266180091953
 30
0.0
 10
209.2369285653953
 20
159.5266003634709
 30
0.0
  0
ARC
  5
224
330
1F
100
AcDbEntity
  8
0
  6
Continuous
 62
     7
370
    25
100
AcDbCircle
 10
214.4760138981
 20
161.2005134069
 30
0.0
 40
5.250000000000009
100
AcDbArc
 50
193.774146998
 51
346.225853002
  0
ARC
  5
225
330
1F
100
AcDbEntity
  8
0
  6
Continuous
 62
     7
370
    25
100
AcDbCircle
 10
214.4760138981
 20
161.2005134069
 30
0.0
 40
5.50000000000002
100
AcDbArc
 50
197.7189318734
 51
342.2810681266
  0
ARC
  5
226
330
1F
100
AcDbEntity
  8
0
  6
Continuous
 62
     7
370
    25
100
AcDbCircle
 10
208.998788323
 20
159.4505134069
 30
0.0
 40
0.25
100
AcDbArc
 50
17.7189318734
 51
90.0
  0
SPLINE
  5
227
330
1F
100
AcDbEntity
  8
0
  6
Continuous
 62
     7
370
    25
100
AcDbSpline
210
0.0
220
0.0
230
1.0
 70
     8
 71
     3
 72
    15
 73
    11
 74
     0
 42
0.00000001
 43
0.00000001
 40
0.0
 40
0.0
 40
0.0
 40
0.0
 40
0.0089557228015919
 40
0.0999003359608148
 40
0.153163246058169
 40
0.3125636920784848
 40
0.5249666935694999
 40
0.6689893599352451
 40
0.9919152533810159
 40
1.0
 40
1.0
 40
1.0
 40
1.0
 10
208.9987883230017
 20
159.7005134069491
 30
0.0
 10
208.9988040785803
 20
159.7005241913122
 30
0.0
 10
208.9989798307369
 20
159.7006444899778
 30
0.0
 10
209.0044088467564
 20
159.7043629408959
 30
0.0
 10
209.0259443304638
 20
159.7190739819622
 30
0.0
 10
209.0736497587286
 20
159.7515228434207
 30
0.0
 10
209.1460407037205
 20
159.8001068837642
 30
0.0
 10
209.2479598157383
 20
159.8674773560323
 30
0.0
 10
209.3233149071927
 20
159.9162909207671
 30
0.0
 10
209.3757145529165
 20
159.9496974709608
 30
0.0
 10
209.3769943844606
 20
159.9505134069491
 30
0.0
  0
LINE
  5
228
330
1F
100
AcDbEntity
  8
0
  6
Continuous
 62
     7
370
    25
100
AcDbLine
 10
209.4760138981
 20
160.6005134069
 30
0.0
 11
219.4760138981
 21
160.6005134069
 31
0.0
  0
LINE
  5
229
330
1F
100
AcDbEntity
  8
0
  6
Continuous
 62
     7
370
    25
100
AcDbLine
 10
209.4760138981
 20
161.8005134069
 30
0.0
 11
209.4760138981
 21
160.6005134069
 31
0.0
  0
LINE
  5
22A
330
1F
100
AcDbEntity
  8
0
  6
Continuous
 62
     7
370
    25
100
AcDbLine
 10
219.4760138981
 20
161.8005134069
 30
0.0
 11
209.4760138981
 21
161.8005134069
 31
0.0
  0
LINE
  5
22B
330
1F
100
AcDbEntity
  8
0
  6
Continuous
 62
     7
370
    25
100
AcDbLine
 10
219.4760138981
 20
160.6005134069
 30
0.0
 11
219.4760138981
 21
161.8005134069
 31
0.0
  0
LINE
  5
22C
330
1F
100
AcDbEntity
  8
0
  6
Continuous
 62
     7
370
    25
100
AcDbLine
 10
208.7260138981
 20
159.9505134069
 30
0.0
 11
209.3769943845
 21
159.9505134069
 31
0.0
  0
LINE
  5
22D
330
1F
100
AcDbEntity
  8
0
  6
Continuous
 62
     7
370
    25
100
AcDbLine
 10
208.7260138981
 20
162.4505134069
 30
0.0
 11
208.7260138981
 21
159.9505134069
 31
0.0
  0
LINE
  5
22E
330
1F
100
AcDbEntity
  8
0
  6
Continuous
 62
     7
370
    25
100
AcDbLine
 10
209.3769943845
 20
162.4505134069
 30
0.0
 11
208.7260138981
 21
162.4505134069
 31
0.0
  0
LINE
  5
22F
330
1F
100
AcDbEntity
  8
0
  6
Continuous
 62
     7
370
    25
100
AcDbLine
 10
220.2260138981
 20
162.4505134069
 30
0.0
 11
219.5750334116
 21
162.4505134069
 31
0.0
  0
LINE
  5
230
330
1F
100
AcDbEntity
  8
0
  6
Continuous
 62
     7
370
    25
100
AcDbLine
 10
220.2260138981
 20
159.9505134069
 30
0.0
 11
220.2260138981
 21
162.4505134069
 31
0.0
  0
LINE
  5
231
330
1F
100
AcDbEntity
  8
0
  6
Continuous
 62
     7
370
    25
100
AcDbLine
 10
219.5750334116
 20
159.9505134069
 30
0.0
 11
220.2260138981
 21
159.9505134069
 31
0.0
  0
LINE
  5
232
330
1F
100
AcDbEntity
  8
0
  6
Continuous
 62
     7
370
    25
100
AcDbLine
 10
220.4760138981
 20
162.4505134069
 30
0.0
 11
220.2260138981
 21
162.4505134069
 31
0.0
  0
LINE
  5
233
330
1F
100
AcDbEntity
  8
0
  6
Continuous
 62
     7
370
    25
100
AcDbLine
 10
220.2260138981
 20
162.4505134069
 30
0.0
 11
220.2260138981
 21
162.7005134069
 31
0.0
  0
ARC
  5
234
330
1F
100
AcDbEntity
  8
0
  6
Continuous
 62
     7
370
    25
100
AcDbCircle
 10
220.2260138981
 20
162.4505134069
 30
0.0
 40
0.25
100
AcDbArc
 50
0.0
 51
90.0
  0
LINE
  5
235
330
1F
100
AcDbEntity
  8
0
  6
Continuous
 62
     7
370
    25
100
AcDbLine
 10
219.9532394731
 20
162.7005134069
 30
0.0
 11
220.2260138981
 21
162.7005134069
 31
0.0
  0
ARC
  5
236
330
1F
100
AcDbEntity
  8
0
  6
Continuous
 62
     7
370
    25
100
AcDbCircle
 10
208.7260138981
 20
162.4505134069
 30
0.0
 40
0.25
100
AcDbArc
 50
90.0
 51
180.0
  0
LINE
  5
237
330
1F
100
AcDbEntity
  8
0
  6
Continuous
 62
     7
370
    25
100
AcDbLine
 10
208.7260138981
 20
162.7005134069
 30
0.0
 11
208.7260138981
 21
162.4505134069
 31
0.0
  0
LINE
  5
238
330
1F
100
AcDbEntity
  8
0
  6
Continuous
 62
     7
370
    25
100
AcDbLine
 10
208.7260138981
 20
162.4505134069
 30
0.0
 11
208.4760138981
 21
162.4505134069
 31
0.0
  0
LINE
  5
239
330
1F
100
AcDbEntity
  8
0
  6
Continuous
 62
     7
370
    25
100
AcDbLine
 10
208.7260138981
 20
162.7005134069
 30
0.0
 11
208.998788323
 21
162.7005134069
 31
0.0
  0
LINE
  5
23A
330
1F
100
AcDbEntity
  8
0
  6
Continuous
 62
     7
370
    25
100
AcDbLine
 10
220.4760138981
 20
162.4505134069
 30
0.0
 11
220.4760138981
 21
159.9505134069
 31
0.0
  0
LINE
  5
23B
330
1F
100
AcDbEntity
  8
0
  6
Continuous
 62
     7
370
    25
100
AcDbLine
 10
220.2260138981
 20
159.9505134069
 30
0.0
 11
220.4760138981
 21
159.9505134069
 31
0.0
  0
LINE
  5
23C
330
1F
100
AcDbEntity
  8
0
  6
Continuous
 62
     7
370
    25
100
AcDbLine
 10
208.4760138981
 20
159.9505134069
 30
0.0
 11
208.7260138981
 21
159.9505134069
 31
0.0
  0
LINE
  5
23D
330
1F
100
AcDbEntity
  8
0
  6
Continuous
 62
     7
370
    25
100
AcDbLine
 10
208.4760138981
 20
159.9505134069
 30
0.0
 11
208.4760138981
 21
162.4505134069
 31
0.0
  0
LINE
  5
23E
330
1F
100
AcDbEntity
  8
0
  6
Continuous
 62
     7
370
    25
100
AcDbLine
 10
220.2260138981
 20
159.7005134069
 30
0.0
 11
220.2260138981
 21
159.9505134069
 31
0.0
  0
ARC
  5
23F
330
1F
100
AcDbEntity
  8
0
  6
Continuous
 62
     7
370
    25
100
AcDbCircle
 10
220.2260138981
 20
159.9505134069
 30
0.0
 40
0.25
100
AcDbArc
 50
270.0
 51
0.0
  0
LINE
  5
240
330
1F
100
AcDbEntity
  8
0
  6
Continuous
 62
     7
370
    25
100
AcDbLine
 10
208.7260138981
 20
159.9505134069
 30
0.0
 11
208.7260138981
 21
159.7005134069
 31
0.0
  0
LINE
  5
241
330
1F
100
AcDbEntity
  8
0
  6
Continuous
 62
     7
370
    25
100
AcDbLine
 10
208.998788323
 20
159.7005134069
 30
0.0
 11
208.7260138981
 21
159.7005134069
 31
0.0
  0
LINE
  5
242
330
1F
100
AcDbEntity
  8
0
  6
Continuous
 62
     7
370
    25
100
AcDbLine
 10
220.2260138981
 20
159.7005134069
 30
0.0
 11
219.9532394731
 21
159.7005134069
 31
0.0
  0
ARC
  5
243
330
1F
100
AcDbEntity
  8
0
  6
Continuous
 62
     7
370
    25
100
AcDbCircle
 10
208.7260138981
 20
159.9505134069
 30
0.0
 40
0.25
100
AcDbArc
 50
180.0
 51
270.0
  0
LINE
  5
244
330
1F
100
AcDbEntity
  8
0
  6
Continuous
 62
     7
370
    25
100
AcDbLine
 10
234.4760138981
 20
157.9288141429
 30
0.0
 11
236.6514507596
 21
157.7005134069
 31
0.0
  0
LINE
  5
245
330
1F
100
AcDbEntity
  8
0
  6
Continuous
 62
     7
370
    25
100
AcDbLine
 10
234.4760138981
 20
164.472212671
 30
0.0
 11
234.4760138981
 21
157.9288141429
 31
0.0
  0
LINE
  5
246
330
1F
100
AcDbEntity
  8
0
  6
Continuous
 62
     7
370
    25
100
AcDbLine
 10
236.6514507596
 20
164.7005134069
 30
0.0
 11
234.4760138981
 21
164.472212671
 31
0.0
  0
LINE
  5
247
330
1F
100
AcDbEntity
  8
0
  6
Continuous
 62
     7
370
    25
100
AcDbLine
 10
254.4760138981
 20
157.7005134069
 30
0.0
 11
254.4760138981
 21
164.7005134069
 31
0.0
  0
LINE
  5
248
330
1F
100
AcDbEntity
  8
0
  6
Continuous
 62
     7
370
    25
100
AcDbLine
 10
236.6514507596
 20
157.7005134069
 30
0.0
 11
254.4760138981
 21
157.7005134069
 31
0.0
  0
LINE
  5
249
330
1F
100
AcDbEntity
  8
0
  6
Continuous
 62
     7
370
    25
100
AcDbLine
 10
254.4760138981
 20
164.7005134069
 30
0.0
 11
236.6514507596
 21
164.7005134069
 31
0.0
  0
LINE
  5
24A
330
1F
100
AcDbEntity
  8
0
  6
Continuous
 62
     7
370
    25
100
AcDbLine
 10
219.6998160724
 20
159.4794989261
 30
0.0
 11
219.8282251111
 21
159.6636405596
 31
0.0
  0
LINE
  5
24B
330
1F
100
AcDbEntity
  8
0
  6
Continuous
 62
     7
370
    25
100
AcDbLine
 10
219.8186577703
 20
162.7457310743
 30
0.0
 11
219.6998160724
 21
162.9215278878
 31
0.0
  0
LINE
  5
24C
330
1F
100
AcDbEntity
  8
0
  6
Continuous
 62
     7
370
    25
100
AcDbLine
 10
227.8925835517
 20
158.6197107714
 30
0.0
 11
227.8925835517
 21
163.7813160425
 31
0.0
  0
LINE
  5
24D
330
1F
100
AcDbEntity
  8
0
  6
Continuous
 62
     7
370
    25
100
AcDbLine
 10
227.8925835517
 20
158.6197107714
 30
0.0
 11
219.6998160724
 21
159.4794989261
 31
0.0
  0
LINE
  5
24E
330
1F
100
AcDbEntity
  8
0
  6
Continuous
 62
     7
370
    25
100
AcDbLine
 10
219.6998160724
 20
162.9215278878
 30
0.0
 11
227.8925835517
 21
163.7813160425
 31
0.0
  0
LINE
  5
24F
330
1F
100
AcDbEntity
  8
0
  6
Continuous
 62
     7
370
    25
100
AcDbLine
 10
234.4760138981
 20
157.9288141429
 30
0.0
 11
227.8925835517
 21
158.6197107714
 31
0.0
  0
LINE
  5
250
330
1F
100
AcDbEntity
  8
0
  6
Continuous
 62
     7
370
    25
100
AcDbLine
 10
227.8925835517
 20
163.7813160425
 30
0.0
 11
234.4760138981
 21
164.472212671
 31
0.0
  0
ARC
  5
251
330
1F
100
AcDbEntity
  8
0
  6
Continuous
 62
     7
370
    25
100
AcDbCircle
 10
214.4760138981
 20
161.2005134069
 30
0.0
 40
7.45000000000065
100
AcDbArc
 50
53.0863788866
 51
306.9136211134
  0
ARC
  5
252
330
1F
100
AcDbEntity
  8
0
  6
Continuous
 62
     7
370
    25
100
AcDbCircle
 10
214.4760138981
 20
161.2005134069
 30
0.0
 40
7.207531252870806
100
AcDbArc
 50
15.3041237151
 51
58.9797515565
  0
ARC
  5
253
330
1F
100
AcDbEntity
  8
0
  6
Continuous
 62
     7
370
    25
100
AcDbCircle
 10
214.4760138981
 20
161.2005134069
 30
0.0
 40
7.207531252872461
100
AcDbArc
 50
301.0202484435
 51
344.6958762849
  0
ARC
  5
254
330
1F
100
AcDbEntity
  8
0
  6
Continuous
 62
     7
370
    25
100
AcDbCircle
 10
236.6514507596
 20
229.7005134069
 30
0.0
 40
65.0
100
AcDbArc
 50
253.4999050078
 51
270.0
  0
ARC
  5
255
330
1F
100
AcDbEntity
  8
0
  6
Continuous
 62
     7
370
    25
100
AcDbCircle
 10
236.6514507596
 20
92.7005134069
 30
0.0
 40
65.00000000000001
100
AcDbArc
 50
90.0
 51
106.5000949923
  0
LINE
  5
256
330
1F
100
AcDbEntity
  8
0
  6
Continuous
 62
     7
370
    25
100
AcDbLine
 10
207.0302097105
 20
160.9505134069
 30
0.0
 11
203.6537353033
 21
160.9505134069
 31
0.0
  0
LINE
  5
257
330
1F
100
AcDbEntity
  8
0
  6
Continuous
 62
     7
370
    25
100
AcDbLine
 10
203.6537353033
 20
161.4505134069
 30
0.0
 11
207.0302097105
 21
161.4505134069
 31
0.0
  0
INSERT
  5
263
330
1F
100
AcDbEntity
  8
FORMAT
100
AcDbBlockReference
  2
SW_CENTERMARKSYMBOL_1
 10
214.4760138981
 20
161.2005134069
 30
0.0
  0
LINE
  5
264
330
1F
100
AcDbEntity
  8
FORMAT
100
AcDbLine
 10
190.1200138981
 20
168.6755134069
 30
0.0
 11
199.9760138981
 21
168.6755134069
 31
0.0
  0
LINE
  5
265
330
1F
100
AcDbEntity
  8
FORMAT
100
AcDbLine
 10
190.1200138981
 20
153.7255134069
 30
0.0
 11
199.9760138981
 21
153.7255134069
 31
0.0
  0
LINE
  5
266
330
1F
100
AcDbEntity
  8
FORMAT
100
AcDbLine
 10
199.9760138981
 20
152.8695134069
 30
0.0
 11
199.9760138981
 21
169.5315134069
 31
0.0
  0
ENDSEC
  0
SECTION
  2
OBJECTS
  0
DICTIONARY
  5
C
330
0
100
AcDbDictionary
281
     1
  3
ACAD_GROUP
350
D
  3
ACAD_LAYOUT
350
1A
  3
ACAD_MLINESTYLE
350
17
  3
ACAD_PLOTSETTINGS
350
19
  3
ACAD_PLOTSTYLENAME
350
E
  3
ACAD_SCALELIST
350
47
  3
DWGPROPS
350
267
  0
DICTIONARY
  5
D
102
{ACAD_REACTORS
330
C
102
}
330
C
100
AcDbDictionary
281
     1
  0
DICTIONARY
  5
1A
102
{ACAD_REACTORS
330
C
102
}
330
C
100
AcDbDictionary
281
     1
  3
Layout1
350
1E
  3
Layout2
350
26
  3
Model
350
22
  0
DICTIONARY
  5
17
102
{ACAD_REACTORS
330
C
102
}
330
C
100
AcDbDictionary
281
     1
  3
Standard
350
18
  0
DICTIONARY
  5
19
102
{ACAD_REACTORS
330
C
102
}
330
C
100
AcDbDictionary
281
     1
  0
ACDBDICTIONARYWDFLT
  5
E
102
{ACAD_REACTORS
330
C
102
}
330
C
100
AcDbDictionary
281
     1
  3
Normal
350
F
100
AcDbDictionaryWithDefault
340
F
  0
DICTIONARY
  5
47
102
{ACAD_REACTORS
330
C
102
}
330
C
100
AcDbDictionary
281
     1
  3
A0
350
48
  3
A1
350
49
  3
A2
350
4A
  3
A3
350
4B
  3
A4
350
4C
  3
A5
350
4D
  3
A6
350
4E
  3
A7
350
4F
  3
A8
350
50
  3
A9
350
51
  3
B0
350
52
  3
B1
350
53
  3
B2
350
54
  3
B3
350
55
  3
B4
350
56
  3
B5
350
57
  3
B6
350
58
  0
XRECORD
  5
267
102
{ACAD_REACTORS
330
C
102
}
330
C
100
AcDbXrecord
280
     1
  1
DWGPROPS COOKIE
  2

  3

  4

  6

  7

  8
user28
  9

300
=
301
=
302
=
303
=
304
=
305
=
306
=
307
=
308
=
309
=
 40
0.0
 41
2460305.200481759
 42
2460305.200482465
  1

 90
        0
  0
LAYOUT
  5
1E
102
{ACAD_REACTORS
330
1A
102
}
330
1A
100
AcDbPlotSettings
  1

  2
none_device
  4

  6

 40
0.0
 41
0.0
 42
0.0
 43
0.0
 44
0.0
 45
0.0
 46
0.0
 47
0.0
 48
0.0
 49
0.0
140
0.0
141
0.0
142
1.0
143
1.0
 70
   688
 72
     1
 73
     0
 74
     5
  7

 75
    16
147
1.0
148
0.0
149
0.0
100
AcDbLayout
  1
Layout1
 70
     1
 71
     1
 10
0.0
 20
0.0
 11
420.0
 21
297.0
 12
0.0
 22
0.0
 32
0.0
 14
1.0000000000E+20
 24
1.0000000000E+20
 34
1.0000000000E+20
 15
-1.0000000000E+20
 25
-1.0000000000E+20
 35
-1.0000000000E+20
146
0.0
 13
0.0
 23
0.0
 33
0.0
 16
1.0
 26
0.0
 36
0.0
 17
0.0
 27
1.0
 37
0.0
 76
     0
330
1B
  0
LAYOUT
  5
26
102
{ACAD_REACTORS
330
1A
102
}
330
1A
100
AcDbPlotSettings
  1

  2
none_device
  4

  6

 40
0.0
 41
0.0
 42
0.0
 43
0.0
 44
0.0
 45
0.0
 46
0.0
 47
0.0
 48
0.0
 49
0.0
140
0.0
141
0.0
142
1.0
143
1.0
 70
   688
 72
     1
 73
     0
 74
     5
  7

 75
    16
147
1.0
148
0.0
149
0.0
100
AcDbLayout
  1
Layout2
 70
     1
 71
     2
 10
0.0
 20
0.0
 11
0.0
 21
0.0
 12
0.0
 22
0.0
 32
0.0
 14
0.0
 24
0.0
 34
0.0
 15
0.0
 25
0.0
 35
0.0
146
0.0
 13
0.0
 23
0.0
 33
0.0
 16
1.0
 26
0.0
 36
0.0
 17
0.0
 27
1.0
 37
0.0
 76
     0
330
23
  0
LAYOUT
  5
22
102
{ACAD_REACTORS
330
1A
102
}
330
1A
100
AcDbPlotSettings
  1

  2
none_device
  4
Letter_(8.50_x_11.00_Inches)
  6

 40
6.35
 41
6.35
 42
6.35000508
 43
6.35000508
 44
215.9
 45
279.4
 46
0.0
 47
0.0
 48
0.0
 49
0.0
140
0.0
141
0.0
142
1.0
143
1.0
 70
  1712
 72
     1
 73
     0
 74
     0
  7

 75
     0
147
1.0
148
0.0
149
0.0
100
AcDbLayout
  1
Model
 70
     1
 71
     0
 10
0.0
 20
0.0
 11
594.0
 21
420.0
 12
0.0
 22
0.0
 32
0.0
 14
0.0
 24
0.0
 34
0.0
 15
594.0
 25
420.0
 35
0.0
146
0.0
 13
0.0
 23
0.0
 33
0.0
 16
1.0
 26
0.0
 36
0.0
 17
0.0
 27
1.0
 37
0.0
 76
     0
330
1F
331
29
  0
MLINESTYLE
  5
18
102
{ACAD_REACTORS
330
17
102
}
330
17
100
AcDbMlineStyle
  2
Standard
 70
     0
  3

 62
   256
 51
90.0
 52
90.0
 71
     2
 49
0.5
 62
   256
  6
BYLAYER
 49
-0.5
 62
   256
  6
BYLAYER
  0
ACDBPLACEHOLDER
  5
F
102
{ACAD_REACTORS
330
E
102
}
330
E
  0
SCALE
  5
48
102
{ACAD_REACTORS
330
47
102
}
330
47
100
AcDbScale
 70
     0
300
1:1
140
1.0
141
1.0
290
     1
  0
SCALE
  5
49
102
{ACAD_REACTORS
330
47
102
}
330
47
100
AcDbScale
 70
     0
300
1:2
140
1.0
141
2.0
290
     0
  0
SCALE
  5
4A
102
{ACAD_REACTORS
330
47
102
}
330
47
100
AcDbScale
 70
     0
300
1:4
140
1.0
141
4.0
290
     0
  0
SCALE
  5
4B
102
{ACAD_REACTORS
330
47
102
}
330
47
100
AcDbScale
 70
     0
300
1:5
140
1.0
141
5.0
290
     0
  0
SCALE
  5
4C
102
{ACAD_REACTORS
330
47
102
}
330
47
100
AcDbScale
 70
     0
300
1:8
140
1.0
141
8.0
290
     0
  0
SCALE
  5
4D
102
{ACAD_REACTORS
330
47
102
}
330
47
100
AcDbScale
 70
     0
300
1:10
140
1.0
141
10.0
290
     0
  0
SCALE
  5
4E
102
{ACAD_REACTORS
330
47
102
}
330
47
100
AcDbScale
 70
     0
300
1:16
140
1.0
141
16.0
290
     0
  0
SCALE
  5
4F
102
{ACAD_REACTORS
330
47
102
}
330
47
100
AcDbScale
 70
     0
300
1:20
140
1.0
141
20.0
290
     0
  0
SCALE
  5
50
102
{ACAD_REACTORS
330
47
102
}
330
47
100
AcDbScale
 70
     0
300
1:30
140
1.0
141
30.0
290
     0
  0
SCALE
  5
51
102
{ACAD_REACTORS
330
47
102
}
330
47
100
AcDbScale
 70
     0
300
1:40
140
1.0
141
40.0
290
     0
  0
SCALE
  5
52
102
{ACAD_REACTORS
330
47
102
}
330
47
100
AcDbScale
 70
     0
300
1:50
140
1.0
141
50.0
290
     0
  0
SCALE
  5
53
102
{ACAD_REACTORS
330
47
102
}
330
47
100
AcDbScale
 70
     0
300
1:100
140
1.0
141
100.0
290
     0
  0
SCALE
  5
54
102
{ACAD_REACTORS
330
47
102
}
330
47
100
AcDbScale
 70
     0
300
2:1
140
2.0
141
1.0
290
     0
  0
SCALE
  5
55
102
{ACAD_REACTORS
330
47
102
}
330
47
100
AcDbScale
 70
     0
300
4:1
140
4.0
141
1.0
290
     0
  0
SCALE
  5
56
102
{ACAD_REACTORS
330
47
102
}
330
47
100
AcDbScale
 70
     0
300
8:1
140
8.0
141
1.0
290
     0
  0
SCALE
  5
57
102
{ACAD_REACTORS
330
47
102
}
330
47
100
AcDbScale
 70
     0
300
10:1
140
10.0
141
1.0
290
     0
  0
SCALE
  5
58
102
{ACAD_REACTORS
330
47
102
}
330
47
100
AcDbScale
 70
     0
300
100:1
140
100.0
141
1.0
290
     0
  0
ENDSEC
  0
EOF
